  0
SECTION
  2
HEADER
  9
$ACADVER
  1
AC1015
  9
$ACADMAINTVER
 70
    20
  9
$DWGCODEPAGE
  3
ANSI_1252
  9
$INSBASE
 10
0.0
 20
0.0
 30
0.0
  9
$EXTMIN
 10
-2.317927209297353
 20
-0.1894332808641491
 30
0.0
  9
$EXTMAX
 10
2.680282632712225
 20
0.5647559347186421
 30
0.0
  9
$LIMMIN
 10
0.0
 20
0.0
  9
$LIMMAX
 10
420.0
 20
297.0
  9
$ORTHOMODE
 70
     1
  9
$REGENMODE
 70
     1
  9
$FILLMODE
 70
     1
  9
$QTEXTMODE
 70
     0
  9
$MIRRTEXT
 70
     1
  9
$LTSCALE
 40
1.0
  9
$ATTMODE
 70
     1
  9
$TEXTSIZE
 40
2.5
  9
$TRACEWID
 40
1.0
  9
$TEXTSTYLE
  7
Standard
  9
$CLAYER
  8
BLOCKS
  9
$CELTYPE
  6
ByLayer
  9
$CECOLOR
 62
   256
  9
$CELTSCALE
 40
1.0
  9
$DISPSILH
 70
     0
  9
$DIMSCALE
 40
10.0
  9
$DIMASZ
 40
1.0
  9
$DIMEXO
 40
1.0
  9
$DIMDLI
 40
1.0
  9
$DIMRND
 40
0.0
  9
$DIMDLE
 40
0.0
  9
$DIMEXE
 40
1.0
  9
$DIMTP
 40
0.0
  9
$DIMTM
 40
0.0
  9
$DIMTXT
 40
2.0
  9
$DIMCEN
 40
0.0
  9
$DIMTSZ
 40
0.0
  9
$DIMTOL
 70
     0
  9
$DIMLIM
 70
     0
  9
$DIMTIH
 70
     0
  9
$DIMTOH
 70
     0
  9
$DIMSE1
 70
     0
  9
$DIMSE2
 70
     0
  9
$DIMTAD
 70
     1
  9
$DIMZIN
 70
     8
  9
$DIMBLK
  1

  9
$DIMASO
 70
     1
  9
$DIMSHO
 70
     1
  9
$DIMPOST
  1

  9
$DIMAPOST
  1

  9
$DIMALT
 70
     0
  9
$DIMALTD
 70
     3
  9
$DIMALTF
 40
0.03937007874016
  9
$DIMLFAC
 40
1.0
  9
$DIMTOFL
 70
     1
  9
$DIMTVP
 40
0.0
  9
$DIMTIX
 70
     0
  9
$DIMSOXD
 70
     0
  9
$DIMSAH
 70
     0
  9
$DIMBLK1
  1

  9
$DIMBLK2
  1

  9
$DIMSTYLE
  2
SANINDUSA
  9
$DIMCLRD
 70
   256
  9
$DIMCLRE
 70
   256
  9
$DIMCLRT
 70
   256
  9
$DIMTFAC
 40
1.0
  9
$DIMGAP
 40
0.5
  9
$DIMJUST
 70
     0
  9
$DIMSD1
 70
     0
  9
$DIMSD2
 70
     0
  9
$DIMTOLJ
 70
     0
  9
$DIMTZIN
 70
     8
  9
$DIMALTZ
 70
     0
  9
$DIMALTTZ
 70
     0
  9
$DIMUPT
 70
     0
  9
$DIMDEC
 70
     0
  9
$DIMTDEC
 70
     0
  9
$DIMALTU
 70
     2
  9
$DIMALTTD
 70
     3
  9
$DIMTXSTY
  7
SANINDUSA
  9
$DIMAUNIT
 70
     0
  9
$DIMADEC
 70
     1
  9
$DIMALTRND
 40
0.0
  9
$DIMAZIN
 70
     0
  9
$DIMDSEP
 70
    44
  9
$DIMATFIT
 70
     3
  9
$DIMFRAC
 70
     0
  9
$DIMLDRBLK
  1

  9
$DIMLUNIT
 70
     2
  9
$DIMLWD
 70
    -1
  9
$DIMLWE
 70
    -1
  9
$DIMTMOVE
 70
     0
  9
$LUNITS
 70
     2
  9
$LUPREC
 70
     4
  9
$SKETCHINC
 40
1.0
  9
$FILLETRAD
 40
0.0
  9
$AUNITS
 70
     0
  9
$AUPREC
 70
     0
  9
$MENU
  1
.
  9
$ELEVATION
 40
0.0
  9
$PELEVATION
 40
0.0
  9
$THICKNESS
 40
0.0
  9
$LIMCHECK
 70
     0
  9
$CHAMFERA
 40
10.0
  9
$CHAMFERB
 40
10.0
  9
$CHAMFERC
 40
20.0
  9
$CHAMFERD
 40
0.0
  9
$SKPOLY
 70
     0
  9
$TDCREATE
 40
2452899.634786239
  9
$TDUCREATE
 40
2452899.593119572
  9
$TDUPDATE
 40
2456142.677859872
  9
$TDUUPDATE
 40
2456142.636193206
  9
$TDINDWG
 40
0.0956252431
  9
$TDUSRTIMER
 40
0.0956252431
  9
$USRTIMER
 70
     1
  9
$ANGBASE
 50
0.0
  9
$ANGDIR
 70
     0
  9
$PDMODE
 70
     3
  9
$PDSIZE
 40
0.0
  9
$PLINEWID
 40
0.0
  9
$SPLFRAME
 70
     0
  9
$SPLINETYPE
 70
     6
  9
$SPLINESEGS
 70
     8
  9
$HANDSEED
  5
5EE
  9
$SURFTAB1
 70
     6
  9
$SURFTAB2
 70
     6
  9
$SURFTYPE
 70
     6
  9
$SURFU
 70
     6
  9
$SURFV
 70
     6
  9
$UCSBASE
  2

  9
$UCSNAME
  2

  9
$UCSORG
 10
0.0
 20
0.0
 30
0.0
  9
$UCSXDIR
 10
1.0
 20
0.0
 30
0.0
  9
$UCSYDIR
 10
0.0
 20
1.0
 30
0.0
  9
$UCSORTHOREF
  2

  9
$UCSORTHOVIEW
 70
     0
  9
$UCSORGTOP
 10
0.0
 20
0.0
 30
0.0
  9
$UCSORGBOTTOM
 10
0.0
 20
0.0
 30
0.0
  9
$UCSORGLEFT
 10
0.0
 20
0.0
 30
0.0
  9
$UCSORGRIGHT
 10
0.0
 20
0.0
 30
0.0
  9
$UCSORGFRONT
 10
0.0
 20
0.0
 30
0.0
  9
$UCSORGBACK
 10
0.0
 20
0.0
 30
0.0
  9
$PUCSBASE
  2

  9
$PUCSNAME
  2

  9
$PUCSORG
 10
0.0
 20
0.0
 30
0.0
  9
$PUCSXDIR
 10
1.0
 20
0.0
 30
0.0
  9
$PUCSYDIR
 10
0.0
 20
1.0
 30
0.0
  9
$PUCSORTHOREF
  2

  9
$PUCSORTHOVIEW
 70
     0
  9
$PUCSORGTOP
 10
0.0
 20
0.0
 30
0.0
  9
$PUCSORGBOTTOM
 10
0.0
 20
0.0
 30
0.0
  9
$PUCSORGLEFT
 10
0.0
 20
0.0
 30
0.0
  9
$PUCSORGRIGHT
 10
0.0
 20
0.0
 30
0.0
  9
$PUCSORGFRONT
 10
0.0
 20
0.0
 30
0.0
  9
$PUCSORGBACK
 10
0.0
 20
0.0
 30
0.0
  9
$USERI1
 70
     0
  9
$USERI2
 70
     0
  9
$USERI3
 70
     0
  9
$USERI4
 70
     0
  9
$USERI5
 70
     0
  9
$USERR1
 40
0.0
  9
$USERR2
 40
0.0
  9
$USERR3
 40
0.0
  9
$USERR4
 40
0.0
  9
$USERR5
 40
0.0
  9
$WORLDVIEW
 70
     1
  9
$SHADEDGE
 70
     3
  9
$SHADEDIF
 70
    70
  9
$TILEMODE
 70
     1
  9
$MAXACTVP
 70
    64
  9
$PINSBASE
 10
0.0
 20
0.0
 30
0.0
  9
$PLIMCHECK
 70
     0
  9
$PEXTMIN
 10
1.000000000000000E+20
 20
1.000000000000000E+20
 30
1.000000000000000E+20
  9
$PEXTMAX
 10
-1.000000000000000E+20
 20
-1.000000000000000E+20
 30
-1.000000000000000E+20
  9
$PLIMMIN
 10
0.0
 20
0.0
  9
$PLIMMAX
 10
420.0
 20
297.0
  9
$UNITMODE
 70
     0
  9
$VISRETAIN
 70
     1
  9
$PLINEGEN
 70
     0
  9
$PSLTSCALE
 70
     1
  9
$TREEDEPTH
 70
  3020
  9
$CMLSTYLE
  2
Standard
  9
$CMLJUST
 70
     0
  9
$CMLSCALE
 40
20.0
  9
$PROXYGRAPHICS
 70
     1
  9
$MEASUREMENT
 70
     1
  9
$CELWEIGHT
370
    -1
  9
$ENDCAPS
280
     0
  9
$JOINSTYLE
280
     0
  9
$LWDISPLAY
290
     0
  9
$INSUNITS
 70
     4
  9
$HYPERLINKBASE
  1

  9
$STYLESHEET
  1

  9
$XEDIT
290
     1
  9
$CEPSNTYPE
380
     0
  9
$PSTYLEMODE
290
     1
  9
$FINGERPRINTGUID
  2
{291E2BE1-753D-43F5-904E-31F6AC3EF817}
  9
$VERSIONGUID
  2
{EC5FE7B0-6883-49CF-AC6A-F35F569D9FAC}
  9
$EXTNAMES
290
     1
  9
$PSVPSCALE
 40
0.0
  9
$OLESTARTUP
290
     0
  0
ENDSEC
  0
SECTION
  2
CLASSES
  0
CLASS
  1
ACDBDICTIONARYWDFLT
  2
AcDbDictionaryWithDefault
  3
ObjectDBX Classes
 90
        0
280
     0
281
     0
  0
CLASS
  1
ACDBPLACEHOLDER
  2
AcDbPlaceHolder
  3
ObjectDBX Classes
 90
        0
280
     0
281
     0
  0
CLASS
  1
LAYOUT
  2
AcDbLayout
  3
ObjectDBX Classes
 90
        0
280
     0
281
     0
  0
CLASS
  1
DIMASSOC
  2
AcDbDimAssoc
  3
"AcDbDimAssoc|Product Desc:     AcDim ARX App For Dimension|Company:          Autodesk, Inc.|WEB Address:      www.autodesk.com"
 90
    32768
280
     0
281
     0
  0
CLASS
  1
DICTIONARYVAR
  2
AcDbDictionaryVar
  3
ObjectDBX Classes
 90
        0
280
     0
281
     0
  0
CLASS
  1
TABLESTYLE
  2
AcDbTableStyle
  3
ObjectDBX Classes
 90
     4095
280
     0
281
     0
  0
CLASS
  1
MATERIAL
  2
AcDbMaterial
  3
ObjectDBX Classes
 90
     1153
280
     0
281
     0
  0
CLASS
  1
VISUALSTYLE
  2
AcDbVisualStyle
  3
ObjectDBX Classes
 90
     4095
280
     0
281
     0
  0
CLASS
  1
SCALE
  2
AcDbScale
  3
ObjectDBX Classes
 90
     1153
280
     0
281
     0
  0
CLASS
  1
MLEADERSTYLE
  2
AcDbMLeaderStyle
  3
ACDB_MLEADERSTYLE_CLASS
 90
     4095
280
     0
281
     0
  0
CLASS
  1
CELLSTYLEMAP
  2
AcDbCellStyleMap
  3
ObjectDBX Classes
 90
     1152
280
     0
281
     0
  0
ENDSEC
  0
SECTION
  2
TABLES
  0
TABLE
  2
VPORT
  5
19
330
0
100
AcDbSymbolTable
 70
     1
  0
VPORT
  5
553
330
19
100
AcDbSymbolTableRecord
100
AcDbViewportTableRecord
  2
*Active
 70
     0
 10
0.0
 20
0.0
 11
1.0
 21
1.0
 12
0.2687237227580841
 22
0.18695156108015
 13
0.0
 23
0.0
 14
10.0
 24
10.0
 15
10.0
 25
10.0
 16
0.0
 26
0.0
 36
1.0
 17
0.0
 27
0.0
 37
0.0
 40
3.186361281533501
 41
1.645464025026068
 42
50.0
 43
0.0
 44
0.0
 50
0.0
 51
0.0
 71
     0
 72
   100
 73
     1
 74
     2
 75
     0
 76
     0
 77
     0
 78
     0
281
     0
 65
     1
110
0.0
120
0.0
130
0.0
111
1.0
121
0.0
131
0.0
112
0.0
122
1.0
132
0.0
 79
     0
146
0.0
  0
ENDTAB
  0
TABLE
  2
LTYPE
  5
14
330
0
100
AcDbSymbolTable
 70
     2
  0
LTYPE
  5
15
330
14
100
AcDbSymbolTableRecord
100
AcDbLinetypeTableRecord
  2
ByBlock
 70
     0
  3

 72
    65
 73
     0
 40
0.0
  0
LTYPE
  5
16
330
14
100
AcDbSymbolTableRecord
100
AcDbLinetypeTableRecord
  2
ByLayer
 70
     0
  3

 72
    65
 73
     0
 40
0.0
  0
LTYPE
  5
8
330
14
100
AcDbSymbolTableRecord
100
AcDbLinetypeTableRecord
  2
Continuous
 70
     0
  3
Solid line
 72
    65
 73
     0
 40
0.0
  0
LTYPE
  5
18F
330
14
100
AcDbSymbolTableRecord
100
AcDbLinetypeTableRecord
  2
DASHDOT
 70
     0
  3
Dash dot __ . __ . __ . __ . __ . __ . __ . __
 72
    65
 73
     4
 40
25.4
 49
12.7
 74
     0
 49
-6.349999999999999
 74
     0
 49
0.0
 74
     0
 49
-6.349999999999999
 74
     0
  0
ENDTAB
  0
TABLE
  2
LAYER
  5
10
330
0
100
AcDbSymbolTable
 70
     9
  0
LAYER
  5
4
102
{ACAD_XDICTIONARY
360
59E
102
}
330
10
100
AcDbSymbolTableRecord
100
AcDbLayerTableRecord
  2
0
 70
     0
 62
     7
  6
Continuous
370
    -3
390
5
  0
LAYER
  5
24
102
{ACAD_XDICTIONARY
360
5A0
102
}
330
10
100
AcDbSymbolTableRecord
100
AcDbLayerTableRecord
  2
BLOCKS
 70
     0
 62
     3
  6
Continuous
370
    -3
390
5
  0
LAYER
  5
190
102
{ACAD_XDICTIONARY
360
5A2
102
}
330
10
100
AcDbSymbolTableRecord
100
AcDbLayerTableRecord
  2
2
 70
     0
 62
     2
  6
Continuous
370
    -3
390
5
  0
LAYER
  5
191
102
{ACAD_XDICTIONARY
360
5A4
102
}
330
10
100
AcDbSymbolTableRecord
100
AcDbLayerTableRecord
  2
cen
 70
     0
 62
     7
  6
DASHDOT
370
    -3
390
5
  0
LAYER
  5
192
330
10
100
AcDbSymbolTableRecord
100
AcDbLayerTableRecord
  2
Defpoints
 70
     0
 62
     7
  6
Continuous
290
     0
370
    -3
390
5
  0
LAYER
  5
193
102
{ACAD_XDICTIONARY
360
5A6
102
}
330
10
100
AcDbSymbolTableRecord
100
AcDbLayerTableRecord
  2
9
 70
     0
 62
     9
  6
Continuous
370
    -3
390
5
  0
LAYER
  5
194
102
{ACAD_XDICTIONARY
360
5A8
102
}
330
10
100
AcDbSymbolTableRecord
100
AcDbLayerTableRecord
  2
hatch
 70
     0
 62
     9
  6
Continuous
370
    -3
390
5
  0
LAYER
  5
195
102
{ACAD_XDICTIONARY
360
5AA
102
}
330
10
100
AcDbSymbolTableRecord
100
AcDbLayerTableRecord
  2
COTAS
 70
     0
 62
     1
  6
Continuous
370
    -3
390
5
  0
LAYER
  5
196
102
{ACAD_XDICTIONARY
360
5AC
102
}
330
10
100
AcDbSymbolTableRecord
100
AcDbLayerTableRecord
  2
SANINDUSA
 70
     0
 62
     3
  6
Continuous
370
    -3
390
5
  0
ENDTAB
  0
TABLE
  2
STYLE
  5
11
330
0
100
AcDbSymbolTable
 70
     2
  0
STYLE
  5
12
330
11
100
AcDbSymbolTableRecord
100
AcDbTextStyleTableRecord
  2
Standard
 70
     0
 40
0.0
 41
1.0
 50
0.0
 71
     0
 42
2.5
  3
txt
  4

  0
STYLE
  5
1F
330
11
100
AcDbSymbolTableRecord
100
AcDbTextStyleTableRecord
  2
SANINDUSA
 70
     0
 40
0.0
 41
1.0
 50
0.0
 71
     0
 42
2.5
  3
ZURCHN.TTF
  4

1001
ACAD
1000
Zurich BT
1071
       34
  0
ENDTAB
  0
TABLE
  2
VIEW
  5
17
330
0
100
AcDbSymbolTable
 70
     0
  0
ENDTAB
  0
TABLE
  2
UCS
  5
18
330
0
100
AcDbSymbolTable
 70
     0
  0
ENDTAB
  0
TABLE
  2
APPID
  5
1B
330
0
100
AcDbSymbolTable
 70
     3
  0
APPID
  5
1C
330
1B
100
AcDbSymbolTableRecord
100
AcDbRegAppTableRecord
  2
ACAD
 70
     0
  0
APPID
  5
547
330
1B
100
AcDbSymbolTableRecord
100
AcDbRegAppTableRecord
  2
ACAD_EXEMPT_FROM_CAD_STANDARDS
 70
     0
  0
APPID
  5
5ED
330
1B
100
AcDbSymbolTableRecord
100
AcDbRegAppTableRecord
  2
ACAD_MLEADERVER
 70
     0
  0
ENDTAB
  0
TABLE
  2
DIMSTYLE
  5
1D
330
0
100
AcDbSymbolTable
 70
     2
100
AcDbDimStyleTable
 71
     1
340
1E
  0
DIMSTYLE
105
1E
330
1D
100
AcDbSymbolTableRecord
100
AcDbDimStyleTableRecord
  2
SANINDUSA
 70
     0
 41
3.0
 42
1.0
 43
1.0
 44
1.0
 73
     0
 74
     0
 77
     1
 78
     8
140
2.0
141
0.0
143
0.03937007874016
147
1.0
171
     3
172
     1
176
     1
177
     1
178
     1
179
     1
271
     1
272
     1
274
     3
278
    44
283
     0
284
     8
340
1F
371
    -1
372
    -1
  0
DIMSTYLE
105
197
330
1D
100
AcDbSymbolTableRecord
100
AcDbDimStyleTableRecord
  2
ISO-25
 70
     0
 41
2.5
 42
0.625
 43
3.75
 44
1.25
 73
     0
 74
     0
 77
     1
 78
     8
140
2.5
141
2.5
143
0.03937007874016
147
0.625
171
     3
172
     1
271
     2
272
     2
274
     3
278
    44
283
     0
284
     8
340
12
  0
ENDTAB
  0
TABLE
  2
BLOCK_RECORD
  5
1
330
0
100
AcDbSymbolTable
 70
    23
  0
BLOCK_RECORD
  5
2
330
1
100
AcDbSymbolTableRecord
100
AcDbBlockTableRecord
  2
*Model_Space
340
A
  0
BLOCK_RECORD
  5
C
330
1
100
AcDbSymbolTableRecord
100
AcDbBlockTableRecord
  2
*Paper_Space
340
F
  0
BLOCK_RECORD
  5
37
330
1
100
AcDbSymbolTableRecord
100
AcDbBlockTableRecord
  2
107122AL
340
0
102
{BLKREFS
331
40
102
}
1001
ACAD
1000
DesignCenter Data
1002
{
1070
     1
1070
     4
1002
}
  0
BLOCK_RECORD
  5
41
330
1
100
AcDbSymbolTableRecord
100
AcDbBlockTableRecord
  2
107122CT
340
0
1001
ACAD
1000
DesignCenter Data
1002
{
1070
     1
1070
     4
1002
}
  0
BLOCK_RECORD
  5
B3
330
1
100
AcDbSymbolTableRecord
100
AcDbBlockTableRecord
  2
107122PL
340
0
102
{BLKREFS
331
111
102
}
1001
ACAD
1000
DesignCenter Data
1002
{
1070
     1
1070
     4
1002
}
  0
ENDTAB
  0
ENDSEC
  0
SECTION
  2
BLOCKS
  0
BLOCK
  5
3
330
2
100
AcDbEntity
  8
0
100
AcDbBlockBegin
  2
*Model_Space
 70
     0
 10
0.0
 20
0.0
 30
0.0
  3
*Model_Space
  1

  0
ENDBLK
  5
9
330
2
100
AcDbEntity
  8
0
100
AcDbBlockEnd
  0
BLOCK
  5
D
330
C
100
AcDbEntity
 67
     1
  8
0
100
AcDbBlockBegin
  2
*Paper_Space
 70
     0
 10
0.0
 20
0.0
 30
0.0
  3
*Paper_Space
  1

  0
ENDBLK
  5
E
330
C
100
AcDbEntity
 67
     1
  8
0
100
AcDbBlockEnd
  0
BLOCK
  5
3E
330
37
100
AcDbEntity
  8
0
100
AcDbBlockBegin
  2
107122AL
 70
     0
 10
0.0
 20
0.0
 30
0.0
  3
107122AL
  1

  0
LINE
  5
38
330
37
100
AcDbEntity
  8
BLOCKS
100
AcDbLine
 10
-0.3770946077913866
 20
0.0
 30
0.0
 11
0.3770946077913866
 21
0.0
 31
0.0
  0
LINE
  5
39
330
37
100
AcDbEntity
  8
BLOCKS
100
AcDbLine
 10
0.3770946077913866
 20
0.0
 30
0.0
 11
0.3750857521602029
 21
0.1150872620322616
 31
0.0
  0
LINE
  5
3A
330
37
100
AcDbEntity
  8
BLOCKS
100
AcDbLine
 10
-0.3700865136844218
 20
0.1200000000000045
 30
0.0
 11
0.37008651368442
 21
0.1200000000000045
 31
0.0
  0
ARC
  5
3B
330
37
100
AcDbEntity
  8
BLOCKS
100
AcDbCircle
 10
0.37008651368442
 20
0.1150000000000091
 30
0.0
 40
0.0050000000000001
100
AcDbArc
 50
1.000000000001755
 51
90.0
  0
LINE
  5
3C
330
37
100
AcDbEntity
  8
BLOCKS
100
AcDbLine
 10
-0.3750857521602029
 20
0.1150872620322616
 30
0.0
 11
-0.3770946077913866
 21
0.0
 31
0.0
  0
ARC
  5
3D
330
37
100
AcDbEntity
  8
BLOCKS
100
AcDbCircle
 10
-0.3700865136844218
 20
0.1150000000000091
 30
0.0
 40
0.005
100
AcDbArc
 50
90.0
 51
179.0000000000047
  0
ENDBLK
  5
3F
330
37
100
AcDbEntity
  8
0
100
AcDbBlockEnd
  0
BLOCK
  5
B0
330
41
100
AcDbEntity
  8
0
100
AcDbBlockBegin
  2
107122CT
 70
     0
 10
0.0
 20
0.0
 30
0.0
  3
107122CT
  1

  0
ARC
  5
42
330
41
100
AcDbEntity
  8
BLOCKS
100
AcDbCircle
 10
-0.0129042776856618
 20
0.1090000000000373
 30
0.0
 40
0.003
100
AcDbArc
 50
1.000000000000185
 51
90.0
  0
ARC
  5
43
330
41
100
AcDbEntity
  8
BLOCKS
100
AcDbCircle
 10
-0.0070080941069683
 20
0.1150000000000091
 30
0.0
 40
0.005
100
AcDbArc
 50
0.9999999999999381
 51
90.0
  0
LINE
  5
44
330
41
100
AcDbEntity
  8
BLOCKS
100
AcDbLine
 10
-0.0079987815612554
 20
-0.0001396192513994
 30
0.0
 11
-0.009904734600191
 21
0.1090523572194115
 31
0.0
  0
LINE
  5
45
330
41
100
AcDbEntity
  8
BLOCKS
100
AcDbLine
 10
0.0
 20
0.0
 30
0.0
 11
-0.0020088556311837
 21
0.1150872620322616
 31
0.0
  0
ARC
  5
46
330
41
100
AcDbEntity
  8
BLOCKS
100
AcDbCircle
 10
-0.0425425125945012
 20
0.0980000000000701
 30
0.0
 40
0.014
100
AcDbArc
 50
90.0
 51
167.8204126418665
  0
ARC
  5
47
330
41
100
AcDbEntity
  8
BLOCKS
100
AcDbCircle
 10
-0.0425425125945012
 20
0.0980000000000701
 30
0.0
 40
0.022
100
AcDbArc
 50
90.0
 51
167.8204126418665
  0
ARC
  5
48
330
41
100
AcDbEntity
  8
BLOCKS
100
AcDbCircle
 10
-0.09950807737604
 20
0.1050000000000182
 30
0.0
 40
0.015
100
AcDbArc
 50
90.0
 51
169.9999999999981
  0
ARC
  5
49
330
41
100
AcDbEntity
  8
BLOCKS
100
AcDbCircle
 10
-0.116420728331482
 20
0.0883810899956643
 30
0.0
 40
0.0565173380058677
100
AcDbArc
 50
267.9635869324477
 51
341.119797487591
  0
ARC
  5
4A
330
41
100
AcDbEntity
  8
BLOCKS
100
AcDbCircle
 10
-0.159910809930544
 20
0.079171457581424
 30
0.0
 40
0.04
100
AcDbArc
 50
270.9999999999997
 51
350.0000000000001
  0
ARC
  5
4B
330
41
100
AcDbEntity
  8
BLOCKS
100
AcDbCircle
 10
-0.116420728331482
 20
0.0883810899956643
 30
0.0
 40
0.0485173380058677
100
AcDbArc
 50
267.9635869324477
 51
341.119797487591
  0
ARC
  5
4C
330
41
100
AcDbEntity
  8
BLOCKS
100
AcDbCircle
 10
-0.2237287649350268
 20
0.018282422120592
 30
0.0
 40
0.0212813368190157
100
AcDbArc
 50
88.8235637554898
 51
104.6242461992861
  0
ARC
  5
4D
330
41
100
AcDbEntity
  8
BLOCKS
100
AcDbCircle
 10
-0.2451670536669184
 20
0.0182540681720411
 30
0.0
 40
0.020935348893246
100
AcDbArc
 50
88.81911747969729
 51
104.6941385150419
  0
ARC
  5
4E
330
41
100
AcDbEntity
  8
BLOCKS
100
AcDbCircle
 10
-0.2435781478158976
 20
0.0182312172892125
 30
0.0
 40
0.0209856970334445
100
AcDbArc
 50
85.85544808194454
 51
93.16171680271288
  0
ARC
  5
4F
330
41
100
AcDbEntity
  8
BLOCKS
100
AcDbCircle
 10
-0.2219613941497887
 20
0.017881954080508
 30
0.0
 40
0.0217125375487936
100
AcDbArc
 50
77.47079747140905
 51
93.15111797502947
  0
ARC
  5
50
330
41
100
AcDbEntity
  8
BLOCKS
100
AcDbCircle
 10
-0.2381434714033599
 20
0.018097585501323
 30
0.0
 40
0.021214271313632
100
AcDbArc
 50
84.06740127744088
 51
93.15827698094912
  0
ARC
  5
51
330
41
100
AcDbEntity
  8
BLOCKS
100
AcDbCircle
 10
-0.2398130797930928
 20
0.0183078577654214
 30
0.0
 40
0.0209750290065903
100
AcDbArc
 50
88.81961680133413
 51
104.6861161268495
  0
ARC
  5
52
330
41
100
AcDbEntity
  8
BLOCKS
100
AcDbCircle
 10
-0.2330075920399484
 20
0.0180263667062946
 30
0.0
 40
0.0213754658293481
100
AcDbArc
 50
88.82479549114547
 51
104.6052999442156
  0
ARC
  5
53
330
41
100
AcDbEntity
  8
BLOCKS
100
AcDbCircle
 10
-0.2313897178130269
 20
0.0180000571818937
 30
0.0
 40
0.0214297619897799
100
AcDbArc
 50
80.68139078053333
 51
93.15508628317664
  0
ARC
  5
54
330
41
100
AcDbEntity
  8
BLOCKS
100
AcDbCircle
 10
-0.2558949558768475
 20
0.0524922560531422
 30
0.0
 40
0.0150000161699117
100
AcDbArc
 50
271.0000000300899
 51
291.1716502306372
  0
ARC
  5
55
330
41
100
AcDbEntity
  8
BLOCKS
100
AcDbCircle
 10
-0.2123450421885078
 20
0.0532524082327655
 30
0.0
 40
0.0150000017807305
100
AcDbArc
 50
250.9090188157967
 51
271.0000000102823
  0
ARC
  5
56
330
41
100
AcDbEntity
  8
BLOCKS
100
AcDbCircle
 10
-0.2505494187399968
 20
0.0525974058770089
 30
0.0
 40
0.0150118576458431
100
AcDbArc
 50
271.0081985936476
 51
291.1591028755871
  0
ARC
  5
57
330
41
100
AcDbEntity
  8
BLOCKS
100
AcDbCircle
 10
-0.2438029952442822
 20
0.0527033047112582
 30
0.0
 40
0.0149999988727878
100
AcDbArc
 50
271.000000018844
 51
291.1221329263792
  0
ARC
  5
58
330
41
100
AcDbEntity
  8
BLOCKS
100
AcDbCircle
 10
-0.3085682480010607
 20
0.0170968108708394
 30
0.0
 40
0.0209856970334476
100
AcDbArc
 50
85.78285642842294
 51
93.16171680271198
  0
ARC
  5
59
330
41
100
AcDbEntity
  8
BLOCKS
100
AcDbCircle
 10
-0.2885878711350607
 20
0.0167758291281643
 30
0.0
 40
0.0216559556553664
100
AcDbArc
 50
88.82826821116292
 51
104.5498163424014
  0
ARC
  5
5A
330
41
100
AcDbEntity
  8
BLOCKS
100
AcDbCircle
 10
-0.287107160252571
 20
0.0171224354459128
 30
0.0
 40
0.0213347994249004
100
AcDbArc
 50
77.39567711575102
 51
93.15651292947574
  0
ARC
  5
5B
330
41
100
AcDbEntity
  8
BLOCKS
100
AcDbCircle
 10
-0.3101571538520833
 20
0.0171196617535543
 30
0.0
 40
0.0209353488932419
100
AcDbArc
 50
88.81911747969622
 51
104.6941385150441
  0
ARC
  5
5C
330
41
100
AcDbEntity
  8
BLOCKS
100
AcDbCircle
 10
-0.2979976922251133
 20
0.0168919602879214
 30
0.0
 40
0.021375465829348
100
AcDbArc
 50
88.82479549114549
 51
104.6052999442155
  0
ARC
  5
5D
330
41
100
AcDbEntity
  8
BLOCKS
100
AcDbCircle
 10
-0.29637981799819
 20
0.0168656507634069
 30
0.0
 40
0.0214297619897796
100
AcDbArc
 50
80.55997110276436
 51
93.15508628317687
  0
ARC
  5
5E
330
41
100
AcDbEntity
  8
BLOCKS
100
AcDbCircle
 10
-0.3032116465162424
 20
0.0171502857749602
 30
0.0
 40
0.0210257362055005
100
AcDbArc
 50
83.9194277816642
 51
93.16112803487943
  0
ARC
  5
5F
330
41
100
AcDbEntity
  8
BLOCKS
100
AcDbCircle
 10
-0.3537089653053584
 20
0.0160136092838457
 30
0.0
 40
0.0212813368190144
100
AcDbArc
 50
88.82356375548951
 51
104.6242461992863
  0
ARC
  5
60
330
41
100
AcDbEntity
  8
BLOCKS
100
AcDbCircle
 10
-0.3519415945201221
 20
0.015613141243648
 30
0.0
 40
0.0217125375487887
100
AcDbArc
 50
77.4707974714054
 51
93.15111797503064
  0
ARC
  5
61
330
41
100
AcDbEntity
  8
BLOCKS
100
AcDbCircle
 10
-0.3047374013825355
 20
0.0169878873780363
 30
0.0
 40
0.0211618139375721
100
AcDbArc
 50
88.8220379237274
 51
104.6482738266619
  0
ARC
  5
62
330
41
100
AcDbEntity
  8
BLOCKS
100
AcDbCircle
 10
-0.299426123065901
 20
0.0517324023120409
 30
0.0
 40
0.0150000017807301
100
AcDbArc
 50
270.999999989717
 51
291.0909811842033
  0
ARC
  5
63
330
41
100
AcDbEntity
  8
BLOCKS
100
AcDbCircle
 10
-0.3208850560620107
 20
0.0513578496346554
 30
0.0
 40
0.015000016169912
100
AcDbArc
 50
271.0000000300895
 51
291.1716502306367
  0
ARC
  5
64
330
41
100
AcDbEntity
  8
BLOCKS
100
AcDbCircle
 10
-0.3087930954294471
 20
0.051568898292885
 30
0.0
 40
0.0149999988727871
100
AcDbArc
 50
271.0000000188433
 51
291.1221329263792
  0
ARC
  5
65
330
41
100
AcDbEntity
  8
BLOCKS
100
AcDbCircle
 10
-0.3423252425588359
 20
0.0509835953959055
 30
0.0
 40
0.0150000017807308
100
AcDbArc
 50
250.9090188157973
 51
271.0000000102827
  0
ARC
  5
66
330
41
100
AcDbEntity
  8
BLOCKS
100
AcDbCircle
 10
-0.3155000902660738
 20
0.0514518294788786
 30
0.0
 40
0.0150000010888111
100
AcDbArc
 50
271.0000000016529
 51
291.1460237170624
  0
ARC
  5
67
330
41
100
AcDbEntity
  8
BLOCKS
100
AcDbCircle
 10
-0.2775352046855417
 20
0.0521145080411998
 30
0.0
 40
0.0150000001084383
100
AcDbArc
 50
250.867369455366
 51
270.9999902906413
  0
LINE
  5
68
330
41
100
AcDbEntity
  8
BLOCKS
100
AcDbLine
 10
-0.0640473172449898
 20
0.1026414843471457
 30
0.0
 11
-0.0705137576989774
 21
0.0726813404905897
 31
0.0
  0
LINE
  5
69
330
41
100
AcDbEntity
  8
BLOCKS
100
AcDbLine
 10
-0.0562273882811759
 20
0.100953671857269
 30
0.0
 11
-0.0629441798912325
 21
0.0700926165168312
 31
0.0
  0
LINE
  5
6A
330
41
100
AcDbEntity
  8
BLOCKS
100
AcDbLine
 10
-0.1142801936712239
 20
0.1076047226650871
 30
0.0
 11
-0.1205184998100552
 21
0.072225530474725
 31
0.0
  0
ARC
  5
6B
330
41
100
AcDbEntity
  8
BLOCKS
100
AcDbCircle
 10
-0.4371793191066847
 20
0.0147713452605558
 30
0.0
 40
0.0210662764119226
100
AcDbArc
 50
87.66324634992342
 51
93.16051147867154
  0
ARC
  5
6C
330
41
100
AcDbEntity
  8
BLOCKS
100
AcDbCircle
 10
-0.3735583481862257
 20
0.0159624044523525
 30
0.0
 40
0.020985697033445
100
AcDbArc
 50
85.85544808194029
 51
93.16171680271299
  0
ARC
  5
6D
330
41
100
AcDbEntity
  8
BLOCKS
100
AcDbCircle
 10
-0.4331137719588565
 20
0.0146943662460899
 30
0.0
 40
0.0212142713136314
100
AcDbArc
 50
84.17009437803066
 51
93.15827698094903
  0
ARC
  5
6E
330
41
100
AcDbEntity
  8
BLOCKS
100
AcDbCircle
 10
-0.3682017467014056
 20
0.016015879356587
 30
0.0
 40
0.0210257362054978
100
AcDbArc
 50
84.02248516809418
 51
93.16112803488001
  0
ARC
  5
6F
330
41
100
AcDbEntity
  8
BLOCKS
100
AcDbCircle
 10
-0.4347176017528689
 20
0.0147190745411763
 30
0.0
 40
0.0211618139375716
100
AcDbArc
 50
88.8220379237274
 51
104.6482738266627
  0
ARC
  5
70
330
41
100
AcDbEntity
  8
BLOCKS
100
AcDbCircle
 10
-0.4185680715053924
 20
0.0145070162913044
 30
0.0
 40
0.0216559556553681
100
AcDbArc
 50
88.82826821116358
 51
104.5498163424009
  0
ARC
  5
71
330
41
100
AcDbEntity
  8
BLOCKS
100
AcDbCircle
 10
-0.428076392292951
 20
0.0149019668640449
 30
0.0
 40
0.0210948181867816
100
AcDbArc
 50
88.82117851183989
 51
104.6617951888196
  0
ARC
  5
72
330
41
100
AcDbEntity
  8
BLOCKS
100
AcDbCircle
 10
-0.4169316947052853
 20
0.0144787348252749
 30
0.0
 40
0.0217125375487897
100
AcDbArc
 50
77.47079747140637
 51
93.15111797503041
  0
ARC
  5
73
330
41
100
AcDbEntity
  8
BLOCKS
100
AcDbCircle
 10
-0.3751472540372465
 20
0.0159852553351812
 30
0.0
 40
0.0209353488932449
100
AcDbArc
 50
88.8191174796972
 51
104.6941385150425
  0
ARC
  5
74
330
41
100
AcDbEntity
  8
BLOCKS
100
AcDbCircle
 10
-0.4263600183685235
 20
0.0145968379265469
 30
0.0
 40
0.0214297619897814
100
AcDbArc
 50
80.559971102764
 51
93.15508628317617
  0
ARC
  5
75
330
41
100
AcDbEntity
  8
BLOCKS
100
AcDbCircle
 10
-0.3697932801634263
 20
0.0160390449285615
 30
0.0
 40
0.020975029006589
100
AcDbArc
 50
88.81961680133374
 51
104.6861161268504
  0
ARC
  5
76
330
41
100
AcDbEntity
  8
BLOCKS
100
AcDbCircle
 10
-0.3630862921077878
 20
0.0160363732825317
 30
0.0
 40
0.0210948181867809
100
AcDbArc
 50
88.82117851183959
 51
104.6617951888203
  0
ARC
  5
77
330
41
100
AcDbEntity
  8
BLOCKS
100
AcDbCircle
 10
-0.4294063234362327
 20
0.0494635894751809
 30
0.0
 40
0.0150000017807296
100
AcDbArc
 50
270.9999999897168
 51
291.0909811842036
  0
ARC
  5
78
330
41
100
AcDbEntity
  8
BLOCKS
100
AcDbCircle
 10
-0.4388363728340164
 20
0.0493377701185409
 30
0.0
 40
0.0150387802269588
100
AcDbArc
 50
271.0263063931078
 51
291.1273657115138
  0
ARC
  5
79
330
41
100
AcDbEntity
  8
BLOCKS
100
AcDbCircle
 10
-0.4073153427440044
 20
0.0498491889775323
 30
0.0
 40
0.0150000017807309
100
AcDbArc
 50
250.909018815797
 51
271.0000000102823
  0
ARC
  5
7A
330
41
100
AcDbEntity
  8
BLOCKS
100
AcDbCircle
 10
-0.3858751562471756
 20
0.0502234432162823
 30
0.0
 40
0.015000016169912
100
AcDbArc
 50
271.0000000300896
 51
291.1716502306367
  0
ARC
  5
7B
330
41
100
AcDbEntity
  8
BLOCKS
100
AcDbCircle
 10
-0.380537090304319
 20
0.0503667316361316
 30
0.0
 40
0.0150501233324429
100
AcDbArc
 50
271.0340822574286
 51
291.1332192118061
  0
ARC
  5
7C
330
41
100
AcDbEntity
  8
BLOCKS
100
AcDbCircle
 10
-0.3738471408995245
 20
0.0504766115377606
 30
0.0
 40
0.0150432300885528
100
AcDbArc
 50
271.029310248815
 51
291.1243618558229
  0
ARC
  5
7D
330
41
100
AcDbEntity
  8
BLOCKS
100
AcDbCircle
 10
-0.4836891656756866
 20
0.0137447964469857
 30
0.0
 40
0.0212813368190127
100
AcDbArc
 50
88.82356375548891
 51
104.6242461992872
  0
ARC
  5
7E
330
41
100
AcDbEntity
  8
BLOCKS
100
AcDbCircle
 10
-0.4981038721440197
 20
0.0135599598276031
 30
0.0
 40
0.0212142713136316
100
AcDbArc
 50
77.37144640778108
 51
93.15827698094912
  0
ARC
  5
7F
330
41
100
AcDbEntity
  8
BLOCKS
100
AcDbCircle
 10
-0.4997077019380321
 20
0.0135846681228031
 30
0.0
 40
0.0211618139375717
100
AcDbArc
 50
88.82203792372749
 51
104.6482738266627
  0
ARC
  5
80
330
41
100
AcDbEntity
  8
BLOCKS
100
AcDbCircle
 10
-0.4819217948904502
 20
0.0133443284069017
 30
0.0
 40
0.0217125375487899
100
AcDbArc
 50
77.47079747140681
 51
93.15111797503064
  0
ARC
  5
81
330
41
100
AcDbEntity
  8
BLOCKS
100
AcDbCircle
 10
-0.4930664924781141
 20
0.0137675604456717
 30
0.0
 40
0.0210948181867831
100
AcDbArc
 50
88.82117851184037
 51
104.6617951888189
  0
ARC
  5
82
330
41
100
AcDbEntity
  8
BLOCKS
100
AcDbCircle
 10
-0.4914670761964324
 20
0.013743425176699
 30
0.0
 40
0.0211466280988171
100
AcDbArc
 50
77.35773391194115
 51
93.15929238739965
  0
ARC
  5
83
330
41
100
AcDbEntity
  8
BLOCKS
100
AcDbCircle
 10
-0.5051274544075799
 20
0.0137164424983212
 30
0.0
 40
0.0209353488932431
100
AcDbArc
 50
83.58856451315258
 51
104.6941385150439
  0
ARC
  5
84
330
41
100
AcDbEntity
  8
BLOCKS
100
AcDbCircle
 10
-0.4944701764840698
 20
0.0483278940232594
 30
0.0
 40
0.0150000001084382
100
AcDbArc
 50
271.0000097093585
 51
291.1326305446337
  0
ARC
  5
85
330
41
100
AcDbEntity
  8
BLOCKS
100
AcDbCircle
 10
-0.4885461444954622
 20
0.0484312993667118
 30
0.0
 40
0.0150000010888104
100
AcDbArc
 50
250.8539455729752
 51
270.9999999983473
  0
ARC
  5
86
330
41
100
AcDbEntity
  8
BLOCKS
100
AcDbCircle
 10
-0.5104703908215705
 20
0.0480486102236455
 30
0.0
 40
0.0150000010888096
100
AcDbArc
 50
271.0000000016519
 51
291.1460237170634
  0
ARC
  5
87
330
41
100
AcDbEntity
  8
BLOCKS
100
AcDbCircle
 10
-0.4723054429291694
 20
0.0487147825590455
 30
0.0
 40
0.0150000017807311
100
AcDbArc
 50
250.9090188157977
 51
271.0000000102823
  0
ARC
  5
88
330
41
100
AcDbEntity
  8
BLOCKS
100
AcDbCircle
 10
-0.5038262410509784
 20
0.0482021788129714
 30
0.0
 40
0.0150375913763797
100
AcDbArc
 50
271.0255035601188
 51
291.1281685445051
  0
ARC
  5
89
330
41
100
AcDbEntity
  8
BLOCKS
100
AcDbCircle
 10
-0.4818989379292944
 20
0.0486621426466627
 30
0.0
 40
0.0151148132457211
100
AcDbArc
 50
250.923713110621
 51
270.9226147847502
  0
ARC
  5
8A
330
41
100
AcDbEntity
  8
BLOCKS
100
AcDbCircle
 10
-0.5158553566175073
 20
0.0479546303794223
 30
0.0
 40
0.0150000161699114
100
AcDbArc
 50
271.0000000300893
 51
291.1716502306369
  0
ARC
  5
8B
330
41
100
AcDbEntity
  8
BLOCKS
100
AcDbCircle
 10
-0.4495137013635251
 20
0.0491126396862001
 30
0.0
 40
0.0150000275751218
100
AcDbArc
 50
271.0000000493704
 51
291.1625908363553
  0
ARC
  5
8C
330
41
100
AcDbEntity
  8
BLOCKS
100
AcDbCircle
 10
-0.4387734972829325
 20
0.0147948378711362
 30
0.0
 40
0.0210151975577387
100
AcDbArc
 50
88.82014029356961
 51
104.6779514604992
  0
ARC
  5
8D
330
41
100
AcDbEntity
  8
BLOCKS
100
AcDbCircle
 10
-0.4454802906364055
 20
0.0491830166420186
 30
0.0
 40
0.0150000010888103
100
AcDbArc
 50
271.0000000016527
 51
291.146023717063
  0
ARC
  5
8E
330
41
100
AcDbEntity
  8
BLOCKS
100
AcDbCircle
 10
-0.5599729383801702
 20
0.0211805784236958
 30
0.0
 40
0.003
100
AcDbArc
 50
91.0
 51
136.0000000000012
  0
ARC
  5
8F
330
41
100
AcDbEntity
  8
BLOCKS
100
AcDbCircle
 10
-0.5634666790656411
 20
0.0175627040354129
 30
0.0
 40
0.003
100
AcDbArc
 50
135.9999999999992
 51
181.0000000000002
  0
LINE
  5
90
330
41
100
AcDbEntity
  8
BLOCKS
100
AcDbLine
 10
-0.5661630149736184
 20
0.0001396192515131
 30
0.0
 11
-0.5664662221511066
 21
0.0175103468161524
 31
0.0
  0
LINE
  5
91
330
41
100
AcDbEntity
  8
BLOCKS
100
AcDbLine
 10
-0.5656246984666531
 20
0.0196466791468311
 30
0.0
 11
-0.5621309577811875
 21
0.0232645535351139
 31
0.0
  0
ARC
  5
92
330
41
100
AcDbEntity
  8
BLOCKS
100
AcDbCircle
 10
-0.5625625556726437
 20
0.0271362904539956
 30
0.0
 40
0.005
100
AcDbArc
 50
91.00000000000013
 51
136.0000000000007
  0
LINE
  5
93
330
41
100
AcDbEntity
  8
BLOCKS
100
AcDbLine
 10
-0.574161796534872
 20
0.0
 30
0.0
 11
-0.5745445229702267
 21
0.0219263827966643
 31
0.0
  0
LINE
  5
94
330
41
100
AcDbEntity
  8
BLOCKS
100
AcDbLine
 10
-0.5745445229702267
 20
0.0219263827966643
 30
0.0
 11
-0.5661592546743357
 21
0.0306095823062833
 31
0.0
  0
ARC
  5
95
330
41
100
AcDbEntity
  8
BLOCKS
100
AcDbCircle
 10
-0.6454541900684632
 20
0.0161316067075177
 30
0.0
 40
0.003
100
AcDbArc
 50
0.9999999999998861
 51
46.0000000000002
  0
ARC
  5
96
330
41
100
AcDbEntity
  8
BLOCKS
100
AcDbCircle
 10
-0.6491220518887886
 20
0.0196736196950269
 30
0.0
 40
0.003
100
AcDbArc
 50
46.00000000000059
 51
88.48477730728331
  0
LINE
  5
97
330
41
100
AcDbEntity
  8
BLOCKS
100
AcDbLine
 10
-0.6433702149570859
 20
0.0182896261085261
 30
0.0
 11
-0.6470380767774131
 21
0.0218316390960354
 31
0.0
  0
LINE
  5
98
330
41
100
AcDbEntity
  8
BLOCKS
100
AcDbLine
 10
-0.6421697177787565
 20
-0.0001396192513994
 30
0.0
 11
-0.642454646982996
 21
0.0161839639268919
 31
0.0
  0
ARC
  5
99
330
41
100
AcDbEntity
  8
BLOCKS
100
AcDbCircle
 10
-0.6466918760415688
 20
0.0256678077046217
 30
0.0
 40
0.005
100
AcDbArc
 50
46.00000000000048
 51
91.00000000000045
  0
LINE
  5
9A
330
41
100
AcDbEntity
  8
BLOCKS
100
AcDbLine
 10
-0.6341709362175063
 20
0.0
 30
0.0
 11
-0.6345353846796123
 21
0.0208792384104299
 31
0.0
  0
LINE
  5
9B
330
41
100
AcDbEntity
  8
BLOCKS
100
AcDbLine
 10
-0.6345353846796123
 20
0.0208792384104299
 30
0.0
 11
-0.6432185841892722
 21
0.0292645067063404
 31
0.0
  0
LINE
  5
9C
330
41
100
AcDbEntity
  8
BLOCKS
100
AcDbLine
 10
-0.5745445229702267
 20
0.0219263827966643
 30
0.0
 11
-0.6345353846796123
 21
0.0208792384104299
 31
0.0
  0
LINE
  5
9D
330
41
100
AcDbEntity
  8
BLOCKS
100
AcDbLine
 10
-0.6470787199909953
 20
0.0306618169586273
 30
0.0
 11
-0.6037248728796936
 21
0.0314185611747462
 31
0.0
  0
LINE
  5
9E
330
41
100
AcDbEntity
  8
BLOCKS
100
AcDbLine
 10
-0.560025295599484
 20
0.0241801215091755
 30
0.0
 11
-0.1180051547532876
 21
0.0318956117672542
 31
0.0
  0
ARC
  5
9F
330
41
100
AcDbEntity
  8
BLOCKS
100
AcDbCircle
 10
-0.3613699181833549
 20
0.0157312443450337
 30
0.0
 40
0.0214297619897794
100
AcDbArc
 50
80.68139078053253
 51
93.15508628317672
  0
ARC
  5
A0
330
41
100
AcDbEntity
  8
BLOCKS
100
AcDbCircle
 10
-0.3644899761137363
 20
0.0505967068600057
 30
0.0
 40
0.0150000001084383
100
AcDbArc
 50
271.0000097093585
 51
291.1326305446337
  0
LINE
  5
A1
330
41
100
AcDbEntity
  8
BLOCKS
100
AcDbLine
 10
-0.6037248728796936
 20
0.0314185611747462
 30
0.0
 11
-0.1181447740047865
 21
0.0398943933284954
 31
0.0
  0
LINE
  5
A2
330
41
100
AcDbEntity
  8
BLOCKS
100
AcDbLine
 10
-0.0425425125945012
 20
0.11200000000008
 30
0.0
 11
-0.0129042776856618
 21
0.11200000000008
 31
0.0
  0
ARC
  5
A3
330
41
100
AcDbEntity
  8
BLOCKS
100
AcDbCircle
 10
-0.7412849378971167
 20
0.1090000000000373
 30
0.0
 40
0.003
100
AcDbArc
 50
89.99999999999998
 51
179.0000000000004
  0
ARC
  5
A4
330
41
100
AcDbEntity
  8
BLOCKS
100
AcDbCircle
 10
-0.7096811022590473
 20
0.1050000000000182
 30
0.0
 40
0.007
100
AcDbArc
 50
10.00000000000196
 51
90.0
  0
LINE
  5
A5
330
41
100
AcDbEntity
  8
BLOCKS
100
AcDbLine
 10
-0.7412849378971167
 20
0.11200000000008
 30
0.0
 11
-0.7096811022590473
 21
0.11200000000008
 31
0.0
  0
ARC
  5
A6
330
41
100
AcDbEntity
  8
BLOCKS
100
AcDbCircle
 10
-0.7471811214758102
 20
0.1150000000000091
 30
0.0
 40
0.005
100
AcDbArc
 50
90.0
 51
179.0
  0
ARC
  5
A7
330
41
100
AcDbEntity
  8
BLOCKS
100
AcDbCircle
 10
-0.7096811022590473
 20
0.1050000000000182
 30
0.0
 40
0.015
100
AcDbArc
 50
10.00000000000196
 51
90.0
  0
LINE
  5
A8
330
41
100
AcDbEntity
  8
BLOCKS
100
AcDbLine
 10
-0.7461904340215231
 20
-0.0001396192513994
 30
0.0
 11
-0.7442844809825857
 21
0.1090523572194115
 31
0.0
  0
LINE
  5
A9
330
41
100
AcDbEntity
  8
BLOCKS
100
AcDbLine
 10
-0.6950475883930718
 20
0.0623206122368174
 30
0.0
 11
-0.7027874479879621
 21
0.1062155372437701
 31
0.0
  0
LINE
  5
AA
330
41
100
AcDbEntity
  8
BLOCKS
100
AcDbLine
 10
-0.7541892155827732
 20
0.0
 30
0.0
 11
-0.7521803599515913
 21
0.1150872620322616
 31
0.0
  0
ARC
  5
AB
330
41
100
AcDbEntity
  8
BLOCKS
100
AcDbCircle
 10
-0.6477733733877092
 20
0.0706599012888773
 30
0.0
 40
0.0480041159562303
100
AcDbArc
 50
190.0050346734509
 51
268.4847773072817
  0
LINE
  5
AC
330
41
100
AcDbEntity
  8
BLOCKS
100
AcDbLine
 10
-0.7541892155827732
 20
0.0
 30
0.0
 11
0.0
 21
0.0
 31
0.0
  0
LINE
  5
AD
330
41
100
AcDbEntity
  8
BLOCKS
100
AcDbLine
 10
-0.7471811214758102
 20
0.1200000000000045
 30
0.0
 11
-0.0070080941069683
 21
0.1200000000000045
 31
0.0
  0
LINE
  5
AE
330
41
100
AcDbEntity
  8
BLOCKS
100
AcDbLine
 10
-0.6871691263689712
 20
0.0637097976581345
 30
0.0
 11
-0.6949089859638669
 21
0.1076047226650871
 31
0.0
  0
ARC
  5
AF
330
41
100
AcDbEntity
  8
BLOCKS
100
AcDbCircle
 10
-0.6477733733877092
 20
0.0706599012888773
 30
0.0
 40
0.0400041159562303
100
AcDbArc
 50
190.0050346734509
 51
270.994965326549
  0
ENDBLK
  5
B1
330
41
100
AcDbEntity
  8
0
100
AcDbBlockEnd
  0
BLOCK
  5
10F
330
B3
100
AcDbEntity
  8
0
100
AcDbBlockBegin
  2
107122PL
 70
     0
 10
0.0
 20
0.0
 30
0.0
  3
107122PL
  1

  0
LWPOLYLINE
  5
B4
330
B3
100
AcDbEntity
  8
BLOCKS
100
AcDbPolyline
 90
       31
 70
     1
 43
0.0
 10
0.3737508129343183
 20
0.4910045488434207
 10
0.3723565661552506
 20
0.4931401601448897
 10
0.3706617433642823
 20
0.4950459876183686
 10
0.3684955444764348
 20
0.4968175412418532
 10
0.3660680356940524
 20
0.4982093654101618
 10
0.3634431488760885
 20
0.4991735320533053
 10
0.3606944794995659
 20
0.4996872250717388
 10
0.3578565059431913
 20
0.499724615441437
 10
0.35505299293016
 20
0.4992814339649386
 10
0.3523424233441084
 20
0.4983559113178444
 10
0.3498261071695285
 20
0.4969873333780015
 10
0.3475790274458177
 20
0.4952137735436964
 10
0.3456570441697391
 20
0.4930921527943611
 10
0.3451067114645632
 20
0.4922257482977557
 10
0.344528168379691
 20
0.4904379631399252
 10
0.3445820673780009
 20
0.488514397644849
 10
0.3452723484981757
 20
0.486721350413518
 10
0.3478491633879912
 20
0.4833533341000021
 10
0.3499945036869771
 20
0.4815024167210141
 10
0.3524141269587879
 20
0.4800283397205476
 10
0.3550403284643799
 20
0.4789827608763062
 10
0.3578036562535587
 20
0.4783882300810092
 10
0.3606706926180134
 20
0.4782721838432736
 10
0.3635161406984668
 20
0.4786427904244875
 10
0.3662834303115865
 20
0.4795046252588691
 10
0.3688661869429168
 20
0.480820381702074
 10
0.3711874186460538
 20
0.4825532106397077
 10
0.3731893875946319
 20
0.4846468789673964
 10
0.3737645933610487
 20
0.4855005004668556
 10
0.3743916788319836
 20
0.4872706756207208
 10
0.3743913393645677
 20
0.4891940314951171
  0
LWPOLYLINE
  5
B5
330
B3
100
AcDbEntity
  8
BLOCKS
100
AcDbPolyline
 90
       31
 70
     1
 43
0.0
 10
0.3144475330465593
 20
0.4932450457706637
 10
0.3137857501254153
 20
0.4950479043268388
 10
0.3123664742616388
 20
0.4971669694940602
 10
0.3106493465984919
 20
0.4990527315204645
 10
0.3084624551898756
 20
0.5007986849177542
 10
0.3060187394987235
 20
0.5021618617481636
 10
0.3033826908362247
 20
0.5030950891898556
 10
0.3006281680197027
 20
0.503576418311468
 10
0.2977899509218122
 20
0.5035804273924214
 10
0.2949918459298217
 20
0.5031043031837044
 10
0.2922923526971477
 20
0.5021469643272667
 10
0.2897923119987897
 20
0.500748885535927
 10
0.2875662537510717
 20
0.4989490194832343
 10
0.285669364408248
 20
0.4968049402053794
 10
0.2851292630635793
 20
0.4959321229407579
 10
0.2845717933711551
 20
0.4941376569695422
 10
0.2846483194646918
 20
0.4922148584954585
 10
0.2853596480966427
 20
0.490430054035187
 10
0.2879759095439258
 20
0.4870925778483297
 10
0.2901428775246106
 20
0.485267020859169
 10
0.2925796759586223
 20
0.4838215041424974
 10
0.2952179970355662
 20
0.4828068855953234
 10
0.2979881283101946
 20
0.4822448966941693
 10
0.3008563315947423
 20
0.4821625790083317
 10
0.3036972225992152
 20
0.482566626560697
 10
0.3064541812241792
 20
0.4834609491209676
 10
0.3090212792293219
 20
0.4848069915068436
 10
0.3113219635265541
 20
0.4865670016162085
 10
0.3132991618690735
 20
0.4886840711545802
 10
0.3138642849464936
 20
0.4895443988499438
 10
0.3144705008487563
 20
0.491321826964736
  0
LWPOLYLINE
  5
B6
330
B3
100
AcDbEntity
  8
BLOCKS
100
AcDbPolyline
 90
       31
 70
     1
 43
0.0
 10
0.2544602138602787
 20
0.4965907533032805
 10
0.253777266024958
 20
0.4983857035898609
 10
0.2523331574741441
 20
0.500487929389351
 10
0.2505939625528644
 20
0.5023533650190757
 10
0.2483866812428594
 20
0.5040734765873367
 10
0.2459270968013509
 20
0.5054078174451889
 10
0.2432802510675351
 20
0.5063099765462767
 10
0.2405202559785398
 20
0.5067588751654739
 10
0.2376821880881703
 20
0.5067295024027772
 10
0.2348898783156024
 20
0.5062205013473431
 10
0.2322018349889028
 20
0.5052314787570822
 10
0.2297184157193648
 20
0.5038040925786618
 10
0.2275136869868781
 20
0.5019781693708865
 10
0.2256421540665574
 20
0.4998119282595326
 10
0.2251123588209651
 20
0.4989328190063134
 10
0.2245760396629706
 20
0.4971319205376404
 10
0.2246751822621462
 20
0.4952101551591568
 10
0.2254074599730806
 20
0.4934338404490291
 10
0.2280628059427432
 20
0.4901273662246695
 10
0.2302511017427253
 20
0.4883274222438559
 10
0.2327047381377287
 20
0.4869106658397869
 10
0.2353548136983505
 20
0.4859271479913332
 10
0.2381313651310233
 20
0.4853977787516897
 10
0.2410003384371695
 20
0.4853492010088303
 10
0.2438362792466133
 20
0.4857866336205916
 10
0.2465825253788321
 20
0.4867133201515799
 10
0.2491336095258756
 20
0.4880894622165215
 10
0.2514134280513023
 20
0.4898764099494884
 10
0.2533655821854452
 20
0.4920165877408636
 10
0.2539205443728285
 20
0.4928835025810941
 10
0.2545058068190009
 20
0.4946679376985231
  0
LWPOLYLINE
  5
B7
330
B3
100
AcDbEntity
  8
BLOCKS
100
AcDbPolyline
 90
       31
 70
     1
 43
0.0
 10
0.2539205443728285
 20
0.4278934023958528
 10
0.2545058068190009
 20
0.4296778375132817
 10
0.2544602138602787
 20
0.4316006531180392
 10
0.2537772660249598
 20
0.4333956034047333
 10
0.2523331574741441
 20
0.4354978292042233
 10
0.2505939625528644
 20
0.4373632648339481
 10
0.2483866812428594
 20
0.4390833764020954
 10
0.2459270968013509
 20
0.4404177172599475
 10
0.2432802510675351
 20
0.441319876361149
 10
0.2405202559785398
 20
0.4417687749803463
 10
0.2376821880881721
 20
0.4417394022176496
 10
0.2348898783156006
 20
0.4412304011622155
 10
0.2322018349889028
 20
0.4402413785719546
 10
0.2297184157193666
 20
0.4388139923934205
 10
0.2275136869868763
 20
0.4369880691857589
 10
0.2256421540665574
 20
0.434821828074405
 10
0.2251123588209651
 20
0.4339427188211858
 10
0.2245760396629723
 20
0.4321418203525127
 10
0.2246751822621462
 20
0.4302200549740292
 10
0.2254074599730806
 20
0.4284437402637878
 10
0.2280628059427432
 20
0.4251372660394282
 10
0.2302511017427253
 20
0.4233373220586146
 10
0.2327047381377305
 20
0.4219205656545455
 10
0.2353548136983505
 20
0.4209370478062056
 10
0.2381313651310233
 20
0.4204076785665621
 10
0.2410003384371695
 20
0.420359100823589
 10
0.2438362792466133
 20
0.420796533435464
 10
0.2465825253788321
 20
0.4217232199663386
 10
0.2491336095258756
 20
0.4230993620312802
 10
0.2514134280513023
 20
0.4248863097643607
 10
0.2533655821854452
 20
0.427026487555736
  0
LWPOLYLINE
  5
B8
330
B3
100
AcDbEntity
  8
BLOCKS
100
AcDbPolyline
 90
       31
 70
     1
 43
0.0
 10
0.2544602138602787
 20
0.3666105529329116
 10
0.2537772660249598
 20
0.3684055032196056
 10
0.2523331574741441
 20
0.370507729018982
 10
0.2505939625528644
 20
0.3723731646487067
 10
0.2483866812428594
 20
0.3740932762169677
 10
0.2459270968013492
 20
0.3754276170748199
 10
0.2432802510675351
 20
0.3763297761759077
 10
0.2405202559785398
 20
0.3767786747952186
 10
0.2376821880881721
 20
0.3767493020324082
 10
0.2348898783156024
 20
0.3762403009769741
 10
0.2322018349889028
 20
0.3752512783868269
 10
0.2297184157193648
 20
0.3738238922082928
 10
0.2275136869868763
 20
0.3719979690006312
 10
0.2256421540665574
 20
0.3698317278891636
 10
0.2251123588209651
 20
0.3689526186359444
 10
0.2245760396629706
 20
0.3671517201673851
 10
0.2246751822621462
 20
0.3652299547887878
 10
0.2254074599730806
 20
0.3634536400786601
 10
0.2280628059427432
 20
0.3601471658543005
 10
0.2302511017427253
 20
0.3583472218734869
 10
0.2327047381377305
 20
0.3569304654694179
 10
0.2353548136983505
 20
0.3559469476210779
 10
0.2381313651310233
 20
0.3554175783814344
 10
0.2410003384371695
 20
0.3553690006384613
 10
0.2438362792466115
 20
0.3558064332502226
 10
0.2465825253788303
 20
0.3567331197812109
 10
0.2491336095258756
 20
0.3581092618461525
 10
0.2514134280513023
 20
0.3598962095792331
 10
0.2533655821854452
 20
0.3620363873706083
 10
0.2539205443728285
 20
0.3629033022107251
 10
0.2545058068190009
 20
0.3646877373281541
  0
LWPOLYLINE
  5
B9
330
B3
100
AcDbEntity
  8
BLOCKS
100
AcDbPolyline
 90
       31
 70
     1
 43
0.0
 10
0.253777266024958
 20
0.3034154030343643
 10
0.2523331574741441
 20
0.3055176288338544
 10
0.2505939625528644
 20
0.3073830644635791
 10
0.2483866812428577
 20
0.3091031760318401
 10
0.2459270968013492
 20
0.3104375168896922
 10
0.2432802510675369
 20
0.31133967599078
 10
0.2405202559785398
 20
0.3117885746099773
 10
0.2376821880881703
 20
0.3117592018472806
 10
0.2348898783156024
 20
0.3112502007918465
 10
0.2322018349889028
 20
0.3102611782015856
 10
0.2297184157193666
 20
0.3088337920231652
 10
0.2275136869868763
 20
0.3070078688153899
 10
0.2256421540665574
 20
0.304841627704036
 10
0.2251123588209651
 20
0.3039625184508168
 10
0.2245760396629706
 20
0.3021616199821437
 10
0.224675182262148
 20
0.3002398546036602
 10
0.2254074599730806
 20
0.2984635398935325
 10
0.2280628059427414
 20
0.2951570656691729
 10
0.2302511017427253
 20
0.2933571216883592
 10
0.2327047381377287
 20
0.2919403652842902
 10
0.2353548136983488
 20
0.2909568474358366
 10
0.2381313651310233
 20
0.2904274781961931
 10
0.2410003384371677
 20
0.2903789004533337
 10
0.2438362792466133
 20
0.290816333065095
 10
0.2465825253788303
 20
0.2917430195960833
 10
0.2491336095258756
 20
0.2931191616610249
 10
0.2514134280513023
 20
0.2949061093939917
 10
0.2533655821854452
 20
0.2970462871853669
 10
0.2539205443728285
 20
0.2979132020255974
 10
0.2545058068190009
 20
0.2996976371430264
 10
0.2544602138602787
 20
0.3016204527477839
  0
LWPOLYLINE
  5
BA
330
B3
100
AcDbEntity
  8
BLOCKS
100
AcDbPolyline
 90
       31
 70
     1
 43
0.0
 10
0.2537772660249598
 20
0.2384253028492367
 10
0.2523331574741423
 20
0.2405275286487267
 10
0.2505939625528644
 20
0.2423929642784515
 10
0.2483866812428594
 20
0.2441130758465988
 10
0.2459270968013509
 20
0.2454474167044509
 10
0.2432802510675351
 20
0.2463495758056524
 10
0.2405202559785398
 20
0.2467984744248497
 10
0.2376821880881721
 20
0.2467691016621529
 10
0.2348898783156024
 20
0.2462601006067189
 10
0.2322018349889028
 20
0.245271078016458
 10
0.2297184157193666
 20
0.2438436918379239
 10
0.2275136869868763
 20
0.2420177686302622
 10
0.225642154066561
 20
0.2398515275189084
 10
0.2251123588209651
 20
0.2389724182656892
 10
0.2245760396629706
 20
0.2371715197970161
 10
0.2246751822621462
 20
0.2352497544185326
 10
0.2254074599730806
 20
0.2334734397082911
 10
0.2280628059427414
 20
0.2301669654839316
 10
0.2302511017427253
 20
0.2283670215031179
 10
0.2327047381377287
 20
0.2269502650990489
 10
0.2353548136983505
 20
0.225966747250709
 10
0.2381313651310251
 20
0.2254373780110654
 10
0.2410003384371677
 20
0.2253888002680924
 10
0.2438362792466133
 20
0.2258262328799674
 10
0.2465825253788303
 20
0.226752919410842
 10
0.2491336095258756
 20
0.2281290614757836
 10
0.2514134280513023
 20
0.2299160092088641
 10
0.2533655821854399
 20
0.2320561870002393
 10
0.2539205443728285
 20
0.2329231018403561
 10
0.2545058068190009
 20
0.2347075369577851
 10
0.2544602138602787
 20
0.2366303525625426
  0
LWPOLYLINE
  5
BB
330
B3
100
AcDbEntity
  8
BLOCKS
100
AcDbPolyline
 90
       31
 70
     1
 43
0.0
 10
0.3137857501254153
 20
0.2350875035862145
 10
0.3123664742616388
 20
0.2372065687534359
 10
0.3106493465984919
 20
0.2390923307798403
 10
0.3084624551898774
 20
0.2408382841771299
 10
0.3060187394987235
 20
0.2422014610075394
 10
0.3033826908362247
 20
0.2431346884491177
 10
0.3006281680197027
 20
0.2436160175708437
 10
0.2977899509218122
 20
0.2436200266516835
 10
0.2949918459298217
 20
0.2431439024429665
 10
0.2922923526971477
 20
0.2421865635866425
 10
0.2897923119987897
 20
0.2407884847951891
 10
0.2875662537510699
 20
0.23898861874261
 10
0.2856693644082462
 20
0.2368445394646415
 10
0.2851292630635793
 20
0.2359717222001336
 10
0.2845717933711551
 20
0.2341772562288042
 10
0.2846483194646918
 20
0.2322544577548342
 10
0.2853596480966427
 20
0.230469653294449
 10
0.2879759095439258
 20
0.2271321771075918
 10
0.2901428775246089
 20
0.2253066201185447
 10
0.2925796759586241
 20
0.2238611034018731
 10
0.2952179970355644
 20
0.2228464848546992
 10
0.2979881283101946
 20
0.222284495953545
 10
0.3008563315947423
 20
0.2222021782675938
 10
0.3036972225992152
 20
0.222606225819959
 10
0.3064541812241792
 20
0.2235005483803434
 10
0.3090212792293219
 20
0.2248465907662194
 10
0.3113219635265541
 20
0.2266066008755843
 10
0.3132991618690717
 20
0.2287236704138422
 10
0.3138642849464936
 20
0.2295839981092058
 10
0.3144705008487563
 20
0.231361426223998
 10
0.3144475330465593
 20
0.2332846450299257
  0
LWPOLYLINE
  5
BC
330
B3
100
AcDbEntity
  8
BLOCKS
100
AcDbPolyline
 90
       31
 70
     1
 43
0.0
 10
0.3723565661552506
 20
0.2331797594041518
 10
0.3706617433642823
 20
0.2350855868777444
 10
0.3684955444764348
 20
0.236857140501229
 10
0.3660680356940542
 20
0.2382489646694239
 10
0.3634431488760867
 20
0.2392131313126811
 10
0.3606944794995659
 20
0.2397268243311146
 10
0.3578565059431913
 20
0.2397642147008128
 10
0.35505299293016
 20
0.2393210332243143
 10
0.3523424233441084
 20
0.2383955105772202
 10
0.3498261071695285
 20
0.2370269326372636
 10
0.3475790274458177
 20
0.2352533728030721
 10
0.3456570441697391
 20
0.2331317520537368
 10
0.3451067114645632
 20
0.2322653475571315
 10
0.344528168379691
 20
0.2304775623993009
 10
0.3445820673780009
 20
0.2285539969042247
 10
0.3452723484981757
 20
0.2267609496728937
 10
0.3478491633879912
 20
0.2233929333593778
 10
0.3499945036869754
 20
0.2215420159803898
 10
0.3524141269587879
 20
0.2200679389799234
 10
0.3550403284643799
 20
0.219022360135682
 10
0.3578036562535569
 20
0.218427829340385
 10
0.3606706926180134
 20
0.2183117831025356
 10
0.3635161406984668
 20
0.2186823896838632
 10
0.3662834303115847
 20
0.2195442245182448
 10
0.3688661869429168
 20
0.2208599809614498
 10
0.371187418646052
 20
0.2225928098990835
 10
0.373189387594639
 20
0.2246864782267721
 10
0.3737645933610487
 20
0.2255400997262313
 10
0.3743916788319836
 20
0.2273102748799829
 10
0.3743913393645677
 20
0.2292336307543792
 10
0.3737508129343183
 20
0.2310441481027965
  0
LWPOLYLINE
  5
BD
330
B3
100
AcDbEntity
  8
BLOCKS
100
AcDbPolyline
 90
       31
 70
     1
 43
0.0
 10
0.3737508129343183
 20
0.2960342482879241
 10
0.3723565661552524
 20
0.2981698595893931
 10
0.3706617433642805
 20
0.300075687062872
 10
0.3684955444764366
 20
0.3018472406863566
 10
0.3660680356940524
 20
0.3032390648546652
 10
0.3634431488760867
 20
0.3042032314978087
 10
0.3606944794995659
 20
0.3047169245162422
 10
0.3578565059431913
 20
0.3047543148859404
 10
0.35505299293016
 20
0.3043111334094419
 10
0.3523424233441084
 20
0.3033856107623478
 10
0.3498261071695303
 20
0.3020170328225049
 10
0.3475790274458195
 20
0.3002434729881997
 10
0.3456570441697391
 20
0.2981218522388644
 10
0.3451067114645632
 20
0.2972554477422591
 10
0.344528168379691
 20
0.2954676625844286
 10
0.3445820673780009
 20
0.2935440970893523
 10
0.3452723484981757
 20
0.2917510498580213
 10
0.3478491633879912
 20
0.2883830335445054
 10
0.3499945036869771
 20
0.2865321161655174
 10
0.3524141269587879
 20
0.285058039165051
 10
0.3550403284643799
 20
0.2840124603208096
 10
0.3578036562535605
 20
0.2834179295255126
 10
0.3606706926180134
 20
0.2833018832877769
 10
0.3635161406984668
 20
0.2836724898689908
 10
0.3662834303115847
 20
0.2845343247033725
 10
0.3688661869429168
 20
0.2858500811465774
 10
0.3711874186460538
 20
0.2875829100842111
 10
0.3731893875946373
 20
0.2896765784118997
 10
0.3737645933610487
 20
0.290530199911359
 10
0.3743916788319836
 20
0.2923003750652242
 10
0.3743913393645677
 20
0.2942237309396205
  0
LWPOLYLINE
  5
BE
330
B3
100
AcDbEntity
  8
BLOCKS
100
AcDbPolyline
 90
       31
 70
     1
 43
0.0
 10
0.3144475330465593
 20
0.298274745215167
 10
0.3137857501254171
 20
0.3000776037713422
 10
0.3123664742616388
 20
0.3021966689385636
 10
0.3106493465984901
 20
0.3040824309649679
 10
0.3084624551898774
 20
0.3058283843622576
 10
0.3060187394987235
 20
0.307191561192667
 10
0.3033826908362247
 20
0.308124788634359
 10
0.3006281680197027
 20
0.3086061177559713
 10
0.2977899509218122
 20
0.3086101268369248
 10
0.2949918459298217
 20
0.3081340026282078
 10
0.2922923526971477
 20
0.3071766637717701
 10
0.2897923119987897
 20
0.3057785849804304
 10
0.2875662537510699
 20
0.3039787189277376
 10
0.285669364408248
 20
0.3018346396498828
 10
0.2851292630635793
 20
0.3009618223852613
 10
0.2845717933711551
 20
0.2991673564140456
 10
0.2846483194646918
 20
0.2972445579399618
 10
0.2853596480966427
 20
0.2954597534796903
 10
0.287975909543924
 20
0.2921222772928331
 10
0.2901428775246071
 20
0.2902967203036724
 10
0.2925796759586241
 20
0.2888512035870008
 10
0.2952179970355662
 20
0.2878365850398268
 10
0.2979881283101928
 20
0.2872745961386727
 10
0.3008563315947406
 20
0.2871922784528351
 10
0.3036972225992152
 20
0.2875963260052003
 10
0.3064541812241792
 20
0.288490648565471
 10
0.3090212792293219
 20
0.289836690951347
 10
0.3113219635265541
 20
0.2915967010607119
 10
0.3132991618690735
 20
0.2937137705990835
 10
0.3138642849464919
 20
0.2945740982944471
 10
0.3144705008487563
 20
0.2963515264092393
  0
LWPOLYLINE
  5
BF
330
B3
100
AcDbEntity
  8
BLOCKS
100
AcDbPolyline
 90
       31
 70
     1
 43
0.0
 10
0.3106493465984901
 20
0.3690725311500955
 10
0.3084624551898756
 20
0.3708184845473852
 10
0.3060187394987253
 20
0.3721816613779083
 10
0.3033826908362247
 20
0.3731148888194866
 10
0.3006281680197027
 20
0.373596217941099
 10
0.2977899509218122
 20
0.3736002270220524
 10
0.2949918459298217
 20
0.3731241028133354
 10
0.2922923526971477
 20
0.3721667639570114
 10
0.2897923119987897
 20
0.370768685165558
 10
0.2875662537510699
 20
0.3689688191128653
 10
0.285669364408248
 20
0.3668247398350104
 10
0.2851292630635793
 20
0.3659519225703889
 10
0.2845717933711551
 20
0.3641574565991732
 10
0.2846483194646918
 20
0.3622346581250895
 10
0.2853596480966409
 20
0.360449853664818
 10
0.287975909543924
 20
0.3571123774779608
 10
0.2901428775246071
 20
0.3552868204888
 10
0.2925796759586223
 20
0.3538413037721284
 10
0.2952179970355662
 20
0.3528266852250681
 10
0.2979881283101928
 20
0.352264696323914
 10
0.3008563315947406
 20
0.3521823786379628
 10
0.3036972225992152
 20
0.352586426190328
 10
0.3064541812241792
 20
0.3534807487505986
 10
0.3090212792293219
 20
0.3548267911365883
 10
0.3113219635265541
 20
0.3565868012459532
 10
0.3132991618690717
 20
0.3587038707842112
 10
0.3138642849464936
 20
0.3595641984795748
 10
0.3144705008487563
 20
0.361341626594367
 10
0.3144475330465593
 20
0.3632648454002947
 10
0.3137857501254153
 20
0.3650677039564698
 10
0.3123664742616405
 20
0.3671867691238049
  0
LWPOLYLINE
  5
C0
330
B3
100
AcDbEntity
  8
BLOCKS
100
AcDbPolyline
 90
       31
 70
     1
 43
0.0
 10
0.3743913393645677
 20
0.3592138311247481
 10
0.3737508129343201
 20
0.3610243484731654
 10
0.3723565661552524
 20
0.3631599597745208
 10
0.3706617433642787
 20
0.3650657872479996
 10
0.3684955444764366
 20
0.3668373408714842
 10
0.3660680356940524
 20
0.3682291650397929
 10
0.3634431488760885
 20
0.3691933316829363
 10
0.3606944794995659
 20
0.3697070247013698
 10
0.3578565059431913
 20
0.3697444150711817
 10
0.35505299293016
 20
0.3693012335946832
 10
0.3523424233441066
 20
0.3683757109475891
 10
0.3498261071695285
 20
0.3670071330076325
 10
0.3475790274458195
 20
0.3652335731733274
 10
0.3456570441697391
 20
0.3631119524239921
 10
0.3451067114645632
 20
0.3622455479275004
 10
0.344528168379691
 20
0.3604577627696699
 10
0.3445820673780009
 20
0.35853419727448
 10
0.3452723484981757
 20
0.356741150043149
 10
0.347849163387993
 20
0.3533731337297468
 10
0.3499945036869754
 20
0.3515222163506451
 10
0.3524141269587897
 20
0.3500481393502923
 10
0.3550403284643799
 20
0.3490025605060509
 10
0.3578036562535569
 20
0.3484080297107539
 10
0.3606706926180134
 20
0.3482919834729046
 10
0.3635161406984668
 20
0.3486625900541185
 10
0.3662834303115847
 20
0.3495244248886138
 10
0.3688661869429168
 20
0.350840181331705
 10
0.3711874186460538
 20
0.3525730102693387
 10
0.3731893875946373
 20
0.3546666785971411
 10
0.3737645933610505
 20
0.3555203000964866
 10
0.3743916788319836
 20
0.3572904752503518
  0
LWPOLYLINE
  5
C1
330
B3
100
AcDbEntity
  8
BLOCKS
100
AcDbPolyline
 90
       31
 70
     1
 43
0.0
 10
0.3737508129343166
 20
0.4260144486582931
 10
0.3723565661552524
 20
0.4281500599596484
 10
0.3706617433642823
 20
0.430055887433241
 10
0.3684955444764366
 20
0.4318274410567256
 10
0.3660680356940542
 20
0.4332192652249205
 10
0.363443148876085
 20
0.4341834318681777
 10
0.3606944794995659
 20
0.4346971248866112
 10
0.3578565059431895
 20
0.4347345152563094
 10
0.35505299293016
 20
0.4342913337798109
 10
0.3523424233441084
 20
0.4333658111327168
 10
0.3498261071695285
 20
0.4319972331927602
 10
0.3475790274458195
 20
0.4302236733585687
 10
0.3456570441697391
 20
0.4281020526092334
 10
0.3451067114645632
 20
0.4272356481126281
 10
0.344528168379691
 20
0.4254478629547976
 10
0.3445820673780009
 20
0.4235242974597213
 10
0.3452723484981757
 20
0.4217312502283903
 10
0.3478491633879912
 20
0.4183632339148744
 10
0.3499945036869771
 20
0.4165123165358864
 10
0.3524141269587879
 20
0.41503823953542
 10
0.3550403284643817
 20
0.4139926606911786
 10
0.3578036562535587
 20
0.4133981298958816
 10
0.3606706926180134
 20
0.4132820836580322
 10
0.3635161406984668
 20
0.4136526902393598
 10
0.3662834303115847
 20
0.4145145250737415
 10
0.3688661869429168
 20
0.4158302815169464
 10
0.371187418646052
 20
0.4175631104545801
 10
0.373189387594639
 20
0.4196567787822687
 10
0.3737645933610505
 20
0.420510400281728
 10
0.3743916788319836
 20
0.4222805754354795
 10
0.3743913393645677
 20
0.4242039313098758
  0
LWPOLYLINE
  5
C2
330
B3
100
AcDbEntity
  8
BLOCKS
100
AcDbPolyline
 90
       31
 70
     1
 43
0.0
 10
0.3144475330465593
 20
0.4282549455854224
 10
0.3137857501254153
 20
0.4300578041417112
 10
0.3123664742616388
 20
0.4321768693089325
 10
0.3106493465984901
 20
0.4340626313353369
 10
0.3084624551898756
 20
0.4358085847326266
 10
0.3060187394987217
 20
0.437171761563036
 10
0.3033826908362247
 20
0.4381049890046143
 10
0.3006281680197045
 20
0.4385863181263403
 10
0.2977899509218122
 20
0.4385903272071801
 10
0.2949918459298217
 20
0.4381142029984631
 10
0.2922923526971477
 20
0.4371568641421391
 10
0.2897923119987897
 20
0.4357587853506857
 10
0.2875662537510699
 20
0.4339589192981066
 10
0.2856693644082515
 20
0.4318148400201381
 10
0.2851292630635793
 20
0.4309420227556302
 10
0.2845717933711551
 20
0.4291475567843009
 10
0.2846483194646918
 20
0.4272247583103308
 10
0.2853596480966427
 20
0.4254399538499456
 10
0.2879759095439258
 20
0.4221024776630884
 10
0.2901428775246071
 20
0.4202769206740414
 10
0.2925796759586223
 20
0.4188314039573698
 10
0.2952179970355644
 20
0.4178167854101958
 10
0.2979881283101946
 20
0.4172547965090417
 10
0.3008563315947406
 20
0.4171724788230904
 10
0.3036972225992152
 20
0.4175765263754557
 10
0.3064541812241792
 20
0.41847084893584
 10
0.3090212792293219
 20
0.419816891321716
 10
0.3113219635265541
 20
0.4215769014310809
 10
0.3132991618690717
 20
0.4236939709693388
 10
0.3138642849464936
 20
0.4245542986647024
 10
0.3144705008487563
 20
0.4263317267794946
  0
LWPOLYLINE
  5
C3
330
B3
100
AcDbEntity
  8
BLOCKS
100
AcDbPolyline
 90
       31
 70
     1
 43
0.0
 10
-0.3465286126749625
 20
0.4865314701127091
 10
-0.3460792460104241
 20
0.4874575163685222
 10
-0.3457074888131686
 20
0.4892982974988627
 10
-0.3459784705228301
 20
0.4912024742800441
 10
-0.3468673932410446
 20
0.4929048782547625
 10
-0.3485482848585395
 20
0.494823114832002
 10
-0.3504944285996476
 20
0.4964715704434184
 10
-0.3528883653420678
 20
0.4979207781765354
 10
-0.3554875790195684
 20
0.4989572744646012
 10
-0.3582220294808209
 20
0.4995426014224904
 10
-0.3610156427176872
 20
0.4996645227549834
 10
-0.3638306487637415
 20
0.4993023165137629
 10
-0.3665439132239197
 20
0.4984691662532442
 10
-0.3690972859642532
 20
0.497171547178823
 10
-0.3713959928403288
 20
0.4954626059212615
 10
-0.3733711541681473
 20
0.4933905852161616
 10
-0.3749754752354431
 20
0.4910196978208888
 10
-0.3753984174840426
 20
0.4900844946729422
 10
-0.3757196371420672
 20
0.4882331072791431
 10
-0.3753955991534852
 20
0.4863362573128143
 10
-0.3744598749609089
 20
0.4846581487965978
 10
-0.3714347598108567
 20
0.4816861205134729
 10
-0.3690503064844677
 20
0.4801554042156795
 10
-0.3664473256487071
 20
0.4790363639782527
 10
-0.3637001176336945
 20
0.478370619554994
 10
-0.3608806166763934
 20
0.4781707265619844
 10
-0.3580257688208626
 20
0.4784591476499145
 10
-0.3552607740163314
 20
0.4792263440157285
 10
-0.3526422835844141
 20
0.4804688877160288
 10
-0.3502703643317879
 20
0.4821348792264644
 10
-0.3482160571426629
 20
0.4841770053197934
  0
LWPOLYLINE
  5
C4
330
B3
100
AcDbEntity
  8
BLOCKS
100
AcDbPolyline
 90
       48
 70
     1
 43
0.0
 10
-0.2861578287584354
 20
0.4911756593451173
 10
-0.2857644404197082
 20
0.4930119407068787
 10
-0.286013000664834
 20
0.494919172878781
 10
-0.2868818330286356
 20
0.4966319140908127
 10
-0.2885594878132842
 20
0.4985907926245546
 10
-0.2904666551595714
 20
0.5002410187199758
 10
-0.2916857139392785
 20
0.5010676687021487
 10
-0.2928772830490178
 20
0.5017373994453465
 10
-0.2954302156998807
 20
0.5027852774769599
 10
-0.2968534442880877
 20
0.5031685015554786
 10
-0.2981969949383423
 20
0.503409954010408
 10
-0.3009495761103942
 20
0.503557494912684
 10
-0.3024435641938741
 20
0.5034452324171071
 10
-0.3038101378131106
 20
0.5032218065888401
 10
-0.3051723231471559
 20
0.5028795632719039
 10
-0.3064915275356732
 20
0.5024272416286522
 10
-0.3078727625066548
 20
0.5018147926126631
 10
-0.3090967368872253
 20
0.5011395472663481
 10
-0.3102764100965096
 20
0.500353531089445
 10
-0.3113786437413797
 20
0.4994779568407921
 10
-0.3124745055294369
 20
0.4984423026453442
 10
-0.3134111919061944
 20
0.4973915807462391
 10
-0.3142582438730184
 20
0.4962673765805903
 10
-0.3150101494645732
 20
0.4950774560682021
 10
-0.3154440651522474
 20
0.4941472920431807
 10
-0.3157870442315147
 20
0.4922998107566628
 10
-0.3154853451781339
 20
0.4903992808735893
 10
-0.3145694287411054
 20
0.4887102829854939
 10
-0.3136388300822563
 20
0.4876087058620442
 10
-0.3126478612088057
 20
0.486613991922809
 10
-0.3115794889277534
 20
0.4857028805757864
 10
-0.3103677361998081
 20
0.4848338342100078
 10
-0.3066235743340506
 20
0.4829946478869261
 10
-0.3051960298995944
 20
0.4825689342646911
 10
-0.3038449068541276
 20
0.482288291180339
 10
-0.3010674347775453
 20
0.4820635977594066
 10
-0.299554477577427
 20
0.4821358587997793
 10
-0.2981672688233043
 20
0.4823239528360546
 10
-0.2967812056216736
 20
0.4826322655496825
 10
-0.2954355615697128
 20
0.4830530446421335
 10
-0.2940214025657077
 20
0.4836346508808447
 10
-0.2927648331279275
 20
0.4842841615908356
 10
-0.2915500826981212
 20
0.4850470415282189
 10
-0.2904112781362862
 20
0.4859026841278365
 10
-0.289274649683966
 20
0.4869203996227043
 10
-0.2882985580855521
 20
0.4879577453591537
 10
-0.2874111087711597
 20
0.4890718391252449
 10
-0.2866180593025547
 20
0.4902549623681125
  0
LWPOLYLINE
  5
C5
330
B3
100
AcDbEntity
  8
BLOCKS
100
AcDbPolyline
 90
       31
 70
     1
 43
0.0
 10
-0.2261968133331447
 20
0.4941887819379645
 10
-0.2257818482895484
 20
0.4960203094287863
 10
-0.2260079526746725
 20
0.4979303330708263
 10
-0.2268565744560878
 20
0.4996531745132416
 10
-0.2284918677540659
 20
0.5016104169530991
 10
-0.2303986872960149
 20
0.5033041921592485
 10
-0.2327578639074819
 20
0.504809307295318
 10
-0.2353319711052357
 20
0.5059066535807233
 10
-0.2380518929758963
 20
0.5065561363390998
 10
-0.2408418644657377
 20
0.5067437333030967
 10
-0.2436646136164491
 20
0.5064478398611528
 10
-0.2463967299215461
 20
0.5056787396399614
 10
-0.2489799269884312
 20
0.5044415382868693
 10
-0.2513182064433383
 20
0.5027871385148046
 10
-0.2533415725877131
 20
0.5007621495697095
 10
-0.2550012329712583
 20
0.4984296540059177
 10
-0.2554460620532755
 20
0.4975046578186948
 10
-0.2558107530927565
 20
0.4956613382917113
 10
-0.2555314347233253
 20
0.4937573914849054
 10
-0.2546354527852497
 20
0.4920577379465385
 10
-0.2516811020528422
 20
0.4890153775708086
 10
-0.2493333240031958
 20
0.4874289994895662
 10
-0.2467573928210385
 20
0.4862490434902611
 10
-0.2440266090256706
 20
0.4855188654477161
 10
-0.2412125915321983
 20
0.4852527094892594
 10
-0.2383517476485437
 20
0.4854739010672802
 10
-0.2355694671083732
 20
0.4861758488822261
 10
-0.2329224662093576
 20
0.4873564584514725
 10
-0.2305120051803176
 20
0.488966198313392
 10
-0.2284102184520194
 20
0.4909594393076305
 10
-0.2266678440707022
 20
0.4932735616448554
  0
LWPOLYLINE
  5
C6
330
B3
100
AcDbEntity
  8
BLOCKS
100
AcDbPolyline
 90
       31
 70
     1
 43
0.0
 10
-0.1684120768638593
 20
0.5039445818936202
 10
-0.1702988371415337
 20
0.5056606668831592
 10
-0.1726401427836315
 20
0.5071934252337087
 10
-0.1752011615578297
 20
0.5083209708435561
 10
-0.1779132540482937
 20
0.5090023989067732
 10
-0.180700825415963
 20
0.5092227970187651
 10
-0.1835268604604732
 20
0.5089601236901445
 10
-0.1862678362267545
 20
0.5082232103487741
 10
-0.1888654102868692
 20
0.5070164767562347
 10
-0.1912229920366783
 20
0.5053896930226074
 10
-0.1932700422609592
 20
0.5033886419176952
 10
-0.1949570297165852
 20
0.5010758277608148
 10
-0.1954127106380312
 20
0.5001561274112874
 10
-0.1957990631722239
 20
0.4983172247202674
 10
-0.1955421641384802
 20
0.496410124455565
 10
-0.194666240684251
 20
0.494700050462825
 10
-0.1917478878522605
 20
0.4916231531193489
 10
-0.1894189360451008
 20
0.4900092715097344
 10
-0.1868570653192663
 20
0.4887991004490005
 10
-0.1841350610388517
 20
0.4880368549328296
 10
-0.1813243695809667
 20
0.4877376204458415
 10
-0.1784611213096667
 20
0.4879251490295929
 10
-0.175670774829868
 20
0.4885943246064244
 10
-0.1730100671567563
 20
0.4897437199045953
 10
-0.1705808342526289
 20
0.4913249978577597
 10
-0.1684557423862003
 20
0.493293380868181
 10
-0.1666862628174801
 20
0.4955868502325984
 10
-0.166204497067147
 20
0.4964964671947883
 10
-0.1657680127410419
 20
0.4983229873701021
 10
-0.1659716299781149
 20
0.5002355381756161
 10
-0.1667999237458932
 20
0.501968241443592
  0
LWPOLYLINE
  5
C7
330
B3
100
AcDbEntity
  8
BLOCKS
100
AcDbPolyline
 90
       31
 70
     1
 43
0.0
 10
-0.1057312384159701
 20
0.4999196558891299
 10
-0.1059123403286826
 20
0.5018344692016399
 10
-0.1067201914645377
 20
0.5035767945257703
 10
-0.1083089813146998
 20
0.5055719595025039
 10
-0.1101754212405002
 20
0.5073101168055701
 10
-0.1124985319261942
 20
0.5088703062693867
 10
-0.1150461078861635
 20
0.5100278951753126
 10
-0.1177499957003594
 20
0.5107411742480963
 10
-0.1205347812051141
 20
0.5109943430095428
 10
-0.1233637110801151
 20
0.5107649261426559
 10
-0.1261131670146831
 20
0.510060301654562
 10
-0.1287247586188798
 20
0.5088842028087584
 10
-0.1311013164242887
 20
0.5072852602260128
 10
-0.1331717674601496
 20
0.5053084238642214
 10
-0.1348858485445667
 20
0.5030156111587303
 10
-0.1353523182488789
 20
0.50210133391397
 10
-0.1357602788147858
 20
0.5002671025238215
 10
-0.1355258346661063
 20
0.4983571127036158
 10
-0.1346700909049474
 20
0.4966368548944047
 10
-0.1317881398115013
 20
0.4935258463603987
 10
-0.1294783365243557
 20
0.4918846845495182
 10
-0.1269308807634086
 20
0.4906444658892042
 10
-0.1242180326655955
 20
0.4898502583781692
 10
-0.1214110561833781
 20
0.4895179867704656
 10
-0.1185457997372499
 20
0.4896718264099036
 10
-0.1157477734425907
 20
0.4903081371487588
 10
-0.1130737271808826
 20
0.4914261591242166
 10
-0.1106260585559706
 20
0.4929787563530681
 10
-0.108477955619044
 20
0.4949220089972642
 10
-0.1066816157213601
 20
0.49719450802138
 10
-0.106189181624412
 20
0.4980983957808576
  0
LWPOLYLINE
  5
C8
330
B3
100
AcDbEntity
  8
BLOCKS
100
AcDbPolyline
 90
       31
 70
     1
 43
0.0
 10
-0.0456798331303521
 20
0.5008100940407303
 10
-0.045838394658043
 20
0.5027269048906647
 10
-0.0466256913725118
 20
0.5044786111702706
 10
-0.0481908981000565
 20
0.5064923245849969
 10
-0.0500367593982905
 20
0.5082523136775308
 10
-0.0523413536583437
 20
0.5098397183575117
 10
-0.05487513427361
 20
0.5110271903737385
 10
-0.0575704432508211
 20
0.5117722217534038
 10
-0.0603520575374201
 20
0.5120581261311373
 10
-0.0631834907790339
 20
0.5118619974724652
 10
-0.0659410464155048
 20
0.511189759342642
 10
-0.0685662941749055
 20
0.5100444579908299
 10
-0.0709614991707284
 20
0.5084735778185632
 10
-0.0730550645116637
 20
0.5065212297522522
 10
-0.0747960020324214
 20
0.504248735774695
 10
-0.0752731959700768
 20
0.5033400081512128
 10
-0.0757027081146102
 20
0.5015107018808749
 10
-0.075490751293092
 20
0.4995980868070547
 10
-0.0746553056417891
 20
0.4978678832286505
 10
-0.0718101550877837
 20
0.4947231940017219
 10
-0.0695198199484288
 20
0.4930549790914256
 10
-0.0669871316662079
 20
0.4917848844517039
 10
-0.0642838151516294
 20
0.4909588248472119
 10
-0.0614809420710749
 20
0.4905935620979563
 10
-0.0586140739408343
 20
0.4907136915049933
 10
-0.0558087550187931
 20
0.491317049354052
 10
-0.0531217401997726
 20
0.4924035432960637
 10
-0.0506559745594917
 20
0.4939272449543069
 10
-0.0484851578039471
 20
0.4958450983272087
 10
-0.0466622061526358
 20
0.4980963125453855
 10
-0.0461591718515049
 20
0.4989943460234372
  0
LWPOLYLINE
  5
C9
330
B3
100
AcDbEntity
  8
BLOCKS
100
AcDbPolyline
 90
       31
 70
     1
 43
0.0
 10
0.0134752607261373
 20
0.504673566584529
 10
0.0119338537126179
 20
0.5067055497821685
 10
0.0101088264700025
 20
0.5084871271189968
 10
0.0078230675425495
 20
0.5101015273520489
 10
0.0053034328934718
 20
0.5113187181576678
 10
0.0026170757268318
 20
0.5120953987476469
 10
-0.0001609824251982
 20
0.5124139991786479
 10
-0.0029945272231213
 20
0.5122511858681947
 10
-0.0057598009742961
 20
0.5116114271201014
 10
-0.0083983416102971
 20
0.5104970817476442
 10
-0.0108118623509697
 20
0.5089544813623661
 10
-0.0129282522919496
 20
0.5070268917550039
 10
-0.0146958053402173
 20
0.5047750309704498
 10
-0.0151836574777047
 20
0.5038719787169157
 10
-0.0156346617654979
 20
0.5020478507034341
 10
-0.0154452216014658
 20
0.5001328750414587
 10
-0.0146301896679777
 20
0.4983929651173185
 10
-0.011822233361892
 20
0.4952150303556664
 10
-0.0095516833041263
 20
0.4935199931917396
 10
-0.0070341129709668
 20
0.4922201983265495
 10
-0.0043407021212829
 20
0.4913624009376463
 10
-0.0015423203005707
 20
0.4909641975916657
 10
0.0013257628000467
 20
0.4910506001428985
 10
0.0041379861528377
 20
0.4916209216103198
 10
0.0068375977033206
 20
0.4926757371711119
 10
0.0093211191493126
 20
0.4941703324107039
 10
0.0115143493284844
 20
0.4960625211222123
 10
0.0133636604755836
 20
0.4982921390140973
 10
0.0138772253716209
 20
0.499184193941801
 10
0.0143778932751761
 20
0.5009941786072432
 10
0.0142418940740576
 20
0.5029127217486576
  0
LWPOLYLINE
  5
CA
330
B3
100
AcDbEntity
  8
BLOCKS
100
AcDbPolyline
 90
       31
 70
     1
 43
0.0
 10
0.07391170228113
 20
0.4986679132650807
 10
0.0744336300852684
 20
0.5004718841151999
 10
0.0743202120301287
 20
0.5023918940623844
 10
0.0735743481345512
 20
0.5041616337911137
 10
0.0720569541330907
 20
0.5062116055881916
 10
0.070253013491147
 20
0.5080145246369057
 10
0.0679864061968427
 20
0.5096556970241864
 10
0.065481266177942
 20
0.5109024381857808
 10
0.0628042325567222
 20
0.5117106605100617
 10
0.0600301149635794
 20
0.5120619129066882
 10
0.0571948507118343
 20
0.5119324374743428
 10
0.0544222415011877
 20
0.5113252466369432
 10
0.0517707731066395
 20
0.5102420114457118
 10
0.0493392706011875
 20
0.5087279043107174
 10
0.0472003489236368
 20
0.5068253398997058
 10
0.0454064249397046
 20
0.504594423917979
 10
0.0449079821107752
 20
0.5036971719976009
 10
0.044435548089151
 20
0.5018784746616803
 10
0.0446024453811926
 20
0.4999614034034039
 10
0.0453969508137391
 20
0.4982120279001947
 10
0.0481673243103131
 20
0.4950012873626975
 10
0.0504177750905228
 20
0.4932796625021183
 10
0.0529198790962955
 20
0.4919503472756333
 10
0.0556030115701631
 20
0.4910609308034282
 10
0.058396514894346
 20
0.4906298419634823
 10
0.0612654160834811
 20
0.4906825057026936
 10
0.064084154714962
 20
0.4912197118678705
 10
0.0667959894279378
 20
0.4922427030835479
 10
0.0692969230129545
 20
0.4937079850840292
 10
0.0715122631192191
 20
0.4955742472953944
 10
0.0733876778566742
 20
0.4977819603292346
  0
LWPOLYLINE
  5
CB
330
B3
100
AcDbEntity
  8
BLOCKS
100
AcDbPolyline
 90
       31
 70
     1
 43
0.0
 10
0.0744336300852684
 20
0.4354817839299585
 10
0.0743202120301287
 20
0.4374017938772568
 10
0.073574348134553
 20
0.4391715336059861
 10
0.0720569541330924
 20
0.441221505403064
 10
0.0702530134911452
 20
0.4430244244517781
 10
0.0679864061968409
 20
0.4446655968390587
 10
0.065481266177942
 20
0.4459123380006531
 10
0.0628042325567222
 20
0.4467205603249341
 10
0.0600301149635776
 20
0.4470718127215605
 10
0.0571948507118343
 20
0.4469423372892152
 10
0.0544222415011877
 20
0.4463351464518155
 10
0.0517707731066395
 20
0.4452519112605842
 10
0.0493392706011875
 20
0.4437378041254761
 10
0.0472003489236386
 20
0.4418352397145782
 10
0.0454064249397046
 20
0.4396043237327377
 10
0.0449079821107752
 20
0.4387070718124733
 10
0.044435548089151
 20
0.4368883744765526
 10
0.0446024453811926
 20
0.4349713032182763
 10
0.0453969508137391
 20
0.4332219277149534
 10
0.0481673243103114
 20
0.4300111871775698
 10
0.0504177750905264
 20
0.4282895623169907
 10
0.0529198790962973
 20
0.4269602470905057
 10
0.0556030115701614
 20
0.4260708306181869
 10
0.0583965148943442
 20
0.4256397417783547
 10
0.0612654160834811
 20
0.4256924055174523
 10
0.064084154714962
 20
0.4262296116827429
 10
0.0667959894279378
 20
0.4272526028984203
 10
0.0692969230129545
 20
0.4287178848989015
 10
0.0715122631192191
 20
0.4305841471102668
 10
0.0733876778566742
 20
0.432791860144107
 10
0.07391170228113
 20
0.4336778130799531
  0
LWPOLYLINE
  5
CC
330
B3
100
AcDbEntity
  8
BLOCKS
100
AcDbPolyline
 90
       31
 70
     1
 43
0.0
 10
0.0143778932751761
 20
0.4360040784220019
 10
0.0142418940740576
 20
0.4379226215635299
 10
0.013475260726139
 20
0.4396834663994014
 10
0.0119338537126215
 20
0.4417154495970408
 10
0.0101088264700042
 20
0.4434970269338692
 10
0.0078230675425495
 20
0.4451114271669212
 10
0.0053034328934718
 20
0.4463286179725401
 10
0.0026170757268336
 20
0.4471052985625193
 10
-0.0001609824251982
 20
0.4474238989935202
 10
-0.0029945272231231
 20
0.447261085683067
 10
-0.0057598009742961
 20
0.44662132693486
 10
-0.0083983416102971
 20
0.4455069815625166
 10
-0.0108118623509714
 20
0.4439643811772385
 10
-0.0129282522919496
 20
0.4420367915698762
 10
-0.0146958053402173
 20
0.4397849307853221
 10
-0.0151836574777047
 20
0.4388818785317881
 10
-0.0156346617654979
 20
0.4370577505183065
 10
-0.0154452216014658
 20
0.4351427748562174
 10
-0.0146301896679777
 20
0.4334028649320772
 10
-0.0118222333618938
 20
0.4302249301705388
 10
-0.009551683304128
 20
0.4285298930064983
 10
-0.0070341129709668
 20
0.4272300981414219
 10
-0.0043407021212811
 20
0.4263723007525187
 10
-0.0015423203005707
 20
0.4259740974065381
 10
0.0013257628000467
 20
0.4260604999577709
 10
0.0041379861528377
 20
0.4266308214250785
 10
0.0068375977033206
 20
0.4276856369859843
 10
0.0093211191493143
 20
0.4291802322254626
 10
0.0115143493284844
 20
0.4310724209370847
 10
0.0133636604755836
 20
0.4333020388289697
 10
0.0138772253716209
 20
0.4341940937565596
  0
LWPOLYLINE
  5
CD
330
B3
100
AcDbEntity
  8
BLOCKS
100
AcDbPolyline
 90
       31
 70
     1
 43
0.0
 10
-0.045838394658043
 20
0.437736804705537
 10
-0.0466256913725118
 20
0.4394885109850293
 10
-0.0481908981000565
 20
0.4415022243997555
 10
-0.0500367593982905
 20
0.4432622134924032
 10
-0.0523413536583437
 20
0.444849618172384
 10
-0.0548751342736083
 20
0.4460370901886109
 10
-0.0575704432508193
 20
0.4467821215682762
 10
-0.0603520575374184
 20
0.4470680259460096
 10
-0.0631834907790321
 20
0.4468718972873376
 10
-0.0659410464155048
 20
0.4461996591574007
 10
-0.0685662941749037
 20
0.4450543578057023
 10
-0.0709614991707284
 20
0.4434834776334356
 10
-0.0730550645116637
 20
0.4415311295670108
 10
-0.0747960020324161
 20
0.4392586355895674
 10
-0.0752731959700768
 20
0.4383499079660851
 10
-0.0757027081146102
 20
0.4365206016957473
 10
-0.075490751293092
 20
0.4346079866218134
 10
-0.0746553056417891
 20
0.4328777830434092
 10
-0.0718101550877837
 20
0.4297330938164805
 10
-0.0695198199484288
 20
0.428064878906298
 10
-0.0669871316662079
 20
0.4267947842665763
 10
-0.0642838151516294
 20
0.4259687246619706
 10
-0.0614809420710749
 20
0.4256034619128286
 10
-0.0586140739408343
 20
0.4257235913198656
 10
-0.0558087550187931
 20
0.4263269491689244
 10
-0.0531217401997726
 20
0.427413443110936
 10
-0.0506559745594917
 20
0.4289371447691793
 10
-0.0484851578039471
 20
0.4308549981420811
 10
-0.0466622061526376
 20
0.4331062123602579
 10
-0.0461591718515049
 20
0.4340042458381959
 10
-0.0456798331303521
 20
0.4358199938556027
  0
LWPOLYLINE
  5
CE
330
B3
100
AcDbEntity
  8
BLOCKS
100
AcDbPolyline
 90
       31
 70
     1
 43
0.0
 10
-0.1057312384159701
 20
0.4349295557038886
 10
-0.1059123403286826
 20
0.4368443690163986
 10
-0.1067201914645377
 20
0.4385866943406427
 10
-0.108308981314698
 20
0.4405818593172626
 10
-0.1101754212404984
 20
0.4423200166203288
 10
-0.112498531926196
 20
0.4438802060842591
 10
-0.1150461078861635
 20
0.445037794990185
 10
-0.1177499957003594
 20
0.445751074062855
 10
-0.1205347812051141
 20
0.4460042428243014
 10
-0.1233637110801169
 20
0.4457748259575283
 10
-0.1261131670146831
 20
0.4450702014693207
 10
-0.1287247586188798
 20
0.4438941026236308
 10
-0.1311013164242905
 20
0.4422951600407714
 10
-0.1331717674601496
 20
0.4403183236790938
 10
-0.1348858485445703
 20
0.438025510973489
 10
-0.1353523182488789
 20
0.4371112337288423
 10
-0.1357602788147858
 20
0.4352770023386939
 10
-0.1355258346661063
 20
0.4333670125183744
 10
-0.1346700909049474
 20
0.4316467547092771
 10
-0.1317881398115031
 20
0.4285357461751574
 10
-0.1294783365243557
 20
0.4268945843642769
 10
-0.1269308807634104
 20
0.4256543657040766
 10
-0.1242180326655973
 20
0.4248601581930416
 10
-0.1214110561833781
 20
0.4245278865852243
 10
-0.1185457997372517
 20
0.4246817262246623
 10
-0.1157477734425889
 20
0.4253180369636312
 10
-0.1130737271808826
 20
0.4264360589389753
 10
-0.1106260585559706
 20
0.4279886561679405
 10
-0.108477955619044
 20
0.4299319088121365
 10
-0.1066816157213619
 20
0.4322044078362524
 10
-0.106189181624412
 20
0.43310829559573
  0
LWPOLYLINE
  5
CF
330
B3
100
AcDbEntity
  8
BLOCKS
100
AcDbPolyline
 90
       31
 70
     1
 43
0.0
 10
-0.1667999237458932
 20
0.4369781412584644
 10
-0.1684120768638575
 20
0.4389544817084925
 10
-0.1702988371415337
 20
0.4406705666980315
 10
-0.1726401427836315
 20
0.4422033250485811
 10
-0.1752011615578297
 20
0.4433308706584285
 10
-0.1779132540482919
 20
0.4440122987215318
 10
-0.180700825415963
 20
0.4442326968335238
 10
-0.1835268604604696
 20
0.4439700235049031
 10
-0.1862678362267527
 20
0.4432331101636465
 10
-0.1888654102868674
 20
0.442026376571107
 10
-0.1912229920366783
 20
0.4403995928374798
 10
-0.1932700422609592
 20
0.4383985417325676
 10
-0.1949570297165852
 20
0.4360857275756871
 10
-0.1954127106380312
 20
0.4351660272261598
 10
-0.1957990631722239
 20
0.4333271245351398
 10
-0.1955421641384802
 20
0.4314200242704374
 10
-0.1946662406842492
 20
0.4297099502776974
 10
-0.1917478878522605
 20
0.4266330529341076
 10
-0.1894189360451008
 20
0.4250191713244931
 10
-0.186857065319268
 20
0.4238090002637592
 10
-0.1841350610388517
 20
0.423046754747702
 10
-0.1813243695809685
 20
0.4227475202607139
 10
-0.1784611213096667
 20
0.4229350488444652
 10
-0.1756707748298698
 20
0.4236042244212968
 10
-0.1730100671567563
 20
0.4247536197194677
 10
-0.1705808342526289
 20
0.426334897672632
 10
-0.1684557423862003
 20
0.4283032806830534
 10
-0.1666862628174801
 20
0.4305967500474708
 10
-0.166204497067147
 20
0.431506367009547
 10
-0.1657680127410419
 20
0.4333328871849745
 10
-0.1659716299781149
 20
0.4352454379904885
  0
LWPOLYLINE
  5
D0
330
B3
100
AcDbEntity
  8
BLOCKS
100
AcDbPolyline
 90
       31
 70
     1
 43
0.0
 10
-0.2268565744560878
 20
0.4346630743280003
 10
-0.2284918677540659
 20
0.4366203167679715
 10
-0.2303986872960166
 20
0.4383140919741209
 10
-0.2327578639074819
 20
0.4398192071101903
 10
-0.2353319711052357
 20
0.4409165533955957
 10
-0.2380518929758981
 20
0.4415660361538585
 10
-0.2408418644657377
 20
0.441753633117969
 10
-0.2436646136164509
 20
0.4414577396760251
 10
-0.2463967299215461
 20
0.4406886394547201
 10
-0.2489799269884312
 20
0.4394514381016279
 10
-0.2513182064433383
 20
0.4377970383295633
 10
-0.2533415725877131
 20
0.4357720493845818
 10
-0.2550012329712619
 20
0.4334395538206764
 10
-0.2554460620532755
 20
0.4325145576335672
 10
-0.2558107530927565
 20
0.4306712381065836
 10
-0.2555314347233253
 20
0.4287672912997778
 10
-0.2546354527852497
 20
0.4270676377614109
 10
-0.2516811020528422
 20
0.424025277385681
 10
-0.2493333240031976
 20
0.4224388993043249
 10
-0.2467573928210403
 20
0.4212589433051335
 10
-0.2440266090256724
 20
0.4205287652625885
 10
-0.2412125915321983
 20
0.4202626093040181
 10
-0.2383517476485455
 20
0.4204838008820389
 10
-0.235569467108375
 20
0.4211857486970985
 10
-0.2329224662093576
 20
0.4223663582662312
 10
-0.2305120051803176
 20
0.4239760981282644
 10
-0.2284102184520194
 20
0.4259693391225028
 10
-0.2266678440707039
 20
0.4282834614596141
 10
-0.2261968133331447
 20
0.4291986817527232
 10
-0.2257818482895484
 20
0.4310302092436587
 10
-0.2260079526746725
 20
0.4329402328856986
  0
LWPOLYLINE
  5
D1
330
B3
100
AcDbEntity
  8
BLOCKS
100
AcDbPolyline
 90
       48
 70
     1
 43
0.0
 10
-0.286881833028632
 20
0.4316418139056851
 10
-0.2885594878132824
 20
0.4336006924393132
 10
-0.2904666551595696
 20
0.4352509185347344
 10
-0.2916857139392803
 20
0.4360775685170211
 10
-0.2928772830490196
 20
0.4367472992601052
 10
-0.2954302156998842
 20
0.4377951772918323
 10
-0.2968534442880823
 20
0.438178401370351
 10
-0.298196994938344
 20
0.4384198538252804
 10
-0.3009495761103942
 20
0.4385673947274427
 10
-0.3024435641938741
 20
0.4384551322318658
 10
-0.3038101378131088
 20
0.4382317064035988
 10
-0.3051723231471559
 20
0.4378894630867763
 10
-0.3064915275356732
 20
0.4374371414434109
 10
-0.3078727625066548
 20
0.4368246924275354
 10
-0.309096736887227
 20
0.4361494470812204
 10
-0.3102764100965079
 20
0.4353634309043173
 10
-0.3113786437413797
 20
0.4344878566556645
 10
-0.3124745055294369
 20
0.4334522024601029
 10
-0.3134111919061926
 20
0.4324014805611114
 10
-0.3142582438730166
 20
0.4312772763954627
 10
-0.3150101494645785
 20
0.4300873558830745
 10
-0.3154440651522474
 20
0.4291571918579394
 10
-0.3157870442315147
 20
0.4273097105715351
 10
-0.3154853451781339
 20
0.4254091806884617
 10
-0.3145694287411054
 20
0.4237201828003663
 10
-0.3136388300822546
 20
0.4226186056769166
 10
-0.3126478612088075
 20
0.4216238917375677
 10
-0.3115794889277517
 20
0.4207127803906588
 10
-0.3103677361998063
 20
0.4198437340247665
 10
-0.3066235743340488
 20
0.4180045477017984
 10
-0.3051960298995979
 20
0.4175788340795635
 10
-0.303844906854124
 20
0.4172981909950977
 10
-0.3010674347775453
 20
0.417073497574279
 10
-0.299554477577427
 20
0.4171457586146517
 10
-0.2981672688233079
 20
0.4173338526508133
 10
-0.2967812056216754
 20
0.4176421653645548
 10
-0.2954355615697111
 20
0.4180629444568922
 10
-0.2940214025657095
 20
0.4186445506956034
 10
-0.2927648331279275
 20
0.4192940614057079
 10
-0.2915500826981212
 20
0.4200569413430913
 10
-0.290411278136288
 20
0.4209125839427088
 10
-0.289274649683966
 20
0.4219302994375767
 10
-0.2882985580855521
 20
0.4229676451740261
 10
-0.2874111087711597
 20
0.4240817389400036
 10
-0.2866180593025564
 20
0.4252648621829849
 10
-0.2861578287584354
 20
0.4261855591599897
 10
-0.2857644404197082
 20
0.4280218405217511
 10
-0.286013000664834
 20
0.4299290726935397
  0
LWPOLYLINE
  5
D2
330
B3
100
AcDbEntity
  8
BLOCKS
100
AcDbPolyline
 90
       31
 70
     1
 43
0.0
 10
-0.3457074888131686
 20
0.4243081973137351
 10
-0.3459784705228301
 20
0.4262123740949165
 10
-0.3468673932410446
 20
0.4279147780695212
 10
-0.3485482848585377
 20
0.4298330146468743
 10
-0.3504944285996494
 20
0.4314814702582908
 10
-0.3528883653420678
 20
0.4329306779914078
 10
-0.3554875790195684
 20
0.4339671742794735
 10
-0.3582220294808209
 20
0.4345525012372491
 10
-0.3610156427176872
 20
0.4346744225698558
 10
-0.3638306487637433
 20
0.4343122163286353
 10
-0.3665439132239214
 20
0.4334790660681165
 10
-0.3690972859642532
 20
0.4321814469936954
 10
-0.3713959928403288
 20
0.4304725057360202
 10
-0.3733711541681473
 20
0.4284004850309202
 10
-0.3749754752354431
 20
0.4260295976357611
 10
-0.3753984174840426
 20
0.4250943944878145
 10
-0.3757196371420672
 20
0.4232430070940154
 10
-0.3753955991534852
 20
0.421346157127573
 10
-0.3744598749609089
 20
0.4196680486114702
 10
-0.3714347598108567
 20
0.4166960203283452
 10
-0.3690503064844677
 20
0.4151653040305519
 10
-0.3664473256487071
 20
0.4140462637931251
 10
-0.3637001176336927
 20
0.4133805193697527
 10
-0.3608806166763934
 20
0.4131806263767431
 10
-0.3580257688208626
 20
0.4134690474646732
 10
-0.3552607740163314
 20
0.4142362438306009
 10
-0.3526422835844158
 20
0.4154787875309012
 10
-0.3502703643317879
 20
0.4171447790413368
 10
-0.3482160571426629
 20
0.4191869051346658
 10
-0.3465286126749625
 20
0.4215413699274678
 10
-0.3460792460104241
 20
0.4224674161833946
  0
LWPOLYLINE
  5
D3
330
B3
100
AcDbEntity
  8
BLOCKS
100
AcDbPolyline
 90
       31
 70
     1
 43
0.0
 10
-0.3485482848585395
 20
0.3648429144617467
 10
-0.3504944285996494
 20
0.3664913700731631
 10
-0.3528883653420678
 20
0.3679405778061664
 10
-0.3554875790195684
 20
0.3689770740942322
 10
-0.3582220294808209
 20
0.3695624010521215
 10
-0.3610156427176889
 20
0.3696843223846145
 10
-0.3638306487637433
 20
0.3693221161435076
 10
-0.3665439132239214
 20
0.3684889658829888
 10
-0.3690972859642532
 20
0.3671913468085677
 10
-0.371395992840327
 20
0.3654824055508925
 10
-0.3733711541681473
 20
0.3634103848457926
 10
-0.3749754752354431
 20
0.3610394974505198
 10
-0.3753984174840426
 20
0.3601042943025732
 10
-0.3757196371420672
 20
0.3582529069087741
 10
-0.3753955991534852
 20
0.3563560569424453
 10
-0.3744598749609089
 20
0.3546779484262288
 10
-0.3714347598108549
 20
0.3517059201432175
 10
-0.3690503064844695
 20
0.3501752038454242
 10
-0.3664473256487071
 20
0.3490561636079974
 10
-0.3637001176336927
 20
0.348390419184625
 10
-0.3608806166763934
 20
0.3481905261916154
 10
-0.3580257688208626
 20
0.3484789472795455
 10
-0.3552607740163332
 20
0.3492461436453595
 10
-0.3526422835844158
 20
0.3504886873456598
 10
-0.3502703643317861
 20
0.3521546788562091
 10
-0.3482160571426629
 20
0.3541968049495381
 10
-0.3465286126749625
 20
0.3565512697423401
 10
-0.3460792460104241
 20
0.3574773159982669
 10
-0.3457074888131686
 20
0.3593180971286074
 10
-0.3459784705228301
 20
0.3612222739096751
 10
-0.3468673932410446
 20
0.3629246778843935
  0
LWPOLYLINE
  5
D4
330
B3
100
AcDbEntity
  8
BLOCKS
100
AcDbPolyline
 90
       40
 70
     1
 43
0.0
 10
-0.2874111087711597
 20
0.3590916387548759
 10
-0.2866180593025547
 20
0.3602747619978572
 10
-0.2861578287584354
 20
0.3611954589747484
 10
-0.2857644404197082
 20
0.3630317403366234
 10
-0.286013000664834
 20
0.364938972508412
 10
-0.2868818330286356
 20
0.3666517137204437
 10
-0.2885400402167182
 20
0.3685895873094296
 10
-0.2904666551595678
 20
0.3702608183496068
 10
-0.2928433762804037
 20
0.3717380819952041
 10
-0.2954302156998825
 20
0.3728050771065909
 10
-0.2981575905712521
 20
0.3734225246855658
 10
-0.3009495761103942
 20
0.373577294542315
 10
-0.3037686487587035
 20
0.3732482219323856
 10
-0.3064915275356714
 20
0.3724470412582832
 10
-0.3090599901496525
 20
0.3711795433471252
 10
-0.3113786437413779
 20
0.3694977564704231
 10
-0.3133780458148934
 20
0.3674491099008037
 10
-0.3150101494645785
 20
0.3650972556978331
 10
-0.3154440651522474
 20
0.3641670916728117
 10
-0.3157870442315147
 20
0.3623196103862938
 10
-0.3154853451781339
 20
0.3604190805032204
 10
-0.3145694287411036
 20
0.3587300826152386
 10
-0.3136388300822546
 20
0.3576285054916752
 10
-0.3126478612088075
 20
0.35663379155244
 10
-0.3115794889277534
 20
0.3557226802054174
 10
-0.3103677361998081
 20
0.3548536338396389
 10
-0.3066235743340524
 20
0.3530144475165571
 10
-0.3051960298995997
 20
0.3525887338943221
 10
-0.303844906854124
 20
0.35230809080997
 10
-0.3010674347775453
 20
0.3520833973891513
 10
-0.2995544775774217
 20
0.352155658429524
 10
-0.2981672688233079
 20
0.3523437524656856
 10
-0.2967812056216754
 20
0.3526520651793135
 10
-0.2954355615697128
 20
0.3530728442717645
 10
-0.2940214025657095
 20
0.3536544505104757
 10
-0.2927648331279258
 20
0.3543039612205803
 10
-0.2915500826981212
 20
0.3550668411578499
 10
-0.2904112781362862
 20
0.3559224837575812
 10
-0.289274649683966
 20
0.3569401992523353
 10
-0.2882985580855521
 20
0.3579775449888984
  0
LWPOLYLINE
  5
D5
330
B3
100
AcDbEntity
  8
BLOCKS
100
AcDbPolyline
 90
       31
 70
     1
 43
0.0
 10
-0.2260079526746725
 20
0.3679501327004573
 10
-0.226856574456086
 20
0.3696729741428726
 10
-0.2284918677540659
 20
0.3716302165827301
 10
-0.2303986872960166
 20
0.3733239917888795
 10
-0.2327578639074819
 20
0.374829106924949
 10
-0.2353319711052357
 20
0.3759264532103543
 10
-0.2380518929758963
 20
0.3765759359687308
 10
-0.2408418644657395
 20
0.3767635329328414
 10
-0.2436646136164491
 20
0.3764676394908974
 10
-0.2463967299215461
 20
0.3756985392695924
 10
-0.2489799269884312
 20
0.3744613379165003
 10
-0.2513182064433383
 20
0.3728069381444357
 10
-0.2533415725877131
 20
0.3707819491994542
 10
-0.2550012329712619
 20
0.3684494536355487
 10
-0.2554460620532755
 20
0.3675244574483258
 10
-0.2558107530927565
 20
0.365681137921456
 10
-0.2555314347233253
 20
0.3637771911146501
 10
-0.2546354527852497
 20
0.3620775375761696
 10
-0.2516811020528422
 20
0.3590351772005533
 10
-0.2493333240031958
 20
0.3574487991191972
 10
-0.2467573928210385
 20
0.3562688431198921
 10
-0.2440266090256724
 20
0.3555386650774608
 10
-0.2412125915321965
 20
0.3552725091188904
 10
-0.2383517476485455
 20
0.3554937006969112
 10
-0.2355694671083732
 20
0.3561956485119708
 10
-0.2329224662093576
 20
0.3573762580811035
 10
-0.2305120051803176
 20
0.3589859979431367
 10
-0.2284102184520194
 20
0.3609792389372615
 10
-0.2266678440707022
 20
0.3632933612744864
 10
-0.2261968133331447
 20
0.3642085815675955
 10
-0.2257818482895484
 20
0.3660401090584173
  0
LWPOLYLINE
  5
D6
330
B3
100
AcDbEntity
  8
BLOCKS
100
AcDbPolyline
 90
       31
 70
     1
 43
0.0
 10
-0.1667999237458932
 20
0.371988041073223
 10
-0.1684120768638575
 20
0.3739643815233649
 10
-0.1702988371415337
 20
0.3756804665127902
 10
-0.1726401427836315
 20
0.3772132248634534
 10
-0.1752011615578297
 20
0.3783407704733008
 10
-0.1779132540482919
 20
0.3790221985364042
 10
-0.1807008254159648
 20
0.3792425966483961
 10
-0.1835268604604714
 20
0.3789799233197755
 10
-0.1862678362267527
 20
0.3782430099785188
 10
-0.188865410286871
 20
0.3770362763858657
 10
-0.1912229920366783
 20
0.3754094926522384
 10
-0.1932700422609592
 20
0.3734084415474399
 10
-0.1949570297165817
 20
0.3710956273904458
 10
-0.1954127106380312
 20
0.3701759270410321
 10
-0.1957990631722239
 20
0.3683370243498985
 10
-0.1955421641384802
 20
0.3664299240853097
 10
-0.194666240684251
 20
0.364719850092456
 10
-0.1917478878522605
 20
0.3616429527489799
 10
-0.1894189360451008
 20
0.3600290711393654
 10
-0.1868570653192663
 20
0.3588189000786315
 10
-0.1841350610388517
 20
0.3580566545625743
 10
-0.1813243695809685
 20
0.3577574200755862
 10
-0.1784611213096667
 20
0.3579449486592239
 10
-0.175670774829868
 20
0.3586141242360554
 10
-0.1730100671567563
 20
0.35976351953434
 10
-0.1705808342526272
 20
0.3613447974875044
 10
-0.1684557423862003
 20
0.363313180497812
 10
-0.1666862628174801
 20
0.3656066498622295
 10
-0.166204497067147
 20
0.3665162668244193
 10
-0.1657680127410419
 20
0.3683427869997331
 10
-0.1659716299781149
 20
0.3702553378052471
  0
LWPOLYLINE
  5
D7
330
B3
100
AcDbEntity
  8
BLOCKS
100
AcDbPolyline
 90
       31
 70
     1
 43
0.0
 10
-0.106189181624412
 20
0.3681181954104886
 10
-0.1057312384159701
 20
0.3699394555187609
 10
-0.1059123403286826
 20
0.3718542688312709
 10
-0.1067201914645377
 20
0.373596594155515
 10
-0.108308981314698
 20
0.3755917591321349
 10
-0.1101754212404984
 20
0.3773299164352011
 10
-0.1124985319261942
 20
0.3788901058990177
 10
-0.1150461078861635
 20
0.3800476948049436
 10
-0.1177499957003576
 20
0.3807609738777273
 10
-0.1205347812051141
 20
0.3810141426391738
 10
-0.1233637110801169
 20
0.3807847257722869
 10
-0.1261131670146813
 20
0.380080101284193
 10
-0.1287247586188798
 20
0.3789040024385031
 10
-0.1311013164242905
 20
0.3773050598556438
 10
-0.1331717674601496
 20
0.3753282234939661
 10
-0.1348858485445703
 20
0.3730354107883613
 10
-0.1353523182488789
 20
0.372121133543601
 10
-0.1357602788147858
 20
0.3702869021535662
 10
-0.1355258346661063
 20
0.3683769123332468
 10
-0.1346700909049474
 20
0.3666566545240357
 10
-0.1317881398115013
 20
0.3635456459900297
 10
-0.1294783365243557
 20
0.3619044841791492
 10
-0.1269308807634086
 20
0.3606642655189489
 10
-0.1242180326655955
 20
0.3598700580079139
 10
-0.1214110561833763
 20
0.3595377864000966
 10
-0.1185457997372499
 20
0.3596916260395346
 10
-0.1157477734425889
 20
0.3603279367785035
 10
-0.1130737271808844
 20
0.3614459587538477
 10
-0.1106260585559706
 20
0.3629985559828128
 10
-0.108477955619044
 20
0.3649418086268952
 10
-0.1066816157213601
 20
0.367214307651011
  0
LWPOLYLINE
  5
D8
330
B3
100
AcDbEntity
  8
BLOCKS
100
AcDbPolyline
 90
       31
 70
     1
 43
0.0
 10
-0.0466256913725101
 20
0.3744984107999016
 10
-0.0481908981000565
 20
0.3765121242146279
 10
-0.0500367593982905
 20
0.3782721133071618
 10
-0.0523413536583437
 20
0.3798595179871427
 10
-0.05487513427361
 20
0.3810469900034832
 10
-0.0575704432508193
 20
0.3817920213830348
 10
-0.0603520575374201
 20
0.3820779257608819
 10
-0.0631834907790321
 20
0.3818817971022099
 10
-0.065941046415503
 20
0.381209558972273
 10
-0.0685662941749037
 20
0.3800642576204609
 10
-0.0709614991707284
 20
0.3784933774481942
 10
-0.0730550645116637
 20
0.3765410293818832
 10
-0.0747960020324214
 20
0.374268535404326
 10
-0.0752731959700768
 20
0.3733598077809574
 10
-0.0757027081146102
 20
0.3715305015105059
 10
-0.075490751293092
 20
0.3696178864366857
 10
-0.0746553056417891
 20
0.3678876828582815
 10
-0.0718101550877837
 20
0.3647429936313529
 10
-0.0695198199484288
 20
0.3630747787210566
 10
-0.0669871316662061
 20
0.3618046840813349
 10
-0.0642838151516294
 20
0.3609786244768429
 10
-0.0614809420710749
 20
0.3606133617275873
 10
-0.0586140739408343
 20
0.3607334911346243
 10
-0.0558087550187931
 20
0.3613368489837967
 10
-0.0531217401997726
 20
0.3624233429256947
 10
-0.0506559745594917
 20
0.3639470445839379
 10
-0.0484851578039471
 20
0.3658648979569534
 10
-0.0466622061526358
 20
0.3681161121751302
 10
-0.0461591718515049
 20
0.3690141456530682
 10
-0.0456798331303521
 20
0.3708298936703613
 10
-0.045838394658043
 20
0.3727467045202957
  0
LWPOLYLINE
  5
D9
330
B3
100
AcDbEntity
  8
BLOCKS
100
AcDbPolyline
 90
       31
 70
     1
 43
0.0
 10
0.0119338537126197
 20
0.3767253494117995
 10
0.0101088264700025
 20
0.3785069267487415
 10
0.0078230675425495
 20
0.3801213269816799
 10
0.00530343289347
 20
0.3813385177874124
 10
0.0026170757268318
 20
0.3821151983773916
 10
-0.0001609824251965
 20
0.3824337988082789
 10
-0.0029945272231213
 20
0.3822709854979393
 10
-0.0057598009742961
 20
0.3816312267497324
 10
-0.0083983416102971
 20
0.3805168813773889
 10
-0.0108118623509697
 20
0.3789742809921108
 10
-0.0129282522919496
 20
0.3770466913846349
 10
-0.0146958053402138
 20
0.3747948306000808
 10
-0.0151836574777047
 20
0.3738917783466604
 10
-0.0156346617654979
 20
0.3720676503331788
 10
-0.0154452216014658
 20
0.3701526746710897
 10
-0.0146301896679777
 20
0.3684127647469495
 10
-0.011822233361892
 20
0.3652348299852974
 10
-0.0095516833041263
 20
0.3635397928213706
 10
-0.0070341129709668
 20
0.3622399979562942
 10
-0.0043407021212811
 20
0.361382200567391
 10
-0.0015423203005724
 20
0.3609839972212967
 10
0.0013257628000467
 20
0.3610703997726432
 10
0.0041379861528377
 20
0.3616407212399508
 10
0.0068375977033224
 20
0.3626955368008566
 10
0.0093211191493126
 20
0.3641901320403349
 10
0.0115143493284844
 20
0.3660823207518433
 10
0.0133636604755836
 20
0.368311938643842
 10
0.0138772253716209
 20
0.369203993571432
 10
0.0143778932751761
 20
0.3710139782368742
 10
0.0142418940740576
 20
0.3729325213782886
 10
0.013475260726139
 20
0.3746933662142737
  0
LWPOLYLINE
  5
DA
330
B3
100
AcDbEntity
  8
BLOCKS
100
AcDbPolyline
 90
       31
 70
     1
 43
0.0
 10
0.0743202120301287
 20
0.3724116936921291
 10
0.0735743481345512
 20
0.3741814334208584
 10
0.0720569541330924
 20
0.3762314052178226
 10
0.0702530134911452
 20
0.3780343242665367
 10
0.0679864061968427
 20
0.3796754966538174
 10
0.065481266177942
 20
0.3809222378155255
 10
0.0628042325567222
 20
0.3817304601396927
 10
0.0600301149635758
 20
0.3820817125363192
 10
0.0571948507118343
 20
0.3819522371040875
 10
0.0544222415011877
 20
0.3813450462666878
 10
0.0517707731066395
 20
0.3802618110754565
 10
0.0493392706011875
 20
0.3787477039403484
 10
0.0472003489236368
 20
0.3768451395294505
 10
0.0454064249397046
 20
0.37461422354761
 10
0.0449079821107752
 20
0.3737169716273456
 10
0.044435548089151
 20
0.3718982742913113
 10
0.0446024453811926
 20
0.3699812030330349
 10
0.0453969508137391
 20
0.3682318275298257
 10
0.0481673243103114
 20
0.3650210869923285
 10
0.0504177750905246
 20
0.3632994621317493
 10
0.0529198790962973
 20
0.361970146905378
 10
0.0556030115701614
 20
0.3610807304330592
 10
0.058396514894346
 20
0.3606496415931133
 10
0.0612654160834811
 20
0.3607023053323246
 10
0.0640841547149638
 20
0.3612395114975015
 10
0.0667959894279378
 20
0.3622625027131789
 10
0.0692969230129545
 20
0.3637277847137739
 10
0.0715122631192191
 20
0.3655940469251391
 10
0.0733876778566742
 20
0.3678017599589793
 10
0.07391170228113
 20
0.3686877128948254
 10
0.0744336300852702
 20
0.3704916837448309
  0
LWPOLYLINE
  5
DB
330
B3
100
AcDbEntity
  8
BLOCKS
100
AcDbPolyline
 90
       31
 70
     1
 43
0.0
 10
0.0744336300852684
 20
0.3055015835597032
 10
0.0743202120301287
 20
0.3074215935068878
 10
0.0735743481345512
 20
0.3091913332356171
 10
0.0720569541330924
 20
0.311241305032695
 10
0.0702530134911452
 20
0.3130442240814091
 10
0.0679864061968427
 20
0.3146853964686898
 10
0.065481266177942
 20
0.3159321376302842
 10
0.0628042325567204
 20
0.3167403599545651
 10
0.0600301149635776
 20
0.3170916123511915
 10
0.0571948507118343
 20
0.3169621369188462
 10
0.0544222415011877
 20
0.3163549460814465
 10
0.0517707731066377
 20
0.3152717108902152
 10
0.0493392706011875
 20
0.3137576037552208
 10
0.0472003489236386
 20
0.3118550393442092
 10
0.0454064249397046
 20
0.3096241233624823
 10
0.0449079821107752
 20
0.3087268714421043
 10
0.044435548089151
 20
0.3069081741061836
 10
0.0446024453811926
 20
0.3049911028479073
 10
0.0453969508137391
 20
0.3032417273446981
 10
0.0481673243103114
 20
0.3000309868072009
 10
0.0504177750905228
 20
0.2983093619466217
 10
0.0529198790962973
 20
0.2969800467201367
 10
0.0556030115701614
 20
0.2960906302479316
 10
0.058396514894346
 20
0.2956595414079857
 10
0.0612654160834829
 20
0.295712205147197
 10
0.064084154714962
 20
0.2962494113123739
 10
0.0667959894279378
 20
0.2972724025280513
 10
0.0692969230129545
 20
0.2987376845285325
 10
0.0715122631192191
 20
0.3006039467398978
 10
0.0733876778566742
 20
0.302811659773738
 10
0.07391170228113
 20
0.3036976127095841
  0
LWPOLYLINE
  5
DC
330
B3
100
AcDbEntity
  8
BLOCKS
100
AcDbPolyline
 90
       31
 70
     1
 43
0.0
 10
0.0143778932751761
 20
0.3060238780517466
 10
0.0142418940740576
 20
0.3079424211931609
 10
0.013475260726139
 20
0.3097032660290324
 10
0.0119338537126197
 20
0.3117352492266718
 10
0.0101088264700025
 20
0.3135168265635002
 10
0.0078230675425495
 20
0.3151312267965522
 10
0.00530343289347
 20
0.3163484176021711
 10
0.0026170757268336
 20
0.3171250981921503
 10
-0.0001609824251965
 20
0.3174436986231512
 10
-0.0029945272231231
 20
0.317280885312698
 10
-0.0057598009742943
 20
0.3166411265646047
 10
-0.0083983416102971
 20
0.3155267811921476
 10
-0.0108118623509697
 20
0.3139841808068695
 10
-0.0129282522919496
 20
0.3120565911995072
 10
-0.0146958053402173
 20
0.3098047304149531
 10
-0.0151836574777047
 20
0.3089016781614191
 10
-0.0156346617654979
 20
0.3070775501479375
 10
-0.0154452216014658
 20
0.3051625744859621
 10
-0.0146301896679777
 20
0.3034226645618219
 10
-0.011822233361892
 20
0.3002447298001698
 10
-0.009551683304128
 20
0.298549692636243
 10
-0.0070341129709668
 20
0.2972498977710529
 10
-0.0043407021212794
 20
0.2963921003821497
 10
-0.0015423203005707
 20
0.2959938970361691
 10
0.0013257628000467
 20
0.2960802995874019
 10
0.0041379861528359
 20
0.2966506210548232
 10
0.0068375977033206
 20
0.2977054366156153
 10
0.0093211191493143
 20
0.2992000318552073
 10
0.0115143493284844
 20
0.3010922205667157
 10
0.0133636604755836
 20
0.3033218384586007
 10
0.0138772253716209
 20
0.3042138933863043
  0
LWPOLYLINE
  5
DD
330
B3
100
AcDbEntity
  8
BLOCKS
100
AcDbPolyline
 90
       31
 70
     1
 43
0.0
 10
-0.0466256913725118
 20
0.309508310614774
 10
-0.0481908981000547
 20
0.3115220240295002
 10
-0.0500367593982887
 20
0.3132820131220342
 10
-0.0523413536583437
 20
0.314869417802015
 10
-0.05487513427361
 20
0.3160568898182419
 10
-0.0575704432508211
 20
0.3168019211979072
 10
-0.0603520575374201
 20
0.3170878255756406
 10
-0.0631834907790339
 20
0.3168916969169686
 10
-0.0659410464155048
 20
0.3162194587871454
 10
-0.0685662941749055
 20
0.3150741574353333
 10
-0.0709614991707266
 20
0.3135032772630666
 10
-0.0730550645116637
 20
0.3115509291967555
 10
-0.0747960020324197
 20
0.3092784352191984
 10
-0.0752731959700768
 20
0.3083697075957161
 10
-0.0757027081146102
 20
0.3065404013253783
 10
-0.075490751293092
 20
0.3046277862515581
 10
-0.0746553056417891
 20
0.3028975826731539
 10
-0.0718101550877837
 20
0.2997528934462252
 10
-0.0695198199484271
 20
0.298084678535929
 10
-0.0669871316662079
 20
0.2968145838962073
 10
-0.0642838151516312
 20
0.2959885242917153
 10
-0.0614809420710749
 20
0.2956232615424596
 10
-0.0586140739408343
 20
0.2957433909494966
 10
-0.0558087550187931
 20
0.2963467487985554
 10
-0.0531217401997726
 20
0.297433242740567
 10
-0.0506559745594917
 20
0.2989569443988103
 10
-0.0484851578039471
 20
0.3008747977717121
 10
-0.0466622061526358
 20
0.3031260119898889
 10
-0.0461591718515049
 20
0.3040240454679406
 10
-0.0456798331303521
 20
0.3058397934852337
 10
-0.045838394658043
 20
0.307756604335168
  0
LWPOLYLINE
  5
DE
330
B3
100
AcDbEntity
  8
BLOCKS
100
AcDbPolyline
 90
       31
 70
     1
 43
0.0
 10
-0.1067201914645377
 20
0.3086064939702737
 10
-0.108308981314698
 20
0.3106016589470073
 10
-0.1101754212405002
 20
0.3123398162500734
 10
-0.1124985319261942
 20
0.3139000057138901
 10
-0.1150461078861635
 20
0.315057594619816
 10
-0.1177499957003576
 20
0.3157708736925997
 10
-0.1205347812051141
 20
0.3160240424540461
 10
-0.1233637110801169
 20
0.3157946255871593
 10
-0.1261131670146831
 20
0.3150900010990654
 10
-0.1287247586188798
 20
0.3139139022532618
 10
-0.1311013164242887
 20
0.3123149596705161
 10
-0.1331717674601496
 20
0.3103381233087248
 10
-0.1348858485445703
 20
0.3080453106032337
 10
-0.1353523182488789
 20
0.3071310333584734
 10
-0.1357602788147858
 20
0.3052968019683249
 10
-0.1355258346661063
 20
0.3033868121481191
 10
-0.1346700909049474
 20
0.3016665543389081
 10
-0.1317881398115013
 20
0.2985555458049021
 10
-0.1294783365243557
 20
0.2969143839940216
 10
-0.1269308807634086
 20
0.2956741653337076
 10
-0.1242180326655973
 20
0.2948799578226726
 10
-0.1214110561833781
 20
0.2945476862149689
 10
-0.1185457997372499
 20
0.294701525854407
 10
-0.1157477734425907
 20
0.2953378365932622
 10
-0.1130737271808844
 20
0.29645585856872
 10
-0.1106260585559706
 20
0.2980084557975715
 10
-0.108477955619044
 20
0.2999517084417675
 10
-0.1066816157213601
 20
0.3022242074658834
 10
-0.106189181624412
 20
0.303128095225361
 10
-0.1057312384159701
 20
0.3049493553336333
 10
-0.1059123403286826
 20
0.3068641686461433
  0
LWPOLYLINE
  5
DF
330
B3
100
AcDbEntity
  8
BLOCKS
100
AcDbPolyline
 90
       31
 70
     1
 43
0.0
 10
-0.1666862628174801
 20
0.3006165496771018
 10
-0.166204497067147
 20
0.3015261666392917
 10
-0.1657680127410419
 20
0.3033526868146055
 10
-0.1659716299781149
 20
0.3052652376201195
 10
-0.1667999237458932
 20
0.3069979408880954
 10
-0.1684120768638575
 20
0.3089742813381235
 10
-0.1702988371415337
 20
0.3106903663276626
 10
-0.1726401427836315
 20
0.3122231246782121
 10
-0.1752011615578279
 20
0.3133506702880595
 10
-0.1779132540482902
 20
0.3140320983512765
 10
-0.180700825415963
 20
0.3142524964632685
 10
-0.1835268604604732
 20
0.3139898231346478
 10
-0.1862678362267545
 20
0.3132529097932775
 10
-0.1888654102868692
 20
0.312046176200738
 10
-0.1912229920366783
 20
0.3104193924671108
 10
-0.1932700422609592
 20
0.3084183413621986
 10
-0.1949570297165852
 20
0.3061055272053181
 10
-0.1954127106380312
 20
0.3051858268557908
 10
-0.1957990631722239
 20
0.3033469241647708
 10
-0.1955421641384802
 20
0.3014398239000684
 10
-0.1946662406842492
 20
0.2997297499073284
 10
-0.1917478878522605
 20
0.2966528525638523
 10
-0.1894189360450991
 20
0.2950389709542378
 10
-0.186857065319268
 20
0.2938287998935038
 10
-0.1841350610388517
 20
0.293066554377333
 10
-0.1813243695809667
 20
0.2927673198903449
 10
-0.1784611213096667
 20
0.2929548484740962
 10
-0.175670774829868
 20
0.2936240240509278
 10
-0.1730100671567563
 20
0.2947734193490987
 10
-0.1705808342526289
 20
0.296354697302263
 10
-0.1684557423862003
 20
0.2983230803126844
  0
LWPOLYLINE
  5
E0
330
B3
100
AcDbEntity
  8
BLOCKS
100
AcDbPolyline
 90
       40
 70
     1
 43
0.0
 10
-0.2257818482895484
 20
0.3010500088732897
 10
-0.2260079526746725
 20
0.3029600325153297
 10
-0.2268565744560878
 20
0.304682873957745
 10
-0.2284918677540659
 20
0.3066401163976025
 10
-0.2303986872960149
 20
0.3083338916037519
 10
-0.2327578639074819
 20
0.3098390067398213
 10
-0.2353319711052357
 20
0.3109363530252267
 10
-0.2380518929758963
 20
0.3115858357836032
 10
-0.2408418644657395
 20
0.3117734327476
 10
-0.2436646136164491
 20
0.3114775393056561
 10
-0.2463967299215461
 20
0.3107084390844648
 10
-0.2489799269884312
 20
0.3094712377313726
 10
-0.2513182064433383
 20
0.307816837959308
 10
-0.2533415725877113
 20
0.3057918490142129
 10
-0.2550012329712619
 20
0.3034593534504211
 10
-0.2554460620532755
 20
0.3025343572631982
 10
-0.2558107530927565
 20
0.3006910377362146
 10
-0.2555314347233253
 20
0.2987870909294088
 10
-0.2546354527852497
 20
0.2970874373910419
 10
-0.2537178786125747
 20
0.2959749912895404
 10
-0.2527386811526764
 20
0.294968690936912
 10
-0.251681102052844
 20
0.294045077015312
 10
-0.2504796575303505
 20
0.2931618388015522
 10
-0.2467573928210385
 20
0.2912787429347645
 10
-0.2453349556952009
 20
0.2908362687659291
 10
-0.2439872279101447
 20
0.2905397539244632
 10
-0.2412125915321983
 20
0.2902824089337628
 10
-0.2396988888586584
 20
0.2903368703944125
 10
-0.238309563150862
 20
0.2905086358215385
 10
-0.2369199685387766
 20
0.2908006250814878
 10
-0.2355694671083732
 20
0.2912055483267295
 10
-0.2341485633286737
 20
0.2917704817552931
 10
-0.2328844393128602
 20
0.2924051684395863
 10
-0.2316607976181331
 20
0.2931537083596822
 10
-0.2305120051803176
 20
0.2939958977578953
 10
-0.229363481907404
 20
0.2950001744318342
 10
-0.2283752534303751
 20
0.2960259681362913
 10
-0.227474758160648
 20
0.2971295471226085
 10
-0.2266678440707022
 20
0.2983032610893588
 10
-0.2261968133331447
 20
0.2992184813824679
  0
LWPOLYLINE
  5
E1
330
B3
100
AcDbEntity
  8
BLOCKS
100
AcDbPolyline
 90
       40
 70
     1
 43
0.0
 10
-0.2857644404197082
 20
0.2980416401513821
 10
-0.286013000664834
 20
0.2999488723232844
 10
-0.2868818330286356
 20
0.3016616135353161
 10
-0.2885400402167182
 20
0.3035994871241883
 10
-0.2904666551595678
 20
0.3052707181644791
 10
-0.2928433762804037
 20
0.3067479818099628
 10
-0.2954302156998825
 20
0.3078149769214633
 10
-0.2981575905712539
 20
0.3084324245004382
 10
-0.3009495761103942
 20
0.3085871943571874
 10
-0.3037686487587035
 20
0.308258121747258
 10
-0.3064915275356732
 20
0.3074569410731556
 10
-0.3090599901496525
 20
0.3061894431619976
 10
-0.3113786437413797
 20
0.3045076562852955
 10
-0.3133780458148934
 20
0.3024590097155624
 10
-0.3150101494645785
 20
0.3001071555127055
 10
-0.3154440651522474
 20
0.299176991487684
 10
-0.3157870442315147
 20
0.2973295102011661
 10
-0.3154853451781339
 20
0.2954289803180927
 10
-0.3145694287411036
 20
0.2937399824299973
 10
-0.3136388300822528
 20
0.2926384053065476
 10
-0.3126478612088075
 20
0.2916436913673124
 10
-0.3115794889277517
 20
0.2907325800202898
 10
-0.3103677361998063
 20
0.2898635336545112
 10
-0.3066235743340506
 20
0.2880243473314294
 10
-0.3051960298995961
 20
0.2875986337091945
 10
-0.3038449068541258
 20
0.2873179906248424
 10
-0.3010674347775453
 20
0.28709329720391
 10
-0.2995544775774252
 20
0.2871655582442827
 10
-0.2981672688233097
 20
0.287353652280558
 10
-0.2967812056216736
 20
0.2876619649941858
 10
-0.2954355615697111
 20
0.2880827440866369
 10
-0.2940214025657077
 20
0.2886643503253481
 10
-0.2927648331279258
 20
0.2893138610353389
 10
-0.2915500826981212
 20
0.2900767409727223
 10
-0.290411278136288
 20
0.2909323835723398
 10
-0.289274649683966
 20
0.2919500990672077
 10
-0.2882985580855521
 20
0.2929874448036571
 10
-0.2874111087711597
 20
0.2941015385697483
 10
-0.2866180593025564
 20
0.2952846618126159
 10
-0.2861578287584354
 20
0.2962053587896207
  0
LWPOLYLINE
  5
E2
330
B3
100
AcDbEntity
  8
BLOCKS
100
AcDbPolyline
 90
       31
 70
     1
 43
0.0
 10
-0.3457074888131686
 20
0.2943279969433661
 10
-0.3459784705228301
 20
0.2962321737245475
 10
-0.3468673932410446
 20
0.2979345776992659
 10
-0.3485482848585395
 20
0.2998528142765053
 10
-0.3504944285996476
 20
0.3015012698879218
 10
-0.3528883653420678
 20
0.3029504776210388
 10
-0.3554875790195684
 20
0.3039869739091046
 10
-0.3582220294808209
 20
0.3045723008669938
 10
-0.3610156427176889
 20
0.3046942221994868
 10
-0.3638306487637415
 20
0.3043320159582663
 10
-0.3665439132239214
 20
0.3034988656977475
 10
-0.3690972859642532
 20
0.3022012466233264
 10
-0.371395992840327
 20
0.3004923053657649
 10
-0.3733711541681473
 20
0.2984202846606649
 10
-0.3749754752354431
 20
0.2960493972653921
 10
-0.3753984174840426
 20
0.2951141941174455
 10
-0.3757196371420672
 20
0.2932628067236464
 10
-0.3753955991534852
 20
0.2913659567573177
 10
-0.3744598749609107
 20
0.2896878482411012
 10
-0.3714347598108549
 20
0.2867158199579762
 10
-0.3690503064844695
 20
0.2851851036601829
 10
-0.3664473256487071
 20
0.2840660634227561
 10
-0.3637001176336927
 20
0.2834003189994973
 10
-0.3608806166763934
 20
0.2832004260064877
 10
-0.3580257688208608
 20
0.2834888470944179
 10
-0.3552607740163332
 20
0.2842560434602319
 10
-0.3526422835844141
 20
0.2854985871605322
 10
-0.3502703643317879
 20
0.2871645786709678
 10
-0.3482160571426629
 20
0.2892067047642968
 10
-0.3465286126749625
 20
0.2915611695572124
 10
-0.3460792460104241
 20
0.2924872158130256
  0
LWPOLYLINE
  5
E3
330
B3
100
AcDbEntity
  8
BLOCKS
100
AcDbPolyline
 90
       31
 70
     1
 43
0.0
 10
-0.3459784705228301
 20
0.2312420735394198
 10
-0.3468673932410411
 20
0.2329444775140246
 10
-0.3485482848585395
 20
0.2348627140913777
 10
-0.3504944285996494
 20
0.2365111697027942
 10
-0.3528883653420678
 20
0.2379603774359111
 10
-0.3554875790195684
 20
0.2389968737239769
 10
-0.3582220294808192
 20
0.2395822006817525
 10
-0.3610156427176889
 20
0.2397041220143592
 10
-0.3638306487637415
 20
0.2393419157731387
 10
-0.3665439132239214
 20
0.2385087655126199
 10
-0.3690972859642532
 20
0.2372111464381987
 10
-0.371395992840327
 20
0.2355022051805236
 10
-0.3733711541681473
 20
0.2334301844754236
 10
-0.3749754752354431
 20
0.2310592970802645
 10
-0.3753984174840426
 20
0.2301240939323179
 10
-0.3757196371420672
 20
0.2282727065385188
 10
-0.3753955991534852
 20
0.2263758565720764
 10
-0.3744598749609054
 20
0.2246977480559735
 10
-0.3714347598108567
 20
0.2217257197728486
 10
-0.3690503064844695
 20
0.2201950034750553
 10
-0.3664473256487071
 20
0.2190759632376285
 10
-0.3637001176336927
 20
0.218410218814256
 10
-0.3608806166763934
 20
0.2182103258212464
 10
-0.3580257688208608
 20
0.2184987469091766
 10
-0.3552607740163332
 20
0.2192659432751043
 10
-0.3526422835844158
 20
0.2205084869754046
 10
-0.3502703643317879
 20
0.2221744784858401
 10
-0.3482160571426629
 20
0.2242166045791691
 10
-0.3465286126749625
 20
0.2265710693719711
 10
-0.3460792460104241
 20
0.227497115627898
 10
-0.3457074888131686
 20
0.2293378967582385
  0
LWPOLYLINE
  5
E4
330
B3
100
AcDbEntity
  8
BLOCKS
100
AcDbPolyline
 90
       31
 70
     1
 43
0.0
 10
-0.28854004021672
 20
0.2386093869390606
 10
-0.2904666551595696
 20
0.2402806179792378
 10
-0.2928433762804055
 20
0.2417578816248351
 10
-0.2954302156998825
 20
0.2428248767363357
 10
-0.2981575905712539
 20
0.2434423243151969
 10
-0.3009495761103942
 20
0.2435970941719461
 10
-0.3037686487587035
 20
0.2432680215620167
 10
-0.3064915275356714
 20
0.2424668408879143
 10
-0.3090599901496525
 20
0.2411993429767563
 10
-0.3113786437413797
 20
0.2395175561001679
 10
-0.3133780458148934
 20
0.2374689095304348
 10
-0.3150101494645785
 20
0.2351170553275779
 10
-0.3154440651522474
 20
0.2341868913024427
 10
-0.3157870442315147
 20
0.2323394100160385
 10
-0.3154853451781339
 20
0.2304388801329651
 10
-0.3145694287411036
 20
0.2287498822448697
 10
-0.3115794889277517
 20
0.2257424798351622
 10
-0.3092132095182976
 20
0.2241838248031627
 10
-0.3066235743340488
 20
0.2230342471463018
 10
-0.3038843889062814
 20
0.2223362376184923
 10
-0.3010674347775453
 20
0.2221031970187823
 10
-0.2982093911616488
 20
0.2223580209828242
 10
-0.2954355615697111
 20
0.2230926439013956
 10
-0.2928026337335634
 20
0.2243043043702073
 10
-0.2904112781362862
 20
0.2259422833872122
 10
-0.2883330873888177
 20
0.2279601065429233
 10
-0.2866180593025547
 20
0.2302945616274883
 10
-0.2861578287584354
 20
0.2312152586044931
 10
-0.2857644404197082
 20
0.2330515399662545
 10
-0.286013000664834
 20
0.2349587721380431
 10
-0.2868818330286356
 20
0.2366715133501884
  0
LWPOLYLINE
  5
E5
330
B3
100
AcDbEntity
  8
BLOCKS
100
AcDbPolyline
 90
       31
 70
     1
 43
0.0
 10
-0.2266678440707022
 20
0.2333131609042311
 10
-0.2261968133331447
 20
0.2342283811972265
 10
-0.2257818482895484
 20
0.2360599086881621
 10
-0.2260079526746725
 20
0.237969932330202
 10
-0.2268565744560878
 20
0.2396927737725036
 10
-0.2284918677540659
 20
0.2416500162124748
 10
-0.2303986872960149
 20
0.2433437914186243
 10
-0.2327578639074819
 20
0.2448489065546937
 10
-0.2353319711052375
 20
0.2459462528400991
 10
-0.2380518929758963
 20
0.2465957355983619
 10
-0.2408418644657377
 20
0.2467833325624724
 10
-0.2436646136164509
 20
0.2464874391205285
 10
-0.2463967299215461
 20
0.2457183388992234
 10
-0.2489799269884312
 20
0.2444811375461313
 10
-0.2513182064433383
 20
0.2428267377740667
 10
-0.2533415725877113
 20
0.2408017488290852
 10
-0.2550012329712619
 20
0.2384692532651798
 10
-0.2554460620532755
 20
0.2375442570780706
 10
-0.2558107530927565
 20
0.235700937551087
 10
-0.2555314347233253
 20
0.2337969907442812
 10
-0.2546354527852497
 20
0.2320973372059143
 10
-0.2516811020528422
 20
0.2290549768301844
 10
-0.2493333240031976
 20
0.2274685987488283
 10
-0.2467573928210385
 20
0.2262886427496369
 10
-0.2440266090256724
 20
0.2255584647070918
 10
-0.2412125915321983
 20
0.2252923087485215
 10
-0.2383517476485455
 20
0.2255135003265423
 10
-0.2355694671083732
 20
0.2262154481416019
 10
-0.2329224662093576
 20
0.2273960577107346
 10
-0.2305120051803176
 20
0.2290057975727677
 10
-0.2284102184520194
 20
0.2309990385670062
  0
LWPOLYLINE
  5
E6
330
B3
100
AcDbEntity
  8
BLOCKS
100
AcDbPolyline
 90
       31
 70
     1
 43
0.0
 10
-0.1659716299781149
 20
0.2402751374349918
 10
-0.1667999237458932
 20
0.2420078407029678
 10
-0.1684120768638575
 20
0.2439841811529959
 10
-0.1702988371415337
 20
0.2457002661425349
 10
-0.1726401427836315
 20
0.2472330244930845
 10
-0.1752011615578297
 20
0.2483605701029319
 10
-0.1779132540482919
 20
0.2490419981660352
 10
-0.180700825415963
 20
0.2492623962780271
 10
-0.1835268604604714
 20
0.2489997229494065
 10
-0.1862678362267527
 20
0.2482628096081498
 10
-0.1888654102868692
 20
0.2470560760156104
 10
-0.1912229920366783
 20
0.2454292922819832
 10
-0.1932700422609592
 20
0.243428241177071
 10
-0.1949570297165852
 20
0.2411154270201905
 10
-0.1954127106380312
 20
0.2401957266706631
 10
-0.1957990631722239
 20
0.2383568239796432
 10
-0.1955421641384802
 20
0.2364497237149408
 10
-0.1946662406842492
 20
0.2347396497222007
 10
-0.1917478878522605
 20
0.231662752378611
 10
-0.1894189360451008
 20
0.2300488707689965
 10
-0.1868570653192663
 20
0.2288386997082625
 10
-0.1841350610388517
 20
0.2280764541922053
 10
-0.1813243695809685
 20
0.2277772197052172
 10
-0.1784611213096667
 20
0.2279647482889686
 10
-0.175670774829868
 20
0.2286339238658002
 10
-0.1730100671567563
 20
0.2297833191639711
 10
-0.1705808342526289
 20
0.2313645971171354
 10
-0.1684557423862003
 20
0.2333329801275568
 10
-0.1666862628174801
 20
0.2356264494919742
 10
-0.166204497067147
 20
0.2365360664540503
 10
-0.1657680127410419
 20
0.2383625866294778
  0
LWPOLYLINE
  5
E7
330
B3
100
AcDbEntity
  8
BLOCKS
100
AcDbPolyline
 90
       31
 70
     1
 43
0.0
 10
-0.1067201914645341
 20
0.2436163937851461
 10
-0.108308981314698
 20
0.245611558761766
 10
-0.1101754212405002
 20
0.2473497160648321
 10
-0.112498531926196
 20
0.2489099055287625
 10
-0.1150461078861635
 20
0.2500674944346883
 10
-0.1177499957003576
 20
0.2507807735073584
 10
-0.1205347812051141
 20
0.2510339422688048
 10
-0.1233637110801169
 20
0.2508045254020317
 10
-0.1261131670146813
 20
0.2500999009138241
 10
-0.1287247586188798
 20
0.2489238020681341
 10
-0.1311013164242887
 20
0.2473248594852748
 10
-0.1331717674601496
 20
0.2453480231235972
 10
-0.1348858485445703
 20
0.2430552104179924
 10
-0.1353523182488789
 20
0.2421409331733457
 10
-0.1357602788147858
 20
0.2403067017831972
 10
-0.1355258346661063
 20
0.2383967119628778
 10
-0.1346700909049474
 20
0.2366764541537805
 10
-0.1317881398115031
 20
0.2335654456196607
 10
-0.1294783365243557
 20
0.2319242838087803
 10
-0.1269308807634086
 20
0.23068406514858
 10
-0.1242180326655973
 20
0.229889857637545
 10
-0.1214110561833781
 20
0.2295575860297276
 10
-0.1185457997372517
 20
0.2297114256691657
 10
-0.1157477734425889
 20
0.2303477364081345
 10
-0.1130737271808844
 20
0.2314657583834787
 10
-0.1106260585559706
 20
0.2330183556124439
 10
-0.108477955619044
 20
0.2349616082566399
 10
-0.1066816157213601
 20
0.2372341072807558
 10
-0.106189181624412
 20
0.2381379950402334
 10
-0.1057312384159701
 20
0.239959255148392
 10
-0.1059123403286826
 20
0.241874068460902
  0
LWPOLYLINE
  5
E8
330
B3
100
AcDbEntity
  8
BLOCKS
100
AcDbPolyline
 90
       31
 70
     1
 43
0.0
 10
-0.0466256913725118
 20
0.2445182104295327
 10
-0.0481908981000565
 20
0.2465319238442589
 10
-0.0500367593982887
 20
0.2482919129369066
 10
-0.0523413536583455
 20
0.2498793176168874
 10
-0.05487513427361
 20
0.2510667896331142
 10
-0.0575704432508193
 20
0.2518118210127795
 10
-0.0603520575374201
 20
0.252097725390513
 10
-0.0631834907790339
 20
0.251901596731841
 10
-0.0659410464155048
 20
0.2512293586019041
 10
-0.0685662941749055
 20
0.2500840572502057
 10
-0.0709614991707284
 20
0.248513177077939
 10
-0.0730550645116637
 20
0.2465608290115142
 10
-0.0747960020324214
 20
0.2442883350340708
 10
-0.0752731959700768
 20
0.2433796074105885
 10
-0.0757027081146102
 20
0.2415503011402507
 10
-0.075490751293092
 20
0.2396376860663167
 10
-0.0746553056417891
 20
0.2379074824879126
 10
-0.0718101550877837
 20
0.2347627932609839
 10
-0.0695198199484288
 20
0.2330945783508014
 10
-0.0669871316662061
 20
0.2318244837110797
 10
-0.0642838151516294
 20
0.230998424106474
 10
-0.0614809420710749
 20
0.230633161357332
 10
-0.0586140739408343
 20
0.230753290764369
 10
-0.0558087550187931
 20
0.2313566486134277
 10
-0.0531217401997726
 20
0.2324431425554394
 10
-0.0506559745594917
 20
0.2339668442136826
 10
-0.0484851578039471
 20
0.2358846975865845
 10
-0.0466622061526358
 20
0.2381359118047612
 10
-0.0461591718515049
 20
0.2390339452826993
 10
-0.0456798331303521
 20
0.2408496933001061
 10
-0.045838394658043
 20
0.2427665041500404
  0
LWPOLYLINE
  5
E9
330
B3
100
AcDbEntity
  8
BLOCKS
100
AcDbPolyline
 90
       31
 70
     1
 43
0.0
 10
0.0134752607261408
 20
0.2447131658439048
 10
0.0119338537126197
 20
0.2467451490415442
 10
0.0101088264700025
 20
0.2485267263783726
 10
0.0078230675425495
 20
0.2501411266114246
 10
0.00530343289347
 20
0.2513583174170435
 10
0.0026170757268336
 20
0.2521349980070227
 10
-0.0001609824251982
 20
0.2524535984380236
 10
-0.0029945272231231
 20
0.2522907851275704
 10
-0.0057598009742961
 20
0.2516510263793634
 10
-0.0083983416102971
 20
0.25053668100702
 10
-0.0108118623509714
 20
0.2489940806217419
 10
-0.0129282522919496
 20
0.2470664910143796
 10
-0.0146958053402173
 20
0.2448146302298255
 10
-0.0151836574777047
 20
0.2439115779762915
 10
-0.0156346617654979
 20
0.2420874499628098
 10
-0.0154452216014658
 20
0.2401724743007207
 10
-0.0146301896679777
 20
0.2384325643765806
 10
-0.0118222333618938
 20
0.2352546296150422
 10
-0.009551683304128
 20
0.2335595924510017
 10
-0.0070341129709668
 20
0.2322597975859253
 10
-0.0043407021212829
 20
0.2314020001970221
 10
-0.0015423203005724
 20
0.2310037968510414
 10
0.0013257628000467
 20
0.2310901994022743
 10
0.0041379861528377
 20
0.2316605208695819
 10
0.0068375977033206
 20
0.2327153364304877
 10
0.0093211191493143
 20
0.2342099316699659
 10
0.0115143493284844
 20
0.2361021203815881
 10
0.0133636604755854
 20
0.2383317382734731
 10
0.0138772253716209
 20
0.239223793201063
 10
0.0143778932751761
 20
0.2410337778665053
 10
0.0142418940740576
 20
0.2429523210080333
  0
LWPOLYLINE
  5
EA
330
B3
100
AcDbEntity
  8
BLOCKS
100
AcDbPolyline
 90
       31
 70
     1
 43
0.0
 10
0.0735743481345512
 20
0.2442012330504895
 10
0.0720569541330924
 20
0.2462512048475673
 10
0.070253013491147
 20
0.2480541238962814
 10
0.0679864061968427
 20
0.2496952962835621
 10
0.0654812661779403
 20
0.2509420374451565
 10
0.0628042325567222
 20
0.2517502597694374
 10
0.0600301149635776
 20
0.2521015121660639
 10
0.0571948507118343
 20
0.2519720367337186
 10
0.0544222415011877
 20
0.2513648458963189
 10
0.0517707731066395
 20
0.2502816107050876
 10
0.0493392706011875
 20
0.2487675035699794
 10
0.0472003489236386
 20
0.2468649391590816
 10
0.0454064249397046
 20
0.244634023177241
 10
0.0449079821107752
 20
0.2437367712569767
 10
0.044435548089151
 20
0.241918073921056
 10
0.0446024453811926
 20
0.2400010026627797
 10
0.0453969508137391
 20
0.2382516271594568
 10
0.0481673243103114
 20
0.2350408866220732
 10
0.0504177750905228
 20
0.2333192617614941
 10
0.0529198790962973
 20
0.231989946535009
 10
0.0556030115701614
 20
0.2311005300626903
 10
0.0583965148943442
 20
0.230669441222858
 10
0.0612654160834811
 20
0.2307221049619557
 10
0.064084154714962
 20
0.2312593111272463
 10
0.0667959894279378
 20
0.2322823023429237
 10
0.0692969230129545
 20
0.2337475843434049
 10
0.0715122631192191
 20
0.2356138465547701
 10
0.0733876778566742
 20
0.2378215595886104
 10
0.07391170228113
 20
0.2387075125244564
 10
0.0744336300852684
 20
0.2405114833744619
 10
0.0743202120301287
 20
0.2424314933217602
  0
LWPOLYLINE
  5
EB
330
B3
100
AcDbEntity
  8
BLOCKS
100
AcDbPolyline
 90
       31
 70
     1
 43
0.0
 10
0.1344790668599014
 20
0.2392828820984505
 10
0.1343882456453915
 20
0.241204093162878
 10
0.1336632544138983
 20
0.2429824828899427
 10
0.1321700833996395
 20
0.245050159613811
 10
0.1303874789854849
 20
0.2468741708886455
 10
0.1281403369746989
 20
0.248541888326713
 10
0.1256500382442116
 20
0.2498180073217782
 10
0.1229826986130771
 20
0.2506576595394563
 10
0.120212905457846
 20
0.2510415152958103
 10
0.1173763140927129
 20
0.2509453956583911
 10
0.1145967530928935
 20
0.2503708567541025
 10
0.1119327238467758
 20
0.249318881640761
 10
0.1094835760449158
 20
0.2478334772762309
 10
0.1073224186121848
 20
0.2459562013362984
 10
0.1055023719336123
 20
0.2437465388686633
 10
0.1049934073871519
 20
0.2428552114422473
 10
0.1044996090065435
 20
0.241042196452895
 10
0.1046439403315524
 20
0.2391232948804145
 10
0.1054178093204587
 20
0.2373646958744757
 10
0.108150216646596
 20
0.2341215938595269
 10
0.1103802567346026
 20
0.2323736195387482
 10
0.112866548174873
 20
0.2310149679000233
 10
0.1155390309842978
 20
0.2300940554206363
 10
0.1183272692503525
 20
0.2296301407403689
 10
0.1211965915329376
 20
0.229649058380005
 10
0.1240214553894763
 20
0.2301530749051608
 10
0.1267451380045443
 20
0.2311441002152605
 10
0.1292631376524298
 20
0.2325798662128591
 10
0.1315002811297123
 20
0.2344199436729468
 10
0.1334015399399071
 20
0.2366054463481078
 10
0.1339359513789144
 20
0.2374851746950526
  0
LWPOLYLINE
  5
EC
330
B3
100
AcDbEntity
  8
BLOCKS
100
AcDbPolyline
 90
       31
 70
     1
 43
0.0
 10
0.1922649231303364
 20
0.2431421795395181
 10
0.1905039016186087
 20
0.2449870306359116
 10
0.1882765358481269
 20
0.2466810623481024
 10
0.185801423010572
 20
0.2479863825889197
 10
0.1831441464727454
 20
0.2488573485098868
 10
0.1803790610360476
 20
0.2492737545086356
 10
0.1775415350815983
 20
0.2492110039668205
 10
0.1747554069248824
 20
0.2486691964995771
 10
0.1720791854723362
 20
0.2476486270352325
 10
0.1696127312841682
 20
0.2461921309896979
 10
0.1674296371545996
 20
0.2443404032959506
 10
0.1655837196372403
 20
0.2421523001129344
 10
0.1650643038031472
 20
0.2412670205211498
 10
0.1645492093947762
 20
0.2394599387612288
 10
0.1646709547803571
 20
0.2375394724098214
 10
0.1654240802385711
 20
0.235771893254082
 10
0.1681181432870584
 20
0.2324968785380861
 10
0.1703274640926207
 20
0.2307227966397249
 10
0.1727975989173878
 20
0.2293349965972311
 10
0.1754590622474446
 20
0.2283827155456493
 10
0.1782416496223416
 20
0.2278860392209481
 10
0.1811109959450405
 20
0.2278712081431422
 10
0.1839415941254021
 20
0.2283419652829934
 10
0.1866767477426681
 20
0.2293008875508349
 10
0.1892114650156831
 20
0.2307069388658647
 10
0.191470102290781
 20
0.2325205769469676
 10
0.1933969420798203
 20
0.2346835668361109
 10
0.1939416665821802
 20
0.2355569488585161
 10
0.1945058945843527
 20
0.2373481440506566
 10
0.1944376827782026
 20
0.2392702903773625
 10
0.1937336645342018
 20
0.2410570840113451
  0
LWPOLYLINE
  5
ED
330
B3
100
AcDbEntity
  8
BLOCKS
100
AcDbPolyline
 90
       31
 70
     1
 43
0.0
 10
0.1945058945843527
 20
0.3023382442357843
 10
0.1944376827782026
 20
0.3042603905624901
 10
0.1937336645342018
 20
0.3060471841965864
 10
0.1922649231303381
 20
0.3081322797247594
 10
0.1905039016186087
 20
0.309977130821153
 10
0.1882765358481286
 20
0.31167116253323
 10
0.185801423010572
 20
0.3129764827740473
 10
0.1831441464727454
 20
0.3138474486951281
 10
0.1803790610360476
 20
0.3142638546937633
 10
0.1775415350815965
 20
0.3142011041519481
 10
0.1747554069248842
 20
0.3136592966848184
 10
0.172079185472338
 20
0.3126387272204738
 10
0.1696127312841682
 20
0.3111822311748256
 10
0.1674296371545996
 20
0.3093305034810783
 10
0.1655837196372403
 20
0.3071424002980621
 10
0.1650643038031472
 20
0.3062571207062774
 10
0.1645492093947762
 20
0.3044500389463565
 10
0.1646709547803571
 20
0.3025295725950627
 10
0.1654240802385711
 20
0.3007619934392096
 10
0.1681181432870584
 20
0.2974869787233274
 10
0.1703274640926207
 20
0.2957128968248526
 10
0.1727975989173878
 20
0.2943250967823587
 10
0.1754590622474463
 20
0.2933728157307769
 10
0.1782416496223416
 20
0.2928761394060757
 10
0.1811109959450405
 20
0.2928613083282698
 10
0.1839415941254021
 20
0.2933320654681211
 10
0.1866767477426681
 20
0.2942909877359625
 10
0.1892114650156831
 20
0.295697039051106
 10
0.191470102290781
 20
0.2975106771320952
 10
0.1933969420798256
 20
0.2996736670213522
 10
0.1939416665821802
 20
0.3005470490436437
  0
LWPOLYLINE
  5
EE
330
B3
100
AcDbEntity
  8
BLOCKS
100
AcDbPolyline
 90
       31
 70
     1
 43
0.0
 10
0.1339359513789144
 20
0.3024752748801802
 10
0.1344790668599014
 20
0.3042729822835781
 10
0.1343882456453915
 20
0.3061941933480057
 10
0.1336632544138983
 20
0.3079725830750704
 10
0.1321700833996395
 20
0.3100402597989387
 10
0.1303874789854849
 20
0.3118642710737731
 10
0.1281403369746989
 20
0.3135319885118406
 10
0.1256500382442116
 20
0.3148081075070195
 10
0.1229826986130771
 20
0.3156477597245839
 10
0.120212905457846
 20
0.3160316154810516
 10
0.1173763140927129
 20
0.3159354958435188
 10
0.1145967530928935
 20
0.3153609569392302
 10
0.1119327238467775
 20
0.3143089818258886
 10
0.1094835760449158
 20
0.3128235774613586
 10
0.1073224186121831
 20
0.310946301521426
 10
0.1055023719336177
 20
0.3087366390537909
 10
0.1049934073871519
 20
0.3078453116273749
 10
0.1044996090065435
 20
0.3060322966380227
 10
0.1046439403315524
 20
0.3041133950655421
 10
0.1054178093204587
 20
0.302354796059717
 10
0.1081502166465942
 20
0.2991116940446545
 10
0.1103802567346026
 20
0.2973637197238759
 10
0.1128665481748712
 20
0.2960050680851509
 10
0.1155390309842961
 20
0.2950841556058776
 10
0.1183272692503525
 20
0.2946202409256102
 10
0.1211965915329394
 20
0.2946391585651327
 10
0.1240214553894781
 20
0.2951431750902884
 10
0.1267451380045443
 20
0.2961342004005019
 10
0.1292631376524298
 20
0.2975699663981004
 10
0.1315002811297123
 20
0.2994100438580744
 10
0.1334015399399071
 20
0.3015955465332354
  0
LWPOLYLINE
  5
EF
330
B3
100
AcDbEntity
  8
BLOCKS
100
AcDbPolyline
 90
       31
 70
     1
 43
0.0
 10
0.1336632544138983
 20
0.372962683260198
 10
0.1321700833996395
 20
0.37503035998418
 10
0.1303874789854849
 20
0.3768543712589007
 10
0.1281403369746972
 20
0.3785220886969682
 10
0.1256500382442098
 20
0.3797982076921471
 10
0.1229826986130789
 20
0.3806378599098252
 10
0.120212905457846
 20
0.3810217156661792
 10
0.1173763140927111
 20
0.3809255960286464
 10
0.1145967530928917
 20
0.3803510571243578
 10
0.1119327238467775
 20
0.3792990820111299
 10
0.1094835760449158
 20
0.3778136776464862
 10
0.1073224186121831
 20
0.3759364017066673
 10
0.1055023719336123
 20
0.3737267392389185
 10
0.1049934073871519
 20
0.3728354118125026
 10
0.1044996090065435
 20
0.3710223968231503
 10
0.1046439403315524
 20
0.3691034952507834
 10
0.1054178093204587
 20
0.3673448962448447
 10
0.1081502166465942
 20
0.3641017942298959
 10
0.1103802567346044
 20
0.3623538199090035
 10
0.1128665481748694
 20
0.3609951682703922
 10
0.1155390309842961
 20
0.3600742557910053
 10
0.1183272692503525
 20
0.3596103411107379
 10
0.1211965915329376
 20
0.3596292587502603
 10
0.1240214553894781
 20
0.360133275275416
 10
0.1267451380045461
 20
0.3611243005856295
 10
0.1292631376524298
 20
0.362560066583228
 10
0.1315002811297123
 20
0.3644001440433158
 10
0.1334015399399089
 20
0.366585646718363
 10
0.1339359513789144
 20
0.3674653750654215
 10
0.1344790668599014
 20
0.3692630824687058
 10
0.1343882456453915
 20
0.3711842935331333
  0
LWPOLYLINE
  5
F0
330
B3
100
AcDbEntity
  8
BLOCKS
100
AcDbPolyline
 90
       31
 70
     1
 43
0.0
 10
0.1922649231303381
 20
0.3731223799098871
 10
0.1905039016186087
 20
0.3749672310062806
 10
0.1882765358481269
 20
0.3766612627184713
 10
0.1858014230105738
 20
0.3779665829592886
 10
0.1831441464727472
 20
0.3788375488802558
 10
0.1803790610360458
 20
0.3792539548788909
 10
0.1775415350815965
 20
0.3791912043371894
 10
0.1747554069248842
 20
0.378649396869946
 10
0.1720791854723362
 20
0.3776288274056014
 10
0.1696127312841682
 20
0.3761723313599532
 10
0.1674296371545996
 20
0.3743206036663196
 10
0.1655837196372456
 20
0.3721325004831897
 10
0.1650643038031472
 20
0.371247220891405
 10
0.1645492093947762
 20
0.3694401391315978
 10
0.1646709547803571
 20
0.3675196727801904
 10
0.1654240802385711
 20
0.3657520936244509
 10
0.1681181432870584
 20
0.362477078908455
 10
0.1703274640926207
 20
0.3607029970099802
 10
0.1727975989173878
 20
0.3593151969676001
 10
0.1754590622474446
 20
0.3583629159160182
 10
0.1782416496223416
 20
0.3578662395912033
 10
0.1811109959450405
 20
0.3578514085133975
 10
0.1839415941254039
 20
0.3583221656532487
 10
0.1866767477426681
 20
0.3592810879210901
 10
0.1892114650156831
 20
0.3606871392362336
 10
0.191470102290781
 20
0.3625007773173365
 10
0.1933969420798256
 20
0.3646637672064799
 10
0.1939416665821802
 20
0.3655371492287713
 10
0.1945058945843527
 20
0.3673283444209119
 10
0.1944376827782026
 20
0.3692504907477314
 10
0.1937336645342018
 20
0.371037284381714
  0
LWPOLYLINE
  5
F1
330
B3
100
AcDbEntity
  8
BLOCKS
100
AcDbPolyline
 90
       31
 70
     1
 43
0.0
 10
0.1937336645342018
 20
0.4360273845668417
 10
0.1922649231303381
 20
0.4381124800950147
 10
0.1905039016186105
 20
0.4399573311914083
 10
0.1882765358481269
 20
0.441651362903599
 10
0.1858014230105702
 20
0.4429566831444163
 10
0.1831441464727472
 20
0.4438276490653835
 10
0.1803790610360476
 20
0.4442440550641323
 10
0.1775415350815983
 20
0.4441813045223171
 10
0.1747554069248824
 20
0.4436394970550737
 10
0.172079185472338
 20
0.4426189275907291
 10
0.1696127312841682
 20
0.4411624315451946
 10
0.1674296371545996
 20
0.4393107038514473
 10
0.1655837196372403
 20
0.437122600668431
 10
0.1650643038031472
 20
0.4362373210766464
 10
0.1645492093947762
 20
0.4344302393167255
 10
0.1646709547803571
 20
0.432509772965318
 10
0.1654240802385711
 20
0.4307421938095786
 10
0.1681181432870584
 20
0.4274671790935827
 10
0.1703274640926224
 20
0.4256930971952216
 10
0.1727975989173895
 20
0.4243052971527277
 10
0.1754590622474463
 20
0.4233530161011459
 10
0.1782416496223416
 20
0.4228563397764447
 10
0.1811109959450388
 20
0.4228415086986388
 10
0.1839415941254039
 20
0.4233122658384901
 10
0.1866767477426681
 20
0.4242711881063315
 10
0.1892114650156831
 20
0.4256772394213613
 10
0.1914701022907792
 20
0.4274908775024642
 10
0.1933969420798256
 20
0.4296538673917212
 10
0.1939416665821802
 20
0.4305272494140127
 10
0.1945058945843527
 20
0.4323184446061532
 10
0.1944376827782026
 20
0.4342405909328591
  0
LWPOLYLINE
  5
F2
330
B3
100
AcDbEntity
  8
BLOCKS
100
AcDbPolyline
 90
       31
 70
     1
 43
0.0
 10
0.1339359513789144
 20
0.4324554752505492
 10
0.1344790668599014
 20
0.4342531826539471
 10
0.1343882456453915
 20
0.4361743937183747
 10
0.1336632544138983
 20
0.4379527834454393
 10
0.1321700833996413
 20
0.4400204601693077
 10
0.1303874789854831
 20
0.4418444714441421
 10
0.1281403369747007
 20
0.4435121888822096
 10
0.1256500382442116
 20
0.4447883078772748
 10
0.1229826986130771
 20
0.4456279600949529
 10
0.120212905457846
 20
0.4460118158513069
 10
0.1173763140927129
 20
0.4459156962138878
 10
0.1145967530928935
 20
0.4453411573095992
 10
0.1119327238467775
 20
0.4442891821962576
 10
0.1094835760449158
 20
0.4428037778317276
 10
0.1073224186121848
 20
0.440926501891795
 10
0.1055023719336141
 20
0.4387168394241599
 10
0.1049934073871519
 20
0.4378255119977439
 10
0.1044996090065435
 20
0.4360124970083917
 10
0.1046439403315524
 20
0.4340935954359111
 10
0.1054178093204587
 20
0.4323349964299723
 10
0.1081502166465942
 20
0.4290918944150235
 10
0.1103802567346044
 20
0.4273439200942449
 10
0.1128665481748712
 20
0.4259852684555199
 10
0.1155390309842961
 20
0.4250643559761329
 10
0.1183272692503525
 20
0.4246004412958655
 10
0.1211965915329376
 20
0.4246193589355017
 10
0.1240214553894763
 20
0.4251233754606574
 10
0.1267451380045443
 20
0.4261144007707572
 10
0.1292631376524298
 20
0.4275501667683557
 10
0.1315002811297123
 20
0.4293902442284434
 10
0.1334015399399071
 20
0.4315757469036044
  0
LWPOLYLINE
  5
F3
330
B3
100
AcDbEntity
  8
BLOCKS
100
AcDbPolyline
 90
       31
 70
     1
 43
0.0
 10
0.1336632544139
 20
0.502942883630567
 10
0.1321700833996395
 20
0.5050105603544353
 10
0.1303874789854849
 20
0.5068345716292697
 10
0.1281403369746989
 20
0.5085022890673372
 10
0.1256500382442116
 20
0.5097784080625161
 10
0.1229826986130771
 20
0.5106180602800805
 10
0.1202129054578442
 20
0.5110019160365482
 10
0.1173763140927129
 20
0.5109057963990154
 10
0.1145967530928935
 20
0.5103312574947268
 10
0.1119327238467775
 20
0.5092792823813852
 10
0.1094835760449158
 20
0.5077938780168552
 10
0.1073224186121831
 20
0.5059166020769226
 10
0.1055023719336123
 20
0.5037069396092875
 10
0.1049934073871519
 20
0.5028156121828716
 10
0.1044996090065435
 20
0.5010025971935193
 10
0.1046439403315524
 20
0.4990836956210388
 10
0.1054178093204587
 20
0.4973250966152137
 10
0.108150216646596
 20
0.4940819946001512
 10
0.1103802567346026
 20
0.4923340202793725
 10
0.1128665481748712
 20
0.4909753686406475
 10
0.1155390309842943
 20
0.4900544561613743
 10
0.1183272692503525
 20
0.4895905414811069
 10
0.1211965915329376
 20
0.4896094591206293
 10
0.1240214553894763
 20
0.490113475645785
 10
0.1267451380045443
 20
0.4911045009559985
 10
0.1292631376524298
 20
0.492540266953597
 10
0.1315002811297123
 20
0.4943803444135711
 10
0.1334015399399071
 20
0.496565847088732
 10
0.1339359513789144
 20
0.4974455754356768
 10
0.1344790668599014
 20
0.4992432828390747
 10
0.1343882456453915
 20
0.5011644939035023
  0
LWPOLYLINE
  5
F4
330
B3
100
AcDbEntity
  8
BLOCKS
100
AcDbPolyline
 90
       31
 70
     1
 43
0.0
 10
0.1944376827782026
 20
0.4992306911179867
 10
0.1937336645342018
 20
0.501017484752083
 10
0.1922649231303381
 20
0.503102580280256
 10
0.1905039016186087
 20
0.5049474313766496
 10
0.1882765358481269
 20
0.5066414630887266
 10
0.185801423010572
 20
0.5079467833295439
 10
0.1831441464727472
 20
0.5088177492506248
 10
0.1803790610360476
 20
0.5092341552492599
 10
0.1775415350815965
 20
0.5091714047074447
 10
0.1747554069248824
 20
0.508629597240315
 10
0.1720791854723362
 20
0.5076090277759704
 10
0.1696127312841682
 20
0.5061525317303222
 10
0.1674296371545996
 20
0.5043008040365749
 10
0.1655837196372385
 20
0.5021127008535587
 10
0.1650643038031472
 20
0.501227421261774
 10
0.1645492093947762
 20
0.4994203395018531
 10
0.1646709547803571
 20
0.4974998731505594
 10
0.1654240802385711
 20
0.4957322939947062
 10
0.1681181432870584
 20
0.492457279278824
 10
0.1703274640926207
 20
0.4906831973803492
 10
0.1727975989173878
 20
0.4892953973378554
 10
0.1754590622474463
 20
0.4883431162862735
 10
0.1782416496223433
 20
0.4878464399615723
 10
0.1811109959450405
 20
0.4878316088837665
 10
0.1839415941254021
 20
0.4883023660236177
 10
0.1866767477426681
 20
0.4892612882914591
 10
0.1892114650156831
 20
0.4906673396066026
 10
0.191470102290781
 20
0.4924809776875918
 10
0.1933969420798256
 20
0.4946439675768488
 10
0.1939416665821802
 20
0.4955173495991403
 10
0.1945058945843527
 20
0.4973085447912809
  0
ARC
  5
F5
330
B3
100
AcDbEntity
  8
BLOCKS
100
AcDbCircle
 10
0.0
 20
-4.878322058875255
 30
0.0
 40
4.967602288494217
100
AcDbArc
 50
83.85515058991487
 51
96.14484941008512
  0
LINE
  5
F6
330
B3
100
AcDbEntity
  8
BLOCKS
100
AcDbLine
 10
-0.6020946077913863
 20
0.7420946077913868
 30
0.0
 11
-0.6020946077913863
 21
0.0120946077913686
 31
0.0
  0
LINE
  5
F7
330
B3
100
AcDbEntity
  8
BLOCKS
100
AcDbLine
 10
-0.5428143781724764
 20
0.6561684347667552
 30
0.0
 11
-0.5428143781724764
 21
0.0706812125760052
 31
0.0
  0
LINE
  5
F8
330
B3
100
AcDbEntity
  8
BLOCKS
100
AcDbLine
 10
-0.5575864944676603
 20
0.0430216616782673
 30
0.0
 11
-0.5575864944676603
 21
0.6783548836236833
 31
0.0
  0
LINE
  5
F9
330
B3
100
AcDbEntity
  8
BLOCKS
100
AcDbLine
 10
0.5428143781724746
 20
0.0706812125760052
 30
0.0
 11
0.5428143781724746
 21
0.6561684347667552
 31
0.0
  0
LINE
  5
FA
330
B3
100
AcDbEntity
  8
BLOCKS
100
AcDbLine
 10
0.5575864944676585
 20
0.6783548836236833
 30
0.0
 11
0.5575864944676585
 21
0.0430216616782673
 31
0.0
  0
LINE
  5
FB
330
B3
100
AcDbEntity
  8
BLOCKS
100
AcDbLine
 10
0.6020946077913863
 20
0.0120946077913686
 30
0.0
 11
0.6020946077913863
 21
0.7420946077913868
 31
0.0
  0
LINE
  5
FC
330
B3
100
AcDbEntity
  8
BLOCKS
100
AcDbLine
 10
-0.5899999999999999
 20
0.0
 30
0.0
 11
0.5899999999999999
 21
0.0
 31
0.0
  0
ARC
  5
FD
330
B3
100
AcDbEntity
  8
BLOCKS
100
AcDbCircle
 10
0.0
 20
-4.878322058875255
 30
0.0
 40
4.952830172199035
100
AcDbArc
 50
83.53597365254534
 51
96.46402634745465
  0
ARC
  5
FE
330
B3
100
AcDbEntity
  8
BLOCKS
100
AcDbCircle
 10
-0.5899999999999999
 20
0.0120946077913686
 30
0.0
 40
0.0120946077913862
100
AcDbArc
 50
180.0
 51
270.0
  0
ARC
  5
FF
330
B3
100
AcDbEntity
  8
BLOCKS
100
AcDbCircle
 10
-0.5328143781724766
 20
0.0706812125760052
 30
0.0
 40
0.01
100
AcDbArc
 50
180.0
 51
276.1448494100819
  0
ARC
  5
100
330
B3
100
AcDbEntity
  8
BLOCKS
100
AcDbCircle
 10
0.5328143781724766
 20
0.0706812125760052
 30
0.0
 40
0.01
100
AcDbArc
 50
263.8551505899116
 51
0.0
  0
ARC
  5
101
330
B3
100
AcDbEntity
  8
BLOCKS
100
AcDbCircle
 10
0.5899999999999999
 20
0.0120946077913686
 30
0.0
 40
0.0120946077913865
100
AcDbArc
 50
270.0
 51
0.0
  0
LINE
  5
102
330
B3
100
AcDbEntity
  8
BLOCKS
100
AcDbLine
 10
0.5899999999999999
 20
0.7541892155827555
 30
0.0
 11
-0.5899999999999999
 21
0.7541892155827555
 31
0.0
  0
LWPOLYLINE
  5
103
330
B3
100
AcDbEntity
  8
BLOCKS
100
AcDbPolyline
 90
        8
 70
   128
 43
0.0
 10
0.4975546223001395
 20
0.6237174218204018
 10
0.3556925798521444
 20
0.636033518714271
 10
0.2135341657560232
 20
0.6442499555637369
 10
0.0711978298357732
 20
0.648359886235312
 10
-0.0711978298358442
 20
0.648359886235312
 10
-0.2135341657560925
 20
0.6442499555637369
 10
-0.3556925798522137
 20
0.636033518714271
 10
-0.4975546223002088
 20
0.6237174218204018
  0
ARC
  5
104
330
B3
100
AcDbEntity
  8
BLOCKS
100
AcDbCircle
 10
0.0
 20
-4.268322058875241
 30
0.0
 40
4.963231044839154
100
AcDbArc
 50
83.824798937675
 51
96.17520106232497
  0
ARC
  5
105
330
B3
100
AcDbEntity
  8
BLOCKS
100
AcDbCircle
 10
0.0
 20
-4.268322058875241
 30
0.0
 40
4.978003161134335
100
AcDbArc
 50
83.56879955884286
 51
96.43120044115715
  0
LWPOLYLINE
  5
106
330
B3
100
AcDbEntity
  8
BLOCKS
100
AcDbPolyline
 90
        8
 70
   128
 43
0.0
 10
-0.499143952251508
 20
0.1073321722878973
 10
-0.3568231535009705
 20
0.1195705441027712
 10
-0.2142106434388644
 20
0.1277350213108548
 10
-0.0714230111428549
 20
0.1318189292602483
 10
0.0714230111428531
 20
0.1318189292602483
 10
0.2142106434388626
 20
0.1277350213108548
 10
0.3568231535009687
 20
0.1195705441027712
 10
0.4991439522515062
 20
0.1073321722878973
  0
LINE
  5
107
330
B3
100
AcDbEntity
  8
BLOCKS
100
AcDbLine
 10
-0.4975546223001395
 20
0.6237174218204018
 30
0.0
 11
-0.499143952251508
 21
0.1073321722877836
 31
0.0
  0
ARC
  5
108
330
B3
100
AcDbEntity
  8
BLOCKS
100
AcDbCircle
 10
-0.5328143781724766
 20
0.6561684347667552
 30
0.0
 40
0.01
100
AcDbArc
 50
96.17520106232497
 51
180.0
  0
ARC
  5
109
330
B3
100
AcDbEntity
  8
BLOCKS
100
AcDbCircle
 10
-0.5899999999999999
 20
0.7420946077913868
 30
0.0
 40
0.0120946077913862
100
AcDbArc
 50
90.0
 51
180.0
  0
LWPOLYLINE
  5
10A
330
B3
100
AcDbEntity
  8
BLOCKS
100
AcDbPolyline
 90
       69
 70
   128
 43
0.0
 10
0.0
 20
0.5628280008127149
 10
-0.0038818284078719
 20
0.5630074412372324
 10
-0.0077305384244593
 20
0.5635442315884803
 10
-0.0115132942129215
 20
0.5644337921604575
 10
-0.015197822634633
 20
0.5656685335358134
 10
-0.018752688592226
 20
0.5672379213367549
 10
-0.0221475632227612
 20
0.569128566099721
 10
-0.025353482652891
 20
0.5713243375103048
 10
-0.0283430951084149
 20
0.573806502021057
 10
-0.0310908942699655
 20
0.576553882679491
 10
-0.0335734368839447
 20
0.5795430398025019
 10
-0.0357695427720923
 20
0.5827484709556075
 10
-0.0376604755332934
 20
0.5861428285302282
 10
-0.0392301023959529
 20
0.5896971530645488
 10
-0.0404650318571154
 20
0.5933811203148025
 10
-0.0413547279340421
 20
0.5971632999711574
 10
-0.0418916000535017
 20
0.6010114238106326
 10
-0.0420710678118663
 20
0.6048926609971659
 10
-0.0418916000535017
 20
0.6087738981838129
 10
-0.0413547279340421
 20
0.6126220220231744
 10
-0.0404650318571154
 20
0.616404201679643
 10
-0.0392301023959529
 20
0.6200881689297831
 10
-0.0376604755332934
 20
0.6236424934641036
 10
-0.0357695427720906
 20
0.627036851038838
 10
-0.0335734368839447
 20
0.6302422821918299
 10
-0.0310908942699637
 20
0.6332314393149546
 10
-0.0283430951084132
 20
0.6359788199733885
 10
-0.025353482652891
 20
0.6384609844841407
 10
-0.0221475632227612
 20
0.6406567558947245
 10
-0.0187526885922242
 20
0.6425474006576906
 10
-0.0151978226346312
 20
0.6441167884585184
 10
-0.0115132942129215
 20
0.6453515298339881
 10
-0.0077305384244593
 20
0.6462410904058516
 10
-0.0038818284078701
 20
0.6467778807570994
 10
0.0
 20
0.6469573211816169
 10
0.0038818284078701
 20
0.6467778807570994
 10
0.0077305384244575
 20
0.6462410904058516
 10
0.0115132942129197
 20
0.6453515298339881
 10
0.0151978226346294
 20
0.6441167884585184
 10
0.0187526885922242
 20
0.6425474006576906
 10
0.0221475632227595
 20
0.6406567558947245
 10
0.0253534826528892
 20
0.6384609844841407
 10
0.0283430951084114
 20
0.6359788199733885
 10
0.0310908942699637
 20
0.6332314393149546
 10
0.0335734368839429
 20
0.6302422821918299
 10
0.0357695427720906
 20
0.627036851038838
 10
0.0376604755332899
 20
0.6236424934641036
 10
0.0392301023959512
 20
0.6200881689297831
 10
0.0404650318571136
 20
0.616404201679643
 10
0.0413547279340403
 20
0.6126220220231744
 10
0.0418916000534999
 20
0.6087738981838129
 10
0.0420710678118645
 20
0.6048926609971659
 10
0.0418916000534999
 20
0.6010114238106326
 10
0.0413547279340403
 20
0.5971632999711574
 10
0.0404650318571136
 20
0.5933811203148025
 10
0.0392301023959512
 20
0.5896971530645488
 10
0.0376604755332899
 20
0.5861428285302282
 10
0.0357695427720888
 20
0.5827484709556075
 10
0.0335734368839429
 20
0.5795430398025019
 10
0.0310908942699619
 20
0.576553882679491
 10
0.0283430951084114
 20
0.573806502021057
 10
0.0253534826528892
 20
0.5713243375103048
 10
0.0221475632227595
 20
0.569128566099721
 10
0.0187526885922225
 20
0.5672379213367549
 10
0.0151978226346294
 20
0.5656685335358134
 10
0.0115132942129179
 20
0.5644337921604575
 10
0.0077305384244575
 20
0.5635442315884803
 10
0.0038818284078683
 20
0.5630074412372324
 10
0.0
 20
0.5628280008127149
  0
LWPOLYLINE
  5
10B
330
B3
100
AcDbEntity
  8
BLOCKS
100
AcDbPolyline
 90
       59
 70
   128
 43
0.0
 10
0.0
 20
0.6347135677874576
 10
-0.0032435705527192
 20
0.6345377332867202
 10
-0.0064491132063313
 20
0.6340122912829429
 10
-0.009579045904081
 20
0.6331434021033147
 10
-0.0125966730468097
 20
0.6319412526789847
 10
-0.0154666157153116
 20
0.6304199371129471
 10
-0.0181552264558143
 20
0.6285972914390641
 10
-0.0206309837656047
 20
0.6264946845116129
 10
-0.0228648616538294
 20
0.6241367674742833
 10
-0.0248306699447074
 20
0.621551184748455
 10
-0.0265053613333812
 20
0.618768249927598
 10
-0.0278693015945049
 20
0.6158205903780072
 10
-0.0289064997755784
 20
0.6127427647128343
 10
-0.0296047956762475
 20
0.6095708576239077
 10
-0.0299560024155348
 20
0.606342056821859
 10
-0.0299560024155348
 20
0.6030942170438039
 10
-0.0296047956762475
 20
0.5998654162416415
 10
-0.0289064997755784
 20
0.5966935091528285
 10
-0.0278693015945049
 20
0.5936156834876556
 10
-0.0265053613333812
 20
0.5906680239380649
 10
-0.0248306699447074
 20
0.5878850891172079
 10
-0.0228648616538294
 20
0.5852995063913795
 10
-0.0206309837656047
 20
0.58294158935405
 10
-0.0181552264558143
 20
0.5808389824265987
 10
-0.0154666157153116
 20
0.5790163367527157
 10
-0.0125966730468097
 20
0.5774950211866781
 10
-0.0095790459040792
 20
0.5762928717623482
 10
-0.0064491132063313
 20
0.5754239825827199
 10
-0.0032435705527192
 20
0.5748985405789427
 10
0.0
 20
0.5747227060780915
 10
0.0032435705527174
 20
0.5748985405789427
 10
0.0064491132063313
 20
0.5754239825827199
 10
0.0095790459040792
 20
0.5762928717623482
 10
0.0125966730468079
 20
0.5774950211866781
 10
0.0154666157153098
 20
0.5790163367527157
 10
0.0181552264558125
 20
0.5808389824265987
 10
0.0206309837656029
 20
0.58294158935405
 10
0.0228648616538294
 20
0.5852995063913795
 10
0.0248306699447056
 20
0.5878850891172079
 10
0.0265053613333795
 20
0.5906680239380649
 10
0.0278693015945031
 20
0.5936156834876556
 10
0.0289064997755766
 20
0.5966935091528285
 10
0.0296047956762458
 20
0.5998654162416415
 10
0.029956002415533
 20
0.6030942170438039
 10
0.029956002415533
 20
0.606342056821859
 10
0.0296047956762458
 20
0.6095708576239077
 10
0.0289064997755766
 20
0.6127427647128343
 10
0.0278693015945031
 20
0.6158205903780072
 10
0.0265053613333795
 20
0.618768249927598
 10
0.0248306699447056
 20
0.621551184748455
 10
0.0228648616538276
 20
0.6241367674742833
 10
0.0206309837656011
 20
0.6264946845116129
 10
0.0181552264558107
 20
0.6285972914390641
 10
0.0154666157153098
 20
0.6304199371129471
 10
0.0125966730468061
 20
0.6319412526789847
 10
0.0095790459040774
 20
0.6331434021033147
 10
0.0064491132063296
 20
0.6340122912829429
 10
0.0032435705527174
 20
0.6345377332867202
 10
0.0
 20
0.6347135677874576
  0
LINE
  5
10C
330
B3
100
AcDbEntity
  8
BLOCKS
100
AcDbLine
 10
0.4991439522515062
 20
0.1073321722877836
 30
0.0
 11
0.4975546223001377
 21
0.6237174218204018
 31
0.0
  0
ARC
  5
10D
330
B3
100
AcDbEntity
  8
BLOCKS
100
AcDbCircle
 10
0.5328143781724748
 20
0.6561684347667552
 30
0.0
 40
0.01
100
AcDbArc
 50
0.0
 51
83.82479893767825
  0
ARC
  5
10E
330
B3
100
AcDbEntity
  8
BLOCKS
100
AcDbCircle
 10
0.5899999999999999
 20
0.7420946077913868
 30
0.0
 40
0.0120946077913865
100
AcDbArc
 50
0.0
 51
90.0
  0
ENDBLK
  5
110
330
B3
100
AcDbEntity
  8
0
100
AcDbBlockEnd
  0
ENDSEC
  0
SECTION
  2
ENTITIES
  0
ARC
  5
26
330
2
100
AcDbEntity
  8
SANINDUSA
100
AcDbCircle
 10
0.5950865136844197
 20
0.1150000000000091
 30
0.0
 40
0.0050000000000001
100
AcDbArc
 50
1.000000000001755
 51
90.0
  0
LINE
  5
27
330
2
100
AcDbEntity
  8
SANINDUSA
100
AcDbLine
 10
0.6020946077913863
 20
0.0
 30
0.0
 11
0.6000857521602026
 21
0.1150872620322616
 31
0.0
  0
ARC
  5
28
330
2
100
AcDbEntity
  8
SANINDUSA
100
AcDbCircle
 10
-0.5950865136844215
 20
0.1150000000000091
 30
0.0
 40
0.005
100
AcDbArc
 50
90.0
 51
179.0000000000047
  0
LINE
  5
29
330
2
100
AcDbEntity
  8
SANINDUSA
100
AcDbLine
 10
-0.6000857521602026
 20
0.1150872620322616
 30
0.0
 11
-0.6020946077913863
 21
0.0
 31
0.0
  0
LINE
  5
2A
330
2
100
AcDbEntity
  8
SANINDUSA
100
AcDbLine
 10
-0.6020946077913863
 20
0.0
 30
0.0
 11
0.6020946077913863
 21
0.0
 31
0.0
  0
LINE
  5
2B
330
2
100
AcDbEntity
  8
SANINDUSA
100
AcDbLine
 10
-0.5950865136844215
 20
0.1200000000000045
 30
0.0
 11
0.5950865136844197
 21
0.1200000000000045
 31
0.0
  0
INSERT
  5
40
330
2
100
AcDbEntity
  8
SANINDUSA
100
AcDbBlockReference
  2
107122AL
 10
1.288982512690358
 20
0.0
 30
0.0
  0
INSERT
  5
111
330
2
100
AcDbEntity
  8
SANINDUSA
100
AcDbBlockReference
  2
107122PL
 10
-1.715832601505967
 20
-0.1894332808641312
 30
0.0
  0
LINE
  5
2F7
330
2
100
AcDbEntity
  8
SANINDUSA
100
AcDbLine
 10
2.668282632712225
 20
0.1079999999999991
 30
0.0
 11
2.668282632712225
 21
0.012
 31
0.0
  0
ARC
  5
2F8
330
2
100
AcDbEntity
  8
SANINDUSA
100
AcDbCircle
 10
2.557589409291463
 20
0.0789942217853668
 30
0.0
 40
0.0420000000000011
100
AcDbArc
 50
270.9999999999787
 51
349.9999999999976
  0
ARC
  5
2F9
330
2
100
AcDbEntity
  8
SANINDUSA
100
AcDbCircle
 10
2.557589409291463
 20
0.0789942217853668
 30
0.0
 40
0.0300000000000016
100
AcDbArc
 50
270.9999999999787
 51
349.9999999999976
  0
LINE
  5
2FA
330
2
100
AcDbEntity
  8
SANINDUSA
100
AcDbLine
 10
2.680282632712224
 20
0.112
 30
0.0
 11
2.680282632712224
 21
0.002
 31
0.0
  0
LINE
  5
2FB
330
2
100
AcDbEntity
  8
SANINDUSA
100
AcDbLine
 10
1.94207499986961
 20
0.1079999999999991
 30
0.0
 11
1.940399313636503
 21
0.012
 31
0.0
  0
LINE
  5
2FC
330
2
100
AcDbEntity
  8
SANINDUSA
100
AcDbLine
 10
1.930145429255899
 20
0.1121396192514994
 30
0.0
 11
1.92822354431647
 21
0.0020349048128737
 31
0.0
  0
LINE
  5
2FD
330
2
100
AcDbEntity
  8
SANINDUSA
100
AcDbLine
 10
1.975650561503598
 20
0.1055209445330065
 30
0.0
 11
1.98325431473785
 21
0.0623979170547382
 31
0.0
  0
ARC
  5
2FE
330
2
100
AcDbEntity
  8
SANINDUSA
100
AcDbCircle
 10
2.024616240364362
 20
0.0696911405167494
 30
0.0
 40
0.0299999999999998
100
AcDbArc
 50
190.0000000000024
 51
270.9999999999787
  0
LWPOLYLINE
  5
2FF
330
2
100
AcDbEntity
  8
SANINDUSA
100
AcDbPolyline
 90
       17
 70
   128
 43
0.0
 10
2.051090024678928
 20
0.0401486722995347
 10
2.051062109666927
 20
0.0401481999561716
 10
2.051038156122777
 20
0.040147818423699
 10
2.050965663098331
 20
0.0401467975640403
 10
2.050791836927956
 20
0.0401451690678473
 10
2.050374887733628
 20
0.0401459759796231
 10
2.049373003993705
 20
0.0401751283438821
 10
2.046941584199371
 20
0.0404066928455964
 10
2.043745869337826
 20
0.0410670360797135
 10
2.040618922402036
 20
0.042129477101586
 10
2.035961604242788
 20
0.0445969953722547
 10
2.031713985057981
 20
0.0480286600084596
 10
2.028787064132511
 20
0.0513796268740012
 10
2.026316968122678
 20
0.0552592534205283
 10
2.024669173290098
 20
0.0588907657491759
 10
2.023472389911821
 20
0.0627842119251332
 10
2.023121677361032
 20
0.0644556074924745
  0
LINE
  5
300
330
2
100
AcDbEntity
  8
SANINDUSA
100
AcDbLine
 10
2.557555881081525
 20
0.0000000000000018
 30
0.0
 11
2.505886043956902
 21
0.0000000000000018
 31
0.0
  0
LINE
  5
302
330
2
100
AcDbEntity
  8
SANINDUSA
100
AcDbLine
 10
2.451417292896903
 20
0.0471364107588188
 30
0.0
 11
2.558112981484582
 21
0.0489987909306747
 31
0.0
  0
LINE
  5
303
330
2
100
AcDbEntity
  8
SANINDUSA
100
AcDbLine
 10
2.516295524868009
 20
0.0162639900128961
 30
0.0
 11
2.548034272511153
 21
0.0168179919137465
 31
0.0
  0
LINE
  5
304
330
2
100
AcDbEntity
  8
SANINDUSA
100
AcDbLine
 10
2.182280850779288
 20
0.0100000000000019
 30
0.0
 11
2.050262584578349
 21
0.0100000000000019
 31
0.0
  0
LINE
  5
305
330
2
100
AcDbEntity
  8
SANINDUSA
100
AcDbLine
 10
2.110188024920835
 20
0.0179999999999991
 30
0.0
 11
2.046188024920839
 21
0.0179999999999991
 31
0.0
  0
LINE
  5
306
330
2
100
AcDbEntity
  8
SANINDUSA
100
AcDbLine
 10
2.196861138503322
 20
0.0000000000000018
 30
0.0
 11
2.026460127905111
 21
0.0000000000000018
 31
0.0
  0
LWPOLYLINE
  5
30A
330
2
100
AcDbEntity
  8
SANINDUSA
100
AcDbPolyline
 90
       20
 70
   128
 43
0.0
 10
2.046401962969271
 20
0.031596701630157
 10
2.046854343963664
 20
0.031607637940389
 10
2.04818606828092
 20
0.031637663248554
 10
2.050371804939773
 20
0.0316877300991896
 10
2.053338128360874
 20
0.0317555529651341
 10
2.057012949918052
 20
0.0318391298349402
 10
2.061282111687678
 20
0.0319367848129573
 10
2.066035487539875
 20
0.032044601571321
 10
2.071129965163818
 20
0.0321609215418735
 10
2.076429201442197
 20
0.0322810476719147
 10
2.08177717484019
 20
0.0324028424591839
 10
2.087025610077157
 20
0.0325219918601547
 10
2.092023882704024
 20
0.0326354772726532
 10
2.096627834342835
 20
0.0327405153050827
 10
2.100710043953053
 20
0.032832858221947
 10
2.104146597431877
 20
0.0329117430973079
 10
2.106848452240424
 20
0.0329729353366806
 10
2.108727327451684
 20
0.0330160763105064
 10
2.109741909214635
 20
0.0330394521922849
 10
2.109918225477295
 20
0.0330425387257233
  0
LINE
  5
30B
330
2
100
AcDbEntity
  8
SANINDUSA
100
AcDbLine
 10
2.032775069881499
 20
0.0398289835743908
 30
0.0
 11
2.123144143427698
 21
0.0414063816206426
 31
0.0
  0
LINE
  5
30E
330
2
100
AcDbEntity
  8
SANINDUSA
100
AcDbLine
 10
1.930223239706783
 20
0.0000000000000018
 30
0.0
 11
2.015670726027305
 21
0.0000000000000018
 31
0.0
  0
LINE
  5
30F
330
2
100
AcDbEntity
  8
SANINDUSA
100
AcDbLine
 10
2.010149682570481
 20
0.012
 30
0.0
 11
1.940399313636503
 21
0.012
 31
0.0
  0
ARC
  5
310
330
2
100
AcDbEntity
  8
SANINDUSA
100
AcDbCircle
 10
2.024616240364362
 20
0.0696911405167494
 30
0.0
 40
0.042
100
AcDbArc
 50
190.0000000000024
 51
254.2213185761912
  0
ARC
  5
311
330
2
100
AcDbEntity
  8
SANINDUSA
100
AcDbCircle
 10
1.930223239706783
 20
0.002
 30
0.0
 40
0.002
100
AcDbArc
 50
178.9999999996333
 51
270.0
  0
LINE
  5
313
330
2
100
AcDbEntity
  8
SANINDUSA
100
AcDbLine
 10
2.018625149286344
 20
0.0024790554670035
 30
0.0
 11
2.022349094494807
 21
0.0235985982250186
 31
0.0
  0
LINE
  5
314
330
2
100
AcDbEntity
  8
SANINDUSA
100
AcDbLine
 10
2.010149682570481
 20
0.012
 30
0.0
 11
2.013195507680484
 21
0.0292737325721073
 31
0.0
  0
LINE
  5
315
330
2
100
AcDbEntity
  8
SANINDUSA
100
AcDbLine
 10
2.048188024920837
 20
0.0277664794145604
 30
0.0
 11
2.048188024920837
 21
0.0200000000000019
 31
0.0
  0
LINE
  5
316
330
2
100
AcDbEntity
  8
SANINDUSA
100
AcDbLine
 10
2.036188024920838
 20
0.0245023258074771
 30
0.0
 11
2.036188024920838
 21
0.0200000000000019
 31
0.0
  0
LINE
  5
318
330
2
100
AcDbEntity
  8
SANINDUSA
100
AcDbLine
 10
2.026460127905111
 20
0.0000000000000018
 30
0.0
 11
2.02098636441824
 21
0.0000000000000018
 31
0.0
  0
LWPOLYLINE
  5
31B
330
2
100
AcDbEntity
  8
SANINDUSA
100
AcDbPolyline
 90
        7
 70
   128
 43
0.0
 10
2.050262584578349
 20
0.0100000000000014
 10
2.045755929694719
 20
0.0098015091653192
 10
2.041313129644045
 20
0.0092143702597482
 10
2.036837167209678
 20
0.0082149858143717
 10
2.032486713030389
 20
0.0068282149846723
 10
2.02747651827869
 20
0.0046729619364183
 10
2.022671808911795
 20
0.0019633359054674
  0
LINE
  5
31D
330
2
100
AcDbEntity
  8
SANINDUSA
100
AcDbLine
 10
2.02098636441824
 20
0.0000000000000018
 30
0.0
 11
2.018769715562921
 21
0.0000000000000018
 31
0.0
  0
LINE
  5
31F
330
2
100
AcDbEntity
  8
SANINDUSA
100
AcDbLine
 10
2.018769715562921
 20
0.0000000000000018
 30
0.0
 11
2.01815234872572
 21
0.0000000000000018
 31
0.0
  0
LWPOLYLINE
  5
321
330
2
100
AcDbEntity
  8
SANINDUSA
100
AcDbPolyline
 90
        3
 70
   128
 43
0.0
 10
2.022671808911795
 20
0.0019633359054674
 10
2.021611098210905
 20
0.0012708558551836
 10
2.021075469880465
 20
0.0009090909090915
  0
LWPOLYLINE
  5
322
330
2
100
AcDbEntity
  8
SANINDUSA
100
AcDbPolyline
 90
        4
 70
   128
 43
0.0
 10
2.01815234872572
 20
0.0000000000000014
 10
2.019664849088549
 20
0.0002249224610264
 10
2.020164407135362
 20
0.000406548675534
 10
2.02107546988047
 20
0.0009090909090915
  0
LINE
  5
324
330
2
100
AcDbEntity
  8
SANINDUSA
100
AcDbLine
 10
2.01815234872572
 20
0.0000000000000018
 30
0.0
 11
2.017139130871261
 21
0.0000000000000018
 31
0.0
  0
LINE
  5
328
330
2
100
AcDbEntity
  8
SANINDUSA
100
AcDbLine
 10
2.017139130871255
 20
0.0000000000000018
 30
0.0
 11
2.016952441871167
 21
0.0000000000000018
 31
0.0
  0
LINE
  5
32B
330
2
100
AcDbEntity
  8
SANINDUSA
100
AcDbLine
 10
2.016952441871167
 20
0.0000000000000018
 30
0.0
 11
2.015670726027305
 21
0.0000000000000018
 31
0.0
  0
ARC
  5
32D
330
2
100
AcDbEntity
  8
SANINDUSA
100
AcDbCircle
 10
2.015670726027305
 20
0.0029999999999991
 30
0.0
 40
0.003
100
AcDbArc
 50
270.0
 51
350.0000000000473
  0
ARC
  5
332
330
2
100
AcDbEntity
  8
SANINDUSA
100
AcDbCircle
 10
2.038188024920837
 20
0.0200000000000019
 30
0.0
 40
0.0020000000000002
100
AcDbArc
 50
180.0
 51
270.0
  0
LINE
  5
333
330
2
100
AcDbEntity
  8
SANINDUSA
100
AcDbLine
 10
2.038188024920837
 20
0.0179999999999991
 30
0.0
 11
2.046188024920839
 21
0.0179999999999991
 31
0.0
  0
ARC
  5
334
330
2
100
AcDbEntity
  8
SANINDUSA
100
AcDbCircle
 10
2.046188024920839
 20
0.0200000000000019
 30
0.0
 40
0.0020000000000002
100
AcDbArc
 50
270.0
 51
0.0
  0
ARC
  5
337
330
2
100
AcDbEntity
  8
SANINDUSA
100
AcDbCircle
 10
2.027273133259868
 20
0.0227303573366835
 30
0.0
 40
0.0049999999999999
100
AcDbArc
 50
90.99999999997875
 51
169.9999999999403
  0
LINE
  5
339
330
2
100
AcDbEntity
  8
SANINDUSA
100
AcDbLine
 10
2.036188024920838
 20
0.0245023258074771
 30
0.0
 11
2.032236843288674
 21
0.0278177608577398
 31
0.0
  0
LINE
  5
33A
330
2
100
AcDbEntity
  8
SANINDUSA
100
AcDbLine
 10
2.02718587122768
 20
0.0277295958124633
 30
0.0
 11
2.032236843288674
 21
0.0278177608577398
 31
0.0
  0
LINE
  5
33B
330
2
100
AcDbEntity
  8
SANINDUSA
100
AcDbLine
 10
2.025139812557481
 20
0.0396957096620572
 30
0.0
 11
2.032775069881499
 21
0.0398289835743908
 31
0.0
  0
ARC
  5
33C
330
2
100
AcDbEntity
  8
SANINDUSA
100
AcDbCircle
 10
2.043188024920837
 20
0.0277664794145604
 30
0.0
 40
0.005
100
AcDbArc
 50
0.0
 51
49.99999999998351
  0
LINE
  5
33D
330
2
100
AcDbEntity
  8
SANINDUSA
100
AcDbLine
 10
2.046401962969271
 20
0.0315967016301575
 30
0.0
 11
2.039377470042741
 21
0.0374909510540165
 31
0.0
  0
ARC
  5
33E
330
2
100
AcDbEntity
  8
SANINDUSA
100
AcDbCircle
 10
2.032949593945872
 20
0.0298305066228268
 30
0.0
 40
0.0100000000000001
100
AcDbArc
 50
49.99999999998351
 51
90.99999999997875
  0
LINE
  5
341
330
2
100
AcDbEntity
  8
SANINDUSA
100
AcDbLine
 10
2.321437092526571
 20
0.0448675979219725
 30
0.0
 11
2.364944310542223
 21
0.0456270192372786
 31
0.0
  0
LINE
  5
342
330
2
100
AcDbEntity
  8
SANINDUSA
100
AcDbLine
 10
2.290238238993324
 20
0.0123181454104561
 30
0.0
 11
2.340727146601034
 21
0.013199432570902
 31
0.0
  0
LINE
  5
343
330
2
100
AcDbEntity
  8
SANINDUSA
100
AcDbLine
 10
2.350490005884775
 20
0.0000000000000018
 30
0.0
 11
2.280886043956897
 21
0.0000000000000018
 31
0.0
  0
LWPOLYLINE
  5
345
330
2
100
AcDbEntity
  8
SANINDUSA
100
AcDbPolyline
 90
        3
 70
   128
 43
0.0
 10
2.328772062324114
 20
0.0459758045160529
 10
2.327055749065452
 20
0.0462885021189609
 10
2.323347543755039
 20
0.0464011734642705
  0
LWPOLYLINE
  5
346
330
2
100
AcDbEntity
  8
SANINDUSA
100
AcDbPolyline
 90
        3
 70
   128
 43
0.0
 10
2.324891566110764
 20
0.0459100703614208
 10
2.323181968354128
 20
0.0462208850251287
 10
2.319477153334669
 20
0.0463336155481843
  0
LWPOLYLINE
  5
347
330
2
100
AcDbEntity
  8
SANINDUSA
100
AcDbPolyline
 90
        9
 70
   128
 43
0.0
 10
2.321716550859555
 20
0.0458560885802004
 10
2.32236350997246
 20
0.0456388740449589
 10
2.323019679481935
 20
0.04545131119795
 10
2.323683701151249
 20
0.0452937882845086
 10
2.324354200490088
 20
0.045166631368867
 10
2.325029789599712
 20
0.0450701036592241
 10
2.325709070045823
 20
0.045004404962921
 10
2.326390635753241
 20
0.0449696712728351
 10
2.327073075916418
 20
0.0449659744858959
  0
LWPOLYLINE
  5
348
330
2
100
AcDbEntity
  8
SANINDUSA
100
AcDbPolyline
 90
        9
 70
   128
 43
0.0
 10
2.31924745660488
 20
0.0458138643929229
 10
2.31989466737642
 20
0.0455964548015632
 10
2.320551100920383
 20
0.0454087217056818
 10
2.321215397256068
 20
0.0452510540454673
 10
2.321886180112869
 20
0.0451237784723858
 10
2.322562059781571
 20
0.0450271586724116
 10
2.323241635993535
 20
0.0449613948197535
 10
2.323923500821724
 20
0.0449266231621246
 10
2.324606241597621
 20
0.0449229157384766
  0
LINE
  5
349
330
2
100
AcDbEntity
  8
SANINDUSA
100
AcDbLine
 10
2.191456892156243
 20
0.0425987850851216
 30
0.0
 11
2.234964110171895
 21
0.0433582064004322
 31
0.0
  0
LINE
  5
34A
330
2
100
AcDbEntity
  8
SANINDUSA
100
AcDbLine
 10
2.214885810368432
 20
0.0110028638763125
 30
0.0
 11
2.266076293905807
 21
0.0118963970901605
 31
0.0
  0
LINE
  5
34B
330
2
100
AcDbEntity
  8
SANINDUSA
100
AcDbLine
 10
2.275490005884776
 20
0.0000000000000018
 30
0.0
 11
2.205886043956898
 21
0.0000000000000018
 31
0.0
  0
LINE
  5
34D
330
2
100
AcDbEntity
  8
SANINDUSA
100
AcDbLine
 10
2.124078257915225
 20
0.0294208587131443
 30
0.0
 11
2.186090592502218
 21
0.0305032880397103
 31
0.0
  0
LINE
  5
34E
330
2
100
AcDbEntity
  8
SANINDUSA
100
AcDbLine
 10
2.123144143427698
 20
0.0414063816206426
 30
0.0
 11
2.169974009986726
 21
0.0422237999820091
 31
0.0
  0
LWPOLYLINE
  5
34F
330
2
100
AcDbEntity
  8
SANINDUSA
100
AcDbPolyline
 90
       12
 70
   128
 43
0.0
 10
2.191007483665848
 20
0.0267981447894422
 10
2.190334002599902
 20
0.0267869181025904
 10
2.188337974258174
 20
0.0267536446984982
 10
2.185056020924839
 20
0.0266989345618563
 10
2.180434783160058
 20
0.0266218974688504
 10
2.174569355977924
 20
0.0265241174275903
 10
2.167570074041691
 20
0.0264074324400022
 10
2.159487358619985
 20
0.0262726815651481
 10
2.150413168163704
 20
0.02612139632338
 10
2.140518147041721
 20
0.0259564201316257
 10
2.129884023868576
 20
0.0257791139559745
 10
2.120188024920835
 20
0.0256174426555222
  0
LINE
  5
350
330
2
100
AcDbEntity
  8
SANINDUSA
100
AcDbLine
 10
2.108188024920837
 20
0.0200000000000019
 30
0.0
 11
2.108188024920837
 21
0.0292598926149977
 31
0.0
  0
LINE
  5
351
330
2
100
AcDbEntity
  8
SANINDUSA
100
AcDbLine
 10
2.120188024920835
 20
0.0200000000000019
 30
0.0
 11
2.120188024920835
 21
0.0260580588878493
 31
0.0
  0
LINE
  5
352
330
2
100
AcDbEntity
  8
SANINDUSA
100
AcDbLine
 10
2.110188024920835
 20
0.0179999999999991
 30
0.0
 11
2.118188024920836
 21
0.0179999999999991
 31
0.0
  0
ARC
  5
353
330
2
100
AcDbEntity
  8
SANINDUSA
100
AcDbCircle
 10
2.110188024920835
 20
0.0200000000000019
 30
0.0
 40
0.0020000000000002
100
AcDbArc
 50
180.0
 51
270.0
  0
ARC
  5
354
330
2
100
AcDbEntity
  8
SANINDUSA
100
AcDbCircle
 10
2.118188024920836
 20
0.0200000000000019
 30
0.0
 40
0.0020000000000002
100
AcDbArc
 50
270.0
 51
0.0
  0
LINE
  5
355
330
2
100
AcDbEntity
  8
SANINDUSA
100
AcDbLine
 10
2.124078257915225
 20
0.0294208587131443
 30
0.0
 11
2.120188024920835
 21
0.0260580588878493
 31
0.0
  0
ARC
  5
356
330
2
100
AcDbEntity
  8
SANINDUSA
100
AcDbCircle
 10
2.113188024920837
 20
0.0292598926149977
 30
0.0
 40
0.005
100
AcDbArc
 50
130.8408301835326
 51
180.0
  0
LINE
  5
357
330
2
100
AcDbEntity
  8
SANINDUSA
100
AcDbLine
 10
2.116779068604983
 20
0.0389731968905308
 30
0.0
 11
2.109918225477295
 21
0.0330425387257238
 31
0.0
  0
ARC
  5
358
330
2
100
AcDbEntity
  8
SANINDUSA
100
AcDbCircle
 10
2.123318667492071
 20
0.0314079046690786
 30
0.0
 40
0.0100000000000001
100
AcDbArc
 50
90.99999999997875
 51
130.8408301835326
  0
LINE
  5
359
330
2
100
AcDbEntity
  8
SANINDUSA
100
AcDbLine
 10
2.191007483665848
 20
0.0267981447894427
 30
0.0
 11
2.197592228405901
 21
0.0022235428646918
 31
0.0
  0
LWPOLYLINE
  5
35B
330
2
100
AcDbEntity
  8
SANINDUSA
100
AcDbPolyline
 90
       10
 70
   128
 43
0.0
 10
2.182248205411574
 20
0.0099917347919577
 10
2.182317335345355
 20
0.009996605944481
 10
2.184081334714842
 20
0.009843750177944
 10
2.185811319986096
 20
0.0093915596944922
 10
2.187494770632142
 20
0.0086208585865429
 10
2.188908409232453
 20
0.0076834434072739
 10
2.19038574809329
 20
0.0063884120082744
 10
2.191792912981959
 20
0.0048326020858363
 10
2.19315380336357
 20
0.0030084475188519
 10
2.193956831833101
 20
0.0017381500086335
  0
LINE
  5
35E
330
2
100
AcDbEntity
  8
SANINDUSA
100
AcDbLine
 10
2.200490005884771
 20
0.0000000000000018
 30
0.0
 11
2.196902200368308
 21
0.0000000000000018
 31
0.0
  0
ARC
  5
360
330
2
100
AcDbEntity
  8
SANINDUSA
100
AcDbCircle
 10
2.200490005884771
 20
0.0029999999999991
 30
0.0
 40
0.003
100
AcDbArc
 50
194.9999999999916
 51
270.0
  0
LINE
  5
361
330
2
100
AcDbEntity
  8
SANINDUSA
100
AcDbLine
 10
2.200490005884771
 20
0.0000000000000018
 30
0.0
 11
2.205886043956898
 21
0.0000000000000018
 31
0.0
  0
ARC
  5
362
330
2
100
AcDbEntity
  8
SANINDUSA
100
AcDbCircle
 10
2.205886043956898
 20
0.0029999999999991
 30
0.0
 40
0.0030000000000002
100
AcDbArc
 50
270.0
 51
345.0000000000084
  0
ARC
  5
363
330
2
100
AcDbEntity
  8
SANINDUSA
100
AcDbCircle
 10
2.214973072400616
 20
0.0060036254005281
 30
0.0
 40
0.0050000000000001
100
AcDbArc
 50
90.99999999997875
 51
165.0000000000084
  0
LINE
  5
364
330
2
100
AcDbEntity
  8
SANINDUSA
100
AcDbLine
 10
2.208783821435767
 20
0.0022235428646918
 30
0.0
 11
2.210143443269171
 21
0.0072977206260403
 31
0.0
  0
LWPOLYLINE
  5
367
330
2
100
AcDbEntity
  8
SANINDUSA
100
AcDbPolyline
 90
        5
 70
   128
 43
0.0
 10
2.193956831833101
 20
0.0017381500086335
 10
2.194164644945904
 20
0.0014926421688565
 10
2.194714691043882
 20
0.000869299957682
 10
2.195338089595707
 20
0.0004154731073291
 10
2.195758176770673
 20
0.0002444654195383
  0
LWPOLYLINE
  5
368
330
2
100
AcDbEntity
  8
SANINDUSA
100
AcDbPolyline
 90
        3
 70
   128
 43
0.0
 10
2.186236691269036
 20
0.0434397105278336
 10
2.188767959242218
 20
0.0427941667437076
 10
2.191456892156243
 20
0.0425987850851211
  0
ARC
  5
369
330
2
100
AcDbEntity
  8
SANINDUSA
100
AcDbCircle
 10
2.186177854534403
 20
0.0255040495639305
 30
0.0
 40
0.0050000000000001
100
AcDbArc
 50
15.00000000001852
 51
90.99999999997875
  0
LINE
  5
36A
330
2
100
AcDbEntity
  8
SANINDUSA
100
AcDbLine
 10
2.189496952964341
 20
0.0440648027113385
 30
0.0
 11
2.187913228178968
 21
0.0439612736610498
 31
0.0
  0
LWPOLYLINE
  5
36B
330
2
100
AcDbEntity
  8
SANINDUSA
100
AcDbPolyline
 90
        3
 70
   128
 43
0.0
 10
2.191723952348356
 20
0.043587275743354
 10
2.19003151752463
 20
0.0438967352606792
 10
2.186329726435751
 20
0.0440095185666419
  0
LWPOLYLINE
  5
36C
330
2
100
AcDbEntity
  8
SANINDUSA
100
AcDbPolyline
 90
        3
 70
   128
 43
0.0
 10
2.189267256234547
 20
0.043545051556072
 10
2.187565239485197
 20
0.0438536862173683
 10
2.183866100776354
 20
0.043966515820795
  0
LWPOLYLINE
  5
36D
330
2
100
AcDbEntity
  8
SANINDUSA
100
AcDbPolyline
 90
        7
 70
   128
 43
0.0
 10
2.180705080929537
 20
0.0439113172585863
 10
2.180703998801682
 20
0.0439112986911155
 10
2.1807029166756
 20
0.0439112800202806
 10
2.18070183455105
 20
0.0439112612610839
 10
2.180699670306121
 20
0.0439112235025928
 10
2.180698588185755
 20
0.0439112045036577
 10
2.180696423949266
 20
0.0439111662287692
  0
LWPOLYLINE
  5
36E
330
2
100
AcDbEntity
  8
SANINDUSA
100
AcDbPolyline
 90
        3
 70
   128
 43
0.0
 10
2.169974009986726
 20
0.0422237999820086
 10
2.172570286146619
 20
0.0424963049817975
 10
2.175158250064919
 20
0.04324501798341
  0
LWPOLYLINE
  5
36F
330
2
100
AcDbEntity
  8
SANINDUSA
100
AcDbPolyline
 90
       11
 70
   128
 43
0.0
 10
2.186236691269036
 20
0.0434397105278336
 10
2.186020754624792
 20
0.0435088716986107
 10
2.183705131630899
 20
0.0438565437038701
 10
2.182207148630777
 20
0.0439145211209884
 10
2.18145620726566
 20
0.0439189979261178
 10
2.181080640435739
 20
0.0439165307445287
 10
2.180892857324538
 20
0.0439142484528079
 10
2.180798968059116
 20
0.0439128595223806
 10
2.180752024221028
 20
0.0439121058590413
 10
2.1807285525119
 20
0.0439117154115607
 10
2.180705080929537
 20
0.0439113172585863
  0
LWPOLYLINE
  5
370
330
2
100
AcDbEntity
  8
SANINDUSA
100
AcDbPolyline
 90
        9
 70
   128
 43
0.0
 10
2.180696423949266
 20
0.0439111662287692
 10
2.180653809976447
 20
0.0439103969546264
 10
2.180568583631743
 20
0.0439087711394873
 10
2.180227704862268
 20
0.0439009254843782
 10
2.178864854763969
 20
0.0438442419763046
 10
2.177505219643407
 20
0.0437322679665308
 10
2.176155845985772
 20
0.0435266149914073
 10
2.175484014030516
 20
0.0433574375551612
 10
2.175158250064919
 20
0.04324501798341
  0
LINE
  5
371
330
2
100
AcDbEntity
  8
SANINDUSA
100
AcDbLine
 10
2.186329726435751
 20
0.0440095185666424
 30
0.0
 11
2.185097670233862
 21
0.043928950997085
 31
0.0
  0
LINE
  5
372
330
2
100
AcDbEntity
  8
SANINDUSA
100
AcDbLine
 10
2.183866100776354
 20
0.0439665158207954
 30
0.0
 11
2.182749996420656
 21
0.043893510927453
 31
0.0
  0
LINE
  5
373
330
2
100
AcDbEntity
  8
SANINDUSA
100
AcDbLine
 10
2.180679098657251
 20
0.0439108864918826
 30
0.0
 11
2.180699742397655
 21
0.043911246829709
 31
0.0
  0
LINE
  5
374
330
2
100
AcDbEntity
  8
SANINDUSA
100
AcDbLine
 10
2.193367343384707
 20
0.0441323606274246
 30
0.0
 11
2.191278518660028
 21
0.0440105930324007
 31
0.0
  0
LWPOLYLINE
  5
375
330
2
100
AcDbEntity
  8
SANINDUSA
100
AcDbPolyline
 90
        3
 70
   128
 43
0.0
 10
2.198791861953786
 20
0.043706991679202
 10
2.197075548695124
 20
0.0440196892821146
 10
2.193367343384707
 20
0.0441323606274241
  0
LWPOLYLINE
  5
376
330
2
100
AcDbEntity
  8
SANINDUSA
100
AcDbPolyline
 90
        9
 70
   128
 43
0.0
 10
2.198791861953786
 20
0.043706991679202
 10
2.199437830575157
 20
0.0434905442084769
 10
2.200092960986416
 20
0.04330365090632
 10
2.200755901798697
 20
0.0431466972922058
 10
2.201425285512018
 20
0.0430200071266532
 10
2.202099731336106
 20
0.0429238417434013
 10
2.20277784803869
 20
0.0428583995103295
 10
2.203458236815281
 20
0.0428238154202532
 10
2.20413949417461
 20
0.042820160812495
  0
LWPOLYLINE
  5
377
330
2
100
AcDbEntity
  8
SANINDUSA
100
AcDbPolyline
 90
        3
 70
   128
 43
0.0
 10
2.194911365740435
 20
0.0436412575245745
 10
2.1932017679838
 20
0.0439520721882823
 10
2.189496952964341
 20
0.044064802711338
  0
LWPOLYLINE
  5
378
330
2
100
AcDbEntity
  8
SANINDUSA
100
AcDbPolyline
 90
        9
 70
   128
 43
0.0
 10
2.194911365740435
 20
0.0436412575245745
 10
2.195557910828274
 20
0.0434243638464127
 10
2.196213645970283
 20
0.0432370810690341
 10
2.196877215795379
 20
0.0430797962963802
 10
2.197547248738596
 20
0.0429528346280509
 10
2.198222359876026
 20
0.0428564584873371
 10
2.198901153787396
 20
0.0427908670788079
 10
2.199582227440332
 20
0.0427561959765503
 10
2.20026417309034
 20
0.042752516843972
  0
LWPOLYLINE
  5
379
330
2
100
AcDbEntity
  8
SANINDUSA
100
AcDbPolyline
 90
        9
 70
   128
 43
0.0
 10
2.191736350489227
 20
0.043587275743354
 10
2.192383309602127
 20
0.0433700612081125
 10
2.193039479111607
 20
0.0431824983611036
 10
2.193703500780916
 20
0.0430249754476622
 10
2.194374000119755
 20
0.0428978185320207
 10
2.195049589229379
 20
0.0428012908223778
 10
2.19572886967549
 20
0.0427355921260746
 10
2.196410435382909
 20
0.0427008584359888
 10
2.197092875546086
 20
0.0426971616490496
  0
LWPOLYLINE
  5
37A
330
2
100
AcDbEntity
  8
SANINDUSA
100
AcDbPolyline
 90
        9
 70
   128
 43
0.0
 10
2.189267256234547
 20
0.043545051556072
 10
2.189914467006087
 20
0.0433276419647123
 10
2.190570900550051
 20
0.0431399088688309
 10
2.191235196885741
 20
0.042982241208621
 10
2.191905979742537
 20
0.0428549656355349
 10
2.192581859411238
 20
0.0427583458355653
 10
2.193261435623203
 20
0.0426925819829026
 10
2.193943300451396
 20
0.0426578103252782
 10
2.194626041227288
 20
0.0426541029016303
  0
LINE
  5
37B
330
2
100
AcDbEntity
  8
SANINDUSA
100
AcDbLine
 10
2.256446992341407
 20
0.0437331915035493
 30
0.0
 11
2.299954210357059
 21
0.0444926128188554
 31
0.0
  0
ARC
  5
37C
330
2
100
AcDbEntity
  8
SANINDUSA
100
AcDbCircle
 10
2.266163555937996
 20
0.0068971586143807
 30
0.0
 40
0.0050000000000001
100
AcDbArc
 50
15.00000000001852
 51
90.99999999997875
  0
LWPOLYLINE
  5
37D
330
2
100
AcDbEntity
  8
SANINDUSA
100
AcDbPolyline
 90
        9
 70
   128
 43
0.0
 10
2.24568652413443
 20
0.0450455726471924
 10
2.245643910161616
 20
0.0450448033730495
 10
2.245558683816907
 20
0.0450431775579105
 10
2.245217805047432
 20
0.0450353319028014
 10
2.243854954949138
 20
0.0449786483947278
 10
2.242495319828576
 20
0.044866674384954
 10
2.241145946170941
 20
0.0446610214098305
 10
2.24047411421568
 20
0.0444918439735843
 10
2.240148350250083
 20
0.0443794244018332
  0
LWPOLYLINE
  5
37E
330
2
100
AcDbEntity
  8
SANINDUSA
100
AcDbPolyline
 90
        3
 70
   128
 43
0.0
 10
2.234964110171895
 20
0.0433582064004318
 10
2.237560386331783
 20
0.0436307114002207
 10
2.240148350250083
 20
0.0443794244018332
  0
LWPOLYLINE
  5
37F
330
2
100
AcDbEntity
  8
SANINDUSA
100
AcDbPolyline
 90
        7
 70
   128
 43
0.0
 10
2.245695181114701
 20
0.0450457236770094
 10
2.245694098986846
 20
0.0450457051095387
 10
2.245693016860768
 20
0.0450456864387038
 10
2.245691934736218
 20
0.045045667679507
 10
2.245689770491289
 20
0.0450456299210159
 10
2.245688688370919
 20
0.0450456109220809
 10
2.24568652413443
 20
0.0450455726471924
  0
LWPOLYLINE
  5
380
330
2
100
AcDbEntity
  8
SANINDUSA
100
AcDbPolyline
 90
        3
 70
   128
 43
0.0
 10
2.251226791454205
 20
0.0445741169462568
 10
2.253758059427382
 20
0.0439285731621308
 10
2.256446992341407
 20
0.0437331915035489
  0
LWPOLYLINE
  5
381
330
2
100
AcDbEntity
  8
SANINDUSA
100
AcDbPolyline
 90
       11
 70
   128
 43
0.0
 10
2.251226791454205
 20
0.0445741169462568
 10
2.251010854809956
 20
0.0446432781170338
 10
2.248695231816063
 20
0.0449909501222933
 10
2.247197248815941
 20
0.0450489275394116
 10
2.246446307450824
 20
0.045053404344541
 10
2.246070740620907
 20
0.0450509371629519
 10
2.245882957509702
 20
0.0450486548712311
 10
2.245789068244284
 20
0.0450472659408038
 10
2.245742124406192
 20
0.0450465122774645
 10
2.245718652697064
 20
0.0450461218299838
 10
2.245695181114701
 20
0.0450457236770094
  0
LINE
  5
382
330
2
100
AcDbEntity
  8
SANINDUSA
100
AcDbLine
 10
2.258357443569871
 20
0.0452667670458477
 30
0.0
 11
2.256268618845192
 21
0.0451449994508239
 31
0.0
  0
LWPOLYLINE
  5
383
330
2
100
AcDbEntity
  8
SANINDUSA
100
AcDbPolyline
 90
        3
 70
   128
 43
0.0
 10
2.26378196213895
 20
0.0448413980976252
 10
2.262065648880288
 20
0.0451540957005377
 10
2.258357443569871
 20
0.0452667670458473
  0
LWPOLYLINE
  5
384
330
2
100
AcDbEntity
  8
SANINDUSA
100
AcDbPolyline
 90
        9
 70
   128
 43
0.0
 10
2.26378196213895
 20
0.0448413980976252
 10
2.264427930760325
 20
0.0446249506269001
 10
2.26508306117158
 20
0.0444380573247431
 10
2.265746001983862
 20
0.044281103710629
 10
2.266415385697182
 20
0.0441544135450763
 10
2.26708983152127
 20
0.0440582481618244
 10
2.267767948223854
 20
0.0439928059287527
 10
2.268448337000445
 20
0.0439582218386764
 10
2.269129594359774
 20
0.0439545672309228
  0
LINE
  5
385
330
2
100
AcDbEntity
  8
SANINDUSA
100
AcDbLine
 10
2.254487053149505
 20
0.0451992091297616
 30
0.0
 11
2.252903328364132
 21
0.0450956800794729
 31
0.0
  0
LWPOLYLINE
  5
386
330
2
100
AcDbEntity
  8
SANINDUSA
100
AcDbPolyline
 90
        3
 70
   128
 43
0.0
 10
2.259890397672738
 20
0.0447756639429977
 10
2.258191868168964
 20
0.0450864786067055
 10
2.254487053149505
 20
0.0451992091297611
  0
LWPOLYLINE
  5
387
330
2
100
AcDbEntity
  8
SANINDUSA
100
AcDbPolyline
 90
        9
 70
   128
 43
0.0
 10
2.2599014659256
 20
0.0447756639429977
 10
2.260548011013443
 20
0.0445587702648359
 10
2.261203746155451
 20
0.0443714874874572
 10
2.261867315980548
 20
0.0442142027148034
 10
2.262537348923761
 20
0.044087241046474
 10
2.26321246006119
 20
0.0439908649057602
 10
2.26389125397256
 20
0.0439252734972311
 10
2.264572327625496
 20
0.0438906023949735
 10
2.265254273275504
 20
0.0438869232623952
  0
LINE
  5
388
330
2
100
AcDbEntity
  8
SANINDUSA
100
AcDbLine
 10
2.251319826620915
 20
0.0451439249850655
 30
0.0
 11
2.250087770419026
 21
0.0450633574155081
 31
0.0
  0
LWPOLYLINE
  5
389
330
2
100
AcDbEntity
  8
SANINDUSA
100
AcDbPolyline
 90
        3
 70
   128
 43
0.0
 10
2.256726450674391
 20
0.0447216821617772
 10
2.255021617709794
 20
0.0450311416791024
 10
2.251319826620915
 20
0.0451439249850651
  0
LWPOLYLINE
  5
38A
330
2
100
AcDbEntity
  8
SANINDUSA
100
AcDbPolyline
 90
        9
 70
   128
 43
0.0
 10
2.256726450674391
 20
0.0447216821617772
 10
2.257373409787296
 20
0.0445044676265357
 10
2.258029579296771
 20
0.0443169047795268
 10
2.25869360096608
 20
0.0441593818660854
 10
2.259364100304919
 20
0.0440322249504439
 10
2.260039689414548
 20
0.0439356972408009
 10
2.260718969860659
 20
0.0438699985444978
 10
2.261400535568077
 20
0.0438352648544119
 10
2.262082975731254
 20
0.0438315680674728
  0
LINE
  5
38B
330
2
100
AcDbEntity
  8
SANINDUSA
100
AcDbLine
 10
2.248856200961518
 20
0.0451009222392186
 30
0.0
 11
2.247740096605824
 21
0.0450279173458758
 31
0.0
  0
LWPOLYLINE
  5
38C
330
2
100
AcDbEntity
  8
SANINDUSA
100
AcDbPolyline
 90
        3
 70
   128
 43
0.0
 10
2.254243793492264
 20
0.0446794579744997
 10
2.252555339670366
 20
0.0449880926357914
 10
2.248856200961518
 20
0.0451009222392181
  0
LWPOLYLINE
  5
38D
330
2
100
AcDbEntity
  8
SANINDUSA
100
AcDbPolyline
 90
        9
 70
   128
 43
0.0
 10
2.254257356419716
 20
0.0446794579744997
 10
2.254904567191251
 20
0.0444620483831355
 10
2.255561000735215
 20
0.0442743152872586
 10
2.256225297070904
 20
0.0441166476270442
 10
2.256896079927705
 20
0.0439893720539626
 10
2.257571959596407
 20
0.0438927522539885
 10
2.258251535808371
 20
0.0438269884013303
 10
2.25893340063656
 20
0.0437922167437014
 10
2.259616141412457
 20
0.0437885093200535
  0
LINE
  5
38E
330
2
100
AcDbEntity
  8
SANINDUSA
100
AcDbLine
 10
2.24566919884242
 20
0.0450452929103058
 30
0.0
 11
2.245689842582824
 21
0.0450456532481367
 31
0.0
  0
LINE
  5
38F
330
2
100
AcDbEntity
  8
SANINDUSA
100
AcDbLine
 10
2.275490005884776
 20
0.0000000000000018
 30
0.0
 11
2.280886043956897
 21
0.0000000000000018
 31
0.0
  0
ARC
  5
390
330
2
100
AcDbEntity
  8
SANINDUSA
100
AcDbCircle
 10
2.275490005884776
 20
0.0029999999999991
 30
0.0
 40
0.003
100
AcDbArc
 50
194.9999999999916
 51
270.0
  0
ARC
  5
391
330
2
100
AcDbEntity
  8
SANINDUSA
100
AcDbCircle
 10
2.280886043956897
 20
0.0029999999999991
 30
0.0
 40
0.003
100
AcDbArc
 50
270.0
 51
345.0000000000084
  0
LINE
  5
392
330
2
100
AcDbEntity
  8
SANINDUSA
100
AcDbLine
 10
2.270993185069437
 20
0.0081912538398929
 30
0.0
 11
2.272592228405906
 21
0.0022235428646918
 31
0.0
  0
ARC
  5
393
330
2
100
AcDbEntity
  8
SANINDUSA
100
AcDbCircle
 10
2.290325501025508
 20
0.0073189069346763
 30
0.0
 40
0.0050000000000001
100
AcDbArc
 50
90.99999999997875
 51
165.0000000000084
  0
LINE
  5
394
330
2
100
AcDbEntity
  8
SANINDUSA
100
AcDbLine
 10
2.283783821435767
 20
0.0022235428646918
 30
0.0
 11
2.285495871894063
 21
0.0086130021601885
 31
0.0
  0
LWPOLYLINE
  5
395
330
2
100
AcDbEntity
  8
SANINDUSA
100
AcDbPolyline
 90
        7
 70
   128
 43
0.0
 10
2.310685281299865
 20
0.0461801300954326
 10
2.31068419917201
 20
0.0461801115279618
 10
2.310683117045932
 20
0.046180092857127
 10
2.310682034921383
 20
0.0461800740979302
 10
2.310679870676453
 20
0.0461800363394391
 10
2.310678788556088
 20
0.0461800173405041
 10
2.310676624319599
 20
0.0461799790656155
  0
LWPOLYLINE
  5
396
330
2
100
AcDbEntity
  8
SANINDUSA
100
AcDbPolyline
 90
        3
 70
   128
 43
0.0
 10
2.316216891639369
 20
0.0457085233646799
 10
2.318748159612546
 20
0.045062979580554
 10
2.321437092526571
 20
0.044867597921972
  0
LWPOLYLINE
  5
397
330
2
100
AcDbEntity
  8
SANINDUSA
100
AcDbPolyline
 90
        3
 70
   128
 43
0.0
 10
2.299954210357059
 20
0.044492612818855
 10
2.302550486516952
 20
0.0447651178186439
 10
2.305138450435251
 20
0.0455138308202564
  0
LWPOLYLINE
  5
398
330
2
100
AcDbEntity
  8
SANINDUSA
100
AcDbPolyline
 90
       11
 70
   128
 43
0.0
 10
2.316216891639369
 20
0.0457085233646799
 10
2.316000954995124
 20
0.045777684535457
 10
2.313685332001227
 20
0.0461253565407165
 10
2.312187349001106
 20
0.0461833339578348
 10
2.311436407635988
 20
0.0461878107629641
 10
2.311060840806071
 20
0.0461853435813751
 10
2.310873057694871
 20
0.0461830612896543
 10
2.310779168429448
 20
0.0461816723592269
 10
2.310732224591356
 20
0.0461809186958877
 10
2.310708752882228
 20
0.046180528248407
 10
2.31068528129987
 20
0.0461801300954326
  0
LWPOLYLINE
  5
399
330
2
100
AcDbEntity
  8
SANINDUSA
100
AcDbPolyline
 90
        9
 70
   128
 43
0.0
 10
2.310676624319594
 20
0.0461799790656155
 10
2.31063401034678
 20
0.0461792097914727
 10
2.310548784002075
 20
0.0461775839763382
 10
2.310207905232601
 20
0.0461697383212245
 10
2.308845055134302
 20
0.046113054813151
 10
2.30748542001374
 20
0.0460010808033772
 10
2.306136046356105
 20
0.0457954278282537
 10
2.305464214400844
 20
0.0456262503920075
 10
2.305138450435251
 20
0.0455138308202564
  0
LINE
  5
39A
330
2
100
AcDbEntity
  8
SANINDUSA
100
AcDbLine
 10
2.323347543755039
 20
0.0464011734642709
 30
0.0
 11
2.321258719030361
 21
0.0462794058692471
 31
0.0
  0
LINE
  5
39B
330
2
100
AcDbEntity
  8
SANINDUSA
100
AcDbLine
 10
2.319477153334669
 20
0.0463336155481848
 30
0.0
 11
2.317893428549296
 21
0.0462300864978961
 31
0.0
  0
LINE
  5
39C
330
2
100
AcDbEntity
  8
SANINDUSA
100
AcDbLine
 10
2.316309926806079
 20
0.0462783314034887
 30
0.0
 11
2.315077870604195
 21
0.0461977638339313
 31
0.0
  0
LWPOLYLINE
  5
39D
330
2
100
AcDbEntity
  8
SANINDUSA
100
AcDbPolyline
 90
        3
 70
   128
 43
0.0
 10
2.321716550859555
 20
0.0458560885802004
 10
2.320011717894958
 20
0.0461655480975256
 10
2.316309926806079
 20
0.0462783314034882
  0
LINE
  5
39E
330
2
100
AcDbEntity
  8
SANINDUSA
100
AcDbLine
 10
2.313846301146686
 20
0.0462353286576418
 30
0.0
 11
2.312730196790987
 21
0.0461623237642989
 31
0.0
  0
LWPOLYLINE
  5
39F
330
2
100
AcDbEntity
  8
SANINDUSA
100
AcDbPolyline
 90
        3
 70
   128
 43
0.0
 10
2.31924745660488
 20
0.0458138643929229
 10
2.31754543985553
 20
0.0461224990542146
 10
2.313846301146686
 20
0.0462353286576413
  0
LINE
  5
3A0
330
2
100
AcDbEntity
  8
SANINDUSA
100
AcDbLine
 10
2.310659299027565
 20
0.046179699328729
 30
0.0
 11
2.310679942767787
 21
0.0461800596665553
 31
0.0
  0
LWPOLYLINE
  5
3A1
330
2
100
AcDbEntity
  8
SANINDUSA
100
AcDbPolyline
 90
        3
 70
   128
 43
0.0
 10
2.429934410727391
 20
0.0467614256557013
 10
2.43253068688728
 20
0.0470339306554948
 10
2.435118650805579
 20
0.0477826436571027
  0
ARC
  5
3A2
330
2
100
AcDbEntity
  8
SANINDUSA
100
AcDbCircle
 10
2.430886043956902
 20
0.0029999999999991
 30
0.0
 40
0.003
100
AcDbArc
 50
270.0
 51
345.0000000000084
  0
LINE
  5
3A3
330
2
100
AcDbEntity
  8
SANINDUSA
100
AcDbLine
 10
2.500490005884771
 20
0.0000000000000018
 30
0.0
 11
2.430886043956902
 21
0.0000000000000018
 31
0.0
  0
LINE
  5
3A4
330
2
100
AcDbEntity
  8
SANINDUSA
100
AcDbLine
 10
2.365590667618221
 20
0.0136334269446043
 30
0.0
 11
2.415377999296261
 21
0.0145024680516481
 31
0.0
  0
LINE
  5
3A5
330
2
100
AcDbEntity
  8
SANINDUSA
100
AcDbLine
 10
2.425490005884776
 20
0.0000000000000018
 30
0.0
 11
2.355886043956902
 21
0.0000000000000018
 31
0.0
  0
LWPOLYLINE
  5
3A7
330
2
100
AcDbEntity
  8
SANINDUSA
100
AcDbPolyline
 90
       11
 70
   128
 43
0.0
 10
2.381206991824533
 20
0.0468429297831031
 10
2.380991055180288
 20
0.0469120909538801
 10
2.378675432186396
 20
0.0472597629591396
 10
2.377177449186274
 20
0.0473177403762579
 10
2.376426507821156
 20
0.0473222171813873
 10
2.376050940991235
 20
0.0473197499997982
 10
2.375863157880035
 20
0.0473174677080774
 10
2.375769268614612
 20
0.0473160787776547
 10
2.375722324776524
 20
0.0473153251143108
 10
2.375698853067397
 20
0.0473149346668302
 10
2.375675381485034
 20
0.0473145365138558
  0
LWPOLYLINE
  5
3A8
330
2
100
AcDbEntity
  8
SANINDUSA
100
AcDbPolyline
 90
        3
 70
   128
 43
0.0
 10
2.384237556790044
 20
0.046948270811346
 10
2.382535540040694
 20
0.0472569054726378
 10
2.37883640133185
 20
0.047369735076069
  0
LINE
  5
3A9
330
2
100
AcDbEntity
  8
SANINDUSA
100
AcDbLine
 10
2.350490005884775
 20
0.0000000000000018
 30
0.0
 11
2.355886043956902
 21
0.0000000000000018
 31
0.0
  0
ARC
  5
3AA
330
2
100
AcDbEntity
  8
SANINDUSA
100
AcDbCircle
 10
2.340814408633223
 20
0.0082001940951223
 30
0.0
 40
0.0049999999999999
100
AcDbArc
 50
15.00000000001852
 51
90.99999999997875
  0
ARC
  5
3AB
330
2
100
AcDbEntity
  8
SANINDUSA
100
AcDbCircle
 10
2.350490005884775
 20
0.0029999999999991
 30
0.0
 40
0.003
100
AcDbArc
 50
194.9999999999916
 51
270.0
  0
LINE
  5
3AC
330
2
100
AcDbEntity
  8
SANINDUSA
100
AcDbLine
 10
2.345644037764668
 20
0.0094942893206344
 30
0.0
 11
2.347592228405906
 21
0.0022235428646918
 31
0.0
  0
LINE
  5
3AD
330
2
100
AcDbEntity
  8
SANINDUSA
100
AcDbLine
 10
2.357263726777923
 20
0.0000000000000018
 30
0.0
 11
2.35722405342547
 21
0.0000000000000018
 31
0.0
  0
ARC
  5
3AE
330
2
100
AcDbEntity
  8
SANINDUSA
100
AcDbCircle
 10
2.355886043956902
 20
0.0029999999999991
 30
0.0
 40
0.0030000000000002
100
AcDbArc
 50
270.0
 51
345.0000000000084
  0
ARC
  5
3AF
330
2
100
AcDbEntity
  8
SANINDUSA
100
AcDbCircle
 10
2.365677929650405
 20
0.00863418846882
 30
0.0
 40
0.0050000000000001
100
AcDbArc
 50
90.99999999997875
 51
165.0000000000084
  0
LINE
  5
3B0
330
2
100
AcDbEntity
  8
SANINDUSA
100
AcDbLine
 10
2.358783821435768
 20
0.0022235428646918
 30
0.0
 11
2.36084830051896
 21
0.0099282836943321
 31
0.0
  0
LWPOLYLINE
  5
3B1
330
2
100
AcDbEntity
  8
SANINDUSA
100
AcDbPolyline
 90
        9
 70
   128
 43
0.0
 10
2.328772062324114
 20
0.0459758045160529
 10
2.329418030945489
 20
0.0457593570453233
 10
2.330073161356749
 20
0.0455724637431663
 10
2.33073610216903
 20
0.0454155101290521
 10
2.331405485882346
 20
0.0452888199634995
 10
2.332079931706439
 20
0.0451926545802476
 10
2.332758048409023
 20
0.0451272123471759
 10
2.333438437185614
 20
0.0450926282570995
 10
2.334119694544942
 20
0.045088973649346
  0
LWPOLYLINE
  5
3B2
330
2
100
AcDbEntity
  8
SANINDUSA
100
AcDbPolyline
 90
        9
 70
   128
 43
0.0
 10
2.324891566110764
 20
0.0459100703614208
 10
2.325538111198607
 20
0.0456931766832591
 10
2.326193846340615
 20
0.0455058939058804
 10
2.326857416165712
 20
0.0453486091332266
 10
2.327527449108929
 20
0.0452216474648972
 10
2.328202560246359
 20
0.0451252713241834
 10
2.328881354157729
 20
0.0450596799156542
 10
2.32956242781066
 20
0.0450250088133967
 10
2.330244373460668
 20
0.0450213296808184
  0
LWPOLYLINE
  5
3B3
330
2
100
AcDbEntity
  8
SANINDUSA
100
AcDbPolyline
 90
        7
 70
   128
 43
0.0
 10
2.375675381485029
 20
0.0473145365138558
 10
2.375674299357178
 20
0.047314517946385
 10
2.375673217231096
 20
0.0473144992755502
 10
2.375672135106547
 20
0.0473144805163534
 10
2.375669970861618
 20
0.0473144427578623
 10
2.375668888741251
 20
0.0473144237589272
 10
2.375666724504762
 20
0.0473143854840387
  0
LWPOLYLINE
  5
3B4
330
2
100
AcDbEntity
  8
SANINDUSA
100
AcDbPolyline
 90
        3
 70
   128
 43
0.0
 10
2.364944310542223
 20
0.0456270192372781
 10
2.367540586702116
 20
0.0458995242370716
 10
2.370128550620415
 20
0.0466482372386795
  0
LWPOLYLINE
  5
3B5
330
2
100
AcDbEntity
  8
SANINDUSA
100
AcDbPolyline
 90
        9
 70
   128
 43
0.0
 10
2.375666724504762
 20
0.0473143854840387
 10
2.375624110531944
 20
0.0473136162098959
 10
2.37553888418724
 20
0.0473119903947613
 10
2.375198005417764
 20
0.0473041447396477
 10
2.373835155319466
 20
0.0472474612315741
 10
2.372475520198904
 20
0.0471354872218003
 10
2.371126146541269
 20
0.0469298342466769
 10
2.370454314586013
 20
0.0467606568104307
 10
2.370128550620415
 20
0.0466482372386795
  0
LINE
  5
3B6
330
2
100
AcDbEntity
  8
SANINDUSA
100
AcDbLine
 10
2.37883640133185
 20
0.0473697350760695
 30
0.0
 11
2.377720296976164
 21
0.0472967301827221
 31
0.0
  0
LINE
  5
3B7
330
2
100
AcDbEntity
  8
SANINDUSA
100
AcDbLine
 10
2.375649399212747
 20
0.0473141057471521
 30
0.0
 11
2.375670042953152
 21
0.047314466084983
 31
0.0
  0
LINE
  5
3B8
330
2
100
AcDbEntity
  8
SANINDUSA
100
AcDbLine
 10
2.425490005884776
 20
0.0000000000000018
 30
0.0
 11
2.430886043956902
 21
0.0000000000000018
 31
0.0
  0
ARC
  5
3B9
330
2
100
AcDbEntity
  8
SANINDUSA
100
AcDbCircle
 10
2.415465261328449
 20
0.0095032295758638
 30
0.0
 40
0.0050000000000001
100
AcDbArc
 50
15.00000000001852
 51
90.99999999997875
  0
ARC
  5
3BA
330
2
100
AcDbEntity
  8
SANINDUSA
100
AcDbCircle
 10
2.425490005884776
 20
0.0029999999999991
 30
0.0
 40
0.0030000000000001
100
AcDbArc
 50
194.9999999999916
 51
270.0
  0
LINE
  5
3BB
330
2
100
AcDbEntity
  8
SANINDUSA
100
AcDbLine
 10
2.420294890459895
 20
0.010797324801376
 30
0.0
 11
2.42259222840591
 21
0.0022235428646918
 31
0.0
  0
LINE
  5
3BC
330
2
100
AcDbEntity
  8
SANINDUSA
100
AcDbLine
 10
2.386427192711739
 20
0.0460020043403957
 30
0.0
 11
2.429934410727391
 21
0.0467614256557018
 31
0.0
  0
LWPOLYLINE
  5
3BD
330
2
100
AcDbEntity
  8
SANINDUSA
100
AcDbPolyline
 90
        3
 70
   128
 43
0.0
 10
2.381206991824533
 20
0.0468429297831031
 10
2.383738259797715
 20
0.0461973859989771
 10
2.386427192711739
 20
0.0460020043403952
  0
LINE
  5
3BE
330
2
100
AcDbEntity
  8
SANINDUSA
100
AcDbLine
 10
2.388337643940203
 20
0.0475355798826941
 30
0.0
 11
2.386248819215524
 21
0.0474138122876703
 31
0.0
  0
LWPOLYLINE
  5
3BF
330
2
100
AcDbEntity
  8
SANINDUSA
100
AcDbPolyline
 90
        3
 70
   128
 43
0.0
 10
2.393762162509283
 20
0.0471102109344761
 10
2.392045849250616
 20
0.0474229085373841
 10
2.388337643940203
 20
0.0475355798826936
  0
LWPOLYLINE
  5
3C0
330
2
100
AcDbEntity
  8
SANINDUSA
100
AcDbPolyline
 90
        9
 70
   128
 43
0.0
 10
2.393762162509283
 20
0.0471102109344761
 10
2.394408131130653
 20
0.0468937634637464
 10
2.395063261541913
 20
0.0467068701615895
 10
2.395726202354194
 20
0.0465499165474753
 10
2.39639558606751
 20
0.0464232263819227
 10
2.397070031891603
 20
0.0463270609986708
 10
2.397748148594187
 20
0.046261618765599
 10
2.398428537370778
 20
0.0462270346755227
 10
2.399109794730106
 20
0.0462233800677691
  0
LINE
  5
3C1
330
2
100
AcDbEntity
  8
SANINDUSA
100
AcDbLine
 10
2.384467253519837
 20
0.0474680219666079
 30
0.0
 11
2.382883528734464
 21
0.0473644929163193
 31
0.0
  0
LWPOLYLINE
  5
3C2
330
2
100
AcDbEntity
  8
SANINDUSA
100
AcDbPolyline
 90
        3
 70
   128
 43
0.0
 10
2.389881666295932
 20
0.047044476779844
 10
2.388172068539297
 20
0.0473552914435518
 10
2.384467253519837
 20
0.0474680219666075
  0
LWPOLYLINE
  5
3C3
330
2
100
AcDbEntity
  8
SANINDUSA
100
AcDbPolyline
 90
        9
 70
   128
 43
0.0
 10
2.389881666295932
 20
0.047044476779844
 10
2.390528211383771
 20
0.0468275831016822
 10
2.391183946525779
 20
0.0466403003243036
 10
2.391847516350876
 20
0.0464830155516498
 10
2.392517549294093
 20
0.0463560538833204
 10
2.393192660431523
 20
0.0462596777426066
 10
2.393871454342893
 20
0.0461940863340774
 10
2.394552527995829
 20
0.0461594152318199
 10
2.395234473645837
 20
0.0461557360992415
  0
LINE
  5
3C4
330
2
100
AcDbEntity
  8
SANINDUSA
100
AcDbLine
 10
2.381300026991243
 20
0.0474127378219119
 30
0.0
 11
2.380067970789359
 21
0.0473321702523545
 31
0.0
  0
LWPOLYLINE
  5
3C5
330
2
100
AcDbEntity
  8
SANINDUSA
100
AcDbPolyline
 90
        3
 70
   128
 43
0.0
 10
2.386706651044724
 20
0.0469904949986235
 10
2.385001818080127
 20
0.0472999545159487
 10
2.381300026991243
 20
0.0474127378219114
  0
LWPOLYLINE
  5
3C6
330
2
100
AcDbEntity
  8
SANINDUSA
100
AcDbPolyline
 90
        9
 70
   128
 43
0.0
 10
2.386706651044724
 20
0.0469904949986235
 10
2.387353610157624
 20
0.046773280463382
 10
2.388009779667104
 20
0.0465857176163732
 10
2.388673801336413
 20
0.0464281947029317
 10
2.389344300675252
 20
0.0463010377872902
 10
2.390019889784875
 20
0.0462045100776518
 10
2.390699170230987
 20
0.0461388113813441
 10
2.391380735938405
 20
0.0461040776912583
 10
2.392063176101582
 20
0.0461003809043191
  0
LWPOLYLINE
  5
3C7
330
2
100
AcDbEntity
  8
SANINDUSA
100
AcDbPolyline
 90
        9
 70
   128
 43
0.0
 10
2.384237556790044
 20
0.046948270811346
 10
2.384884767561584
 20
0.0467308612199863
 10
2.385541201105547
 20
0.0465431281241049
 10
2.386205497441237
 20
0.0463854604638905
 10
2.386876280298033
 20
0.046258184890809
 10
2.387552159966735
 20
0.0461615650908348
 10
2.388231736178699
 20
0.0460958012381766
 10
2.388913601006893
 20
0.0460610295805477
 10
2.389596341782785
 20
0.0460573221568998
  0
LINE
  5
3C8
330
2
100
AcDbEntity
  8
SANINDUSA
100
AcDbLine
 10
2.440943096243113
 20
0.014948708478748
 30
0.0
 11
2.490028851991482
 21
0.0158055035323896
 31
0.0
  0
ARC
  5
3CA
330
2
100
AcDbEntity
  8
SANINDUSA
100
AcDbCircle
 10
2.441030358275302
 20
0.0099494700029682
 30
0.0
 40
0.0050000000000004
100
AcDbArc
 50
90.99999999997875
 51
165.0000000000084
  0
LINE
  5
3CB
330
2
100
AcDbEntity
  8
SANINDUSA
100
AcDbLine
 10
2.433783821435767
 20
0.0022235428646918
 30
0.0
 11
2.436200729143856
 21
0.0112435652284803
 31
0.0
  0
LWPOLYLINE
  5
3CC
330
2
100
AcDbEntity
  8
SANINDUSA
100
AcDbPolyline
 90
        9
 70
   128
 43
0.0
 10
2.458752262694447
 20
0.0482446173528993
 10
2.459398231315822
 20
0.0480281698821696
 10
2.460053361727077
 20
0.0478412765800127
 10
2.460716302539358
 20
0.0476843229658985
 10
2.461385686252679
 20
0.0475576328003458
 10
2.462060132076767
 20
0.0474614674170939
 10
2.462738248779351
 20
0.0473960251840222
 10
2.463418637555946
 20
0.0473614410939504
 10
2.464099894915275
 20
0.0473577864861923
  0
LWPOLYLINE
  5
3CD
330
2
100
AcDbEntity
  8
SANINDUSA
100
AcDbPolyline
 90
        7
 70
   128
 43
0.0
 10
2.440665481670198
 20
0.0484489429322789
 10
2.440664399542342
 20
0.0484489243648082
 10
2.440663317416265
 20
0.0484489056939733
 10
2.440662235291715
 20
0.0484488869347765
 10
2.440660071046786
 20
0.0484488491762855
 10
2.440658988926415
 20
0.0484488301773504
 10
2.440656824689926
 20
0.0484487919024619
  0
LWPOLYLINE
  5
3CE
330
2
100
AcDbEntity
  8
SANINDUSA
100
AcDbPolyline
 90
        3
 70
   128
 43
0.0
 10
2.446197092009701
 20
0.0479773362015262
 10
2.448728359982879
 20
0.0473317924174003
 10
2.451417292896903
 20
0.0471364107588184
  0
LWPOLYLINE
  5
3CF
330
2
100
AcDbEntity
  8
SANINDUSA
100
AcDbPolyline
 90
       11
 70
   128
 43
0.0
 10
2.446197092009701
 20
0.0479773362015262
 10
2.445981155365452
 20
0.0480464973723033
 10
2.44366553237156
 20
0.0483941693775628
 10
2.442167549371438
 20
0.0484521467946811
 10
2.44141660800632
 20
0.0484566235998105
 10
2.441041041176404
 20
0.0484541564182214
 10
2.440853258065199
 20
0.0484518741265006
 10
2.440759368799781
 20
0.0484504851960778
 10
2.440712424961688
 20
0.048449731532734
 10
2.440688953252561
 20
0.0484493410852579
 10
2.440665481670198
 20
0.0484489429322789
  0
LWPOLYLINE
  5
3D0
330
2
100
AcDbEntity
  8
SANINDUSA
100
AcDbPolyline
 90
        9
 70
   128
 43
0.0
 10
2.440656824689926
 20
0.0484487919024619
 10
2.440614210717112
 20
0.048448022628319
 10
2.440528984372404
 20
0.0484463968131845
 10
2.440188105602928
 20
0.0484385511580708
 10
2.438825255504634
 20
0.0483818676499973
 10
2.437465620384068
 20
0.0482698936402235
 10
2.436116246726437
 20
0.0480642406651
 10
2.435444414771177
 20
0.0478950632288584
 10
2.435118650805579
 20
0.0477826436571027
  0
LINE
  5
3D1
330
2
100
AcDbEntity
  8
SANINDUSA
100
AcDbLine
 10
2.453327744125367
 20
0.0486699863011172
 30
0.0
 11
2.451238919400688
 21
0.0485482187060934
 31
0.0
  0
LWPOLYLINE
  5
3D2
330
2
100
AcDbEntity
  8
SANINDUSA
100
AcDbPolyline
 90
        3
 70
   128
 43
0.0
 10
2.458752262694447
 20
0.0482446173528993
 10
2.457035949435785
 20
0.0485573149558072
 10
2.453327744125367
 20
0.0486699863011168
  0
LINE
  5
3D3
330
2
100
AcDbEntity
  8
SANINDUSA
100
AcDbLine
 10
2.449457353705001
 20
0.0486024283850311
 30
0.0
 11
2.447873628919628
 21
0.0484988993347425
 31
0.0
  0
LWPOLYLINE
  5
3D4
330
2
100
AcDbEntity
  8
SANINDUSA
100
AcDbPolyline
 90
        3
 70
   128
 43
0.0
 10
2.454871766481096
 20
0.0481788831982717
 10
2.453162168724461
 20
0.048489697861975
 10
2.449457353705001
 20
0.0486024283850307
  0
LWPOLYLINE
  5
3D5
330
2
100
AcDbEntity
  8
SANINDUSA
100
AcDbPolyline
 90
        9
 70
   128
 43
0.0
 10
2.454871766481096
 20
0.0481788831982717
 10
2.455518311568939
 20
0.0479619895201054
 10
2.456174046710948
 20
0.0477747067427268
 10
2.456837616536045
 20
0.0476174219700729
 10
2.457507649479257
 20
0.0474904603017435
 10
2.458182760616687
 20
0.0473940841610343
 10
2.458861554528061
 20
0.0473284927525006
 10
2.459542628180993
 20
0.047293821650243
 10
2.460224573831001
 20
0.0472901425176647
  0
LINE
  5
3D6
330
2
100
AcDbEntity
  8
SANINDUSA
100
AcDbLine
 10
2.446290127176412
 20
0.048547144240335
 30
0.0
 11
2.445058070974523
 21
0.0484665766707777
 31
0.0
  0
LWPOLYLINE
  5
3D7
330
2
100
AcDbEntity
  8
SANINDUSA
100
AcDbPolyline
 90
        3
 70
   128
 43
0.0
 10
2.451684353089017
 20
0.0481249014170467
 10
2.449991918265291
 20
0.0484343609343719
 10
2.446290127176412
 20
0.0485471442403346
  0
LWPOLYLINE
  5
3D8
330
2
100
AcDbEntity
  8
SANINDUSA
100
AcDbPolyline
 90
        9
 70
   128
 43
0.0
 10
2.451696751229888
 20
0.0481249014170467
 10
2.452343710342793
 20
0.0479076868818052
 10
2.452999879852268
 20
0.0477201240347963
 10
2.453663901521577
 20
0.0475626011213549
 10
2.454334400860416
 20
0.0474354442057134
 10
2.455009989970044
 20
0.047338916496075
 10
2.455689270416155
 20
0.0472732177997673
 10
2.456370836123574
 20
0.0472384841096814
 10
2.457053276286746
 20
0.0472347873227423
  0
LINE
  5
3D9
330
2
100
AcDbEntity
  8
SANINDUSA
100
AcDbLine
 10
2.443826501517014
 20
0.0485041414944927
 30
0.0
 11
2.442710397161332
 21
0.0484311366011448
 31
0.0
  0
LWPOLYLINE
  5
3DA
330
2
100
AcDbEntity
  8
SANINDUSA
100
AcDbPolyline
 90
        3
 70
   128
 43
0.0
 10
2.449227656975212
 20
0.0480826772297692
 10
2.447525640225862
 20
0.048391311891061
 10
2.443826501517014
 20
0.0485041414944922
  0
LWPOLYLINE
  5
3DB
330
2
100
AcDbEntity
  8
SANINDUSA
100
AcDbPolyline
 90
        9
 70
   128
 43
0.0
 10
2.449227656975212
 20
0.0480826772297692
 10
2.449874867746748
 20
0.0478652676384095
 10
2.450531301290711
 20
0.0476775345425281
 10
2.451195597626401
 20
0.0475198668823137
 10
2.451866380483202
 20
0.0473925913092321
 10
2.452542260151903
 20
0.0472959715092579
 10
2.453221836363868
 20
0.0472302076565998
 10
2.453903701192061
 20
0.0471954359989709
 10
2.454586441967953
 20
0.047191728575323
  0
LINE
  5
3DC
330
2
100
AcDbEntity
  8
SANINDUSA
100
AcDbLine
 10
2.440639499397916
 20
0.0484485121655753
 30
0.0
 11
2.440660143138334
 21
0.0484488725034062
 31
0.0
  0
ARC
  5
3DD
330
2
100
AcDbEntity
  8
SANINDUSA
100
AcDbCircle
 10
2.516382786900194
 20
0.0112647515371118
 30
0.0
 40
0.0050000000000001
100
AcDbArc
 50
90.99999999997875
 51
164.9999999999814
  0
LINE
  5
3DE
330
2
100
AcDbEntity
  8
SANINDUSA
100
AcDbLine
 10
2.500490005884771
 20
0.0000000000000018
 30
0.0
 11
2.505886043956902
 21
0.0000000000000018
 31
0.0
  0
ARC
  5
3DF
330
2
100
AcDbEntity
  8
SANINDUSA
100
AcDbCircle
 10
2.505886043956902
 20
0.0029999999999991
 30
0.0
 40
0.003
100
AcDbArc
 50
270.0
 51
345.0000000000084
  0
ARC
  5
3E0
330
2
100
AcDbEntity
  8
SANINDUSA
100
AcDbCircle
 10
2.500490005884771
 20
0.0029999999999991
 30
0.0
 40
0.003
100
AcDbArc
 50
194.9999999999916
 51
270.0
  0
ARC
  5
3E1
330
2
100
AcDbEntity
  8
SANINDUSA
100
AcDbCircle
 10
2.490116114023671
 20
0.0108062650566053
 30
0.0
 40
0.0050000000000002
100
AcDbArc
 50
14.99999999999159
 51
90.99999999997875
  0
LINE
  5
3E2
330
2
100
AcDbEntity
  8
SANINDUSA
100
AcDbLine
 10
2.494945743155117
 20
0.0121003602821175
 30
0.0
 11
2.497592228405906
 21
0.0022235428646918
 31
0.0
  0
LINE
  5
3E3
330
2
100
AcDbEntity
  8
SANINDUSA
100
AcDbLine
 10
2.508783821435768
 20
0.0022235428646918
 30
0.0
 11
2.511553157768748
 21
0.0125588467626285
 31
0.0
  0
LINE
  5
3E4
330
2
100
AcDbEntity
  8
SANINDUSA
100
AcDbLine
 10
2.557799931605754
 20
0.0000000000000018
 30
0.0
 11
2.678282632712225
 21
0.0000000000000018
 31
0.0
  0
LINE
  5
3E5
330
2
100
AcDbEntity
  8
SANINDUSA
100
AcDbLine
 10
2.668282632712225
 20
0.012
 30
0.0
 11
2.563320975062579
 21
0.012
 31
0.0
  0
LINE
  5
3E7
330
2
100
AcDbEntity
  8
SANINDUSA
100
AcDbLine
 10
2.562893650838523
 20
0.0144234761029702
 30
0.0
 11
2.563320975062579
 21
0.012
 31
0.0
  0
ARC
  5
3E8
330
2
100
AcDbEntity
  8
SANINDUSA
100
AcDbCircle
 10
2.548121534543338
 20
0.0118187534379668
 30
0.0
 40
0.0050000000000011
100
AcDbArc
 50
10.00000000000237
 51
90.99999999997875
  0
LINE
  5
3E9
330
2
100
AcDbEntity
  8
SANINDUSA
100
AcDbLine
 10
2.553045573308399
 20
0.0126869943263019
 30
0.0
 11
2.554845508346716
 21
0.0024790554670035
 31
0.0
  0
ARC
  5
3EA
330
2
100
AcDbEntity
  8
SANINDUSA
100
AcDbCircle
 10
2.557799931605754
 20
0.0029999999999991
 30
0.0
 40
0.003
100
AcDbArc
 50
189.9999999999773
 51
270.0
  0
ARC
  5
3EC
330
2
100
AcDbEntity
  8
SANINDUSA
100
AcDbCircle
 10
2.678282632712225
 20
0.002
 30
0.0
 40
0.0020000000000002
100
AcDbArc
 50
270.0
 51
0.0
  0
LINE
  5
3ED
330
2
100
AcDbEntity
  8
SANINDUSA
100
AcDbLine
 10
2.026072436031095
 20
0.1200000000000018
 30
0.0
 11
2.607869127179883
 21
0.1200000000000018
 31
0.0
  0
LINE
  5
3F0
330
2
100
AcDbEntity
  8
SANINDUSA
100
AcDbLine
 10
1.972696138244564
 20
0.1200000000000018
 30
0.0
 11
2.001595170959303
 21
0.1200000000000018
 31
0.0
  0
LINE
  5
3F3
330
2
100
AcDbEntity
  8
SANINDUSA
100
AcDbLine
 10
1.938144210817149
 20
0.1200000000000018
 30
0.0
 11
1.972696138244564
 21
0.1200000000000018
 31
0.0
  0
LINE
  5
3F4
330
2
100
AcDbEntity
  8
SANINDUSA
100
AcDbLine
 10
1.94207499986961
 20
0.1079999999999991
 30
0.0
 11
1.972696138244564
 21
0.1079999999999991
 31
0.0
  0
ARC
  5
3F5
330
2
100
AcDbEntity
  8
SANINDUSA
100
AcDbCircle
 10
1.938144210817149
 20
0.112
 30
0.0
 40
0.0080000000000001
100
AcDbArc
 50
90.0
 51
178.9999999999978
  0
LINE
  5
3F6
330
2
100
AcDbEntity
  8
SANINDUSA
100
AcDbLine
 10
1.987468254539749
 20
0.1076047226650071
 30
0.0
 11
1.995072007773996
 21
0.0644816951867388
 31
0.0
  0
ARC
  5
3F7
330
2
100
AcDbEntity
  8
SANINDUSA
100
AcDbCircle
 10
1.972696138244564
 20
0.1050000000000018
 30
0.0
 40
0.015
100
AcDbArc
 50
10.00000000000237
 51
90.0
  0
ARC
  5
3F8
330
2
100
AcDbEntity
  8
SANINDUSA
100
AcDbCircle
 10
1.972696138244564
 20
0.1050000000000018
 30
0.0
 40
0.0030000000000001
100
AcDbArc
 50
10.00000000021911
 51
90.0
  0
LWPOLYLINE
  5
3FA
330
2
100
AcDbEntity
  8
SANINDUSA
100
AcDbPolyline
 90
        3
 70
   128
 43
0.0
 10
2.023033177322495
 20
0.064966840647227
 10
2.019656221247769
 20
0.0862856067770067
 10
2.016281530002379
 20
0.1076047226650067
  0
LINE
  5
3FD
330
2
100
AcDbEntity
  8
SANINDUSA
100
AcDbLine
 10
2.023121677361032
 20
0.0644556074924749
 30
0.0
 11
2.023033177322495
 21
0.0649668406472274
 31
0.0
  0
LINE
  5
3FF
330
2
100
AcDbEntity
  8
SANINDUSA
100
AcDbLine
 10
2.001595170959303
 20
0.1200000000000018
 30
0.0
 11
2.026072436031095
 21
0.1200000000000018
 31
0.0
  0
LWPOLYLINE
  5
401
330
2
100
AcDbEntity
  8
SANINDUSA
100
AcDbPolyline
 90
       10
 70
   128
 43
0.0
 10
2.016281530002379
 20
0.1076047226650067
 10
2.015705002545537
 20
0.1098560091308778
 10
2.014789552686288
 20
0.111990652795545
 10
2.013557169805831
 20
0.1139573788755492
 10
2.012037456111961
 20
0.1157089460183775
 10
2.010266915585116
 20
0.1172032810539545
 10
2.008288077141755
 20
0.1184044896048649
 10
2.006148473077023
 20
0.1192837182800909
 10
2.003899497324664
 20
0.1198198477421661
 10
2.001595170959303
 20
0.1200000000000014
  0
LINE
  5
403
330
2
100
AcDbEntity
  8
SANINDUSA
100
AcDbLine
 10
2.607869127179883
 20
0.1079999999999991
 30
0.0
 11
2.668282632712225
 21
0.1079999999999991
 31
0.0
  0
LINE
  5
404
330
2
100
AcDbEntity
  8
SANINDUSA
100
AcDbLine
 10
2.607869127179883
 20
0.1200000000000018
 30
0.0
 11
2.672282632712222
 21
0.1200000000000018
 31
0.0
  0
ARC
  5
405
330
2
100
AcDbEntity
  8
SANINDUSA
100
AcDbCircle
 10
2.607869127179883
 20
0.1050000000000018
 30
0.0
 40
0.015
100
AcDbArc
 50
90.0
 51
169.9999999999976
  0
LINE
  5
406
330
2
100
AcDbEntity
  8
SANINDUSA
100
AcDbLine
 10
2.587133641881828
 20
0.0737847764553608
 30
0.0
 11
2.593097010884698
 21
0.1076047226650071
 31
0.0
  0
LINE
  5
408
330
2
100
AcDbEntity
  8
SANINDUSA
100
AcDbLine
 10
2.598951334917974
 20
0.0717009983233557
 30
0.0
 11
2.604914703920849
 21
0.1055209445330065
 31
0.0
  0
ARC
  5
40C
330
2
100
AcDbEntity
  8
SANINDUSA
100
AcDbCircle
 10
2.607869127179883
 20
0.1050000000000018
 30
0.0
 40
0.0030000000000001
100
AcDbArc
 50
90.0
 51
169.9999999997809
  0
ARC
  5
40E
330
2
100
AcDbEntity
  8
SANINDUSA
100
AcDbCircle
 10
2.672282632712222
 20
0.112
 30
0.0
 40
0.0080000000000001
100
AcDbArc
 50
0.0
 51
90.0
  0
ARC
  5
40F
330
2
100
AcDbEntity
  8
SANINDUSA
100
AcDbCircle
 10
2.548121534543338
 20
0.0118187534379668
 30
0.0
 40
0.0150000000000011
100
AcDbArc
 50
9.999999999996109
 51
90.99999999997875
  0
LINE
  5
410
330
2
100
AcDbEntity
  8
SANINDUSA
100
AcDbLine
 10
2.516121000803638
 20
0.0262624669644602
 30
0.0
 11
2.547859748446781
 21
0.0268164688653106
 31
0.0
  0
ARC
  5
411
330
2
100
AcDbEntity
  8
SANINDUSA
100
AcDbCircle
 10
2.516382786900194
 20
0.0112647515371118
 30
0.0
 40
0.0150000000000001
100
AcDbArc
 50
90.99999999997875
 51
146.1808650513048
  0
ARC
  5
412
330
2
100
AcDbEntity
  8
SANINDUSA
100
AcDbCircle
 10
2.490116114023671
 20
0.0108062650566053
 30
0.0
 40
0.0150000000000002
100
AcDbArc
 50
35.81913494868832
 51
90.99999999997875
  0
LINE
  5
413
330
2
100
AcDbEntity
  8
SANINDUSA
100
AcDbLine
 10
2.201580166390527
 20
0.0307736595576412
 30
0.0
 11
2.558322410361829
 21
0.0370006185887978
 31
0.0
  0
LINE
  5
414
330
2
100
AcDbEntity
  8
SANINDUSA
100
AcDbLine
 10
2.44076857217874
 20
0.024947185430312
 30
0.0
 11
2.489854327927109
 21
0.0258039804839537
 31
0.0
  0
ARC
  5
415
330
2
100
AcDbEntity
  8
SANINDUSA
100
AcDbCircle
 10
2.441030358275302
 20
0.0099494700029682
 30
0.0
 40
0.0150000000000004
100
AcDbArc
 50
90.99999999997875
 51
144.0376667444607
  0
ARC
  5
416
330
2
100
AcDbEntity
  8
SANINDUSA
100
AcDbCircle
 10
2.415465261328449
 20
0.0095032295758638
 30
0.0
 40
0.0150000000000001
100
AcDbArc
 50
37.96233325553678
 51
90.99999999997875
  0
LINE
  5
417
330
2
100
AcDbEntity
  8
SANINDUSA
100
AcDbLine
 10
2.365416143553848
 20
0.0236319038961683
 30
0.0
 11
2.415203475231887
 21
0.0245009450032121
 31
0.0
  0
ARC
  5
418
330
2
100
AcDbEntity
  8
SANINDUSA
100
AcDbCircle
 10
2.365677929650405
 20
0.00863418846882
 30
0.0
 40
0.0150000000000001
100
AcDbArc
 50
90.99999999997875
 51
141.9961241446875
  0
ARC
  5
419
330
2
100
AcDbEntity
  8
SANINDUSA
100
AcDbCircle
 10
2.340814408633223
 20
0.0082001940951223
 30
0.0
 40
0.0149999999999999
100
AcDbArc
 50
40.00387585530171
 51
90.99999999997875
  0
LINE
  5
41A
330
2
100
AcDbEntity
  8
SANINDUSA
100
AcDbLine
 10
2.290063714928952
 20
0.0223166223620201
 30
0.0
 11
2.340552622536661
 21
0.0231979095224661
 31
0.0
  0
ARC
  5
41B
330
2
100
AcDbEntity
  8
SANINDUSA
100
AcDbCircle
 10
2.290325501025508
 20
0.0073189069346763
 30
0.0
 40
0.0150000000000001
100
AcDbArc
 50
90.99999999997875
 51
140.0407332370729
  0
ARC
  5
41C
330
2
100
AcDbEntity
  8
SANINDUSA
100
AcDbCircle
 10
2.266163555937996
 20
0.0068971586143807
 30
0.0
 40
0.0150000000000001
100
AcDbArc
 50
41.95926676292602
 51
90.99999999997875
  0
LINE
  5
41D
330
2
100
AcDbEntity
  8
SANINDUSA
100
AcDbLine
 10
2.21471128630406
 20
0.0210013408278765
 30
0.0
 11
2.265901769841435
 21
0.0218948740417245
 31
0.0
  0
ARC
  5
41E
330
2
100
AcDbEntity
  8
SANINDUSA
100
AcDbCircle
 10
2.214973072400616
 20
0.0060036254005281
 30
0.0
 40
0.0150000000000001
100
AcDbArc
 50
90.99999999997875
 51
130.0200391079851
  0
LINE
  5
41F
330
2
100
AcDbEntity
  8
SANINDUSA
100
AcDbLine
 10
2.200666741928739
 20
0.0293863352404678
 30
0.0
 11
2.203718258683223
 21
0.0179979196725895
 31
0.0
  0
ARC
  5
420
330
2
100
AcDbEntity
  8
SANINDUSA
100
AcDbCircle
 10
2.186177854534403
 20
0.0255040495639305
 30
0.0
 40
0.0150000000000001
100
AcDbArc
 50
15.00000000001852
 51
15.47751218593973
  0
ARC
  5
421
330
2
100
AcDbEntity
  8
SANINDUSA
100
AcDbCircle
 10
2.201597618796963
 20
0.0297738118624848
 30
0.0
 40
0.001
100
AcDbArc
 50
90.99999999997875
 51
195.4775121859616
  0
ARC
  5
422
330
2
100
AcDbEntity
  8
SANINDUSA
100
AcDbCircle
 10
2.204684184509511
 20
0.0182567387176919
 30
0.0
 40
0.001
100
AcDbArc
 50
195.0000000000097
 51
310.0200391079475
  0
ARC
  5
423
330
2
100
AcDbEntity
  8
SANINDUSA
100
AcDbCircle
 10
2.278061481410926
 20
0.0175947924387651
 30
0.0
 40
0.001
100
AcDbArc
 50
221.9592667629287
 51
320.0407332370716
  0
ARC
  5
424
330
2
100
AcDbEntity
  8
SANINDUSA
100
AcDbCircle
 10
2.353070423978424
 20
0.0184856249494033
 30
0.0
 40
0.001
100
AcDbArc
 50
220.0038758552974
 51
321.9961241447095
  0
ARC
  5
425
330
2
100
AcDbEntity
  8
SANINDUSA
100
AcDbCircle
 10
2.428079906520608
 20
0.0193455223309061
 30
0.0
 40
0.001
100
AcDbArc
 50
217.9623332554932
 51
324.0376667444659
  0
ARC
  5
426
330
2
100
AcDbEntity
  8
SANINDUSA
100
AcDbCircle
 10
2.503090008690889
 20
0.0201699212423023
 30
0.0
 40
0.001
100
AcDbArc
 50
215.8191349486935
 51
326.1808650513012
  0
ARC
  5
427
330
2
100
AcDbEntity
  8
SANINDUSA
100
AcDbCircle
 10
2.561908843085511
 20
0.0142498279253032
 30
0.0
 40
0.001
100
AcDbArc
 50
10.00000000000237
 51
10.00000000000237
  0
ENDSEC
  0
SECTION
  2
OBJECTS
  0
DICTIONARY
  5
7
330
0
100
AcDbDictionary
281
     1
  3
ACAD_COLOR
350
31
  3
ACAD_GROUP
350
21
  3
ACAD_LAYOUT
350
B
  3
ACAD_MATERIAL
350
30
  3
ACAD_MLEADERSTYLE
350
598
  3
ACAD_MLINESTYLE
350
22
  3
ACAD_PLOTSETTINGS
350
23
  3
ACAD_PLOTSTYLENAME
350
6
  3
ACAD_SCALELIST
350
586
  3
ACAD_TABLESTYLE
350
32
  3
ACAD_VISUALSTYLE
350
572
  3
ACDB_RECOMPOSE_DATA
350
5B5
  3
AcDbVariableDictionary
350
2C
  3
DWGPROPS
350
5B6
  0
DICTIONARY
  5
59E
330
4
100
AcDbDictionary
280
     1
281
     1
  3
ADSK_XREC_LAYER_RECONCILED
360
59F
  0
DICTIONARY
  5
5A0
330
24
100
AcDbDictionary
280
     1
281
     1
  3
ADSK_XREC_LAYER_RECONCILED
360
5A1
  0
DICTIONARY
  5
5A2
330
190
100
AcDbDictionary
280
     1
281
     1
  3
ADSK_XREC_LAYER_RECONCILED
360
5A3
  0
DICTIONARY
  5
5A4
330
191
100
AcDbDictionary
280
     1
281
     1
  3
ADSK_XREC_LAYER_RECONCILED
360
5A5
  0
DICTIONARY
  5
5A6
330
193
100
AcDbDictionary
280
     1
281
     1
  3
ADSK_XREC_LAYER_RECONCILED
360
5A7
  0
DICTIONARY
  5
5A8
330
194
100
AcDbDictionary
280
     1
281
     1
  3
ADSK_XREC_LAYER_RECONCILED
360
5A9
  0
DICTIONARY
  5
5AA
330
195
100
AcDbDictionary
280
     1
281
     1
  3
ADSK_XREC_LAYER_RECONCILED
360
5AB
  0
DICTIONARY
  5
5AC
330
196
100
AcDbDictionary
280
     1
281
     1
  3
ADSK_XREC_LAYER_RECONCILED
360
5AD
  0
DICTIONARY
  5
31
102
{ACAD_REACTORS
330
7
102
}
330
7
100
AcDbDictionary
281
     1
  0
DICTIONARY
  5
21
102
{ACAD_REACTORS
330
7
102
}
330
7
100
AcDbDictionary
281
     1
  0
DICTIONARY
  5
B
102
{ACAD_REACTORS
330
7
102
}
330
7
100
AcDbDictionary
281
     1
  3
Layout1
350
F
  3
Model
350
A
  0
DICTIONARY
  5
30
102
{ACAD_REACTORS
330
7
102
}
330
7
100
AcDbDictionary
281
     1
  3
ByBlock
350
562
  3
ByLayer
350
55A
  3
Global
350
56A
  0
DICTIONARY
  5
598
102
{ACAD_REACTORS
330
7
102
}
330
7
100
AcDbDictionary
281
     1
  3
Standard
350
599
  0
DICTIONARY
  5
22
102
{ACAD_REACTORS
330
7
102
}
330
7
100
AcDbDictionary
281
     1
  3
Standard
350
25
  0
DICTIONARY
  5
23
102
{ACAD_REACTORS
330
7
102
}
330
7
100
AcDbDictionary
281
     1
  0
ACDBDICTIONARYWDFLT
  5
6
102
{ACAD_REACTORS
330
7
102
}
330
7
100
AcDbDictionary
281
     1
  3
Normal
350
5
100
AcDbDictionaryWithDefault
340
5
  0
DICTIONARY
  5
586
102
{ACAD_REACTORS
330
7
102
}
330
7
100
AcDbDictionary
281
     1
  3
A0
350
587
  3
A1
350
588
  3
A2
350
589
  3
A3
350
58A
  3
A4
350
58B
  3
A5
350
58C
  3
A6
350
58D
  3
A7
350
58E
  3
A8
350
58F
  3
A9
350
590
  3
B0
350
591
  3
B1
350
592
  3
B2
350
593
  3
B3
350
594
  3
B4
350
595
  3
B5
350
596
  3
B6
350
597
  0
DICTIONARY
  5
32
102
{ACAD_REACTORS
330
7
102
}
330
7
100
AcDbDictionary
281
     1
  3
Standard
350
33
  0
DICTIONARY
  5
572
102
{ACAD_REACTORS
330
7
102
}
330
7
100
AcDbDictionary
281
     1
  3
2dWireframe
350
578
  3
3D Hidden
350
57A
  3
3dWireframe
350
579
  3
Basic
350
577
  3
Brighten
350
57E
  3
ColorChange
350
582
  3
Conceptual
350
57B
  3
Dim
350
57D
  3
EdgeColorOff
350
585
  3
Facepattern
350
581
  3
Flat
350
573
  3
FlatWithEdges
350
574
  3
Gouraud
350
575
  3
GouraudWithEdges
350
576
  3
JitterOff
350
583
  3
Linepattern
350
580
  3
OverhangOff
350
584
  3
Realistic
350
57C
  3
Thicken
350
57F
  0
XRECORD
  5
5B5
102
{ACAD_REACTORS
330
7
102
}
330
7
100
AcDbXrecord
280
     1
 90
        1
330
33
  0
DICTIONARY
  5
2C
102
{ACAD_REACTORS
330
7
102
}
330
7
100
AcDbDictionary
281
     1
  3
CANNOSCALE
350
5AF
  3
CMLEADERSTYLE
350
5AE
  3
CTABLESTYLE
350
118
  3
DIMASSOC
350
2E
  3
HIDETEXT
350
2D
  3
INDEXCTL
350
5B1
  3
PROJECTNAME
350
119
  3
SORTENTS
350
5B0
  3
XCLIPFRAME
350
5B2
  0
XRECORD
  5
5B6
102
{ACAD_REACTORS
330
7
102
}
330
7
100
AcDbXrecord
280
     1
  1
DWGPROPS COOKIE
  2

  3

  4

  6

  7

  8
Julio
  9

300
=
301
=
302
=
303
=
304
=
305
=
306
=
307
=
308
=
309
=
 40
0.0956250578703704
 41
2452899.634786239
 42
2456142.677859872
  1

 90
        0
  0
XRECORD
  5
59F
102
{ACAD_REACTORS
330
59E
102
}
330
59E
100
AcDbXrecord
280
     1
290
     1
  0
XRECORD
  5
5A1
102
{ACAD_REACTORS
330
5A0
102
}
330
5A0
100
AcDbXrecord
280
     1
290
     1
  0
XRECORD
  5
5A3
102
{ACAD_REACTORS
330
5A2
102
}
330
5A2
100
AcDbXrecord
280
     1
290
     1
  0
XRECORD
  5
5A5
102
{ACAD_REACTORS
330
5A4
102
}
330
5A4
100
AcDbXrecord
280
     1
290
     1
  0
XRECORD
  5
5A7
102
{ACAD_REACTORS
330
5A6
102
}
330
5A6
100
AcDbXrecord
280
     1
290
     1
  0
XRECORD
  5
5A9
102
{ACAD_REACTORS
330
5A8
102
}
330
5A8
100
AcDbXrecord
280
     1
290
     1
  0
XRECORD
  5
5AB
102
{ACAD_REACTORS
330
5AA
102
}
330
5AA
100
AcDbXrecord
280
     1
290
     1
  0
XRECORD
  5
5AD
102
{ACAD_REACTORS
330
5AC
102
}
330
5AC
100
AcDbXrecord
280
     1
290
     1
  0
LAYOUT
  5
F
102
{ACAD_XDICTIONARY
360
5B9
102
}
102
{ACAD_REACTORS
330
B
102
}
330
B
100
AcDbPlotSettings
  1

  2
PLOTER 500
  4

  6

 40
0.0
 41
0.0
 42
0.0
 43
0.0
 44
0.0
 45
0.0
 46
0.0
 47
0.0
 48
0.0
 49
0.0
140
0.0
141
0.0
142
1.0
143
1.0
 70
   688
 72
     0
 73
     0
 74
     5
  7

 75
    16
147
1.0
148
0.0
149
0.0
100
AcDbLayout
  1
Layout1
 70
     1
 71
     1
 10
0.0
 20
0.0
 11
420.0
 21
297.0
 12
0.0
 22
0.0
 32
0.0
 14
1.000000000000000E+20
 24
1.000000000000000E+20
 34
1.000000000000000E+20
 15
-1.000000000000000E+20
 25
-1.000000000000000E+20
 35
-1.000000000000000E+20
146
0.0
 13
0.0
 23
0.0
 33
0.0
 16
1.0
 26
0.0
 36
0.0
 17
0.0
 27
1.0
 37
0.0
 76
     0
330
C
  0
LAYOUT
  5
A
102
{ACAD_XDICTIONARY
360
5B7
102
}
102
{ACAD_REACTORS
330
B
102
}
330
B
100
AcDbPlotSettings
  1

  2
PLOTER 500
  4

  6

 40
0.0
 41
0.0
 42
0.0
 43
0.0
 44
0.0
 45
0.0
 46
0.0
 47
0.0
 48
0.0
 49
0.0
140
0.0
141
0.0
142
1.0
143
1.0
 70
  1712
 72
     0
 73
     0
 74
     0
  7

 75
     0
147
1.0
148
0.0
149
0.0
100
AcDbLayout
  1
Model
 70
     1
 71
     0
 10
0.0
 20
0.0
 11
12.0
 21
9.0
 12
0.0
 22
0.0
 32
0.0
 14
0.0
 24
0.0
 34
0.0
 15
0.0
 25
0.0
 35
0.0
146
0.0
 13
0.0
 23
0.0
 33
0.0
 16
1.0
 26
0.0
 36
0.0
 17
0.0
 27
1.0
 37
0.0
 76
     0
330
2
331
553
  0
MATERIAL
  5
562
102
{ACAD_XDICTIONARY
360
563
102
}
102
{ACAD_REACTORS
330
30
102
}
330
30
100
AcDbMaterial
  1
ByBlock
 72
     0
 43
0.0008202099737533
 43
0.0
 43
0.0
 43
0.0
 43
0.0
 43
0.0008202099737533
 43
0.0
 43
0.0
 43
0.0
 43
0.0
 43
1.0
 43
0.0
 43
0.0
 43
0.0
 43
0.0
 43
1.0
 77
     0
 47
0.0008202099737533
 47
0.0
 47
0.0
 47
0.0
 47
0.0
 47
0.0008202099737533
 47
0.0
 47
0.0
 47
0.0
 47
0.0
 47
1.0
 47
0.0
 47
0.0
 47
0.0
 47
0.0
 47
1.0
171
     0
 49
0.0008202099737533
 49
0.0
 49
0.0
 49
0.0
 49
0.0
 49
0.0008202099737533
 49
0.0
 49
0.0
 49
0.0
 49
0.0
 49
1.0
 49
0.0
 49
0.0
 49
0.0
 49
0.0
 49
1.0
175
     0
142
0.0008202099737533
142
0.0
142
0.0
142
0.0
142
0.0
142
0.0008202099737533
142
0.0
142
0.0
142
0.0
142
0.0
142
1.0
142
0.0
142
0.0
142
0.0
142
0.0
142
1.0
179
     0
144
0.0008202099737533
144
0.0
144
0.0
144
0.0
144
0.0
144
0.0008202099737533
144
0.0
144
0.0
144
0.0
144
0.0
144
1.0
144
0.0
144
0.0
144
0.0
144
0.0
144
1.0
147
0.0008202099737533
147
0.0
147
0.0
147
0.0
147
0.0
147
0.0008202099737533
147
0.0
147
0.0
147
0.0
147
0.0
147
1.0
147
0.0
147
0.0
147
0.0
147
0.0
147
1.0
  0
MATERIAL
  5
55A
102
{ACAD_XDICTIONARY
360
55B
102
}
102
{ACAD_REACTORS
330
30
102
}
330
30
100
AcDbMaterial
  1
ByLayer
 72
     0
 43
0.0008202099737533
 43
0.0
 43
0.0
 43
0.0
 43
0.0
 43
0.0008202099737533
 43
0.0
 43
0.0
 43
0.0
 43
0.0
 43
1.0
 43
0.0
 43
0.0
 43
0.0
 43
0.0
 43
1.0
 77
     0
 47
0.0008202099737533
 47
0.0
 47
0.0
 47
0.0
 47
0.0
 47
0.0008202099737533
 47
0.0
 47
0.0
 47
0.0
 47
0.0
 47
1.0
 47
0.0
 47
0.0
 47
0.0
 47
0.0
 47
1.0
171
     0
 49
0.0008202099737533
 49
0.0
 49
0.0
 49
0.0
 49
0.0
 49
0.0008202099737533
 49
0.0
 49
0.0
 49
0.0
 49
0.0
 49
1.0
 49
0.0
 49
0.0
 49
0.0
 49
0.0
 49
1.0
175
     0
142
0.0008202099737533
142
0.0
142
0.0
142
0.0
142
0.0
142
0.0008202099737533
142
0.0
142
0.0
142
0.0
142
0.0
142
1.0
142
0.0
142
0.0
142
0.0
142
0.0
142
1.0
179
     0
144
0.0008202099737533
144
0.0
144
0.0
144
0.0
144
0.0
144
0.0008202099737533
144
0.0
144
0.0
144
0.0
144
0.0
144
1.0
144
0.0
144
0.0
144
0.0
144
0.0
144
1.0
147
0.0008202099737533
147
0.0
147
0.0
147
0.0
147
0.0
147
0.0008202099737533
147
0.0
147
0.0
147
0.0
147
0.0
147
1.0
147
0.0
147
0.0
147
0.0
147
0.0
147
1.0
  0
MATERIAL
  5
56A
102
{ACAD_XDICTIONARY
360
56B
102
}
102
{ACAD_REACTORS
330
30
102
}
330
30
100
AcDbMaterial
  1
Global
 72
     0
 43
0.0008202099737533
 43
0.0
 43
0.0
 43
0.0
 43
0.0
 43
0.0008202099737533
 43
0.0
 43
0.0
 43
0.0
 43
0.0
 43
1.0
 43
0.0
 43
0.0
 43
0.0
 43
0.0
 43
1.0
 77
     0
 47
0.0008202099737533
 47
0.0
 47
0.0
 47
0.0
 47
0.0
 47
0.0008202099737533
 47
0.0
 47
0.0
 47
0.0
 47
0.0
 47
1.0
 47
0.0
 47
0.0
 47
0.0
 47
0.0
 47
1.0
171
     0
 49
0.0008202099737533
 49
0.0
 49
0.0
 49
0.0
 49
0.0
 49
0.0008202099737533
 49
0.0
 49
0.0
 49
0.0
 49
0.0
 49
1.0
 49
0.0
 49
0.0
 49
0.0
 49
0.0
 49
1.0
175
     0
142
0.0008202099737533
142
0.0
142
0.0
142
0.0
142
0.0
142
0.0008202099737533
142
0.0
142
0.0
142
0.0
142
0.0
142
1.0
142
0.0
142
0.0
142
0.0
142
0.0
142
1.0
179
     0
144
0.0008202099737533
144
0.0
144
0.0
144
0.0
144
0.0
144
0.0008202099737533
144
0.0
144
0.0
144
0.0
144
0.0
144
1.0
144
0.0
144
0.0
144
0.0
144
0.0
144
1.0
147
0.0008202099737533
147
0.0
147
0.0
147
0.0
147
0.0
147
0.0008202099737533
147
0.0
147
0.0
147
0.0
147
0.0
147
1.0
147
0.0
147
0.0
147
0.0
147
0.0
147
1.0
  0
MLEADERSTYLE
  5
599
102
{ACAD_REACTORS
330
598
102
}
330
598
100
AcDbMLeaderStyle
170
     2
171
     1
172
     0
 90
        2
 40
0.0
 41
0.0
173
     1
 91
-1056964608
340
15
 92
       -2
290
     1
 42
2.0
291
     1
 43
0.36
  3
Standard
 44
4.0
300

342
12
174
     1
178
     6
175
     1
176
     0
 93
-1056964608
 45
4.0
292
     0
297
     0
 46
4.0
 94
-1056964608
 47
1.0
 49
1.0
140
1.0
293
     1
141
0.0
294
     1
177
     0
142
1.0
295
     0
296
     0
143
0.125
1001
ACAD_MLEADERVER
1070
     2
  0
MLINESTYLE
  5
25
102
{ACAD_REACTORS
330
22
102
}
330
22
100
AcDbMlineStyle
  2
STANDARD
 70
     0
  3

 62
   256
 51
90.0
 52
90.0
 71
     2
 49
0.5
 62
   256
  6
BYLAYER
 49
-0.5
 62
   256
  6
BYLAYER
  0
ACDBPLACEHOLDER
  5
5
102
{ACAD_REACTORS
330
6
102
}
330
6
  0
SCALE
  5
587
102
{ACAD_REACTORS
330
586
102
}
330
586
100
AcDbScale
 70
     0
300
1:1
140
1.0
141
1.0
290
     1
  0
SCALE
  5
588
102
{ACAD_REACTORS
330
586
102
}
330
586
100
AcDbScale
 70
     0
300
1:2
140
1.0
141
2.0
290
     0
  0
SCALE
  5
589
102
{ACAD_REACTORS
330
586
102
}
330
586
100
AcDbScale
 70
     0
300
1:4
140
1.0
141
4.0
290
     0
  0
SCALE
  5
58A
102
{ACAD_REACTORS
330
586
102
}
330
586
100
AcDbScale
 70
     0
300
1:5
140
1.0
141
5.0
290
     0
  0
SCALE
  5
58B
102
{ACAD_REACTORS
330
586
102
}
330
586
100
AcDbScale
 70
     0
300
1:8
140
1.0
141
8.0
290
     0
  0
SCALE
  5
58C
102
{ACAD_REACTORS
330
586
102
}
330
586
100
AcDbScale
 70
     0
300
1:10
140
1.0
141
10.0
290
     0
  0
SCALE
  5
58D
102
{ACAD_REACTORS
330
586
102
}
330
586
100
AcDbScale
 70
     0
300
1:16
140
1.0
141
16.0
290
     0
  0
SCALE
  5
58E
102
{ACAD_REACTORS
330
586
102
}
330
586
100
AcDbScale
 70
     0
300
1:20
140
1.0
141
20.0
290
     0
  0
SCALE
  5
58F
102
{ACAD_REACTORS
330
586
102
}
330
586
100
AcDbScale
 70
     0
300
1:30
140
1.0
141
30.0
290
     0
  0
SCALE
  5
590
102
{ACAD_REACTORS
330
586
102
}
330
586
100
AcDbScale
 70
     0
300
1:40
140
1.0
141
40.0
290
     0
  0
SCALE
  5
591
102
{ACAD_REACTORS
330
586
102
}
330
586
100
AcDbScale
 70
     0
300
1:50
140
1.0
141
50.0
290
     0
  0
SCALE
  5
592
102
{ACAD_REACTORS
330
586
102
}
330
586
100
AcDbScale
 70
     0
300
1:100
140
1.0
141
100.0
290
     0
  0
SCALE
  5
593
102
{ACAD_REACTORS
330
586
102
}
330
586
100
AcDbScale
 70
     0
300
2:1
140
2.0
141
1.0
290
     0
  0
SCALE
  5
594
102
{ACAD_REACTORS
330
586
102
}
330
586
100
AcDbScale
 70
     0
300
4:1
140
4.0
141
1.0
290
     0
  0
SCALE
  5
595
102
{ACAD_REACTORS
330
586
102
}
330
586
100
AcDbScale
 70
     0
300
8:1
140
8.0
141
1.0
290
     0
  0
SCALE
  5
596
102
{ACAD_REACTORS
330
586
102
}
330
586
100
AcDbScale
 70
     0
300
10:1
140
10.0
141
1.0
290
     0
  0
SCALE
  5
597
102
{ACAD_REACTORS
330
586
102
}
330
586
100
AcDbScale
 70
     0
300
100:1
140
100.0
141
1.0
290
     0
  0
TABLESTYLE
  5
33
102
{ACAD_XDICTIONARY
360
5B3
102
}
102
{ACAD_REACTORS
330
32
102
}
330
32
100
AcDbTableStyle
  3
Standard
 70
     0
 71
     0
 40
1.5
 41
1.5
280
     0
281
     0
  7
Standard
140
4.5
170
     2
 62
     0
 63
     7
283
     0
274
    -2
284
     1
 64
     0
275
    -2
285
     1
 65
     0
276
    -2
286
     1
 66
     0
277
    -2
287
     1
 67
     0
278
    -2
288
     1
 68
     0
279
    -2
289
     1
 69
     0
  7
Standard
140
6.0
170
     5
 62
     0
 63
     7
283
     0
274
    -2
284
     1
 64
     0
275
    -2
285
     1
 65
     0
276
    -2
286
     1
 66
     0
277
    -2
287
     1
 67
     0
278
    -2
288
     1
 68
     0
279
    -2
289
     1
 69
     0
  7
Standard
140
4.5
170
     5
 62
     0
 63
     7
283
     0
274
    -2
284
     1
 64
     0
275
    -2
285
     1
 65
     0
276
    -2
286
     1
 66
     0
277
    -2
287
     1
 67
     0
278
    -2
288
     1
 68
     0
279
    -2
289
     1
 69
     0
  0
VISUALSTYLE
  5
578
102
{ACAD_XDICTIONARY
360
5D1
102
}
102
{ACAD_REACTORS
330
572
102
}
330
572
100
AcDbVisualStyle
  2
2dWireframe
 70
     4
 71
     0
 72
     2
 73
     0
 90
        0
 40
-0.6
 41
-30.0
 62
     5
 63
     7
 74
     1
 91
        4
 64
     7
 65
   257
 75
     1
175
     1
 42
1.0
 92
        0
 66
   257
 43
1.0
 76
     1
 77
     6
 78
     2
 67
     7
 79
     5
170
     0
171
     0
290
     0
174
     0
 93
        1
 44
0.0
173
     0
291
     0
 45
0.0
1001
ACAD
1000
AcDbSavedByObjectVersion
1070
     0
  0
VISUALSTYLE
  5
57A
102
{ACAD_XDICTIONARY
360
5D5
102
}
102
{ACAD_REACTORS
330
572
102
}
330
572
100
AcDbVisualStyle
  2
3D Hidden
 70
     6
 71
     1
 72
     2
 73
     2
 90
        0
 40
-0.6
 41
-30.0
 62
     5
 63
     7
 74
     2
 91
        2
 64
     7
 65
   257
 75
     2
175
     1
 42
179.0
 92
        0
 66
   257
 43
1.0
 76
     1
 77
     6
 78
     2
 67
     7
 79
     3
170
     0
171
     0
290
     0
174
     0
 93
        1
 44
0.0
173
     0
291
     0
 45
0.0
1001
ACAD
1000
AcDbSavedByObjectVersion
1070
     0
  0
VISUALSTYLE
  5
579
102
{ACAD_XDICTIONARY
360
5D3
102
}
102
{ACAD_REACTORS
330
572
102
}
330
572
100
AcDbVisualStyle
  2
3dWireframe
 70
     5
 71
     0
 72
     2
 73
     0
 90
        0
 40
-0.6
 41
-30.0
 62
     5
 63
     7
 74
     1
 91
        4
 64
     7
 65
   257
 75
     1
175
     1
 42
1.0
 92
        0
 66
   257
 43
1.0
 76
     1
 77
     6
 78
     2
 67
     7
 79
     5
170
     0
171
     0
290
     0
174
     0
 93
        1
 44
0.0
173
     0
291
     0
 45
0.0
1001
ACAD
1000
AcDbSavedByObjectVersion
1070
     0
  0
VISUALSTYLE
  5
577
102
{ACAD_XDICTIONARY
360
5CF
102
}
102
{ACAD_REACTORS
330
572
102
}
330
572
100
AcDbVisualStyle
  2
Basic
 70
     7
 71
     1
 72
     0
 73
     1
 90
        0
 40
-0.6
 41
-30.0
 62
     5
 63
     7
 74
     0
 91
        4
 64
     7
 65
   257
 75
     1
175
     1
 42
1.0
 92
        8
 66
     7
 43
1.0
 76
     1
 77
     6
 78
     2
 67
     7
 79
     5
170
     0
171
     0
290
     0
174
     0
 93
        1
 44
0.0
173
     0
291
     1
 45
0.0
1001
ACAD
1000
AcDbSavedByObjectVersion
1070
     0
  0
VISUALSTYLE
  5
57E
102
{ACAD_XDICTIONARY
360
5DD
102
}
102
{ACAD_REACTORS
330
572
102
}
330
572
100
AcDbVisualStyle
  2
Brighten
 70
    12
 71
     2
 72
     2
 73
     0
 90
        0
 40
-0.6
 41
-30.0
 62
     5
 63
     7
 74
     1
 91
        4
 64
     7
 65
   257
 75
     1
175
     1
 42
1.0
 92
        8
 66
     7
 43
1.0
 76
     1
 77
     6
 78
     2
 67
     7
 79
     5
170
     0
171
     0
290
     0
174
     0
 93
        1
 44
50.0
173
     0
291
     1
 45
0.0
1001
ACAD
1000
AcDbSavedByObjectVersion
1070
     0
  0
VISUALSTYLE
  5
582
102
{ACAD_XDICTIONARY
360
5E5
102
}
102
{ACAD_REACTORS
330
572
102
}
330
572
100
AcDbVisualStyle
  2
ColorChange
 70
    16
 71
     2
 72
     2
 73
     3
 90
        0
 40
-0.6
 41
-30.0
 62
     5
 63
     8
 74
     1
 91
        4
 64
     7
 65
   257
 75
     1
175
     1
 42
1.0
 92
        8
 66
     8
 43
1.0
 76
     1
 77
     6
 78
     2
 67
     7
 79
     5
170
     0
171
     0
290
     0
174
     0
 93
        1
 44
0.0
173
     0
291
     1
 45
0.0
1001
ACAD
1000
AcDbSavedByObjectVersion
1070
     0
  0
VISUALSTYLE
  5
57B
102
{ACAD_XDICTIONARY
360
5D7
102
}
102
{ACAD_REACTORS
330
572
102
}
330
572
100
AcDbVisualStyle
  2
Conceptual
 70
     9
 71
     3
 72
     2
 73
     0
 90
        0
 40
-0.6
 41
-30.0
 62
     5
 63
     7
 74
     2
 91
        2
 64
     7
 65
   257
 75
     1
175
     1
 42
179.0
 92
        8
 66
     7
 43
1.0
 76
     1
 77
     6
 78
     2
 67
     7
 79
     3
170
     0
171
     0
290
     0
174
     0
 93
        1
 44
0.0
173
     0
291
     0
 45
0.0
1001
ACAD
1000
AcDbSavedByObjectVersion
1070
     0
  0
VISUALSTYLE
  5
57D
102
{ACAD_XDICTIONARY
360
5DB
102
}
102
{ACAD_REACTORS
330
572
102
}
330
572
100
AcDbVisualStyle
  2
Dim
 70
    11
 71
     2
 72
     2
 73
     0
 90
        0
 40
-0.6
 41
-30.0
 62
     5
 63
     7
 74
     1
 91
        4
 64
     7
 65
   257
 75
     1
175
     1
 42
1.0
 92
        8
 66
     7
 43
1.0
 76
     1
 77
     6
 78
     2
 67
     7
 79
     5
170
     0
171
     0
290
     0
174
     0
 93
        1
 44
-50.0
173
     0
291
     1
 45
0.0
1001
ACAD
1000
AcDbSavedByObjectVersion
1070
     0
  0
VISUALSTYLE
  5
585
102
{ACAD_XDICTIONARY
360
5EB
102
}
102
{ACAD_REACTORS
330
572
102
}
330
572
100
AcDbVisualStyle
  2
EdgeColorOff
 70
    22
 71
     2
 72
     2
 73
     0
 90
        0
 40
-0.6
 41
-30.0
 62
     5
 63
     7
 74
     1
 91
        4
 64
     7
 65
   257
 75
     1
175
     1
 42
1.0
 92
        8
 66
     7
 43
1.0
 76
     1
 77
     6
 78
     2
 67
     7
 79
     5
170
     0
171
     0
290
     0
174
     0
 93
        1
 44
0.0
173
     0
291
     1
 45
0.0
1001
ACAD
1000
AcDbSavedByObjectVersion
1070
     0
  0
VISUALSTYLE
  5
581
102
{ACAD_XDICTIONARY
360
5E3
102
}
102
{ACAD_REACTORS
330
572
102
}
330
572
100
AcDbVisualStyle
  2
Facepattern
 70
    15
 71
     2
 72
     2
 73
     0
 90
        0
 40
-0.6
 41
-30.0
 62
     5
 63
     7
 74
     1
 91
        4
 64
     7
 65
   257
 75
     1
175
     1
 42
1.0
 92
        8
 66
     7
 43
1.0
 76
     1
 77
     6
 78
     2
 67
     7
 79
     5
170
     0
171
     0
290
     0
174
     0
 93
        1
 44
0.0
173
     0
291
     1
 45
0.0
1001
ACAD
1000
AcDbSavedByObjectVersion
1070
     0
  0
VISUALSTYLE
  5
573
102
{ACAD_XDICTIONARY
360
5C7
102
}
102
{ACAD_REACTORS
330
572
102
}
330
572
100
AcDbVisualStyle
  2
Flat
 70
     0
 71
     2
 72
     1
 73
     1
 90
        2
 40
-0.6
 41
30.0
 62
     5
 63
     7
 74
     0
 91
        4
 64
     7
 65
   257
 75
     1
175
     1
 42
1.0
 92
        8
 66
     7
 43
1.0
 76
     1
 77
     6
 78
     2
 67
     7
 79
     5
170
     0
171
     0
290
     0
174
     0
 93
       13
 44
0.0
173
     0
291
     1
 45
0.0
1001
ACAD
1000
AcDbSavedByObjectVersion
1070
     0
  0
VISUALSTYLE
  5
574
102
{ACAD_XDICTIONARY
360
5C9
102
}
102
{ACAD_REACTORS
330
572
102
}
330
572
100
AcDbVisualStyle
  2
FlatWithEdges
 70
     1
 71
     2
 72
     1
 73
     1
 90
        2
 40
-0.6
 41
30.0
 62
     5
 63
     7
 74
     1
 91
        4
 64
     7
 65
   257
 75
     1
175
     1
 42
1.0
 92
        0
 66
   257
 43
1.0
 76
     1
 77
     6
 78
     2
 67
     7
 79
     5
170
     0
171
     0
290
     0
174
     0
 93
       13
 44
0.0
173
     0
291
     1
 45
0.0
1001
ACAD
1000
AcDbSavedByObjectVersion
1070
     0
  0
VISUALSTYLE
  5
575
102
{ACAD_XDICTIONARY
360
5CB
102
}
102
{ACAD_REACTORS
330
572
102
}
330
572
100
AcDbVisualStyle
  2
Gouraud
 70
     2
 71
     2
 72
     2
 73
     1
 90
        2
 40
-0.6
 41
30.0
 62
     5
 63
     7
 74
     0
 91
        4
 64
     7
 65
   257
 75
     1
175
     1
 42
1.0
 92
        0
 66
     7
 43
1.0
 76
     1
 77
     6
 78
     2
 67
     7
 79
     5
170
     0
171
     0
290
     0
174
     0
 93
       13
 44
0.0
173
     0
291
     1
 45
0.0
1001
ACAD
1000
AcDbSavedByObjectVersion
1070
     0
  0
VISUALSTYLE
  5
576
102
{ACAD_XDICTIONARY
360
5CD
102
}
102
{ACAD_REACTORS
330
572
102
}
330
572
100
AcDbVisualStyle
  2
GouraudWithEdges
 70
     3
 71
     2
 72
     2
 73
     1
 90
        2
 40
-0.6
 41
30.0
 62
     5
 63
     7
 74
     1
 91
        4
 64
     7
 65
   257
 75
     1
175
     1
 42
1.0
 92
        0
 66
   257
 43
1.0
 76
     1
 77
     6
 78
     2
 67
     7
 79
     5
170
     0
171
     0
290
     0
174
     0
 93
       13
 44
0.0
173
     0
291
     1
 45
0.0
1001
ACAD
1000
AcDbSavedByObjectVersion
1070
     0
  0
VISUALSTYLE
  5
583
102
{ACAD_XDICTIONARY
360
5E7
102
}
102
{ACAD_REACTORS
330
572
102
}
330
572
100
AcDbVisualStyle
  2
JitterOff
 70
    20
 71
     2
 72
     2
 73
     0
 90
        0
 40
-0.6
 41
-30.0
 62
     5
 63
     7
 74
     1
 91
        4
 64
     7
 65
   257
 75
     1
175
     1
 42
1.0
 92
       10
 66
     7
 43
1.0
 76
     1
 77
     6
 78
     2
 67
     7
 79
     5
170
     0
171
     0
290
     0
174
     0
 93
        1
 44
0.0
173
     0
291
     1
 45
0.0
1001
ACAD
1000
AcDbSavedByObjectVersion
1070
     0
  0
VISUALSTYLE
  5
580
102
{ACAD_XDICTIONARY
360
5E1
102
}
102
{ACAD_REACTORS
330
572
102
}
330
572
100
AcDbVisualStyle
  2
Linepattern
 70
    14
 71
     2
 72
     2
 73
     0
 90
        0
 40
-0.6
 41
-30.0
 62
     5
 63
     7
 74
     1
 91
        4
 64
     7
 65
   257
 75
     7
175
     7
 42
1.0
 92
        8
 66
     7
 43
1.0
 76
     1
 77
     6
 78
     2
 67
     7
 79
     5
170
     0
171
     0
290
     0
174
     0
 93
        1
 44
0.0
173
     0
291
     1
 45
0.0
1001
ACAD
1000
AcDbSavedByObjectVersion
1070
     0
  0
VISUALSTYLE
  5
584
102
{ACAD_XDICTIONARY
360
5E9
102
}
102
{ACAD_REACTORS
330
572
102
}
330
572
100
AcDbVisualStyle
  2
OverhangOff
 70
    21
 71
     2
 72
     2
 73
     0
 90
        0
 40
-0.6
 41
-30.0
 62
     5
 63
     7
 74
     1
 91
        4
 64
     7
 65
   257
 75
     1
175
     1
 42
1.0
 92
        9
 66
     7
 43
1.0
 76
     1
 77
     6
 78
     2
 67
     7
 79
     5
170
     0
171
     0
290
     0
174
     0
 93
        1
 44
0.0
173
     0
291
     1
 45
0.0
1001
ACAD
1000
AcDbSavedByObjectVersion
1070
     0
  0
VISUALSTYLE
  5
57C
102
{ACAD_XDICTIONARY
360
5D9
102
}
102
{ACAD_REACTORS
330
572
102
}
330
572
100
AcDbVisualStyle
  2
Realistic
 70
     8
 71
     2
 72
     2
 73
     0
 90
        0
 40
-0.6
 41
-30.0
 62
     5
 63
     7
 74
     1
 91
        0
 64
     7
 65
   257
 75
     1
175
     1
 42
1.0
 92
        8
 66
     8
 43
1.0
 76
     1
 77
     6
 78
     2
 67
     7
 79
     5
170
     0
171
     0
290
     0
174
     0
 93
       13
 44
0.0
173
     0
291
     0
 45
0.0
1001
ACAD
1000
AcDbSavedByObjectVersion
1070
     0
  0
VISUALSTYLE
  5
57F
102
{ACAD_XDICTIONARY
360
5DF
102
}
102
{ACAD_REACTORS
330
572
102
}
330
572
100
AcDbVisualStyle
  2
Thicken
 70
    13
 71
     2
 72
     2
 73
     0
 90
        0
 40
-0.6
 41
-30.0
 62
     5
 63
     7
 74
     1
 91
        4
 64
     7
 65
   257
 75
     1
175
     1
 42
1.0
 92
       12
 66
     7
 43
1.0
 76
     1
 77
     6
 78
     2
 67
     7
 79
     5
170
     0
171
     0
290
     0
174
     0
 93
        1
 44
0.0
173
     0
291
     1
 45
0.0
1001
ACAD
1000
AcDbSavedByObjectVersion
1070
     0
  0
DICTIONARYVAR
  5
5AF
102
{ACAD_REACTORS
330
2C
102
}
330
2C
100
DictionaryVariables
280
     0
  1
1:1
  0
DICTIONARYVAR
  5
5AE
102
{ACAD_REACTORS
330
2C
102
}
330
2C
100
DictionaryVariables
280
     0
  1
STANDARD
  0
DICTIONARYVAR
  5
118
102
{ACAD_REACTORS
330
2C
102
}
330
2C
100
DictionaryVariables
280
     0
  1
STANDARD
  0
DICTIONARYVAR
  5
2E
102
{ACAD_REACTORS
330
2C
102
}
330
2C
100
DictionaryVariables
280
     0
  1
2
  0
DICTIONARYVAR
  5
2D
102
{ACAD_REACTORS
330
2C
102
}
330
2C
100
DictionaryVariables
280
     0
  1
1
  0
DICTIONARYVAR
  5
5B1
102
{ACAD_REACTORS
330
2C
102
}
330
2C
100
DictionaryVariables
280
     0
  1
0
  0
DICTIONARYVAR
  5
119
102
{ACAD_REACTORS
330
2C
102
}
330
2C
100
DictionaryVariables
280
     0
  1

  0
DICTIONARYVAR
  5
5B0
102
{ACAD_REACTORS
330
2C
102
}
330
2C
100
DictionaryVariables
280
     0
  1
127
  0
DICTIONARYVAR
  5
5B2
102
{ACAD_REACTORS
330
2C
102
}
330
2C
100
DictionaryVariables
280
     0
  1
2
  0
DICTIONARY
  5
5B9
330
F
100
AcDbDictionary
280
     1
281
     1
  3
ACAD_XREC_ROUNDTRIP
360
5BA
  0
DICTIONARY
  5
5B7
330
A
100
AcDbDictionary
280
     1
281
     1
  3
ACAD_XREC_ROUNDTRIP
360
5B8
  0
DICTIONARY
  5
563
330
562
100
AcDbDictionary
280
     1
281
     1
  3
ACAD_XREC_ROUNDTRIP
360
5C5
  3
BUMPTILE
360
565
  3
DIFFUSETILE
360
564
  3
OPACITYTILE
360
568
  3
REFLECTIONTILE
360
567
  3
REFRACTIONTILE
360
569
  3
SPECULARTILE
360
566
  0
DICTIONARY
  5
55B
330
55A
100
AcDbDictionary
280
     1
281
     1
  3
ACAD_XREC_ROUNDTRIP
360
5C4
  3
BUMPTILE
360
55D
  3
DIFFUSETILE
360
55C
  3
OPACITYTILE
360
560
  3
REFLECTIONTILE
360
55F
  3
REFRACTIONTILE
360
561
  3
SPECULARTILE
360
55E
  0
DICTIONARY
  5
56B
330
56A
100
AcDbDictionary
280
     1
281
     1
  3
ACAD_XREC_ROUNDTRIP
360
5C6
  3
BUMPTILE
360
56D
  3
DIFFUSETILE
360
56C
  3
OPACITYTILE
360
570
  3
REFLECTIONTILE
360
56F
  3
REFRACTIONTILE
360
571
  3
SPECULARTILE
360
56E
  0
DICTIONARY
  5
5B3
330
33
100
AcDbDictionary
280
     1
281
     1
  3
ACAD_ROUNDTRIP_2008_TABLESTYLE_CELLSTYLEMAP
360
5B4
  3
ACAD_XREC_ROUNDTRIP
360
5BB
  0
DICTIONARY
  5
5D1
330
578
100
AcDbDictionary
280
     1
281
     1
  3
ACAD_XREC_ROUNDTRIP
360
5D2
  0
DICTIONARY
  5
5D5
330
57A
100
AcDbDictionary
280
     1
281
     1
  3
ACAD_XREC_ROUNDTRIP
360
5D6
  0
DICTIONARY
  5
5D3
330
579
100
AcDbDictionary
280
     1
281
     1
  3
ACAD_XREC_ROUNDTRIP
360
5D4
  0
DICTIONARY
  5
5CF
330
577
100
AcDbDictionary
280
     1
281
     1
  3
ACAD_XREC_ROUNDTRIP
360
5D0
  0
DICTIONARY
  5
5DD
330
57E
100
AcDbDictionary
280
     1
281
     1
  3
ACAD_XREC_ROUNDTRIP
360
5DE
  0
DICTIONARY
  5
5E5
330
582
100
AcDbDictionary
280
     1
281
     1
  3
ACAD_XREC_ROUNDTRIP
360
5E6
  0
DICTIONARY
  5
5D7
330
57B
100
AcDbDictionary
280
     1
281
     1
  3
ACAD_XREC_ROUNDTRIP
360
5D8
  0
DICTIONARY
  5
5DB
330
57D
100
AcDbDictionary
280
     1
281
     1
  3
ACAD_XREC_ROUNDTRIP
360
5DC
  0
DICTIONARY
  5
5EB
330
585
100
AcDbDictionary
280
     1
281
     1
  3
ACAD_XREC_ROUNDTRIP
360
5EC
  0
DICTIONARY
  5
5E3
330
581
100
AcDbDictionary
280
     1
281
     1
  3
ACAD_XREC_ROUNDTRIP
360
5E4
  0
DICTIONARY
  5
5C7
330
573
100
AcDbDictionary
280
     1
281
     1
  3
ACAD_XREC_ROUNDTRIP
360
5C8
  0
DICTIONARY
  5
5C9
330
574
100
AcDbDictionary
280
     1
281
     1
  3
ACAD_XREC_ROUNDTRIP
360
5CA
  0
DICTIONARY
  5
5CB
330
575
100
AcDbDictionary
280
     1
281
     1
  3
ACAD_XREC_ROUNDTRIP
360
5CC
  0
DICTIONARY
  5
5CD
330
576
100
AcDbDictionary
280
     1
281
     1
  3
ACAD_XREC_ROUNDTRIP
360
5CE
  0
DICTIONARY
  5
5E7
330
583
100
AcDbDictionary
280
     1
281
     1
  3
ACAD_XREC_ROUNDTRIP
360
5E8
  0
DICTIONARY
  5
5E1
330
580
100
AcDbDictionary
280
     1
281
     1
  3
ACAD_XREC_ROUNDTRIP
360
5E2
  0
DICTIONARY
  5
5E9
330
584
100
AcDbDictionary
280
     1
281
     1
  3
ACAD_XREC_ROUNDTRIP
360
5EA
  0
DICTIONARY
  5
5D9
330
57C
100
AcDbDictionary
280
     1
281
     1
  3
ACAD_XREC_ROUNDTRIP
360
5DA
  0
DICTIONARY
  5
5DF
330
57F
100
AcDbDictionary
280
     1
281
     1
  3
ACAD_XREC_ROUNDTRIP
360
5E0
  0
XRECORD
  5
5BA
102
{ACAD_REACTORS
330
5B9
102
}
330
5B9
100
AcDbXrecord
280
     1
102
SHADEPLOT
 70
     0
102
SHADEPLOTRESLEVEL
 70
     2
102
SHADEPLOTCUSTOMDPI
 70
   300
  0
XRECORD
  5
5B8
102
{ACAD_REACTORS
330
5B7
102
}
330
5B7
100
AcDbXrecord
280
     1
102
SHADEPLOT
 70
     0
102
SHADEPLOTRESLEVEL
 70
     2
102
SHADEPLOTCUSTOMDPI
 70
   300
  0
XRECORD
  5
5C5
102
{ACAD_REACTORS
330
563
102
}
330
563
100
AcDbXrecord
280
     1
102
MATERIAL
148
0.0
149
0.0
149
0.0
 93
        0
 94
      127
282
     0
 72
     0
 77
     0
171
     0
175
     0
179
     0
273
     0
  0
XRECORD
  5
565
102
{ACAD_REACTORS
330
563
102
}
330
563
100
AcDbXrecord
280
     1
270
     1
271
     1
  0
XRECORD
  5
564
102
{ACAD_REACTORS
330
563
102
}
330
563
100
AcDbXrecord
280
     1
270
     1
271
     1
  0
XRECORD
  5
568
102
{ACAD_REACTORS
330
563
102
}
330
563
100
AcDbXrecord
280
     1
270
     1
271
     1
  0
XRECORD
  5
567
102
{ACAD_REACTORS
330
563
102
}
330
563
100
AcDbXrecord
280
     1
270
     1
271
     1
  0
XRECORD
  5
569
102
{ACAD_REACTORS
330
563
102
}
330
563
100
AcDbXrecord
280
     1
270
     1
271
     1
  0
XRECORD
  5
566
102
{ACAD_REACTORS
330
563
102
}
330
563
100
AcDbXrecord
280
     1
270
     1
271
     1
  0
XRECORD
  5
5C4
102
{ACAD_REACTORS
330
55B
102
}
330
55B
100
AcDbXrecord
280
     1
102
MATERIAL
148
0.0
149
0.0
149
0.0
 93
        0
 94
      127
282
     0
 72
     0
 77
     0
171
     0
175
     0
179
     0
273
     0
  0
XRECORD
  5
55D
102
{ACAD_REACTORS
330
55B
102
}
330
55B
100
AcDbXrecord
280
     1
270
     1
271
     1
  0
XRECORD
  5
55C
102
{ACAD_REACTORS
330
55B
102
}
330
55B
100
AcDbXrecord
280
     1
270
     1
271
     1
  0
XRECORD
  5
560
102
{ACAD_REACTORS
330
55B
102
}
330
55B
100
AcDbXrecord
280
     1
270
     1
271
     1
  0
XRECORD
  5
55F
102
{ACAD_REACTORS
330
55B
102
}
330
55B
100
AcDbXrecord
280
     1
270
     1
271
     1
  0
XRECORD
  5
561
102
{ACAD_REACTORS
330
55B
102
}
330
55B
100
AcDbXrecord
280
     1
270
     1
271
     1
  0
XRECORD
  5
55E
102
{ACAD_REACTORS
330
55B
102
}
330
55B
100
AcDbXrecord
280
     1
270
     1
271
     1
  0
XRECORD
  5
5C6
102
{ACAD_REACTORS
330
56B
102
}
330
56B
100
AcDbXrecord
280
     1
102
MATERIAL
148
0.0
149
0.0
149
0.0
 93
        0
 94
      127
282
     0
 72
     0
 77
     0
171
     0
175
     0
179
     0
273
     0
  0
XRECORD
  5
56D
102
{ACAD_REACTORS
330
56B
102
}
330
56B
100
AcDbXrecord
280
     1
270
     1
271
     1
  0
XRECORD
  5
56C
102
{ACAD_REACTORS
330
56B
102
}
330
56B
100
AcDbXrecord
280
     1
270
     1
271
     1
  0
XRECORD
  5
570
102
{ACAD_REACTORS
330
56B
102
}
330
56B
100
AcDbXrecord
280
     1
270
     1
271
     1
  0
XRECORD
  5
56F
102
{ACAD_REACTORS
330
56B
102
}
330
56B
100
AcDbXrecord
280
     1
270
     1
271
     1
  0
XRECORD
  5
571
102
{ACAD_REACTORS
330
56B
102
}
330
56B
100
AcDbXrecord
280
     1
270
     1
271
     1
  0
XRECORD
  5
56E
102
{ACAD_REACTORS
330
56B
102
}
330
56B
100
AcDbXrecord
280
     1
270
     1
271
     1
  0
CELLSTYLEMAP
  5
5B4
102
{ACAD_REACTORS
330
5B3
102
}
330
5B3
100
AcDbCellStyleMap
 90
        3
300
CELLSTYLE
  1
TABLEFORMAT_BEGIN
 90
        5
170
     1
 91
        0
 92
    32768
 62
   257
 93
        1
300
CONTENTFORMAT
  1
CONTENTFORMAT_BEGIN
 90
        0
 91
        0
 92
        4
 93
        0
300

 40
0.0
140
1.0
 94
        5
 62
     0
340
12
144
6.0
309
CONTENTFORMAT_END
171
     1
301
MARGIN
  1
CELLMARGIN_BEGIN
 40
1.5
 40
1.5
 40
1.5
 40
1.5
 40
0.18
 40
0.18
309
CELLMARGIN_END
 94
        6
 95
        1
302
GRIDFORMAT
  1
GRIDFORMAT_BEGIN
 90
        0
 91
        1
 62
     0
 92
       -2
340
0
 93
        0
 40
0.045
309
GRIDFORMAT_END
 95
        2
302
GRIDFORMAT
  1
GRIDFORMAT_BEGIN
 90
        0
 91
        1
 62
     0
 92
       -2
340
0
 93
        0
 40
0.045
309
GRIDFORMAT_END
 95
        4
302
GRIDFORMAT
  1
GRIDFORMAT_BEGIN
 90
        0
 91
        1
 62
     0
 92
       -2
340
0
 93
        0
 40
0.045
309
GRIDFORMAT_END
 95
        8
302
GRIDFORMAT
  1
GRIDFORMAT_BEGIN
 90
        0
 91
        1
 62
     0
 92
       -2
340
0
 93
        0
 40
0.045
309
GRIDFORMAT_END
 95
       16
302
GRIDFORMAT
  1
GRIDFORMAT_BEGIN
 90
        0
 91
        1
 62
     0
 92
       -2
340
0
 93
        0
 40
0.045
309
GRIDFORMAT_END
 95
       32
302
GRIDFORMAT
  1
GRIDFORMAT_BEGIN
 90
        0
 91
        1
 62
     0
 92
       -2
340
0
 93
        0
 40
0.045
309
GRIDFORMAT_END
309
TABLEFORMAT_END
  1
CELLSTYLE_BEGIN
 90
        1
 91
        1
300
_TITLE
309
CELLSTYLE_END
300
CELLSTYLE
  1
TABLEFORMAT_BEGIN
 90
        5
170
     1
 91
        0
 92
        0
 62
   257
 93
        1
300
CONTENTFORMAT
  1
CONTENTFORMAT_BEGIN
 90
        0
 91
        0
 92
        4
 93
        0
300

 40
0.0
140
1.0
 94
        5
 62
     0
340
12
144
4.5
309
CONTENTFORMAT_END
171
     1
301
MARGIN
  1
CELLMARGIN_BEGIN
 40
1.5
 40
1.5
 40
1.5
 40
1.5
 40
0.18
 40
0.18
309
CELLMARGIN_END
 94
        6
 95
        1
302
GRIDFORMAT
  1
GRIDFORMAT_BEGIN
 90
        0
 91
        1
 62
     0
 92
       -2
340
0
 93
        0
 40
0.045
309
GRIDFORMAT_END
 95
        2
302
GRIDFORMAT
  1
GRIDFORMAT_BEGIN
 90
        0
 91
        1
 62
     0
 92
       -2
340
0
 93
        0
 40
0.045
309
GRIDFORMAT_END
 95
        4
302
GRIDFORMAT
  1
GRIDFORMAT_BEGIN
 90
        0
 91
        1
 62
     0
 92
       -2
340
0
 93
        0
 40
0.045
309
GRIDFORMAT_END
 95
        8
302
GRIDFORMAT
  1
GRIDFORMAT_BEGIN
 90
        0
 91
        1
 62
     0
 92
       -2
340
0
 93
        0
 40
0.045
309
GRIDFORMAT_END
 95
       16
302
GRIDFORMAT
  1
GRIDFORMAT_BEGIN
 90
        0
 91
        1
 62
     0
 92
       -2
340
0
 93
        0
 40
0.045
309
GRIDFORMAT_END
 95
       32
302
GRIDFORMAT
  1
GRIDFORMAT_BEGIN
 90
        0
 91
        1
 62
     0
 92
       -2
340
0
 93
        0
 40
0.045
309
GRIDFORMAT_END
309
TABLEFORMAT_END
  1
CELLSTYLE_BEGIN
 90
        2
 91
        1
300
_HEADER
309
CELLSTYLE_END
300
CELLSTYLE
  1
TABLEFORMAT_BEGIN
 90
        5
170
     1
 91
        0
 92
        0
 62
   257
 93
        1
300
CONTENTFORMAT
  1
CONTENTFORMAT_BEGIN
 90
        0
 91
        0
 92
        4
 93
        0
300

 40
0.0
140
1.0
 94
        2
 62
     0
340
12
144
4.5
309
CONTENTFORMAT_END
171
     1
301
MARGIN
  1
CELLMARGIN_BEGIN
 40
1.5
 40
1.5
 40
1.5
 40
1.5
 40
0.18
 40
0.18
309
CELLMARGIN_END
 94
        6
 95
        1
302
GRIDFORMAT
  1
GRIDFORMAT_BEGIN
 90
        0
 91
        1
 62
     0
 92
       -2
340
0
 93
        0
 40
0.045
309
GRIDFORMAT_END
 95
        2
302
GRIDFORMAT
  1
GRIDFORMAT_BEGIN
 90
        0
 91
        1
 62
     0
 92
       -2
340
0
 93
        0
 40
0.045
309
GRIDFORMAT_END
 95
        4
302
GRIDFORMAT
  1
GRIDFORMAT_BEGIN
 90
        0
 91
        1
 62
     0
 92
       -2
340
0
 93
        0
 40
0.045
309
GRIDFORMAT_END
 95
        8
302
GRIDFORMAT
  1
GRIDFORMAT_BEGIN
 90
        0
 91
        1
 62
     0
 92
       -2
340
0
 93
        0
 40
0.045
309
GRIDFORMAT_END
 95
       16
302
GRIDFORMAT
  1
GRIDFORMAT_BEGIN
 90
        0
 91
        1
 62
     0
 92
       -2
340
0
 93
        0
 40
0.045
309
GRIDFORMAT_END
 95
       32
302
GRIDFORMAT
  1
GRIDFORMAT_BEGIN
 90
        0
 91
        1
 62
     0
 92
       -2
340
0
 93
        0
 40
0.045
309
GRIDFORMAT_END
309
TABLEFORMAT_END
  1
CELLSTYLE_BEGIN
 90
        3
 91
        2
300
_DATA
309
CELLSTYLE_END
  0
XRECORD
  5
5BB
102
{ACAD_REACTORS
330
5B3
102
}
330
5B3
100
AcDbXrecord
280
     1
102
ACAD_ROUNDTRIP_PRE2007_TABLESTYLE
 90
        4
 91
        0
  1

 92
        4
 93
        0
  2

 94
        4
 95
        0
  3

  0
XRECORD
  5
5D2
102
{ACAD_REACTORS
330
5D1
102
}
330
5D1
100
AcDbXrecord
280
     1
102
RTVSPropertyOp0
 70
     1
102
RTVSPropertyOp1
 70
     1
102
RTVSPropertyOp2
 70
     1
102
RTVSPropertyOp3
 70
     1
102
RTVSPropertyOp4
 70
     1
102
RTVSPropertyOp5
 70
     1
102
RTVSPropertyOp6
 70
     1
102
RTVSPropertyOp7
 70
     1
102
RTVSPropertyOp8
 70
     1
102
RTVSPropertyOp9
 70
     1
102
RTVSPropertyOp10
 70
     1
102
RTVSPropertyOp11
 70
     1
102
RTVSPropertyOp12
 70
     1
102
RTVSPropertyOp13
 70
     1
102
RTVSPropertyOp14
 70
     1
102
RTVSPropertyOp15
 70
     1
102
RTVSPropertyOp16
 70
     1
102
RTVSPropertyOp17
 70
     1
102
RTVSPropertyOp18
 70
     1
102
RTVSPropertyOp19
 70
     1
102
RTVSPropertyOp20
 70
     1
102
RTVSPropertyOp21
 70
     1
102
RTVSPropertyOp22
 70
     1
102
RTVSPropertyOp23
 70
     1
102
RTVSPropertyOp24
 70
     1
102
RTVSPropertyOp25
 70
     1
102
RTVSPropertyOp26
 70
     1
102
RTVSPropertyOp27
 70
     1
  0
XRECORD
  5
5D6
102
{ACAD_REACTORS
330
5D5
102
}
330
5D5
100
AcDbXrecord
280
     1
102
RTVSPropertyOp0
 70
     1
102
RTVSPropertyOp1
 70
     1
102
RTVSPropertyOp2
 70
     1
102
RTVSPropertyOp3
 70
     1
102
RTVSPropertyOp4
 70
     1
102
RTVSPropertyOp5
 70
     1
102
RTVSPropertyOp6
 70
     1
102
RTVSPropertyOp7
 70
     1
102
RTVSPropertyOp8
 70
     1
102
RTVSPropertyOp9
 70
     1
102
RTVSPropertyOp10
 70
     1
102
RTVSPropertyOp11
 70
     1
102
RTVSPropertyOp12
 70
     1
102
RTVSPropertyOp13
 70
     1
102
RTVSPropertyOp14
 70
     1
102
RTVSPropertyOp15
 70
     1
102
RTVSPropertyOp16
 70
     1
102
RTVSPropertyOp17
 70
     1
102
RTVSPropertyOp18
 70
     1
102
RTVSPropertyOp19
 70
     1
102
RTVSPropertyOp20
 70
     1
102
RTVSPropertyOp21
 70
     1
102
RTVSPropertyOp22
 70
     1
102
RTVSPropertyOp23
 70
     1
102
RTVSPropertyOp24
 70
     1
102
RTVSPropertyOp25
 70
     1
102
RTVSPropertyOp26
 70
     1
102
RTVSPropertyOp27
 70
     1
  0
XRECORD
  5
5D4
102
{ACAD_REACTORS
330
5D3
102
}
330
5D3
100
AcDbXrecord
280
     1
102
RTVSPropertyOp0
 70
     1
102
RTVSPropertyOp1
 70
     1
102
RTVSPropertyOp2
 70
     1
102
RTVSPropertyOp3
 70
     1
102
RTVSPropertyOp4
 70
     1
102
RTVSPropertyOp5
 70
     1
102
RTVSPropertyOp6
 70
     1
102
RTVSPropertyOp7
 70
     1
102
RTVSPropertyOp8
 70
     1
102
RTVSPropertyOp9
 70
     1
102
RTVSPropertyOp10
 70
     1
102
RTVSPropertyOp11
 70
     1
102
RTVSPropertyOp12
 70
     1
102
RTVSPropertyOp13
 70
     1
102
RTVSPropertyOp14
 70
     1
102
RTVSPropertyOp15
 70
     1
102
RTVSPropertyOp16
 70
     1
102
RTVSPropertyOp17
 70
     1
102
RTVSPropertyOp18
 70
     1
102
RTVSPropertyOp19
 70
     1
102
RTVSPropertyOp20
 70
     1
102
RTVSPropertyOp21
 70
     1
102
RTVSPropertyOp22
 70
     1
102
RTVSPropertyOp23
 70
     1
102
RTVSPropertyOp24
 70
     1
102
RTVSPropertyOp25
 70
     1
102
RTVSPropertyOp26
 70
     1
102
RTVSPropertyOp27
 70
     1
  0
XRECORD
  5
5D0
102
{ACAD_REACTORS
330
5CF
102
}
330
5CF
100
AcDbXrecord
280
     1
102
RTVSPropertyOp0
 70
     1
102
RTVSPropertyOp1
 70
     1
102
RTVSPropertyOp2
 70
     1
102
RTVSPropertyOp3
 70
     1
102
RTVSPropertyOp4
 70
     1
102
RTVSPropertyOp5
 70
     1
102
RTVSPropertyOp6
 70
     1
102
RTVSPropertyOp7
 70
     1
102
RTVSPropertyOp8
 70
     1
102
RTVSPropertyOp9
 70
     1
102
RTVSPropertyOp10
 70
     1
102
RTVSPropertyOp11
 70
     1
102
RTVSPropertyOp12
 70
     1
102
RTVSPropertyOp13
 70
     1
102
RTVSPropertyOp14
 70
     1
102
RTVSPropertyOp15
 70
     1
102
RTVSPropertyOp16
 70
     1
102
RTVSPropertyOp17
 70
     1
102
RTVSPropertyOp18
 70
     1
102
RTVSPropertyOp19
 70
     1
102
RTVSPropertyOp20
 70
     1
102
RTVSPropertyOp21
 70
     1
102
RTVSPropertyOp22
 70
     1
102
RTVSPropertyOp23
 70
     1
102
RTVSPropertyOp24
 70
     1
102
RTVSPropertyOp25
 70
     1
102
RTVSPropertyOp26
 70
     1
102
RTVSPropertyOp27
 70
     1
  0
XRECORD
  5
5DE
102
{ACAD_REACTORS
330
5DD
102
}
330
5DD
100
AcDbXrecord
280
     1
102
RTVSPropertyOp0
 70
     1
102
RTVSPropertyOp1
 70
     1
102
RTVSPropertyOp2
 70
     1
102
RTVSPropertyOp3
 70
     1
102
RTVSPropertyOp4
 70
     1
102
RTVSPropertyOp5
 70
     1
102
RTVSPropertyOp6
 70
     1
102
RTVSPropertyOp7
 70
     1
102
RTVSPropertyOp8
 70
     1
102
RTVSPropertyOp9
 70
     1
102
RTVSPropertyOp10
 70
     1
102
RTVSPropertyOp11
 70
     1
102
RTVSPropertyOp12
 70
     1
102
RTVSPropertyOp13
 70
     1
102
RTVSPropertyOp14
 70
     1
102
RTVSPropertyOp15
 70
     1
102
RTVSPropertyOp16
 70
     1
102
RTVSPropertyOp17
 70
     1
102
RTVSPropertyOp18
 70
     1
102
RTVSPropertyOp19
 70
     1
102
RTVSPropertyOp20
 70
     1
102
RTVSPropertyOp21
 70
     1
102
RTVSPropertyOp22
 70
     1
102
RTVSPropertyOp23
 70
     1
102
RTVSPropertyOp24
 70
     1
102
RTVSPropertyOp25
 70
     1
102
RTVSPropertyOp26
 70
     1
102
RTVSPropertyOp27
 70
     1
  0
XRECORD
  5
5E6
102
{ACAD_REACTORS
330
5E5
102
}
330
5E5
100
AcDbXrecord
280
     1
102
RTVSPropertyOp0
 70
     1
102
RTVSPropertyOp1
 70
     1
102
RTVSPropertyOp2
 70
     1
102
RTVSPropertyOp3
 70
     1
102
RTVSPropertyOp4
 70
     1
102
RTVSPropertyOp5
 70
     1
102
RTVSPropertyOp6
 70
     1
102
RTVSPropertyOp7
 70
     1
102
RTVSPropertyOp8
 70
     1
102
RTVSPropertyOp9
 70
     1
102
RTVSPropertyOp10
 70
     1
102
RTVSPropertyOp11
 70
     1
102
RTVSPropertyOp12
 70
     1
102
RTVSPropertyOp13
 70
     1
102
RTVSPropertyOp14
 70
     1
102
RTVSPropertyOp15
 70
     1
102
RTVSPropertyOp16
 70
     1
102
RTVSPropertyOp17
 70
     1
102
RTVSPropertyOp18
 70
     1
102
RTVSPropertyOp19
 70
     1
102
RTVSPropertyOp20
 70
     1
102
RTVSPropertyOp21
 70
     1
102
RTVSPropertyOp22
 70
     1
102
RTVSPropertyOp23
 70
     1
102
RTVSPropertyOp24
 70
     1
102
RTVSPropertyOp25
 70
     1
102
RTVSPropertyOp26
 70
     1
102
RTVSPropertyOp27
 70
     1
  0
XRECORD
  5
5D8
102
{ACAD_REACTORS
330
5D7
102
}
330
5D7
100
AcDbXrecord
280
     1
102
RTVSPropertyOp0
 70
     1
102
RTVSPropertyOp1
 70
     1
102
RTVSPropertyOp2
 70
     1
102
RTVSPropertyOp3
 70
     1
102
RTVSPropertyOp4
 70
     1
102
RTVSPropertyOp5
 70
     1
102
RTVSPropertyOp6
 70
     1
102
RTVSPropertyOp7
 70
     1
102
RTVSPropertyOp8
 70
     1
102
RTVSPropertyOp9
 70
     1
102
RTVSPropertyOp10
 70
     1
102
RTVSPropertyOp11
 70
     1
102
RTVSPropertyOp12
 70
     1
102
RTVSPropertyOp13
 70
     1
102
RTVSPropertyOp14
 70
     1
102
RTVSPropertyOp15
 70
     1
102
RTVSPropertyOp16
 70
     1
102
RTVSPropertyOp17
 70
     1
102
RTVSPropertyOp18
 70
     1
102
RTVSPropertyOp19
 70
     1
102
RTVSPropertyOp20
 70
     1
102
RTVSPropertyOp21
 70
     1
102
RTVSPropertyOp22
 70
     1
102
RTVSPropertyOp23
 70
     1
102
RTVSPropertyOp24
 70
     1
102
RTVSPropertyOp25
 70
     1
102
RTVSPropertyOp26
 70
     1
102
RTVSPropertyOp27
 70
     1
  0
XRECORD
  5
5DC
102
{ACAD_REACTORS
330
5DB
102
}
330
5DB
100
AcDbXrecord
280
     1
102
RTVSPropertyOp0
 70
     1
102
RTVSPropertyOp1
 70
     1
102
RTVSPropertyOp2
 70
     1
102
RTVSPropertyOp3
 70
     1
102
RTVSPropertyOp4
 70
     1
102
RTVSPropertyOp5
 70
     1
102
RTVSPropertyOp6
 70
     1
102
RTVSPropertyOp7
 70
     1
102
RTVSPropertyOp8
 70
     1
102
RTVSPropertyOp9
 70
     1
102
RTVSPropertyOp10
 70
     1
102
RTVSPropertyOp11
 70
     1
102
RTVSPropertyOp12
 70
     1
102
RTVSPropertyOp13
 70
     1
102
RTVSPropertyOp14
 70
     1
102
RTVSPropertyOp15
 70
     1
102
RTVSPropertyOp16
 70
     1
102
RTVSPropertyOp17
 70
     1
102
RTVSPropertyOp18
 70
     1
102
RTVSPropertyOp19
 70
     1
102
RTVSPropertyOp20
 70
     1
102
RTVSPropertyOp21
 70
     1
102
RTVSPropertyOp22
 70
     1
102
RTVSPropertyOp23
 70
     1
102
RTVSPropertyOp24
 70
     1
102
RTVSPropertyOp25
 70
     1
102
RTVSPropertyOp26
 70
     1
102
RTVSPropertyOp27
 70
     1
  0
XRECORD
  5
5EC
102
{ACAD_REACTORS
330
5EB
102
}
330
5EB
100
AcDbXrecord
280
     1
102
RTVSPropertyOp0
 70
     0
102
RTVSPropertyOp1
 70
     0
102
RTVSPropertyOp2
 70
     0
102
RTVSPropertyOp3
 70
     0
102
RTVSPropertyOp4
 70
     0
102
RTVSPropertyOp5
 70
     0
102
RTVSPropertyOp6
 70
     0
102
RTVSPropertyOp7
 70
     0
102
RTVSPropertyOp8
 70
     0
102
RTVSPropertyOp9
 70
     0
102
RTVSPropertyOp10
 70
     0
102
RTVSPropertyOp11
 70
     0
102
RTVSPropertyOp12
 70
     0
102
RTVSPropertyOp13
 70
     0
102
RTVSPropertyOp14
 70
     2
102
RTVSPropertyOp15
 70
     0
102
RTVSPropertyOp16
 70
     0
102
RTVSPropertyOp17
 70
     0
102
RTVSPropertyOp18
 70
     0
102
RTVSPropertyOp19
 70
     0
102
RTVSPropertyOp20
 70
     0
102
RTVSPropertyOp21
 70
     0
102
RTVSPropertyOp22
 70
     0
102
RTVSPropertyOp23
 70
     0
102
RTVSPropertyOp24
 70
     0
102
RTVSPropertyOp25
 70
     0
102
RTVSPropertyOp26
 70
     0
102
RTVSPropertyOp27
 70
     0
  0
XRECORD
  5
5E4
102
{ACAD_REACTORS
330
5E3
102
}
330
5E3
100
AcDbXrecord
280
     1
102
RTVSPropertyOp0
 70
     1
102
RTVSPropertyOp1
 70
     1
102
RTVSPropertyOp2
 70
     1
102
RTVSPropertyOp3
 70
     1
102
RTVSPropertyOp4
 70
     1
102
RTVSPropertyOp5
 70
     1
102
RTVSPropertyOp6
 70
     1
102
RTVSPropertyOp7
 70
     1
102
RTVSPropertyOp8
 70
     1
102
RTVSPropertyOp9
 70
     1
102
RTVSPropertyOp10
 70
     1
102
RTVSPropertyOp11
 70
     1
102
RTVSPropertyOp12
 70
     1
102
RTVSPropertyOp13
 70
     1
102
RTVSPropertyOp14
 70
     1
102
RTVSPropertyOp15
 70
     1
102
RTVSPropertyOp16
 70
     1
102
RTVSPropertyOp17
 70
     1
102
RTVSPropertyOp18
 70
     1
102
RTVSPropertyOp19
 70
     1
102
RTVSPropertyOp20
 70
     1
102
RTVSPropertyOp21
 70
     1
102
RTVSPropertyOp22
 70
     1
102
RTVSPropertyOp23
 70
     1
102
RTVSPropertyOp24
 70
     1
102
RTVSPropertyOp25
 70
     1
102
RTVSPropertyOp26
 70
     1
102
RTVSPropertyOp27
 70
     1
  0
XRECORD
  5
5C8
102
{ACAD_REACTORS
330
5C7
102
}
330
5C7
100
AcDbXrecord
280
     1
102
RTVSPropertyOp0
 70
     1
102
RTVSPropertyOp1
 70
     1
102
RTVSPropertyOp2
 70
     1
102
RTVSPropertyOp3
 70
     1
102
RTVSPropertyOp4
 70
     1
102
RTVSPropertyOp5
 70
     1
102
RTVSPropertyOp6
 70
     1
102
RTVSPropertyOp7
 70
     1
102
RTVSPropertyOp8
 70
     1
102
RTVSPropertyOp9
 70
     1
102
RTVSPropertyOp10
 70
     1
102
RTVSPropertyOp11
 70
     1
102
RTVSPropertyOp12
 70
     1
102
RTVSPropertyOp13
 70
     1
102
RTVSPropertyOp14
 70
     1
102
RTVSPropertyOp15
 70
     1
102
RTVSPropertyOp16
 70
     1
102
RTVSPropertyOp17
 70
     1
102
RTVSPropertyOp18
 70
     1
102
RTVSPropertyOp19
 70
     1
102
RTVSPropertyOp20
 70
     1
102
RTVSPropertyOp21
 70
     1
102
RTVSPropertyOp22
 70
     1
102
RTVSPropertyOp23
 70
     1
102
RTVSPropertyOp24
 70
     1
102
RTVSPropertyOp25
 70
     1
102
RTVSPropertyOp26
 70
     1
102
RTVSPropertyOp27
 70
     1
  0
XRECORD
  5
5CA
102
{ACAD_REACTORS
330
5C9
102
}
330
5C9
100
AcDbXrecord
280
     1
102
RTVSPropertyOp0
 70
     1
102
RTVSPropertyOp1
 70
     1
102
RTVSPropertyOp2
 70
     1
102
RTVSPropertyOp3
 70
     1
102
RTVSPropertyOp4
 70
     1
102
RTVSPropertyOp5
 70
     1
102
RTVSPropertyOp6
 70
     1
102
RTVSPropertyOp7
 70
     1
102
RTVSPropertyOp8
 70
     1
102
RTVSPropertyOp9
 70
     1
102
RTVSPropertyOp10
 70
     1
102
RTVSPropertyOp11
 70
     1
102
RTVSPropertyOp12
 70
     1
102
RTVSPropertyOp13
 70
     1
102
RTVSPropertyOp14
 70
     1
102
RTVSPropertyOp15
 70
     1
102
RTVSPropertyOp16
 70
     1
102
RTVSPropertyOp17
 70
     1
102
RTVSPropertyOp18
 70
     1
102
RTVSPropertyOp19
 70
     1
102
RTVSPropertyOp20
 70
     1
102
RTVSPropertyOp21
 70
     1
102
RTVSPropertyOp22
 70
     1
102
RTVSPropertyOp23
 70
     1
102
RTVSPropertyOp24
 70
     1
102
RTVSPropertyOp25
 70
     1
102
RTVSPropertyOp26
 70
     1
102
RTVSPropertyOp27
 70
     1
  0
XRECORD
  5
5CC
102
{ACAD_REACTORS
330
5CB
102
}
330
5CB
100
AcDbXrecord
280
     1
102
RTVSPropertyOp0
 70
     1
102
RTVSPropertyOp1
 70
     1
102
RTVSPropertyOp2
 70
     1
102
RTVSPropertyOp3
 70
     1
102
RTVSPropertyOp4
 70
     1
102
RTVSPropertyOp5
 70
     1
102
RTVSPropertyOp6
 70
     1
102
RTVSPropertyOp7
 70
     1
102
RTVSPropertyOp8
 70
     1
102
RTVSPropertyOp9
 70
     1
102
RTVSPropertyOp10
 70
     1
102
RTVSPropertyOp11
 70
     1
102
RTVSPropertyOp12
 70
     1
102
RTVSPropertyOp13
 70
     1
102
RTVSPropertyOp14
 70
     1
102
RTVSPropertyOp15
 70
     1
102
RTVSPropertyOp16
 70
     1
102
RTVSPropertyOp17
 70
     1
102
RTVSPropertyOp18
 70
     1
102
RTVSPropertyOp19
 70
     1
102
RTVSPropertyOp20
 70
     1
102
RTVSPropertyOp21
 70
     1
102
RTVSPropertyOp22
 70
     1
102
RTVSPropertyOp23
 70
     1
102
RTVSPropertyOp24
 70
     1
102
RTVSPropertyOp25
 70
     1
102
RTVSPropertyOp26
 70
     1
102
RTVSPropertyOp27
 70
     1
  0
XRECORD
  5
5CE
102
{ACAD_REACTORS
330
5CD
102
}
330
5CD
100
AcDbXrecord
280
     1
102
RTVSPropertyOp0
 70
     1
102
RTVSPropertyOp1
 70
     1
102
RTVSPropertyOp2
 70
     1
102
RTVSPropertyOp3
 70
     1
102
RTVSPropertyOp4
 70
     1
102
RTVSPropertyOp5
 70
     1
102
RTVSPropertyOp6
 70
     1
102
RTVSPropertyOp7
 70
     1
102
RTVSPropertyOp8
 70
     1
102
RTVSPropertyOp9
 70
     1
102
RTVSPropertyOp10
 70
     1
102
RTVSPropertyOp11
 70
     1
102
RTVSPropertyOp12
 70
     1
102
RTVSPropertyOp13
 70
     1
102
RTVSPropertyOp14
 70
     1
102
RTVSPropertyOp15
 70
     1
102
RTVSPropertyOp16
 70
     1
102
RTVSPropertyOp17
 70
     1
102
RTVSPropertyOp18
 70
     1
102
RTVSPropertyOp19
 70
     1
102
RTVSPropertyOp20
 70
     1
102
RTVSPropertyOp21
 70
     1
102
RTVSPropertyOp22
 70
     1
102
RTVSPropertyOp23
 70
     1
102
RTVSPropertyOp24
 70
     1
102
RTVSPropertyOp25
 70
     1
102
RTVSPropertyOp26
 70
     1
102
RTVSPropertyOp27
 70
     1
  0
XRECORD
  5
5E8
102
{ACAD_REACTORS
330
5E7
102
}
330
5E7
100
AcDbXrecord
280
     1
102
RTVSPropertyOp0
 70
     0
102
RTVSPropertyOp1
 70
     0
102
RTVSPropertyOp2
 70
     0
102
RTVSPropertyOp3
 70
     0
102
RTVSPropertyOp4
 70
     0
102
RTVSPropertyOp5
 70
     0
102
RTVSPropertyOp6
 70
     0
102
RTVSPropertyOp7
 70
     0
102
RTVSPropertyOp8
 70
     0
102
RTVSPropertyOp9
 70
     0
102
RTVSPropertyOp10
 70
     0
102
RTVSPropertyOp11
 70
     0
102
RTVSPropertyOp12
 70
     0
102
RTVSPropertyOp13
 70
     0
102
RTVSPropertyOp14
 70
     2
102
RTVSPropertyOp15
 70
     0
102
RTVSPropertyOp16
 70
     0
102
RTVSPropertyOp17
 70
     0
102
RTVSPropertyOp18
 70
     0
102
RTVSPropertyOp19
 70
     0
102
RTVSPropertyOp20
 70
     0
102
RTVSPropertyOp21
 70
     0
102
RTVSPropertyOp22
 70
     0
102
RTVSPropertyOp23
 70
     0
102
RTVSPropertyOp24
 70
     0
102
RTVSPropertyOp25
 70
     0
102
RTVSPropertyOp26
 70
     0
102
RTVSPropertyOp27
 70
     0
  0
XRECORD
  5
5E2
102
{ACAD_REACTORS
330
5E1
102
}
330
5E1
100
AcDbXrecord
280
     1
102
RTVSPropertyOp0
 70
     1
102
RTVSPropertyOp1
 70
     1
102
RTVSPropertyOp2
 70
     1
102
RTVSPropertyOp3
 70
     1
102
RTVSPropertyOp4
 70
     1
102
RTVSPropertyOp5
 70
     1
102
RTVSPropertyOp6
 70
     1
102
RTVSPropertyOp7
 70
     1
102
RTVSPropertyOp8
 70
     1
102
RTVSPropertyOp9
 70
     1
102
RTVSPropertyOp10
 70
     1
102
RTVSPropertyOp11
 70
     1
102
RTVSPropertyOp12
 70
     1
102
RTVSPropertyOp13
 70
     1
102
RTVSPropertyOp14
 70
     1
102
RTVSPropertyOp15
 70
     1
102
RTVSPropertyOp16
 70
     1
102
RTVSPropertyOp17
 70
     1
102
RTVSPropertyOp18
 70
     1
102
RTVSPropertyOp19
 70
     1
102
RTVSPropertyOp20
 70
     1
102
RTVSPropertyOp21
 70
     1
102
RTVSPropertyOp22
 70
     1
102
RTVSPropertyOp23
 70
     1
102
RTVSPropertyOp24
 70
     1
102
RTVSPropertyOp25
 70
     1
102
RTVSPropertyOp26
 70
     1
102
RTVSPropertyOp27
 70
     1
  0
XRECORD
  5
5EA
102
{ACAD_REACTORS
330
5E9
102
}
330
5E9
100
AcDbXrecord
280
     1
102
RTVSPropertyOp0
 70
     0
102
RTVSPropertyOp1
 70
     0
102
RTVSPropertyOp2
 70
     0
102
RTVSPropertyOp3
 70
     0
102
RTVSPropertyOp4
 70
     0
102
RTVSPropertyOp5
 70
     0
102
RTVSPropertyOp6
 70
     0
102
RTVSPropertyOp7
 70
     0
102
RTVSPropertyOp8
 70
     0
102
RTVSPropertyOp9
 70
     0
102
RTVSPropertyOp10
 70
     0
102
RTVSPropertyOp11
 70
     0
102
RTVSPropertyOp12
 70
     0
102
RTVSPropertyOp13
 70
     0
102
RTVSPropertyOp14
 70
     2
102
RTVSPropertyOp15
 70
     0
102
RTVSPropertyOp16
 70
     0
102
RTVSPropertyOp17
 70
     0
102
RTVSPropertyOp18
 70
     0
102
RTVSPropertyOp19
 70
     0
102
RTVSPropertyOp20
 70
     0
102
RTVSPropertyOp21
 70
     0
102
RTVSPropertyOp22
 70
     0
102
RTVSPropertyOp23
 70
     0
102
RTVSPropertyOp24
 70
     0
102
RTVSPropertyOp25
 70
     0
102
RTVSPropertyOp26
 70
     0
102
RTVSPropertyOp27
 70
     0
  0
XRECORD
  5
5DA
102
{ACAD_REACTORS
330
5D9
102
}
330
5D9
100
AcDbXrecord
280
     1
102
RTVSPropertyOp0
 70
     1
102
RTVSPropertyOp1
 70
     1
102
RTVSPropertyOp2
 70
     1
102
RTVSPropertyOp3
 70
     1
102
RTVSPropertyOp4
 70
     1
102
RTVSPropertyOp5
 70
     1
102
RTVSPropertyOp6
 70
     1
102
RTVSPropertyOp7
 70
     1
102
RTVSPropertyOp8
 70
     1
102
RTVSPropertyOp9
 70
     1
102
RTVSPropertyOp10
 70
     1
102
RTVSPropertyOp11
 70
     1
102
RTVSPropertyOp12
 70
     1
102
RTVSPropertyOp13
 70
     1
102
RTVSPropertyOp14
 70
     1
102
RTVSPropertyOp15
 70
     1
102
RTVSPropertyOp16
 70
     1
102
RTVSPropertyOp17
 70
     1
102
RTVSPropertyOp18
 70
     1
102
RTVSPropertyOp19
 70
     1
102
RTVSPropertyOp20
 70
     1
102
RTVSPropertyOp21
 70
     1
102
RTVSPropertyOp22
 70
     1
102
RTVSPropertyOp23
 70
     1
102
RTVSPropertyOp24
 70
     1
102
RTVSPropertyOp25
 70
     1
102
RTVSPropertyOp26
 70
     1
102
RTVSPropertyOp27
 70
     1
  0
XRECORD
  5
5E0
102
{ACAD_REACTORS
330
5DF
102
}
330
5DF
100
AcDbXrecord
280
     1
102
RTVSPropertyOp0
 70
     1
102
RTVSPropertyOp1
 70
     1
102
RTVSPropertyOp2
 70
     1
102
RTVSPropertyOp3
 70
     1
102
RTVSPropertyOp4
 70
     1
102
RTVSPropertyOp5
 70
     1
102
RTVSPropertyOp6
 70
     1
102
RTVSPropertyOp7
 70
     1
102
RTVSPropertyOp8
 70
     1
102
RTVSPropertyOp9
 70
     1
102
RTVSPropertyOp10
 70
     1
102
RTVSPropertyOp11
 70
     1
102
RTVSPropertyOp12
 70
     1
102
RTVSPropertyOp13
 70
     1
102
RTVSPropertyOp14
 70
     1
102
RTVSPropertyOp15
 70
     1
102
RTVSPropertyOp16
 70
     1
102
RTVSPropertyOp17
 70
     1
102
RTVSPropertyOp18
 70
     1
102
RTVSPropertyOp19
 70
     1
102
RTVSPropertyOp20
 70
     1
102
RTVSPropertyOp21
 70
     1
102
RTVSPropertyOp22
 70
     1
102
RTVSPropertyOp23
 70
     1
102
RTVSPropertyOp24
 70
     1
102
RTVSPropertyOp25
 70
     1
102
RTVSPropertyOp26
 70
     1
102
RTVSPropertyOp27
 70
     1
  0
ENDSEC
  0
EOF
