  0
SECTION
  2
HEADER
  9
$ACADVER
  1
AC1015
  9
$ACADMAINTVER
 70
    20
  9
$DWGCODEPAGE
  3
ANSI_1252
  9
$INSBASE
 10
0.0
 20
0.0
 30
0.0
  9
$EXTMIN
 10
-1.835694970447475
 20
-0.3141112178781293
 30
0.0
  9
$EXTMAX
 10
2.556347996091807
 20
0.4400779977046615
 30
0.0
  9
$LIMMIN
 10
0.0
 20
0.0
  9
$LIMMAX
 10
420.0
 20
297.0
  9
$ORTHOMODE
 70
     1
  9
$REGENMODE
 70
     1
  9
$FILLMODE
 70
     1
  9
$QTEXTMODE
 70
     0
  9
$MIRRTEXT
 70
     1
  9
$LTSCALE
 40
1.0
  9
$ATTMODE
 70
     1
  9
$TEXTSIZE
 40
2.5
  9
$TRACEWID
 40
1.0
  9
$TEXTSTYLE
  7
Standard
  9
$CLAYER
  8
BLOCKS
  9
$CELTYPE
  6
ByLayer
  9
$CECOLOR
 62
   256
  9
$CELTSCALE
 40
1.0
  9
$DISPSILH
 70
     0
  9
$DIMSCALE
 40
10.0
  9
$DIMASZ
 40
1.0
  9
$DIMEXO
 40
1.0
  9
$DIMDLI
 40
1.0
  9
$DIMRND
 40
0.0
  9
$DIMDLE
 40
0.0
  9
$DIMEXE
 40
1.0
  9
$DIMTP
 40
0.0
  9
$DIMTM
 40
0.0
  9
$DIMTXT
 40
2.0
  9
$DIMCEN
 40
0.0
  9
$DIMTSZ
 40
0.0
  9
$DIMTOL
 70
     0
  9
$DIMLIM
 70
     0
  9
$DIMTIH
 70
     0
  9
$DIMTOH
 70
     0
  9
$DIMSE1
 70
     0
  9
$DIMSE2
 70
     0
  9
$DIMTAD
 70
     1
  9
$DIMZIN
 70
     8
  9
$DIMBLK
  1

  9
$DIMASO
 70
     1
  9
$DIMSHO
 70
     1
  9
$DIMPOST
  1

  9
$DIMAPOST
  1

  9
$DIMALT
 70
     0
  9
$DIMALTD
 70
     3
  9
$DIMALTF
 40
0.03937007874016
  9
$DIMLFAC
 40
1.0
  9
$DIMTOFL
 70
     1
  9
$DIMTVP
 40
0.0
  9
$DIMTIX
 70
     0
  9
$DIMSOXD
 70
     0
  9
$DIMSAH
 70
     0
  9
$DIMBLK1
  1

  9
$DIMBLK2
  1

  9
$DIMSTYLE
  2
SANINDUSA
  9
$DIMCLRD
 70
   256
  9
$DIMCLRE
 70
   256
  9
$DIMCLRT
 70
   256
  9
$DIMTFAC
 40
1.0
  9
$DIMGAP
 40
0.5
  9
$DIMJUST
 70
     0
  9
$DIMSD1
 70
     0
  9
$DIMSD2
 70
     0
  9
$DIMTOLJ
 70
     0
  9
$DIMTZIN
 70
     8
  9
$DIMALTZ
 70
     0
  9
$DIMALTTZ
 70
     0
  9
$DIMUPT
 70
     0
  9
$DIMDEC
 70
     0
  9
$DIMTDEC
 70
     0
  9
$DIMALTU
 70
     2
  9
$DIMALTTD
 70
     3
  9
$DIMTXSTY
  7
SANINDUSA
  9
$DIMAUNIT
 70
     0
  9
$DIMADEC
 70
     1
  9
$DIMALTRND
 40
0.0
  9
$DIMAZIN
 70
     0
  9
$DIMDSEP
 70
    44
  9
$DIMATFIT
 70
     3
  9
$DIMFRAC
 70
     0
  9
$DIMLDRBLK
  1

  9
$DIMLUNIT
 70
     2
  9
$DIMLWD
 70
    -1
  9
$DIMLWE
 70
    -1
  9
$DIMTMOVE
 70
     0
  9
$LUNITS
 70
     2
  9
$LUPREC
 70
     4
  9
$SKETCHINC
 40
1.0
  9
$FILLETRAD
 40
0.0
  9
$AUNITS
 70
     0
  9
$AUPREC
 70
     0
  9
$MENU
  1
.
  9
$ELEVATION
 40
0.0
  9
$PELEVATION
 40
0.0
  9
$THICKNESS
 40
0.0
  9
$LIMCHECK
 70
     0
  9
$CHAMFERA
 40
10.0
  9
$CHAMFERB
 40
10.0
  9
$CHAMFERC
 40
20.0
  9
$CHAMFERD
 40
0.0
  9
$SKPOLY
 70
     0
  9
$TDCREATE
 40
2452899.634786239
  9
$TDUCREATE
 40
2452899.593119572
  9
$TDUPDATE
 40
2456142.672980498
  9
$TDUUPDATE
 40
2456142.631313831
  9
$TDINDWG
 40
0.0344401042
  9
$TDUSRTIMER
 40
0.0344401042
  9
$USRTIMER
 70
     1
  9
$ANGBASE
 50
0.0
  9
$ANGDIR
 70
     0
  9
$PDMODE
 70
     3
  9
$PDSIZE
 40
0.0
  9
$PLINEWID
 40
0.0
  9
$SPLFRAME
 70
     0
  9
$SPLINETYPE
 70
     6
  9
$SPLINESEGS
 70
     8
  9
$HANDSEED
  5
202
  9
$SURFTAB1
 70
     6
  9
$SURFTAB2
 70
     6
  9
$SURFTYPE
 70
     6
  9
$SURFU
 70
     6
  9
$SURFV
 70
     6
  9
$UCSBASE
  2

  9
$UCSNAME
  2

  9
$UCSORG
 10
0.0
 20
0.0
 30
0.0
  9
$UCSXDIR
 10
1.0
 20
0.0
 30
0.0
  9
$UCSYDIR
 10
0.0
 20
1.0
 30
0.0
  9
$UCSORTHOREF
  2

  9
$UCSORTHOVIEW
 70
     0
  9
$UCSORGTOP
 10
0.0
 20
0.0
 30
0.0
  9
$UCSORGBOTTOM
 10
0.0
 20
0.0
 30
0.0
  9
$UCSORGLEFT
 10
0.0
 20
0.0
 30
0.0
  9
$UCSORGRIGHT
 10
0.0
 20
0.0
 30
0.0
  9
$UCSORGFRONT
 10
0.0
 20
0.0
 30
0.0
  9
$UCSORGBACK
 10
0.0
 20
0.0
 30
0.0
  9
$PUCSBASE
  2

  9
$PUCSNAME
  2

  9
$PUCSORG
 10
0.0
 20
0.0
 30
0.0
  9
$PUCSXDIR
 10
1.0
 20
0.0
 30
0.0
  9
$PUCSYDIR
 10
0.0
 20
1.0
 30
0.0
  9
$PUCSORTHOREF
  2

  9
$PUCSORTHOVIEW
 70
     0
  9
$PUCSORGTOP
 10
0.0
 20
0.0
 30
0.0
  9
$PUCSORGBOTTOM
 10
0.0
 20
0.0
 30
0.0
  9
$PUCSORGLEFT
 10
0.0
 20
0.0
 30
0.0
  9
$PUCSORGRIGHT
 10
0.0
 20
0.0
 30
0.0
  9
$PUCSORGFRONT
 10
0.0
 20
0.0
 30
0.0
  9
$PUCSORGBACK
 10
0.0
 20
0.0
 30
0.0
  9
$USERI1
 70
     0
  9
$USERI2
 70
     0
  9
$USERI3
 70
     0
  9
$USERI4
 70
     0
  9
$USERI5
 70
     0
  9
$USERR1
 40
0.0
  9
$USERR2
 40
0.0
  9
$USERR3
 40
0.0
  9
$USERR4
 40
0.0
  9
$USERR5
 40
0.0
  9
$WORLDVIEW
 70
     1
  9
$SHADEDGE
 70
     3
  9
$SHADEDIF
 70
    70
  9
$TILEMODE
 70
     1
  9
$MAXACTVP
 70
    64
  9
$PINSBASE
 10
0.0
 20
0.0
 30
0.0
  9
$PLIMCHECK
 70
     0
  9
$PEXTMIN
 10
1.000000000000000E+20
 20
1.000000000000000E+20
 30
1.000000000000000E+20
  9
$PEXTMAX
 10
-1.000000000000000E+20
 20
-1.000000000000000E+20
 30
-1.000000000000000E+20
  9
$PLIMMIN
 10
0.0
 20
0.0
  9
$PLIMMAX
 10
420.0
 20
297.0
  9
$UNITMODE
 70
     0
  9
$VISRETAIN
 70
     1
  9
$PLINEGEN
 70
     0
  9
$PSLTSCALE
 70
     1
  9
$TREEDEPTH
 70
  3020
  9
$CMLSTYLE
  2
Standard
  9
$CMLJUST
 70
     0
  9
$CMLSCALE
 40
20.0
  9
$PROXYGRAPHICS
 70
     1
  9
$MEASUREMENT
 70
     1
  9
$CELWEIGHT
370
    -1
  9
$ENDCAPS
280
     0
  9
$JOINSTYLE
280
     0
  9
$LWDISPLAY
290
     0
  9
$INSUNITS
 70
     4
  9
$HYPERLINKBASE
  1

  9
$STYLESHEET
  1

  9
$XEDIT
290
     1
  9
$CEPSNTYPE
380
     0
  9
$PSTYLEMODE
290
     1
  9
$FINGERPRINTGUID
  2
{291E2BE1-753D-43F5-904E-31F6AC3EF817}
  9
$VERSIONGUID
  2
{74F4EA4F-9BF5-430C-BF9F-FAC969FB034A}
  9
$EXTNAMES
290
     1
  9
$PSVPSCALE
 40
0.0
  9
$OLESTARTUP
290
     0
  0
ENDSEC
  0
SECTION
  2
CLASSES
  0
CLASS
  1
ACDBDICTIONARYWDFLT
  2
AcDbDictionaryWithDefault
  3
ObjectDBX Classes
 90
        0
280
     0
281
     0
  0
CLASS
  1
ACDBPLACEHOLDER
  2
AcDbPlaceHolder
  3
ObjectDBX Classes
 90
        0
280
     0
281
     0
  0
CLASS
  1
LAYOUT
  2
AcDbLayout
  3
ObjectDBX Classes
 90
        0
280
     0
281
     0
  0
CLASS
  1
DIMASSOC
  2
AcDbDimAssoc
  3
"AcDbDimAssoc|Product Desc:     AcDim ARX App For Dimension|Company:          Autodesk, Inc.|WEB Address:      www.autodesk.com"
 90
    32768
280
     0
281
     0
  0
CLASS
  1
DICTIONARYVAR
  2
AcDbDictionaryVar
  3
ObjectDBX Classes
 90
        0
280
     0
281
     0
  0
CLASS
  1
TABLESTYLE
  2
AcDbTableStyle
  3
ObjectDBX Classes
 90
     4095
280
     0
281
     0
  0
CLASS
  1
MATERIAL
  2
AcDbMaterial
  3
ObjectDBX Classes
 90
     1153
280
     0
281
     0
  0
CLASS
  1
VISUALSTYLE
  2
AcDbVisualStyle
  3
ObjectDBX Classes
 90
     4095
280
     0
281
     0
  0
CLASS
  1
SCALE
  2
AcDbScale
  3
ObjectDBX Classes
 90
     1153
280
     0
281
     0
  0
CLASS
  1
MLEADERSTYLE
  2
AcDbMLeaderStyle
  3
ACDB_MLEADERSTYLE_CLASS
 90
     4095
280
     0
281
     0
  0
CLASS
  1
CELLSTYLEMAP
  2
AcDbCellStyleMap
  3
ObjectDBX Classes
 90
     1152
280
     0
281
     0
  0
ENDSEC
  0
SECTION
  2
TABLES
  0
TABLE
  2
VPORT
  5
19
330
0
100
AcDbSymbolTable
 70
     1
  0
VPORT
  5
17A
330
19
100
AcDbSymbolTableRecord
100
AcDbViewportTableRecord
  2
*Active
 70
     0
 10
0.0
 20
0.0
 11
1.0
 21
1.0
 12
0.4231095594410857
 22
0.0589147032691813
 13
0.0
 23
0.0
 14
10.0
 24
10.0
 15
10.0
 25
10.0
 16
0.0
 26
0.0
 36
1.0
 17
0.0
 27
0.0
 37
0.0
 40
2.788123392260874
 41
1.645464025026068
 42
50.0
 43
0.0
 44
0.0
 50
0.0
 51
0.0
 71
     0
 72
   100
 73
     1
 74
     2
 75
     0
 76
     0
 77
     0
 78
     0
281
     0
 65
     1
110
0.0
120
0.0
130
0.0
111
1.0
121
0.0
131
0.0
112
0.0
122
1.0
132
0.0
 79
     0
146
0.0
  0
ENDTAB
  0
TABLE
  2
LTYPE
  5
14
330
0
100
AcDbSymbolTable
 70
     1
  0
LTYPE
  5
15
330
14
100
AcDbSymbolTableRecord
100
AcDbLinetypeTableRecord
  2
ByBlock
 70
     0
  3

 72
    65
 73
     0
 40
0.0
  0
LTYPE
  5
16
330
14
100
AcDbSymbolTableRecord
100
AcDbLinetypeTableRecord
  2
ByLayer
 70
     0
  3

 72
    65
 73
     0
 40
0.0
  0
LTYPE
  5
8
330
14
100
AcDbSymbolTableRecord
100
AcDbLinetypeTableRecord
  2
Continuous
 70
     0
  3
Solid line
 72
    65
 73
     0
 40
0.0
  0
ENDTAB
  0
TABLE
  2
LAYER
  5
10
330
0
100
AcDbSymbolTable
 70
     2
  0
LAYER
  5
4
102
{ACAD_XDICTIONARY
360
1C6
102
}
330
10
100
AcDbSymbolTableRecord
100
AcDbLayerTableRecord
  2
0
 70
     0
 62
     7
  6
Continuous
370
    -3
390
5
  0
LAYER
  5
24
102
{ACAD_XDICTIONARY
360
1C8
102
}
330
10
100
AcDbSymbolTableRecord
100
AcDbLayerTableRecord
  2
BLOCKS
 70
     0
 62
     3
  6
Continuous
370
    -3
390
5
  0
ENDTAB
  0
TABLE
  2
STYLE
  5
11
330
0
100
AcDbSymbolTable
 70
     2
  0
STYLE
  5
12
330
11
100
AcDbSymbolTableRecord
100
AcDbTextStyleTableRecord
  2
Standard
 70
     0
 40
0.0
 41
1.0
 50
0.0
 71
     0
 42
2.5
  3
txt
  4

  0
STYLE
  5
1F
330
11
100
AcDbSymbolTableRecord
100
AcDbTextStyleTableRecord
  2
SANINDUSA
 70
     0
 40
0.0
 41
1.0
 50
0.0
 71
     0
 42
2.5
  3
zurchn.ttf
  4

1001
ACAD
1000
Zurich BT
1071
       34
  0
ENDTAB
  0
TABLE
  2
VIEW
  5
17
330
0
100
AcDbSymbolTable
 70
     0
  0
ENDTAB
  0
TABLE
  2
UCS
  5
18
330
0
100
AcDbSymbolTable
 70
     0
  0
ENDTAB
  0
TABLE
  2
APPID
  5
1B
330
0
100
AcDbSymbolTable
 70
     2
  0
APPID
  5
1C
330
1B
100
AcDbSymbolTableRecord
100
AcDbRegAppTableRecord
  2
ACAD
 70
     0
  0
APPID
  5
201
330
1B
100
AcDbSymbolTableRecord
100
AcDbRegAppTableRecord
  2
ACAD_MLEADERVER
 70
     0
  0
ENDTAB
  0
TABLE
  2
DIMSTYLE
  5
1D
330
0
100
AcDbSymbolTable
 70
     1
100
AcDbDimStyleTable
 71
     1
340
1E
  0
DIMSTYLE
105
1E
330
1D
100
AcDbSymbolTableRecord
100
AcDbDimStyleTableRecord
  2
SANINDUSA
 70
     0
 41
3.0
 42
1.0
 43
1.0
 44
1.0
 73
     0
 74
     0
 77
     1
 78
     8
140
2.0
141
0.0
143
0.03937007874016
147
1.0
171
     3
172
     1
176
     1
177
     1
178
     1
179
     1
271
     1
272
     1
274
     3
278
    44
283
     0
284
     8
340
1F
371
    -1
372
    -1
  0
ENDTAB
  0
TABLE
  2
BLOCK_RECORD
  5
1
330
0
100
AcDbSymbolTable
 70
     3
  0
BLOCK_RECORD
  5
2
330
1
100
AcDbSymbolTableRecord
100
AcDbBlockTableRecord
  2
*Model_Space
340
A
  0
BLOCK_RECORD
  5
C
330
1
100
AcDbSymbolTableRecord
100
AcDbBlockTableRecord
  2
*Paper_Space
340
F
  0
BLOCK_RECORD
  5
37
330
1
100
AcDbSymbolTableRecord
100
AcDbBlockTableRecord
  2
107102AL
340
0
102
{BLKREFS
331
40
102
}
1001
ACAD
1000
DesignCenter Data
1002
{
1070
     1
1070
     4
1002
}
  0
BLOCK_RECORD
  5
41
330
1
100
AcDbSymbolTableRecord
100
AcDbBlockTableRecord
  2
107102CT
340
0
102
{BLKREFS
331
6F
102
}
1001
ACAD
1000
DesignCenter Data
1002
{
1070
     1
1070
     4
1002
}
  0
BLOCK_RECORD
  5
70
330
1
100
AcDbSymbolTableRecord
100
AcDbBlockTableRecord
  2
107102PL
340
0
102
{BLKREFS
331
169
102
}
1001
ACAD
1000
DesignCenter Data
1002
{
1070
     1
1070
     4
1002
}
  0
ENDTAB
  0
ENDSEC
  0
SECTION
  2
BLOCKS
  0
BLOCK
  5
3
330
2
100
AcDbEntity
  8
0
100
AcDbBlockBegin
  2
*Model_Space
 70
     0
 10
0.0
 20
0.0
 30
0.0
  3
*Model_Space
  1

  0
ENDBLK
  5
9
330
2
100
AcDbEntity
  8
0
100
AcDbBlockEnd
  0
BLOCK
  5
D
330
C
100
AcDbEntity
 67
     1
  8
0
100
AcDbBlockBegin
  2
*Paper_Space
 70
     0
 10
0.0
 20
0.0
 30
0.0
  3
*Paper_Space
  1

  0
ENDBLK
  5
E
330
C
100
AcDbEntity
 67
     1
  8
0
100
AcDbBlockEnd
  0
BLOCK
  5
3E
330
37
100
AcDbEntity
  8
0
100
AcDbBlockBegin
  2
107102AL
 70
     0
 10
0.0
 20
0.0
 30
0.0
  3
107102AL
  1

  0
LINE
  5
38
330
37
100
AcDbEntity
  8
BLOCKS
100
AcDbLine
 10
-0.3770946077913777
 20
0.0
 30
0.0
 11
0.3770946077913919
 21
0.0
 31
0.0
  0
LINE
  5
39
330
37
100
AcDbEntity
  8
BLOCKS
100
AcDbLine
 10
-0.3700865136844271
 20
0.1200000000000045
 30
0.0
 11
0.3700865136844271
 21
0.1200000000000045
 31
0.0
  0
LINE
  5
3A
330
37
100
AcDbEntity
  8
BLOCKS
100
AcDbLine
 10
0.3770946077913919
 20
0.0
 30
0.0
 11
0.3750857521602029
 21
0.1150872620321479
 31
0.0
  0
ARC
  5
3B
330
37
100
AcDbEntity
  8
BLOCKS
100
AcDbCircle
 10
0.3700865136844271
 20
0.1150000000000091
 30
0.0
 40
0.0050000000000001
100
AcDbArc
 50
1.000000000001755
 51
90.0
  0
LINE
  5
3C
330
37
100
AcDbEntity
  8
BLOCKS
100
AcDbLine
 10
-0.3750857521602029
 20
0.1150872620321479
 30
0.0
 11
-0.3770946077913777
 21
0.0
 31
0.0
  0
ARC
  5
3D
330
37
100
AcDbEntity
  8
BLOCKS
100
AcDbCircle
 10
-0.3700865136844271
 20
0.1150000000000091
 30
0.0
 40
0.005
100
AcDbArc
 50
90.0
 51
179.0000000000047
  0
ENDBLK
  5
3F
330
37
100
AcDbEntity
  8
0
100
AcDbBlockEnd
  0
BLOCK
  5
6D
330
41
100
AcDbEntity
  8
0
100
AcDbBlockBegin
  2
107102CT
 70
     0
 10
0.0
 20
0.0
 30
0.0
  3
107102CT
  1

  0
ARC
  5
42
330
41
100
AcDbEntity
  8
BLOCKS
100
AcDbCircle
 10
0.7412849378971061
 20
0.1090000000000373
 30
0.0
 40
0.003
100
AcDbArc
 50
1.000000000001775
 51
90.0
  0
ARC
  5
43
330
41
100
AcDbEntity
  8
BLOCKS
100
AcDbCircle
 10
0.7471811214758049
 20
0.1150000000000091
 30
0.0
 40
0.005
100
AcDbArc
 50
1.000000000001775
 51
90.0
  0
ARC
  5
44
330
41
100
AcDbEntity
  8
BLOCKS
100
AcDbCircle
 10
0.7097516536584863
 20
0.1019999999999754
 30
0.0
 40
0.018
100
AcDbArc
 50
90.0
 51
168.2578306283099
  0
ARC
  5
45
330
41
100
AcDbEntity
  8
BLOCKS
100
AcDbCircle
 10
0.7097516536584863
 20
0.1019999999999754
 30
0.0
 40
0.01
100
AcDbArc
 50
90.0
 51
168.2578306283099
  0
LINE
  5
46
330
41
100
AcDbEntity
  8
BLOCKS
100
AcDbLine
 10
0.6879786923207405
 20
0.085699284879297
 30
0.0
 11
0.6921283343465206
 21
0.1056631429713661
 31
0.0
  0
LINE
  5
47
330
41
100
AcDbEntity
  8
BLOCKS
100
AcDbLine
 10
0.6999609207073974
 20
0.1040350794285132
 30
0.0
 11
0.6956486484515523
 21
0.0834251316409791
 31
0.0
  0
LINE
  5
48
330
41
100
AcDbEntity
  8
BLOCKS
100
AcDbLine
 10
0.7097516536584863
 20
0.1119999999999663
 30
0.0
 11
0.7412849378971061
 21
0.1119999999999663
 31
0.0
  0
LINE
  5
49
330
41
100
AcDbEntity
  8
BLOCKS
100
AcDbLine
 10
0.7541892155827697
 20
0.0
 30
0.0
 11
0.7521803599515807
 21
0.1150872620321479
 31
0.0
  0
LINE
  5
4A
330
41
100
AcDbEntity
  8
BLOCKS
100
AcDbLine
 10
0.7461904340215142
 20
-0.0001396192515131
 30
0.0
 11
0.7442844809825857
 21
0.1090523572192978
 31
0.0
  0
LINE
  5
4B
330
41
100
AcDbEntity
  8
BLOCKS
100
AcDbLine
 10
0.6399089859638565
 20
0.1076047226649734
 30
0.0
 11
0.635939846051528
 21
0.0850946116406704
 31
0.0
  0
ARC
  5
4C
330
41
100
AcDbEntity
  8
BLOCKS
100
AcDbCircle
 10
0.5965475359310375
 20
0.0920405387473693
 30
0.0
 40
0.04
100
AcDbArc
 50
271.0000000000001
 51
350.0000000000014
  0
LINE
  5
4D
330
41
100
AcDbEntity
  8
BLOCKS
100
AcDbLine
 10
0.188386334008257
 20
0.0298547825594824
 30
0.0
 11
0.1918800746937279
 21
0.0334726569477653
 31
0.0
  0
ARC
  5
4E
330
41
100
AcDbEntity
  8
BLOCKS
100
AcDbCircle
 10
0.1905443534092797
 20
0.0277708074480643
 30
0.0
 40
0.003
100
AcDbArc
 50
135.9999999999986
 51
181.0000000000017
  0
ARC
  5
4F
330
41
100
AcDbEntity
  8
BLOCKS
100
AcDbCircle
 10
0.1940380940947364
 20
0.0313886818364608
 30
0.0
 40
0.003
100
AcDbArc
 50
91.00000000000013
 51
135.9999999999992
  0
LINE
  5
50
330
41
100
AcDbEntity
  8
BLOCKS
100
AcDbLine
 10
0.1794665095046923
 20
0.0321344862093156
 30
0.0
 11
0.189290462391881
 21
0.0423074872253437
 31
0.0
  0
LINE
  5
51
330
41
100
AcDbEntity
  8
BLOCKS
100
AcDbLine
 10
0.180027419047903
 20
0.0
 30
0.0
 11
0.1794665095046923
 21
0.0321344862093156
 31
0.0
  0
LINE
  5
52
330
41
100
AcDbEntity
  8
BLOCKS
100
AcDbLine
 10
0.1880262006091584
 20
0.0001396192515131
 30
0.0
 11
0.1875448103238
 21
0.0277184502288037
 31
0.0
  0
LINE
  5
53
330
41
100
AcDbEntity
  8
BLOCKS
100
AcDbLine
 10
0.1517703955449576
 20
0.0416525720223717
 30
0.0
 11
0.6427589038293178
 21
0.0528410680526577
 31
0.0
  0
LINE
  5
54
330
41
100
AcDbEntity
  8
BLOCKS
100
AcDbLine
 10
0.1939857368754332
 20
0.0343882249219405
 30
0.0
 11
0.6428985230808167
 21
0.0448422864914164
 31
0.0
  0
ARC
  5
55
330
41
100
AcDbEntity
  8
BLOCKS
100
AcDbCircle
 10
0.6546811022590476
 20
0.1050000000000182
 30
0.0
 40
0.015
100
AcDbArc
 50
90.0
 51
169.9999999999949
  0
ARC
  5
56
330
41
100
AcDbEntity
  8
BLOCKS
100
AcDbCircle
 10
0.6439435835131491
 20
0.0987557592042094
 30
0.0
 40
0.0459299720171124
100
AcDbArc
 50
268.5219961707626
 51
343.4848325846513
  0
ARC
  5
57
330
41
100
AcDbEntity
  8
BLOCKS
100
AcDbCircle
 10
0.6439435835131491
 20
0.0987557592042094
 30
0.0
 40
0.0539299720171124
100
AcDbArc
 50
268.5219961707626
 51
343.4848325846513
  0
ARC
  5
58
330
41
100
AcDbEntity
  8
BLOCKS
100
AcDbCircle
 10
0.0445081133237295
 20
0.1050000000000182
 30
0.0
 40
0.007
100
AcDbArc
 50
9.999999999998609
 51
90.0
  0
ARC
  5
59
330
41
100
AcDbEntity
  8
BLOCKS
100
AcDbCircle
 10
0.0129042776856636
 20
0.1090000000000373
 30
0.0
 40
0.003
100
AcDbArc
 50
90.0
 51
178.9999999999982
  0
LINE
  5
5A
330
41
100
AcDbEntity
  8
BLOCKS
100
AcDbLine
 10
0.0129042776856636
 20
0.1119999999999663
 30
0.0
 11
0.0445081133237295
 21
0.1119999999999663
 31
0.0
  0
ARC
  5
5B
330
41
100
AcDbEntity
  8
BLOCKS
100
AcDbCircle
 10
0.0445081133237295
 20
0.1050000000000182
 30
0.0
 40
0.015
100
AcDbArc
 50
9.999999999998609
 51
90.0
  0
LINE
  5
5C
330
41
100
AcDbEntity
  8
BLOCKS
100
AcDbLine
 10
0.1120194978040274
 20
-0.0001396192515131
 30
0.0
 11
0.111556385491923
 21
0.0263920673395433
 31
0.0
  0
LINE
  5
5D
330
41
100
AcDbEntity
  8
BLOCKS
100
AcDbLine
 10
0.1194756477952978
 20
0.0310873418230813
 30
0.0
 11
0.1093026467793692
 21
0.0409112947103267
 31
0.0
  0
LINE
  5
5E
330
41
100
AcDbEntity
  8
BLOCKS
100
AcDbLine
 10
0.1106408175178188
 20
0.0284977295212912
 30
0.0
 11
0.1070196075243928
 21
0.0319946913631384
 31
0.0
  0
ARC
  5
5F
330
41
100
AcDbEntity
  8
BLOCKS
100
AcDbCircle
 10
0.1085568424064434
 20
0.0263397101202827
 30
0.0
 40
0.003
100
AcDbArc
 50
1.000000000001775
 51
45.99999999999869
  0
ARC
  5
60
330
41
100
AcDbEntity
  8
BLOCKS
100
AcDbCircle
 10
0.1049356324130173
 20
0.0298366719621299
 30
0.0
 40
0.003
100
AcDbArc
 50
45.99999999999869
 51
90.35028892218361
  0
ARC
  5
61
330
41
100
AcDbEntity
  8
BLOCKS
100
AcDbCircle
 10
0.1046237892927593
 20
0.0808433436504856
 30
0.0
 40
0.0400076249482087
100
AcDbArc
 50
190.0093257866792
 51
270.9906742133171
  0
LINE
  5
62
330
41
100
AcDbEntity
  8
BLOCKS
100
AcDbLine
 10
0.1200182793652686
 20
0.0
 30
0.0
 11
0.1194756477952978
 21
0.0310873418230813
 31
0.0
  0
ARC
  5
63
330
41
100
AcDbEntity
  8
BLOCKS
100
AcDbCircle
 10
0.1046237892927593
 20
0.0808433436504856
 30
0.0
 40
0.0480076249482087
100
AcDbArc
 50
190.0093257866792
 51
270.3502889221836
  0
LINE
  5
64
330
41
100
AcDbEntity
  8
BLOCKS
100
AcDbLine
 10
0.0652251013601415
 20
0.0738896796390236
 30
0.0
 11
0.0592802296189206
 21
0.1076047226649734
 31
0.0
  0
LINE
  5
65
330
41
100
AcDbEntity
  8
BLOCKS
100
AcDbLine
 10
0.0573466393360462
 20
0.0725004942177066
 30
0.0
 11
0.0514017675948111
 21
0.1062155372436564
 31
0.0
  0
LINE
  5
66
330
41
100
AcDbEntity
  8
BLOCKS
100
AcDbLine
 10
0.0079987815612554
 20
-0.0001396192515131
 30
0.0
 11
0.0099047346001981
 21
0.1090523572192978
 31
0.0
  0
LINE
  5
67
330
41
100
AcDbEntity
  8
BLOCKS
100
AcDbLine
 10
0.105315507738112
 20
0.0408416989395164
 30
0.0
 11
0.1517703955449576
 21
0.0416525720223717
 31
0.0
  0
LINE
  5
68
330
41
100
AcDbEntity
  8
BLOCKS
100
AcDbLine
 10
0.1794665095046923
 20
0.0321344862093156
 30
0.0
 11
0.1194756477952978
 21
0.0310873418230813
 31
0.0
  0
LINE
  5
69
330
41
100
AcDbEntity
  8
BLOCKS
100
AcDbLine
 10
0.0
 20
0.0
 30
0.0
 11
0.7541892155827697
 21
0.0
 31
0.0
  0
LINE
  5
6A
330
41
100
AcDbEntity
  8
BLOCKS
100
AcDbLine
 10
0.0070080941069648
 20
0.1200000000000045
 30
0.0
 11
0.7471811214758049
 21
0.1200000000000045
 31
0.0
  0
LINE
  5
6B
330
41
100
AcDbEntity
  8
BLOCKS
100
AcDbLine
 10
0.0020088556311748
 20
0.1150872620321479
 30
0.0
 11
0.0
 21
0.0
 31
0.0
  0
ARC
  5
6C
330
41
100
AcDbEntity
  8
BLOCKS
100
AcDbCircle
 10
0.0070080941069506
 20
0.1150000000000091
 30
0.0
 40
0.005
100
AcDbArc
 50
90.0
 51
179.0000000000047
  0
ENDBLK
  5
6E
330
41
100
AcDbEntity
  8
0
100
AcDbBlockEnd
  0
BLOCK
  5
167
330
70
100
AcDbEntity
  8
0
100
AcDbBlockBegin
  2
107102PL
 70
     0
 10
0.0
 20
0.0
 30
0.0
  3
107102PL
  1

  0
LINE
  5
71
330
70
100
AcDbEntity
  8
BLOCKS
100
AcDbLine
 10
-0.4899999999999949
 20
-0.7541892155827555
 30
0.0
 11
0.4900000000000091
 21
-0.7541892155827555
 31
0.0
  0
LINE
  5
72
330
70
100
AcDbEntity
  8
BLOCKS
100
AcDbLine
 10
0.4900000000000091
 20
0.0
 30
0.0
 11
-0.4899999999999949
 21
0.0
 31
0.0
  0
CIRCLE
  5
73
330
70
100
AcDbEntity
  8
BLOCKS
100
AcDbCircle
 10
-0.0000009373736276
 20
-0.1494799254888903
 30
0.0
 40
0.0420672177487824
  0
CIRCLE
  5
74
330
70
100
AcDbEntity
  8
BLOCKS
100
AcDbCircle
 10
0.0000004355075021
 20
-0.149655797895889
 30
0.0
 40
0.0299965093711412
  0
LWPOLYLINE
  5
75
330
70
100
AcDbEntity
  8
BLOCKS
100
AcDbPolyline
 90
       10
 70
   128
 43
0.0
 10
0.3956793131760037
 20
-0.1311697610456122
 10
0.3080479909021818
 20
-0.1217021752706842
 10
0.2201936889145344
 20
-0.1145954829702305
 10
0.1321800003144489
 20
-0.1098548283042646
 10
0.0440706335748615
 20
-0.1074836427832224
 10
-0.04407063357489
 20
-0.1074836427832224
 10
-0.1321800003144631
 20
-0.1098548283042646
 10
-0.2201936889145486
 20
-0.1145954829702305
 10
-0.308047990902196
 20
-0.1217021752706842
 10
-0.3956793131760179
 20
-0.1311697610456122
  0
LWPOLYLINE
  5
76
330
70
100
AcDbEntity
  8
BLOCKS
100
AcDbPolyline
 90
       10
 70
   128
 43
0.0
 10
-0.3972564504920228
 20
-0.6435935317001622
 10
-0.309264525006995
 20
-0.6342699695202328
 10
-0.2210572102922157
 20
-0.6272716101707374
 10
-0.1326959388885598
 20
-0.6226033277033594
 10
-0.0442422505610267
 20
-0.6202683733728236
 10
0.0442422505610551
 20
-0.6202683733728236
 10
0.1326959388885882
 20
-0.6226033277033594
 10
0.2210572102922441
 20
-0.6272716101707374
 10
0.3092645250070234
 20
-0.6342699695202328
 10
0.3972564504920513
 20
-0.6435935317001622
  0
ARC
  5
77
330
70
100
AcDbEntity
  8
BLOCKS
100
AcDbCircle
 10
0.0000000000000142
 20
-3.982511274458033
 30
0.0
 40
3.317602288494216
100
AcDbArc
 50
82.52648161619283
 51
97.47351838380716
  0
ARC
  5
78
330
70
100
AcDbEntity
  8
BLOCKS
100
AcDbCircle
 10
0.0000000000000142
 20
-3.982511274458033
 30
0.0
 40
3.302830172199032
100
AcDbArc
 50
82.03641160994314
 51
97.96358839005684
  0
LWPOLYLINE
  5
79
330
70
100
AcDbEntity
  8
BLOCKS
100
AcDbPolyline
 90
       13
 70
   128
 43
0.0
 10
-0.3137229569798166
 20
-0.4666612216776685
 10
-0.3122041169074805
 20
-0.4642550966837007
 10
-0.3103072166929763
 20
-0.4621343071886486
 10
-0.3080776379482586
 20
-0.4603640553189053
 10
-0.3055823294655084
 20
-0.4589938661808901
 10
-0.3029106730232485
 20
-0.4580782600702378
 10
-0.3001228227034858
 20
-0.4576271086231145
 10
-0.29733669602291
 20
-0.4576578819886663
 10
-0.2945945561561274
 20
-0.4581525313294606
 10
-0.2919751926234539
 20
-0.4591007239364444
 10
-0.2895473667238519
 20
-0.4604669553546046
 10
-0.2873654605196805
 20
-0.4622293654585974
 10
-0.2855011308042492
 20
-0.4643249226614899
  0
LWPOLYLINE
  5
7A
330
70
100
AcDbEntity
  8
BLOCKS
100
AcDbPolyline
 90
       13
 70
   128
 43
0.0
 10
-0.2849995232747489
 20
-0.4703823530655882
 10
-0.2865183633470849
 20
-0.472788478059556
 10
-0.2884152635615891
 20
-0.4749092675546081
 10
-0.2906448423063068
 20
-0.4766795194244651
 10
-0.293140150789057
 20
-0.4780497085623665
 10
-0.2958118072313169
 20
-0.4789653146730189
 10
-0.2985996575510796
 20
-0.4794164661202558
 10
-0.3013857842316696
 20
-0.4793856927545903
 10
-0.304127924098438
 20
-0.4788910434137961
 10
-0.3067472876311257
 20
-0.4779428508069259
 10
-0.3091751135307135
 20
-0.4765766193887658
 10
-0.3113570197348849
 20
-0.4748142092846593
 10
-0.3132213494503162
 20
-0.4727186520817668
  0
LWPOLYLINE
  5
7B
330
70
100
AcDbEntity
  8
BLOCKS
100
AcDbPolyline
 90
       13
 70
   128
 43
0.0
 10
-0.3137229569798166
 20
-0.5316513218629098
 10
-0.3122041169074805
 20
-0.529245196868942
 10
-0.3103072166929763
 20
-0.5271244073737762
 10
-0.3080776379482586
 20
-0.5253541555040329
 10
-0.3055823294655084
 20
-0.5239839663661315
 10
-0.3029106730232485
 20
-0.5230683602553654
 10
-0.3001228227034858
 20
-0.5226172088082422
 10
-0.29733669602291
 20
-0.5226479821739077
 10
-0.2945945561561274
 20
-0.5231426315147019
 10
-0.2919751926234539
 20
-0.5240908241215721
 10
-0.2895473667238519
 20
-0.5254570555397322
 10
-0.2873654605196805
 20
-0.5272194656438387
 10
-0.2855011308042492
 20
-0.5293150228466175
  0
LWPOLYLINE
  5
7C
330
70
100
AcDbEntity
  8
BLOCKS
100
AcDbPolyline
 90
       13
 70
   128
 43
0.0
 10
-0.2849995232747489
 20
-0.5353724532507158
 10
-0.2865183633470849
 20
-0.5377785782446836
 10
-0.2884152635615891
 20
-0.5398993677398494
 10
-0.2906448423063068
 20
-0.5416696196095927
 10
-0.293140150789057
 20
-0.5430398087474942
 10
-0.2958118072313169
 20
-0.5439554148582602
 10
-0.2985996575510796
 20
-0.5444065663053835
 10
-0.3013857842316696
 20
-0.544375792939718
 10
-0.304127924098438
 20
-0.5438811435989237
 10
-0.3067472876311257
 20
-0.5429329509920536
 10
-0.3091751135307135
 20
-0.5415667195738934
 10
-0.3113570197348849
 20
-0.5398043094697869
 10
-0.3132213494503162
 20
-0.5377087522670081
  0
LWPOLYLINE
  5
7D
330
70
100
AcDbEntity
  8
BLOCKS
100
AcDbPolyline
 90
       13
 70
   128
 43
0.0
 10
-0.3137229569798166
 20
-0.3366810213074132
 10
-0.3122041169074805
 20
-0.3342748963134454
 10
-0.3103072166929763
 20
-0.3321541068182796
 10
-0.3080776379482586
 20
-0.3303838549485363
 10
-0.3055823294655084
 20
-0.3290136658106348
 10
-0.3029106730232485
 20
-0.3280980596998688
 10
-0.3001228227034858
 20
-0.3276469082527456
 10
-0.29733669602291
 20
-0.327677681618411
 10
-0.2945945561561274
 20
-0.3281723309592053
 10
-0.2919751926234539
 20
-0.3291205235660755
 10
-0.2895473667238519
 20
-0.3304867549842356
 10
-0.2873654605196805
 20
-0.3322491650883421
 10
-0.2855011308042492
 20
-0.3343447222911209
  0
LWPOLYLINE
  5
7E
330
70
100
AcDbEntity
  8
BLOCKS
100
AcDbPolyline
 90
       13
 70
   128
 43
0.0
 10
-0.2849995232747489
 20
-0.3404021526952192
 10
-0.2865183633470849
 20
-0.342808277689187
 10
-0.2884152635615891
 20
-0.3449290671843528
 10
-0.2906448423063068
 20
-0.3466993190540961
 10
-0.293140150789057
 20
-0.3480695081919976
 10
-0.2958118072313169
 20
-0.3489851143027636
 10
-0.2985996575510796
 20
-0.3494362657498868
 10
-0.3013857842316696
 20
-0.3494054923842214
 10
-0.304127924098438
 20
-0.3489108430434271
 10
-0.3067472876311257
 20
-0.3479626504365569
 10
-0.3091751135307135
 20
-0.3465964190183968
 10
-0.3113570197348849
 20
-0.3448340089142903
 10
-0.3132213494503162
 20
-0.3427384517115115
  0
LWPOLYLINE
  5
7F
330
70
100
AcDbEntity
  8
BLOCKS
100
AcDbPolyline
 90
       13
 70
   128
 43
0.0
 10
-0.3137229569798166
 20
-0.4016711214925408
 10
-0.3122041169074805
 20
-0.399264996498573
 10
-0.3103072166929763
 20
-0.3971442070034072
 10
-0.3080776379482586
 20
-0.3953739551336639
 10
-0.3055823294655084
 20
-0.3940037659957625
 10
-0.3029106730232485
 20
-0.3930881598851101
 10
-0.3001228227034858
 20
-0.3926370084378732
 10
-0.29733669602291
 20
-0.3926677818035387
 10
-0.2945945561561274
 20
-0.3931624311443329
 10
-0.2919751926234539
 20
-0.3941106237512031
 10
-0.2895473667238519
 20
-0.3954768551693632
 10
-0.2873654605196805
 20
-0.3972392652734697
 10
-0.2855011308042492
 20
-0.3993348224763622
  0
LWPOLYLINE
  5
80
330
70
100
AcDbEntity
  8
BLOCKS
100
AcDbPolyline
 90
       13
 70
   128
 43
0.0
 10
-0.2849995232747489
 20
-0.4053922528804606
 10
-0.2865183633470849
 20
-0.4077983778744283
 10
-0.2884152635615891
 20
-0.4099191673694805
 10
-0.2906448423063068
 20
-0.4116894192392238
 10
-0.293140150789057
 20
-0.4130596083772389
 10
-0.2958118072313169
 20
-0.4139752144878912
 10
-0.2985996575510796
 20
-0.4144263659350145
 10
-0.3013857842316696
 20
-0.4143955925694627
 10
-0.304127924098438
 20
-0.4139009432286685
 10
-0.3067472876311257
 20
-0.4129527506216846
 10
-0.3091751135307135
 20
-0.4115865192035244
 10
-0.3113570197348849
 20
-0.4098241090995316
 10
-0.3132213494503162
 20
-0.4077285518966392
  0
LWPOLYLINE
  5
81
330
70
100
AcDbEntity
  8
BLOCKS
100
AcDbPolyline
 90
       13
 70
   128
 43
0.0
 10
-0.3137229569798166
 20
-0.2716909211221719
 10
-0.3122041169074805
 20
-0.2692847961282041
 10
-0.3103072166929763
 20
-0.267164006633152
 10
-0.3080776379482586
 20
-0.2653937547634086
 10
-0.3055823294655084
 20
-0.2640235656253935
 10
-0.3029106730232485
 20
-0.2631079595147412
 10
-0.3001228227034858
 20
-0.2626568080676179
 10
-0.29733669602291
 20
-0.2626875814331697
 10
-0.2945945561561274
 20
-0.263182230773964
 10
-0.2919751926234539
 20
-0.2641304233809478
 10
-0.2895473667238519
 20
-0.265496654799108
 10
-0.2873654605196805
 20
-0.2672590649031008
 10
-0.2855011308042492
 20
-0.2693546221059933
  0
LWPOLYLINE
  5
82
330
70
100
AcDbEntity
  8
BLOCKS
100
AcDbPolyline
 90
       13
 70
   128
 43
0.0
 10
-0.2849995232747489
 20
-0.2754120525100916
 10
-0.2865183633470849
 20
-0.2778181775040593
 10
-0.2884152635615891
 20
-0.2799389669991115
 10
-0.2906448423063068
 20
-0.2817092188689685
 10
-0.293140150789057
 20
-0.2830794080068699
 10
-0.2958118072313169
 20
-0.2839950141175222
 10
-0.2985996575510796
 20
-0.2844461655647592
 10
-0.3013857842316696
 20
-0.2844153921990937
 10
-0.304127924098438
 20
-0.2839207428582995
 10
-0.3067472876311257
 20
-0.2829725502514293
 10
-0.3091751135307135
 20
-0.2816063188332691
 10
-0.3113570197348849
 20
-0.2798439087291626
 10
-0.3132213494503162
 20
-0.2777483515262702
  0
ARC
  5
83
330
70
100
AcDbEntity
  8
BLOCKS
100
AcDbCircle
 10
0.0000000000000142
 20
-3.37251127445802
 30
0.0
 40
3.313231044839148
100
AcDbArc
 50
82.47102359957677
 51
97.52897640042323
  0
ARC
  5
84
330
70
100
AcDbEntity
  8
BLOCKS
100
AcDbCircle
 10
0.0000000000000142
 20
-3.37251127445802
 30
0.0
 40
3.32800316113433
100
AcDbArc
 50
82.09703456581715
 51
97.90296543418286
  0
LINE
  5
85
330
70
100
AcDbEntity
  8
BLOCKS
100
AcDbLine
 10
-0.5020946077913778
 20
-0.0120946077913686
 30
0.0
 11
-0.5020946077913778
 21
-0.7420946077913868
 31
0.0
  0
LINE
  5
86
330
70
100
AcDbEntity
  8
BLOCKS
100
AcDbLine
 10
-0.4428143781724714
 20
-0.097758299096995
 30
0.0
 11
-0.4428143781724714
 21
-0.6831766893577651
 31
0.0
  0
LINE
  5
87
330
70
100
AcDbEntity
  8
BLOCKS
100
AcDbLine
 10
-0.4575864944676482
 20
-0.7115325606066563
 30
0.0
 11
-0.4575864944676482
 21
-0.0761163283690394
 31
0.0
  0
LINE
  5
88
330
70
100
AcDbEntity
  8
BLOCKS
100
AcDbLine
 10
-0.3956793131759753
 20
-0.1311697610456122
 30
0.0
 11
-0.3972564504920228
 21
-0.6435935317001622
 31
0.0
  0
ARC
  5
89
330
70
100
AcDbEntity
  8
BLOCKS
100
AcDbCircle
 10
-0.4899999999999949
 20
-0.7420946077913868
 30
0.0
 40
0.0120946077913862
100
AcDbArc
 50
180.0
 51
270.0
  0
ARC
  5
8A
330
70
100
AcDbEntity
  8
BLOCKS
100
AcDbCircle
 10
-0.4328143781724663
 20
-0.6831766893577651
 30
0.0
 40
0.01
100
AcDbArc
 50
180.0
 51
277.4735183838072
  0
LWPOLYLINE
  5
8B
330
70
100
AcDbEntity
  8
BLOCKS
100
AcDbPolyline
 90
        5
 70
   128
 43
0.0
 10
-0.3132213494503162
 20
-0.5377087522670081
 10
-0.3141058453750531
 20
-0.5360098094065507
 10
-0.314373510428112
 20
-0.5341105808674911
 10
-0.3140015041182806
 20
-0.5322721562076822
 10
-0.3137229569798166
 20
-0.5316513218629098
  0
LWPOLYLINE
  5
8C
330
70
100
AcDbEntity
  8
BLOCKS
100
AcDbPolyline
 90
        5
 70
   128
 43
0.0
 10
-0.3132213494503162
 20
-0.4727186520817668
 10
-0.3141058453750531
 20
-0.471019709221423
 10
-0.314373510428112
 20
-0.4691204806823635
 10
-0.3140015041182806
 20
-0.4672820560225546
 10
-0.3137229569798166
 20
-0.4666612216776685
  0
LWPOLYLINE
  5
8D
330
70
100
AcDbEntity
  8
BLOCKS
100
AcDbPolyline
 90
        5
 70
   128
 43
0.0
 10
-0.3132213494503162
 20
-0.4077285518966392
 10
-0.3141058453750531
 20
-0.4060296090361817
 10
-0.314373510428112
 20
-0.4041303804972359
 10
-0.3140015041182806
 20
-0.402291955837427
 10
-0.3137229569798166
 20
-0.4016711214925408
  0
LWPOLYLINE
  5
8E
330
70
100
AcDbEntity
  8
BLOCKS
100
AcDbPolyline
 90
        5
 70
   128
 43
0.0
 10
-0.3132213494503162
 20
-0.3427384517115115
 10
-0.3141058453750531
 20
-0.341039508851054
 10
-0.314373510428112
 20
-0.3391402803119945
 10
-0.3140015041182806
 20
-0.3373018556521856
 10
-0.3137229569798166
 20
-0.3366810213074132
  0
LWPOLYLINE
  5
8F
330
70
100
AcDbEntity
  8
BLOCKS
100
AcDbPolyline
 90
        5
 70
   128
 43
0.0
 10
-0.3132213494503162
 20
-0.2777483515262702
 10
-0.3141058453750531
 20
-0.2760494086659264
 10
-0.314373510428112
 20
-0.2741501801268669
 10
-0.3140015041182806
 20
-0.272311755467058
 10
-0.3137229569798166
 20
-0.2716909211221719
  0
ARC
  5
90
330
70
100
AcDbEntity
  8
BLOCKS
100
AcDbCircle
 10
-0.4328143781724663
 20
-0.097758299096995
 30
0.0
 40
0.01
100
AcDbArc
 50
97.52897640042323
 51
180.0
  0
ARC
  5
91
330
70
100
AcDbEntity
  8
BLOCKS
100
AcDbCircle
 10
-0.4899999999999949
 20
-0.0120946077913686
 30
0.0
 40
0.0120946077913862
100
AcDbArc
 50
90.0
 51
180.0
  0
LINE
  5
92
330
70
100
AcDbEntity
  8
BLOCKS
100
AcDbLine
 10
0.4575864944676625
 20
-0.0761163283690394
 30
0.0
 11
0.4575864944676625
 21
-0.7115325606066563
 31
0.0
  0
LINE
  5
93
330
70
100
AcDbEntity
  8
BLOCKS
100
AcDbLine
 10
0.4428143781724856
 20
-0.6831766893577651
 30
0.0
 11
0.4428143781724856
 21
-0.097758299096995
 31
0.0
  0
LINE
  5
94
330
70
100
AcDbEntity
  8
BLOCKS
100
AcDbLine
 10
0.397256450492037
 20
-0.6435935317001622
 30
0.0
 11
0.3956793131759895
 21
-0.1311697610456122
 31
0.0
  0
ARC
  5
95
330
70
100
AcDbEntity
  8
BLOCKS
100
AcDbCircle
 10
0.4328143781724805
 20
-0.6831766893577651
 30
0.0
 40
0.01
100
AcDbArc
 50
262.5264816161928
 51
0.0
  0
LWPOLYLINE
  5
96
330
70
100
AcDbEntity
  8
BLOCKS
100
AcDbPolyline
 90
       13
 70
   128
 43
0.0
 10
0.1057818695982462
 20
-0.4540137746580513
 10
0.1075812119215413
 20
-0.4518094690187127
 10
0.1097212346305412
 20
-0.4499342143019476
 10
0.1121489860949651
 20
-0.4484472317841437
 10
0.1147920071049526
 20
-0.4473895674619826
 10
0.1175549652960939
 20
-0.4468045068991842
 10
0.1203769533745316
 20
-0.4466945585053282
 10
0.1231388053496687
 20
-0.4470627724749648
 10
0.1258007577953464
 20
-0.4478861109270156
 10
0.1282858548236021
 20
-0.4491447683647039
 10
0.1305301464684021
 20
-0.4507951685340004
 10
0.1324823018302084
 20
-0.4528090216082319
 10
0.1340788339948915
 20
-0.4551150762545149
  0
LWPOLYLINE
  5
97
330
70
100
AcDbEntity
  8
BLOCKS
100
AcDbPolyline
 90
       13
 70
   128
 43
0.0
 10
0.1338423825949775
 20
-0.5261787342390108
 10
0.1320430402716823
 20
-0.5283830398783494
 10
0.1299030175626683
 20
-0.5302582945951145
 10
0.1274752660982585
 20
-0.5317452771129183
 10
0.1248322450882568
 20
-0.5328029414350795
 10
0.1220692868971298
 20
-0.5333880019978779
 10
0.1192472988186779
 20
-0.5334979503917339
 10
0.116485446843555
 20
-0.5331297364220973
 10
0.1138234943978631
 20
-0.5323063979700465
 10
0.1113383973696216
 20
-0.5310477405323582
 10
0.1090941057248074
 20
-0.5293973403630617
 10
0.1071419503630153
 20
-0.5273834872888301
 10
0.1055454181983322
 20
-0.5250774326425472
  0
LWPOLYLINE
  5
98
330
70
100
AcDbEntity
  8
BLOCKS
100
AcDbPolyline
 90
       13
 70
   128
 43
0.0
 10
0.1057818695982462
 20
-0.5190038748431789
 10
0.1075812119215413
 20
-0.5167995692038403
 10
0.1097212346305412
 20
-0.5149243144870752
 10
0.1121489860949651
 20
-0.5134373319692714
 10
0.1147920071049526
 20
-0.5123796676472239
 10
0.1175549652960939
 20
-0.5117946070843118
 10
0.1203769533745316
 20
-0.5116846586905695
 10
0.1231388053496687
 20
-0.5120528726600924
 10
0.1258007577953464
 20
-0.5128762111121432
 10
0.1282858548236021
 20
-0.5141348685498315
 10
0.1305301464684021
 20
-0.515785268719128
 10
0.1324823018302084
 20
-0.5177991217933596
 10
0.1340788339948915
 20
-0.5201051764396425
  0
LWPOLYLINE
  5
99
330
70
100
AcDbEntity
  8
BLOCKS
100
AcDbPolyline
 90
       13
 70
   128
 43
0.0
 10
0.1338423825949775
 20
-0.4611886340538831
 10
0.1320430402716823
 20
-0.4633929396932217
 10
0.1299030175626683
 20
-0.4652681944099868
 10
0.1274752660982585
 20
-0.466755176927677
 10
0.1248322450882568
 20
-0.4678128412498382
 10
0.1220692868971298
 20
-0.4683979018127502
 10
0.1192472988186779
 20
-0.4685078502064926
 10
0.116485446843555
 20
-0.4681396362369697
 10
0.1138234943978631
 20
-0.4673162977849188
 10
0.1113383973696216
 20
-0.4660576403472306
 10
0.1090941057248074
 20
-0.464407240177934
 10
0.1071419503630153
 20
-0.4623933871037025
 10
0.1055454181983322
 20
-0.4600873324574195
  0
LWPOLYLINE
  5
9A
330
70
100
AcDbEntity
  8
BLOCKS
100
AcDbPolyline
 90
       13
 70
   128
 43
0.0
 10
0.1057818695982462
 20
-0.3890236744729236
 10
0.1075812119215413
 20
-0.3868193688334713
 10
0.1097212346305412
 20
-0.3849441141168199
 10
0.1121489860949651
 20
-0.3834571315990161
 10
0.1147920071049526
 20
-0.3823994672768549
 10
0.1175549652960939
 20
-0.3818144067139428
 10
0.1203769533745316
 20
-0.3817044583202005
 10
0.1231388053496687
 20
-0.3820726722897234
 10
0.1258007577953464
 20
-0.3828960107418879
 10
0.1282858548236021
 20
-0.3841546681795762
 10
0.1305301464684021
 20
-0.3858050683488727
 10
0.1324823018302084
 20
-0.3878189214231042
 10
0.1340788339948915
 20
-0.3901249760692735
  0
LWPOLYLINE
  5
9B
330
70
100
AcDbEntity
  8
BLOCKS
100
AcDbPolyline
 90
       13
 70
   128
 43
0.0
 10
0.1338423825949775
 20
-0.3961985338686418
 10
0.1320430402716823
 20
-0.3984028395079804
 10
0.1299030175626683
 20
-0.4002780942247455
 10
0.1274752660982585
 20
-0.4017650767425494
 10
0.1248322450882568
 20
-0.4028227410647105
 10
0.1220692868971298
 20
-0.4034078016275089
 10
0.1192472988186779
 20
-0.403517750021365
 10
0.116485446843555
 20
-0.403149536051842
 10
0.1138234943978631
 20
-0.4023261975996775
 10
0.1113383973696216
 20
-0.4010675401619892
 10
0.1090941057248074
 20
-0.3994171399926927
 10
0.1071419503630153
 20
-0.3974032869184611
 10
0.1055454181983322
 20
-0.3950972322722919
  0
LWPOLYLINE
  5
9C
330
70
100
AcDbEntity
  8
BLOCKS
100
AcDbPolyline
 90
       13
 70
   128
 43
0.0
 10
0.1338423825949775
 20
-0.3312084336835142
 10
0.1320430402716823
 20
-0.3334127393228528
 10
0.1299030175626683
 20
-0.3352879940396178
 10
0.1274752660982585
 20
-0.3367749765574217
 10
0.1248322450882568
 20
-0.3378326408795829
 10
0.1220692868971298
 20
-0.3384177014423813
 10
0.1192472988186779
 20
-0.3385276498362373
 10
0.116485446843555
 20
-0.3381594358666007
 10
0.1138234943978631
 20
-0.3373360974145498
 10
0.1113383973696216
 20
-0.3360774399768616
 10
0.1090941057248074
 20
-0.334427039807565
 10
0.1071419503630153
 20
-0.3324131867333335
 10
0.1055454181983322
 20
-0.3301071320870506
  0
LWPOLYLINE
  5
9D
330
70
100
AcDbEntity
  8
BLOCKS
100
AcDbPolyline
 90
       13
 70
   128
 43
0.0
 10
0.1057818695982462
 20
-0.3240335742876823
 10
0.1075812119215413
 20
-0.3218292686483437
 10
0.1097212346305412
 20
-0.3199540139315786
 10
0.1121489860949651
 20
-0.3184670314137747
 10
0.1147920071049526
 20
-0.3174093670917273
 10
0.1175549652960939
 20
-0.3168243065288152
 10
0.1203769533745316
 20
-0.3167143581350729
 10
0.1231388053496687
 20
-0.3170825721045958
 10
0.1258007577953464
 20
-0.3179059105566466
 10
0.1282858548236021
 20
-0.3191645679943349
 10
0.1305301464684021
 20
-0.3208149681636314
 10
0.1324823018302084
 20
-0.3228288212378629
 10
0.1340788339948915
 20
-0.3251348758841459
  0
LWPOLYLINE
  5
9E
330
70
100
AcDbEntity
  8
BLOCKS
100
AcDbPolyline
 90
       13
 70
   128
 43
0.0
 10
0.1057818695982462
 20
-0.2590434741025547
 10
0.1075812119215413
 20
-0.2568391684632161
 10
0.1097212346305412
 20
-0.254963913746451
 10
0.1121489860949651
 20
-0.2534769312286471
 10
0.1147920071049526
 20
-0.252419266906486
 10
0.1175549652960939
 20
-0.2518342063436876
 10
0.1203769533745316
 20
-0.2517242579498315
 10
0.1231388053496687
 20
-0.2520924719194681
 10
0.1258007577953464
 20
-0.252915810371519
 10
0.1282858548236021
 20
-0.2541744678092073
 10
0.1305301464684021
 20
-0.2558248679785038
 10
0.1324823018302084
 20
-0.2578387210527353
 10
0.1340788339948915
 20
-0.2601447756990183
  0
LWPOLYLINE
  5
9F
330
70
100
AcDbEntity
  8
BLOCKS
100
AcDbPolyline
 90
       13
 70
   128
 43
0.0
 10
0.1338423825949775
 20
-0.2662183334983865
 10
0.1320430402716823
 20
-0.2684226391377251
 10
0.1299030175626683
 20
-0.2702978938544902
 10
0.1274752660982585
 20
-0.2717848763721804
 10
0.1248322450882568
 20
-0.2728425406943415
 10
0.1220692868971298
 20
-0.2734276012572536
 10
0.1192472988186779
 20
-0.273537549650996
 10
0.116485446843555
 20
-0.2731693356814731
 10
0.1138234943978631
 20
-0.2723459972294222
 10
0.1113383973696216
 20
-0.2710873397917339
 10
0.1090941057248074
 20
-0.2694369396224374
 10
0.1071419503630153
 20
-0.2674230865482059
 10
0.1055454181983322
 20
-0.2651170319019229
  0
LWPOLYLINE
  5
A0
330
70
100
AcDbEntity
  8
BLOCKS
100
AcDbPolyline
 90
       13
 70
   128
 43
0.0
 10
-0.1341415098003296
 20
-0.3900085127628472
 10
-0.132499462288294
 20
-0.3876846988202942
 10
-0.130494722174987
 20
-0.3856655099385762
 10
-0.1281760040704967
 20
-0.3840136979328008
 10
-0.125612744356701
 20
-0.3827752363731633
 10
-0.1228970420464179
 20
-0.3819999197069137
 10
-0.1200894836028112
 20
-0.3816944754277074
 10
-0.1173087362035545
 20
-0.3818702129042322
 10
-0.1145960660766718
 20
-0.3825069081526635
 10
-0.1120296179903448
 20
-0.3835901418184448
 10
-0.1096762116071659
 20
-0.3850808788527047
 10
-0.1075890171917848
 20
-0.3869544584150617
 10
-0.1058363128711761
 20
-0.3891442049449551
  0
LWPOLYLINE
  5
A1
330
70
100
AcDbEntity
  8
BLOCKS
100
AcDbPolyline
 90
        5
 70
   128
 43
0.0
 10
-0.2855011308042492
 20
-0.5293150228466175
 10
-0.2846166348795123
 20
-0.531013965707075
 10
-0.2843489698264534
 20
-0.5329131942461345
 10
-0.2847209761362848
 20
-0.5347516189059434
 10
-0.2849995232747489
 20
-0.5353724532507158
  0
LWPOLYLINE
  5
A2
330
70
100
AcDbEntity
  8
BLOCKS
100
AcDbPolyline
 90
       13
 70
   128
 43
0.0
 10
-0.2252784745319047
 20
-0.5309440473033647
 10
-0.2268388580649372
 20
-0.5333234495066109
 10
-0.2287722911225103
 20
-0.5354109977671442
 10
-0.2310322669678868
 20
-0.5371422874038672
 10
-0.2335509870993775
 20
-0.5384689627038597
 10
-0.2362381366882289
 20
-0.539338062853858
 10
-0.2390333993358524
 20
-0.5397407617108457
 10
-0.2418185719954664
 20
-0.5396616382787443
 10
-0.2445517112025755
 20
-0.5391194721754573
 10
-0.247154218691918
 20
-0.5381259619872481
 10
-0.2495579599107742
 20
-0.5367178002082938
 10
-0.2517089404998671
 20
-0.5349177874998077
 10
-0.2535366087418538
 20
-0.5327901895941523
  0
LWPOLYLINE
  5
A3
330
70
100
AcDbEntity
  8
BLOCKS
100
AcDbPolyline
 90
        5
 70
   128
 43
0.0
 10
-0.2535366087418538
 20
-0.5327901895941523
 10
-0.2543914763682977
 20
-0.5310761518090886
 10
-0.2546261289345182
 20
-0.5291725639476681
 10
-0.2542222621185886
 20
-0.5273408726394564
 10
-0.2539329787557705
 20
-0.5267249661652614
  0
LWPOLYLINE
  5
A4
330
70
100
AcDbEntity
  8
BLOCKS
100
AcDbPolyline
 90
       13
 70
   128
 43
0.0
 10
-0.2539329787557705
 20
-0.46173486598002
 10
-0.252372595222738
 20
-0.4593554637767739
 10
-0.2504391621651649
 20
-0.4572679155162405
 10
-0.2481791863197884
 20
-0.4555366258795175
 10
-0.2456604661882977
 20
-0.4542099505796387
 10
-0.2429733165994463
 20
-0.4533408504295267
 10
-0.2401780539518228
 20
-0.4529381515725391
 10
-0.2373928812922088
 20
-0.4530172750046404
 10
-0.2346597420850998
 20
-0.4535594411079274
 10
-0.2320572345957572
 20
-0.4545529512962503
 10
-0.229653493376901
 20
-0.4559611130752046
 10
-0.2275025127878081
 20
-0.457761125783577
 10
-0.2256748445458214
 20
-0.4598887236892324
  0
LWPOLYLINE
  5
A5
330
70
100
AcDbEntity
  8
BLOCKS
100
AcDbPolyline
 90
       13
 70
   128
 43
0.0
 10
-0.2252784745319047
 20
-0.465953947118237
 10
-0.2268388580649372
 20
-0.4683333493214832
 10
-0.2287722911225103
 20
-0.4704208975820166
 10
-0.2310322669678868
 20
-0.4721521872187396
 10
-0.2335509870993775
 20
-0.4734788625186184
 10
-0.2362381366882289
 20
-0.4743479626686167
 10
-0.2390333993358524
 20
-0.474750661525718
 10
-0.2418185719954664
 20
-0.4746715380936167
 10
-0.2445517112025755
 20
-0.4741293719903297
 10
-0.247154218691918
 20
-0.4731358618020068
 10
-0.2495579599107742
 20
-0.4717277000230525
 10
-0.2517089404998671
 20
-0.4699276873146801
 10
-0.2535366087418538
 20
-0.467800089408911
  0
LWPOLYLINE
  5
A6
330
70
100
AcDbEntity
  8
BLOCKS
100
AcDbPolyline
 90
       13
 70
   128
 43
0.0
 10
-0.2539329787557705
 20
-0.5267249661652614
 10
-0.252372595222738
 20
-0.5243455639619015
 10
-0.2504391621651649
 20
-0.5222580157014818
 10
-0.2481791863197884
 20
-0.5205267260646452
 10
-0.2456604661882977
 20
-0.5192000507647663
 10
-0.2429733165994463
 20
-0.518330950614768
 10
-0.2401780539518228
 20
-0.5179282517576667
 10
-0.237392881292223
 20
-0.5180073751897681
 10
-0.2346597420850998
 20
-0.518549541293055
 10
-0.2320572345957572
 20
-0.519543051481378
 10
-0.229653493376901
 20
-0.5209512132603323
 10
-0.2275025127878081
 20
-0.5227512259687046
 10
-0.2256748445458214
 20
-0.5248788238744737
  0
LWPOLYLINE
  5
A7
330
70
100
AcDbEntity
  8
BLOCKS
100
AcDbPolyline
 90
        5
 70
   128
 43
0.0
 10
-0.2855011308042492
 20
-0.4643249226614899
 10
-0.2846166348795123
 20
-0.4660238655218337
 10
-0.2843489698264534
 20
-0.4679230940608932
 10
-0.2847209761362848
 20
-0.4697615187207021
 10
-0.2849995232747489
 20
-0.4703823530655882
  0
LWPOLYLINE
  5
A8
330
70
100
AcDbEntity
  8
BLOCKS
100
AcDbPolyline
 90
        5
 70
   128
 43
0.0
 10
-0.2535366087418538
 20
-0.467800089408911
 10
-0.2543914763682977
 20
-0.4660860516239609
 10
-0.2546261289345182
 20
-0.4641824637624268
 10
-0.2542222621185886
 20
-0.4623507724542151
 10
-0.2539329787557705
 20
-0.46173486598002
  0
LWPOLYLINE
  5
A9
330
70
100
AcDbEntity
  8
BLOCKS
100
AcDbPolyline
 90
        5
 70
   128
 43
0.0
 10
-0.2256748445458214
 20
-0.5248788238744737
 10
-0.2248199769193775
 20
-0.5265928616594238
 10
-0.224585324353157
 20
-0.5284964495209579
 10
-0.2249891911690867
 20
-0.5303281408291696
 10
-0.2252784745319047
 20
-0.5309440473033647
  0
LWPOLYLINE
  5
AA
330
70
100
AcDbEntity
  8
BLOCKS
100
AcDbPolyline
 90
        5
 70
   128
 43
0.0
 10
-0.2256748445458214
 20
-0.4598887236892324
 10
-0.2248199769193775
 20
-0.4616027614742962
 10
-0.224585324353157
 20
-0.4635063493358303
 10
-0.2249891911690867
 20
-0.465338040644042
 10
-0.2252784745319047
 20
-0.465953947118237
  0
LWPOLYLINE
  5
AB
330
70
100
AcDbEntity
  8
BLOCKS
100
AcDbPolyline
 90
       13
 70
   128
 43
0.0
 10
-0.2539329787557705
 20
-0.3967447657948924
 10
-0.252372595222738
 20
-0.3943653635916462
 10
-0.2504391621651649
 20
-0.3922778153311128
 10
-0.2481791863197884
 20
-0.3905465256943898
 10
-0.2456604661882977
 20
-0.3892198503943973
 10
-0.2429733165994463
 20
-0.388350750244399
 10
-0.2401780539518228
 20
-0.3879480513874114
 10
-0.2373928812922088
 20
-0.3880271748195128
 10
-0.2346597420850998
 20
-0.3885693409227997
 10
-0.2320572345957572
 20
-0.389562851111009
 10
-0.229653493376901
 20
-0.3909710128899633
 10
-0.2275025127878081
 20
-0.3927710255983356
 10
-0.2256748445458214
 20
-0.3948986235041047
  0
LWPOLYLINE
  5
AC
330
70
100
AcDbEntity
  8
BLOCKS
100
AcDbPolyline
 90
       13
 70
   128
 43
0.0
 10
-0.2252784745319047
 20
-0.4009638469329957
 10
-0.2268388580649372
 20
-0.4033432491363556
 10
-0.2287722911225103
 20
-0.4054307973967753
 10
-0.2310322669678868
 20
-0.4071620870336119
 10
-0.2335509870993775
 20
-0.4084887623334908
 10
-0.2362381366882289
 20
-0.4093578624834891
 10
-0.2390333993358524
 20
-0.4097605613405904
 10
-0.2418185719954664
 20
-0.4096814379083753
 10
-0.2445517112025755
 20
-0.4091392718052021
 10
-0.247154218691918
 20
-0.4081457616168791
 10
-0.2495579599107742
 20
-0.4067375998379248
 10
-0.2517089404998671
 20
-0.4049375871295525
 10
-0.2535366087418538
 20
-0.4028099892237833
  0
LWPOLYLINE
  5
AD
330
70
100
AcDbEntity
  8
BLOCKS
100
AcDbPolyline
 90
        5
 70
   128
 43
0.0
 10
-0.2855011308042492
 20
-0.3993348224763622
 10
-0.2846166348795123
 20
-0.401033765336706
 10
-0.2843489698264534
 20
-0.4029329938757656
 10
-0.2847209761362848
 20
-0.4047714185355745
 10
-0.2849995232747489
 20
-0.4053922528804606
  0
LWPOLYLINE
  5
AE
330
70
100
AcDbEntity
  8
BLOCKS
100
AcDbPolyline
 90
        5
 70
   128
 43
0.0
 10
-0.2535366087418538
 20
-0.4028099892237833
 10
-0.2543914763682977
 20
-0.4010959514388333
 10
-0.2546261289345182
 20
-0.3991923635772991
 10
-0.2542222621185886
 20
-0.3973606722690874
 10
-0.2539329787557705
 20
-0.3967447657948924
  0
LWPOLYLINE
  5
AF
330
70
100
AcDbEntity
  8
BLOCKS
100
AcDbPolyline
 90
        5
 70
   128
 43
0.0
 10
-0.2256748445458214
 20
-0.3948986235041047
 10
-0.2248199769193775
 20
-0.3966126612891685
 10
-0.224585324353157
 20
-0.3985162491505889
 10
-0.2249891911690867
 20
-0.4003479404588007
 10
-0.2252784745319047
 20
-0.4009638469329957
  0
LWPOLYLINE
  5
B0
330
70
100
AcDbEntity
  8
BLOCKS
100
AcDbPolyline
 90
       13
 70
   128
 43
0.0
 10
-0.1940664831948453
 20
-0.3928568390367673
 10
-0.1924650263897263
 20
-0.3905048766067693
 10
-0.1904956430882691
 20
-0.3884511986194639
 10
-0.1882059511381868
 20
-0.3867593929032864
 10
-0.1856645783210524
 20
-0.3854766312068705
 10
-0.1829627453013387
 20
-0.3846542989025465
 10
-0.1801609126192005
 20
-0.384300173980364
 10
-0.1773775332334821
 20
-0.3844276236368387
 10
-0.174654218259775
 20
-0.3850171431322451
 10
-0.1720693510243763
 20
-0.386055671528652
 10
-0.1696904188028867
 20
-0.3875053393486496
 10
-0.1675710119814227
 20
-0.3893424122654778
 10
-0.165780555942078
 20
-0.391501409767443
  0
LWPOLYLINE
  5
B1
330
70
100
AcDbEntity
  8
BLOCKS
100
AcDbPolyline
 90
       13
 70
   128
 43
0.0
 10
-0.165489542881474
 20
-0.3975725985942517
 10
-0.167090999686593
 20
-0.3999245610243633
 10
-0.1690603829880501
 20
-0.4019782390116689
 10
-0.1713500749381325
 20
-0.4036700447278463
 10
-0.1738914477552669
 20
-0.4049528064241486
 10
-0.1765932807749664
 20
-0.4057751387285862
 10
-0.1793951134571188
 20
-0.4061292636507688
 10
-0.1821784928428371
 20
-0.4060018139942941
 10
-0.1849018078165301
 20
-0.405412294498774
 10
-0.1874866750519288
 20
-0.4043737661024807
 10
-0.1898656072734326
 20
-0.4029240982824831
 10
-0.1919850140948966
 20
-0.4010870253655412
 10
-0.1937754701342413
 20
-0.398928027863576
  0
LWPOLYLINE
  5
B2
330
70
100
AcDbEntity
  8
BLOCKS
100
AcDbPolyline
 90
       13
 70
   128
 43
0.0
 10
-0.1940664831948453
 20
-0.4578469392220086
 10
-0.1924650263897263
 20
-0.455494976791897
 10
-0.1904956430882691
 20
-0.4534412988045915
 10
-0.1882059511381868
 20
-0.4517494930884141
 10
-0.1856645783210524
 20
-0.4504667313921118
 10
-0.1829627453013387
 20
-0.4496443990876742
 10
-0.1801609126192005
 20
-0.4492902741654916
 10
-0.1773775332334821
 20
-0.4494177238219664
 10
-0.174654218259775
 20
-0.4500072433174865
 10
-0.1720693510243763
 20
-0.4510457717137797
 10
-0.1696904188028867
 20
-0.4524954395337773
 10
-0.1675710119814227
 20
-0.4543325124507192
 10
-0.165780555942078
 20
-0.4564915099526843
  0
LWPOLYLINE
  5
B3
330
70
100
AcDbEntity
  8
BLOCKS
100
AcDbPolyline
 90
       13
 70
   128
 43
0.0
 10
-0.165489542881474
 20
-0.4625626987794931
 10
-0.167090999686593
 20
-0.464914661209491
 10
-0.1690603829880501
 20
-0.4669683391967965
 10
-0.1713500749381325
 20
-0.468660144912974
 10
-0.1738914477552669
 20
-0.4699429066093899
 10
-0.1765932807749664
 20
-0.4707652389137138
 10
-0.1793951134571188
 20
-0.4711193638358964
 10
-0.1821784928428371
 20
-0.4709919141794217
 10
-0.1849018078165301
 20
-0.4704023946840153
 10
-0.1874866750519288
 20
-0.4693638662876083
 10
-0.1898656072734326
 20
-0.4679141984676108
 10
-0.1919850140948966
 20
-0.4660771255506689
 10
-0.1937754701342413
 20
-0.4639181280488174
  0
LWPOLYLINE
  5
B4
330
70
100
AcDbEntity
  8
BLOCKS
100
AcDbPolyline
 90
       13
 70
   128
 43
0.0
 10
-0.1940664831948453
 20
-0.5228370394071363
 10
-0.1924650263897263
 20
-0.5204850769771383
 10
-0.1904956430882691
 20
-0.5184313989898329
 10
-0.1882059511381868
 20
-0.5167395932735417
 10
-0.1856645783210524
 20
-0.5154568315772395
 10
-0.1829627453013387
 20
-0.5146344992728018
 10
-0.1801609126192005
 20
-0.514280374350733
 10
-0.1773775332334821
 20
-0.5144078240072077
 10
-0.174654218259775
 20
-0.5149973435026141
 10
-0.1720693510243763
 20
-0.5160358718989074
 10
-0.1696904188028867
 20
-0.5174855397189049
 10
-0.1675710119814227
 20
-0.5193226126358468
 10
-0.165780555942078
 20
-0.521481610137812
  0
LWPOLYLINE
  5
B5
330
70
100
AcDbEntity
  8
BLOCKS
100
AcDbPolyline
 90
       13
 70
   128
 43
0.0
 10
-0.165489542881474
 20
-0.5275527989646207
 10
-0.167090999686593
 20
-0.5299047613946187
 10
-0.1690603829880501
 20
-0.5319584393819241
 10
-0.1713500749381325
 20
-0.5336502450982153
 10
-0.1738914477552669
 20
-0.5349330067945175
 10
-0.1765932807749664
 20
-0.5357553390989552
 10
-0.1793951134571188
 20
-0.536109464021024
 10
-0.1821784928428371
 20
-0.5359820143645493
 10
-0.1849018078165301
 20
-0.5353924948691429
 10
-0.1874866750519288
 20
-0.5343539664728496
 10
-0.1898656072734326
 20
-0.5329042986528521
 10
-0.1919850140948966
 20
-0.5310672257359102
 10
-0.1937754701342413
 20
-0.528908228233945
  0
LWPOLYLINE
  5
B6
330
70
100
AcDbEntity
  8
BLOCKS
100
AcDbPolyline
 90
        5
 70
   128
 43
0.0
 10
-0.1937754701342413
 20
-0.528908228233945
 10
-0.1946004518660942
 20
-0.5271796120134696
 10
-0.1948020212378765
 20
-0.5252722384354911
 10
-0.1943664156125777
 20
-0.5234478324202883
 10
-0.1940664831948453
 20
-0.5228370394071363
  0
LWPOLYLINE
  5
B7
330
70
100
AcDbEntity
  8
BLOCKS
100
AcDbPolyline
 90
        5
 70
   128
 43
0.0
 10
-0.1937754701342413
 20
-0.4639181280488174
 10
-0.1946004518660942
 20
-0.4621895118282282
 10
-0.1948020212378765
 20
-0.4602821382502498
 10
-0.1943664156125777
 20
-0.4584577322351607
 10
-0.1940664831948453
 20
-0.4578469392220086
  0
LWPOLYLINE
  5
B8
330
70
100
AcDbEntity
  8
BLOCKS
100
AcDbPolyline
 90
        5
 70
   128
 43
0.0
 10
-0.1937754701342413
 20
-0.398928027863576
 10
-0.1946004518660942
 20
-0.3971994116431006
 10
-0.1948020212378765
 20
-0.3952920380651221
 10
-0.1943664156125777
 20
-0.3934676320499193
 10
-0.1940664831948453
 20
-0.3928568390367673
  0
LWPOLYLINE
  5
B9
330
70
100
AcDbEntity
  8
BLOCKS
100
AcDbPolyline
 90
       13
 70
   128
 43
0.0
 10
-0.1341415098003296
 20
-0.4549986129480886
 10
-0.132499462288294
 20
-0.4526747990054219
 10
-0.130494722174987
 20
-0.4506556101237038
 10
-0.1281760040704967
 20
-0.4490037981180422
 10
-0.125612744356701
 20
-0.4477653365584047
 10
-0.1228970420464179
 20
-0.4469900198920414
 10
-0.1200894836028112
 20
-0.4466845756128351
 10
-0.1173087362035545
 20
-0.4468603130894735
 10
-0.1145960660766718
 20
-0.4474970083377912
 10
-0.1120296179903448
 20
-0.4485802420036862
 10
-0.1096762116071659
 20
-0.4500709790378324
 10
-0.1075890171917848
 20
-0.4519445586001894
 10
-0.1058363128711761
 20
-0.4541343051300828
  0
LWPOLYLINE
  5
BA
330
70
100
AcDbEntity
  8
BLOCKS
100
AcDbPolyline
 90
       13
 70
   128
 43
0.0
 10
-0.1056507444545218
 20
-0.5251997301155598
 10
-0.1072927919665574
 20
-0.5275235440581128
 10
-0.1092975320798502
 20
-0.5295427329398308
 10
-0.1116162501843547
 20
-0.5311945449456062
 10
-0.1141795098981504
 20
-0.5324330065052436
 10
-0.1168952122084335
 20
-0.5332083231714933
 10
-0.1197027706520402
 20
-0.5335137674506996
 10
-0.1224835180512969
 20
-0.5333380299741748
 10
-0.1251961881781654
 20
-0.5327013347257435
 10
-0.1277626362645066
 20
-0.5316181010599621
 10
-0.1301160426476855
 20
-0.5301273640257023
 10
-0.1322032370630524
 20
-0.5282537844633453
 10
-0.1339559413836753
 20
-0.5260640379334518
  0
LWPOLYLINE
  5
BB
330
70
100
AcDbEntity
  8
BLOCKS
100
AcDbPolyline
 90
        5
 70
   128
 43
0.0
 10
-0.1339559413836753
 20
-0.4610739377483242
 10
-0.1347507886301287
 20
-0.4593312639742635
 10
-0.1349192140688018
 20
-0.457420679426491
 10
-0.134452000894683
 20
-0.4556041084505296
 10
-0.1341415098003296
 20
-0.4549986129480886
  0
LWPOLYLINE
  5
BC
330
70
100
AcDbEntity
  8
BLOCKS
100
AcDbPolyline
 90
        5
 70
   128
 43
0.0
 10
-0.1339559413836753
 20
-0.5260640379334518
 10
-0.1347507886301287
 20
-0.5243213641593912
 10
-0.1349192140688018
 20
-0.5224107796116187
 10
-0.134452000894683
 20
-0.5205942086357709
 10
-0.1341415098003296
 20
-0.5199887131332162
  0
LWPOLYLINE
  5
BD
330
70
100
AcDbEntity
  8
BLOCKS
100
AcDbPolyline
 90
        5
 70
   128
 43
0.0
 10
-0.165780555942078
 20
-0.521481610137812
 10
-0.1649555742102109
 20
-0.5232102263582874
 10
-0.1647540048384428
 20
-0.5251175999362659
 10
-0.1651896104637416
 20
-0.5269420059514687
 10
-0.165489542881474
 20
-0.5275527989646207
  0
LWPOLYLINE
  5
BE
330
70
100
AcDbEntity
  8
BLOCKS
100
AcDbPolyline
 90
        5
 70
   128
 43
0.0
 10
-0.165780555942078
 20
-0.4564915099526843
 10
-0.1649555742102109
 20
-0.4582201261731598
 10
-0.1647540048384428
 20
-0.4601274997511382
 10
-0.1651896104637416
 20
-0.4619519057663411
 10
-0.165489542881474
 20
-0.4625626987794931
  0
LWPOLYLINE
  5
BF
330
70
100
AcDbEntity
  8
BLOCKS
100
AcDbPolyline
 90
        5
 70
   128
 43
0.0
 10
-0.1058363128711761
 20
-0.5191244053152105
 10
-0.1050414656247085
 20
-0.5208670790893848
 10
-0.1048730401860496
 20
-0.5227776636370436
 10
-0.1053402533601684
 20
-0.5245942346130051
 10
-0.1056507444545218
 20
-0.5251997301155598
  0
LWPOLYLINE
  5
C0
330
70
100
AcDbEntity
  8
BLOCKS
100
AcDbPolyline
 90
       13
 70
   128
 43
0.0
 10
-0.1341415098003296
 20
-0.5199887131332162
 10
-0.132499462288294
 20
-0.5176648991906632
 10
-0.130494722174987
 20
-0.5156457103089452
 10
-0.1281760040704967
 20
-0.5139938983031698
 10
-0.125612744356701
 20
-0.5127554367435323
 10
-0.1228970420464179
 20
-0.5119801200772827
 10
-0.1200894836028112
 20
-0.5116746757980764
 10
-0.1173087362035545
 20
-0.5118504132746012
 10
-0.1145960660766718
 20
-0.5124871085229188
 10
-0.1120296179903448
 20
-0.5135703421888138
 10
-0.1096762116071659
 20
-0.5150610792230737
 10
-0.1075890171917848
 20
-0.5169346587854307
 10
-0.1058363128711761
 20
-0.5191244053152105
  0
LWPOLYLINE
  5
C1
330
70
100
AcDbEntity
  8
BLOCKS
100
AcDbPolyline
 90
       15
 70
   128
 43
0.0
 10
-0.1058363128711761
 20
-0.4541343051300828
 10
-0.1055882010494429
 20
-0.4545367655115343
 10
-0.1053731210074176
 20
-0.454957817425111
 10
-0.1051931077217318
 20
-0.4553950219611807
 10
-0.1050414656247085
 20
-0.4558769789041435
 10
-0.1049391510124167
 20
-0.456338602177766
 10
-0.1048758432020378
 20
-0.4568106060989976
 10
-0.1048530806698977
 20
-0.4572794827411144
 10
-0.1048730401860496
 20
-0.457787563451916
 10
-0.1049312921836361
 20
-0.4582466843761495
 10
-0.10502789675607
 20
-0.4587025444667461
 10
-0.1051595022721159
 20
-0.4591429061084682
 10
-0.1053402533601684
 20
-0.4596041344278774
 10
-0.1054865502942448
 20
-0.4599108358582953
 10
-0.1056507444545218
 20
-0.4602096299303185
  0
LWPOLYLINE
  5
C2
330
70
100
AcDbEntity
  8
BLOCKS
100
AcDbPolyline
 90
       13
 70
   128
 43
0.0
 10
-0.1056507444545218
 20
-0.4602096299303185
 10
-0.1072927919665574
 20
-0.4625334438729852
 10
-0.1092975320798502
 20
-0.4645526327547032
 10
-0.1116162501843547
 20
-0.4662044447603649
 10
-0.1141795098981504
 20
-0.4674429063200023
 10
-0.1168952122084335
 20
-0.4682182229863657
 10
-0.1197027706520402
 20
-0.4685236672654583
 10
-0.1224835180512969
 20
-0.4683479297889335
 10
-0.1251961881781654
 20
-0.4677112345406158
 10
-0.1277626362645066
 20
-0.4666280008747208
 10
-0.1301160426476855
 20
-0.4651372638405747
 10
-0.1322032370630524
 20
-0.4632636842782177
 10
-0.1339559413836753
 20
-0.4610739377483242
  0
LWPOLYLINE
  5
C3
330
70
100
AcDbEntity
  8
BLOCKS
100
AcDbPolyline
 90
        5
 70
   128
 43
0.0
 10
-0.1339559413836753
 20
-0.3960838375630828
 10
-0.1347507886301287
 20
-0.3943411637890222
 10
-0.1349192140688018
 20
-0.3924305792413634
 10
-0.134452000894683
 20
-0.3906140082654019
 10
-0.1341415098003296
 20
-0.3900085127628472
  0
LWPOLYLINE
  5
C4
330
70
100
AcDbEntity
  8
BLOCKS
100
AcDbPolyline
 90
        5
 70
   128
 43
0.0
 10
-0.165780555942078
 20
-0.391501409767443
 10
-0.1649555742102109
 20
-0.3932300259880321
 10
-0.1647540048384428
 20
-0.3951373995660106
 10
-0.1651896104637416
 20
-0.3969618055810997
 10
-0.165489542881474
 20
-0.3975725985942517
  0
LWPOLYLINE
  5
C5
330
70
100
AcDbEntity
  8
BLOCKS
100
AcDbPolyline
 90
        5
 70
   128
 43
0.0
 10
-0.1058363128711761
 20
-0.3891442049449551
 10
-0.1050414656247085
 20
-0.3908868787190158
 10
-0.1048730401860496
 20
-0.3927974632667883
 10
-0.1053402533601684
 20
-0.3946140342426361
 10
-0.1056507444545218
 20
-0.3952195297451908
  0
LWPOLYLINE
  5
C6
330
70
100
AcDbEntity
  8
BLOCKS
100
AcDbPolyline
 90
       13
 70
   128
 43
0.0
 10
-0.1056507444545218
 20
-0.3952195297451908
 10
-0.1072927919665574
 20
-0.3975433436877438
 10
-0.1092975320798502
 20
-0.3995625325694618
 10
-0.1116162501843547
 20
-0.4012143445752372
 10
-0.1141795098981504
 20
-0.4024528061348747
 10
-0.1168952122084335
 20
-0.4032281228011243
 10
-0.1197027706520402
 20
-0.4035335670803307
 10
-0.1224835180512969
 20
-0.4033578296038059
 10
-0.1251961881781654
 20
-0.4027211343554882
 10
-0.1277626362645066
 20
-0.4016379006895932
 10
-0.1301160426476855
 20
-0.4001471636553334
 10
-0.1322032370630524
 20
-0.3982735840929763
 10
-0.1339559413836753
 20
-0.3960838375630828
  0
LWPOLYLINE
  5
C7
330
70
100
AcDbEntity
  8
BLOCKS
100
AcDbPolyline
 90
       13
 70
   128
 43
0.0
 10
-0.2539329787557705
 20
-0.3317546656097647
 10
-0.252372595222738
 20
-0.3293752634064049
 10
-0.2504391621651649
 20
-0.3272877151459852
 10
-0.2481791863197884
 20
-0.3255564255091485
 10
-0.2456604661882977
 20
-0.3242297502092697
 10
-0.2429733165994463
 20
-0.3233606500592714
 10
-0.2401780539518228
 20
-0.3229579512021701
 10
-0.2373928812922088
 20
-0.3230370746342714
 10
-0.2346597420850998
 20
-0.3235792407375584
 10
-0.2320572345957572
 20
-0.3245727509258813
 10
-0.229653493376901
 20
-0.3259809127048356
 10
-0.2275025127878081
 20
-0.327780925413208
 10
-0.2256748445458214
 20
-0.3299085233189771
  0
LWPOLYLINE
  5
C8
330
70
100
AcDbEntity
  8
BLOCKS
100
AcDbPolyline
 90
       13
 70
   128
 43
0.0
 10
-0.2252784745319047
 20
-0.3359737467478681
 10
-0.2268388580649372
 20
-0.3383531489511142
 10
-0.2287722911225103
 20
-0.3404406972116476
 10
-0.2310322669678868
 20
-0.3421719868483706
 10
-0.2335509870993775
 20
-0.3434986621483631
 10
-0.2362381366882289
 20
-0.3443677622983614
 10
-0.2390333993358524
 20
-0.344770461155349
 10
-0.2418185719954664
 20
-0.3446913377232477
 10
-0.2445517112025755
 20
-0.3441491716199607
 10
-0.247154218691918
 20
-0.3431556614317515
 10
-0.2495579599107742
 20
-0.3417474996527972
 10
-0.2517089404998671
 20
-0.3399474869443111
 10
-0.2535366087418538
 20
-0.3378198890386557
  0
LWPOLYLINE
  5
C9
330
70
100
AcDbEntity
  8
BLOCKS
100
AcDbPolyline
 90
        5
 70
   128
 43
0.0
 10
-0.2855011308042492
 20
-0.3343447222911209
 10
-0.2846166348795123
 20
-0.3360436651515783
 10
-0.2843489698264534
 20
-0.3379428936906379
 10
-0.2847209761362848
 20
-0.3397813183504468
 10
-0.2849995232747489
 20
-0.3404021526952192
  0
LWPOLYLINE
  5
CA
330
70
100
AcDbEntity
  8
BLOCKS
100
AcDbPolyline
 90
        5
 70
   128
 43
0.0
 10
-0.2535366087418538
 20
-0.3378198890386557
 10
-0.2543914763682977
 20
-0.3361058512535919
 10
-0.2546261289345182
 20
-0.3342022633921715
 10
-0.2542222621185886
 20
-0.3323705720839598
 10
-0.2539329787557705
 20
-0.3317546656097647
  0
LWPOLYLINE
  5
CB
330
70
100
AcDbEntity
  8
BLOCKS
100
AcDbPolyline
 90
        5
 70
   128
 43
0.0
 10
-0.2256748445458214
 20
-0.3299085233189771
 10
-0.2248199769193775
 20
-0.3316225611039272
 10
-0.224585324353157
 20
-0.3335261489654613
 10
-0.2249891911690867
 20
-0.335357840273673
 10
-0.2252784745319047
 20
-0.3359737467478681
  0
LWPOLYLINE
  5
CC
330
70
100
AcDbEntity
  8
BLOCKS
100
AcDbPolyline
 90
       13
 70
   128
 43
0.0
 10
-0.2539329787557705
 20
-0.2667645654245234
 10
-0.252372595222738
 20
-0.2643851632212772
 10
-0.2504391621651649
 20
-0.2622976149607439
 10
-0.2481791863197884
 20
-0.2605663253240209
 10
-0.2456604661882977
 20
-0.2592396500241421
 10
-0.2429733165994463
 20
-0.2583705498740301
 10
-0.2401780539518228
 20
-0.2579678510170424
 10
-0.2373928812922088
 20
-0.2580469744491438
 10
-0.2346597420850998
 20
-0.2585891405524308
 10
-0.2320572345957572
 20
-0.2595826507407537
 10
-0.229653493376901
 20
-0.260990812519708
 10
-0.2275025127878081
 20
-0.2627908252280804
 10
-0.2256748445458214
 20
-0.2649184231337358
  0
LWPOLYLINE
  5
CD
330
70
100
AcDbEntity
  8
BLOCKS
100
AcDbPolyline
 90
       13
 70
   128
 43
0.0
 10
-0.2252784745319047
 20
-0.2709836465627404
 10
-0.2268388580649372
 20
-0.2733630487659866
 10
-0.2287722911225103
 20
-0.27545059702652
 10
-0.2310322669678868
 20
-0.2771818866632429
 10
-0.2335509870993775
 20
-0.2785085619631218
 10
-0.2362381366882289
 20
-0.2793776621131201
 10
-0.2390333993358524
 20
-0.2797803609702214
 10
-0.2418185719954664
 20
-0.27970123753812
 10
-0.2445517112025755
 20
-0.2791590714348331
 10
-0.247154218691918
 20
-0.2781655612465101
 10
-0.2495579599107742
 20
-0.2767573994675558
 10
-0.2517089404998671
 20
-0.2749573867591835
 10
-0.2535366087418538
 20
-0.2728297888534144
  0
LWPOLYLINE
  5
CE
330
70
100
AcDbEntity
  8
BLOCKS
100
AcDbPolyline
 90
        5
 70
   128
 43
0.0
 10
-0.2855011308042492
 20
-0.2693546221059933
 10
-0.2846166348795123
 20
-0.271053564966337
 10
-0.2843489698264534
 20
-0.2729527935053966
 10
-0.2847209761362848
 20
-0.2747912181652055
 10
-0.2849995232747489
 20
-0.2754120525100916
  0
LWPOLYLINE
  5
CF
330
70
100
AcDbEntity
  8
BLOCKS
100
AcDbPolyline
 90
        5
 70
   128
 43
0.0
 10
-0.2535366087418538
 20
-0.2728297888534144
 10
-0.2543914763682977
 20
-0.2711157510684643
 10
-0.2546261289345182
 20
-0.2692121632069302
 10
-0.2542222621185886
 20
-0.2673804718987185
 10
-0.2539329787557705
 20
-0.2667645654245234
  0
LWPOLYLINE
  5
D0
330
70
100
AcDbEntity
  8
BLOCKS
100
AcDbPolyline
 90
        5
 70
   128
 43
0.0
 10
-0.2256748445458214
 20
-0.2649184231337358
 10
-0.2248199769193775
 20
-0.2666324609187995
 10
-0.224585324353157
 20
-0.2685360487803337
 10
-0.2249891911690867
 20
-0.2703677400885454
 10
-0.2252784745319047
 20
-0.2709836465627404
  0
LWPOLYLINE
  5
D1
330
70
100
AcDbEntity
  8
BLOCKS
100
AcDbPolyline
 90
       13
 70
   128
 43
0.0
 10
-0.1940664831948453
 20
-0.262876638666512
 10
-0.1924650263897263
 20
-0.2605246762364004
 10
-0.1904956430882691
 20
-0.2584709982490949
 10
-0.1882059511381868
 20
-0.2567791925329175
 10
-0.1856645783210524
 20
-0.2554964308366152
 10
-0.1829627453013387
 20
-0.2546740985321776
 10
-0.1801609126192005
 20
-0.254319973609995
 10
-0.1773775332334821
 20
-0.2544474232664697
 10
-0.174654218259775
 20
-0.2550369427619898
 10
-0.1720693510243763
 20
-0.2560754711582831
 10
-0.1696904188028867
 20
-0.2575251389782807
 10
-0.1675710119814227
 20
-0.2593622118952226
 10
-0.165780555942078
 20
-0.2615212093971877
  0
LWPOLYLINE
  5
D2
330
70
100
AcDbEntity
  8
BLOCKS
100
AcDbPolyline
 90
       13
 70
   128
 43
0.0
 10
-0.165489542881474
 20
-0.2675923982239965
 10
-0.167090999686593
 20
-0.2699443606539944
 10
-0.1690603829880501
 20
-0.2719980386412999
 10
-0.1713500749381325
 20
-0.2736898443574773
 10
-0.1738914477552669
 20
-0.2749726060538933
 10
-0.1765932807749664
 20
-0.2757949383582172
 10
-0.1793951134571188
 20
-0.2761490632803998
 10
-0.1821784928428371
 20
-0.2760216136239251
 10
-0.1849018078165301
 20
-0.2754320941285187
 10
-0.1874866750519288
 20
-0.2743935657321117
 10
-0.1898656072734326
 20
-0.2729438979121141
 10
-0.1919850140948966
 20
-0.2711068249951722
 10
-0.1937754701342413
 20
-0.2689478274933208
  0
LWPOLYLINE
  5
D3
330
70
100
AcDbEntity
  8
BLOCKS
100
AcDbPolyline
 90
       13
 70
   128
 43
0.0
 10
-0.1940664831948453
 20
-0.3278667388516396
 10
-0.1924650263897263
 20
-0.3255147764216417
 10
-0.1904956430882691
 20
-0.3234610984343362
 10
-0.1882059511381868
 20
-0.3217692927180451
 10
-0.1856645783210524
 20
-0.3204865310217428
 10
-0.1829627453013387
 20
-0.3196641987173052
 10
-0.1801609126192005
 20
-0.3193100737952363
 10
-0.1773775332334821
 20
-0.3194375234517111
 10
-0.174654218259775
 20
-0.3200270429471175
 10
-0.1720693510243763
 20
-0.3210655713434107
 10
-0.1696904188028867
 20
-0.3225152391634083
 10
-0.1675710119814227
 20
-0.3243523120803502
 10
-0.165780555942078
 20
-0.3265113095823153
  0
LWPOLYLINE
  5
D4
330
70
100
AcDbEntity
  8
BLOCKS
100
AcDbPolyline
 90
       13
 70
   128
 43
0.0
 10
-0.165489542881474
 20
-0.3325824984091241
 10
-0.167090999686593
 20
-0.334934460839122
 10
-0.1690603829880501
 20
-0.3369881388264275
 10
-0.1713500749381325
 20
-0.3386799445427187
 10
-0.1738914477552669
 20
-0.3399627062390209
 10
-0.1765932807749664
 20
-0.3407850385434585
 10
-0.1793951134571188
 20
-0.3411391634655274
 10
-0.1821784928428371
 20
-0.3410117138090527
 10
-0.1849018078165301
 20
-0.3404221943136463
 10
-0.1874866750519288
 20
-0.339383665917353
 10
-0.1898656072734326
 20
-0.3379339980973555
 10
-0.1919850140948966
 20
-0.3360969251804136
 10
-0.1937754701342413
 20
-0.3339379276784484
  0
LWPOLYLINE
  5
D5
330
70
100
AcDbEntity
  8
BLOCKS
100
AcDbPolyline
 90
        5
 70
   128
 43
0.0
 10
-0.1937754701342413
 20
-0.3339379276784484
 10
-0.1946004518660942
 20
-0.3322093114579729
 10
-0.1948020212378765
 20
-0.3303019378799945
 10
-0.1943664156125777
 20
-0.3284775318647917
 10
-0.1940664831948453
 20
-0.3278667388516396
  0
LWPOLYLINE
  5
D6
330
70
100
AcDbEntity
  8
BLOCKS
100
AcDbPolyline
 90
        5
 70
   128
 43
0.0
 10
-0.1937754701342413
 20
-0.2689478274933208
 10
-0.1946004518660942
 20
-0.2672192112727316
 10
-0.1948020212378765
 20
-0.2653118376947532
 10
-0.1943664156125777
 20
-0.263487431679664
 10
-0.1940664831948453
 20
-0.262876638666512
  0
LWPOLYLINE
  5
D7
330
70
100
AcDbEntity
  8
BLOCKS
100
AcDbPolyline
 90
        5
 70
   128
 43
0.0
 10
-0.1339559413836753
 20
-0.3310937373779552
 10
-0.1347507886301287
 20
-0.3293510636038945
 10
-0.1349192140688018
 20
-0.3274404790561221
 10
-0.134452000894683
 20
-0.3256239080802743
 10
-0.1341415098003296
 20
-0.3250184125777196
  0
LWPOLYLINE
  5
D8
330
70
100
AcDbEntity
  8
BLOCKS
100
AcDbPolyline
 90
        5
 70
   128
 43
0.0
 10
-0.165780555942078
 20
-0.3265113095823153
 10
-0.1649555742102109
 20
-0.3282399258027908
 10
-0.1647540048384428
 20
-0.3301472993807692
 10
-0.1651896104637416
 20
-0.3319717053959721
 10
-0.165489542881474
 20
-0.3325824984091241
  0
LWPOLYLINE
  5
D9
330
70
100
AcDbEntity
  8
BLOCKS
100
AcDbPolyline
 90
        5
 70
   128
 43
0.0
 10
-0.1058363128711761
 20
-0.3241541047597138
 10
-0.1050414656247085
 20
-0.3258967785338882
 10
-0.1048730401860496
 20
-0.327807363081547
 10
-0.1053402533601684
 20
-0.3296239340575084
 10
-0.1056507444545218
 20
-0.3302294295600632
  0
LWPOLYLINE
  5
DA
330
70
100
AcDbEntity
  8
BLOCKS
100
AcDbPolyline
 90
       13
 70
   128
 43
0.0
 10
-0.1056507444545218
 20
-0.3302294295600632
 10
-0.1072927919665574
 20
-0.3325532435026162
 10
-0.1092975320798502
 20
-0.3345724323843342
 10
-0.1116162501843547
 20
-0.3362242443901096
 10
-0.1141795098981504
 20
-0.337462705949747
 10
-0.1168952122084335
 20
-0.3382380226159967
 10
-0.1197027706520402
 20
-0.338543466895203
 10
-0.1224835180512969
 20
-0.3383677294186782
 10
-0.1251961881781654
 20
-0.3377310341702469
 10
-0.1277626362645066
 20
-0.3366478005044655
 10
-0.1301160426476855
 20
-0.3351570634702057
 10
-0.1322032370630524
 20
-0.3332834839078487
 10
-0.1339559413836753
 20
-0.3310937373779552
  0
LWPOLYLINE
  5
DB
330
70
100
AcDbEntity
  8
BLOCKS
100
AcDbPolyline
 90
       13
 70
   128
 43
0.0
 10
-0.1341415098003296
 20
-0.3250184125777196
 10
-0.132499462288294
 20
-0.3226945986351666
 10
-0.130494722174987
 20
-0.3206754097534485
 10
-0.1281760040704967
 20
-0.3190235977476732
 10
-0.125612744356701
 20
-0.3177851361880357
 10
-0.1228970420464179
 20
-0.3170098195217861
 10
-0.1200894836028112
 20
-0.3167043752425798
 10
-0.1173087362035545
 20
-0.3168801127191045
 10
-0.1145960660766718
 20
-0.3175168079674222
 10
-0.1120296179903448
 20
-0.3186000416333172
 10
-0.1096762116071659
 20
-0.3200907786675771
 10
-0.1075890171917848
 20
-0.3219643582299341
 10
-0.1058363128711761
 20
-0.3241541047597138
  0
LWPOLYLINE
  5
DC
330
70
100
AcDbEntity
  8
BLOCKS
100
AcDbPolyline
 90
        5
 70
   128
 43
0.0
 10
-0.1339559413836753
 20
-0.2661036371928276
 10
-0.1347507886301287
 20
-0.2643609634187669
 10
-0.1349192140688018
 20
-0.2624503788709944
 10
-0.134452000894683
 20
-0.260633807895033
 10
-0.1341415098003296
 20
-0.2600283123925919
  0
LWPOLYLINE
  5
DD
330
70
100
AcDbEntity
  8
BLOCKS
100
AcDbPolyline
 90
        5
 70
   128
 43
0.0
 10
-0.165780555942078
 20
-0.2615212093971877
 10
-0.1649555742102109
 20
-0.2632498256176632
 10
-0.1647540048384428
 20
-0.2651571991956416
 10
-0.1651896104637416
 20
-0.2669816052108445
 10
-0.165489542881474
 20
-0.2675923982239965
  0
LWPOLYLINE
  5
DE
330
70
100
AcDbEntity
  8
BLOCKS
100
AcDbPolyline
 90
        5
 70
   128
 43
0.0
 10
-0.1058363128711761
 20
-0.2591640045745862
 10
-0.1050414656247085
 20
-0.2609066783486469
 10
-0.1048730401860496
 20
-0.2628172628964194
 10
-0.1053402533601684
 20
-0.2646338338723808
 10
-0.1056507444545218
 20
-0.2652393293748219
  0
LWPOLYLINE
  5
DF
330
70
100
AcDbEntity
  8
BLOCKS
100
AcDbPolyline
 90
       13
 70
   128
 43
0.0
 10
-0.1341415098003296
 20
-0.2600283123925919
 10
-0.132499462288294
 20
-0.2577044984499253
 10
-0.130494722174987
 20
-0.2556853095682072
 10
-0.1281760040704967
 20
-0.2540334975625456
 10
-0.125612744356701
 20
-0.2527950360029081
 10
-0.1228970420464179
 20
-0.2520197193365448
 10
-0.1200894836028112
 20
-0.2517142750573384
 10
-0.1173087362035545
 20
-0.2518900125339769
 10
-0.1145960660766718
 20
-0.2525267077822946
 10
-0.1120296179903448
 20
-0.2536099414481896
 10
-0.1096762116071659
 20
-0.2551006784823357
 10
-0.1075890171917848
 20
-0.2569742580446928
 10
-0.1058363128711761
 20
-0.2591640045745862
  0
LWPOLYLINE
  5
E0
330
70
100
AcDbEntity
  8
BLOCKS
100
AcDbPolyline
 90
       13
 70
   128
 43
0.0
 10
-0.1056507444545218
 20
-0.2652393293748219
 10
-0.1072927919665574
 20
-0.2675631433174885
 10
-0.1092975320798502
 20
-0.2695823321992066
 10
-0.1116162501843547
 20
-0.2712341442048682
 10
-0.1141795098981504
 20
-0.2724726057645057
 10
-0.1168952122084335
 20
-0.273247922430869
 10
-0.1197027706520402
 20
-0.2735533667099617
 10
-0.1224835180512969
 20
-0.2733776292334369
 10
-0.1251961881781654
 20
-0.2727409339851192
 10
-0.1277626362645066
 20
-0.2716577003192242
 10
-0.1301160426476855
 20
-0.270166963285078
 10
-0.1322032370630524
 20
-0.268293383722721
 10
-0.1339559413836753
 20
-0.2661036371928276
  0
LWPOLYLINE
  5
E1
330
70
100
AcDbEntity
  8
BLOCKS
100
AcDbPolyline
 90
       13
 70
   128
 43
0.0
 10
-0.0741761156966021
 20
-0.3882006452560063
 10
-0.0724939722739464
 20
-0.3859056800330336
 10
-0.0704544794348863
 20
-0.3839215886969214
 10
-0.0681074338726688
 20
-0.3823102681402588
 10
-0.0655230596463525
 20
-0.3811164799014932
 10
-0.0627943063650065
 20
-0.3803884124986325
 10
-0.0599818681583599
 20
-0.380131740901561
 10
-0.0572045906649947
 20
-0.3803557132434889
 10
-0.0545033827907702
 20
-0.3810393923901074
 10
-0.0519561271984088
 20
-0.3821670049158001
 10
-0.0496289558028167
 20
-0.3836983619622742
 10
-0.0475746027254616
 20
-0.3856078836064398
 10
-0.0458601782639931
 20
-0.3878277193304029
  0
LWPOLYLINE
  5
E2
330
70
100
AcDbEntity
  8
BLOCKS
100
AcDbPolyline
 90
       13
 70
   128
 43
0.0
 10
-0.014188370187938
 20
-0.3874337812789008
 10
-0.0124666377330556
 20
-0.3851683563149208
 10
-0.0103930067262752
 20
-0.38321996038826
 10
-0.0080183409389178
 20
-0.3816496168180947
 10
-0.0054136309466628
 20
-0.3805008616230907
 10
-0.0026726489463869
 20
-0.3798202628713625
 10
0.0001438215545022
 20
-0.3796124412990593
 10
0.0029167922680671
 20
-0.3798845810168814
 10
0.0056057239377338
 20
-0.3806150380494273
 10
0.0081330194744851
 20
-0.3817866896529267
 10
0.0104332546385564
 20
-0.3833582052694737
 10
0.0124541473420266
 20
-0.3853030936014647
 10
0.0141297753387733
 20
-0.3875523496188862
  0
LWPOLYLINE
  5
E3
330
70
100
AcDbEntity
  8
BLOCKS
100
AcDbPolyline
 90
       13
 70
   128
 43
0.0
 10
0.0458036506862527
 20
-0.3877081519098056
 10
0.0475644533656663
 20
-0.385472949842665
 10
0.0496715976952658
 20
-0.383560836433503
 10
0.052073168152404
 20
-0.3820319430396921
 10
0.0546974290363238
 20
-0.3809285670415647
 10
0.0574498138185078
 20
-0.3802956420249757
 10
0.0602694679297713
 20
-0.3801367331000165
 10
0.0630372962874049
 20
-0.380456958190166
 10
0.0657131414997849
 20
-0.3812339730010308
 10
0.0682197154338411
 20
-0.382449310629795
 10
0.0704923212391435
 20
-0.3840605112733328
 10
0.0724791446153859
 20
-0.386040180242162
 10
0.0741154712323322
 20
-0.3883181787873582
  0
LWPOLYLINE
  5
E4
330
70
100
AcDbEntity
  8
BLOCKS
100
AcDbPolyline
 90
       13
 70
   128
 43
0.0
 10
-0.014188370187938
 20
-0.4524238814640285
 10
-0.0124666377330556
 20
-0.4501584565000485
 10
-0.0103930067262752
 20
-0.4482100605733877
 10
-0.0080183409389178
 20
-0.4466397170032224
 10
-0.0054136309466628
 20
-0.4454909618083321
 10
-0.0026726489463869
 20
-0.4448103630564902
 10
0.0001438215545022
 20
-0.444602541484187
 10
0.0029167922680671
 20
-0.4448746812020091
 10
0.0056057239377338
 20
-0.4456051382346687
 10
0.0081330194744851
 20
-0.4467767898381681
 10
0.0104332546385564
 20
-0.4483483054546014
 10
0.0124541473420266
 20
-0.4502931937865924
 10
0.0141297753387733
 20
-0.4525424498040139
  0
LWPOLYLINE
  5
E5
330
70
100
AcDbEntity
  8
BLOCKS
100
AcDbPolyline
 90
       13
 70
   128
 43
0.0
 10
-0.014188370187938
 20
-0.5174139816492698
 10
-0.0124666377330556
 20
-0.5151485566852898
 10
-0.0103930067262752
 20
-0.513200160758629
 10
-0.0080183409389178
 20
-0.5116298171884637
 10
-0.0054136309466628
 20
-0.5104810619934597
 10
-0.0026726489463869
 20
-0.5098004632417315
 10
0.0001438215545022
 20
-0.5095926416693147
 10
0.0029167922680671
 20
-0.5098647813871367
 10
0.0056057239377338
 20
-0.5105952384197963
 10
0.0081330194744851
 20
-0.5117668900232957
 10
0.0104332546385564
 20
-0.513338405639729
 10
0.0124541473420266
 20
-0.5152832939717201
 10
0.0141297753387733
 20
-0.5175325499892552
  0
LWPOLYLINE
  5
E6
330
70
100
AcDbEntity
  8
BLOCKS
100
AcDbPolyline
 90
       21
 70
   128
 43
0.0
 10
0.0141043185065399
 20
-0.5236106540295396
 10
0.0133066110742988
 20
-0.5247600245958211
 10
0.012417169908062
 20
-0.5258399981009916
 10
0.01144183258927
 20
-0.5268431079559833
 10
0.0103089550448772
 20
-0.5278244749201804
 10
0.0091767530815901
 20
-0.5286465298817121
 10
0.0079715551731141
 20
-0.5293763822500069
 10
0.0067271666757165
 20
-0.5299944622752264
 10
0.0053295792652648
 20
-0.530543573685236
 10
0.0039987830789698
 20
-0.5309370279227324
 10
0.0026300034883349
 20
-0.5312193542030173
 10
0.0012618886641036
 20
-0.5313835406946055
 10
-0.0002278732359002
 20
-0.5314319940093811
 10
-0.004289109966706
 20
-0.5308714343022985
 10
-0.0056897756191319
 20
-0.5304293972588994
 10
-0.0093403002806838
 20
-0.5285611359229279
 10
-0.0105173063199544
 20
-0.5276862300389667
 10
-0.0115513485660444
 20
-0.5267728199847852
 10
-0.0125137563784534
 20
-0.5257713424712165
 10
-0.0133799415729925
 20
-0.5247094393670296
 10
-0.0142138270201571
 20
-0.5234920856895542
  0
LWPOLYLINE
  5
E7
330
70
100
AcDbEntity
  8
BLOCKS
100
AcDbPolyline
 90
       13
 70
   128
 43
0.0
 10
0.0141043185065399
 20
-0.4586205538442983
 10
0.0123825860516576
 20
-0.4608859788083919
 10
0.0103089550448772
 20
-0.4628343747349391
 10
0.007934289257534
 20
-0.4644047183051044
 10
0.0053295792652648
 20
-0.4655534735001084
 10
0.0025885972649888
 20
-0.4662340722518366
 10
-0.0002278732359002
 20
-0.4664418938242534
 10
-0.0030008439494509
 20
-0.4661697541064314
 10
-0.0056897756191319
 20
-0.4654392970737718
 10
-0.0082170711558831
 20
-0.4642676454702724
 10
-0.0105173063199544
 20
-0.462696129853839
 10
-0.0125381990234104
 20
-0.460751241521848
 10
-0.0142138270201571
 20
-0.4585019855043129
  0
LWPOLYLINE
  5
E8
330
70
100
AcDbEntity
  8
BLOCKS
100
AcDbPolyline
 90
       13
 70
   128
 43
0.0
 10
0.0141043185065399
 20
-0.3936304536591706
 10
0.0123825860516576
 20
-0.3958958786231506
 10
0.0103089550448772
 20
-0.3978442745498114
 10
0.007934289257534
 20
-0.3994146181199767
 10
0.0053295792652648
 20
-0.4005633733149807
 10
0.0025885972649888
 20
-0.401243972066709
 10
-0.0002278732359002
 20
-0.4014517936390121
 10
-0.0030008439494509
 20
-0.4011796539213038
 10
-0.0056897756191319
 20
-0.4004491968886441
 10
-0.0082170711558831
 20
-0.3992775452851447
 10
-0.0105173063199544
 20
-0.3977060296687114
 10
-0.0125381990234104
 20
-0.3957611413367203
 10
-0.0142138270201571
 20
-0.3935118853191852
  0
LWPOLYLINE
  5
E9
330
70
100
AcDbEntity
  8
BLOCKS
100
AcDbPolyline
 90
       13
 70
   128
 43
0.0
 10
-0.0741761156966021
 20
-0.453190745441134
 10
-0.0724939722739464
 20
-0.450895780218275
 10
-0.0704544794348863
 20
-0.4489116888820491
 10
-0.0681074338726688
 20
-0.4473003683253865
 10
-0.0655230596463525
 20
-0.4461065800867346
 10
-0.0627943063650065
 20
-0.4453785126837602
 10
-0.0599818681583599
 20
-0.4451218410868023
 10
-0.0572045906649947
 20
-0.4453458134286166
 10
-0.0545033827907702
 20
-0.4460294925752351
 10
-0.0519561271984088
 20
-0.4471571051010415
 10
-0.0496289558028167
 20
-0.4486884621474019
 10
-0.0475746027254616
 20
-0.4505979837915675
 10
-0.0458601782639931
 20
-0.4528178195155306
  0
LWPOLYLINE
  5
EA
330
70
100
AcDbEntity
  8
BLOCKS
100
AcDbPolyline
 90
       13
 70
   128
 43
0.0
 10
-0.0741761156966021
 20
-0.5181808456263753
 10
-0.0724939722739464
 20
-0.5158858804034026
 10
-0.0704544794348863
 20
-0.5139017890672904
 10
-0.0681074338726688
 20
-0.5122904685106278
 10
-0.0655230596463525
 20
-0.5110966802718622
 10
-0.0627943063650065
 20
-0.5103686128690015
 10
-0.0599818681583599
 20
-0.51011194127193
 10
-0.0572045906649947
 20
-0.5103359136137442
 10
-0.0545033827907702
 20
-0.5110195927603627
 10
-0.0519561271984088
 20
-0.5121472052861691
 10
-0.0496289558028167
 20
-0.5136785623325295
 10
-0.0475746027254616
 20
-0.5155880839766951
 10
-0.0458601782639931
 20
-0.5178079197006582
  0
LWPOLYLINE
  5
EB
330
70
100
AcDbEntity
  8
BLOCKS
100
AcDbPolyline
 90
       13
 70
   128
 43
0.0
 10
-0.0457801104084013
 20
-0.5238855498037083
 10
-0.0474622538310428
 20
-0.5261805150265673
 10
-0.0495017466701171
 20
-0.5281646063627932
 10
-0.0518487922323345
 20
-0.5297759269194558
 10
-0.0544331664586508
 20
-0.5309697151581077
 10
-0.0571619197399826
 20
-0.5316977825610821
 10
-0.0599743579466434
 20
-0.5319544541580399
 10
-0.0627516354399944
 20
-0.5317304818162257
 10
-0.065452843314219
 20
-0.5310468026696072
 10
-0.0680000989065803
 20
-0.5299191901438008
 10
-0.0703272703021725
 20
-0.5283878330974403
 10
-0.0723816233795276
 20
-0.5264783114532748
 10
-0.0740960478410102
 20
-0.5242584757293117
  0
LWPOLYLINE
  5
EC
330
70
100
AcDbEntity
  8
BLOCKS
100
AcDbPolyline
 90
        5
 70
   128
 43
0.0
 10
-0.0740960478410102
 20
-0.5242584757293117
 10
-0.0748605210916509
 20
-0.5225022695195776
 10
-0.074995751845762
 20
-0.5205890497163637
 10
-0.0744970719076434
 20
-0.5187808611649416
 10
-0.0741761156966021
 20
-0.5181808456263753
  0
LWPOLYLINE
  5
ED
330
70
100
AcDbEntity
  8
BLOCKS
100
AcDbPolyline
 90
        5
 70
   128
 43
0.0
 10
-0.0458601782639931
 20
-0.5178079197006582
 10
-0.0450957050133383
 20
-0.5195641259103923
 10
-0.0449604742592413
 20
-0.5214773457136062
 10
-0.0454591541973599
 20
-0.5232855342650283
 10
-0.0457801104084013
 20
-0.5238855498037083
  0
LWPOLYLINE
  5
EE
330
70
100
AcDbEntity
  8
BLOCKS
100
AcDbPolyline
 90
       13
 70
   128
 43
0.0
 10
-0.0457801104084013
 20
-0.458895449618467
 10
-0.0474622538310428
 20
-0.4611904148414397
 10
-0.0495017466701171
 20
-0.4631745061775519
 10
-0.0518487922323345
 20
-0.4647858267342145
 10
-0.0544331664586508
 20
-0.4659796149729801
 10
-0.0571619197399826
 20
-0.4667076823758407
 10
-0.0599743579466434
 20
-0.4669643539729123
 10
-0.0627516354399944
 20
-0.466740381631098
 10
-0.065452843314219
 20
-0.4660567024844795
 10
-0.0680000989065803
 20
-0.4649290899586731
 10
-0.0703272703021725
 20
-0.4633977329123127
 10
-0.0723816233795276
 20
-0.4614882112681471
 10
-0.0740960478410102
 20
-0.459268375544184
  0
LWPOLYLINE
  5
EF
330
70
100
AcDbEntity
  8
BLOCKS
100
AcDbPolyline
 90
        5
 70
   128
 43
0.0
 10
-0.0740960478410102
 20
-0.459268375544184
 10
-0.0748605210916509
 20
-0.45751216933445
 10
-0.074995751845762
 20
-0.4555989495312361
 10
-0.0744970719076434
 20
-0.453790760979814
 10
-0.0741761156966021
 20
-0.453190745441134
  0
LWPOLYLINE
  5
F0
330
70
100
AcDbEntity
  8
BLOCKS
100
AcDbPolyline
 90
        5
 70
   128
 43
0.0
 10
-0.0458601782639931
 20
-0.4528178195155306
 10
-0.0450957050133383
 20
-0.4545740257252647
 10
-0.0449604742592413
 20
-0.4564872455284786
 10
-0.0454591541973599
 20
-0.4582954340799006
 10
-0.0457801104084013
 20
-0.458895449618467
  0
LWPOLYLINE
  5
F1
330
70
100
AcDbEntity
  8
BLOCKS
100
AcDbPolyline
 90
        5
 70
   128
 43
0.0
 10
-0.0142138270201571
 20
-0.5234920856895542
 10
-0.0149476959171295
 20
-0.5217228762397781
 10
-0.0150496912377634
 20
-0.5198075976894643
 10
-0.0145196948023028
 20
-0.5180083364219854
 10
-0.014188370187938
 20
-0.5174139816492698
  0
LWPOLYLINE
  5
F2
330
70
100
AcDbEntity
  8
BLOCKS
100
AcDbPolyline
 90
        5
 70
   128
 43
0.0
 10
-0.0142138270201571
 20
-0.4585019855043129
 10
-0.0149476959171295
 20
-0.4567327760546505
 10
-0.0150496912377634
 20
-0.4548174975043367
 10
-0.0145196948023028
 20
-0.4530182362368578
 10
-0.014188370187938
 20
-0.4524238814640285
  0
LWPOLYLINE
  5
F3
330
70
100
AcDbEntity
  8
BLOCKS
100
AcDbPolyline
 90
       13
 70
   128
 43
0.0
 10
-0.0457801104084013
 20
-0.3939053494333393
 10
-0.0474622538310428
 20
-0.396200314656312
 10
-0.0495017466701171
 20
-0.3981844059924242
 10
-0.0518487922323345
 20
-0.3997957265490868
 10
-0.0544331664586508
 20
-0.4009895147878524
 10
-0.0571619197399826
 20
-0.4017175821907131
 10
-0.0599743579466434
 20
-0.4019742537877847
 10
-0.0627516354399944
 20
-0.4017502814459704
 10
-0.065452843314219
 20
-0.4010666022992382
 10
-0.0680000989065803
 20
-0.3999389897735455
 10
-0.0703272703021725
 20
-0.3984076327270713
 10
-0.0723816233795276
 20
-0.3964981110829058
 10
-0.0740960478410102
 20
-0.3942782753589427
  0
LWPOLYLINE
  5
F4
330
70
100
AcDbEntity
  8
BLOCKS
100
AcDbPolyline
 90
        5
 70
   128
 43
0.0
 10
-0.0740960478410102
 20
-0.3942782753589427
 10
-0.0748605210916509
 20
-0.3925220691493223
 10
-0.074995751845762
 20
-0.3906088493461084
 10
-0.0744970719076434
 20
-0.3888006607946863
 10
-0.0741761156966021
 20
-0.3882006452560063
  0
LWPOLYLINE
  5
F5
330
70
100
AcDbEntity
  8
BLOCKS
100
AcDbPolyline
 90
        5
 70
   128
 43
0.0
 10
-0.0458601782639931
 20
-0.3878277193304029
 10
-0.0450957050133383
 20
-0.389583925540137
 10
-0.0449604742592413
 20
-0.3914971453433509
 10
-0.0454591541973599
 20
-0.3933053338946593
 10
-0.0457801104084013
 20
-0.3939053494333393
  0
LWPOLYLINE
  5
F6
330
70
100
AcDbEntity
  8
BLOCKS
100
AcDbPolyline
 90
        5
 70
   128
 43
0.0
 10
-0.0142138270201571
 20
-0.3935118853191852
 10
-0.0149476959171295
 20
-0.3917426758694091
 10
-0.0150496912377634
 20
-0.3898273973190953
 10
-0.0145196948023028
 20
-0.3880281360516164
 10
-0.014188370187938
 20
-0.3874337812789008
  0
LWPOLYLINE
  5
F7
330
70
100
AcDbEntity
  8
BLOCKS
100
AcDbPolyline
 90
       13
 70
   128
 43
0.0
 10
0.0458036506862527
 20
-0.4526982520949332
 10
0.0475644533656663
 20
-0.4504630500277927
 10
0.0496715976952658
 20
-0.4485509366186307
 10
0.052073168152404
 20
-0.4470220432248198
 10
0.0546974290363238
 20
-0.4459186672266924
 10
0.0574498138185078
 20
-0.4452857422101033
 10
0.0602694679297713
 20
-0.4451268332851442
 10
0.0630372962874049
 20
-0.4454470583754074
 10
0.0657131414997849
 20
-0.4462240731862721
 10
0.0682197154338411
 20
-0.4474394108149227
 10
0.0704923212391435
 20
-0.4490506114584605
 10
0.0724791446153859
 20
-0.4510302804272897
 10
0.0741154712323322
 20
-0.4533082789724859
  0
LWPOLYLINE
  5
F8
330
70
100
AcDbEntity
  8
BLOCKS
100
AcDbPolyline
 90
        5
 70
   128
 43
0.0
 10
0.0141297753387733
 20
-0.5175325499892552
 10
0.0148636442357457
 20
-0.5193017594389176
 10
0.0149656395563653
 20
-0.5212170379893451
 10
0.0144356431209047
 20
-0.523016299256824
 10
0.0141043185065399
 20
-0.5236106540295396
  0
LWPOLYLINE
  5
F9
330
70
100
AcDbEntity
  8
BLOCKS
100
AcDbPolyline
 90
        5
 70
   128
 43
0.0
 10
0.0141297753387733
 20
-0.4525424498040139
 10
0.0148636442357457
 20
-0.45431165925379
 10
0.0149656395563653
 20
-0.4562269378041038
 10
0.0144356431209047
 20
-0.4580261990715826
 10
0.0141043185065399
 20
-0.4586205538442983
  0
LWPOLYLINE
  5
FA
330
70
100
AcDbEntity
  8
BLOCKS
100
AcDbPolyline
 90
       13
 70
   128
 43
0.0
 10
0.0458036506862527
 20
-0.5176883522801746
 10
0.0475644533656663
 20
-0.515453150213034
 10
0.0496715976952658
 20
-0.5135410368037583
 10
0.052073168152404
 20
-0.5120121434099474
 10
0.0546974290363238
 20
-0.5109087674119337
 10
0.0574498138185078
 20
-0.5102758423953447
 10
0.0602694679297713
 20
-0.5101169334702718
 10
0.0630372962874049
 20
-0.510437158560535
 10
0.0657131414997849
 20
-0.5112141733713998
 10
0.0682197154338411
 20
-0.512429511000164
 10
0.0704923212391435
 20
-0.5140407116437018
 10
0.0724791446153859
 20
-0.5160203806124173
 10
0.0741154712323322
 20
-0.5182983791577272
  0
LWPOLYLINE
  5
FB
330
70
100
AcDbEntity
  8
BLOCKS
100
AcDbPolyline
 90
       13
 70
   128
 43
0.0
 10
0.0739844973831509
 20
-0.5243751256271026
 10
0.0722236947037374
 20
-0.5266103276942431
 10
0.0701165503741379
 20
-0.5285224411034051
 10
0.0677149799169996
 20
-0.530051334497216
 10
0.0650907190330798
 20
-0.5311547104953434
 10
0.0623383342508959
 20
-0.5317876355119325
 10
0.0595186801396324
 20
-0.5319465444368916
 10
0.0567508517819988
 20
-0.5316263193466284
 10
0.0540750065696187
 20
-0.5308493045357637
 10
0.0515684326355626
 20
-0.5296339669071131
 10
0.0492958268302601
 20
-0.5280227662635753
 10
0.0473090034540178
 20
-0.5260430972947461
 10
0.0456726768370714
 20
-0.5237650987495499
  0
LWPOLYLINE
  5
FC
330
70
100
AcDbEntity
  8
BLOCKS
100
AcDbPolyline
 90
        5
 70
   128
 43
0.0
 10
0.0456726768370714
 20
-0.5237650987495499
 10
0.044969633429659
 20
-0.5219834191736937
 10
0.0449009042766591
 20
-0.5200666590048968
 10
0.0454620575062279
 20
-0.518276867190707
 10
0.0458036506862527
 20
-0.5176883522801746
  0
LWPOLYLINE
  5
FD
330
70
100
AcDbEntity
  8
BLOCKS
100
AcDbPolyline
 90
        5
 70
   128
 43
0.0
 10
0.0741154712323322
 20
-0.5182983791577272
 10
0.0748185146397447
 20
-0.5200800587335835
 10
0.0748872437927446
 20
-0.5219968189022666
 10
0.0743260905631615
 20
-0.5237866107164564
 10
0.0739844973831509
 20
-0.5243751256271026
  0
LWPOLYLINE
  5
FE
330
70
100
AcDbEntity
  8
BLOCKS
100
AcDbPolyline
 90
       13
 70
   128
 43
0.0
 10
0.0739844973831509
 20
-0.4593850254418613
 10
0.0722236947037374
 20
-0.4616202275090018
 10
0.0701165503741379
 20
-0.4635323409182775
 10
0.0677149799169996
 20
-0.4650612343120884
 10
0.0650907190330798
 20
-0.4661646103101021
 10
0.0623383342508959
 20
-0.4667975353266911
 10
0.0595186801396324
 20
-0.466956444251764
 10
0.0567508517819988
 20
-0.4666362191615008
 10
0.0540750065696187
 20
-0.465859204350636
 10
0.0515684326355626
 20
-0.4646438667218718
 10
0.0492958268302601
 20
-0.463032666078334
 10
0.0473090034540178
 20
-0.4610529971096185
 10
0.0456726768370714
 20
-0.4587749985643086
  0
LWPOLYLINE
  5
FF
330
70
100
AcDbEntity
  8
BLOCKS
100
AcDbPolyline
 90
        5
 70
   128
 43
0.0
 10
0.0456726768370714
 20
-0.4587749985643086
 10
0.044969633429659
 20
-0.4569933189884523
 10
0.0449009042766591
 20
-0.4550765588197692
 10
0.0454620575062279
 20
-0.4532867670055794
 10
0.0458036506862527
 20
-0.4526982520949332
  0
LWPOLYLINE
  5
100
330
70
100
AcDbEntity
  8
BLOCKS
100
AcDbPolyline
 90
        5
 70
   128
 43
0.0
 10
0.0741154712323322
 20
-0.4533082789724859
 10
0.0748185146397447
 20
-0.4550899585483421
 10
0.0748872437927446
 20
-0.457006718717139
 10
0.0743260905631615
 20
-0.4587965105313288
 10
0.0739844973831509
 20
-0.4593850254418613
  0
LWPOLYLINE
  5
101
330
70
100
AcDbEntity
  8
BLOCKS
100
AcDbPolyline
 90
        5
 70
   128
 43
0.0
 10
0.1055454181983322
 20
-0.5250774326425472
 10
0.1048734121277448
 20
-0.5232838198120362
 10
0.10483796985244
 20
-0.5213661556000489
 10
0.105430110784468
 20
-0.5195863725551817
 10
0.1057818695982462
 20
-0.5190038748431789
  0
LWPOLYLINE
  5
102
330
70
100
AcDbEntity
  8
BLOCKS
100
AcDbPolyline
 90
        5
 70
   128
 43
0.0
 10
0.1055454181983322
 20
-0.4600873324574195
 10
0.1048734121277448
 20
-0.4582937196269086
 10
0.10483796985244
 20
-0.4563760554149213
 10
0.105430110784468
 20
-0.4545962723699404
 10
0.1057818695982462
 20
-0.4540137746580513
  0
LWPOLYLINE
  5
103
330
70
100
AcDbEntity
  8
BLOCKS
100
AcDbPolyline
 90
        5
 70
   128
 43
0.0
 10
0.0141297753387733
 20
-0.3875523496188862
 10
0.0148636442357457
 20
-0.3893215590686623
 10
0.0149656395563653
 20
-0.3912368376189761
 10
0.0144356431209047
 20
-0.393036098886455
 10
0.0141043185065399
 20
-0.3936304536591706
  0
LWPOLYLINE
  5
104
330
70
100
AcDbEntity
  8
BLOCKS
100
AcDbPolyline
 90
       13
 70
   128
 43
0.0
 10
0.0739844973831509
 20
-0.3943949252567336
 10
0.0722236947037374
 20
-0.3966301273238741
 10
0.0701165503741379
 20
-0.3985422407330361
 10
0.0677149799169996
 20
-0.4000711341268471
 10
0.0650907190330798
 20
-0.4011745101249744
 10
0.0623383342508959
 20
-0.4018074351415635
 10
0.0595186801396324
 20
-0.4019663440665227
 10
0.0567508517819988
 20
-0.4016461189763732
 10
0.0540750065696187
 20
-0.4008691041655084
 10
0.0515684326355626
 20
-0.3996537665367441
 10
0.0492958268302601
 20
-0.3980425658932063
 10
0.0473090034540178
 20
-0.3960628969243771
 10
0.0456726768370714
 20
-0.3937848983791809
  0
LWPOLYLINE
  5
105
330
70
100
AcDbEntity
  8
BLOCKS
100
AcDbPolyline
 90
        5
 70
   128
 43
0.0
 10
0.0456726768370714
 20
-0.3937848983791809
 10
0.044969633429659
 20
-0.3920032188033247
 10
0.0449009042766591
 20
-0.3900864586345278
 10
0.0454620575062279
 20
-0.3882966668204517
 10
0.0458036506862527
 20
-0.3877081519098056
  0
LWPOLYLINE
  5
106
330
70
100
AcDbEntity
  8
BLOCKS
100
AcDbPolyline
 90
        5
 70
   128
 43
0.0
 10
0.0741154712323322
 20
-0.3883181787873582
 10
0.0748185146397447
 20
-0.3900998583632145
 10
0.0748872437927446
 20
-0.3920166185320113
 10
0.0743260905631615
 20
-0.3938064103462011
 10
0.0739844973831509
 20
-0.3943949252567336
  0
LWPOLYLINE
  5
107
330
70
100
AcDbEntity
  8
BLOCKS
100
AcDbPolyline
 90
        5
 70
   128
 43
0.0
 10
0.1055454181983322
 20
-0.3950972322722919
 10
0.1048734121277448
 20
-0.3933036194417809
 10
0.10483796985244
 20
-0.3913859552297936
 10
0.105430110784468
 20
-0.3896061721848127
 10
0.1057818695982462
 20
-0.3890236744729236
  0
LWPOLYLINE
  5
108
330
70
100
AcDbEntity
  8
BLOCKS
100
AcDbPolyline
 90
       13
 70
   128
 43
0.0
 10
0.0141043185065399
 20
-0.328640353474043
 10
0.0123825860516576
 20
-0.3309057784380229
 10
0.0103089550448772
 20
-0.3328541743646838
 10
0.007934289257534
 20
-0.3344245179348491
 10
0.0053295792652648
 20
-0.3355732731297394
 10
0.0025885972649888
 20
-0.3362538718815813
 10
-0.0002278732359002
 20
-0.3364616934538844
 10
-0.0030008439494509
 20
-0.3361895537360624
 10
-0.0056897756191319
 20
-0.3354590967034028
 10
-0.0082170711558831
 20
-0.3342874451000171
 10
-0.0105173063199544
 20
-0.3327159294834701
 10
-0.0125381990234104
 20
-0.330771041151479
 10
-0.0142138270201571
 20
-0.3285217851340576
  0
LWPOLYLINE
  5
109
330
70
100
AcDbEntity
  8
BLOCKS
100
AcDbPolyline
 90
       13
 70
   128
 43
0.0
 10
-0.014188370187938
 20
-0.3224436810937732
 10
-0.0124666377330556
 20
-0.3201782561297932
 10
-0.0103930067262752
 20
-0.3182298602031324
 10
-0.0080183409389178
 20
-0.3166595166329671
 10
-0.0054136309466628
 20
-0.3155107614379631
 10
-0.0026726489463869
 20
-0.3148301626862349
 10
0.0001438215545022
 20
-0.314622341113818
 10
0.0029167922680671
 20
-0.3148944808316401
 10
0.0056057239377338
 20
-0.3156249378642997
 10
0.0081330194744851
 20
-0.3167965894677991
 10
0.0104332546385564
 20
-0.3183681050842324
 10
0.0124541473420266
 20
-0.3203129934162234
 10
0.0141297753387733
 20
-0.3225622494337585
  0
LWPOLYLINE
  5
10A
330
70
100
AcDbEntity
  8
BLOCKS
100
AcDbPolyline
 90
       13
 70
   128
 43
0.0
 10
-0.014188370187938
 20
-0.2574535809085319
 10
-0.0124666377330556
 20
-0.2551881559445519
 10
-0.0103930067262752
 20
-0.2532397600178911
 10
-0.0080183409389178
 20
-0.2516694164477258
 10
-0.0054136309466628
 20
-0.2505206612528354
 10
-0.0026726489463869
 20
-0.2498400625009935
 10
0.0001438215545022
 20
-0.2496322409286904
 10
0.0029167922680671
 20
-0.2499043806465124
 10
0.0056057239377338
 20
-0.250634837679172
 10
0.0081330194744851
 20
-0.2518064892826715
 10
0.0104332546385564
 20
-0.2533780048991048
 10
0.0124541473420266
 20
-0.2553228932310958
 10
0.0141297753387733
 20
-0.2575721492485172
  0
LWPOLYLINE
  5
10B
330
70
100
AcDbEntity
  8
BLOCKS
100
AcDbPolyline
 90
       13
 70
   128
 43
0.0
 10
0.0141043185065399
 20
-0.2636502532888016
 10
0.0123825860516576
 20
-0.2659156782528953
 10
0.0103089550448772
 20
-0.2678640741794425
 10
0.007934289257534
 20
-0.2694344177496077
 10
0.0053295792652648
 20
-0.2705831729446118
 10
0.0025885972649888
 20
-0.27126377169634
 10
-0.0002278732359002
 20
-0.2714715932687568
 10
-0.0030008439494509
 20
-0.2711994535509348
 10
-0.0056897756191319
 20
-0.2704689965182752
 10
-0.0082170711558831
 20
-0.2692973449147757
 10
-0.0105173063199544
 20
-0.2677258292983424
 10
-0.0125381990234104
 20
-0.2657809409663514
 10
-0.0142138270201571
 20
-0.2635316849488163
  0
LWPOLYLINE
  5
10C
330
70
100
AcDbEntity
  8
BLOCKS
100
AcDbPolyline
 90
        5
 70
   128
 43
0.0
 10
-0.0458601782639931
 20
-0.3228376191451616
 10
-0.0450957050133383
 20
-0.3245938253548957
 10
-0.0449604742592413
 20
-0.3265070451581096
 10
-0.0454591541973599
 20
-0.3283152337095316
 10
-0.0457801104084013
 20
-0.3289152492482117
  0
LWPOLYLINE
  5
10D
330
70
100
AcDbEntity
  8
BLOCKS
100
AcDbPolyline
 90
        5
 70
   128
 43
0.0
 10
-0.0740960478410102
 20
-0.329288175173815
 10
-0.0748605210916509
 20
-0.327531968964081
 10
-0.074995751845762
 20
-0.3256187491608671
 10
-0.0744970719076434
 20
-0.323810560609445
 10
-0.0741761156966021
 20
-0.3232105450708786
  0
LWPOLYLINE
  5
10E
330
70
100
AcDbEntity
  8
BLOCKS
100
AcDbPolyline
 90
       13
 70
   128
 43
0.0
 10
-0.0457801104084013
 20
-0.3289152492482117
 10
-0.0474622538310428
 20
-0.3312102144710707
 10
-0.0495017466701171
 20
-0.3331943058072966
 10
-0.0518487922323345
 20
-0.3348056263639592
 10
-0.0544331664586508
 20
-0.3359994146026111
 10
-0.0571619197399826
 20
-0.3367274820055854
 10
-0.0599743579466434
 20
-0.3369841536025433
 10
-0.0627516354399944
 20
-0.336760181260729
 10
-0.065452843314219
 20
-0.3360765021141105
 10
-0.0680000989065803
 20
-0.3349488895883041
 10
-0.0703272703021725
 20
-0.3334175325419437
 10
-0.0723816233795276
 20
-0.3315080108977781
 10
-0.0740960478410102
 20
-0.329288175173815
  0
LWPOLYLINE
  5
10F
330
70
100
AcDbEntity
  8
BLOCKS
100
AcDbPolyline
 90
       13
 70
   128
 43
0.0
 10
-0.0741761156966021
 20
-0.3232105450708786
 10
-0.0724939722739464
 20
-0.320915579847906
 10
-0.0704544794348863
 20
-0.3189314885117938
 10
-0.0681074338726688
 20
-0.3173201679551312
 10
-0.0655230596463525
 20
-0.3161263797163656
 10
-0.0627943063650065
 20
-0.3153983123135049
 10
-0.0599818681583599
 20
-0.3151416407164334
 10
-0.0572045906649947
 20
-0.3153656130582476
 10
-0.0545033827907702
 20
-0.3160492922048661
 10
-0.0519561271984088
 20
-0.3171769047306725
 10
-0.0496289558028167
 20
-0.3187082617770329
 10
-0.0475746027254616
 20
-0.3206177834211985
 10
-0.0458601782639931
 20
-0.3228376191451616
  0
LWPOLYLINE
  5
110
330
70
100
AcDbEntity
  8
BLOCKS
100
AcDbPolyline
 90
        5
 70
   128
 43
0.0
 10
-0.0142138270201571
 20
-0.3285217851340576
 10
-0.0149476959171295
 20
-0.3267525756842815
 10
-0.0150496912377634
 20
-0.3248372971339677
 10
-0.0145196948023028
 20
-0.3230380358664888
 10
-0.014188370187938
 20
-0.3224436810937732
  0
LWPOLYLINE
  5
111
330
70
100
AcDbEntity
  8
BLOCKS
100
AcDbPolyline
 90
       13
 70
   128
 43
0.0
 10
-0.0741761156966021
 20
-0.2582204448856373
 10
-0.0724939722739464
 20
-0.2559254796627783
 10
-0.0704544794348863
 20
-0.2539413883265524
 10
-0.0681074338726688
 20
-0.2523300677698899
 10
-0.0655230596463525
 20
-0.251136279531238
 10
-0.0627943063650065
 20
-0.2504082121282636
 10
-0.0599818681583599
 20
-0.2501515405313057
 10
-0.0572045906649947
 20
-0.25037551287312
 10
-0.0545033827907702
 20
-0.2510591920197385
 10
-0.0519561271984088
 20
-0.2521868045455449
 10
-0.0496289558028167
 20
-0.2537181615919053
 10
-0.0475746027254616
 20
-0.2556276832360709
 10
-0.0458601782639931
 20
-0.257847518960034
  0
LWPOLYLINE
  5
112
330
70
100
AcDbEntity
  8
BLOCKS
100
AcDbPolyline
 90
       13
 70
   128
 43
0.0
 10
-0.0457801104084013
 20
-0.2639251490629704
 10
-0.0474622538310428
 20
-0.266220114285943
 10
-0.0495017466701171
 20
-0.2682042056220553
 10
-0.0518487922323345
 20
-0.2698155261787178
 10
-0.0544331664586508
 20
-0.2710093144174834
 10
-0.0571619197399826
 20
-0.2717373818203441
 10
-0.0599743579466434
 20
-0.2719940534174157
 10
-0.0627516354399944
 20
-0.2717700810756014
 10
-0.065452843314219
 20
-0.2710864019289829
 10
-0.0680000989065803
 20
-0.2699587894031765
 10
-0.0703272703021725
 20
-0.2684274323568161
 10
-0.0723816233795276
 20
-0.2665179107126505
 10
-0.0740960478410102
 20
-0.2642980749886874
  0
LWPOLYLINE
  5
113
330
70
100
AcDbEntity
  8
BLOCKS
100
AcDbPolyline
 90
        5
 70
   128
 43
0.0
 10
-0.0740960478410102
 20
-0.2642980749886874
 10
-0.0748605210916509
 20
-0.2625418687789534
 10
-0.074995751845762
 20
-0.2606286489757394
 10
-0.0744970719076434
 20
-0.2588204604243174
 10
-0.0741761156966021
 20
-0.2582204448856373
  0
LWPOLYLINE
  5
114
330
70
100
AcDbEntity
  8
BLOCKS
100
AcDbPolyline
 90
        5
 70
   128
 43
0.0
 10
-0.0458601782639931
 20
-0.257847518960034
 10
-0.0450957050133383
 20
-0.259603725169768
 10
-0.0449604742592413
 20
-0.2615169449729819
 10
-0.0454591541973599
 20
-0.263325133524404
 10
-0.0457801104084013
 20
-0.2639251490629704
  0
LWPOLYLINE
  5
115
330
70
100
AcDbEntity
  8
BLOCKS
100
AcDbPolyline
 90
        5
 70
   128
 43
0.0
 10
-0.0142138270201571
 20
-0.2635316849488163
 10
-0.0149476959171295
 20
-0.2617624754991539
 10
-0.0150496912377634
 20
-0.2598471969488401
 10
-0.0145196948023028
 20
-0.2580479356813612
 10
-0.014188370187938
 20
-0.2574535809085319
  0
LWPOLYLINE
  5
116
330
70
100
AcDbEntity
  8
BLOCKS
100
AcDbPolyline
 90
        5
 70
   128
 43
0.0
 10
0.0141297753387733
 20
-0.3225622494337585
 10
0.0148636442357457
 20
-0.324331458883421
 10
0.0149656395563653
 20
-0.3262467374338485
 10
0.0144356431209047
 20
-0.3280459987013273
 10
0.0141043185065399
 20
-0.328640353474043
  0
LWPOLYLINE
  5
117
330
70
100
AcDbEntity
  8
BLOCKS
100
AcDbPolyline
 90
        5
 70
   128
 43
0.0
 10
0.0141297753387733
 20
-0.2575721492485172
 10
0.0148636442357457
 20
-0.2593413586982933
 10
0.0149656395563653
 20
-0.2612566372486071
 10
0.0144356431209047
 20
-0.263055898516086
 10
0.0141043185065399
 20
-0.2636502532888016
  0
LWPOLYLINE
  5
118
330
70
100
AcDbEntity
  8
BLOCKS
100
AcDbPolyline
 90
        5
 70
   128
 43
0.0
 10
0.0741154712323322
 20
-0.3233280786022306
 10
0.0748185146397447
 20
-0.3251097581780868
 10
0.0748872437927446
 20
-0.32702651834677
 10
0.0743260905631615
 20
-0.3288163101609598
 10
0.0739844973831509
 20
-0.329404825071606
  0
LWPOLYLINE
  5
119
330
70
100
AcDbEntity
  8
BLOCKS
100
AcDbPolyline
 90
        5
 70
   128
 43
0.0
 10
0.0456726768370714
 20
-0.3287947981940533
 10
0.044969633429659
 20
-0.327013118618197
 10
0.0449009042766591
 20
-0.3250963584494002
 10
0.0454620575062279
 20
-0.3233065666352104
 10
0.0458036506862527
 20
-0.3227180517246779
  0
LWPOLYLINE
  5
11A
330
70
100
AcDbEntity
  8
BLOCKS
100
AcDbPolyline
 90
       21
 70
   128
 43
0.0
 10
0.0739844973831509
 20
-0.329404825071606
 10
0.0731669561249078
 20
-0.3305401778339956
 10
0.0722588997433604
 20
-0.3316045519035242
 10
0.071266294566513
 20
-0.332590583130127
 10
0.0701165503741379
 20
-0.3335521405479085
 10
0.0689702474475951
 20
-0.3343544216907048
 10
0.067752560286138
 20
-0.3350632472488542
 10
0.0664976288995689
 20
-0.3356596371304477
 10
0.0650907190330798
 20
-0.3361844099398468
 10
0.0637532926634066
 20
-0.3365547082256626
 10
0.0623798178842634
 20
-0.3368132360751588
 10
0.0610090587746441
 20
-0.3369536534729605
 10
0.0595186801396324
 20
-0.336976243881395
 10
0.0567896915914332
 20
-0.3366655729597596
 10
0.0554677870672862
 20
-0.3363452837180603
 10
0.0540750065696187
 20
-0.335879003980267
 10
0.0516011110433823
 20
-0.3346847997314626
 10
0.0504574664555833
 20
-0.3339476673374975
 10
0.0492958268302601
 20
-0.3330524657080787
 10
0.0464853023928669
 20
-0.330026440982806
 10
0.0456726768370714
 20
-0.3287947981940533
  0
LWPOLYLINE
  5
11B
330
70
100
AcDbEntity
  8
BLOCKS
100
AcDbPolyline
 90
       13
 70
   128
 43
0.0
 10
0.0458036506862527
 20
-0.3227180517246779
 10
0.0475644533656663
 20
-0.3204828496575374
 10
0.0496715976952658
 20
-0.3185707362482617
 10
0.052073168152404
 20
-0.3170418428544508
 10
0.0546974290363238
 20
-0.3159384668564371
 10
0.0574498138185078
 20
-0.315305541839848
 10
0.0602694679297713
 20
-0.3151466329147752
 10
0.0630372962874049
 20
-0.3154668580050384
 10
0.0657131414997849
 20
-0.3162438728159032
 10
0.0682197154338411
 20
-0.3174592104446674
 10
0.0704923212391435
 20
-0.3190704110882052
 10
0.0724791446153859
 20
-0.3210500800569207
 10
0.0741154712323322
 20
-0.3233280786022306
  0
LWPOLYLINE
  5
11C
330
70
100
AcDbEntity
  8
BLOCKS
100
AcDbPolyline
 90
        5
 70
   128
 43
0.0
 10
0.1055454181983322
 20
-0.3301071320870506
 10
0.1048734121277448
 20
-0.3283135192565396
 10
0.10483796985244
 20
-0.3263958550445523
 10
0.105430110784468
 20
-0.3246160719996851
 10
0.1057818695982462
 20
-0.3240335742876823
  0
LWPOLYLINE
  5
11D
330
70
100
AcDbEntity
  8
BLOCKS
100
AcDbPolyline
 90
       13
 70
   128
 43
0.0
 10
0.0458036506862527
 20
-0.2577279515394366
 10
0.0475644533656663
 20
-0.255492749472296
 10
0.0496715976952658
 20
-0.2535806360631341
 10
0.052073168152404
 20
-0.2520517426693232
 10
0.0546974290363238
 20
-0.2509483666711958
 10
0.0574498138185078
 20
-0.2503154416546067
 10
0.0602694679297713
 20
-0.2501565327296475
 10
0.0630372962874049
 20
-0.2504767578199107
 10
0.0657131414997849
 20
-0.2512537726307755
 10
0.0682197154338411
 20
-0.2524691102594261
 10
0.0704923212391435
 20
-0.2540803109029639
 10
0.0724791446153859
 20
-0.2560599798717931
 10
0.0741154712323322
 20
-0.2583379784169892
  0
LWPOLYLINE
  5
11E
330
70
100
AcDbEntity
  8
BLOCKS
100
AcDbPolyline
 90
       13
 70
   128
 43
0.0
 10
0.0739844973831509
 20
-0.2644147248863646
 10
0.0722236947037374
 20
-0.2666499269535052
 10
0.0701165503741379
 20
-0.2685620403627809
 10
0.0677149799169996
 20
-0.2700909337565918
 10
0.0650907190330798
 20
-0.2711943097546055
 10
0.0623383342508959
 20
-0.2718272347711945
 10
0.0595186801396324
 20
-0.2719861436962674
 10
0.0567508517819988
 20
-0.2716659186060042
 10
0.0540750065696187
 20
-0.2708889037951394
 10
0.0515684326355626
 20
-0.2696735661663752
 10
0.0492958268302601
 20
-0.2680623655228373
 10
0.0473090034540178
 20
-0.2660826965541219
 10
0.0456726768370714
 20
-0.263804698008812
  0
LWPOLYLINE
  5
11F
330
70
100
AcDbEntity
  8
BLOCKS
100
AcDbPolyline
 90
        5
 70
   128
 43
0.0
 10
0.0456726768370714
 20
-0.263804698008812
 10
0.044969633429659
 20
-0.2620230184329557
 10
0.0449009042766591
 20
-0.2601062582642726
 10
0.0454620575062279
 20
-0.2583164664500828
 10
0.0458036506862527
 20
-0.2577279515394366
  0
LWPOLYLINE
  5
120
330
70
100
AcDbEntity
  8
BLOCKS
100
AcDbPolyline
 90
        5
 70
   128
 43
0.0
 10
0.0741154712323322
 20
-0.2583379784169892
 10
0.0748185146397447
 20
-0.2601196579928455
 10
0.0748872437927446
 20
-0.2620364181616424
 10
0.0743260905631615
 20
-0.2638262099758322
 10
0.0739844973831509
 20
-0.2644147248863646
  0
LWPOLYLINE
  5
121
330
70
100
AcDbEntity
  8
BLOCKS
100
AcDbPolyline
 90
        5
 70
   128
 43
0.0
 10
0.1055454181983322
 20
-0.2651170319019229
 10
0.1048734121277448
 20
-0.263323419071412
 10
0.10483796985244
 20
-0.2614057548594246
 10
0.105430110784468
 20
-0.2596259718144438
 10
0.1057818695982462
 20
-0.2590434741025547
  0
LWPOLYLINE
  5
122
330
70
100
AcDbEntity
  8
BLOCKS
100
AcDbPolyline
 90
       13
 70
   128
 43
0.0
 10
0.253419136541936
 20
-0.5329008756303893
 10
0.2515443529620001
 20
-0.5350414052616089
 10
0.2493405177589238
 20
-0.536841258665163
 10
0.2468626066034005
 20
-0.5382430879825506
 10
0.2441844600098051
 20
-0.539208386708765
 10
0.2414028556131882
 20
-0.5396972039533239
 10
0.238578751086834
 20
-0.5397091466560369
 10
0.2358313465022661
 20
-0.5392453022152495
 10
0.2331995815313235
 20
-0.5383300746515261
 10
0.2307596781118235
 20
-0.5369859283446204
 10
0.2285740348619498
 20
-0.5352586327255722
 10
0.2266929696276207
 20
-0.5331782420544187
 10
0.2251774574749561
 20
-0.5308181680933331
  0
LWPOLYLINE
  5
123
330
70
100
AcDbEntity
  8
BLOCKS
100
AcDbPolyline
 90
       13
 70
   128
 43
0.0
 10
0.2256246184654884
 20
-0.5247564765367088
 10
0.2274994020454386
 20
-0.5226159469054892
 10
0.2297032372485148
 20
-0.5208160935018214
 10
0.2321811484040381
 20
-0.5194142641844337
 10
0.2348592949976194
 20
-0.5184489654582194
 10
0.2376408993942505
 20
-0.5179601482137742
 10
0.2404650039206047
 20
-0.5179482055109475
 10
0.2432124085051726
 20
-0.5184120499517349
 10
0.2458441734761152
 20
-0.5193272775154583
 10
0.2482840768956009
 20
-0.520671423822364
 10
0.2504697201454746
 20
-0.5223987194415259
 10
0.2523507853798179
 20
-0.5244791101125657
 10
0.2538662975324826
 20
-0.5268391840736513
  0
LWPOLYLINE
  5
124
330
70
100
AcDbEntity
  8
BLOCKS
100
AcDbPolyline
 90
       13
 70
   128
 43
0.0
 10
0.2256246184654884
 20
-0.4597663763514675
 10
0.2274994020454386
 20
-0.4576258467202479
 10
0.2297032372485148
 20
-0.4558259933166938
 10
0.2321811484040381
 20
-0.4544241639993061
 10
0.2348592949976194
 20
-0.4534588652730918
 10
0.2376408993942505
 20
-0.4529700480286465
 10
0.2404650039206047
 20
-0.4529581053258199
 10
0.2432124085051726
 20
-0.4534219497666073
 10
0.2458441734761152
 20
-0.4543371773303307
 10
0.2482840768956009
 20
-0.4556813236372364
 10
0.2504697201454746
 20
-0.4574086192563982
 10
0.2523507853798179
 20
-0.4594890099274381
 10
0.2538662975324826
 20
-0.4618490838885237
  0
LWPOLYLINE
  5
125
330
70
100
AcDbEntity
  8
BLOCKS
100
AcDbPolyline
 90
       13
 70
   128
 43
0.0
 10
0.253419136541936
 20
-0.4679107754452616
 10
0.2515443529620001
 20
-0.4700513050763675
 10
0.2493405177589238
 20
-0.4718511584800354
 10
0.2468626066034005
 20
-0.473252987797423
 10
0.2441844600098051
 20
-0.4742182865236373
 10
0.2414028556131882
 20
-0.4747071037680826
 10
0.238578751086834
 20
-0.4747190464709093
 10
0.2358313465022661
 20
-0.4742552020301219
 10
0.2331995815313235
 20
-0.4733399744663985
 10
0.2307596781118235
 20
-0.4719958281594927
 10
0.2285740348619498
 20
-0.4702685325403309
 10
0.2266929696276207
 20
-0.4681881418692911
 10
0.2251774574749561
 20
-0.4658280679082055
  0
LWPOLYLINE
  5
126
330
70
100
AcDbEntity
  8
BLOCKS
100
AcDbPolyline
 90
       13
 70
   128
 43
0.0
 10
0.2256246184654884
 20
-0.3947762761663398
 10
0.2274994020454386
 20
-0.3926357465351202
 10
0.2297032372485148
 20
-0.3908358931315661
 10
0.2321811484040381
 20
-0.3894340638141784
 10
0.2348592949976194
 20
-0.3884687650879641
 10
0.2376408993942505
 20
-0.3879799478434052
 10
0.2404650039206047
 20
-0.3879680051406922
 10
0.2432124085051726
 20
-0.3884318495814796
 10
0.2458441734761152
 20
-0.3893470771450893
 10
0.2482840768956009
 20
-0.3906912234521087
 10
0.2504697201454746
 20
-0.3924185190711569
 10
0.2523507853798179
 20
-0.3944989097423104
 10
0.2538662975324826
 20
-0.3968589837032823
  0
LWPOLYLINE
  5
127
330
70
100
AcDbEntity
  8
BLOCKS
100
AcDbPolyline
 90
       13
 70
   128
 43
0.0
 10
0.253419136541936
 20
-0.4029206752600203
 10
0.2515443529620001
 20
-0.4050612048912399
 10
0.2493405177589238
 20
-0.4068610582949077
 10
0.2468626066034005
 20
-0.4082628876121817
 10
0.2441844600098051
 20
-0.409228186338396
 10
0.2414028556131882
 20
-0.409717003582955
 10
0.238578751086834
 20
-0.409728946285668
 10
0.2358313465022661
 20
-0.4092651018448806
 10
0.2331995815313235
 20
-0.4083498742812708
 10
0.2307596781118235
 20
-0.4070057279743651
 10
0.2285740348619498
 20
-0.4052784323552033
 10
0.2266929696276207
 20
-0.4031980416841634
 10
0.2251774574749561
 20
-0.4008379677230778
  0
LWPOLYLINE
  5
128
330
70
100
AcDbEntity
  8
BLOCKS
100
AcDbPolyline
 90
       13
 70
   128
 43
0.0
 10
0.1657282133792819
 20
-0.4563700527484116
 10
0.1675655531526559
 20
-0.454197307757795
 10
0.1697378093904547
 20
-0.4523594768018029
 10
0.1721910103105557
 20
-0.45091485323087
 10
0.1748519950281064
 20
-0.4499032192894675
 10
0.1776246940691095
 20
-0.4493661994760032
 10
0.1804481657682828
 20
-0.4493052447439823
 10
0.1832032091351721
 20
-0.4497213366394135
 10
0.1858504666910505
 20
-0.4505907506370477
 10
0.1883133379820236
 20
-0.4518923486139102
 10
0.1905286391964722
 20
-0.4535814509957845
 10
0.1924455383030619
 20
-0.455628881343273
 10
0.1940017949342518
 20
-0.4579622972097468
  0
LWPOLYLINE
  5
129
330
70
100
AcDbEntity
  8
BLOCKS
100
AcDbPolyline
 90
        5
 70
   128
 43
0.0
 10
0.1340788339948915
 20
-0.5201051764396425
 10
0.1347508400654647
 20
-0.5218987892701535
 10
0.1347862823407695
 20
-0.5238164534821408
 10
0.1341941414087415
 20
-0.5255962365271217
 10
0.1338423825949775
 20
-0.5261787342390108
  0
LWPOLYLINE
  5
12A
330
70
100
AcDbEntity
  8
BLOCKS
100
AcDbPolyline
 90
        5
 70
   128
 43
0.0
 10
0.1340788339948915
 20
-0.4551150762545149
 10
0.1347508400654647
 20
-0.4569086890850258
 10
0.1347862823407695
 20
-0.4588263532970132
 10
0.1341941414087415
 20
-0.4606061363418803
 10
0.1338423825949775
 20
-0.4611886340538831
  0
LWPOLYLINE
  5
12B
330
70
100
AcDbEntity
  8
BLOCKS
100
AcDbPolyline
 90
       13
 70
   128
 43
0.0
 10
0.1936599372332353
 20
-0.5290209363859049
 10
0.1918225974598613
 20
-0.5311936813766352
 10
0.1896503412220625
 20
-0.5330315123326273
 10
0.1871971403019614
 20
-0.5344761359035602
 10
0.1845361555844107
 20
-0.5354877698449628
 10
0.1817634565434076
 20
-0.536024789658427
 10
0.1789399848442343
 20
-0.5360857443904479
 10
0.1761849414773451
 20
-0.5356696524950167
 10
0.1735376839214666
 20
-0.5348002384973825
 10
0.1710748126304935
 20
-0.53349864052052
 10
0.1688595114160449
 20
-0.5318095381386457
 10
0.1669426123094553
 20
-0.5297621077910435
 10
0.1653863556782653
 20
-0.5274286919246834
  0
LWPOLYLINE
  5
12C
330
70
100
AcDbEntity
  8
BLOCKS
100
AcDbPolyline
 90
       13
 70
   128
 43
0.0
 10
0.1657282133792819
 20
-0.5213601529336529
 10
0.1675655531526559
 20
-0.5191874079429227
 10
0.1697378093904547
 20
-0.5173495769869306
 10
0.1721910103105557
 20
-0.5159049534159977
 10
0.1748519950281064
 20
-0.5148933194745951
 10
0.1776246940691095
 20
-0.5143562996611309
 10
0.1804481657682828
 20
-0.5142953449291099
 10
0.1832032091351721
 20
-0.5147114368245412
 10
0.1858504666910505
 20
-0.5155808508221753
 10
0.1883133379820236
 20
-0.5168824487990378
 10
0.1905286391964722
 20
-0.5185715511809122
 10
0.1924455383030619
 20
-0.5206189815285143
 10
0.1940017949342518
 20
-0.5229523973948745
  0
LWPOLYLINE
  5
12D
330
70
100
AcDbEntity
  8
BLOCKS
100
AcDbPolyline
 90
        5
 70
   128
 43
0.0
 10
0.1653863556782653
 20
-0.5274286919246834
 10
0.1647455894393488
 20
-0.525623686306858
 10
0.164743444721509
 20
-0.5237056958991389
 10
0.1653663949268349
 20
-0.5219364579235162
 10
0.1657282133792819
 20
-0.5213601529336529
  0
LWPOLYLINE
  5
12E
330
70
100
AcDbEntity
  8
BLOCKS
100
AcDbPolyline
 90
        5
 70
   128
 43
0.0
 10
0.1940017949342518
 20
-0.5229523973948745
 10
0.1946425611731826
 20
-0.5247574030126998
 10
0.1946447058910081
 20
-0.526675393420419
 10
0.1940217556856822
 20
-0.5284446313960416
 10
0.1936599372332353
 20
-0.5290209363859049
  0
LWPOLYLINE
  5
12F
330
70
100
AcDbEntity
  8
BLOCKS
100
AcDbPolyline
 90
       13
 70
   128
 43
0.0
 10
0.1936599372332353
 20
-0.4640308362007773
 10
0.1918225974598613
 20
-0.4662035811915075
 10
0.1896503412220625
 20
-0.468041412147386
 10
0.1871971403019614
 20
-0.4694860357183189
 10
0.1845361555844107
 20
-0.4704976696598351
 10
0.1817634565434076
 20
-0.4710346894732993
 10
0.1789399848442343
 20
-0.4710956442053203
 10
0.1761849414773451
 20
-0.470679552309889
 10
0.1735376839214666
 20
-0.4698101383121412
 10
0.1710748126304935
 20
-0.4685085403353924
 10
0.1688595114160449
 20
-0.466819437953518
 10
0.1669426123094553
 20
-0.4647720076059159
 10
0.1653863556782653
 20
-0.4624385917394421
  0
LWPOLYLINE
  5
130
330
70
100
AcDbEntity
  8
BLOCKS
100
AcDbPolyline
 90
        5
 70
   128
 43
0.0
 10
0.1653863556782653
 20
-0.4624385917394421
 10
0.1647455894393488
 20
-0.4606335861216167
 10
0.164743444721509
 20
-0.4587155957140113
 10
0.1653663949268349
 20
-0.4569463577382749
 10
0.1657282133792819
 20
-0.4563700527484116
  0
LWPOLYLINE
  5
131
330
70
100
AcDbEntity
  8
BLOCKS
100
AcDbPolyline
 90
        5
 70
   128
 43
0.0
 10
0.1940017949342518
 20
-0.4579622972097468
 10
0.1946425611731826
 20
-0.4597673028275722
 10
0.1946447058910081
 20
-0.4616852932351776
 10
0.1940217556856822
 20
-0.463454531210914
 10
0.1936599372332353
 20
-0.4640308362007773
  0
LWPOLYLINE
  5
132
330
70
100
AcDbEntity
  8
BLOCKS
100
AcDbPolyline
 90
        5
 70
   128
 43
0.0
 10
0.2251774574749561
 20
-0.5308181680933331
 10
0.2245681241490587
 20
-0.5290023135885349
 10
0.2245992776349794
 20
-0.5270845749311093
 10
0.2252528494007038
 20
-0.5253264151471058
 10
0.2256246184654884
 20
-0.5247564765367088
  0
LWPOLYLINE
  5
133
330
70
100
AcDbEntity
  8
BLOCKS
100
AcDbPolyline
 90
        5
 70
   128
 43
0.0
 10
0.2251774574749561
 20
-0.4658280679082055
 10
0.2245681241490587
 20
-0.4640122134034073
 10
0.2245992776349794
 20
-0.4620944747459817
 10
0.2252528494007038
 20
-0.4603363149619782
 10
0.2256246184654884
 20
-0.4597663763514675
  0
LWPOLYLINE
  5
134
330
70
100
AcDbEntity
  8
BLOCKS
100
AcDbPolyline
 90
        5
 70
   128
 43
0.0
 10
0.1340788339948915
 20
-0.3901249760692735
 10
0.1347508400654647
 20
-0.3919185888997845
 10
0.1347862823407695
 20
-0.3938362531117718
 10
0.1341941414087415
 20
-0.3956160361567527
 10
0.1338423825949775
 20
-0.3961985338686418
  0
LWPOLYLINE
  5
135
330
70
100
AcDbEntity
  8
BLOCKS
100
AcDbPolyline
 90
       13
 70
   128
 43
0.0
 10
0.1657282133792819
 20
-0.3913799525632839
 10
0.1675655531526559
 20
-0.3892072075725537
 10
0.1697378093904547
 20
-0.3873693766166752
 10
0.1721910103105557
 20
-0.3859247530457423
 10
0.1748519950281064
 20
-0.3849131191042261
 10
0.1776246940691095
 20
-0.3843760992907619
 10
0.1804481657682828
 20
-0.3843151445587409
 10
0.1832032091351721
 20
-0.3847312364541722
 10
0.1858504666910505
 20
-0.38560065045192
 10
0.1883133379820236
 20
-0.3869022484286688
 10
0.1905286391964722
 20
-0.3885913508105432
 10
0.1924455383030619
 20
-0.3906387811581453
 10
0.1940017949342518
 20
-0.3929721970246191
  0
LWPOLYLINE
  5
136
330
70
100
AcDbEntity
  8
BLOCKS
100
AcDbPolyline
 90
       13
 70
   128
 43
0.0
 10
0.1936599372332353
 20
-0.3990407360156496
 10
0.1918225974598613
 20
-0.4012134810062662
 10
0.1896503412220625
 20
-0.4030513119622583
 10
0.1871971403019614
 20
-0.4044959355331912
 10
0.1845361555844107
 20
-0.4055075694745938
 10
0.1817634565434076
 20
-0.406044589288058
 10
0.1789399848442343
 20
-0.406105544020079
 10
0.1761849414773451
 20
-0.4056894521246477
 10
0.1735376839214666
 20
-0.4048200381270135
 10
0.1710748126304935
 20
-0.4035184401501511
 10
0.1688595114160449
 20
-0.4018293377682767
 10
0.1669426123094553
 20
-0.3997819074207882
 10
0.1653863556782653
 20
-0.3974484915543144
  0
LWPOLYLINE
  5
137
330
70
100
AcDbEntity
  8
BLOCKS
100
AcDbPolyline
 90
        5
 70
   128
 43
0.0
 10
0.1653863556782653
 20
-0.3974484915543144
 10
0.1647455894393488
 20
-0.395643485936489
 10
0.164743444721509
 20
-0.3937254955288836
 10
0.1653663949268349
 20
-0.3919562575531472
 10
0.1657282133792819
 20
-0.3913799525632839
  0
LWPOLYLINE
  5
138
330
70
100
AcDbEntity
  8
BLOCKS
100
AcDbPolyline
 90
        5
 70
   128
 43
0.0
 10
0.1940017949342518
 20
-0.3929721970246191
 10
0.1946425611731826
 20
-0.3947772026424445
 10
0.1946447058910081
 20
-0.39669519305005
 10
0.1940217556856822
 20
-0.3984644310257863
 10
0.1936599372332353
 20
-0.3990407360156496
  0
LWPOLYLINE
  5
139
330
70
100
AcDbEntity
  8
BLOCKS
100
AcDbPolyline
 90
        5
 70
   128
 43
0.0
 10
0.2251774574749561
 20
-0.4008379677230778
 10
0.2245681241490587
 20
-0.3990221132181659
 10
0.2245992776349794
 20
-0.397104374560854
 10
0.2252528494007038
 20
-0.3953462147768505
 10
0.2256246184654884
 20
-0.3947762761663398
  0
LWPOLYLINE
  5
13A
330
70
100
AcDbEntity
  8
BLOCKS
100
AcDbPolyline
 90
        5
 70
   128
 43
0.0
 10
0.2538662975324826
 20
-0.5268391840736513
 10
0.25447563085838
 20
-0.5286550385784495
 10
0.2544444773724592
 20
-0.5305727772358751
 10
0.2537909056067349
 20
-0.5323309370198786
 10
0.253419136541936
 20
-0.5329008756303893
  0
LWPOLYLINE
  5
13B
330
70
100
AcDbEntity
  8
BLOCKS
100
AcDbPolyline
 90
        5
 70
   128
 43
0.0
 10
0.2538662975324826
 20
-0.4618490838885237
 10
0.25447563085838
 20
-0.4636649383933218
 10
0.2544444773724592
 20
-0.4655826770507474
 10
0.2537909056067349
 20
-0.467340836834751
 10
0.253419136541936
 20
-0.4679107754452616
  0
LWPOLYLINE
  5
13C
330
70
100
AcDbEntity
  8
BLOCKS
100
AcDbPolyline
 90
        5
 70
   128
 43
0.0
 10
0.2538662975324826
 20
-0.3968589837032823
 10
0.25447563085838
 20
-0.3986748382081941
 10
0.2544444773724592
 20
-0.4005925768656198
 10
0.2537909056067349
 20
-0.4023507366496233
 10
0.253419136541936
 20
-0.4029206752600203
  0
LWPOLYLINE
  5
13D
330
70
100
AcDbEntity
  8
BLOCKS
100
AcDbPolyline
 90
        5
 70
   128
 43
0.0
 10
0.3136182619993519
 20
-0.5317610813835927
 10
0.3141959979288487
 20
-0.5335872315570214
 10
0.314131575703513
 20
-0.5355041412688025
 10
0.3134475976100788
 20
-0.5372507002384737
 10
0.3130659958585511
 20
-0.537814104726067
  0
LWPOLYLINE
  5
13E
330
70
100
AcDbEntity
  8
BLOCKS
100
AcDbPolyline
 90
        5
 70
   128
 43
0.0
 10
0.2848647023705411
 20
-0.5352418569714246
 10
0.2842869664410443
 20
-0.5334157067979959
 10
0.28435138866638
 20
-0.5314987970862149
 10
0.2850353667598
 20
-0.5297522381166573
 10
0.2854169685113419
 20
-0.5291888336289503
  0
LWPOLYLINE
  5
13F
330
70
100
AcDbEntity
  8
BLOCKS
100
AcDbPolyline
 90
       13
 70
   128
 43
0.0
 10
0.3130659958585511
 20
-0.537814104726067
 10
0.3111543554733771
 20
-0.5399217940101835
 10
0.3089196238317555
 20
-0.5416831509122631
 10
0.3064177633366398
 20
-0.5430417897598545
 10
0.3037232714918048
 20
-0.5439604906109708
 10
0.3009336045306981
 20
-0.5444009872006746
 10
0.2981097177732437
 20
-0.5443639438426544
 10
0.2953707744866847
 20
-0.5438525153040246
 10
0.292755285064942
 20
-0.5428917773438116
 10
0.2903390702109902
 20
-0.5415055130355313
 10
0.2881837250376833
 20
-0.5397405672304103
 10
0.2863390383671884
 20
-0.5376278624320321
 10
0.2848647023705411
 20
-0.5352418569714246
  0
LWPOLYLINE
  5
140
330
70
100
AcDbEntity
  8
BLOCKS
100
AcDbPolyline
 90
       21
 70
   128
 43
0.0
 10
0.2854169685113419
 20
-0.5291888336289503
 10
0.2863113116763003
 20
-0.5281129200853912
 10
0.2872910273755735
 20
-0.5271140923205167
 10
0.2883496527255147
 20
-0.5261992829232441
 10
0.2895633405381233
 20
-0.5253197874427542
 10
0.2907625447047195
 20
-0.5245989458571785
 10
0.292026477145157
 20
-0.5239762858886934
 10
0.2933197632441988
 20
-0.5234683739760158
 10
0.294759692878074
 20
-0.5230424477441602
 10
0.2961195888784687
 20
-0.522765804574533
 10
0.2988848909444499
 20
-0.5225581587567377
 10
0.3003732465966493
 20
-0.5226389945123629
 10
0.303074106511886
 20
-0.5231381979931485
 10
0.3043706047396313
 20
-0.5235494021426348
 10
0.305727679304951
 20
-0.5241111610112057
 10
0.3081127607180747
 20
-0.525474076295609
 10
0.3092025076439455
 20
-0.5262887554241616
 10
0.3102992393321955
 20
-0.5272623711247207
 10
0.3121221760839887
 20
-0.529343069800234
 10
0.312893046068254
 20
-0.5304760424101005
 10
0.3136182619993519
 20
-0.5317610813835927
  0
LWPOLYLINE
  5
141
330
70
100
AcDbEntity
  8
BLOCKS
100
AcDbPolyline
 90
       13
 70
   128
 43
0.0
 10
0.2854169685113419
 20
-0.464198733443709
 10
0.2873286088965159
 20
-0.4620910441597062
 10
0.2895633405381233
 20
-0.4603296872576266
 10
0.2920652010332532
 20
-0.4589710484099215
 10
0.294759692878074
 20
-0.4580523475589189
 10
0.2975493598391949
 20
-0.4576118509692151
 10
0.3003732465966493
 20
-0.4576488943272353
 10
0.3031121898832083
 20
-0.4581603228658651
 10
0.305727679304951
 20
-0.4591210608260781
 10
0.3081438941589027
 20
-0.4605073251343584
 10
0.3102992393321955
 20
-0.4622722709394794
 10
0.3121439260027046
 20
-0.4643849757378576
 10
0.3136182619993519
 20
-0.4667709811984651
  0
LWPOLYLINE
  5
142
330
70
100
AcDbEntity
  8
BLOCKS
100
AcDbPolyline
 90
       13
 70
   128
 43
0.0
 10
0.3130659958585511
 20
-0.4728240045409394
 10
0.3111543554733771
 20
-0.4749316938250559
 10
0.3089196238317555
 20
-0.4766930507271355
 10
0.3064177633366398
 20
-0.4780516895747269
 10
0.3037232714918048
 20
-0.4789703904257295
 10
0.3009336045306981
 20
-0.4794108870154333
 10
0.2981097177732437
 20
-0.4793738436575268
 10
0.2953707744866847
 20
-0.4788624151187833
 10
0.292755285064942
 20
-0.477901677158684
 10
0.2903390702109902
 20
-0.4765154128504037
 10
0.2881837250376833
 20
-0.474750467045169
 10
0.2863390383671884
 20
-0.4726377622467908
 10
0.2848647023705411
 20
-0.470251756786297
  0
LWPOLYLINE
  5
143
330
70
100
AcDbEntity
  8
BLOCKS
100
AcDbPolyline
 90
        5
 70
   128
 43
0.0
 10
0.2848647023705411
 20
-0.470251756786297
 10
0.2842869664410443
 20
-0.4684256066128683
 10
0.28435138866638
 20
-0.4665086969010872
 10
0.2850353667598
 20
-0.464762137931416
 10
0.2854169685113419
 20
-0.464198733443709
  0
LWPOLYLINE
  5
144
330
70
100
AcDbEntity
  8
BLOCKS
100
AcDbPolyline
 90
        5
 70
   128
 43
0.0
 10
0.3136182619993519
 20
-0.4667709811984651
 10
0.3141959979288487
 20
-0.4685971313718938
 10
0.314131575703513
 20
-0.4705140410836748
 10
0.3134475976100788
 20
-0.4722606000532324
 10
0.3130659958585511
 20
-0.4728240045409394
  0
LWPOLYLINE
  5
145
330
70
100
AcDbEntity
  8
BLOCKS
100
AcDbPolyline
 90
       13
 70
   128
 43
0.0
 10
0.3130659958585511
 20
-0.4078339043558117
 10
0.3111543554733771
 20
-0.4099415936398146
 10
0.3089196238317555
 20
-0.4117029505418941
 10
0.3064177633366398
 20
-0.4130615893895993
 10
0.3037232714918048
 20
-0.4139802902406018
 10
0.3009336045306981
 20
-0.4144207868303056
 10
0.2981097177732437
 20
-0.4143837434722855
 10
0.2953707744866847
 20
-0.4138723149336557
 10
0.292755285064942
 20
-0.4129115769735563
 10
0.2903390702109902
 20
-0.4115253126651624
 10
0.2881837250376833
 20
-0.4097603668600414
 10
0.2863390383671884
 20
-0.4076476620616632
 10
0.2848647023705411
 20
-0.4052616566011693
  0
LWPOLYLINE
  5
146
330
70
100
AcDbEntity
  8
BLOCKS
100
AcDbPolyline
 90
       13
 70
   128
 43
0.0
 10
0.2854169685113419
 20
-0.3992086332585813
 10
0.2873286088965159
 20
-0.3971009439745785
 10
0.2895633405381233
 20
-0.3953395870724989
 10
0.2920652010332532
 20
-0.3939809482247938
 10
0.294759692878074
 20
-0.3930622473737912
 10
0.2975493598391949
 20
-0.3926217507840874
 10
0.3003732465966493
 20
-0.3926587941421076
 10
0.3031121898832083
 20
-0.3931702226807374
 10
0.305727679304951
 20
-0.3941309606408367
 10
0.3081438941589027
 20
-0.3955172249492307
 10
0.3102992393321955
 20
-0.3972821707543517
 10
0.3121439260027046
 20
-0.3993948755527299
 10
0.3136182619993519
 20
-0.4017808810132238
  0
LWPOLYLINE
  5
147
330
70
100
AcDbEntity
  8
BLOCKS
100
AcDbPolyline
 90
        5
 70
   128
 43
0.0
 10
0.2848647023705411
 20
-0.4052616566011693
 10
0.2842869664410443
 20
-0.403435506427627
 10
0.28435138866638
 20
-0.4015185967158459
 10
0.2850353667598
 20
-0.3997720377462883
 10
0.2854169685113419
 20
-0.3992086332585813
  0
LWPOLYLINE
  5
148
330
70
100
AcDbEntity
  8
BLOCKS
100
AcDbPolyline
 90
        5
 70
   128
 43
0.0
 10
0.3136182619993519
 20
-0.4017808810132238
 10
0.3141959979288487
 20
-0.4036070311866525
 10
0.314131575703513
 20
-0.4055239408985472
 10
0.3134475976100788
 20
-0.4072704998681047
 10
0.3130659958585511
 20
-0.4078339043558117
  0
LWPOLYLINE
  5
149
330
70
100
AcDbEntity
  8
BLOCKS
100
AcDbPolyline
 90
       13
 70
   128
 43
0.0
 10
0.2256246184654884
 20
-0.3297861759812122
 10
0.2274994020454386
 20
-0.3276456463499926
 10
0.2297032372485148
 20
-0.3258457929463248
 10
0.2321811484040381
 20
-0.3244439636289371
 10
0.2348592949976194
 20
-0.3234786649027228
 10
0.2376408993942505
 20
-0.3229898476582775
 10
0.2404650039206047
 20
-0.3229779049554509
 10
0.2432124085051726
 20
-0.3234417493962383
 10
0.2458441734761152
 20
-0.3243569769599617
 10
0.2482840768956009
 20
-0.3257011232668674
 10
0.2504697201454746
 20
-0.3274284188860292
 10
0.2523507853798179
 20
-0.3295088095570691
 10
0.2538662975324826
 20
-0.3318688835181547
  0
LWPOLYLINE
  5
14A
330
70
100
AcDbEntity
  8
BLOCKS
100
AcDbPolyline
 90
       13
 70
   128
 43
0.0
 10
0.253419136541936
 20
-0.3379305750748927
 10
0.2515443529620001
 20
-0.3400711047061122
 10
0.2493405177589238
 20
-0.3418709581096664
 10
0.2468626066034005
 20
-0.343272787427054
 10
0.2441844600098051
 20
-0.3442380861532683
 10
0.2414028556131882
 20
-0.3447269033978273
 10
0.238578751086834
 20
-0.3447388461005403
 10
0.2358313465022661
 20
-0.3442750016597529
 10
0.2331995815313235
 20
-0.3433597740960295
 10
0.2307596781118235
 20
-0.3420156277891237
 10
0.2285740348619498
 20
-0.3402883321700756
 10
0.2266929696276207
 20
-0.3382079414989221
 10
0.2251774574749561
 20
-0.3358478675378365
  0
LWPOLYLINE
  5
14B
330
70
100
AcDbEntity
  8
BLOCKS
100
AcDbPolyline
 90
       13
 70
   128
 43
0.0
 10
0.2256246184654884
 20
-0.2647960757959709
 10
0.2274994020454386
 20
-0.2626555461647513
 10
0.2297032372485148
 20
-0.2608556927611971
 10
0.2321811484040381
 20
-0.2594538634438095
 10
0.2348592949976194
 20
-0.2584885647175952
 10
0.2376408993942505
 20
-0.2579997474731499
 10
0.2404650039206047
 20
-0.2579878047703232
 10
0.2432124085051726
 20
-0.2584516492111106
 10
0.2458441734761152
 20
-0.259366876774834
 10
0.2482840768956009
 20
-0.2607110230817398
 10
0.2504697201454746
 20
-0.2624383187009016
 10
0.2523507853798179
 20
-0.2645187093719414
 10
0.2538662975324826
 20
-0.2668787833330271
  0
LWPOLYLINE
  5
14C
330
70
100
AcDbEntity
  8
BLOCKS
100
AcDbPolyline
 90
       13
 70
   128
 43
0.0
 10
0.253419136541936
 20
-0.272940474889765
 10
0.2515443529620001
 20
-0.2750810045208709
 10
0.2493405177589238
 20
-0.2768808579245388
 10
0.2468626066034005
 20
-0.2782826872419264
 10
0.2441844600098051
 20
-0.2792479859681407
 10
0.2414028556131882
 20
-0.279736803212586
 10
0.238578751086834
 20
-0.2797487459154126
 10
0.2358313465022661
 20
-0.2792849014746253
 10
0.2331995815313235
 20
-0.2783696739109018
 10
0.2307596781118235
 20
-0.2770255276039961
 10
0.2285740348619498
 20
-0.2752982319848343
 10
0.2266929696276207
 20
-0.2732178413137944
 10
0.2251774574749561
 20
-0.2708577673527088
  0
LWPOLYLINE
  5
14D
330
70
100
AcDbEntity
  8
BLOCKS
100
AcDbPolyline
 90
        5
 70
   128
 43
0.0
 10
0.1340788339948915
 20
-0.3251348758841459
 10
0.1347508400654647
 20
-0.3269284887146568
 10
0.1347862823407695
 20
-0.3288461529266442
 10
0.1341941414087415
 20
-0.330625935971625
 10
0.1338423825949775
 20
-0.3312084336835142
  0
LWPOLYLINE
  5
14E
330
70
100
AcDbEntity
  8
BLOCKS
100
AcDbPolyline
 90
       13
 70
   128
 43
0.0
 10
0.1657282133792819
 20
-0.3263898523781563
 10
0.1675655531526559
 20
-0.324217107387426
 10
0.1697378093904547
 20
-0.3223792764314339
 10
0.1721910103105557
 20
-0.320934652860501
 10
0.1748519950281064
 20
-0.3199230189190985
 10
0.1776246940691095
 20
-0.3193859991056342
 10
0.1804481657682828
 20
-0.3193250443736133
 10
0.1832032091351721
 20
-0.3197411362690445
 10
0.1858504666910505
 20
-0.3206105502666787
 10
0.1883133379820236
 20
-0.3219121482435412
 10
0.1905286391964722
 20
-0.3236012506254156
 10
0.1924455383030619
 20
-0.3256486809730177
 10
0.1940017949342518
 20
-0.3279820968393778
  0
LWPOLYLINE
  5
14F
330
70
100
AcDbEntity
  8
BLOCKS
100
AcDbPolyline
 90
        5
 70
   128
 43
0.0
 10
0.1653863556782653
 20
-0.3324583913691868
 10
0.1647455894393488
 20
-0.3306533857513614
 10
0.164743444721509
 20
-0.3287353953436423
 10
0.1653663949268349
 20
-0.3269661573680196
 10
0.1657282133792819
 20
-0.3263898523781563
  0
LWPOLYLINE
  5
150
330
70
100
AcDbEntity
  8
BLOCKS
100
AcDbPolyline
 90
       13
 70
   128
 43
0.0
 10
0.1936599372332353
 20
-0.3340506358304083
 10
0.1918225974598613
 20
-0.3362233808211386
 10
0.1896503412220625
 20
-0.3380612117771307
 10
0.1871971403019614
 20
-0.3395058353480636
 10
0.1845361555844107
 20
-0.3405174692894661
 10
0.1817634565434076
 20
-0.3410544891029303
 10
0.1789399848442343
 20
-0.3411154438349513
 10
0.1761849414773451
 20
-0.3406993519395201
 10
0.1735376839214666
 20
-0.3398299379418859
 10
0.1710748126304935
 20
-0.3385283399650234
 10
0.1688595114160449
 20
-0.336839237583149
 10
0.1669426123094553
 20
-0.3347918072355469
 10
0.1653863556782653
 20
-0.3324583913691868
  0
LWPOLYLINE
  5
151
330
70
100
AcDbEntity
  8
BLOCKS
100
AcDbPolyline
 90
        5
 70
   128
 43
0.0
 10
0.1940017949342518
 20
-0.3279820968393778
 10
0.1946425611731826
 20
-0.3297871024572032
 10
0.1946447058910081
 20
-0.3317050928649223
 10
0.1940217556856822
 20
-0.333474330840545
 10
0.1936599372332353
 20
-0.3340506358304083
  0
LWPOLYLINE
  5
152
330
70
100
AcDbEntity
  8
BLOCKS
100
AcDbPolyline
 90
        5
 70
   128
 43
0.0
 10
0.2251774574749561
 20
-0.3358478675378365
 10
0.2245681241490587
 20
-0.3340320130330383
 10
0.2245992776349794
 20
-0.3321142743756127
 10
0.2252528494007038
 20
-0.3303561145916092
 10
0.2256246184654884
 20
-0.3297861759812122
  0
LWPOLYLINE
  5
153
330
70
100
AcDbEntity
  8
BLOCKS
100
AcDbPolyline
 90
        5
 70
   128
 43
0.0
 10
0.1340788339948915
 20
-0.2601447756990183
 10
0.1347508400654647
 20
-0.2619383885295292
 10
0.1347862823407695
 20
-0.2638560527415166
 10
0.1341941414087415
 20
-0.2656358357863837
 10
0.1338423825949775
 20
-0.2662183334983865
  0
LWPOLYLINE
  5
154
330
70
100
AcDbEntity
  8
BLOCKS
100
AcDbPolyline
 90
       13
 70
   128
 43
0.0
 10
0.1657282133792819
 20
-0.261399752192915
 10
0.1675655531526559
 20
-0.2592270072022984
 10
0.1697378093904547
 20
-0.2573891762463063
 10
0.1721910103105557
 20
-0.2559445526753734
 10
0.1748519950281064
 20
-0.2549329187339708
 10
0.1776246940691095
 20
-0.2543958989205066
 10
0.1804481657682828
 20
-0.2543349441884857
 10
0.1832032091351721
 20
-0.2547510360839169
 10
0.1858504666910505
 20
-0.2556204500815511
 10
0.1883133379820236
 20
-0.2569220480584136
 10
0.1905286391964722
 20
-0.2586111504402879
 10
0.1924455383030619
 20
-0.2606585807877764
 10
0.1940017949342518
 20
-0.2629919966542502
  0
LWPOLYLINE
  5
155
330
70
100
AcDbEntity
  8
BLOCKS
100
AcDbPolyline
 90
       13
 70
   128
 43
0.0
 10
0.1936599372332353
 20
-0.2690605356452806
 10
0.1918225974598613
 20
-0.2712332806360109
 10
0.1896503412220625
 20
-0.2730711115918893
 10
0.1871971403019614
 20
-0.2745157351628222
 10
0.1845361555844107
 20
-0.2755273691043385
 10
0.1817634565434076
 20
-0.2760643889178027
 10
0.1789399848442343
 20
-0.2761253436498237
 10
0.1761849414773451
 20
-0.2757092517543924
 10
0.1735376839214666
 20
-0.2748398377566446
 10
0.1710748126304935
 20
-0.2735382397798958
 10
0.1688595114160449
 20
-0.2718491373980214
 10
0.1669426123094553
 20
-0.2698017070504193
 10
0.1653863556782653
 20
-0.2674682911839454
  0
LWPOLYLINE
  5
156
330
70
100
AcDbEntity
  8
BLOCKS
100
AcDbPolyline
 90
        5
 70
   128
 43
0.0
 10
0.1653863556782653
 20
-0.2674682911839454
 10
0.1647455894393488
 20
-0.2656632855661201
 10
0.164743444721509
 20
-0.2637452951585146
 10
0.1653663949268349
 20
-0.2619760571827783
 10
0.1657282133792819
 20
-0.261399752192915
  0
LWPOLYLINE
  5
157
330
70
100
AcDbEntity
  8
BLOCKS
100
AcDbPolyline
 90
        5
 70
   128
 43
0.0
 10
0.1940017949342518
 20
-0.2629919966542502
 10
0.1946425611731826
 20
-0.2647970022720756
 10
0.1946447058910081
 20
-0.266714992679681
 10
0.1940217556856822
 20
-0.2684842306554174
 10
0.1936599372332353
 20
-0.2690605356452806
  0
LWPOLYLINE
  5
158
330
70
100
AcDbEntity
  8
BLOCKS
100
AcDbPolyline
 90
        5
 70
   128
 43
0.0
 10
0.2251774574749561
 20
-0.2708577673527088
 10
0.2245681241490587
 20
-0.2690419128479107
 10
0.2245992776349794
 20
-0.2671241741904851
 10
0.2252528494007038
 20
-0.2653660144064815
 10
0.2256246184654884
 20
-0.2647960757959709
  0
LWPOLYLINE
  5
159
330
70
100
AcDbEntity
  8
BLOCKS
100
AcDbPolyline
 90
        5
 70
   128
 43
0.0
 10
0.2538662975324826
 20
-0.3318688835181547
 10
0.25447563085838
 20
-0.3336847380229528
 10
0.2544444773724592
 20
-0.3356024766803785
 10
0.2537909056067349
 20
-0.337360636464382
 10
0.253419136541936
 20
-0.3379305750748927
  0
LWPOLYLINE
  5
15A
330
70
100
AcDbEntity
  8
BLOCKS
100
AcDbPolyline
 90
        5
 70
   128
 43
0.0
 10
0.2538662975324826
 20
-0.2668787833330271
 10
0.25447563085838
 20
-0.2686946378378252
 10
0.2544444773724592
 20
-0.2706123764952508
 10
0.2537909056067349
 20
-0.2723705362792543
 10
0.253419136541936
 20
-0.272940474889765
  0
LWPOLYLINE
  5
15B
330
70
100
AcDbEntity
  8
BLOCKS
100
AcDbPolyline
 90
       13
 70
   128
 43
0.0
 10
0.2854169685113419
 20
-0.3342185330734537
 10
0.2873286088965159
 20
-0.3321108437893372
 10
0.2895633405381233
 20
-0.3303494868872576
 10
0.2920652010332532
 20
-0.3289908480396662
 10
0.294759692878074
 20
-0.3280721471886636
 10
0.2975493598391949
 20
-0.3276316505989598
 10
0.3003732465966493
 20
-0.3276686939568663
 10
0.3031121898832083
 20
-0.3281801224956098
 10
0.305727679304951
 20
-0.3291408604557091
 10
0.3081438941589027
 20
-0.3305271247639894
 10
0.3102992393321955
 20
-0.332292070569224
 10
0.3121439260027046
 20
-0.3344047753674886
 10
0.3136182619993519
 20
-0.3367907808280961
  0
LWPOLYLINE
  5
15C
330
70
100
AcDbEntity
  8
BLOCKS
100
AcDbPolyline
 90
       13
 70
   128
 43
0.0
 10
0.3130659958585511
 20
-0.3428438041705704
 10
0.3111543554733771
 20
-0.3449514934546869
 10
0.3089196238317555
 20
-0.3467128503567665
 10
0.3064177633366398
 20
-0.3480714892043579
 10
0.3037232714918048
 20
-0.3489901900554742
 10
0.3009336045306981
 20
-0.349430686645178
 10
0.2981097177732437
 20
-0.3493936432871578
 10
0.2953707744866847
 20
-0.348882214748528
 10
0.292755285064942
 20
-0.347921476788315
 10
0.2903390702109902
 20
-0.3465352124800347
 10
0.2881837250376833
 20
-0.3447702666749137
 10
0.2863390383671884
 20
-0.3426575618765355
 10
0.2848647023705411
 20
-0.340271556415928
  0
LWPOLYLINE
  5
15D
330
70
100
AcDbEntity
  8
BLOCKS
100
AcDbPolyline
 90
        5
 70
   128
 43
0.0
 10
0.2848647023705411
 20
-0.340271556415928
 10
0.2842869664410443
 20
-0.3384454062424993
 10
0.28435138866638
 20
-0.3365284965307183
 10
0.2850353667598
 20
-0.3347819375611607
 10
0.2854169685113419
 20
-0.3342185330734537
  0
LWPOLYLINE
  5
15E
330
70
100
AcDbEntity
  8
BLOCKS
100
AcDbPolyline
 90
        5
 70
   128
 43
0.0
 10
0.3136182619993519
 20
-0.3367907808280961
 10
0.3141959979288487
 20
-0.3386169310015248
 10
0.314131575703513
 20
-0.3405338407133058
 10
0.3134475976100788
 20
-0.3422803996829771
 10
0.3130659958585511
 20
-0.3428438041705704
  0
LWPOLYLINE
  5
15F
330
70
100
AcDbEntity
  8
BLOCKS
100
AcDbPolyline
 90
       13
 70
   128
 43
0.0
 10
0.2854169685113419
 20
-0.2692284328882124
 10
0.2873286088965159
 20
-0.2671207436042096
 10
0.2895633405381233
 20
-0.26535938670213
 10
0.2920652010332532
 20
-0.2640007478544248
 10
0.294759692878074
 20
-0.2630820470034223
 10
0.2975493598391949
 20
-0.2626415504137185
 10
0.3003732465966493
 20
-0.2626785937717386
 10
0.3031121898832083
 20
-0.2631900223103685
 10
0.305727679304951
 20
-0.2641507602705815
 10
0.3081438941589027
 20
-0.2655370245788617
 10
0.3102992393321955
 20
-0.2673019703839827
 10
0.3121439260027046
 20
-0.2694146751823609
 10
0.3136182619993519
 20
-0.2718006806429685
  0
LWPOLYLINE
  5
160
330
70
100
AcDbEntity
  8
BLOCKS
100
AcDbPolyline
 90
       13
 70
   128
 43
0.0
 10
0.3130659958585511
 20
-0.2778537039854427
 10
0.3111543554733771
 20
-0.2799613932695593
 10
0.3089196238317555
 20
-0.2817227501716388
 10
0.3064177633366398
 20
-0.2830813890192303
 10
0.3037232714918048
 20
-0.2840000898702328
 10
0.3009336045306981
 20
-0.2844405864599366
 10
0.2981097177732437
 20
-0.2844035431020302
 10
0.2953707744866847
 20
-0.2838921145632867
 10
0.292755285064942
 20
-0.2829313766031873
 10
0.2903390702109902
 20
-0.2815451122949071
 10
0.2881837250376833
 20
-0.2797801664896724
 10
0.2863390383671884
 20
-0.2776674616912942
 10
0.2848647023705411
 20
-0.2752814562308004
  0
LWPOLYLINE
  5
161
330
70
100
AcDbEntity
  8
BLOCKS
100
AcDbPolyline
 90
        5
 70
   128
 43
0.0
 10
0.2848647023705411
 20
-0.2752814562308004
 10
0.2842869664410443
 20
-0.2734553060573717
 10
0.28435138866638
 20
-0.2715383963455906
 10
0.2850353667598
 20
-0.2697918373759194
 10
0.2854169685113419
 20
-0.2692284328882124
  0
LWPOLYLINE
  5
162
330
70
100
AcDbEntity
  8
BLOCKS
100
AcDbPolyline
 90
        5
 70
   128
 43
0.0
 10
0.3136182619993519
 20
-0.2718006806429685
 10
0.3141959979288487
 20
-0.2736268308163972
 10
0.314131575703513
 20
-0.2755437405281782
 10
0.3134475976100788
 20
-0.2772902994977358
 10
0.3130659958585511
 20
-0.2778537039854427
  0
ARC
  5
163
330
70
100
AcDbEntity
  8
BLOCKS
100
AcDbCircle
 10
0.4328143781724805
 20
-0.097758299096995
 30
0.0
 40
0.01
100
AcDbArc
 50
0.0
 51
82.47102359957677
  0
LINE
  5
164
330
70
100
AcDbEntity
  8
BLOCKS
100
AcDbLine
 10
0.502094607791392
 20
-0.7420946077913868
 30
0.0
 11
0.502094607791392
 21
-0.0120946077913686
 31
0.0
  0
ARC
  5
165
330
70
100
AcDbEntity
  8
BLOCKS
100
AcDbCircle
 10
0.4900000000000091
 20
-0.7420946077913868
 30
0.0
 40
0.0120946077913863
100
AcDbArc
 50
270.0
 51
0.0
  0
ARC
  5
166
330
70
100
AcDbEntity
  8
BLOCKS
100
AcDbCircle
 10
0.4900000000000091
 20
-0.0120946077913686
 30
0.0
 40
0.0120946077913863
100
AcDbArc
 50
0.0
 51
90.0
  0
ENDBLK
  5
168
330
70
100
AcDbEntity
  8
0
100
AcDbBlockEnd
  0
ENDSEC
  0
SECTION
  2
ENTITIES
  0
LINE
  5
26
330
2
100
AcDbEntity
  8
BLOCKS
100
AcDbLine
 10
-0.495086513684413
 20
0.1200000000000045
 30
0.0
 11
0.4950865136844272
 21
0.1200000000000045
 31
0.0
  0
LINE
  5
27
330
2
100
AcDbEntity
  8
BLOCKS
100
AcDbLine
 10
-0.5020946077913778
 20
0.0
 30
0.0
 11
0.502094607791392
 21
0.0
 31
0.0
  0
ARC
  5
28
330
2
100
AcDbEntity
  8
BLOCKS
100
AcDbCircle
 10
-0.495086513684413
 20
0.1150000000000091
 30
0.0
 40
0.005
100
AcDbArc
 50
90.0
 51
179.0000000000047
  0
LINE
  5
29
330
2
100
AcDbEntity
  8
BLOCKS
100
AcDbLine
 10
-0.5000857521602029
 20
0.1150872620322616
 30
0.0
 11
-0.5020946077913778
 21
0.0
 31
0.0
  0
ARC
  5
2A
330
2
100
AcDbEntity
  8
BLOCKS
100
AcDbCircle
 10
0.4950865136844272
 20
0.1150000000000091
 30
0.0
 40
0.0050000000000001
100
AcDbArc
 50
1.000000000001755
 51
90.0
  0
LINE
  5
2B
330
2
100
AcDbEntity
  8
BLOCKS
100
AcDbLine
 10
0.502094607791392
 20
0.0
 30
0.0
 11
0.5000857521602172
 21
0.1150872620322616
 31
0.0
  0
INSERT
  5
40
330
2
100
AcDbEntity
  8
BLOCKS
100
AcDbBlockReference
  2
107102AL
 10
1.071198788589214
 20
0.0076942204337853
 30
0.0
  0
INSERT
  5
6F
330
2
100
AcDbEntity
  8
BLOCKS
100
AcDbBlockReference
  2
107102CT
 10
1.802158780509038
 20
0.0076942204337853
 30
0.0
  0
INSERT
  5
169
330
2
100
AcDbEntity
  8
BLOCKS
100
AcDbBlockReference
  2
107102PL
 10
-1.333600362656094
 20
0.4400779977046439
 30
0.0
  0
ENDSEC
  0
SECTION
  2
OBJECTS
  0
DICTIONARY
  5
7
330
0
100
AcDbDictionary
281
     1
  3
ACAD_COLOR
350
31
  3
ACAD_GROUP
350
21
  3
ACAD_LAYOUT
350
B
  3
ACAD_MATERIAL
350
30
  3
ACAD_MLEADERSTYLE
350
1C1
  3
ACAD_MLINESTYLE
350
22
  3
ACAD_PLOTSETTINGS
350
23
  3
ACAD_PLOTSTYLENAME
350
6
  3
ACAD_SCALELIST
350
1AF
  3
ACAD_TABLESTYLE
350
32
  3
ACAD_VISUALSTYLE
350
19B
  3
ACDB_RECOMPOSE_DATA
350
1D1
  3
AcDbVariableDictionary
350
2C
  3
DWGPROPS
350
1D2
  0
DICTIONARY
  5
1C6
330
4
100
AcDbDictionary
280
     1
281
     1
  3
ADSK_XREC_LAYER_RECONCILED
360
1C7
  0
DICTIONARY
  5
1C8
330
24
100
AcDbDictionary
280
     1
281
     1
  3
ADSK_XREC_LAYER_RECONCILED
360
1C9
  0
DICTIONARY
  5
31
102
{ACAD_REACTORS
330
7
102
}
330
7
100
AcDbDictionary
281
     1
  0
DICTIONARY
  5
21
102
{ACAD_REACTORS
330
7
102
}
330
7
100
AcDbDictionary
281
     1
  0
DICTIONARY
  5
B
102
{ACAD_REACTORS
330
7
102
}
330
7
100
AcDbDictionary
281
     1
  3
Layout1
350
F
  3
Model
350
A
  0
DICTIONARY
  5
30
102
{ACAD_REACTORS
330
7
102
}
330
7
100
AcDbDictionary
281
     1
  3
ByBlock
350
18B
  3
ByLayer
350
183
  3
Global
350
193
  0
DICTIONARY
  5
1C1
102
{ACAD_REACTORS
330
7
102
}
330
7
100
AcDbDictionary
281
     1
  3
Standard
350
1C2
  0
DICTIONARY
  5
22
102
{ACAD_REACTORS
330
7
102
}
330
7
100
AcDbDictionary
281
     1
  3
Standard
350
25
  0
DICTIONARY
  5
23
102
{ACAD_REACTORS
330
7
102
}
330
7
100
AcDbDictionary
281
     1
  0
ACDBDICTIONARYWDFLT
  5
6
102
{ACAD_REACTORS
330
7
102
}
330
7
100
AcDbDictionary
281
     1
  3
Normal
350
5
100
AcDbDictionaryWithDefault
340
5
  0
DICTIONARY
  5
1AF
102
{ACAD_REACTORS
330
7
102
}
330
7
100
AcDbDictionary
281
     1
  3
A0
350
1B0
  3
A1
350
1B1
  3
A2
350
1B2
  3
A3
350
1B3
  3
A4
350
1B4
  3
A5
350
1B5
  3
A6
350
1B6
  3
A7
350
1B7
  3
A8
350
1B8
  3
A9
350
1B9
  3
B0
350
1BA
  3
B1
350
1BB
  3
B2
350
1BC
  3
B3
350
1BD
  3
B4
350
1BE
  3
B5
350
1BF
  3
B6
350
1C0
  0
DICTIONARY
  5
32
102
{ACAD_REACTORS
330
7
102
}
330
7
100
AcDbDictionary
281
     1
  3
Standard
350
33
  0
DICTIONARY
  5
19B
102
{ACAD_REACTORS
330
7
102
}
330
7
100
AcDbDictionary
281
     1
  3
2dWireframe
350
1A1
  3
3D Hidden
350
1A3
  3
3dWireframe
350
1A2
  3
Basic
350
1A0
  3
Brighten
350
1A7
  3
ColorChange
350
1AB
  3
Conceptual
350
1A4
  3
Dim
350
1A6
  3
EdgeColorOff
350
1AE
  3
Facepattern
350
1AA
  3
Flat
350
19C
  3
FlatWithEdges
350
19D
  3
Gouraud
350
19E
  3
GouraudWithEdges
350
19F
  3
JitterOff
350
1AC
  3
Linepattern
350
1A9
  3
OverhangOff
350
1AD
  3
Realistic
350
1A5
  3
Thicken
350
1A8
  0
XRECORD
  5
1D1
102
{ACAD_REACTORS
330
7
102
}
330
7
100
AcDbXrecord
280
     1
 90
        1
330
33
  0
DICTIONARY
  5
2C
102
{ACAD_REACTORS
330
7
102
}
330
7
100
AcDbDictionary
281
     1
  3
CANNOSCALE
350
1CB
  3
CMLEADERSTYLE
350
1CA
  3
CTABLESTYLE
350
180
  3
DIMASSOC
350
2E
  3
HIDETEXT
350
2D
  3
INDEXCTL
350
1CD
  3
PROJECTNAME
350
181
  3
SORTENTS
350
1CC
  3
XCLIPFRAME
350
1CE
  0
XRECORD
  5
1D2
102
{ACAD_REACTORS
330
7
102
}
330
7
100
AcDbXrecord
280
     1
  1
DWGPROPS COOKIE
  2

  3

  4

  6

  7

  8
Julio
  9

300
=
301
=
302
=
303
=
304
=
305
=
306
=
307
=
308
=
309
=
 40
0.0344399305555556
 41
2452899.634786239
 42
2456142.672980498
  1

 90
        0
  0
XRECORD
  5
1C7
102
{ACAD_REACTORS
330
1C6
102
}
330
1C6
100
AcDbXrecord
280
     1
290
     1
  0
XRECORD
  5
1C9
102
{ACAD_REACTORS
330
1C8
102
}
330
1C8
100
AcDbXrecord
280
     1
290
     1
  0
LAYOUT
  5
F
102
{ACAD_XDICTIONARY
360
1D5
102
}
102
{ACAD_REACTORS
330
B
102
}
330
B
100
AcDbPlotSettings
  1

  2
PLOTER 500
  4

  6

 40
0.0
 41
0.0
 42
0.0
 43
0.0
 44
0.0
 45
0.0
 46
0.0
 47
0.0
 48
0.0
 49
0.0
140
0.0
141
0.0
142
1.0
143
1.0
 70
   688
 72
     0
 73
     0
 74
     5
  7

 75
    16
147
1.0
148
0.0
149
0.0
100
AcDbLayout
  1
Layout1
 70
     1
 71
     1
 10
0.0
 20
0.0
 11
420.0
 21
297.0
 12
0.0
 22
0.0
 32
0.0
 14
1.000000000000000E+20
 24
1.000000000000000E+20
 34
1.000000000000000E+20
 15
-1.000000000000000E+20
 25
-1.000000000000000E+20
 35
-1.000000000000000E+20
146
0.0
 13
0.0
 23
0.0
 33
0.0
 16
1.0
 26
0.0
 36
0.0
 17
0.0
 27
1.0
 37
0.0
 76
     0
330
C
  0
LAYOUT
  5
A
102
{ACAD_XDICTIONARY
360
1D3
102
}
102
{ACAD_REACTORS
330
B
102
}
330
B
100
AcDbPlotSettings
  1

  2
PLOTER 500
  4

  6

 40
0.0
 41
0.0
 42
0.0
 43
0.0
 44
0.0
 45
0.0
 46
0.0
 47
0.0
 48
0.0
 49
0.0
140
0.0
141
0.0
142
1.0
143
1.0
 70
  1712
 72
     0
 73
     0
 74
     0
  7

 75
     0
147
1.0
148
0.0
149
0.0
100
AcDbLayout
  1
Model
 70
     1
 71
     0
 10
0.0
 20
0.0
 11
12.0
 21
9.0
 12
0.0
 22
0.0
 32
0.0
 14
0.0
 24
0.0
 34
0.0
 15
0.0
 25
0.0
 35
0.0
146
0.0
 13
0.0
 23
0.0
 33
0.0
 16
1.0
 26
0.0
 36
0.0
 17
0.0
 27
1.0
 37
0.0
 76
     0
330
2
331
17A
  0
MATERIAL
  5
18B
102
{ACAD_XDICTIONARY
360
18C
102
}
102
{ACAD_REACTORS
330
30
102
}
330
30
100
AcDbMaterial
  1
ByBlock
 72
     0
 43
0.0008202099737533
 43
0.0
 43
0.0
 43
0.0
 43
0.0
 43
0.0008202099737533
 43
0.0
 43
0.0
 43
0.0
 43
0.0
 43
1.0
 43
0.0
 43
0.0
 43
0.0
 43
0.0
 43
1.0
 77
     0
 47
0.0008202099737533
 47
0.0
 47
0.0
 47
0.0
 47
0.0
 47
0.0008202099737533
 47
0.0
 47
0.0
 47
0.0
 47
0.0
 47
1.0
 47
0.0
 47
0.0
 47
0.0
 47
0.0
 47
1.0
171
     0
 49
0.0008202099737533
 49
0.0
 49
0.0
 49
0.0
 49
0.0
 49
0.0008202099737533
 49
0.0
 49
0.0
 49
0.0
 49
0.0
 49
1.0
 49
0.0
 49
0.0
 49
0.0
 49
0.0
 49
1.0
175
     0
142
0.0008202099737533
142
0.0
142
0.0
142
0.0
142
0.0
142
0.0008202099737533
142
0.0
142
0.0
142
0.0
142
0.0
142
1.0
142
0.0
142
0.0
142
0.0
142
0.0
142
1.0
179
     0
144
0.0008202099737533
144
0.0
144
0.0
144
0.0
144
0.0
144
0.0008202099737533
144
0.0
144
0.0
144
0.0
144
0.0
144
1.0
144
0.0
144
0.0
144
0.0
144
0.0
144
1.0
147
0.0008202099737533
147
0.0
147
0.0
147
0.0
147
0.0
147
0.0008202099737533
147
0.0
147
0.0
147
0.0
147
0.0
147
1.0
147
0.0
147
0.0
147
0.0
147
0.0
147
1.0
  0
MATERIAL
  5
183
102
{ACAD_XDICTIONARY
360
184
102
}
102
{ACAD_REACTORS
330
30
102
}
330
30
100
AcDbMaterial
  1
ByLayer
 72
     0
 43
0.0008202099737533
 43
0.0
 43
0.0
 43
0.0
 43
0.0
 43
0.0008202099737533
 43
0.0
 43
0.0
 43
0.0
 43
0.0
 43
1.0
 43
0.0
 43
0.0
 43
0.0
 43
0.0
 43
1.0
 77
     0
 47
0.0008202099737533
 47
0.0
 47
0.0
 47
0.0
 47
0.0
 47
0.0008202099737533
 47
0.0
 47
0.0
 47
0.0
 47
0.0
 47
1.0
 47
0.0
 47
0.0
 47
0.0
 47
0.0
 47
1.0
171
     0
 49
0.0008202099737533
 49
0.0
 49
0.0
 49
0.0
 49
0.0
 49
0.0008202099737533
 49
0.0
 49
0.0
 49
0.0
 49
0.0
 49
1.0
 49
0.0
 49
0.0
 49
0.0
 49
0.0
 49
1.0
175
     0
142
0.0008202099737533
142
0.0
142
0.0
142
0.0
142
0.0
142
0.0008202099737533
142
0.0
142
0.0
142
0.0
142
0.0
142
1.0
142
0.0
142
0.0
142
0.0
142
0.0
142
1.0
179
     0
144
0.0008202099737533
144
0.0
144
0.0
144
0.0
144
0.0
144
0.0008202099737533
144
0.0
144
0.0
144
0.0
144
0.0
144
1.0
144
0.0
144
0.0
144
0.0
144
0.0
144
1.0
147
0.0008202099737533
147
0.0
147
0.0
147
0.0
147
0.0
147
0.0008202099737533
147
0.0
147
0.0
147
0.0
147
0.0
147
1.0
147
0.0
147
0.0
147
0.0
147
0.0
147
1.0
  0
MATERIAL
  5
193
102
{ACAD_XDICTIONARY
360
194
102
}
102
{ACAD_REACTORS
330
30
102
}
330
30
100
AcDbMaterial
  1
Global
 72
     0
 43
0.0008202099737533
 43
0.0
 43
0.0
 43
0.0
 43
0.0
 43
0.0008202099737533
 43
0.0
 43
0.0
 43
0.0
 43
0.0
 43
1.0
 43
0.0
 43
0.0
 43
0.0
 43
0.0
 43
1.0
 77
     0
 47
0.0008202099737533
 47
0.0
 47
0.0
 47
0.0
 47
0.0
 47
0.0008202099737533
 47
0.0
 47
0.0
 47
0.0
 47
0.0
 47
1.0
 47
0.0
 47
0.0
 47
0.0
 47
0.0
 47
1.0
171
     0
 49
0.0008202099737533
 49
0.0
 49
0.0
 49
0.0
 49
0.0
 49
0.0008202099737533
 49
0.0
 49
0.0
 49
0.0
 49
0.0
 49
1.0
 49
0.0
 49
0.0
 49
0.0
 49
0.0
 49
1.0
175
     0
142
0.0008202099737533
142
0.0
142
0.0
142
0.0
142
0.0
142
0.0008202099737533
142
0.0
142
0.0
142
0.0
142
0.0
142
1.0
142
0.0
142
0.0
142
0.0
142
0.0
142
1.0
179
     0
144
0.0008202099737533
144
0.0
144
0.0
144
0.0
144
0.0
144
0.0008202099737533
144
0.0
144
0.0
144
0.0
144
0.0
144
1.0
144
0.0
144
0.0
144
0.0
144
0.0
144
1.0
147
0.0008202099737533
147
0.0
147
0.0
147
0.0
147
0.0
147
0.0008202099737533
147
0.0
147
0.0
147
0.0
147
0.0
147
1.0
147
0.0
147
0.0
147
0.0
147
0.0
147
1.0
  0
MLEADERSTYLE
  5
1C2
102
{ACAD_REACTORS
330
1C1
102
}
330
1C1
100
AcDbMLeaderStyle
170
     2
171
     1
172
     0
 90
        2
 40
0.0
 41
0.0
173
     1
 91
-1056964608
340
15
 92
       -2
290
     1
 42
2.0
291
     1
 43
0.36
  3
Standard
 44
4.0
300

342
12
174
     1
178
     6
175
     1
176
     0
 93
-1056964608
 45
4.0
292
     0
297
     0
 46
4.0
 94
-1056964608
 47
1.0
 49
1.0
140
1.0
293
     1
141
0.0
294
     1
177
     0
142
1.0
295
     0
296
     0
143
0.125
1001
ACAD_MLEADERVER
1070
     2
  0
MLINESTYLE
  5
25
102
{ACAD_REACTORS
330
22
102
}
330
22
100
AcDbMlineStyle
  2
STANDARD
 70
     0
  3

 62
   256
 51
90.0
 52
90.0
 71
     2
 49
0.5
 62
   256
  6
BYLAYER
 49
-0.5
 62
   256
  6
BYLAYER
  0
ACDBPLACEHOLDER
  5
5
102
{ACAD_REACTORS
330
6
102
}
330
6
  0
SCALE
  5
1B0
102
{ACAD_REACTORS
330
1AF
102
}
330
1AF
100
AcDbScale
 70
     0
300
1:1
140
1.0
141
1.0
290
     1
  0
SCALE
  5
1B1
102
{ACAD_REACTORS
330
1AF
102
}
330
1AF
100
AcDbScale
 70
     0
300
1:2
140
1.0
141
2.0
290
     0
  0
SCALE
  5
1B2
102
{ACAD_REACTORS
330
1AF
102
}
330
1AF
100
AcDbScale
 70
     0
300
1:4
140
1.0
141
4.0
290
     0
  0
SCALE
  5
1B3
102
{ACAD_REACTORS
330
1AF
102
}
330
1AF
100
AcDbScale
 70
     0
300
1:5
140
1.0
141
5.0
290
     0
  0
SCALE
  5
1B4
102
{ACAD_REACTORS
330
1AF
102
}
330
1AF
100
AcDbScale
 70
     0
300
1:8
140
1.0
141
8.0
290
     0
  0
SCALE
  5
1B5
102
{ACAD_REACTORS
330
1AF
102
}
330
1AF
100
AcDbScale
 70
     0
300
1:10
140
1.0
141
10.0
290
     0
  0
SCALE
  5
1B6
102
{ACAD_REACTORS
330
1AF
102
}
330
1AF
100
AcDbScale
 70
     0
300
1:16
140
1.0
141
16.0
290
     0
  0
SCALE
  5
1B7
102
{ACAD_REACTORS
330
1AF
102
}
330
1AF
100
AcDbScale
 70
     0
300
1:20
140
1.0
141
20.0
290
     0
  0
SCALE
  5
1B8
102
{ACAD_REACTORS
330
1AF
102
}
330
1AF
100
AcDbScale
 70
     0
300
1:30
140
1.0
141
30.0
290
     0
  0
SCALE
  5
1B9
102
{ACAD_REACTORS
330
1AF
102
}
330
1AF
100
AcDbScale
 70
     0
300
1:40
140
1.0
141
40.0
290
     0
  0
SCALE
  5
1BA
102
{ACAD_REACTORS
330
1AF
102
}
330
1AF
100
AcDbScale
 70
     0
300
1:50
140
1.0
141
50.0
290
     0
  0
SCALE
  5
1BB
102
{ACAD_REACTORS
330
1AF
102
}
330
1AF
100
AcDbScale
 70
     0
300
1:100
140
1.0
141
100.0
290
     0
  0
SCALE
  5
1BC
102
{ACAD_REACTORS
330
1AF
102
}
330
1AF
100
AcDbScale
 70
     0
300
2:1
140
2.0
141
1.0
290
     0
  0
SCALE
  5
1BD
102
{ACAD_REACTORS
330
1AF
102
}
330
1AF
100
AcDbScale
 70
     0
300
4:1
140
4.0
141
1.0
290
     0
  0
SCALE
  5
1BE
102
{ACAD_REACTORS
330
1AF
102
}
330
1AF
100
AcDbScale
 70
     0
300
8:1
140
8.0
141
1.0
290
     0
  0
SCALE
  5
1BF
102
{ACAD_REACTORS
330
1AF
102
}
330
1AF
100
AcDbScale
 70
     0
300
10:1
140
10.0
141
1.0
290
     0
  0
SCALE
  5
1C0
102
{ACAD_REACTORS
330
1AF
102
}
330
1AF
100
AcDbScale
 70
     0
300
100:1
140
100.0
141
1.0
290
     0
  0
TABLESTYLE
  5
33
102
{ACAD_XDICTIONARY
360
1CF
102
}
102
{ACAD_REACTORS
330
32
102
}
330
32
100
AcDbTableStyle
  3
Standard
 70
     0
 71
     0
 40
1.5
 41
1.5
280
     0
281
     0
  7
Standard
140
4.5
170
     2
 62
     0
 63
     7
283
     0
274
    -2
284
     1
 64
     0
275
    -2
285
     1
 65
     0
276
    -2
286
     1
 66
     0
277
    -2
287
     1
 67
     0
278
    -2
288
     1
 68
     0
279
    -2
289
     1
 69
     0
  7
Standard
140
6.0
170
     5
 62
     0
 63
     7
283
     0
274
    -2
284
     1
 64
     0
275
    -2
285
     1
 65
     0
276
    -2
286
     1
 66
     0
277
    -2
287
     1
 67
     0
278
    -2
288
     1
 68
     0
279
    -2
289
     1
 69
     0
  7
Standard
140
4.5
170
     5
 62
     0
 63
     7
283
     0
274
    -2
284
     1
 64
     0
275
    -2
285
     1
 65
     0
276
    -2
286
     1
 66
     0
277
    -2
287
     1
 67
     0
278
    -2
288
     1
 68
     0
279
    -2
289
     1
 69
     0
  0
VISUALSTYLE
  5
1A1
102
{ACAD_XDICTIONARY
360
1E5
102
}
102
{ACAD_REACTORS
330
19B
102
}
330
19B
100
AcDbVisualStyle
  2
2dWireframe
 70
     4
 71
     0
 72
     2
 73
     0
 90
        0
 40
-0.6
 41
-30.0
 62
     5
 63
     7
 74
     1
 91
        4
 64
     7
 65
   257
 75
     1
175
     1
 42
1.0
 92
        0
 66
   257
 43
1.0
 76
     1
 77
     6
 78
     2
 67
     7
 79
     5
170
     0
171
     0
290
     0
174
     0
 93
        1
 44
0.0
173
     0
291
     0
 45
0.0
1001
ACAD
1000
AcDbSavedByObjectVersion
1070
     0
  0
VISUALSTYLE
  5
1A3
102
{ACAD_XDICTIONARY
360
1E9
102
}
102
{ACAD_REACTORS
330
19B
102
}
330
19B
100
AcDbVisualStyle
  2
3D Hidden
 70
     6
 71
     1
 72
     2
 73
     2
 90
        0
 40
-0.6
 41
-30.0
 62
     5
 63
     7
 74
     2
 91
        2
 64
     7
 65
   257
 75
     2
175
     1
 42
179.0
 92
        0
 66
   257
 43
1.0
 76
     1
 77
     6
 78
     2
 67
     7
 79
     3
170
     0
171
     0
290
     0
174
     0
 93
        1
 44
0.0
173
     0
291
     0
 45
0.0
1001
ACAD
1000
AcDbSavedByObjectVersion
1070
     0
  0
VISUALSTYLE
  5
1A2
102
{ACAD_XDICTIONARY
360
1E7
102
}
102
{ACAD_REACTORS
330
19B
102
}
330
19B
100
AcDbVisualStyle
  2
3dWireframe
 70
     5
 71
     0
 72
     2
 73
     0
 90
        0
 40
-0.6
 41
-30.0
 62
     5
 63
     7
 74
     1
 91
        4
 64
     7
 65
   257
 75
     1
175
     1
 42
1.0
 92
        0
 66
   257
 43
1.0
 76
     1
 77
     6
 78
     2
 67
     7
 79
     5
170
     0
171
     0
290
     0
174
     0
 93
        1
 44
0.0
173
     0
291
     0
 45
0.0
1001
ACAD
1000
AcDbSavedByObjectVersion
1070
     0
  0
VISUALSTYLE
  5
1A0
102
{ACAD_XDICTIONARY
360
1E3
102
}
102
{ACAD_REACTORS
330
19B
102
}
330
19B
100
AcDbVisualStyle
  2
Basic
 70
     7
 71
     1
 72
     0
 73
     1
 90
        0
 40
-0.6
 41
-30.0
 62
     5
 63
     7
 74
     0
 91
        4
 64
     7
 65
   257
 75
     1
175
     1
 42
1.0
 92
        8
 66
     7
 43
1.0
 76
     1
 77
     6
 78
     2
 67
     7
 79
     5
170
     0
171
     0
290
     0
174
     0
 93
        1
 44
0.0
173
     0
291
     1
 45
0.0
1001
ACAD
1000
AcDbSavedByObjectVersion
1070
     0
  0
VISUALSTYLE
  5
1A7
102
{ACAD_XDICTIONARY
360
1F1
102
}
102
{ACAD_REACTORS
330
19B
102
}
330
19B
100
AcDbVisualStyle
  2
Brighten
 70
    12
 71
     2
 72
     2
 73
     0
 90
        0
 40
-0.6
 41
-30.0
 62
     5
 63
     7
 74
     1
 91
        4
 64
     7
 65
   257
 75
     1
175
     1
 42
1.0
 92
        8
 66
     7
 43
1.0
 76
     1
 77
     6
 78
     2
 67
     7
 79
     5
170
     0
171
     0
290
     0
174
     0
 93
        1
 44
50.0
173
     0
291
     1
 45
0.0
1001
ACAD
1000
AcDbSavedByObjectVersion
1070
     0
  0
VISUALSTYLE
  5
1AB
102
{ACAD_XDICTIONARY
360
1F9
102
}
102
{ACAD_REACTORS
330
19B
102
}
330
19B
100
AcDbVisualStyle
  2
ColorChange
 70
    16
 71
     2
 72
     2
 73
     3
 90
        0
 40
-0.6
 41
-30.0
 62
     5
 63
     8
 74
     1
 91
        4
 64
     7
 65
   257
 75
     1
175
     1
 42
1.0
 92
        8
 66
     8
 43
1.0
 76
     1
 77
     6
 78
     2
 67
     7
 79
     5
170
     0
171
     0
290
     0
174
     0
 93
        1
 44
0.0
173
     0
291
     1
 45
0.0
1001
ACAD
1000
AcDbSavedByObjectVersion
1070
     0
  0
VISUALSTYLE
  5
1A4
102
{ACAD_XDICTIONARY
360
1EB
102
}
102
{ACAD_REACTORS
330
19B
102
}
330
19B
100
AcDbVisualStyle
  2
Conceptual
 70
     9
 71
     3
 72
     2
 73
     0
 90
        0
 40
-0.6
 41
-30.0
 62
     5
 63
     7
 74
     2
 91
        2
 64
     7
 65
   257
 75
     1
175
     1
 42
179.0
 92
        8
 66
     7
 43
1.0
 76
     1
 77
     6
 78
     2
 67
     7
 79
     3
170
     0
171
     0
290
     0
174
     0
 93
        1
 44
0.0
173
     0
291
     0
 45
0.0
1001
ACAD
1000
AcDbSavedByObjectVersion
1070
     0
  0
VISUALSTYLE
  5
1A6
102
{ACAD_XDICTIONARY
360
1EF
102
}
102
{ACAD_REACTORS
330
19B
102
}
330
19B
100
AcDbVisualStyle
  2
Dim
 70
    11
 71
     2
 72
     2
 73
     0
 90
        0
 40
-0.6
 41
-30.0
 62
     5
 63
     7
 74
     1
 91
        4
 64
     7
 65
   257
 75
     1
175
     1
 42
1.0
 92
        8
 66
     7
 43
1.0
 76
     1
 77
     6
 78
     2
 67
     7
 79
     5
170
     0
171
     0
290
     0
174
     0
 93
        1
 44
-50.0
173
     0
291
     1
 45
0.0
1001
ACAD
1000
AcDbSavedByObjectVersion
1070
     0
  0
VISUALSTYLE
  5
1AE
102
{ACAD_XDICTIONARY
360
1FF
102
}
102
{ACAD_REACTORS
330
19B
102
}
330
19B
100
AcDbVisualStyle
  2
EdgeColorOff
 70
    22
 71
     2
 72
     2
 73
     0
 90
        0
 40
-0.6
 41
-30.0
 62
     5
 63
     7
 74
     1
 91
        4
 64
     7
 65
   257
 75
     1
175
     1
 42
1.0
 92
        8
 66
     7
 43
1.0
 76
     1
 77
     6
 78
     2
 67
     7
 79
     5
170
     0
171
     0
290
     0
174
     0
 93
        1
 44
0.0
173
     0
291
     1
 45
0.0
1001
ACAD
1000
AcDbSavedByObjectVersion
1070
     0
  0
VISUALSTYLE
  5
1AA
102
{ACAD_XDICTIONARY
360
1F7
102
}
102
{ACAD_REACTORS
330
19B
102
}
330
19B
100
AcDbVisualStyle
  2
Facepattern
 70
    15
 71
     2
 72
     2
 73
     0
 90
        0
 40
-0.6
 41
-30.0
 62
     5
 63
     7
 74
     1
 91
        4
 64
     7
 65
   257
 75
     1
175
     1
 42
1.0
 92
        8
 66
     7
 43
1.0
 76
     1
 77
     6
 78
     2
 67
     7
 79
     5
170
     0
171
     0
290
     0
174
     0
 93
        1
 44
0.0
173
     0
291
     1
 45
0.0
1001
ACAD
1000
AcDbSavedByObjectVersion
1070
     0
  0
VISUALSTYLE
  5
19C
102
{ACAD_XDICTIONARY
360
1DB
102
}
102
{ACAD_REACTORS
330
19B
102
}
330
19B
100
AcDbVisualStyle
  2
Flat
 70
     0
 71
     2
 72
     1
 73
     1
 90
        2
 40
-0.6
 41
30.0
 62
     5
 63
     7
 74
     0
 91
        4
 64
     7
 65
   257
 75
     1
175
     1
 42
1.0
 92
        8
 66
     7
 43
1.0
 76
     1
 77
     6
 78
     2
 67
     7
 79
     5
170
     0
171
     0
290
     0
174
     0
 93
       13
 44
0.0
173
     0
291
     1
 45
0.0
1001
ACAD
1000
AcDbSavedByObjectVersion
1070
     0
  0
VISUALSTYLE
  5
19D
102
{ACAD_XDICTIONARY
360
1DD
102
}
102
{ACAD_REACTORS
330
19B
102
}
330
19B
100
AcDbVisualStyle
  2
FlatWithEdges
 70
     1
 71
     2
 72
     1
 73
     1
 90
        2
 40
-0.6
 41
30.0
 62
     5
 63
     7
 74
     1
 91
        4
 64
     7
 65
   257
 75
     1
175
     1
 42
1.0
 92
        0
 66
   257
 43
1.0
 76
     1
 77
     6
 78
     2
 67
     7
 79
     5
170
     0
171
     0
290
     0
174
     0
 93
       13
 44
0.0
173
     0
291
     1
 45
0.0
1001
ACAD
1000
AcDbSavedByObjectVersion
1070
     0
  0
VISUALSTYLE
  5
19E
102
{ACAD_XDICTIONARY
360
1DF
102
}
102
{ACAD_REACTORS
330
19B
102
}
330
19B
100
AcDbVisualStyle
  2
Gouraud
 70
     2
 71
     2
 72
     2
 73
     1
 90
        2
 40
-0.6
 41
30.0
 62
     5
 63
     7
 74
     0
 91
        4
 64
     7
 65
   257
 75
     1
175
     1
 42
1.0
 92
        0
 66
     7
 43
1.0
 76
     1
 77
     6
 78
     2
 67
     7
 79
     5
170
     0
171
     0
290
     0
174
     0
 93
       13
 44
0.0
173
     0
291
     1
 45
0.0
1001
ACAD
1000
AcDbSavedByObjectVersion
1070
     0
  0
VISUALSTYLE
  5
19F
102
{ACAD_XDICTIONARY
360
1E1
102
}
102
{ACAD_REACTORS
330
19B
102
}
330
19B
100
AcDbVisualStyle
  2
GouraudWithEdges
 70
     3
 71
     2
 72
     2
 73
     1
 90
        2
 40
-0.6
 41
30.0
 62
     5
 63
     7
 74
     1
 91
        4
 64
     7
 65
   257
 75
     1
175
     1
 42
1.0
 92
        0
 66
   257
 43
1.0
 76
     1
 77
     6
 78
     2
 67
     7
 79
     5
170
     0
171
     0
290
     0
174
     0
 93
       13
 44
0.0
173
     0
291
     1
 45
0.0
1001
ACAD
1000
AcDbSavedByObjectVersion
1070
     0
  0
VISUALSTYLE
  5
1AC
102
{ACAD_XDICTIONARY
360
1FB
102
}
102
{ACAD_REACTORS
330
19B
102
}
330
19B
100
AcDbVisualStyle
  2
JitterOff
 70
    20
 71
     2
 72
     2
 73
     0
 90
        0
 40
-0.6
 41
-30.0
 62
     5
 63
     7
 74
     1
 91
        4
 64
     7
 65
   257
 75
     1
175
     1
 42
1.0
 92
       10
 66
     7
 43
1.0
 76
     1
 77
     6
 78
     2
 67
     7
 79
     5
170
     0
171
     0
290
     0
174
     0
 93
        1
 44
0.0
173
     0
291
     1
 45
0.0
1001
ACAD
1000
AcDbSavedByObjectVersion
1070
     0
  0
VISUALSTYLE
  5
1A9
102
{ACAD_XDICTIONARY
360
1F5
102
}
102
{ACAD_REACTORS
330
19B
102
}
330
19B
100
AcDbVisualStyle
  2
Linepattern
 70
    14
 71
     2
 72
     2
 73
     0
 90
        0
 40
-0.6
 41
-30.0
 62
     5
 63
     7
 74
     1
 91
        4
 64
     7
 65
   257
 75
     7
175
     7
 42
1.0
 92
        8
 66
     7
 43
1.0
 76
     1
 77
     6
 78
     2
 67
     7
 79
     5
170
     0
171
     0
290
     0
174
     0
 93
        1
 44
0.0
173
     0
291
     1
 45
0.0
1001
ACAD
1000
AcDbSavedByObjectVersion
1070
     0
  0
VISUALSTYLE
  5
1AD
102
{ACAD_XDICTIONARY
360
1FD
102
}
102
{ACAD_REACTORS
330
19B
102
}
330
19B
100
AcDbVisualStyle
  2
OverhangOff
 70
    21
 71
     2
 72
     2
 73
     0
 90
        0
 40
-0.6
 41
-30.0
 62
     5
 63
     7
 74
     1
 91
        4
 64
     7
 65
   257
 75
     1
175
     1
 42
1.0
 92
        9
 66
     7
 43
1.0
 76
     1
 77
     6
 78
     2
 67
     7
 79
     5
170
     0
171
     0
290
     0
174
     0
 93
        1
 44
0.0
173
     0
291
     1
 45
0.0
1001
ACAD
1000
AcDbSavedByObjectVersion
1070
     0
  0
VISUALSTYLE
  5
1A5
102
{ACAD_XDICTIONARY
360
1ED
102
}
102
{ACAD_REACTORS
330
19B
102
}
330
19B
100
AcDbVisualStyle
  2
Realistic
 70
     8
 71
     2
 72
     2
 73
     0
 90
        0
 40
-0.6
 41
-30.0
 62
     5
 63
     7
 74
     1
 91
        0
 64
     7
 65
   257
 75
     1
175
     1
 42
1.0
 92
        8
 66
     8
 43
1.0
 76
     1
 77
     6
 78
     2
 67
     7
 79
     5
170
     0
171
     0
290
     0
174
     0
 93
       13
 44
0.0
173
     0
291
     0
 45
0.0
1001
ACAD
1000
AcDbSavedByObjectVersion
1070
     0
  0
VISUALSTYLE
  5
1A8
102
{ACAD_XDICTIONARY
360
1F3
102
}
102
{ACAD_REACTORS
330
19B
102
}
330
19B
100
AcDbVisualStyle
  2
Thicken
 70
    13
 71
     2
 72
     2
 73
     0
 90
        0
 40
-0.6
 41
-30.0
 62
     5
 63
     7
 74
     1
 91
        4
 64
     7
 65
   257
 75
     1
175
     1
 42
1.0
 92
       12
 66
     7
 43
1.0
 76
     1
 77
     6
 78
     2
 67
     7
 79
     5
170
     0
171
     0
290
     0
174
     0
 93
        1
 44
0.0
173
     0
291
     1
 45
0.0
1001
ACAD
1000
AcDbSavedByObjectVersion
1070
     0
  0
DICTIONARYVAR
  5
1CB
102
{ACAD_REACTORS
330
2C
102
}
330
2C
100
DictionaryVariables
280
     0
  1
1:1
  0
DICTIONARYVAR
  5
1CA
102
{ACAD_REACTORS
330
2C
102
}
330
2C
100
DictionaryVariables
280
     0
  1
STANDARD
  0
DICTIONARYVAR
  5
180
102
{ACAD_REACTORS
330
2C
102
}
330
2C
100
DictionaryVariables
280
     0
  1
STANDARD
  0
DICTIONARYVAR
  5
2E
102
{ACAD_REACTORS
330
2C
102
}
330
2C
100
DictionaryVariables
280
     0
  1
2
  0
DICTIONARYVAR
  5
2D
102
{ACAD_REACTORS
330
2C
102
}
330
2C
100
DictionaryVariables
280
     0
  1
1
  0
DICTIONARYVAR
  5
1CD
102
{ACAD_REACTORS
330
2C
102
}
330
2C
100
DictionaryVariables
280
     0
  1
0
  0
DICTIONARYVAR
  5
181
102
{ACAD_REACTORS
330
2C
102
}
330
2C
100
DictionaryVariables
280
     0
  1

  0
DICTIONARYVAR
  5
1CC
102
{ACAD_REACTORS
330
2C
102
}
330
2C
100
DictionaryVariables
280
     0
  1
127
  0
DICTIONARYVAR
  5
1CE
102
{ACAD_REACTORS
330
2C
102
}
330
2C
100
DictionaryVariables
280
     0
  1
2
  0
DICTIONARY
  5
1D5
330
F
100
AcDbDictionary
280
     1
281
     1
  3
ACAD_XREC_ROUNDTRIP
360
1D6
  0
DICTIONARY
  5
1D3
330
A
100
AcDbDictionary
280
     1
281
     1
  3
ACAD_XREC_ROUNDTRIP
360
1D4
  0
DICTIONARY
  5
18C
330
18B
100
AcDbDictionary
280
     1
281
     1
  3
ACAD_XREC_ROUNDTRIP
360
1D9
  3
BUMPTILE
360
18E
  3
DIFFUSETILE
360
18D
  3
OPACITYTILE
360
191
  3
REFLECTIONTILE
360
190
  3
REFRACTIONTILE
360
192
  3
SPECULARTILE
360
18F
  0
DICTIONARY
  5
184
330
183
100
AcDbDictionary
280
     1
281
     1
  3
ACAD_XREC_ROUNDTRIP
360
1D8
  3
BUMPTILE
360
186
  3
DIFFUSETILE
360
185
  3
OPACITYTILE
360
189
  3
REFLECTIONTILE
360
188
  3
REFRACTIONTILE
360
18A
  3
SPECULARTILE
360
187
  0
DICTIONARY
  5
194
330
193
100
AcDbDictionary
280
     1
281
     1
  3
ACAD_XREC_ROUNDTRIP
360
1DA
  3
BUMPTILE
360
196
  3
DIFFUSETILE
360
195
  3
OPACITYTILE
360
199
  3
REFLECTIONTILE
360
198
  3
REFRACTIONTILE
360
19A
  3
SPECULARTILE
360
197
  0
DICTIONARY
  5
1CF
330
33
100
AcDbDictionary
280
     1
281
     1
  3
ACAD_ROUNDTRIP_2008_TABLESTYLE_CELLSTYLEMAP
360
1D0
  3
ACAD_XREC_ROUNDTRIP
360
1D7
  0
DICTIONARY
  5
1E5
330
1A1
100
AcDbDictionary
280
     1
281
     1
  3
ACAD_XREC_ROUNDTRIP
360
1E6
  0
DICTIONARY
  5
1E9
330
1A3
100
AcDbDictionary
280
     1
281
     1
  3
ACAD_XREC_ROUNDTRIP
360
1EA
  0
DICTIONARY
  5
1E7
330
1A2
100
AcDbDictionary
280
     1
281
     1
  3
ACAD_XREC_ROUNDTRIP
360
1E8
  0
DICTIONARY
  5
1E3
330
1A0
100
AcDbDictionary
280
     1
281
     1
  3
ACAD_XREC_ROUNDTRIP
360
1E4
  0
DICTIONARY
  5
1F1
330
1A7
100
AcDbDictionary
280
     1
281
     1
  3
ACAD_XREC_ROUNDTRIP
360
1F2
  0
DICTIONARY
  5
1F9
330
1AB
100
AcDbDictionary
280
     1
281
     1
  3
ACAD_XREC_ROUNDTRIP
360
1FA
  0
DICTIONARY
  5
1EB
330
1A4
100
AcDbDictionary
280
     1
281
     1
  3
ACAD_XREC_ROUNDTRIP
360
1EC
  0
DICTIONARY
  5
1EF
330
1A6
100
AcDbDictionary
280
     1
281
     1
  3
ACAD_XREC_ROUNDTRIP
360
1F0
  0
DICTIONARY
  5
1FF
330
1AE
100
AcDbDictionary
280
     1
281
     1
  3
ACAD_XREC_ROUNDTRIP
360
200
  0
DICTIONARY
  5
1F7
330
1AA
100
AcDbDictionary
280
     1
281
     1
  3
ACAD_XREC_ROUNDTRIP
360
1F8
  0
DICTIONARY
  5
1DB
330
19C
100
AcDbDictionary
280
     1
281
     1
  3
ACAD_XREC_ROUNDTRIP
360
1DC
  0
DICTIONARY
  5
1DD
330
19D
100
AcDbDictionary
280
     1
281
     1
  3
ACAD_XREC_ROUNDTRIP
360
1DE
  0
DICTIONARY
  5
1DF
330
19E
100
AcDbDictionary
280
     1
281
     1
  3
ACAD_XREC_ROUNDTRIP
360
1E0
  0
DICTIONARY
  5
1E1
330
19F
100
AcDbDictionary
280
     1
281
     1
  3
ACAD_XREC_ROUNDTRIP
360
1E2
  0
DICTIONARY
  5
1FB
330
1AC
100
AcDbDictionary
280
     1
281
     1
  3
ACAD_XREC_ROUNDTRIP
360
1FC
  0
DICTIONARY
  5
1F5
330
1A9
100
AcDbDictionary
280
     1
281
     1
  3
ACAD_XREC_ROUNDTRIP
360
1F6
  0
DICTIONARY
  5
1FD
330
1AD
100
AcDbDictionary
280
     1
281
     1
  3
ACAD_XREC_ROUNDTRIP
360
1FE
  0
DICTIONARY
  5
1ED
330
1A5
100
AcDbDictionary
280
     1
281
     1
  3
ACAD_XREC_ROUNDTRIP
360
1EE
  0
DICTIONARY
  5
1F3
330
1A8
100
AcDbDictionary
280
     1
281
     1
  3
ACAD_XREC_ROUNDTRIP
360
1F4
  0
XRECORD
  5
1D6
102
{ACAD_REACTORS
330
1D5
102
}
330
1D5
100
AcDbXrecord
280
     1
102
SHADEPLOT
 70
     0
102
SHADEPLOTRESLEVEL
 70
     2
102
SHADEPLOTCUSTOMDPI
 70
   300
  0
XRECORD
  5
1D4
102
{ACAD_REACTORS
330
1D3
102
}
330
1D3
100
AcDbXrecord
280
     1
102
SHADEPLOT
 70
     0
102
SHADEPLOTRESLEVEL
 70
     2
102
SHADEPLOTCUSTOMDPI
 70
   300
  0
XRECORD
  5
1D9
102
{ACAD_REACTORS
330
18C
102
}
330
18C
100
AcDbXrecord
280
     1
102
MATERIAL
148
0.0
149
0.0
149
0.0
 93
        0
 94
      127
282
     0
 72
     0
 77
     0
171
     0
175
     0
179
     0
273
     0
  0
XRECORD
  5
18E
102
{ACAD_REACTORS
330
18C
102
}
330
18C
100
AcDbXrecord
280
     1
270
     1
271
     1
  0
XRECORD
  5
18D
102
{ACAD_REACTORS
330
18C
102
}
330
18C
100
AcDbXrecord
280
     1
270
     1
271
     1
  0
XRECORD
  5
191
102
{ACAD_REACTORS
330
18C
102
}
330
18C
100
AcDbXrecord
280
     1
270
     1
271
     1
  0
XRECORD
  5
190
102
{ACAD_REACTORS
330
18C
102
}
330
18C
100
AcDbXrecord
280
     1
270
     1
271
     1
  0
XRECORD
  5
192
102
{ACAD_REACTORS
330
18C
102
}
330
18C
100
AcDbXrecord
280
     1
270
     1
271
     1
  0
XRECORD
  5
18F
102
{ACAD_REACTORS
330
18C
102
}
330
18C
100
AcDbXrecord
280
     1
270
     1
271
     1
  0
XRECORD
  5
1D8
102
{ACAD_REACTORS
330
184
102
}
330
184
100
AcDbXrecord
280
     1
102
MATERIAL
148
0.0
149
0.0
149
0.0
 93
        0
 94
      127
282
     0
 72
     0
 77
     0
171
     0
175
     0
179
     0
273
     0
  0
XRECORD
  5
186
102
{ACAD_REACTORS
330
184
102
}
330
184
100
AcDbXrecord
280
     1
270
     1
271
     1
  0
XRECORD
  5
185
102
{ACAD_REACTORS
330
184
102
}
330
184
100
AcDbXrecord
280
     1
270
     1
271
     1
  0
XRECORD
  5
189
102
{ACAD_REACTORS
330
184
102
}
330
184
100
AcDbXrecord
280
     1
270
     1
271
     1
  0
XRECORD
  5
188
102
{ACAD_REACTORS
330
184
102
}
330
184
100
AcDbXrecord
280
     1
270
     1
271
     1
  0
XRECORD
  5
18A
102
{ACAD_REACTORS
330
184
102
}
330
184
100
AcDbXrecord
280
     1
270
     1
271
     1
  0
XRECORD
  5
187
102
{ACAD_REACTORS
330
184
102
}
330
184
100
AcDbXrecord
280
     1
270
     1
271
     1
  0
XRECORD
  5
1DA
102
{ACAD_REACTORS
330
194
102
}
330
194
100
AcDbXrecord
280
     1
102
MATERIAL
148
0.0
149
0.0
149
0.0
 93
        0
 94
      127
282
     0
 72
     0
 77
     0
171
     0
175
     0
179
     0
273
     0
  0
XRECORD
  5
196
102
{ACAD_REACTORS
330
194
102
}
330
194
100
AcDbXrecord
280
     1
270
     1
271
     1
  0
XRECORD
  5
195
102
{ACAD_REACTORS
330
194
102
}
330
194
100
AcDbXrecord
280
     1
270
     1
271
     1
  0
XRECORD
  5
199
102
{ACAD_REACTORS
330
194
102
}
330
194
100
AcDbXrecord
280
     1
270
     1
271
     1
  0
XRECORD
  5
198
102
{ACAD_REACTORS
330
194
102
}
330
194
100
AcDbXrecord
280
     1
270
     1
271
     1
  0
XRECORD
  5
19A
102
{ACAD_REACTORS
330
194
102
}
330
194
100
AcDbXrecord
280
     1
270
     1
271
     1
  0
XRECORD
  5
197
102
{ACAD_REACTORS
330
194
102
}
330
194
100
AcDbXrecord
280
     1
270
     1
271
     1
  0
CELLSTYLEMAP
  5
1D0
102
{ACAD_REACTORS
330
1CF
102
}
330
1CF
100
AcDbCellStyleMap
 90
        3
300
CELLSTYLE
  1
TABLEFORMAT_BEGIN
 90
        5
170
     1
 91
        0
 92
    32768
 62
   257
 93
        1
300
CONTENTFORMAT
  1
CONTENTFORMAT_BEGIN
 90
        0
 91
        0
 92
        4
 93
        0
300

 40
0.0
140
1.0
 94
        5
 62
     0
340
12
144
6.0
309
CONTENTFORMAT_END
171
     1
301
MARGIN
  1
CELLMARGIN_BEGIN
 40
1.5
 40
1.5
 40
1.5
 40
1.5
 40
0.18
 40
0.18
309
CELLMARGIN_END
 94
        6
 95
        1
302
GRIDFORMAT
  1
GRIDFORMAT_BEGIN
 90
        0
 91
        1
 62
     0
 92
       -2
340
0
 93
        0
 40
0.045
309
GRIDFORMAT_END
 95
        2
302
GRIDFORMAT
  1
GRIDFORMAT_BEGIN
 90
        0
 91
        1
 62
     0
 92
       -2
340
0
 93
        0
 40
0.045
309
GRIDFORMAT_END
 95
        4
302
GRIDFORMAT
  1
GRIDFORMAT_BEGIN
 90
        0
 91
        1
 62
     0
 92
       -2
340
0
 93
        0
 40
0.045
309
GRIDFORMAT_END
 95
        8
302
GRIDFORMAT
  1
GRIDFORMAT_BEGIN
 90
        0
 91
        1
 62
     0
 92
       -2
340
0
 93
        0
 40
0.045
309
GRIDFORMAT_END
 95
       16
302
GRIDFORMAT
  1
GRIDFORMAT_BEGIN
 90
        0
 91
        1
 62
     0
 92
       -2
340
0
 93
        0
 40
0.045
309
GRIDFORMAT_END
 95
       32
302
GRIDFORMAT
  1
GRIDFORMAT_BEGIN
 90
        0
 91
        1
 62
     0
 92
       -2
340
0
 93
        0
 40
0.045
309
GRIDFORMAT_END
309
TABLEFORMAT_END
  1
CELLSTYLE_BEGIN
 90
        1
 91
        1
300
_TITLE
309
CELLSTYLE_END
300
CELLSTYLE
  1
TABLEFORMAT_BEGIN
 90
        5
170
     1
 91
        0
 92
        0
 62
   257
 93
        1
300
CONTENTFORMAT
  1
CONTENTFORMAT_BEGIN
 90
        0
 91
        0
 92
        4
 93
        0
300

 40
0.0
140
1.0
 94
        5
 62
     0
340
12
144
4.5
309
CONTENTFORMAT_END
171
     1
301
MARGIN
  1
CELLMARGIN_BEGIN
 40
1.5
 40
1.5
 40
1.5
 40
1.5
 40
0.18
 40
0.18
309
CELLMARGIN_END
 94
        6
 95
        1
302
GRIDFORMAT
  1
GRIDFORMAT_BEGIN
 90
        0
 91
        1
 62
     0
 92
       -2
340
0
 93
        0
 40
0.045
309
GRIDFORMAT_END
 95
        2
302
GRIDFORMAT
  1
GRIDFORMAT_BEGIN
 90
        0
 91
        1
 62
     0
 92
       -2
340
0
 93
        0
 40
0.045
309
GRIDFORMAT_END
 95
        4
302
GRIDFORMAT
  1
GRIDFORMAT_BEGIN
 90
        0
 91
        1
 62
     0
 92
       -2
340
0
 93
        0
 40
0.045
309
GRIDFORMAT_END
 95
        8
302
GRIDFORMAT
  1
GRIDFORMAT_BEGIN
 90
        0
 91
        1
 62
     0
 92
       -2
340
0
 93
        0
 40
0.045
309
GRIDFORMAT_END
 95
       16
302
GRIDFORMAT
  1
GRIDFORMAT_BEGIN
 90
        0
 91
        1
 62
     0
 92
       -2
340
0
 93
        0
 40
0.045
309
GRIDFORMAT_END
 95
       32
302
GRIDFORMAT
  1
GRIDFORMAT_BEGIN
 90
        0
 91
        1
 62
     0
 92
       -2
340
0
 93
        0
 40
0.045
309
GRIDFORMAT_END
309
TABLEFORMAT_END
  1
CELLSTYLE_BEGIN
 90
        2
 91
        1
300
_HEADER
309
CELLSTYLE_END
300
CELLSTYLE
  1
TABLEFORMAT_BEGIN
 90
        5
170
     1
 91
        0
 92
        0
 62
   257
 93
        1
300
CONTENTFORMAT
  1
CONTENTFORMAT_BEGIN
 90
        0
 91
        0
 92
        4
 93
        0
300

 40
0.0
140
1.0
 94
        2
 62
     0
340
12
144
4.5
309
CONTENTFORMAT_END
171
     1
301
MARGIN
  1
CELLMARGIN_BEGIN
 40
1.5
 40
1.5
 40
1.5
 40
1.5
 40
0.18
 40
0.18
309
CELLMARGIN_END
 94
        6
 95
        1
302
GRIDFORMAT
  1
GRIDFORMAT_BEGIN
 90
        0
 91
        1
 62
     0
 92
       -2
340
0
 93
        0
 40
0.045
309
GRIDFORMAT_END
 95
        2
302
GRIDFORMAT
  1
GRIDFORMAT_BEGIN
 90
        0
 91
        1
 62
     0
 92
       -2
340
0
 93
        0
 40
0.045
309
GRIDFORMAT_END
 95
        4
302
GRIDFORMAT
  1
GRIDFORMAT_BEGIN
 90
        0
 91
        1
 62
     0
 92
       -2
340
0
 93
        0
 40
0.045
309
GRIDFORMAT_END
 95
        8
302
GRIDFORMAT
  1
GRIDFORMAT_BEGIN
 90
        0
 91
        1
 62
     0
 92
       -2
340
0
 93
        0
 40
0.045
309
GRIDFORMAT_END
 95
       16
302
GRIDFORMAT
  1
GRIDFORMAT_BEGIN
 90
        0
 91
        1
 62
     0
 92
       -2
340
0
 93
        0
 40
0.045
309
GRIDFORMAT_END
 95
       32
302
GRIDFORMAT
  1
GRIDFORMAT_BEGIN
 90
        0
 91
        1
 62
     0
 92
       -2
340
0
 93
        0
 40
0.045
309
GRIDFORMAT_END
309
TABLEFORMAT_END
  1
CELLSTYLE_BEGIN
 90
        3
 91
        2
300
_DATA
309
CELLSTYLE_END
  0
XRECORD
  5
1D7
102
{ACAD_REACTORS
330
1CF
102
}
330
1CF
100
AcDbXrecord
280
     1
102
ACAD_ROUNDTRIP_PRE2007_TABLESTYLE
 90
        4
 91
        0
  1

 92
        4
 93
        0
  2

 94
        4
 95
        0
  3

  0
XRECORD
  5
1E6
102
{ACAD_REACTORS
330
1E5
102
}
330
1E5
100
AcDbXrecord
280
     1
102
RTVSPropertyOp0
 70
     1
102
RTVSPropertyOp1
 70
     1
102
RTVSPropertyOp2
 70
     1
102
RTVSPropertyOp3
 70
     1
102
RTVSPropertyOp4
 70
     1
102
RTVSPropertyOp5
 70
     1
102
RTVSPropertyOp6
 70
     1
102
RTVSPropertyOp7
 70
     1
102
RTVSPropertyOp8
 70
     1
102
RTVSPropertyOp9
 70
     1
102
RTVSPropertyOp10
 70
     1
102
RTVSPropertyOp11
 70
     1
102
RTVSPropertyOp12
 70
     1
102
RTVSPropertyOp13
 70
     1
102
RTVSPropertyOp14
 70
     1
102
RTVSPropertyOp15
 70
     1
102
RTVSPropertyOp16
 70
     1
102
RTVSPropertyOp17
 70
     1
102
RTVSPropertyOp18
 70
     1
102
RTVSPropertyOp19
 70
     1
102
RTVSPropertyOp20
 70
     1
102
RTVSPropertyOp21
 70
     1
102
RTVSPropertyOp22
 70
     1
102
RTVSPropertyOp23
 70
     1
102
RTVSPropertyOp24
 70
     1
102
RTVSPropertyOp25
 70
     1
102
RTVSPropertyOp26
 70
     1
102
RTVSPropertyOp27
 70
     1
  0
XRECORD
  5
1EA
102
{ACAD_REACTORS
330
1E9
102
}
330
1E9
100
AcDbXrecord
280
     1
102
RTVSPropertyOp0
 70
     1
102
RTVSPropertyOp1
 70
     1
102
RTVSPropertyOp2
 70
     1
102
RTVSPropertyOp3
 70
     1
102
RTVSPropertyOp4
 70
     1
102
RTVSPropertyOp5
 70
     1
102
RTVSPropertyOp6
 70
     1
102
RTVSPropertyOp7
 70
     1
102
RTVSPropertyOp8
 70
     1
102
RTVSPropertyOp9
 70
     1
102
RTVSPropertyOp10
 70
     1
102
RTVSPropertyOp11
 70
     1
102
RTVSPropertyOp12
 70
     1
102
RTVSPropertyOp13
 70
     1
102
RTVSPropertyOp14
 70
     1
102
RTVSPropertyOp15
 70
     1
102
RTVSPropertyOp16
 70
     1
102
RTVSPropertyOp17
 70
     1
102
RTVSPropertyOp18
 70
     1
102
RTVSPropertyOp19
 70
     1
102
RTVSPropertyOp20
 70
     1
102
RTVSPropertyOp21
 70
     1
102
RTVSPropertyOp22
 70
     1
102
RTVSPropertyOp23
 70
     1
102
RTVSPropertyOp24
 70
     1
102
RTVSPropertyOp25
 70
     1
102
RTVSPropertyOp26
 70
     1
102
RTVSPropertyOp27
 70
     1
  0
XRECORD
  5
1E8
102
{ACAD_REACTORS
330
1E7
102
}
330
1E7
100
AcDbXrecord
280
     1
102
RTVSPropertyOp0
 70
     1
102
RTVSPropertyOp1
 70
     1
102
RTVSPropertyOp2
 70
     1
102
RTVSPropertyOp3
 70
     1
102
RTVSPropertyOp4
 70
     1
102
RTVSPropertyOp5
 70
     1
102
RTVSPropertyOp6
 70
     1
102
RTVSPropertyOp7
 70
     1
102
RTVSPropertyOp8
 70
     1
102
RTVSPropertyOp9
 70
     1
102
RTVSPropertyOp10
 70
     1
102
RTVSPropertyOp11
 70
     1
102
RTVSPropertyOp12
 70
     1
102
RTVSPropertyOp13
 70
     1
102
RTVSPropertyOp14
 70
     1
102
RTVSPropertyOp15
 70
     1
102
RTVSPropertyOp16
 70
     1
102
RTVSPropertyOp17
 70
     1
102
RTVSPropertyOp18
 70
     1
102
RTVSPropertyOp19
 70
     1
102
RTVSPropertyOp20
 70
     1
102
RTVSPropertyOp21
 70
     1
102
RTVSPropertyOp22
 70
     1
102
RTVSPropertyOp23
 70
     1
102
RTVSPropertyOp24
 70
     1
102
RTVSPropertyOp25
 70
     1
102
RTVSPropertyOp26
 70
     1
102
RTVSPropertyOp27
 70
     1
  0
XRECORD
  5
1E4
102
{ACAD_REACTORS
330
1E3
102
}
330
1E3
100
AcDbXrecord
280
     1
102
RTVSPropertyOp0
 70
     1
102
RTVSPropertyOp1
 70
     1
102
RTVSPropertyOp2
 70
     1
102
RTVSPropertyOp3
 70
     1
102
RTVSPropertyOp4
 70
     1
102
RTVSPropertyOp5
 70
     1
102
RTVSPropertyOp6
 70
     1
102
RTVSPropertyOp7
 70
     1
102
RTVSPropertyOp8
 70
     1
102
RTVSPropertyOp9
 70
     1
102
RTVSPropertyOp10
 70
     1
102
RTVSPropertyOp11
 70
     1
102
RTVSPropertyOp12
 70
     1
102
RTVSPropertyOp13
 70
     1
102
RTVSPropertyOp14
 70
     1
102
RTVSPropertyOp15
 70
     1
102
RTVSPropertyOp16
 70
     1
102
RTVSPropertyOp17
 70
     1
102
RTVSPropertyOp18
 70
     1
102
RTVSPropertyOp19
 70
     1
102
RTVSPropertyOp20
 70
     1
102
RTVSPropertyOp21
 70
     1
102
RTVSPropertyOp22
 70
     1
102
RTVSPropertyOp23
 70
     1
102
RTVSPropertyOp24
 70
     1
102
RTVSPropertyOp25
 70
     1
102
RTVSPropertyOp26
 70
     1
102
RTVSPropertyOp27
 70
     1
  0
XRECORD
  5
1F2
102
{ACAD_REACTORS
330
1F1
102
}
330
1F1
100
AcDbXrecord
280
     1
102
RTVSPropertyOp0
 70
     1
102
RTVSPropertyOp1
 70
     1
102
RTVSPropertyOp2
 70
     1
102
RTVSPropertyOp3
 70
     1
102
RTVSPropertyOp4
 70
     1
102
RTVSPropertyOp5
 70
     1
102
RTVSPropertyOp6
 70
     1
102
RTVSPropertyOp7
 70
     1
102
RTVSPropertyOp8
 70
     1
102
RTVSPropertyOp9
 70
     1
102
RTVSPropertyOp10
 70
     1
102
RTVSPropertyOp11
 70
     1
102
RTVSPropertyOp12
 70
     1
102
RTVSPropertyOp13
 70
     1
102
RTVSPropertyOp14
 70
     1
102
RTVSPropertyOp15
 70
     1
102
RTVSPropertyOp16
 70
     1
102
RTVSPropertyOp17
 70
     1
102
RTVSPropertyOp18
 70
     1
102
RTVSPropertyOp19
 70
     1
102
RTVSPropertyOp20
 70
     1
102
RTVSPropertyOp21
 70
     1
102
RTVSPropertyOp22
 70
     1
102
RTVSPropertyOp23
 70
     1
102
RTVSPropertyOp24
 70
     1
102
RTVSPropertyOp25
 70
     1
102
RTVSPropertyOp26
 70
     1
102
RTVSPropertyOp27
 70
     1
  0
XRECORD
  5
1FA
102
{ACAD_REACTORS
330
1F9
102
}
330
1F9
100
AcDbXrecord
280
     1
102
RTVSPropertyOp0
 70
     1
102
RTVSPropertyOp1
 70
     1
102
RTVSPropertyOp2
 70
     1
102
RTVSPropertyOp3
 70
     1
102
RTVSPropertyOp4
 70
     1
102
RTVSPropertyOp5
 70
     1
102
RTVSPropertyOp6
 70
     1
102
RTVSPropertyOp7
 70
     1
102
RTVSPropertyOp8
 70
     1
102
RTVSPropertyOp9
 70
     1
102
RTVSPropertyOp10
 70
     1
102
RTVSPropertyOp11
 70
     1
102
RTVSPropertyOp12
 70
     1
102
RTVSPropertyOp13
 70
     1
102
RTVSPropertyOp14
 70
     1
102
RTVSPropertyOp15
 70
     1
102
RTVSPropertyOp16
 70
     1
102
RTVSPropertyOp17
 70
     1
102
RTVSPropertyOp18
 70
     1
102
RTVSPropertyOp19
 70
     1
102
RTVSPropertyOp20
 70
     1
102
RTVSPropertyOp21
 70
     1
102
RTVSPropertyOp22
 70
     1
102
RTVSPropertyOp23
 70
     1
102
RTVSPropertyOp24
 70
     1
102
RTVSPropertyOp25
 70
     1
102
RTVSPropertyOp26
 70
     1
102
RTVSPropertyOp27
 70
     1
  0
XRECORD
  5
1EC
102
{ACAD_REACTORS
330
1EB
102
}
330
1EB
100
AcDbXrecord
280
     1
102
RTVSPropertyOp0
 70
     1
102
RTVSPropertyOp1
 70
     1
102
RTVSPropertyOp2
 70
     1
102
RTVSPropertyOp3
 70
     1
102
RTVSPropertyOp4
 70
     1
102
RTVSPropertyOp5
 70
     1
102
RTVSPropertyOp6
 70
     1
102
RTVSPropertyOp7
 70
     1
102
RTVSPropertyOp8
 70
     1
102
RTVSPropertyOp9
 70
     1
102
RTVSPropertyOp10
 70
     1
102
RTVSPropertyOp11
 70
     1
102
RTVSPropertyOp12
 70
     1
102
RTVSPropertyOp13
 70
     1
102
RTVSPropertyOp14
 70
     1
102
RTVSPropertyOp15
 70
     1
102
RTVSPropertyOp16
 70
     1
102
RTVSPropertyOp17
 70
     1
102
RTVSPropertyOp18
 70
     1
102
RTVSPropertyOp19
 70
     1
102
RTVSPropertyOp20
 70
     1
102
RTVSPropertyOp21
 70
     1
102
RTVSPropertyOp22
 70
     1
102
RTVSPropertyOp23
 70
     1
102
RTVSPropertyOp24
 70
     1
102
RTVSPropertyOp25
 70
     1
102
RTVSPropertyOp26
 70
     1
102
RTVSPropertyOp27
 70
     1
  0
XRECORD
  5
1F0
102
{ACAD_REACTORS
330
1EF
102
}
330
1EF
100
AcDbXrecord
280
     1
102
RTVSPropertyOp0
 70
     1
102
RTVSPropertyOp1
 70
     1
102
RTVSPropertyOp2
 70
     1
102
RTVSPropertyOp3
 70
     1
102
RTVSPropertyOp4
 70
     1
102
RTVSPropertyOp5
 70
     1
102
RTVSPropertyOp6
 70
     1
102
RTVSPropertyOp7
 70
     1
102
RTVSPropertyOp8
 70
     1
102
RTVSPropertyOp9
 70
     1
102
RTVSPropertyOp10
 70
     1
102
RTVSPropertyOp11
 70
     1
102
RTVSPropertyOp12
 70
     1
102
RTVSPropertyOp13
 70
     1
102
RTVSPropertyOp14
 70
     1
102
RTVSPropertyOp15
 70
     1
102
RTVSPropertyOp16
 70
     1
102
RTVSPropertyOp17
 70
     1
102
RTVSPropertyOp18
 70
     1
102
RTVSPropertyOp19
 70
     1
102
RTVSPropertyOp20
 70
     1
102
RTVSPropertyOp21
 70
     1
102
RTVSPropertyOp22
 70
     1
102
RTVSPropertyOp23
 70
     1
102
RTVSPropertyOp24
 70
     1
102
RTVSPropertyOp25
 70
     1
102
RTVSPropertyOp26
 70
     1
102
RTVSPropertyOp27
 70
     1
  0
XRECORD
  5
200
102
{ACAD_REACTORS
330
1FF
102
}
330
1FF
100
AcDbXrecord
280
     1
102
RTVSPropertyOp0
 70
     0
102
RTVSPropertyOp1
 70
     0
102
RTVSPropertyOp2
 70
     0
102
RTVSPropertyOp3
 70
     0
102
RTVSPropertyOp4
 70
     0
102
RTVSPropertyOp5
 70
     0
102
RTVSPropertyOp6
 70
     0
102
RTVSPropertyOp7
 70
     0
102
RTVSPropertyOp8
 70
     0
102
RTVSPropertyOp9
 70
     0
102
RTVSPropertyOp10
 70
     0
102
RTVSPropertyOp11
 70
     0
102
RTVSPropertyOp12
 70
     0
102
RTVSPropertyOp13
 70
     0
102
RTVSPropertyOp14
 70
     2
102
RTVSPropertyOp15
 70
     0
102
RTVSPropertyOp16
 70
     0
102
RTVSPropertyOp17
 70
     0
102
RTVSPropertyOp18
 70
     0
102
RTVSPropertyOp19
 70
     0
102
RTVSPropertyOp20
 70
     0
102
RTVSPropertyOp21
 70
     0
102
RTVSPropertyOp22
 70
     0
102
RTVSPropertyOp23
 70
     0
102
RTVSPropertyOp24
 70
     0
102
RTVSPropertyOp25
 70
     0
102
RTVSPropertyOp26
 70
     0
102
RTVSPropertyOp27
 70
     0
  0
XRECORD
  5
1F8
102
{ACAD_REACTORS
330
1F7
102
}
330
1F7
100
AcDbXrecord
280
     1
102
RTVSPropertyOp0
 70
     1
102
RTVSPropertyOp1
 70
     1
102
RTVSPropertyOp2
 70
     1
102
RTVSPropertyOp3
 70
     1
102
RTVSPropertyOp4
 70
     1
102
RTVSPropertyOp5
 70
     1
102
RTVSPropertyOp6
 70
     1
102
RTVSPropertyOp7
 70
     1
102
RTVSPropertyOp8
 70
     1
102
RTVSPropertyOp9
 70
     1
102
RTVSPropertyOp10
 70
     1
102
RTVSPropertyOp11
 70
     1
102
RTVSPropertyOp12
 70
     1
102
RTVSPropertyOp13
 70
     1
102
RTVSPropertyOp14
 70
     1
102
RTVSPropertyOp15
 70
     1
102
RTVSPropertyOp16
 70
     1
102
RTVSPropertyOp17
 70
     1
102
RTVSPropertyOp18
 70
     1
102
RTVSPropertyOp19
 70
     1
102
RTVSPropertyOp20
 70
     1
102
RTVSPropertyOp21
 70
     1
102
RTVSPropertyOp22
 70
     1
102
RTVSPropertyOp23
 70
     1
102
RTVSPropertyOp24
 70
     1
102
RTVSPropertyOp25
 70
     1
102
RTVSPropertyOp26
 70
     1
102
RTVSPropertyOp27
 70
     1
  0
XRECORD
  5
1DC
102
{ACAD_REACTORS
330
1DB
102
}
330
1DB
100
AcDbXrecord
280
     1
102
RTVSPropertyOp0
 70
     1
102
RTVSPropertyOp1
 70
     1
102
RTVSPropertyOp2
 70
     1
102
RTVSPropertyOp3
 70
     1
102
RTVSPropertyOp4
 70
     1
102
RTVSPropertyOp5
 70
     1
102
RTVSPropertyOp6
 70
     1
102
RTVSPropertyOp7
 70
     1
102
RTVSPropertyOp8
 70
     1
102
RTVSPropertyOp9
 70
     1
102
RTVSPropertyOp10
 70
     1
102
RTVSPropertyOp11
 70
     1
102
RTVSPropertyOp12
 70
     1
102
RTVSPropertyOp13
 70
     1
102
RTVSPropertyOp14
 70
     1
102
RTVSPropertyOp15
 70
     1
102
RTVSPropertyOp16
 70
     1
102
RTVSPropertyOp17
 70
     1
102
RTVSPropertyOp18
 70
     1
102
RTVSPropertyOp19
 70
     1
102
RTVSPropertyOp20
 70
     1
102
RTVSPropertyOp21
 70
     1
102
RTVSPropertyOp22
 70
     1
102
RTVSPropertyOp23
 70
     1
102
RTVSPropertyOp24
 70
     1
102
RTVSPropertyOp25
 70
     1
102
RTVSPropertyOp26
 70
     1
102
RTVSPropertyOp27
 70
     1
  0
XRECORD
  5
1DE
102
{ACAD_REACTORS
330
1DD
102
}
330
1DD
100
AcDbXrecord
280
     1
102
RTVSPropertyOp0
 70
     1
102
RTVSPropertyOp1
 70
     1
102
RTVSPropertyOp2
 70
     1
102
RTVSPropertyOp3
 70
     1
102
RTVSPropertyOp4
 70
     1
102
RTVSPropertyOp5
 70
     1
102
RTVSPropertyOp6
 70
     1
102
RTVSPropertyOp7
 70
     1
102
RTVSPropertyOp8
 70
     1
102
RTVSPropertyOp9
 70
     1
102
RTVSPropertyOp10
 70
     1
102
RTVSPropertyOp11
 70
     1
102
RTVSPropertyOp12
 70
     1
102
RTVSPropertyOp13
 70
     1
102
RTVSPropertyOp14
 70
     1
102
RTVSPropertyOp15
 70
     1
102
RTVSPropertyOp16
 70
     1
102
RTVSPropertyOp17
 70
     1
102
RTVSPropertyOp18
 70
     1
102
RTVSPropertyOp19
 70
     1
102
RTVSPropertyOp20
 70
     1
102
RTVSPropertyOp21
 70
     1
102
RTVSPropertyOp22
 70
     1
102
RTVSPropertyOp23
 70
     1
102
RTVSPropertyOp24
 70
     1
102
RTVSPropertyOp25
 70
     1
102
RTVSPropertyOp26
 70
     1
102
RTVSPropertyOp27
 70
     1
  0
XRECORD
  5
1E0
102
{ACAD_REACTORS
330
1DF
102
}
330
1DF
100
AcDbXrecord
280
     1
102
RTVSPropertyOp0
 70
     1
102
RTVSPropertyOp1
 70
     1
102
RTVSPropertyOp2
 70
     1
102
RTVSPropertyOp3
 70
     1
102
RTVSPropertyOp4
 70
     1
102
RTVSPropertyOp5
 70
     1
102
RTVSPropertyOp6
 70
     1
102
RTVSPropertyOp7
 70
     1
102
RTVSPropertyOp8
 70
     1
102
RTVSPropertyOp9
 70
     1
102
RTVSPropertyOp10
 70
     1
102
RTVSPropertyOp11
 70
     1
102
RTVSPropertyOp12
 70
     1
102
RTVSPropertyOp13
 70
     1
102
RTVSPropertyOp14
 70
     1
102
RTVSPropertyOp15
 70
     1
102
RTVSPropertyOp16
 70
     1
102
RTVSPropertyOp17
 70
     1
102
RTVSPropertyOp18
 70
     1
102
RTVSPropertyOp19
 70
     1
102
RTVSPropertyOp20
 70
     1
102
RTVSPropertyOp21
 70
     1
102
RTVSPropertyOp22
 70
     1
102
RTVSPropertyOp23
 70
     1
102
RTVSPropertyOp24
 70
     1
102
RTVSPropertyOp25
 70
     1
102
RTVSPropertyOp26
 70
     1
102
RTVSPropertyOp27
 70
     1
  0
XRECORD
  5
1E2
102
{ACAD_REACTORS
330
1E1
102
}
330
1E1
100
AcDbXrecord
280
     1
102
RTVSPropertyOp0
 70
     1
102
RTVSPropertyOp1
 70
     1
102
RTVSPropertyOp2
 70
     1
102
RTVSPropertyOp3
 70
     1
102
RTVSPropertyOp4
 70
     1
102
RTVSPropertyOp5
 70
     1
102
RTVSPropertyOp6
 70
     1
102
RTVSPropertyOp7
 70
     1
102
RTVSPropertyOp8
 70
     1
102
RTVSPropertyOp9
 70
     1
102
RTVSPropertyOp10
 70
     1
102
RTVSPropertyOp11
 70
     1
102
RTVSPropertyOp12
 70
     1
102
RTVSPropertyOp13
 70
     1
102
RTVSPropertyOp14
 70
     1
102
RTVSPropertyOp15
 70
     1
102
RTVSPropertyOp16
 70
     1
102
RTVSPropertyOp17
 70
     1
102
RTVSPropertyOp18
 70
     1
102
RTVSPropertyOp19
 70
     1
102
RTVSPropertyOp20
 70
     1
102
RTVSPropertyOp21
 70
     1
102
RTVSPropertyOp22
 70
     1
102
RTVSPropertyOp23
 70
     1
102
RTVSPropertyOp24
 70
     1
102
RTVSPropertyOp25
 70
     1
102
RTVSPropertyOp26
 70
     1
102
RTVSPropertyOp27
 70
     1
  0
XRECORD
  5
1FC
102
{ACAD_REACTORS
330
1FB
102
}
330
1FB
100
AcDbXrecord
280
     1
102
RTVSPropertyOp0
 70
     0
102
RTVSPropertyOp1
 70
     0
102
RTVSPropertyOp2
 70
     0
102
RTVSPropertyOp3
 70
     0
102
RTVSPropertyOp4
 70
     0
102
RTVSPropertyOp5
 70
     0
102
RTVSPropertyOp6
 70
     0
102
RTVSPropertyOp7
 70
     0
102
RTVSPropertyOp8
 70
     0
102
RTVSPropertyOp9
 70
     0
102
RTVSPropertyOp10
 70
     0
102
RTVSPropertyOp11
 70
     0
102
RTVSPropertyOp12
 70
     0
102
RTVSPropertyOp13
 70
     0
102
RTVSPropertyOp14
 70
     2
102
RTVSPropertyOp15
 70
     0
102
RTVSPropertyOp16
 70
     0
102
RTVSPropertyOp17
 70
     0
102
RTVSPropertyOp18
 70
     0
102
RTVSPropertyOp19
 70
     0
102
RTVSPropertyOp20
 70
     0
102
RTVSPropertyOp21
 70
     0
102
RTVSPropertyOp22
 70
     0
102
RTVSPropertyOp23
 70
     0
102
RTVSPropertyOp24
 70
     0
102
RTVSPropertyOp25
 70
     0
102
RTVSPropertyOp26
 70
     0
102
RTVSPropertyOp27
 70
     0
  0
XRECORD
  5
1F6
102
{ACAD_REACTORS
330
1F5
102
}
330
1F5
100
AcDbXrecord
280
     1
102
RTVSPropertyOp0
 70
     1
102
RTVSPropertyOp1
 70
     1
102
RTVSPropertyOp2
 70
     1
102
RTVSPropertyOp3
 70
     1
102
RTVSPropertyOp4
 70
     1
102
RTVSPropertyOp5
 70
     1
102
RTVSPropertyOp6
 70
     1
102
RTVSPropertyOp7
 70
     1
102
RTVSPropertyOp8
 70
     1
102
RTVSPropertyOp9
 70
     1
102
RTVSPropertyOp10
 70
     1
102
RTVSPropertyOp11
 70
     1
102
RTVSPropertyOp12
 70
     1
102
RTVSPropertyOp13
 70
     1
102
RTVSPropertyOp14
 70
     1
102
RTVSPropertyOp15
 70
     1
102
RTVSPropertyOp16
 70
     1
102
RTVSPropertyOp17
 70
     1
102
RTVSPropertyOp18
 70
     1
102
RTVSPropertyOp19
 70
     1
102
RTVSPropertyOp20
 70
     1
102
RTVSPropertyOp21
 70
     1
102
RTVSPropertyOp22
 70
     1
102
RTVSPropertyOp23
 70
     1
102
RTVSPropertyOp24
 70
     1
102
RTVSPropertyOp25
 70
     1
102
RTVSPropertyOp26
 70
     1
102
RTVSPropertyOp27
 70
     1
  0
XRECORD
  5
1FE
102
{ACAD_REACTORS
330
1FD
102
}
330
1FD
100
AcDbXrecord
280
     1
102
RTVSPropertyOp0
 70
     0
102
RTVSPropertyOp1
 70
     0
102
RTVSPropertyOp2
 70
     0
102
RTVSPropertyOp3
 70
     0
102
RTVSPropertyOp4
 70
     0
102
RTVSPropertyOp5
 70
     0
102
RTVSPropertyOp6
 70
     0
102
RTVSPropertyOp7
 70
     0
102
RTVSPropertyOp8
 70
     0
102
RTVSPropertyOp9
 70
     0
102
RTVSPropertyOp10
 70
     0
102
RTVSPropertyOp11
 70
     0
102
RTVSPropertyOp12
 70
     0
102
RTVSPropertyOp13
 70
     0
102
RTVSPropertyOp14
 70
     2
102
RTVSPropertyOp15
 70
     0
102
RTVSPropertyOp16
 70
     0
102
RTVSPropertyOp17
 70
     0
102
RTVSPropertyOp18
 70
     0
102
RTVSPropertyOp19
 70
     0
102
RTVSPropertyOp20
 70
     0
102
RTVSPropertyOp21
 70
     0
102
RTVSPropertyOp22
 70
     0
102
RTVSPropertyOp23
 70
     0
102
RTVSPropertyOp24
 70
     0
102
RTVSPropertyOp25
 70
     0
102
RTVSPropertyOp26
 70
     0
102
RTVSPropertyOp27
 70
     0
  0
XRECORD
  5
1EE
102
{ACAD_REACTORS
330
1ED
102
}
330
1ED
100
AcDbXrecord
280
     1
102
RTVSPropertyOp0
 70
     1
102
RTVSPropertyOp1
 70
     1
102
RTVSPropertyOp2
 70
     1
102
RTVSPropertyOp3
 70
     1
102
RTVSPropertyOp4
 70
     1
102
RTVSPropertyOp5
 70
     1
102
RTVSPropertyOp6
 70
     1
102
RTVSPropertyOp7
 70
     1
102
RTVSPropertyOp8
 70
     1
102
RTVSPropertyOp9
 70
     1
102
RTVSPropertyOp10
 70
     1
102
RTVSPropertyOp11
 70
     1
102
RTVSPropertyOp12
 70
     1
102
RTVSPropertyOp13
 70
     1
102
RTVSPropertyOp14
 70
     1
102
RTVSPropertyOp15
 70
     1
102
RTVSPropertyOp16
 70
     1
102
RTVSPropertyOp17
 70
     1
102
RTVSPropertyOp18
 70
     1
102
RTVSPropertyOp19
 70
     1
102
RTVSPropertyOp20
 70
     1
102
RTVSPropertyOp21
 70
     1
102
RTVSPropertyOp22
 70
     1
102
RTVSPropertyOp23
 70
     1
102
RTVSPropertyOp24
 70
     1
102
RTVSPropertyOp25
 70
     1
102
RTVSPropertyOp26
 70
     1
102
RTVSPropertyOp27
 70
     1
  0
XRECORD
  5
1F4
102
{ACAD_REACTORS
330
1F3
102
}
330
1F3
100
AcDbXrecord
280
     1
102
RTVSPropertyOp0
 70
     1
102
RTVSPropertyOp1
 70
     1
102
RTVSPropertyOp2
 70
     1
102
RTVSPropertyOp3
 70
     1
102
RTVSPropertyOp4
 70
     1
102
RTVSPropertyOp5
 70
     1
102
RTVSPropertyOp6
 70
     1
102
RTVSPropertyOp7
 70
     1
102
RTVSPropertyOp8
 70
     1
102
RTVSPropertyOp9
 70
     1
102
RTVSPropertyOp10
 70
     1
102
RTVSPropertyOp11
 70
     1
102
RTVSPropertyOp12
 70
     1
102
RTVSPropertyOp13
 70
     1
102
RTVSPropertyOp14
 70
     1
102
RTVSPropertyOp15
 70
     1
102
RTVSPropertyOp16
 70
     1
102
RTVSPropertyOp17
 70
     1
102
RTVSPropertyOp18
 70
     1
102
RTVSPropertyOp19
 70
     1
102
RTVSPropertyOp20
 70
     1
102
RTVSPropertyOp21
 70
     1
102
RTVSPropertyOp22
 70
     1
102
RTVSPropertyOp23
 70
     1
102
RTVSPropertyOp24
 70
     1
102
RTVSPropertyOp25
 70
     1
102
RTVSPropertyOp26
 70
     1
102
RTVSPropertyOp27
 70
     1
  0
ENDSEC
  0
EOF
