  0
SECTION
  2
HEADER
  9
$ACADVER
  1
AC1015
  9
$ACADMAINTVER
 70
    20
  9
$DWGCODEPAGE
  3
ANSI_1252
  9
$INSBASE
 10
0.0
 20
0.0
 30
0.0
  9
$EXTMIN
 10
1268.699011574972
 20
1711.975660014562
 30
0.0
  9
$EXTMAX
 10
1273.080356597934
 20
1712.873529887375
 30
0.0
  9
$LIMMIN
 10
0.0
 20
0.0
  9
$LIMMAX
 10
420.0
 20
297.0
  9
$ORTHOMODE
 70
     1
  9
$REGENMODE
 70
     1
  9
$FILLMODE
 70
     1
  9
$QTEXTMODE
 70
     0
  9
$MIRRTEXT
 70
     1
  9
$LTSCALE
 40
1.0
  9
$ATTMODE
 70
     1
  9
$TEXTSIZE
 40
2.5
  9
$TRACEWID
 40
1.0
  9
$TEXTSTYLE
  7
SANINDUSA
  9
$CLAYER
  8
0
  9
$CELTYPE
  6
ByLayer
  9
$CECOLOR
 62
   256
  9
$CELTSCALE
 40
1.0
  9
$DISPSILH
 70
     0
  9
$DIMSCALE
 40
1.0
  9
$DIMASZ
 40
2.0
  9
$DIMEXO
 40
1.0
  9
$DIMDLI
 40
1.0
  9
$DIMRND
 40
0.0
  9
$DIMDLE
 40
0.0
  9
$DIMEXE
 40
1.0
  9
$DIMTP
 40
0.0
  9
$DIMTM
 40
0.0
  9
$DIMTXT
 40
2.0
  9
$DIMCEN
 40
0.0
  9
$DIMTSZ
 40
0.0
  9
$DIMTOL
 70
     0
  9
$DIMLIM
 70
     0
  9
$DIMTIH
 70
     0
  9
$DIMTOH
 70
     0
  9
$DIMSE1
 70
     0
  9
$DIMSE2
 70
     0
  9
$DIMTAD
 70
     1
  9
$DIMZIN
 70
     8
  9
$DIMBLK
  1

  9
$DIMASO
 70
     1
  9
$DIMSHO
 70
     1
  9
$DIMPOST
  1

  9
$DIMAPOST
  1

  9
$DIMALT
 70
     0
  9
$DIMALTD
 70
     3
  9
$DIMALTF
 40
0.03937007874016
  9
$DIMLFAC
 40
1.0
  9
$DIMTOFL
 70
     1
  9
$DIMTVP
 40
0.0
  9
$DIMTIX
 70
     0
  9
$DIMSOXD
 70
     0
  9
$DIMSAH
 70
     0
  9
$DIMBLK1
  1

  9
$DIMBLK2
  1

  9
$DIMSTYLE
  2
SANINDUSA
  9
$DIMCLRD
 70
   256
  9
$DIMCLRE
 70
   256
  9
$DIMCLRT
 70
   256
  9
$DIMTFAC
 40
1.0
  9
$DIMGAP
 40
1.0
  9
$DIMJUST
 70
     0
  9
$DIMSD1
 70
     0
  9
$DIMSD2
 70
     0
  9
$DIMTOLJ
 70
     0
  9
$DIMTZIN
 70
     8
  9
$DIMALTZ
 70
     0
  9
$DIMALTTZ
 70
     0
  9
$DIMUPT
 70
     0
  9
$DIMDEC
 70
     1
  9
$DIMTDEC
 70
     1
  9
$DIMALTU
 70
     2
  9
$DIMALTTD
 70
     3
  9
$DIMTXSTY
  7
SANINDUSA
  9
$DIMAUNIT
 70
     0
  9
$DIMADEC
 70
     1
  9
$DIMALTRND
 40
0.0
  9
$DIMAZIN
 70
     0
  9
$DIMDSEP
 70
    44
  9
$DIMATFIT
 70
     3
  9
$DIMFRAC
 70
     0
  9
$DIMLDRBLK
  1

  9
$DIMLUNIT
 70
     2
  9
$DIMLWD
 70
    -1
  9
$DIMLWE
 70
    -1
  9
$DIMTMOVE
 70
     0
  9
$LUNITS
 70
     2
  9
$LUPREC
 70
     4
  9
$SKETCHINC
 40
1.0
  9
$FILLETRAD
 40
0.0
  9
$AUNITS
 70
     0
  9
$AUPREC
 70
     0
  9
$MENU
  1
.
  9
$ELEVATION
 40
0.0
  9
$PELEVATION
 40
0.0
  9
$THICKNESS
 40
0.0
  9
$LIMCHECK
 70
     0
  9
$CHAMFERA
 40
10.0
  9
$CHAMFERB
 40
10.0
  9
$CHAMFERC
 40
20.0
  9
$CHAMFERD
 40
0.0
  9
$SKPOLY
 70
     0
  9
$TDCREATE
 40
2453559.724072442
  9
$TDUCREATE
 40
2453559.682405775
  9
$TDUPDATE
 40
2456141.628432616
  9
$TDUUPDATE
 40
2456141.586765949
  9
$TDINDWG
 40
0.0029370949
  9
$TDUSRTIMER
 40
0.0029370949
  9
$USRTIMER
 70
     1
  9
$ANGBASE
 50
0.0
  9
$ANGDIR
 70
     0
  9
$PDMODE
 70
     0
  9
$PDSIZE
 40
0.0
  9
$PLINEWID
 40
0.0
  9
$SPLFRAME
 70
     0
  9
$SPLINETYPE
 70
     6
  9
$SPLINESEGS
 70
     8
  9
$HANDSEED
  5
1CCF
  9
$SURFTAB1
 70
     6
  9
$SURFTAB2
 70
     6
  9
$SURFTYPE
 70
     6
  9
$SURFU
 70
     6
  9
$SURFV
 70
     6
  9
$UCSBASE
  2

  9
$UCSNAME
  2

  9
$UCSORG
 10
0.0
 20
0.0
 30
0.0
  9
$UCSXDIR
 10
1.0
 20
0.0
 30
0.0
  9
$UCSYDIR
 10
0.0
 20
1.0
 30
0.0
  9
$UCSORTHOREF
  2

  9
$UCSORTHOVIEW
 70
     0
  9
$UCSORGTOP
 10
0.0
 20
0.0
 30
0.0
  9
$UCSORGBOTTOM
 10
0.0
 20
0.0
 30
0.0
  9
$UCSORGLEFT
 10
0.0
 20
0.0
 30
0.0
  9
$UCSORGRIGHT
 10
0.0
 20
0.0
 30
0.0
  9
$UCSORGFRONT
 10
0.0
 20
0.0
 30
0.0
  9
$UCSORGBACK
 10
0.0
 20
0.0
 30
0.0
  9
$PUCSBASE
  2

  9
$PUCSNAME
  2

  9
$PUCSORG
 10
0.0
 20
0.0
 30
0.0
  9
$PUCSXDIR
 10
1.0
 20
0.0
 30
0.0
  9
$PUCSYDIR
 10
0.0
 20
1.0
 30
0.0
  9
$PUCSORTHOREF
  2

  9
$PUCSORTHOVIEW
 70
     0
  9
$PUCSORGTOP
 10
0.0
 20
0.0
 30
0.0
  9
$PUCSORGBOTTOM
 10
0.0
 20
0.0
 30
0.0
  9
$PUCSORGLEFT
 10
0.0
 20
0.0
 30
0.0
  9
$PUCSORGRIGHT
 10
0.0
 20
0.0
 30
0.0
  9
$PUCSORGFRONT
 10
0.0
 20
0.0
 30
0.0
  9
$PUCSORGBACK
 10
0.0
 20
0.0
 30
0.0
  9
$USERI1
 70
     0
  9
$USERI2
 70
     0
  9
$USERI3
 70
     0
  9
$USERI4
 70
     0
  9
$USERI5
 70
     0
  9
$USERR1
 40
0.0
  9
$USERR2
 40
0.0
  9
$USERR3
 40
0.0
  9
$USERR4
 40
0.0
  9
$USERR5
 40
0.0
  9
$WORLDVIEW
 70
     1
  9
$SHADEDGE
 70
     3
  9
$SHADEDIF
 70
    70
  9
$TILEMODE
 70
     1
  9
$MAXACTVP
 70
    64
  9
$PINSBASE
 10
0.0
 20
0.0
 30
0.0
  9
$PLIMCHECK
 70
     0
  9
$PEXTMIN
 10
1.000000000000000E+20
 20
1.000000000000000E+20
 30
1.000000000000000E+20
  9
$PEXTMAX
 10
-1.000000000000000E+20
 20
-1.000000000000000E+20
 30
-1.000000000000000E+20
  9
$PLIMMIN
 10
0.0
 20
0.0
  9
$PLIMMAX
 10
420.0
 20
297.0
  9
$UNITMODE
 70
     0
  9
$VISRETAIN
 70
     1
  9
$PLINEGEN
 70
     0
  9
$PSLTSCALE
 70
     1
  9
$TREEDEPTH
 70
  3020
  9
$CMLSTYLE
  2
Standard
  9
$CMLJUST
 70
     0
  9
$CMLSCALE
 40
20.0
  9
$PROXYGRAPHICS
 70
     1
  9
$MEASUREMENT
 70
     1
  9
$CELWEIGHT
370
    -1
  9
$ENDCAPS
280
     0
  9
$JOINSTYLE
280
     0
  9
$LWDISPLAY
290
     0
  9
$INSUNITS
 70
     4
  9
$HYPERLINKBASE
  1

  9
$STYLESHEET
  1
monochrome.ctb
  9
$XEDIT
290
     1
  9
$CEPSNTYPE
380
     0
  9
$PSTYLEMODE
290
     1
  9
$FINGERPRINTGUID
  2
{EC23FF97-F030-4267-95B9-77545143A258}
  9
$VERSIONGUID
  2
{E6B9D15A-52E0-40C1-827D-CF82470785BA}
  9
$EXTNAMES
290
     1
  9
$PSVPSCALE
 40
0.0
  9
$OLESTARTUP
290
     0
  0
ENDSEC
  0
SECTION
  2
CLASSES
  0
CLASS
  1
ACDBDICTIONARYWDFLT
  2
AcDbDictionaryWithDefault
  3
ObjectDBX Classes
 90
        0
280
     0
281
     0
  0
CLASS
  1
ACDBPLACEHOLDER
  2
AcDbPlaceHolder
  3
ObjectDBX Classes
 90
        0
280
     0
281
     0
  0
CLASS
  1
LAYOUT
  2
AcDbLayout
  3
ObjectDBX Classes
 90
        0
280
     0
281
     0
  0
CLASS
  1
DICTIONARYVAR
  2
AcDbDictionaryVar
  3
ObjectDBX Classes
 90
        0
280
     0
281
     0
  0
CLASS
  1
DIMASSOC
  2
AcDbDimAssoc
  3
"AcDbDimAssoc|Product Desc:     AcDim ARX App For Dimension|Company:          Autodesk, Inc.|WEB Address:      www.autodesk.com"
 90
    32768
280
     0
281
     0
  0
CLASS
  1
TABLESTYLE
  2
AcDbTableStyle
  3
ObjectDBX Classes
 90
     4095
280
     0
281
     0
  0
CLASS
  1
SORTENTSTABLE
  2
AcDbSortentsTable
  3
ObjectDBX Classes
 90
    32768
280
     0
281
     0
  0
CLASS
  1
MATERIAL
  2
AcDbMaterial
  3
ObjectDBX Classes
 90
     1153
280
     0
281
     0
  0
CLASS
  1
VISUALSTYLE
  2
AcDbVisualStyle
  3
ObjectDBX Classes
 90
     4095
280
     0
281
     0
  0
CLASS
  1
SCALE
  2
AcDbScale
  3
ObjectDBX Classes
 90
     1153
280
     0
281
     0
  0
CLASS
  1
MLEADERSTYLE
  2
AcDbMLeaderStyle
  3
ACDB_MLEADERSTYLE_CLASS
 90
     4095
280
     0
281
     0
  0
CLASS
  1
CELLSTYLEMAP
  2
AcDbCellStyleMap
  3
ObjectDBX Classes
 90
     1152
280
     0
281
     0
  0
ENDSEC
  0
SECTION
  2
TABLES
  0
TABLE
  2
VPORT
  5
8
330
0
100
AcDbSymbolTable
 70
     1
  0
VPORT
  5
1C18
330
8
100
AcDbSymbolTableRecord
100
AcDbViewportTableRecord
  2
*Active
 70
     0
 10
0.0
 20
0.0
 11
1.0
 21
1.0
 12
1271.011805817541
 22
1712.452368544868
 13
0.0
 23
0.0
 14
10.0
 24
10.0
 15
10.0
 25
10.0
 16
0.0
 26
0.0
 36
1.0
 17
0.0
 27
0.0
 37
0.0
 40
3.108849176704683
 41
1.645464025026068
 42
50.0
 43
0.0
 44
0.0
 50
0.0
 51
0.0
 71
     0
 72
   100
 73
     1
 74
     2
 75
     0
 76
     0
 77
     0
 78
     0
281
     0
 65
     1
110
0.0
120
0.0
130
0.0
111
1.0
121
0.0
131
0.0
112
0.0
122
1.0
132
0.0
 79
     0
146
0.0
  0
ENDTAB
  0
TABLE
  2
LTYPE
  5
5
330
0
100
AcDbSymbolTable
 70
     3
  0
LTYPE
  5
14
330
5
100
AcDbSymbolTableRecord
100
AcDbLinetypeTableRecord
  2
ByBlock
 70
     0
  3

 72
    65
 73
     0
 40
0.0
  0
LTYPE
  5
15
330
5
100
AcDbSymbolTableRecord
100
AcDbLinetypeTableRecord
  2
ByLayer
 70
     0
  3

 72
    65
 73
     0
 40
0.0
  0
LTYPE
  5
16
330
5
100
AcDbSymbolTableRecord
100
AcDbLinetypeTableRecord
  2
Continuous
 70
     0
  3
Solid line
 72
    65
 73
     0
 40
0.0
  0
LTYPE
  5
2D
330
5
100
AcDbSymbolTableRecord
100
AcDbLinetypeTableRecord
  2
DASHDOT
 70
     0
  3
Dash dot __ . __ . __ . __ . __ . __ . __ . __
 72
    65
 73
     4
 40
25.4
 49
12.7
 74
     0
 49
-6.349999999999999
 74
     0
 49
0.0
 74
     0
 49
-6.349999999999999
 74
     0
  0
LTYPE
  5
2E
330
5
100
AcDbSymbolTableRecord
100
AcDbLinetypeTableRecord
  2
HIDDEN
 70
     0
  3
Hidden __ __ __ __ __ __ __ __ __ __ __ __ __ _
 72
    65
 73
     2
 40
9.524999999999998
 49
6.349999999999999
 74
     0
 49
-3.174999999999999
 74
     0
  0
ENDTAB
  0
TABLE
  2
LAYER
  5
2
330
0
100
AcDbSymbolTable
 70
    16
  0
LAYER
  5
10
102
{ACAD_XDICTIONARY
360
1C67
102
}
330
2
100
AcDbSymbolTableRecord
100
AcDbLayerTableRecord
  2
0
 70
     0
 62
     7
  6
Continuous
370
    -3
390
F
  0
LAYER
  5
2F
102
{ACAD_XDICTIONARY
360
1C69
102
}
330
2
100
AcDbSymbolTableRecord
100
AcDbLayerTableRecord
  2
1
 70
     0
 62
     1
  6
Continuous
370
    -3
390
F
  0
LAYER
  5
30
102
{ACAD_XDICTIONARY
360
1C6B
102
}
330
2
100
AcDbSymbolTableRecord
100
AcDbLayerTableRecord
  2
2
 70
     0
 62
     2
  6
Continuous
370
    -3
390
F
  0
LAYER
  5
31
102
{ACAD_XDICTIONARY
360
1C6D
102
}
330
2
100
AcDbSymbolTableRecord
100
AcDbLayerTableRecord
  2
3
 70
     0
 62
     3
  6
Continuous
370
    -3
390
F
  0
LAYER
  5
32
102
{ACAD_XDICTIONARY
360
1C6F
102
}
330
2
100
AcDbSymbolTableRecord
100
AcDbLayerTableRecord
  2
4
 70
     0
 62
     4
  6
Continuous
370
    -3
390
F
  0
LAYER
  5
33
102
{ACAD_XDICTIONARY
360
1C71
102
}
330
2
100
AcDbSymbolTableRecord
100
AcDbLayerTableRecord
  2
5
 70
     0
 62
     5
  6
Continuous
370
    -3
390
F
  0
LAYER
  5
34
102
{ACAD_XDICTIONARY
360
1C73
102
}
330
2
100
AcDbSymbolTableRecord
100
AcDbLayerTableRecord
  2
6
 70
     0
 62
     6
  6
Continuous
370
    -3
390
F
  0
LAYER
  5
35
102
{ACAD_XDICTIONARY
360
1C75
102
}
330
2
100
AcDbSymbolTableRecord
100
AcDbLayerTableRecord
  2
7
 70
     0
 62
     7
  6
Continuous
370
    -3
390
F
  0
LAYER
  5
36
102
{ACAD_XDICTIONARY
360
1C77
102
}
330
2
100
AcDbSymbolTableRecord
100
AcDbLayerTableRecord
  2
cen
 70
     0
 62
     7
  6
DASHDOT
370
    -3
390
F
  0
LAYER
  5
37
102
{ACAD_XDICTIONARY
360
1C79
102
}
330
2
100
AcDbSymbolTableRecord
100
AcDbLayerTableRecord
  2
hid
 70
     0
 62
     7
  6
HIDDEN
370
    -3
390
F
  0
LAYER
  5
5D6
102
{ACAD_XDICTIONARY
360
1C7B
102
}
330
2
100
AcDbSymbolTableRecord
100
AcDbLayerTableRecord
  2
hatch
 70
     0
 62
     9
  6
Continuous
370
    -3
390
F
  0
LAYER
  5
8AF
102
{ACAD_XDICTIONARY
360
1C7D
102
}
330
2
100
AcDbSymbolTableRecord
100
AcDbLayerTableRecord
  2
9
 70
     0
 62
     9
  6
Continuous
370
    -3
390
F
  0
LAYER
  5
8F8
102
{ACAD_XDICTIONARY
360
1C7F
102
}
330
2
100
AcDbSymbolTableRecord
100
AcDbLayerTableRecord
  2
leg fin
 70
     0
 62
     9
  6
Continuous
370
    -3
390
F
  0
LAYER
  5
91D
102
{ACAD_XDICTIONARY
360
1C81
102
}
330
2
100
AcDbSymbolTableRecord
100
AcDbLayerTableRecord
  2
cotas
 70
     0
 62
     1
  6
Continuous
370
    -3
390
F
  0
LAYER
  5
92F
330
2
100
AcDbSymbolTableRecord
100
AcDbLayerTableRecord
  2
Defpoints
 70
     0
 62
     7
  6
Continuous
290
     0
370
    -3
390
F
  0
LAYER
  5
BA5
102
{ACAD_XDICTIONARY
360
1C83
102
}
330
2
100
AcDbSymbolTableRecord
100
AcDbLayerTableRecord
  2
SANINDUSA
 70
     0
 62
     3
  6
Continuous
370
    -3
390
F
  0
ENDTAB
  0
TABLE
  2
STYLE
  5
3
330
0
100
AcDbSymbolTable
 70
     3
  0
STYLE
  5
11
330
3
100
AcDbSymbolTableRecord
100
AcDbTextStyleTableRecord
  2
Standard
 70
     0
 40
0.0
 41
1.0
 50
0.0
 71
     0
 42
2.5
  3
Avgardn.ttf
  4

1001
ACAD
1000
AvantGarde Bk BT
1071
       34
  0
STYLE
  5
2C
330
3
100
AcDbSymbolTableRecord
100
AcDbTextStyleTableRecord
  2

 70
     1
 40
0.0
 41
1.0
 50
0.0
 71
     0
 42
2.5
  3
ltypeshp.shx
  4

  0
STYLE
  5
91F
330
3
100
AcDbSymbolTableRecord
100
AcDbTextStyleTableRecord
  2
SANINDUSA
 70
     0
 40
0.0
 41
1.0
 50
0.0
 71
     0
 42
2.5
  3
verdana.TTF
  4

1001
ACAD
1000
Verdana
1071
       34
  0
ENDTAB
  0
TABLE
  2
VIEW
  5
6
330
0
100
AcDbSymbolTable
 70
     0
  0
ENDTAB
  0
TABLE
  2
UCS
  5
7
330
0
100
AcDbSymbolTable
 70
     0
  0
ENDTAB
  0
TABLE
  2
APPID
  5
9
330
0
100
AcDbSymbolTable
 70
     7
  0
APPID
  5
12
330
9
100
AcDbSymbolTableRecord
100
AcDbRegAppTableRecord
  2
ACAD
 70
     0
  0
APPID
  5
3A
330
9
100
AcDbSymbolTableRecord
100
AcDbRegAppTableRecord
  2
DCO15
 70
     0
  0
APPID
  5
D5B
330
9
100
AcDbSymbolTableRecord
100
AcDbRegAppTableRecord
  2
ACAD_DSTYLE_DIMEXT_LENGTH
 70
     0
  0
APPID
  5
D5C
330
9
100
AcDbSymbolTableRecord
100
AcDbRegAppTableRecord
  2
ACAD_DSTYLE_DIMEXT_ENABLED
 70
     0
  0
APPID
  5
D5D
330
9
100
AcDbSymbolTableRecord
100
AcDbRegAppTableRecord
  2
ACAD_DSTYLE_DIMJOGGED_JOGANGLE_SYMBOL
 70
     0
  0
APPID
  5
D5E
330
9
100
AcDbSymbolTableRecord
100
AcDbRegAppTableRecord
  2
ACAD_DSTYLE_DIMARC_LENGTH_SYMBOL
 70
     0
  0
APPID
  5
1CCE
330
9
100
AcDbSymbolTableRecord
100
AcDbRegAppTableRecord
  2
ACAD_MLEADERVER
 70
     0
  0
ENDTAB
  0
TABLE
  2
DIMSTYLE
  5
A
330
0
100
AcDbSymbolTable
 70
     2
100
AcDbDimStyleTable
 71
     1
340
921
  0
DIMSTYLE
105
45
330
A
100
AcDbSymbolTableRecord
100
AcDbDimStyleTableRecord
  2
STANDARD
 70
     0
289
     0
340
11
  0
DIMSTYLE
105
921
330
A
100
AcDbSymbolTableRecord
100
AcDbDimStyleTableRecord
  2
SANINDUSA
 70
     0
 41
2.0
 42
1.0
 43
1.0
 44
1.0
 73
     0
 74
     0
 77
     1
 78
     8
140
2.0
141
0.0
143
0.03937007874016
147
1.0
171
     3
172
     1
176
   256
177
   256
178
   256
179
     1
271
     1
272
     1
274
     3
278
    44
283
     0
284
     8
340
91F
371
    -1
372
    -1
  0
ENDTAB
  0
TABLE
  2
BLOCK_RECORD
  5
1
330
0
100
AcDbSymbolTable
 70
    80
  0
BLOCK_RECORD
  5
1F
330
1
100
AcDbSymbolTableRecord
100
AcDbBlockTableRecord
  2
*Model_Space
340
22
  0
BLOCK_RECORD
  5
1B
330
1
100
AcDbSymbolTableRecord
100
AcDbBlockTableRecord
  2
*Paper_Space
340
1E
  0
BLOCK_RECORD
  5
23
330
1
100
AcDbSymbolTableRecord
100
AcDbBlockTableRecord
  2
*Paper_Space0
340
26
  0
BLOCK_RECORD
  5
919
330
1
100
AcDbSymbolTableRecord
100
AcDbBlockTableRecord
  2
_DotSmall
340
0
  0
BLOCK_RECORD
  5
922
330
1
100
AcDbSymbolTableRecord
100
AcDbBlockTableRecord
  2
base para cotas
340
0
310
2800000020000000200000000100080000000000000400000000000000000000000000000000000000000000000080000080000000808000800000008000800080800000C0C0C000C0DCC000F0CAA6000020400000206000002080000020A0000020C0000020E00000400000004020000040400000406000004080000040A0
310
000040C0000040E00000600000006020000060400000606000006080000060A0000060C0000060E00000800000008020000080400000806000008080000080A0000080C0000080E00000A0000000A0200000A0400000A0600000A0800000A0A00000A0C00000A0E00000C0000000C0200000C0400000C0600000C0800000C0
310
A00000C0C00000C0E00000E0000000E0200000E0400000E0600000E0800000E0A00000E0C00000E0E00040000000400020004000400040006000400080004000A0004000C0004000E00040200000402020004020400040206000402080004020A0004020C0004020E000404000004040200040404000404060004040800040
310
40A0004040C0004040E00040600000406020004060400040606000406080004060A0004060C0004060E00040800000408020004080400040806000408080004080A0004080C0004080E00040A0000040A0200040A0400040A0600040A0800040A0A00040A0C00040A0E00040C0000040C0200040C0400040C0600040C08000
310
40C0A00040C0C00040C0E00040E0000040E0200040E0400040E0600040E0800040E0A00040E0C00040E0E00080000000800020008000400080006000800080008000A0008000C0008000E00080200000802020008020400080206000802080008020A0008020C0008020E00080400000804020008040400080406000804080
310
008040A0008040C0008040E00080600000806020008060400080606000806080008060A0008060C0008060E00080800000808020008080400080806000808080008080A0008080C0008080E00080A0000080A0200080A0400080A0600080A0800080A0A00080A0C00080A0E00080C0000080C0200080C0400080C0600080C0
310
800080C0A00080C0C00080C0E00080E0000080E0200080E0400080E0600080E0800080E0A00080E0C00080E0E000C0000000C0002000C0004000C0006000C0008000C000A000C000C000C000E000C0200000C0202000C0204000C0206000C0208000C020A000C020C000C020E000C0400000C0402000C0404000C0406000C0
310
408000C040A000C040C000C040E000C0600000C0602000C0604000C0606000C0608000C060A000C060C000C060E000C0800000C0802000C0804000C0806000C0808000C080A000C080C000C080E000C0A00000C0A02000C0A04000C0A06000C0A08000C0A0A000C0A0C000C0A0E000C0C00000C0C02000C0C04000C0C06000
310
C0C08000C0C0A000F0FBFF00A4A0A000808080000000FF0000FF000000FFFF00FF000000FF00FF00FFFF0000FFFFFF00A4A4A4A4A4A4A4A4A4A4A4A4A4A4A4A4A4A4A4A4A4A4A4A4A4A4A4A4A4A4A4A4A4A4A4A4A4A4A4A4A4A4A4A4A4A4A4A4A4A4A4A4A4A4A4A4A4A4A4A4A4A4A4A4A4A4A4A4A4A4A4A4A4A4A4A4A4A4A4
310
A4A4A4A4A4A4A4A4A4A4A4A4A4A4A4A4A4A4A4A4A4A4A4A4A4A4A4A4A4A4A4A4A4A4A4A4A4A4A4A4A4A4A4A4A4A4A4A4A4A4A4A4A4A4A4A4A4A4A4A4A4A4A4A4A4A4A4A4A4A4A4A4A4A4A4A4A4A4A4A4A4A4A4A4A4A4A4A4A4A4A4A4A4A4A4A4A4A4A4A4A4A4A4A4A4A4A4A4A4A4A4A4A4A4A4A4A4A4A4A4A4A4A4A4A4A4A4
310
A4A4A4A4A4A4A4A4A4A4A4A4A4A4A4A4A4A4A4A4A4A4A4A4A4A4A4A4A4A4A4A4A4A4A4A4A4A4A4A4A4A4A4A4A4A4A4A4A4A4A4A4A4A4A4A4A4A4A4A4A4A4A4A4A4A4A4A4A4A4A4A4A4A4A4A4A4A4A4A4A4A4A4A4A4A4A4A4A4A4A4A4A4A4A4A4A4A4A4A4A4A4A4A4A4A4A4A4A4A4A4A4A4A4A4A4A4A4A4A4A4A4A4A4A4A4A4
310
A4A4A4A4A4A4A4A4A4A4A4A4A4A4A4A4A4A4A4A4A4A4A4A4A4A4A4A4A4A4A4A4A4A4A4A4A4A4A4A4A4A4A4A4A4A4A4A4A4A4A4A4A4A4A4A4A4A4A4A4A4A4A4A4A4A4A4A4A4A4A4A4A4A4A4A4A4A4A4A4A4A4A4A4A4A4A4A4A4A4A4A4A4A4A4A4A4A4A4A4A4A4A4A4A4A4A4A4A4A4A4A4A4A4A4A4F9F9F9F9F9F9F9F9F9F9F9
310
F9F9F9F9F9F9F9F9F9F9F9F9F9F9F9F9F9F9F9A4A4F9F9F9F9F9F9F9F9F9F9F9F9F9F9F9F9F9F9F9F9F9F9F9F9F9F9F9F9F9F9A4A4F9F9F9F9F9F9F9F9F9F9F9F9F9F9F9F9F9F9F9F9F9F9F9F9F9F9F9F9F9F9A4A4F9A4A4A4A4A4A4A4A4A4A4A4A4A4A4A4A4A4A4A4A4A4A4A4A4A4A4A4A4F9A4A4A4A4A4A4A4A4A4A4A4A4
310
A4A4A4A4A4A4A4A4A4A4A4A4A4A4A4A4A4A4A4A4A4A4A4A4A4A4A4A4A4A4A4A4A4A4A4A4A4A4A4A4A4A4A4A4A4A4A4A4A4A4A4A4A4A4A4A4A4A4A4A4A4A4A4A4A4A4A4A4A4A4A4A4A4A4A4A4A4A4A4A4A4A4A4A4A4A4A4A4A4A4A4A4A4A4A4A4A4A4A4A4A4A4A4A4A4A4A4A4A4A4A4A4A4A4A4A4A4A4A4A4A4A4A4A4A4A4A4
310
A4A4A4A4A4A4A4A4A4A4A4A4A4A4A4A4A4A4A4A4A4A4A4A4A4A4A4A4A4A4A4A4A4A4A4A4A4A4A4A4A4A4A4A4A4A4A4A4A4A4A4A4A4A4A4A4A4A4A4A4A4A4A4A4A4A4A4A4A4A4A4A4A4A4A4A4A4A4A4A4A4A4A4A4A4A4A4A4A4A4A4A4A4A4A4A4A4A4A4A4A4A4A4A4A4A4A4A4A4A4A4A4A4A4A4A4A4A4A4A4A4A4A4A4A4A4A4
310
A4A4A4A4A4A4A4A4A4A4A4A4A4A4A4A4A4A4A4A4A4A4A4A4A4A4A4A4A4A4A4A4A4A4A4A4A4A4A4A4A4A4A4A4A4A4A4A4A4A4A4A4A4A4A4A4A4A4A4A4A4A4A4A4A4A4A4A4A4A4A4A4A4A4A4A4A4A4A4A4A4A4A4A4A4A4A4A4A4A4A4A4A4A4A4A4A4A4A4A4A4A4A4A4A4A4A4A4A4A4A4A4A4A4A4A4A4A4A4A4A4A4A4A4A4A4A4
310
A4A4A4A4A4A4A4A4A4A4A4A4A4A4A4A4A4A4A4A4A4A4A4A4A4A4A4A4A4A4A4A4A4A4A4A4A4A4A4A4A4A4A4A4A4A4A4A4A4A4A4A4A4A4A4A4
1001
ACAD
1000
DesignCenter Data
1002
{
1070
     1
1070
     4
1002
}
  0
BLOCK_RECORD
  5
AA8
330
1
100
AcDbSymbolTableRecord
100
AcDbBlockTableRecord
  2
_CLOSED
340
0
  0
ENDTAB
  0
ENDSEC
  0
SECTION
  2
BLOCKS
  0
BLOCK
  5
20
330
1F
100
AcDbEntity
  8
0
100
AcDbBlockBegin
  2
*Model_Space
 70
     0
 10
0.0
 20
0.0
 30
0.0
  3
*Model_Space
  1

  0
ENDBLK
  5
21
330
1F
100
AcDbEntity
  8
0
100
AcDbBlockEnd
  0
BLOCK
  5
1C
330
1B
100
AcDbEntity
 67
     1
  8
0
100
AcDbBlockBegin
  2
*Paper_Space
 70
     0
 10
0.0
 20
0.0
 30
0.0
  3
*Paper_Space
  1

  0
ENDBLK
  5
1D
330
1B
100
AcDbEntity
 67
     1
  8
0
100
AcDbBlockEnd
  0
BLOCK
  5
24
330
23
100
AcDbEntity
 67
     1
  8
0
100
AcDbBlockBegin
  2
*Paper_Space0
 70
     0
 10
0.0
 20
0.0
 30
0.0
  3
*Paper_Space0
  1

  0
ENDBLK
  5
25
330
23
100
AcDbEntity
 67
     1
  8
0
100
AcDbBlockEnd
  0
BLOCK
  5
91B
330
919
100
AcDbEntity
  8
0
100
AcDbBlockBegin
  2
_DotSmall
 70
     0
 10
0.0
 20
0.0
 30
0.0
  3
_DotSmall
  1

  0
LWPOLYLINE
  5
91A
330
919
100
AcDbEntity
  8
0
  6
ByBlock
 62
     0
100
AcDbPolyline
 90
        2
 70
     1
 43
0.5
 10
-0.0625
 20
0.0
 42
1.0
 10
0.0625
 20
0.0
 42
1.0
  0
ENDBLK
  5
91C
330
919
100
AcDbEntity
  8
0
100
AcDbBlockEnd
  0
BLOCK
  5
92A
330
922
100
AcDbEntity
  8
0
100
AcDbBlockBegin
  2
base para cotas
 70
     0
 10
0.0
 20
0.0
 30
0.0
  3
base para cotas
  1

  0
LINE
  5
B36
330
922
100
AcDbEntity
  8
cotas
100
AcDbLine
 10
0.0
 20
-30.0
 30
0.0
 11
327.1260136525398
 21
-30.0
 31
0.0
  0
LINE
  5
B37
330
922
100
AcDbEntity
  8
cotas
100
AcDbLine
 10
0.0
 20
-25.0
 30
0.0
 11
327.1260136525398
 21
-25.0
 31
0.0
  0
LINE
  5
B38
330
922
100
AcDbEntity
  8
cotas
100
AcDbLine
 10
0.0
 20
-20.0
 30
0.0
 11
327.1260136525398
 21
-20.0
 31
0.0
  0
LINE
  5
B39
330
922
100
AcDbEntity
  8
cotas
100
AcDbLine
 10
0.0
 20
-15.0
 30
0.0
 11
327.1260136525398
 21
-15.0
 31
0.0
  0
LINE
  5
B3A
330
922
100
AcDbEntity
  8
cotas
100
AcDbLine
 10
0.0
 20
-10.0
 30
0.0
 11
327.1260136525398
 21
-10.0
 31
0.0
  0
LINE
  5
B3B
330
922
100
AcDbEntity
  8
cotas
100
AcDbLine
 10
0.0
 20
0.0
 30
0.0
 11
0.0
 21
-30.0
 31
0.0
  0
LINE
  5
B3C
330
922
100
AcDbEntity
  8
cotas
100
AcDbLine
 10
327.1260136525398
 20
-30.0
 30
0.0
 11
327.1260136525398
 21
0.0
 31
0.0
  0
ENDBLK
  5
92B
330
922
100
AcDbEntity
  8
0
100
AcDbBlockEnd
  0
BLOCK
  5
AAD
330
AA8
100
AcDbEntity
  8
0
100
AcDbBlockBegin
  2
_CLOSED
 70
     0
 10
0.0
 20
0.0
 30
0.0
  3
_CLOSED
  1

  0
LINE
  5
AA9
330
AA8
100
AcDbEntity
  8
0
100
AcDbLine
 10
-1.0
 20
0.166667
 30
0.0
 11
0.0
 21
0.0
 31
0.0
  0
LINE
  5
AAA
330
AA8
100
AcDbEntity
  8
0
100
AcDbLine
 10
0.0
 20
0.0
 30
0.0
 11
-1.0
 21
-0.166667
 31
0.0
  0
LINE
  5
AAB
330
AA8
100
AcDbEntity
  8
0
100
AcDbLine
 10
-1.0
 20
0.166667
 30
0.0
 11
-1.0
 21
-0.166667
 31
0.0
  0
LINE
  5
AAC
330
AA8
100
AcDbEntity
  8
0
100
AcDbLine
 10
0.0
 20
0.0
 30
0.0
 11
-1.0
 21
0.0
 31
0.0
  0
ENDBLK
  5
AAE
330
AA8
100
AcDbEntity
  8
0
100
AcDbBlockEnd
  0
ENDSEC
  0
SECTION
  2
ENTITIES
  0
ARC
  5
13A1
330
1F
100
AcDbEntity
  8
SANINDUSA
100
AcDbCircle
 10
1270.64122544046
 20
1712.546896709184
 30
0.0
 40
0.0050000000000001
100
AcDbArc
 50
0.9999999969218754
 51
90.0
  0
LINE
  5
13A4
330
1F
100
AcDbEntity
  8
SANINDUSA
100
AcDbLine
 10
1269.755241628674
 20
1712.551896709184
 30
0.0
 11
1270.64122544046
 21
1712.551896709184
 31
0.0
  0
LINE
  5
13A7
330
1F
100
AcDbEntity
  8
SANINDUSA
100
AcDbLine
 10
1270.643197862797
 20
1712.431896709184
 30
0.0
 11
1269.753269206338
 21
1712.431896709184
 31
0.0
  0
LINE
  5
13AB
330
1F
100
AcDbEntity
  8
SANINDUSA
100
AcDbLine
 10
1270.646224678936
 20
1712.546983971216
 30
0.0
 11
1270.648198015172
 21
1712.433931613996
 31
0.0
  0
LINE
  5
13AE
330
1F
100
AcDbEntity
  8
SANINDUSA
100
AcDbLine
 10
1269.753269206338
 20
1712.431896709184
 30
0.0
 11
1269.750268749353
 21
1712.431896709184
 31
0.0
  0
ARC
  5
13AF
330
1F
100
AcDbEntity
  8
SANINDUSA
100
AcDbCircle
 10
1269.750268749353
 20
1712.433896709184
 30
0.0
 40
0.002
100
AcDbArc
 50
179.0000000030781
 51
270.0
  0
ARC
  5
13B2
330
1F
100
AcDbEntity
  8
SANINDUSA
100
AcDbCircle
 10
1269.755241628674
 20
1712.546896709184
 30
0.0
 40
0.0050000000000001
100
AcDbArc
 50
90.0
 51
179.0000000030781
  0
LINE
  5
13B3
330
1F
100
AcDbEntity
  8
SANINDUSA
100
AcDbLine
 10
1270.646198319782
 20
1712.431896709184
 30
0.0
 11
1270.643197862797
 21
1712.431896709184
 31
0.0
  0
ARC
  5
13B4
330
1F
100
AcDbEntity
  8
SANINDUSA
100
AcDbCircle
 10
1270.646198319782
 20
1712.433896709184
 30
0.0
 40
0.002
100
AcDbArc
 50
270.0
 51
0.9999999969218754
  0
LINE
  5
13B6
330
1F
100
AcDbEntity
  8
SANINDUSA
100
AcDbLine
 10
1269.748269053963
 20
1712.433931613996
 30
0.0
 11
1269.750242390198
 21
1712.546983971216
 31
0.0
  0
ARC
  5
13BD
330
1F
100
AcDbEntity
  8
SANINDUSA
100
AcDbCircle
 10
1269.948731725486
 20
1712.42356540677
 30
0.0
 40
1.195475440260034
100
AcDbArc
 50
163.4961290442209
 51
196.4934142547499
  0
ARC
  5
13C8
330
1F
100
AcDbEntity
  8
SANINDUSA
100
AcDbCircle
 10
1269.148976055606
 20
1713.512365933285
 30
0.0
 40
1.474520296895477
100
AcDbArc
 50
256.6915488542668
 51
283.2993591299582
  0
LWPOLYLINE
  5
13CE
330
1F
100
AcDbEntity
  8
SANINDUSA
100
AcDbPolyline
 90
        9
 70
   128
 43
0.0
 10
1268.80250922263
 20
1712.763176216689
 10
1268.802954895681
 20
1712.764337201963
 10
1268.803540685661
 20
1712.765436534326
 10
1268.804257469292
 20
1712.766457092431
 10
1268.805094083164
 20
1712.767382981789
 10
1268.806037497592
 20
1712.768199782312
 10
1268.807073019544
 20
1712.768894772892
 10
1268.80818452148
 20
1712.769457129529
 10
1268.809354692522
 20
1712.769878093908
  0
ARC
  5
13D1
330
1F
100
AcDbEntity
  8
SANINDUSA
100
AcDbCircle
 10
1269.198176912991
 20
1711.347542190299
 30
0.0
 40
1.474524378172477
100
AcDbArc
 50
95.28628889398444
 51
105.2893237759039
  0
ARC
  5
13D7
330
1F
100
AcDbEntity
  8
SANINDUSA
100
AcDbCircle
 10
1268.072952839135
 20
1712.472766264155
 30
0.0
 40
1.474524378172477
100
AcDbArc
 50
344.7282429146939
 51
354.7137111060156
  0
LWPOLYLINE
  5
13DA
330
1F
100
AcDbEntity
  8
SANINDUSA
100
AcDbPolyline
 90
        9
 70
   128
 43
0.0
 10
1269.495407887532
 20
1712.084380145566
 10
1269.494958707191
 20
1712.083148029188
 10
1269.494352604314
 20
1712.081982246756
 10
1269.493600087108
 20
1712.080903009824
 10
1269.492714202214
 20
1712.079929029481
 10
1269.49171030851
 20
1712.079077191947
 10
1269.490605810833
 20
1712.078362265809
 10
1269.489419858227
 20
1712.077796645979
 10
1269.488173011943
 20
1712.077390138796
  0
LWPOLYLINE
  5
13DD
330
1F
100
AcDbEntity
  8
SANINDUSA
100
AcDbPolyline
 90
        9
 70
   128
 43
0.0
 10
1268.809551393779
 20
1712.077443982481
 10
1268.808340764079
 20
1712.077836555188
 10
1268.807187668942
 20
1712.078380589591
 10
1268.806111310782
 20
1712.079067025923
 10
1268.805129614116
 20
1712.079884433007
 10
1268.80425892707
 20
1712.080819198621
 10
1268.803513749133
 20
1712.081855756179
 10
1268.802906489703
 20
1712.082976843958
 10
1268.802447261428
 20
1712.084163792564
  0
ARC
  5
13ED
330
1F
100
AcDbEntity
  8
SANINDUSA
100
AcDbCircle
 10
1269.102881867356
 20
1712.37747121852
 30
0.0
 40
0.4401961184332442
100
AcDbArc
 50
354.7137111060156
 51
95.28628889398444
  0
LINE
  5
13F4
330
1F
100
AcDbEntity
  8
SANINDUSA
100
AcDbLine
 10
1269.591967961499
 20
1711.975660014562
 30
0.0
 11
1268.705984149713
 21
1711.975660014562
 31
0.0
  0
ARC
  5
13F7
330
1F
100
AcDbEntity
  8
SANINDUSA
100
AcDbCircle
 10
1268.704011359416
 20
1712.868530102961
 30
0.0
 40
0.0049997844438458
100
AcDbArc
 50
90.00625626038001
 51
180.0
  0
LINE
  5
13F9
330
1F
100
AcDbEntity
  8
SANINDUSA
100
AcDbLine
 10
1269.098976055607
 20
1712.873529887375
 30
0.0
 11
1268.704010813478
 21
1712.873529887375
 31
0.0
  0
ARC
  5
13FB
330
1F
100
AcDbEntity
  8
SANINDUSA
100
AcDbCircle
 10
1269.098976055607
 20
1712.373565406771
 30
0.0
 40
0.4999644806043685
100
AcDbArc
 50
0.0
 51
90.0
  0
LINE
  5
13FE
330
1F
100
AcDbEntity
  8
SANINDUSA
100
AcDbLine
 10
1268.699011575002
 20
1712.868530648899
 30
0.0
 11
1268.699011575002
 21
1711.980660014562
 31
0.0
  0
LINE
  5
13FF
330
1F
100
AcDbEntity
  8
SANINDUSA
100
AcDbLine
 10
1269.598940536211
 20
1711.980660014562
 30
0.0
 11
1269.598940536211
 21
1712.373565406771
 31
0.0
  0
LINE
  5
1401
330
1F
100
AcDbEntity
  8
SANINDUSA
100
AcDbLine
 10
1268.705984149713
 20
1711.975660014562
 30
0.0
 11
1268.704011727377
 21
1711.975660014562
 31
0.0
  0
ARC
  5
1402
330
1F
100
AcDbEntity
  8
SANINDUSA
100
AcDbCircle
 10
1268.70401165119
 20
1711.98066009075
 30
0.0
 40
0.0050000761889635
100
AcDbArc
 50
180.0
 51
270.0008730153405
  0
ARC
  5
1403
330
1F
100
AcDbEntity
  8
SANINDUSA
100
AcDbCircle
 10
1269.593940460023
 20
1711.98066009075
 30
0.0
 40
0.0050000761889449
100
AcDbArc
 50
269.9991269846595
 51
0.0
  0
LINE
  5
1404
330
1F
100
AcDbEntity
  8
SANINDUSA
100
AcDbLine
 10
1269.593940383837
 20
1711.975660014562
 30
0.0
 11
1269.591967961499
 21
1711.975660014562
 31
0.0
  0
ARC
  5
141B
330
1F
100
AcDbEntity
  8
SANINDUSA
100
AcDbCircle
 10
1269.043098119811
 20
1712.140244639151
 30
0.0
 40
0.0168310257322757
100
AcDbArc
 50
150.1681713193217
 51
263.2508252809347
  0
ARC
  5
141F
330
1F
100
AcDbEntity
  8
SANINDUSA
100
AcDbCircle
 10
1268.870080514793
 20
1712.315426361708
 30
0.0
 40
0.0168310515302646
100
AcDbArc
 50
186.0370019241256
 51
299.1194382048899
  0
ARC
  5
1423
330
1F
100
AcDbEntity
  8
SANINDUSA
100
AcDbCircle
 10
1269.032220946336
 20
1712.134771569181
 30
0.0
 40
0.0168310257322736
100
AcDbArc
 50
330.1681713193217
 51
83.25082528093465
  0
ARC
  5
1427
330
1F
100
AcDbEntity
  8
SANINDUSA
100
AcDbCircle
 10
1268.864472615765
 20
1712.304617989893
 30
0.0
 40
0.0168310515302644
100
AcDbArc
 50
6.037001924125611
 51
119.1194382048899
  0
ARC
  5
142B
330
1F
100
AcDbEntity
  8
SANINDUSA
100
AcDbCircle
 10
1269.017862186772
 20
1712.183437144777
 30
0.0
 40
0.0168311113014267
100
AcDbArc
 50
157.3421723298115
 51
270.4243495874109
  0
ARC
  5
142F
330
1F
100
AcDbEntity
  8
SANINDUSA
100
AcDbCircle
 10
1268.912956016068
 20
1712.289655492034
 30
0.0
 40
0.0168311274534931
100
AcDbArc
 50
178.863440181907
 51
291.9454811501643
  0
ARC
  5
1433
330
1F
100
AcDbEntity
  8
SANINDUSA
100
AcDbCircle
 10
1268.987429884243
 20
1712.223140157654
 30
0.0
 40
0.0168311583013478
100
AcDbArc
 50
164.5160442226218
 51
277.5979515132524
  0
ARC
  5
1437
330
1F
100
AcDbEntity
  8
SANINDUSA
100
AcDbCircle
 10
1268.952277697508
 20
1712.258732031709
 30
0.0
 40
0.0168311637997222
100
AcDbArc
 50
171.6897949869903
 51
284.7716558837641
  0
ARC
  5
143B
330
1F
100
AcDbEntity
  8
SANINDUSA
100
AcDbCircle
 10
1269.007753413715
 20
1712.176648506412
 30
0.0
 40
0.0168311113014262
100
AcDbArc
 50
337.3421723298115
 51
90.42434958741095
  0
ARC
  5
143F
330
1F
100
AcDbEntity
  8
SANINDUSA
100
AcDbCircle
 10
1268.906042212176
 20
1712.279631845318
 30
0.0
 40
0.0168311274534921
100
AcDbArc
 50
358.863440181907
 51
111.9454811501642
  0
ARC
  5
1445
330
1F
100
AcDbEntity
  8
SANINDUSA
100
AcDbCircle
 10
1268.978247863458
 20
1712.21514225397
 30
0.0
 40
0.0168311583013467
100
AcDbArc
 50
344.5160442226218
 51
97.59795151325235
  0
ARC
  5
144B
330
1F
100
AcDbEntity
  8
SANINDUSA
100
AcDbCircle
 10
1268.944166260411
 20
1712.249650127118
 30
0.0
 40
0.0168311637997234
100
AcDbArc
 50
351.6897949869904
 51
104.771655883764
  0
ARC
  5
1456
330
1F
100
AcDbEntity
  8
SANINDUSA
100
AcDbCircle
 10
1269.033446601819
 20
1712.145880891615
 30
0.0
 40
0.0056553379841817
100
AcDbArc
 50
82.35477823053301
 51
151.0616178991197
  0
ARC
  5
1457
330
1F
100
AcDbEntity
  8
SANINDUSA
100
AcDbCircle
 10
1269.041872464328
 20
1712.129135316717
 30
0.0
 40
0.0056553379841895
100
AcDbArc
 50
262.3547782305331
 51
331.0616178991198
  0
ARC
  5
1458
330
1F
100
AcDbEntity
  8
SANINDUSA
100
AcDbCircle
 10
1269.007582254239
 20
1712.18782404749
 30
0.0
 40
0.0056552998146956
100
AcDbArc
 50
89.52884270739629
 51
158.2360281308511
  0
ARC
  5
1459
330
1F
100
AcDbEntity
  8
SANINDUSA
100
AcDbCircle
 10
1269.018033346248
 20
1712.172261603699
 30
0.0
 40
0.0056552998146717
100
AcDbArc
 50
269.5288427073963
 51
338.2360281308511
  0
ARC
  5
145A
330
1F
100
AcDbEntity
  8
SANINDUSA
100
AcDbCircle
 10
1268.976682531335
 20
1712.226209017917
 30
0.0
 40
0.0056552777417832
100
AcDbArc
 50
96.70300133743458
 51
165.4103956969807
  0
ARC
  5
145B
330
1F
100
AcDbEntity
  8
SANINDUSA
100
AcDbCircle
 10
1268.988995216367
 20
1712.212073393707
 30
0.0
 40
0.0056552777418052
100
AcDbArc
 50
276.7030013374346
 51
345.4103956969807
  0
ARC
  5
145C
330
1F
100
AcDbEntity
  8
SANINDUSA
100
AcDbCircle
 10
1268.941231236445
 20
1712.260434808893
 30
0.0
 40
0.0056552731423538
100
AcDbArc
 50
103.8772442484742
 51
172.5846976777884
  0
ARC
  5
145D
330
1F
100
AcDbEntity
  8
SANINDUSA
100
AcDbCircle
 10
1268.955212721473
 20
1712.247947349934
 30
0.0
 40
0.0056552731423557
100
AcDbArc
 50
283.8772442484742
 51
352.5846976777884
  0
ARC
  5
145E
330
1F
100
AcDbEntity
  8
SANINDUSA
100
AcDbCircle
 10
1268.901783436229
 20
1712.289965548541
 30
0.0
 40
0.0056552863032779
100
AcDbArc
 50
111.0515562684133
 51
179.758915215815
  0
ARC
  5
145F
330
1F
100
AcDbEntity
  8
SANINDUSA
100
AcDbCircle
 10
1268.917214792014
 20
1712.279321788811
 30
0.0
 40
0.005655286303289
100
AcDbArc
 50
291.0515562684134
 51
359.758915215815
  0
ARC
  5
1460
330
1F
100
AcDbEntity
  8
SANINDUSA
100
AcDbCircle
 10
1268.858956769418
 20
1712.314338876849
 30
0.0
 40
0.0056553164036187
100
AcDbArc
 50
118.2259179286552
 51
186.9330347675773
  0
ARC
  5
1461
330
1F
100
AcDbEntity
  8
SANINDUSA
100
AcDbCircle
 10
1268.87559636114
 20
1712.305705474753
 30
0.0
 40
0.0056553164036215
100
AcDbArc
 50
298.2259179286552
 51
6.933034767577279
  0
ARC
  5
1462
330
1F
100
AcDbEntity
  8
SANINDUSA
100
AcDbCircle
 10
1269.142988127381
 20
1712.153805100759
 30
0.0
 40
0.0168308432270723
100
AcDbArc
 50
319.7001957252937
 51
72.78385193449651
  0
ARC
  5
1463
330
1F
100
AcDbEntity
  8
SANINDUSA
100
AcDbCircle
 10
1269.14621146073
 20
1712.164506669784
 30
0.0
 40
0.0056554174233094
100
AcDbArc
 50
71.88711540596078
 51
140.5932514853422
  0
ARC
  5
1464
330
1F
100
AcDbEntity
  8
SANINDUSA
100
AcDbCircle
 10
1269.154678140928
 20
1712.157210876962
 30
0.0
 40
0.0168308432270695
100
AcDbArc
 50
139.7001957252937
 51
252.7838519344965
  0
ARC
  5
1465
330
1F
100
AcDbEntity
  8
SANINDUSA
100
AcDbCircle
 10
1269.151454807579
 20
1712.146509307937
 30
0.0
 40
0.005655417423325
100
AcDbArc
 50
251.8871154059608
 51
320.5932514853423
  0
ARC
  5
1466
330
1F
100
AcDbEntity
  8
SANINDUSA
100
AcDbCircle
 10
1269.114074504415
 20
1712.225503423945
 30
0.0
 40
0.0168310394997156
100
AcDbArc
 50
331.1464346050395
 51
84.22901234584834
  0
ARC
  5
1467
330
1F
100
AcDbEntity
  8
SANINDUSA
100
AcDbCircle
 10
1269.115110334735
 20
1712.236632070388
 30
0.0
 40
0.0056553319089413
100
AcDbArc
 50
83.3330367221796
 51
152.0399308916494
  0
ARC
  5
1468
330
1F
100
AcDbEntity
  8
SANINDUSA
100
AcDbCircle
 10
1269.124856689306
 20
1712.231161406806
 30
0.0
 40
0.0168310394997187
100
AcDbArc
 50
151.1464346050394
 51
264.2290123458483
  0
ARC
  5
1469
330
1F
100
AcDbEntity
  8
SANINDUSA
100
AcDbCircle
 10
1269.123820858986
 20
1712.220032760363
 30
0.0
 40
0.0056553319089521
100
AcDbArc
 50
263.3330367221796
 51
332.0399308916494
  0
ARC
  5
146A
330
1F
100
AcDbEntity
  8
SANINDUSA
100
AcDbCircle
 10
1269.071508100388
 20
1712.290038666761
 30
0.0
 40
0.0168311496943429
100
AcDbArc
 50
342.5923463745188
 51
95.6743045825288
  0
ARC
  5
146B
330
1F
100
AcDbEntity
  8
SANINDUSA
100
AcDbCircle
 10
1269.070315122396
 20
1712.301151724529
 30
0.0
 40
0.0056552819841991
100
AcDbArc
 50
94.77920547569182
 51
163.4865581282148
  0
ARC
  5
146C
330
1F
100
AcDbEntity
  8
SANINDUSA
100
AcDbCircle
 10
1269.080953392722
 20
1712.297723837735
 30
0.0
 40
0.0168311496943456
100
AcDbArc
 50
162.5923463745188
 51
275.6743045825288
  0
ARC
  5
146D
330
1F
100
AcDbEntity
  8
SANINDUSA
100
AcDbCircle
 10
1269.082146370714
 20
1712.286610779967
 30
0.0
 40
0.0056552819841829
100
AcDbArc
 50
274.7792054756918
 51
343.4865581282148
  0
ARC
  5
146E
330
1F
100
AcDbEntity
  8
SANINDUSA
100
AcDbCircle
 10
1269.016982014034
 20
1712.344843955072
 30
0.0
 40
0.0168311564513916
100
AcDbArc
 50
354.0379449664081
 51
107.1198401353745
  0
ARC
  5
146F
330
1F
100
AcDbEntity
  8
SANINDUSA
100
AcDbCircle
 10
1269.013607602459
 20
1712.355499322139
 30
0.0
 40
0.0056552755126361
100
AcDbArc
 50
106.2255950936054
 51
174.9330344086842
  0
ARC
  5
1470
330
1F
100
AcDbEntity
  8
SANINDUSA
100
AcDbCircle
 10
1269.024714541989
 20
1712.354250547185
 30
0.0
 40
0.0168311564513893
100
AcDbArc
 50
174.0379449664081
 51
287.1198401353745
  0
ARC
  5
1471
330
1F
100
AcDbEntity
  8
SANINDUSA
100
AcDbCircle
 10
1269.028088953564
 20
1712.343595180118
 30
0.0
 40
0.0056552755126411
100
AcDbArc
 50
286.2255950936054
 51
354.9330344086842
  0
ARC
  5
1472
330
1F
100
AcDbEntity
  8
SANINDUSA
100
AcDbCircle
 10
1268.952665017155
 20
1712.387739415446
 30
0.0
 40
0.0168310587063049
100
AcDbArc
 50
5.483293578812273
 51
118.5656921577512
  0
ARC
  5
1473
330
1F
100
AcDbEntity
  8
SANINDUSA
100
AcDbCircle
 10
1268.947243369132
 20
1712.397513164126
 30
0.0
 40
0.0056553135136542
100
AcDbArc
 50
117.6721441928365
 51
186.3792846920717
  0
ARC
  5
1474
330
1F
100
AcDbEntity
  8
SANINDUSA
100
AcDbCircle
 10
1268.958377113953
 20
1712.398493104726
 30
0.0
 40
0.0168310587063056
100
AcDbArc
 50
185.4832935788123
 51
298.5656921577513
  0
ARC
  5
1475
330
1F
100
AcDbEntity
  8
SANINDUSA
100
AcDbCircle
 10
1268.963798761976
 20
1712.388719356046
 30
0.0
 40
0.0056553135136387
100
AcDbArc
 50
297.6721441928366
 51
6.379284692071752
  0
ARC
  5
1476
330
1F
100
AcDbEntity
  8
SANINDUSA
100
AcDbCircle
 10
1268.881115304006
 20
1712.417018866013
 30
0.0
 40
0.0168308718573358
100
AcDbArc
 50
16.92849483223406
 51
130.0118839645751
  0
ARC
  5
1477
330
1F
100
AcDbEntity
  8
SANINDUSA
100
AcDbCircle
 10
1268.873862109074
 20
1712.42552214101
 30
0.0
 40
0.0056553900016771
100
AcDbArc
 50
129.1187662805538
 51
197.8252695564938
  0
ARC
  5
1478
330
1F
100
AcDbEntity
  8
SANINDUSA
100
AcDbCircle
 10
1268.884579780543
 20
1712.42869171992
 30
0.0
 40
0.0168308718573362
100
AcDbArc
 50
196.928494832234
 51
310.0118839645751
  0
ARC
  5
1479
330
1F
100
AcDbEntity
  8
SANINDUSA
100
AcDbCircle
 10
1268.891832975475
 20
1712.420188444923
 30
0.0
 40
0.0056553900016974
100
AcDbArc
 50
309.1187662805538
 51
17.82526955649386
  0
ARC
  5
147A
330
1F
100
AcDbEntity
  8
SANINDUSA
100
AcDbCircle
 10
1269.241903249914
 20
1712.17073848379
 30
0.0
 40
0.016477171258811
100
AcDbArc
 50
306.1386201792563
 51
65.83565066041268
  0
ARC
  5
147B
330
1F
100
AcDbEntity
  8
SANINDUSA
100
AcDbCircle
 10
1269.246272293148
 20
1712.180651074027
 30
0.0
 40
0.0056451338795527
100
AcDbArc
 50
65.10925926309652
 51
130.1960739417382
  0
ARC
  5
147C
330
1F
100
AcDbEntity
  8
SANINDUSA
100
AcDbCircle
 10
1269.253318400147
 20
1712.171935900515
 30
0.0
 40
0.0168514774756255
100
AcDbArc
 50
129.370788445139
 51
242.6034823979783
  0
ARC
  5
147D
330
1F
100
AcDbEntity
  8
SANINDUSA
100
AcDbCircle
 10
1269.248233927889
 20
1712.161951170439
 30
0.0
 40
0.0056475722832781
100
AcDbArc
 50
241.7896377436651
 51
306.845041023784
  0
ARC
  5
147E
330
1F
100
AcDbEntity
  8
SANINDUSA
100
AcDbCircle
 10
1269.216747588812
 20
1712.273212632865
 30
0.0
 40
0.016477481210623
100
AcDbArc
 50
321.7553075364865
 51
81.45041932951111
  0
ARC
  5
147F
330
1F
100
AcDbEntity
  8
SANINDUSA
100
AcDbCircle
 10
1269.218287393359
 20
1712.283935816272
 30
0.0
 40
0.0056449953610637
100
AcDbArc
 50
80.72498539016418
 51
145.8129513991421
  0
ARC
  5
1480
330
1F
100
AcDbEntity
  8
SANINDUSA
100
AcDbCircle
 10
1269.227419872714
 20
1712.277438887192
 30
0.0
 40
0.0168518021183664
100
AcDbArc
 50
144.9874015890259
 51
258.2183252662435
  0
ARC
  5
1481
330
1F
100
AcDbEntity
  8
SANINDUSA
100
AcDbCircle
 10
1269.225210462091
 20
1712.266453637951
 30
0.0
 40
0.0056474265170534
100
AcDbArc
 50
257.4052773242001
 51
322.461883898672
  0
ARC
  5
1482
330
1F
100
AcDbEntity
  8
SANINDUSA
100
AcDbCircle
 10
1269.164935990993
 20
1712.36513365876
 30
0.0
 40
0.0164776768087943
100
AcDbArc
 50
337.3714525112177
 51
97.06526946724224
  0
ARC
  5
1483
330
1F
100
AcDbEntity
  8
SANINDUSA
100
AcDbCircle
 10
1269.163532707697
 20
1712.375875838263
 30
0.0
 40
0.0056449131883789
100
AcDbArc
 50
96.34114748445064
 51
161.4298278968515
  0
ARC
  5
1484
330
1F
100
AcDbEntity
  8
SANINDUSA
100
AcDbCircle
 10
1269.174077220706
 20
1712.372076925922
 30
0.0
 40
0.0168519957889039
100
AcDbArc
 50
160.6034369758723
 51
273.8332849925598
  0
ARC
  5
1485
330
1F
100
AcDbEntity
  8
SANINDUSA
100
AcDbCircle
 10
1269.174906176873
 20
1712.36090211106
 30
0.0
 40
0.0056473296036557
100
AcDbArc
 50
273.0213463973561
 51
338.0787826586452
  0
ARC
  5
1486
330
1F
100
AcDbEntity
  8
SANINDUSA
100
AcDbCircle
 10
1269.090293479285
 20
1712.439715616411
 30
0.0
 40
0.016477701354319
100
AcDbArc
 50
352.9870130706236
 51
112.6805343601125
  0
ARC
  5
1487
330
1F
100
AcDbEntity
  8
SANINDUSA
100
AcDbCircle
 10
1269.086050555831
 20
1712.449683652711
 30
0.0
 40
0.005644911177869
100
AcDbArc
 50
111.9576985911343
 51
177.046449330821
  0
ARC
  5
1488
330
1F
100
AcDbEntity
  8
SANINDUSA
100
AcDbCircle
 10
1269.097228463035
 20
1712.448863208659
 30
0.0
 40
0.0168520023472045
100
AcDbArc
 50
176.2188843429498
 51
289.4486630799071
  0
ARC
  5
1489
330
1F
100
AcDbEntity
  8
SANINDUSA
100
AcDbCircle
 10
1269.101034746423
 20
1712.43832392951
 30
0.0
 40
0.0056473096321909
100
AcDbArc
 50
288.6378249449392
 51
353.6954767650432
  0
ARC
  5
148A
330
1F
100
AcDbEntity
  8
SANINDUSA
100
AcDbCircle
 10
1268.998330464037
 20
1712.491452594459
 30
0.0
 40
0.0164775477312595
100
AcDbArc
 50
8.60211659517243
 51
128.2964270439366
  0
ARC
  5
148B
330
1F
100
AcDbEntity
  8
SANINDUSA
100
AcDbCircle
 10
1268.991561102663
 20
1712.499910420618
 30
0.0
 40
0.0056449899123222
100
AcDbArc
 50
127.5744789475776
 51
192.6626355834059
  0
ARC
  5
148C
330
1F
100
AcDbEntity
  8
SANINDUSA
100
AcDbCircle
 10
1269.002547066712
 20
1712.50212887359
 30
0.0
 40
0.0168518198919979
100
AcDbArc
 50
191.8339038841056
 51
305.0646397575793
  0
ARC
  5
148D
330
1F
100
AcDbEntity
  8
SANINDUSA
100
AcDbCircle
 10
1269.009049699256
 20
1712.49300339076
 30
0.0
 40
0.0056473723908262
100
AcDbArc
 50
304.2545742783267
 51
9.311765037914806
  0
ARC
  5
148E
330
1F
100
AcDbEntity
  8
SANINDUSA
100
AcDbCircle
 10
1268.895835988879
 20
1712.516525119283
 30
0.0
 40
0.0164772604708248
100
AcDbArc
 50
24.21702292157724
 51
143.9129786411158
  0
ARC
  5
148F
330
1F
100
AcDbEntity
  8
SANINDUSA
100
AcDbCircle
 10
1268.887040044507
 20
1712.522848191785
 30
0.0
 40
0.0056451265716821
100
AcDbArc
 50
143.1912623658764
 51
208.2783326851362
  0
ARC
  5
1490
330
1F
100
AcDbEntity
  8
SANINDUSA
100
AcDbCircle
 10
1268.897023040983
 20
1712.527941575457
 30
0.0
 40
0.0168515013122389
100
AcDbArc
 50
207.4487797385062
 51
320.6812218286294
  0
ARC
  5
1491
330
1F
100
AcDbEntity
  8
SANINDUSA
100
AcDbCircle
 10
1268.905741835892
 20
1712.520903729162
 30
0.0
 40
0.0056474996900524
100
AcDbArc
 50
319.8713771654304
 51
24.92756388973826
  0
ARC
  5
1492
330
1F
100
AcDbEntity
  8
SANINDUSA
100
AcDbCircle
 10
1269.327101059162
 20
1712.186162341314
 30
0.0
 40
0.0168303792006005
100
AcDbArc
 50
299.1733427627385
 51
52.25951495297344
  0
ARC
  5
1493
330
1F
100
AcDbEntity
  8
SANINDUSA
100
AcDbCircle
 10
1269.333871349202
 20
1712.195054016122
 30
0.0
 40
0.0056556149970401
100
AcDbArc
 50
51.36206006304564
 51
120.0664829746057
  0
ARC
  5
1494
330
1F
100
AcDbEntity
  8
SANINDUSA
100
AcDbCircle
 10
1269.339241887142
 20
1712.185253209708
 30
0.0
 40
0.0168303792005991
100
AcDbArc
 50
119.1733427627385
 51
232.2595149529735
  0
ARC
  5
1495
330
1F
100
AcDbEntity
  8
SANINDUSA
100
AcDbCircle
 10
1269.332471597102
 20
1712.1763615349
 30
0.0
 40
0.0056556149970783
100
AcDbArc
 50
231.3620600630456
 51
300.0664829746057
  0
ARC
  5
1496
330
1F
100
AcDbEntity
  8
SANINDUSA
100
AcDbCircle
 10
1269.314034642042
 20
1712.318873127773
 30
0.0
 40
0.0168308287008457
100
AcDbArc
 50
318.9824169815339
 51
72.06615252984632
  0
ARC
  5
1497
330
1F
100
AcDbEntity
  8
SANINDUSA
100
AcDbCircle
 10
1269.317391758871
 20
1712.329533463675
 30
0.0
 40
0.0056554236868897
100
AcDbArc
 50
71.16937505081629
 51
139.8754561523313
  0
ARC
  5
1498
330
1F
100
AcDbEntity
  8
SANINDUSA
100
AcDbCircle
 10
1269.325766363599
 20
1712.322132193744
 30
0.0
 40
0.0168308287008462
100
AcDbArc
 50
138.9824169815339
 51
252.0661525298463
  0
ARC
  5
1499
330
1F
100
AcDbEntity
  8
SANINDUSA
100
AcDbCircle
 10
1269.32240924677
 20
1712.311471857842
 30
0.0
 40
0.0056554236868549
100
AcDbArc
 50
251.1693750508163
 51
319.8754561523313
  0
ARC
  5
149A
330
1F
100
AcDbEntity
  8
SANINDUSA
100
AcDbCircle
 10
1269.256770065563
 20
1712.439305812333
 30
0.0
 40
0.0168311240299547
100
AcDbArc
 50
338.7906587113793
 51
91.87276407045777
  0
ARC
  5
149B
330
1F
100
AcDbEntity
  8
SANINDUSA
100
AcDbCircle
 10
1269.256316488195
 20
1712.450473475031
 30
0.0
 40
0.005655294001277
100
AcDbArc
 50
90.97736937222675
 51
159.6846085684999
  0
ARC
  5
149C
330
1F
100
AcDbEntity
  8
SANINDUSA
100
AcDbCircle
 10
1269.266704042779
 20
1712.446347816614
 30
0.0
 40
0.0168311240299539
100
AcDbArc
 50
158.7906587113792
 51
271.8727640704578
  0
ARC
  5
149D
330
1F
100
AcDbEntity
  8
SANINDUSA
100
AcDbCircle
 10
1269.267157620148
 20
1712.435180153917
 30
0.0
 40
0.0056552940012809
100
AcDbArc
 50
270.9773693722267
 51
339.6846085685
  0
ARC
  5
149E
330
1F
100
AcDbEntity
  8
SANINDUSA
100
AcDbCircle
 10
1269.162083698444
 20
1712.533209489223
 30
0.0
 40
0.0168311295255489
100
AcDbArc
 50
358.5979569411774
 51
111.6799872961775
  0
ARC
  5
149F
330
1F
100
AcDbEntity
  8
SANINDUSA
100
AcDbCircle
 10
1269.157872849168
 20
1712.543562817589
 30
0.0
 40
0.0056552855059781
100
AcDbArc
 50
110.7860456891268
 51
179.4934108399245
  0
ARC
  5
14A0
330
1F
100
AcDbEntity
  8
SANINDUSA
100
AcDbCircle
 10
1269.169043875298
 20
1712.543200997843
 30
0.0
 40
0.0168311295255511
100
AcDbArc
 50
178.5979569411773
 51
291.6799872961775
  0
ARC
  5
14A1
330
1F
100
AcDbEntity
  8
SANINDUSA
100
AcDbCircle
 10
1269.173254724574
 20
1712.532847669477
 30
0.0
 40
0.0056552855060261
100
AcDbArc
 50
290.7860456891268
 51
359.4934108399246
  0
ARC
  5
14A2
330
1F
100
AcDbEntity
  8
SANINDUSA
100
AcDbCircle
 10
1269.04117988061
 20
1712.589472446868
 30
0.0
 40
0.0168308426628004
100
AcDbArc
 50
18.40463400515281
 51
131.4881789958602
  0
ARC
  5
14A3
330
1F
100
AcDbEntity
  8
SANINDUSA
100
AcDbCircle
 10
1269.033710049927
 20
1712.597786003708
 30
0.0
 40
0.0056554021029037
100
AcDbArc
 50
130.5950933326553
 51
199.3014944506711
  0
ARC
  5
14A4
330
1F
100
AcDbEntity
  8
SANINDUSA
100
AcDbCircle
 10
1269.044342477925
 20
1712.601230603618
 30
0.0
 40
0.0168308426628028
100
AcDbArc
 50
198.4046340051528
 51
311.4881789958602
  0
ARC
  5
14A5
330
1F
100
AcDbEntity
  8
SANINDUSA
100
AcDbCircle
 10
1269.051812308608
 20
1712.592917046778
 30
0.0
 40
0.0056554021028559
100
AcDbArc
 50
310.5950933326554
 51
19.30149445067114
  0
ARC
  5
14A6
330
1F
100
AcDbEntity
  8
SANINDUSA
100
AcDbCircle
 10
1268.908365264883
 20
1712.601436855165
 30
0.0
 40
0.0168303952150481
100
AcDbArc
 50
38.21129752553854
 51
151.2972511421363
  0
ARC
  5
14A7
330
1F
100
AcDbEntity
  8
SANINDUSA
100
AcDbCircle
 10
1268.898520639629
 20
1712.606726727855
 30
0.0
 40
0.0056555902380611
100
AcDbArc
 50
150.4040310368571
 51
219.1088210241197
  0
ARC
  5
14A8
330
1F
100
AcDbEntity
  8
SANINDUSA
100
AcDbCircle
 10
1268.907356417921
 20
1712.613569873686
 30
0.0
 40
0.0168303952150481
100
AcDbArc
 50
218.2112975255385
 51
331.2972511421363
  0
ARC
  5
14A9
330
1F
100
AcDbEntity
  8
SANINDUSA
100
AcDbCircle
 10
1268.917201043174
 20
1712.608280000996
 30
0.0
 40
0.0056555902380944
100
AcDbArc
 50
330.4040310368571
 51
39.10882102411962
  0
ARC
  5
14AA
330
1F
100
AcDbEntity
  8
SANINDUSA
100
AcDbCircle
 10
1268.902293013724
 20
1712.560285686711
 30
0.0
 40
0.0168305212037825
100
AcDbArc
 50
32.83847108708624
 51
145.9237433030849
  0
ARC
  5
14AB
330
1F
100
AcDbEntity
  8
SANINDUSA
100
AcDbCircle
 10
1268.892986897609
 20
1712.566474354137
 30
0.0
 40
0.0056555368300055
100
AcDbArc
 50
145.030662846558
 51
213.735913918175
  0
ARC
  5
14AC
330
1F
100
AcDbEntity
  8
SANINDUSA
100
AcDbCircle
 10
1268.902424767384
 20
1712.572460190941
 30
0.0
 40
0.0168305212037831
100
AcDbArc
 50
212.8384710870863
 51
325.9237433030849
  0
ARC
  5
14AD
330
1F
100
AcDbEntity
  8
SANINDUSA
100
AcDbCircle
 10
1268.911730883498
 20
1712.566271523514
 30
0.0
 40
0.0056555368300291
100
AcDbArc
 50
325.030662846558
 51
33.73591391817503
  0
ARC
  5
14AE
330
1F
100
AcDbEntity
  8
SANINDUSA
100
AcDbCircle
 10
1269.01991040233
 20
1712.540666734654
 30
0.0
 40
0.0168309058059184
100
AcDbArc
 50
15.1437182838718
 51
128.2269264376761
  0
ARC
  5
14AF
330
1F
100
AcDbEntity
  8
SANINDUSA
100
AcDbCircle
 10
1269.012925556661
 20
1712.549391843721
 30
0.0
 40
0.0056553759683028
100
AcDbArc
 50
127.3337625338693
 51
196.0403839323507
  0
ARC
  5
14B0
330
1F
100
AcDbEntity
  8
SANINDUSA
100
AcDbCircle
 10
1269.023736789095
 20
1712.552226104158
 30
0.0
 40
0.016830905805918
100
AcDbArc
 50
195.1437182838718
 51
308.2269264376761
  0
ARC
  5
14B1
330
1F
100
AcDbEntity
  8
SANINDUSA
100
AcDbCircle
 10
1269.030721634764
 20
1712.543500995092
 30
0.0
 40
0.0056553759683056
100
AcDbArc
 50
307.3337625338693
 51
16.04038393235072
  0
ARC
  5
14B2
330
1F
100
AcDbEntity
  8
SANINDUSA
100
AcDbCircle
 10
1269.126000363387
 20
1712.486224755393
 30
0.0
 40
0.0168311378614393
100
AcDbArc
 50
357.4488671291106
 51
110.5308549927752
  0
ARC
  5
14B3
330
1F
100
AcDbEntity
  8
SANINDUSA
100
AcDbCircle
 10
1269.121997984054
 20
1712.49666045761
 30
0.0
 40
0.005655282325737
100
AcDbArc
 50
109.6368397296727
 51
178.344229321281
  0
ARC
  5
14B4
330
1F
100
AcDbEntity
  8
SANINDUSA
100
AcDbCircle
 10
1269.133159519473
 20
1712.496074694825
 30
0.0
 40
0.0168311378614406
100
AcDbArc
 50
177.4488671291105
 51
290.5308549927752
  0
ARC
  5
14B5
330
1F
100
AcDbEntity
  8
SANINDUSA
100
AcDbCircle
 10
1269.137161898807
 20
1712.485638992608
 30
0.0
 40
0.0056552823257588
100
AcDbArc
 50
289.6368397296727
 51
358.3442293343031
  0
ARC
  5
14B6
330
1F
100
AcDbEntity
  8
SANINDUSA
100
AcDbCircle
 10
1269.210523317265
 20
1712.402111865515
 30
0.0
 40
0.0168311316003489
100
AcDbArc
 50
339.7534930252609
 51
92.83555537144307
  0
ARC
  5
14B7
330
1F
100
AcDbEntity
  8
SANINDUSA
100
AcDbCircle
 10
1269.209882159608
 20
1712.413270341343
 30
0.0
 40
0.0056552905092609
100
AcDbArc
 50
91.94023548448667
 51
160.6475072450361
  0
ARC
  5
14B8
330
1F
100
AcDbEntity
  8
SANINDUSA
100
AcDbCircle
 10
1269.220337582716
 20
1712.409319806462
 30
0.0
 40
0.0168311316003502
100
AcDbArc
 50
159.7534930252609
 51
272.8355553714431
  0
ARC
  5
14B9
330
1F
100
AcDbEntity
  8
SANINDUSA
100
AcDbCircle
 10
1269.220978740373
 20
1712.398161330634
 30
0.0
 40
0.005655290509253
100
AcDbArc
 50
271.9402354844866
 51
340.6475072450362
  0
ARC
  5
14BA
330
1F
100
AcDbEntity
  8
SANINDUSA
100
AcDbCircle
 10
1269.265480606874
 20
1712.296287906981
 30
0.0
 40
0.0168308893370753
100
AcDbArc
 50
322.0573647023263
 51
75.14076872297569
  0
ARC
  5
14BB
330
1F
100
AcDbEntity
  8
SANINDUSA
100
AcDbCircle
 10
1269.268261148871
 20
1712.307113040345
 30
0.0
 40
0.005655397494565
100
AcDbArc
 50
74.24417313520696
 51
142.9504845568276
  0
ARC
  5
14BC
330
1F
100
AcDbEntity
  8
SANINDUSA
100
AcDbCircle
 10
1269.277020780363
 20
1712.300171599435
 30
0.0
 40
0.0168308893370767
100
AcDbArc
 50
142.0573647023263
 51
255.1407687229757
  0
ARC
  5
14BD
330
1F
100
AcDbEntity
  8
SANINDUSA
100
AcDbCircle
 10
1269.274240238366
 20
1712.289346466071
 30
0.0
 40
0.0056553974945806
100
AcDbArc
 50
254.244173135207
 51
322.9504845568276
  0
ARC
  5
14BE
330
1F
100
AcDbEntity
  8
SANINDUSA
100
AcDbCircle
 10
1269.285671336995
 20
1712.17876728815
 30
0.0
 40
0.016830500614536
100
AcDbArc
 50
304.3605295359942
 51
57.44604664893543
  0
ARC
  5
14BF
330
1F
100
AcDbEntity
  8
SANINDUSA
100
AcDbCircle
 10
1269.291610213891
 20
1712.188234722014
 30
0.0
 40
0.0056555637437764
100
AcDbArc
 50
56.54867570420375
 51
125.2535392613911
  0
ARC
  5
14C0
330
1F
100
AcDbEntity
  8
SANINDUSA
100
AcDbCircle
 10
1269.297844955771
 20
1712.178959468375
 30
0.0
 40
0.0168305006145324
100
AcDbArc
 50
124.3605295359941
 51
237.4460466489354
  0
ARC
  5
14C1
330
1F
100
AcDbEntity
  8
SANINDUSA
100
AcDbCircle
 10
1269.291906078875
 20
1712.169492034511
 30
0.0
 40
0.0056555637437706
100
AcDbArc
 50
236.5486757042037
 51
305.2535392613912
  0
ARC
  5
14C2
330
1F
100
AcDbEntity
  8
SANINDUSA
100
AcDbCircle
 10
1268.888713788563
 20
1712.468405228406
 30
0.0
 40
0.0166575086434283
100
AcDbArc
 50
20.57238144719601
 51
136.9976509464117
  0
ARC
  5
14C3
330
1F
100
AcDbEntity
  8
SANINDUSA
100
AcDbCircle
 10
1268.880608281671
 20
1712.475859371911
 30
0.0
 40
0.0056463277058953
100
AcDbArc
 50
136.2185223427823
 51
201.3555433884088
  0
ARC
  5
14C4
330
1F
100
AcDbEntity
  8
SANINDUSA
100
AcDbCircle
 10
1268.890944881562
 20
1712.479656526184
 30
0.0
 40
0.0166575086434259
100
AcDbArc
 50
200.572381447196
 51
316.9976509464117
  0
ARC
  5
14C6
330
1F
100
AcDbEntity
  8
SANINDUSA
100
AcDbCircle
 10
1268.975667009837
 20
1712.440179660813
 30
0.0
 40
0.0166577545576771
100
AcDbArc
 50
7.041379362393275
 51
123.4652525852329
  0
ARC
  5
14C7
330
1F
100
AcDbEntity
  8
SANINDUSA
100
AcDbCircle
 10
1268.96953054667
 20
1712.449323785719
 30
0.0
 40
0.0056462244571444
100
AcDbArc
 50
122.6858172780333
 51
187.8236489223998
  0
ARC
  5
14C8
330
1F
100
AcDbEntity
  8
SANINDUSA
100
AcDbCircle
 10
1268.980468998483
 20
1712.450597206013
 30
0.0
 40
0.0166577545576783
100
AcDbArc
 50
187.0413793623932
 51
303.4652525852329
  0
ARC
  5
14C9
330
1F
100
AcDbEntity
  8
SANINDUSA
100
AcDbCircle
 10
1268.98660546165
 20
1712.441453081107
 30
0.0
 40
0.0056462244571029
100
AcDbArc
 50
302.6858172780334
 51
7.823648922399818
  0
ARC
  5
14CA
330
1F
100
AcDbEntity
  8
SANINDUSA
100
AcDbCircle
 10
1269.053602728758
 20
1712.392391982758
 30
0.0
 40
0.016657891634701
100
AcDbArc
 50
353.5102214425271
 51
109.9333203909267
  0
ARC
  5
14CB
330
1F
100
AcDbEntity
  8
SANINDUSA
100
AcDbCircle
 10
1269.049776094034
 20
1712.402718273136
 30
0.0
 40
0.0056461720139267
100
AcDbArc
 50
109.1531703174367
 51
174.2913859821356
  0
ARC
  5
14CC
330
1F
100
AcDbEntity
  8
SANINDUSA
100
AcDbCircle
 10
1269.060709071944
 20
1712.401397119976
 30
0.0
 40
0.0166578916347018
100
AcDbArc
 50
173.510221442527
 51
289.9333203909267
  0
ARC
  5
14CD
330
1F
100
AcDbEntity
  8
SANINDUSA
100
AcDbCircle
 10
1269.064535706668
 20
1712.391070829599
 30
0.0
 40
0.0056461720139229
100
AcDbArc
 50
289.1531703174368
 51
354.2913859821356
  0
ARC
  5
14CE
330
1F
100
AcDbEntity
  8
SANINDUSA
100
AcDbCircle
 10
1269.1181939522
 20
1712.327695416403
 30
0.0
 40
0.016657889851643
100
AcDbArc
 50
339.9787232819473
 51
96.40183950122802
  0
ARC
  5
14CF
330
1F
100
AcDbEntity
  8
SANINDUSA
100
AcDbCircle
 10
1269.116889586698
 20
1712.338630398068
 30
0.0
 40
0.0056461818607827
100
AcDbArc
 50
95.62072315034219
 51
160.7588121558285
  0
ARC
  5
14D0
330
1F
100
AcDbEntity
  8
SANINDUSA
100
AcDbCircle
 10
1269.127209981554
 20
1712.334787925238
 30
0.0
 40
0.0166578898516432
100
AcDbArc
 50
159.9787232819473
 51
276.401839501228
  0
ARC
  5
14D1
330
1F
100
AcDbEntity
  8
SANINDUSA
100
AcDbCircle
 10
1269.128514347056
 20
1712.323852943572
 30
0.0
 40
0.0056461818608001
100
AcDbArc
 50
275.6207231503422
 51
340.7588121558285
  0
ARC
  5
14D2
330
1F
100
AcDbEntity
  8
SANINDUSA
100
AcDbCircle
 10
1269.16585456195
 20
1712.249681927304
 30
0.0
 40
0.0166577495990596
100
AcDbArc
 50
326.4467750015398
 51
82.87069624176663
  0
ARC
  5
14D3
330
1F
100
AcDbEntity
  8
SANINDUSA
100
AcDbCircle
 10
1269.167144776526
 20
1712.260618378048
 30
0.0
 40
0.0056462518414294
100
AcDbArc
 50
82.08857370581011
 51
147.2260531212498
  0
ARC
  5
14D4
330
1F
100
AcDbEntity
  8
SANINDUSA
100
AcDbCircle
 10
1269.176279449911
 20
1712.254467912745
 30
0.0
 40
0.0166577495990593
100
AcDbArc
 50
146.4467750015398
 51
262.8706962417666
  0
ARC
  5
14D5
330
1F
100
AcDbEntity
  8
SANINDUSA
100
AcDbCircle
 10
1269.174989235335
 20
1712.243531462001
 30
0.0
 40
0.0056462518413902
100
AcDbArc
 50
262.0885737058101
 51
327.2260531212499
  0
ARC
  5
14D6
330
1F
100
AcDbEntity
  8
SANINDUSA
100
AcDbCircle
 10
1269.193938388836
 20
1712.162682826331
 30
0.0
 40
0.016657501595339
100
AcDbArc
 50
312.9143652546634
 51
69.33970299151176
  0
ARC
  5
14D7
330
1F
100
AcDbEntity
  8
SANINDUSA
100
AcDbCircle
 10
1269.197751402156
 20
1712.17301353712
 30
0.0
 40
0.0056463666307857
100
AcDbArc
 50
68.55675471688003
 51
133.6932751247175
  0
ARC
  5
14D8
330
1F
100
AcDbEntity
  8
SANINDUSA
100
AcDbCircle
 10
1269.205193073903
 20
1712.164896641354
 30
0.0
 40
0.016657501595338
100
AcDbArc
 50
132.9143652546634
 51
249.3397029915118
  0
ARC
  5
14D9
330
1F
100
AcDbEntity
  8
SANINDUSA
100
AcDbCircle
 10
1269.201380060583
 20
1712.154565930565
 30
0.0
 40
0.0056463666307866
100
AcDbArc
 50
248.55675471688
 51
313.6932751247175
  0
ARC
  5
14DA
330
1F
100
AcDbEntity
  8
SANINDUSA
100
AcDbCircle
 10
1268.87305710099
 20
1712.362579128002
 30
0.0
 40
0.0168309692584908
100
AcDbArc
 50
11.54494476950819
 51
124.6278156338445
  0
ARC
  5
14DB
330
1F
100
AcDbEntity
  8
SANINDUSA
100
AcDbCircle
 10
1268.866633690308
 20
1712.371725569936
 30
0.0
 40
0.0056553498714677
100
AcDbArc
 50
123.7345342453553
 51
192.4413741159086
  0
ARC
  5
14DC
330
1F
100
AcDbEntity
  8
SANINDUSA
100
AcDbCircle
 10
1268.877601590536
 20
1712.373875670582
 30
0.0
 40
0.0168309692584902
100
AcDbArc
 50
191.5449447695081
 51
304.6278156338445
  0
ARC
  5
14DD
330
1F
100
AcDbEntity
  8
SANINDUSA
100
AcDbCircle
 10
1268.884025001218
 20
1712.364729228649
 30
0.0
 40
0.0056553498714513
100
AcDbArc
 50
303.7345342453553
 51
12.44137411590864
  0
ARC
  5
14DE
330
1F
100
AcDbEntity
  8
SANINDUSA
100
AcDbCircle
 10
1268.929463920631
 20
1712.334354220585
 30
0.0
 40
0.0168310967097876
100
AcDbArc
 50
2.211563448832056
 51
115.2937633302767
  0
ARC
  5
14DF
330
1F
100
AcDbEntity
  8
SANINDUSA
100
AcDbCircle
 10
1268.924608907806
 20
1712.34442151808
 30
0.0
 40
0.0056552983346061
100
AcDbArc
 50
114.4000391884162
 51
183.1073028084095
  0
ARC
  5
14E0
330
1F
100
AcDbEntity
  8
SANINDUSA
100
AcDbCircle
 10
1268.935780484108
 20
1712.344764469769
 30
0.0
 40
0.0168310967097875
100
AcDbArc
 50
182.211563448832
 51
295.2937633302767
  0
ARC
  5
14E1
330
1F
100
AcDbEntity
  8
SANINDUSA
100
AcDbCircle
 10
1268.940635496933
 20
1712.334697172274
 30
0.0
 40
0.0056552983345838
100
AcDbArc
 50
294.4000391884163
 51
3.107302808409504
  0
ARC
  5
14E2
330
1F
100
AcDbEntity
  8
SANINDUSA
100
AcDbCircle
 10
1268.980546502156
 20
1712.297354672698
 30
0.0
 40
0.0168311606417236
100
AcDbArc
 50
352.8780619784047
 51
105.9599371836256
  0
ARC
  5
14E3
330
1F
100
AcDbEntity
  8
SANINDUSA
100
AcDbCircle
 10
1268.977388466583
 20
1712.308076167067
 30
0.0
 40
0.0056552741035855
100
AcDbArc
 50
105.0656106163992
 51
173.7730589721115
  0
ARC
  5
14E4
330
1F
100
AcDbEntity
  8
SANINDUSA
100
AcDbCircle
 10
1268.988467858674
 20
1712.306602825334
 30
0.0
 40
0.0168311606417236
100
AcDbArc
 50
172.8780619784046
 51
285.9599371836257
  0
ARC
  5
14E5
330
1F
100
AcDbEntity
  8
SANINDUSA
100
AcDbCircle
 10
1268.991625894247
 20
1712.295881330964
 30
0.0
 40
0.0056552741035773
100
AcDbArc
 50
285.0656106163993
 51
353.7730589721116
  0
ARC
  5
14E6
330
1F
100
AcDbEntity
  8
SANINDUSA
100
AcDbCircle
 10
1269.024952172803
 20
1712.252560247651
 30
0.0
 40
0.0168311543266494
100
AcDbArc
 50
343.5443879078503
 51
96.62631891683155
  0
ARC
  5
14E7
330
1F
100
AcDbEntity
  8
SANINDUSA
100
AcDbCircle
 10
1269.023574722303
 20
1712.263651957605
 30
0.0
 40
0.0056552797278648
100
AcDbArc
 50
95.7312936323856
 51
164.4386682648399
  0
ARC
  5
14E8
330
1F
100
AcDbEntity
  8
SANINDUSA
100
AcDbCircle
 10
1269.034268484884
 20
1712.260401295702
 30
0.0
 40
0.0168311543266493
100
AcDbArc
 50
163.5443879078503
 51
276.6263189168315
  0
ARC
  5
14E9
330
1F
100
AcDbEntity
  8
SANINDUSA
100
AcDbCircle
 10
1269.035645935384
 20
1712.249309585748
 30
0.0
 40
0.0056552797278717
100
AcDbArc
 50
275.7312936323856
 51
344.43866826484
  0
ARC
  5
14EA
330
1F
100
AcDbEntity
  8
SANINDUSA
100
AcDbCircle
 10
1269.06150506045
 20
1712.201157109709
 30
0.0
 40
0.0168310784291584
100
AcDbArc
 50
334.2105069359385
 51
87.29286833854612
  0
ARC
  5
14EB
330
1F
100
AcDbEntity
  8
SANINDUSA
100
AcDbCircle
 10
1269.061944621772
 20
1712.212325267422
 30
0.0
 40
0.0056553146157451
100
AcDbArc
 50
86.3971215885628
 51
155.1041718223138
  0
ARC
  5
14EC
330
1F
100
AcDbEntity
  8
SANINDUSA
100
AcDbCircle
 10
1269.071969508079
 20
1712.20738335409
 30
0.0
 40
0.0168310784291565
100
AcDbArc
 50
154.2105069359386
 51
267.2928683385462
  0
ARC
  5
14ED
330
1F
100
AcDbEntity
  8
SANINDUSA
100
AcDbCircle
 10
1269.071529946757
 20
1712.196215196378
 30
0.0
 40
0.0056553146157571
100
AcDbArc
 50
266.3971215885628
 51
335.1041718223138
  0
ARC
  5
14EE
330
1F
100
AcDbEntity
  8
SANINDUSA
100
AcDbCircle
 10
1269.089237226492
 20
1712.144506419226
 30
0.0
 40
0.0168309409361085
100
AcDbArc
 50
324.8764065558215
 51
77.95952766619125
  0
ARC
  5
14EF
330
1F
100
AcDbEntity
  8
SANINDUSA
100
AcDbCircle
 10
1269.091482092207
 20
1712.155455261566
 30
0.0
 40
0.0056553750964586
100
AcDbArc
 50
77.06311258683796
 51
145.7696218766422
  0
ARC
  5
14F0
330
1F
100
AcDbEntity
  8
SANINDUSA
100
AcDbCircle
 10
1269.100572570586
 20
1712.148952984468
 30
0.0
 40
0.0168309409361092
100
AcDbArc
 50
144.8764065558215
 51
257.9595276661913
  0
ARC
  5
14F1
330
1F
100
AcDbEntity
  8
SANINDUSA
100
AcDbCircle
 10
1269.098327704871
 20
1712.138004142128
 30
0.0
 40
0.0056553750964963
100
AcDbArc
 50
257.063112586838
 51
325.7696218766422
  0
ARC
  5
14F2
330
1F
100
AcDbEntity
  8
SANINDUSA
100
AcDbCircle
 10
1268.913779892708
 20
1712.638370129974
 30
0.0
 40
0.0172414438807475
100
AcDbArc
 50
45.5145968637534
 51
155.0757746306777
  0
ARC
  5
14F3
330
1F
100
AcDbEntity
  8
SANINDUSA
100
AcDbCircle
 10
1268.903226130887
 20
1712.643163282927
 30
0.0
 40
0.0056515691312104
100
AcDbArc
 50
154.0536880727409
 51
226.5407680024122
  0
ARC
  5
14F4
330
1F
100
AcDbEntity
  8
SANINDUSA
100
AcDbCircle
 10
1268.911420319755
 20
1712.651361558412
 30
0.0
 40
0.017241443880752
100
AcDbArc
 50
225.5145968637534
 51
335.0757746306777
  0
ARC
  5
14F5
330
1F
100
AcDbEntity
  8
SANINDUSA
100
AcDbCircle
 10
1268.921974081576
 20
1712.646568405459
 30
0.0
 40
0.0056515691312302
100
AcDbArc
 50
334.0536880727409
 51
46.5407680024122
  0
ARC
  5
14F6
330
1F
100
AcDbEntity
  8
SANINDUSA
100
AcDbCircle
 10
1269.061251831872
 20
1712.636592057609
 30
0.0
 40
0.0172419713807296
100
AcDbArc
 50
23.54994385670023
 51
133.1084667850078
  0
ARC
  5
14F7
330
1F
100
AcDbEntity
  8
SANINDUSA
100
AcDbCircle
 10
1269.053256833408
 20
1712.64498570268
 30
0.0
 40
0.0056513591928187
100
AcDbArc
 50
132.0867063289252
 51
204.5757106580283
  0
ARC
  5
14F8
330
1F
100
AcDbEntity
  8
SANINDUSA
100
AcDbCircle
 10
1269.063923341237
 20
1712.649524329368
 30
0.0
 40
0.0172419713807316
100
AcDbArc
 50
203.5499438567002
 51
313.1084667850079
  0
ARC
  5
14F9
330
1F
100
AcDbEntity
  8
SANINDUSA
100
AcDbCircle
 10
1269.071918339701
 20
1712.641130684298
 30
0.0
 40
0.0056513591928714
100
AcDbArc
 50
312.0867063289253
 51
24.57571064618085
  0
ARC
  5
14FA
330
1F
100
AcDbEntity
  8
SANINDUSA
100
AcDbCircle
 10
1269.197355222058
 20
1712.579780489975
 30
0.0
 40
0.017242328651249
100
AcDbArc
 50
1.585392649312263
 51
111.1421782388401
  0
ARC
  5
14FB
330
1F
100
AcDbEntity
  8
SANINDUSA
100
AcDbCircle
 10
1269.193080098364
 20
1712.590555843782
 30
0.0
 40
0.0056512161669129
100
AcDbArc
 50
110.1194839557336
 51
182.6097727933771
  0
ARC
  5
14FC
330
1F
100
AcDbEntity
  8
SANINDUSA
100
AcDbCircle
 10
1269.204670471844
 20
1712.590775564715
 30
0.0
 40
0.0172423286512506
100
AcDbArc
 50
181.5853926493123
 51
291.1421782388401
  0
ARC
  5
14FD
330
1F
100
AcDbEntity
  8
SANINDUSA
100
AcDbCircle
 10
1269.208945595538
 20
1712.580000210908
 30
0.0
 40
0.0056512161668632
100
AcDbArc
 50
290.1194839557336
 51
2.609772793377149
  0
ARC
  5
14FE
330
1F
100
AcDbEntity
  8
SANINDUSA
100
AcDbCircle
 10
1269.302329833336
 20
1712.47618390096
 30
0.0
 40
0.0172423157261544
100
AcDbArc
 50
339.6201324227785
 51
89.17707044015759
  0
ARC
  5
14FF
330
1F
100
AcDbEntity
  8
SANINDUSA
100
AcDbCircle
 10
1269.302395301716
 20
1712.487776155137
 30
0.0
 40
0.0056512200976113
100
AcDbArc
 50
88.15270510777677
 51
160.6429195950432
  0
ARC
  5
1500
330
1F
100
AcDbEntity
  8
SANINDUSA
100
AcDbCircle
 10
1269.313226561078
 20
1712.483644767018
 30
0.0
 40
0.0172423157261525
100
AcDbArc
 50
159.6201324227785
 51
269.1770704401576
  0
ARC
  5
1501
330
1F
100
AcDbEntity
  8
SANINDUSA
100
AcDbCircle
 10
1269.313161092697
 20
1712.472052512839
 30
0.0
 40
0.0056512200975412
100
AcDbArc
 50
268.1527051077768
 51
340.6429195950432
  0
ARC
  5
1502
330
1F
100
AcDbEntity
  8
SANINDUSA
100
AcDbCircle
 10
1269.360934857711
 20
1712.340842999741
 30
0.0
 40
0.0172419398405476
100
AcDbArc
 50
317.6537491556835
 51
67.21264409120812
  0
ARC
  5
1503
330
1F
100
AcDbEntity
  8
SANINDUSA
100
AcDbCircle
 10
1269.365331096342
 20
1712.35156893365
 30
0.0
 40
0.0056513687851983
100
AcDbArc
 50
66.18680571857608
 51
138.6756286014096
  0
ARC
  5
1504
330
1F
100
AcDbEntity
  8
SANINDUSA
100
AcDbCircle
 10
1269.373830316178
 20
1712.343686320257
 30
0.0
 40
0.0172419398405433
100
AcDbArc
 50
137.6537491556834
 51
247.2126440912081
  0
ARC
  5
1505
330
1F
100
AcDbEntity
  8
SANINDUSA
100
AcDbCircle
 10
1269.369434077547
 20
1712.332960386348
 30
0.0
 40
0.0056513687852009
100
AcDbArc
 50
246.186805718576
 51
318.6756286014096
  0
ARC
  5
1506
330
1F
100
AcDbEntity
  8
SANINDUSA
100
AcDbCircle
 10
1269.364661397865
 20
1712.19340732534
 30
0.0
 40
0.0172414113790314
100
AcDbArc
 50
295.6864573206963
 51
45.24801847262381
  0
ARC
  5
1507
330
1F
100
AcDbEntity
  8
SANINDUSA
100
AcDbCircle
 10
1269.372749846428
 20
1712.201709883778
 30
0.0
 40
0.0056515790168383
100
AcDbArc
 50
44.22172943166806
 51
116.7086223893561
  0
ARC
  5
1508
330
1F
100
AcDbEntity
  8
SANINDUSA
100
AcDbCircle
 10
1269.377682947169
 20
1712.191220854122
 30
0.0
 40
0.0172414113790313
100
AcDbArc
 50
115.6864573206963
 51
225.2480184726238
  0
ARC
  5
1509
330
1F
100
AcDbEntity
  8
SANINDUSA
100
AcDbCircle
 10
1269.369594498605
 20
1712.182918295684
 30
0.0
 40
0.0056515790168937
100
AcDbArc
 50
224.2217294316681
 51
296.7086223893561
  0
CIRCLE
  5
150A
330
1F
100
AcDbEntity
  8
SANINDUSA
100
AcDbCircle
 10
1269.339757254982
 20
1712.614322228509
 30
0.0
 40
0.0441421524843455
  0
LINE
  5
1776
330
1F
100
AcDbEntity
  8
SANINDUSA
100
AcDbLine
 10
1272.630399405586
 20
1712.467201144003
 30
0.0
 11
1272.586308564037
 21
1712.467585918948
 31
0.0
  0
ARC
  5
1777
330
1F
100
AcDbEntity
  8
SANINDUSA
100
AcDbCircle
 10
1272.586264931359
 20
1712.462586109332
 30
0.0
 40
0.005
100
AcDbArc
 50
89.500000000038
 51
169.999999998777
  0
ARC
  5
1778
330
1F
100
AcDbEntity
  8
SANINDUSA
100
AcDbCircle
 10
1272.586264931359
 20
1712.462586109332
 30
0.0
 40
0.0150000000000001
100
AcDbArc
 50
162.6231149555055
 51
169.999999998777
  0
ARC
  5
1779
330
1F
100
AcDbEntity
  8
SANINDUSA
100
AcDbCircle
 10
1272.57147233751
 20
1712.467215274184
 30
0.0
 40
0.0005
100
AcDbArc
 50
342.6231149555055
 51
89.49964791702184
  0
LINE
  5
177A
330
1F
100
AcDbEntity
  8
SANINDUSA
100
AcDbLine
 10
1272.576504969641
 20
1712.436028468295
 30
0.0
 11
1272.581340892594
 21
1712.463454350221
 31
0.0
  0
LINE
  5
177B
330
1F
100
AcDbEntity
  8
SANINDUSA
100
AcDbLine
 10
1272.571268832908
 20
1712.46392056607
 30
0.0
 11
1272.571492815064
 21
1712.465190831997
 31
0.0
  0
ARC
  5
177C
330
1F
100
AcDbEntity
  8
SANINDUSA
100
AcDbCircle
 10
1272.571580930876
 20
1712.436896709184
 30
0.0
 40
0.0050000000000001
100
AcDbArc
 50
270.0
 51
349.999999998777
  0
ARC
  5
177D
330
1F
100
AcDbEntity
  8
SANINDUSA
100
AcDbCircle
 10
1272.569971927187
 20
1712.436896709184
 30
0.0
 40
0.0050000000000002
100
AcDbArc
 50
190.000000001223
 51
270.0
  0
LINE
  5
177E
330
1F
100
AcDbEntity
  8
SANINDUSA
100
AcDbLine
 10
1272.560164225142
 20
1712.463725099069
 30
0.0
 11
1272.565047888422
 21
1712.436028468295
 31
0.0
  0
LINE
  5
177F
330
1F
100
AcDbEntity
  8
SANINDUSA
100
AcDbLine
 10
1272.570012302672
 20
1712.465461580845
 30
0.0
 11
1272.570284025155
 21
1712.46392056607
 31
0.0
  0
ARC
  5
1780
330
1F
100
AcDbEntity
  8
SANINDUSA
100
AcDbCircle
 10
1272.570776429032
 20
1712.464007390159
 30
0.0
 40
0.0005
100
AcDbArc
 50
190.000000001223
 51
349.999999998777
  0
ARC
  5
1781
330
1F
100
AcDbEntity
  8
SANINDUSA
100
AcDbCircle
 10
1272.555240186378
 20
1712.46285685818
 30
0.0
 40
0.0050000000000002
100
AcDbArc
 50
10.00000000122301
 51
89.500000000038
  0
ARC
  5
1782
330
1F
100
AcDbEntity
  8
SANINDUSA
100
AcDbCircle
 10
1272.555240186378
 20
1712.46285685818
 30
0.0
 40
0.0150000000000002
100
AcDbArc
 50
10.00000000122301
 51
16.37691736298269
  0
ARC
  5
1783
330
1F
100
AcDbEntity
  8
SANINDUSA
100
AcDbCircle
 10
1272.570111314845
 20
1712.467227160013
 30
0.0
 40
0.0005
100
AcDbArc
 50
89.49964791702184
 51
196.3769173629827
  0
LINE
  5
1784
330
1F
100
AcDbEntity
  8
SANINDUSA
100
AcDbLine
 10
1272.555283819055
 20
1712.467856667795
 30
0.0
 11
1272.511423795389
 21
1712.468239428423
 31
0.0
  0
ARC
  5
1785
330
1F
100
AcDbEntity
  8
SANINDUSA
100
AcDbCircle
 10
1272.511380162712
 20
1712.463239618808
 30
0.0
 40
0.0049999999999999
100
AcDbArc
 50
89.500000000038
 51
169.999999998777
  0
ARC
  5
1786
330
1F
100
AcDbEntity
  8
SANINDUSA
100
AcDbCircle
 10
1272.511380162712
 20
1712.463239618808
 30
0.0
 40
0.0149999999999999
100
AcDbArc
 50
162.6231175473273
 51
169.999999998777
  0
ARC
  5
1787
330
1F
100
AcDbEntity
  8
SANINDUSA
100
AcDbCircle
 10
1272.496587568653
 20
1712.467868782989
 30
0.0
 40
0.0005
100
AcDbArc
 50
342.6231175473274
 51
89.49965052266042
  0
LINE
  5
1788
330
1F
100
AcDbEntity
  8
SANINDUSA
100
AcDbLine
 10
1272.501504969641
 20
1712.436028468295
 30
0.0
 11
1272.506456123947
 21
1712.464107859696
 31
0.0
  0
LINE
  5
1789
330
1F
100
AcDbEntity
  8
SANINDUSA
100
AcDbLine
 10
1272.496268832884
 20
1712.46392056607
 30
0.0
 11
1272.496608046417
 21
1712.465844341473
 31
0.0
  0
ARC
  5
178A
330
1F
100
AcDbEntity
  8
SANINDUSA
100
AcDbCircle
 10
1272.496580930876
 20
1712.436896709184
 30
0.0
 40
0.005
100
AcDbArc
 50
270.0
 51
349.999999998777
  0
ARC
  5
178B
330
1F
100
AcDbEntity
  8
SANINDUSA
100
AcDbCircle
 10
1272.494971927187
 20
1712.436896709184
 30
0.0
 40
0.0050000000000001
100
AcDbArc
 50
190.000000001223
 51
270.0
  0
LINE
  5
178C
330
1F
100
AcDbEntity
  8
SANINDUSA
100
AcDbLine
 10
1272.485048638611
 20
1712.464380622861
 30
0.0
 11
1272.490047888422
 21
1712.436028468295
 31
0.0
  0
LINE
  5
178D
330
1F
100
AcDbEntity
  8
SANINDUSA
100
AcDbLine
 10
1272.494896716142
 20
1712.466117104638
 30
0.0
 11
1272.495284025131
 21
1712.46392056607
 31
0.0
  0
ARC
  5
178E
330
1F
100
AcDbEntity
  8
SANINDUSA
100
AcDbCircle
 10
1272.495776429008
 20
1712.464007390159
 30
0.0
 40
0.0005
100
AcDbArc
 50
190.000000001223
 51
349.999999998777
  0
ARC
  5
178F
330
1F
100
AcDbEntity
  8
SANINDUSA
100
AcDbCircle
 10
1272.480124599846
 20
1712.463512381973
 30
0.0
 40
0.0050000000000002
100
AcDbArc
 50
10.00000000122301
 51
89.500000000038
  0
ARC
  5
1790
330
1F
100
AcDbEntity
  8
SANINDUSA
100
AcDbCircle
 10
1272.480124599846
 20
1712.463512381973
 30
0.0
 40
0.0150000000000002
100
AcDbArc
 50
10.00000000122301
 51
16.37691995598869
  0
ARC
  5
1791
330
1F
100
AcDbEntity
  8
SANINDUSA
100
AcDbCircle
 10
1272.494995728115
 20
1712.467882684481
 30
0.0
 40
0.0005
100
AcDbArc
 50
89.49965052266042
 51
196.3769199559887
  0
LINE
  5
1792
330
1F
100
AcDbEntity
  8
SANINDUSA
100
AcDbLine
 10
1272.480168232524
 20
1712.468512191588
 30
0.0
 11
1272.436539026742
 21
1712.468892937899
 31
0.0
  0
ARC
  5
1793
330
1F
100
AcDbEntity
  8
SANINDUSA
100
AcDbCircle
 10
1272.436495394065
 20
1712.463893128284
 30
0.0
 40
0.005
100
AcDbArc
 50
89.500000000038
 51
169.999999998777
  0
ARC
  5
1794
330
1F
100
AcDbEntity
  8
SANINDUSA
100
AcDbCircle
 10
1272.436495394065
 20
1712.463893128284
 30
0.0
 40
0.015
100
AcDbArc
 50
162.6227305572922
 51
169.999999998777
  0
ARC
  5
1795
330
1F
100
AcDbEntity
  8
SANINDUSA
100
AcDbCircle
 10
1272.421702831272
 20
1712.468522392376
 30
0.0
 40
0.0005
100
AcDbArc
 50
342.6227305572922
 51
89.500000000038
  0
LINE
  5
1796
330
1F
100
AcDbEntity
  8
SANINDUSA
100
AcDbLine
 10
1272.426504969641
 20
1712.436028468295
 30
0.0
 11
1272.431571355299
 21
1712.464761369172
 31
0.0
  0
LINE
  5
1797
330
1F
100
AcDbEntity
  8
SANINDUSA
100
AcDbLine
 10
1272.421268832908
 20
1712.46392056607
 30
0.0
 11
1272.421723277769
 21
1712.466497850948
 31
0.0
  0
ARC
  5
1798
330
1F
100
AcDbEntity
  8
SANINDUSA
100
AcDbCircle
 10
1272.421580930876
 20
1712.436896709184
 30
0.0
 40
0.0050000000000002
100
AcDbArc
 50
270.0
 51
349.999999998777
  0
ARC
  5
1799
330
1F
100
AcDbEntity
  8
SANINDUSA
100
AcDbCircle
 10
1272.419971927188
 20
1712.436896709184
 30
0.0
 40
0.0050000000000001
100
AcDbArc
 50
190.000000001223
 51
270.0
  0
LINE
  5
179A
330
1F
100
AcDbEntity
  8
SANINDUSA
100
AcDbLine
 10
1272.40993305208
 20
1712.465036146654
 30
0.0
 11
1272.415047888422
 21
1712.436028468295
 31
0.0
  0
LINE
  5
179B
330
1F
100
AcDbEntity
  8
SANINDUSA
100
AcDbLine
 10
1272.41978112961
 20
1712.466772628431
 30
0.0
 11
1272.420284025155
 21
1712.46392056607
 31
0.0
  0
ARC
  5
179C
330
1F
100
AcDbEntity
  8
SANINDUSA
100
AcDbCircle
 10
1272.420776429032
 20
1712.464007390159
 30
0.0
 40
0.0005
100
AcDbArc
 50
190.000000001223
 51
349.999999998777
  0
ARC
  5
179D
330
1F
100
AcDbEntity
  8
SANINDUSA
100
AcDbCircle
 10
1272.405009013315
 20
1712.464167905765
 30
0.0
 40
0.0050000000000003
100
AcDbArc
 50
10.00000000122301
 51
89.500000000038
  0
ARC
  5
179E
330
1F
100
AcDbEntity
  8
SANINDUSA
100
AcDbCircle
 10
1272.405009013315
 20
1712.464167905765
 30
0.0
 40
0.0150000000000003
100
AcDbArc
 50
10.00000000122301
 51
16.37726943903817
  0
ARC
  5
179F
330
1F
100
AcDbEntity
  8
SANINDUSA
100
AcDbCircle
 10
1272.419880114927
 20
1712.468538298981
 30
0.0
 40
0.0005
100
AcDbArc
 50
89.500000000038
 51
196.3772694390381
  0
LINE
  5
17A0
330
1F
100
AcDbEntity
  8
SANINDUSA
100
AcDbLine
 10
1272.405052645993
 20
1712.469167715381
 30
0.0
 11
1272.361654258095
 21
1712.469546447374
 31
0.0
  0
ARC
  5
17A1
330
1F
100
AcDbEntity
  8
SANINDUSA
100
AcDbCircle
 10
1272.361610625417
 20
1712.464546637759
 30
0.0
 40
0.0050000000000002
100
AcDbArc
 50
89.500000000038
 51
169.999999998777
  0
ARC
  5
17A2
330
1F
100
AcDbEntity
  8
SANINDUSA
100
AcDbCircle
 10
1272.361610625417
 20
1712.464546637759
 30
0.0
 40
0.0150000000000002
100
AcDbArc
 50
162.6231226276164
 51
169.999999998777
  0
ARC
  5
17A3
330
1F
100
AcDbEntity
  8
SANINDUSA
100
AcDbCircle
 10
1272.346818030948
 20
1712.469175800629
 30
0.0
 40
0.0005
100
AcDbArc
 50
342.6231226276164
 51
89.4996556165803
  0
LINE
  5
17A4
330
1F
100
AcDbEntity
  8
SANINDUSA
100
AcDbLine
 10
1272.351504969641
 20
1712.436028468295
 30
0.0
 11
1272.356686586652
 21
1712.465414878647
 31
0.0
  0
LINE
  5
17A5
330
1F
100
AcDbEntity
  8
SANINDUSA
100
AcDbLine
 10
1272.346268832908
 20
1712.46392056607
 30
0.0
 11
1272.346838509122
 21
1712.467151360424
 31
0.0
  0
ARC
  5
17A6
330
1F
100
AcDbEntity
  8
SANINDUSA
100
AcDbCircle
 10
1272.346580930876
 20
1712.436896709184
 30
0.0
 40
0.005
100
AcDbArc
 50
270.0
 51
349.999999998777
  0
ARC
  5
17A7
330
1F
100
AcDbEntity
  8
SANINDUSA
100
AcDbCircle
 10
1272.344971927188
 20
1712.436896709184
 30
0.0
 40
0.005
100
AcDbArc
 50
190.000000001223
 51
270.0
  0
LINE
  5
17A8
330
1F
100
AcDbEntity
  8
SANINDUSA
100
AcDbLine
 10
1272.334817465549
 20
1712.465691670447
 30
0.0
 11
1272.340047888423
 21
1712.436028468295
 31
0.0
  0
LINE
  5
17A9
330
1F
100
AcDbEntity
  8
SANINDUSA
100
AcDbLine
 10
1272.344665543079
 20
1712.467428152223
 30
0.0
 11
1272.345284025155
 21
1712.46392056607
 31
0.0
  0
ARC
  5
17AA
330
1F
100
AcDbEntity
  8
SANINDUSA
100
AcDbCircle
 10
1272.345776429032
 20
1712.464007390159
 30
0.0
 40
0.0005
100
AcDbArc
 50
190.000000001223
 51
349.999999998777
  0
ARC
  5
17AB
330
1F
100
AcDbEntity
  8
SANINDUSA
100
AcDbCircle
 10
1272.329893426784
 20
1712.464823429558
 30
0.0
 40
0.0050000000000003
100
AcDbArc
 50
10.00000000122301
 51
89.500000000038
  0
ARC
  5
17AC
330
1F
100
AcDbEntity
  8
SANINDUSA
100
AcDbCircle
 10
1272.329893426784
 20
1712.464823429558
 30
0.0
 40
0.0150000000000003
100
AcDbArc
 50
10.00000000122301
 51
16.37692505966035
  0
ARC
  5
17AD
330
1F
100
AcDbEntity
  8
SANINDUSA
100
AcDbCircle
 10
1272.344764554664
 20
1712.469193733389
 30
0.0
 40
0.0005
100
AcDbArc
 50
89.4996556165803
 51
196.3769250596603
  0
LINE
  5
17AE
330
1F
100
AcDbEntity
  8
SANINDUSA
100
AcDbLine
 10
1272.329937059462
 20
1712.469823239174
 30
0.0
 11
1272.286769489447
 21
1712.47019995685
 31
0.0
  0
ARC
  5
17AF
330
1F
100
AcDbEntity
  8
SANINDUSA
100
AcDbCircle
 10
1272.28672585677
 20
1712.465200147234
 30
0.0
 40
0.0050000000000001
100
AcDbArc
 50
89.500000000038
 51
169.999999998777
  0
ARC
  5
17B0
330
1F
100
AcDbEntity
  8
SANINDUSA
100
AcDbCircle
 10
1272.28672585677
 20
1712.465200147234
 30
0.0
 40
0.0150000000000001
100
AcDbArc
 50
162.6227305572922
 51
169.999999998777
  0
ARC
  5
17B1
330
1F
100
AcDbEntity
  8
SANINDUSA
100
AcDbCircle
 10
1272.271933293978
 20
1712.469829411327
 30
0.0
 40
0.0005
100
AcDbArc
 50
342.6227305572922
 51
89.500000000038
  0
LINE
  5
17B2
330
1F
100
AcDbEntity
  8
SANINDUSA
100
AcDbLine
 10
1272.276504969641
 20
1712.436028468295
 30
0.0
 11
1272.281801818005
 21
1712.466068388123
 31
0.0
  0
LINE
  5
17B3
330
1F
100
AcDbEntity
  8
SANINDUSA
100
AcDbLine
 10
1272.271268832908
 20
1712.46392056607
 30
0.0
 11
1272.271953740475
 21
1712.467804869899
 31
0.0
  0
ARC
  5
17B4
330
1F
100
AcDbEntity
  8
SANINDUSA
100
AcDbCircle
 10
1272.271580930876
 20
1712.436896709184
 30
0.0
 40
0.0050000000000001
100
AcDbArc
 50
270.0
 51
349.999999998777
  0
ARC
  5
17B5
330
1F
100
AcDbEntity
  8
SANINDUSA
100
AcDbCircle
 10
1272.269971927188
 20
1712.436896709184
 30
0.0
 40
0.0050000000000002
100
AcDbArc
 50
190.000000001223
 51
270.0
  0
LINE
  5
17B6
330
1F
100
AcDbEntity
  8
SANINDUSA
100
AcDbLine
 10
1272.259701879018
 20
1712.466347194239
 30
0.0
 11
1272.265047888423
 21
1712.436028468295
 31
0.0
  0
LINE
  5
17B7
330
1F
100
AcDbEntity
  8
SANINDUSA
100
AcDbLine
 10
1272.269549956548
 20
1712.468083676016
 30
0.0
 11
1272.270284025155
 21
1712.46392056607
 31
0.0
  0
ARC
  5
17B8
330
1F
100
AcDbEntity
  8
SANINDUSA
100
AcDbCircle
 10
1272.270776429032
 20
1712.464007390159
 30
0.0
 40
0.0005
100
AcDbArc
 50
190.000000001223
 51
349.999999998777
  0
ARC
  5
17B9
330
1F
100
AcDbEntity
  8
SANINDUSA
100
AcDbCircle
 10
1272.254777840253
 20
1712.465478953351
 30
0.0
 40
0.0050000000000001
100
AcDbArc
 50
10.00000000122301
 51
89.500000000038
  0
ARC
  5
17BA
330
1F
100
AcDbEntity
  8
SANINDUSA
100
AcDbCircle
 10
1272.254777840253
 20
1712.465478953351
 30
0.0
 40
0.0150000000000001
100
AcDbArc
 50
10.00000000122301
 51
16.37726943903817
  0
ARC
  5
17BB
330
1F
100
AcDbEntity
  8
SANINDUSA
100
AcDbCircle
 10
1272.269648941865
 20
1712.469849346566
 30
0.0
 40
0.0005
100
AcDbArc
 50
89.500000000038
 51
196.3772694390381
  0
LINE
  5
17BC
330
1F
100
AcDbEntity
  8
SANINDUSA
100
AcDbLine
 10
1272.25482147293
 20
1712.470478762966
 30
0.0
 11
1272.221051894062
 21
1712.470773465616
 31
0.0
  0
ARC
  5
17BD
330
1F
100
AcDbEntity
  8
SANINDUSA
100
AcDbCircle
 10
1272.220873912263
 20
1712.46573942828
 30
0.0
 40
0.0050371826869511
100
AcDbArc
 50
87.97511235258388
 51
173.8483855069896
  0
LWPOLYLINE
  5
17BE
330
1F
100
AcDbEntity
  8
SANINDUSA
100
AcDbPolyline
 90
        3
 70
   128
 43
0.0
 10
1272.215865734613
 20
1712.466279211621
 10
1272.213845162111
 20
1712.44662647733
 10
1272.212793529596
 20
1712.436393082789
  0
ARC
  5
17BF
330
1F
100
AcDbEntity
  8
SANINDUSA
100
AcDbCircle
 10
1272.2077928853
 20
1712.436925571773
 30
0.0
 40
0.0050289151801816
100
AcDbArc
 50
269.7379679608478
 51
353.9218160571808
  0
ARC
  5
17C0
330
1F
100
AcDbEntity
  8
SANINDUSA
100
AcDbCircle
 10
1272.020580177138
 20
1712.433970016211
 30
0.0
 40
0.002075266912313
100
AcDbArc
 50
181.5737174285315
 51
272.4902915038259
  0
LWPOLYLINE
  5
17C1
330
1F
100
AcDbEntity
  8
SANINDUSA
100
AcDbPolyline
 90
       10
 70
   128
 43
0.0
 10
1272.01967948808
 20
1712.546957442147
 10
1272.019527028236
 20
1712.53420409918
 10
1272.019379756067
 20
1712.521469648422
 10
1272.019237817654
 20
1712.508766721524
 10
1272.019101353792
 20
1712.496107918868
 10
1272.018970499841
 20
1712.483505797067
 10
1272.0188453856
 20
1712.47097285651
 10
1272.018726135174
 20
1712.458521528965
 10
1272.018612866848
 20
1712.446164165243
 10
1272.018505692979
 20
1712.433913022954
  0
ARC
  5
17C2
330
1F
100
AcDbEntity
  8
SANINDUSA
100
AcDbCircle
 10
1272.024678504213
 20
1712.546896709184
 30
0.0
 40
0.0049993850422357
100
AcDbArc
 50
90.89873808580859
 51
179.3039487733699
  0
LINE
  5
17C4
330
1F
100
AcDbEntity
  8
SANINDUSA
100
AcDbLine
 10
1272.147843980196
 20
1712.551856898972
 30
0.0
 11
1272.146608567447
 21
1712.551896709184
 31
0.0
  0
LWPOLYLINE
  5
17C5
330
1F
100
AcDbEntity
  8
SANINDUSA
100
AcDbPolyline
 90
        8
 70
   128
 43
0.0
 10
1272.147843980196
 20
1712.551856898972
 10
1272.151614453171
 20
1712.55129390869
 10
1272.15523278598
 20
1712.550099290508
 10
1272.157997198077
 20
1712.54864017427
 10
1272.160484930543
 20
1712.546752179256
 10
1272.162203015772
 20
1712.544932737585
 10
1272.163602494782
 20
1712.542861138092
 10
1272.164951819022
 20
1712.539243669233
  0
LWPOLYLINE
  5
17C6
330
1F
100
AcDbEntity
  8
SANINDUSA
100
AcDbPolyline
 90
        3
 70
   128
 43
0.0
 10
1272.164951819022
 20
1712.539243669233
 10
1272.168851621114
 20
1712.520135011386
 10
1272.172269790836
 20
1712.50340476186
  0
ARC
  5
17C8
330
1F
100
AcDbEntity
  8
SANINDUSA
100
AcDbCircle
 10
1272.197816125142
 20
1712.509441351867
 30
0.0
 40
0.0262500249916639
100
AcDbArc
 50
193.3062940961936
 51
261.9460850020524
  0
LWPOLYLINE
  5
17C9
330
1F
100
AcDbEntity
  8
SANINDUSA
100
AcDbPolyline
 90
        3
 70
   128
 43
0.0
 10
1272.194138368655
 20
1712.483450239554
 10
1272.19596961111
 20
1712.483188961683
 10
1272.199662974858
 20
1712.482960580827
  0
LINE
  5
17CA
330
1F
100
AcDbEntity
  8
SANINDUSA
100
AcDbLine
 10
1272.876748405905
 20
1712.477051745787
 30
0.0
 11
1272.199662974858
 21
1712.482960580827
 31
0.0
  0
ARC
  5
17CB
330
1F
100
AcDbEntity
  8
SANINDUSA
100
AcDbCircle
 10
1272.876661140551
 20
1712.467052126207
 30
0.0
 40
0.0100000003498879
100
AcDbArc
 50
44.74997295218186
 51
89.50000002609213
  0
LINE
  5
17CC
330
1F
100
AcDbEntity
  8
SANINDUSA
100
AcDbLine
 10
1272.889328499851
 20
1712.468477981727
 30
0.0
 11
1272.88376299788
 21
1712.474092270345
 31
0.0
  0
ARC
  5
17CD
330
1F
100
AcDbEntity
  8
SANINDUSA
100
AcDbCircle
 10
1272.885777571213
 20
1712.4649579097
 30
0.0
 40
0.0050000001264578
100
AcDbArc
 50
359.9999996873387
 51
44.7499728232169
  0
LINE
  5
17CE
330
1F
100
AcDbEntity
  8
SANINDUSA
100
AcDbLine
 10
1272.89077757134
 20
1712.464957909672
 30
0.0
 11
1272.89077757134
 21
1712.453896709184
 31
0.0
  0
ARC
  5
17CF
330
1F
100
AcDbEntity
  8
SANINDUSA
100
AcDbCircle
 10
1272.88877757134
 20
1712.453896709184
 30
0.0
 40
0.0020000000000001
100
AcDbArc
 50
270.0
 51
0.0
  0
LINE
  5
17D0
330
1F
100
AcDbEntity
  8
SANINDUSA
100
AcDbLine
 10
1272.881707806581
 20
1712.451896709184
 30
0.0
 11
1272.88877757134
 21
1712.451896709184
 31
0.0
  0
ARC
  5
17D1
330
1F
100
AcDbEntity
  8
SANINDUSA
100
AcDbCircle
 10
1272.881707806581
 20
1712.453896709184
 30
0.0
 40
0.002
100
AcDbArc
 50
182.0000000037536
 51
270.0
  0
LINE
  5
17D2
330
1F
100
AcDbEntity
  8
SANINDUSA
100
AcDbLine
 10
1272.879484889021
 20
1712.46024532277
 30
0.0
 11
1272.879709024927
 21
1712.453826910191
 31
0.0
  0
ARC
  5
17D3
330
1F
100
AcDbEntity
  8
SANINDUSA
100
AcDbCircle
 10
1272.874487934886
 20
1712.460070825287
 30
0.0
 40
0.0050000000000001
100
AcDbArc
 50
2.000000003753602
 51
89.500000000038
  0
LINE
  5
17D4
330
1F
100
AcDbEntity
  8
SANINDUSA
100
AcDbLine
 10
1272.874531567563
 20
1712.465070634902
 30
0.0
 11
1272.810962869978
 21
1712.465625390521
 31
0.0
  0
ARC
  5
17D5
330
1F
100
AcDbEntity
  8
SANINDUSA
100
AcDbCircle
 10
1272.810919237301
 20
1712.460625580906
 30
0.0
 40
0.0049999999999999
100
AcDbArc
 50
89.500000000038
 51
169.999999998777
  0
ARC
  5
17D6
330
1F
100
AcDbEntity
  8
SANINDUSA
100
AcDbCircle
 10
1272.810919237301
 20
1712.460625580906
 30
0.0
 40
0.0149999999999999
100
AcDbArc
 50
162.6231069290109
 51
167.5970227612312
  0
ARC
  5
17D7
330
1F
100
AcDbEntity
  8
SANINDUSA
100
AcDbCircle
 10
1272.796126644101
 20
1712.465254747829
 30
0.0
 40
0.0005
100
AcDbArc
 50
342.6231069290109
 51
89.49963986573289
  0
LINE
  5
17D8
330
1F
100
AcDbEntity
  8
SANINDUSA
100
AcDbLine
 10
1272.803268239448
 20
1712.446028468296
 30
0.0
 11
1272.805995198536
 21
1712.461493821794
 31
0.0
  0
ARC
  5
17D9
330
1F
100
AcDbEntity
  8
SANINDUSA
100
AcDbCircle
 10
1272.798344200683
 20
1712.446896709184
 30
0.0
 40
0.0050000000000002
100
AcDbArc
 50
270.0
 51
349.999999998777
  0
LINE
  5
17DA
330
1F
100
AcDbEntity
  8
SANINDUSA
100
AcDbLine
 10
1272.79320865738
 20
1712.441896709184
 30
0.0
 11
1272.798344200683
 21
1712.441896709184
 31
0.0
  0
ARC
  5
17DB
330
1F
100
AcDbEntity
  8
SANINDUSA
100
AcDbCircle
 10
1272.79320865738
 20
1712.446896709184
 30
0.0
 40
0.0050000000000001
100
AcDbArc
 50
190.000000001223
 51
270.0
  0
LINE
  5
17DC
330
1F
100
AcDbEntity
  8
SANINDUSA
100
AcDbLine
 10
1272.785510984736
 20
1712.46175852769
 30
0.0
 11
1272.788284618615
 21
1712.446028468296
 31
0.0
  0
ARC
  5
17DD
330
1F
100
AcDbEntity
  8
SANINDUSA
100
AcDbCircle
 10
1272.780586945971
 20
1712.460890286802
 30
0.0
 40
0.0050000000000003
100
AcDbArc
 50
10.00000000122301
 51
89.500000000038
  0
ARC
  5
17DE
330
1F
100
AcDbEntity
  8
SANINDUSA
100
AcDbCircle
 10
1272.780586945971
 20
1712.460890286802
 30
0.0
 40
0.0150000000000003
100
AcDbArc
 50
11.40297724725394
 51
16.37690931194574
  0
ARC
  5
17DF
330
1F
100
AcDbEntity
  8
SANINDUSA
100
AcDbCircle
 10
1272.795458075052
 20
1712.465260586546
 30
0.0
 40
0.0005
100
AcDbArc
 50
89.49963986573289
 51
196.3769093119457
  0
LINE
  5
17E0
330
1F
100
AcDbEntity
  8
SANINDUSA
100
AcDbLine
 10
1272.780630578648
 20
1712.465890096417
 30
0.0
 11
1272.736078101331
 21
1712.466278899996
 31
0.0
  0
ARC
  5
17E1
330
1F
100
AcDbEntity
  8
SANINDUSA
100
AcDbCircle
 10
1272.736034468654
 20
1712.461279090381
 30
0.0
 40
0.0049999999999999
100
AcDbArc
 50
89.500000000038
 51
169.999999998777
  0
ARC
  5
17E2
330
1F
100
AcDbEntity
  8
SANINDUSA
100
AcDbCircle
 10
1272.736034468654
 20
1712.461279090381
 30
0.0
 40
0.0149999999999999
100
AcDbArc
 50
162.6227305572922
 51
169.999999998777
  0
ARC
  5
17E3
330
1F
100
AcDbEntity
  8
SANINDUSA
100
AcDbCircle
 10
1272.721241905861
 20
1712.465908354474
 30
0.0
 40
0.0005
100
AcDbArc
 50
342.6227305572922
 51
89.500000000038
  0
LINE
  5
17E4
330
1F
100
AcDbEntity
  8
SANINDUSA
100
AcDbLine
 10
1272.726504969641
 20
1712.436028468295
 30
0.0
 11
1272.731110429889
 21
1712.46214733127
 31
0.0
  0
ARC
  5
17E5
330
1F
100
AcDbEntity
  8
SANINDUSA
100
AcDbCircle
 10
1272.721580930876
 20
1712.436896709184
 30
0.0
 40
0.0049999999999999
100
AcDbArc
 50
270.0
 51
349.999999998777
  0
ARC
  5
17E6
330
1F
100
AcDbEntity
  8
SANINDUSA
100
AcDbCircle
 10
1272.719971927188
 20
1712.436896709184
 30
0.0
 40
0.0050000000000001
100
AcDbArc
 50
190.000000001223
 51
270.0
  0
LINE
  5
17E7
330
1F
100
AcDbEntity
  8
SANINDUSA
100
AcDbLine
 10
1272.710395398205
 20
1712.462414051483
 30
0.0
 11
1272.715047888423
 21
1712.436028468295
 31
0.0
  0
LINE
  5
17E8
330
1F
100
AcDbEntity
  8
SANINDUSA
100
AcDbLine
 10
1272.720243475735
 20
1712.46415053326
 30
0.0
 11
1272.720284047816
 21
1712.463920437552
 31
0.0
  0
ARC
  5
17E9
330
1F
100
AcDbEntity
  8
SANINDUSA
100
AcDbCircle
 10
1272.70547135944
 20
1712.461545810594
 30
0.0
 40
0.0050000000000004
100
AcDbArc
 50
10.00000000122301
 51
89.500000000038
  0
ARC
  5
17EA
330
1F
100
AcDbEntity
  8
SANINDUSA
100
AcDbCircle
 10
1272.70547135944
 20
1712.461545810594
 30
0.0
 40
0.0150000000000004
100
AcDbArc
 50
10.00000000122301
 51
16.37726943903817
  0
ARC
  5
17EB
330
1F
100
AcDbEntity
  8
SANINDUSA
100
AcDbCircle
 10
1272.720342461052
 20
1712.46591620381
 30
0.0
 40
0.0005
100
AcDbArc
 50
89.500000000038
 51
196.3772694390381
  0
LINE
  5
17EC
330
1F
100
AcDbEntity
  8
SANINDUSA
100
AcDbLine
 10
1272.705514992117
 20
1712.46654562021
 30
0.0
 11
1272.661193332684
 21
1712.466932409472
 31
0.0
  0
ARC
  5
17ED
330
1F
100
AcDbEntity
  8
SANINDUSA
100
AcDbCircle
 10
1272.661149700006
 20
1712.461932599857
 30
0.0
 40
0.0049999999999998
100
AcDbArc
 50
89.500000000038
 51
169.999999998777
  0
ARC
  5
17EE
330
1F
100
AcDbEntity
  8
SANINDUSA
100
AcDbCircle
 10
1272.661149700006
 20
1712.461932599857
 30
0.0
 40
0.0149999999999998
100
AcDbArc
 50
162.6227305572922
 51
169.999999998777
  0
ARC
  5
17EF
330
1F
100
AcDbEntity
  8
SANINDUSA
100
AcDbCircle
 10
1272.646357137214
 20
1712.466561863949
 30
0.0
 40
0.0005
100
AcDbArc
 50
342.6227305572922
 51
89.500000000038
  0
LINE
  5
17F0
330
1F
100
AcDbEntity
  8
SANINDUSA
100
AcDbLine
 10
1272.651504969641
 20
1712.436028468295
 30
0.0
 11
1272.656225661241
 21
1712.462800840745
 31
0.0
  0
LINE
  5
17F1
330
1F
100
AcDbEntity
  8
SANINDUSA
100
AcDbLine
 10
1272.646268832908
 20
1712.46392056607
 30
0.0
 11
1272.646377583711
 21
1712.464537322522
 31
0.0
  0
ARC
  5
17F2
330
1F
100
AcDbEntity
  8
SANINDUSA
100
AcDbCircle
 10
1272.646580930876
 20
1712.436896709184
 30
0.0
 40
0.0050000000000001
100
AcDbArc
 50
270.0
 51
349.999999998777
  0
ARC
  5
17F3
330
1F
100
AcDbEntity
  8
SANINDUSA
100
AcDbCircle
 10
1272.644971927188
 20
1712.436896709184
 30
0.0
 40
0.0050000000000001
100
AcDbArc
 50
190.000000001223
 51
270.0
  0
LINE
  5
17F4
330
1F
100
AcDbEntity
  8
SANINDUSA
100
AcDbLine
 10
1272.635279811674
 20
1712.463069575276
 30
0.0
 11
1272.640047888423
 21
1712.436028468295
 31
0.0
  0
LINE
  5
17F5
330
1F
100
AcDbEntity
  8
SANINDUSA
100
AcDbLine
 10
1272.645127889204
 20
1712.464806057052
 30
0.0
 11
1272.645284025155
 21
1712.46392056607
 31
0.0
  0
ARC
  5
17F6
330
1F
100
AcDbEntity
  8
SANINDUSA
100
AcDbCircle
 10
1272.645776429032
 20
1712.464007390159
 30
0.0
 40
0.0005
100
AcDbArc
 50
190.000000001223
 51
349.999999998777
  0
ARC
  5
17F7
330
1F
100
AcDbEntity
  8
SANINDUSA
100
AcDbCircle
 10
1272.630355772909
 20
1712.462201334387
 30
0.0
 40
0.0050000000000001
100
AcDbArc
 50
10.00000000122301
 51
89.500000000038
  0
ARC
  5
17F8
330
1F
100
AcDbEntity
  8
SANINDUSA
100
AcDbCircle
 10
1272.630355772909
 20
1712.462201334387
 30
0.0
 40
0.0150000000000001
100
AcDbArc
 50
10.00000000122301
 51
16.37726943903817
  0
ARC
  5
17F9
330
1F
100
AcDbEntity
  8
SANINDUSA
100
AcDbCircle
 10
1272.64522687452
 20
1712.466571727603
 30
0.0
 40
0.0005
100
AcDbArc
 50
89.500000000038
 51
196.3772694390381
  0
LINE
  5
17FA
330
1F
100
AcDbEntity
  8
SANINDUSA
100
AcDbLine
 10
1272.034656415982
 20
1712.444896709184
 30
0.0
 11
1272.034656415982
 21
1712.538896709184
 31
0.0
  0
ARC
  5
17FB
330
1F
100
AcDbEntity
  8
SANINDUSA
100
AcDbCircle
 10
1272.035656415982
 20
1712.444896709184
 30
0.0
 40
0.001
100
AcDbArc
 50
180.0
 51
270.0
  0
LINE
  5
17FC
330
1F
100
AcDbEntity
  8
SANINDUSA
100
AcDbLine
 10
1272.200841175413
 20
1712.444793567076
 30
0.0
 11
1272.203437610376
 21
1712.469832683279
 31
0.0
  0
LINE
  5
17FD
330
1F
100
AcDbEntity
  8
SANINDUSA
100
AcDbLine
 10
1272.202451670281
 20
1712.47093578731
 30
0.0
 11
1272.199558256432
 21
1712.47096103775
 31
0.0
  0
ARC
  5
17FE
330
1F
100
AcDbEntity
  8
SANINDUSA
100
AcDbCircle
 10
1272.202442943746
 20
1712.469935825387
 30
0.0
 40
0.001
100
AcDbArc
 50
354.0798640465884
 51
89.500000000038
  0
LINE
  5
17FF
330
1F
100
AcDbEntity
  8
SANINDUSA
100
AcDbLine
 10
1272.195689041123
 20
1712.471139938804
 30
0.0
 11
1272.199558256432
 21
1712.47096103775
 31
0.0
  0
LWPOLYLINE
  5
1800
330
1F
100
AcDbEntity
  8
SANINDUSA
100
AcDbPolyline
 90
        9
 70
   128
 43
0.0
 10
1272.160503478425
 20
1712.500996813951
 10
1272.162045300487
 20
1712.495655230905
 10
1272.164395156502
 20
1712.490615817386
 10
1272.167762119754
 20
1712.485659671038
 10
1272.171877643431
 20
1712.481303170275
 10
1272.176845812409
 20
1712.477505108998
 10
1272.182350262724
 20
1712.474533837679
 10
1272.188878469358
 20
1712.47228448647
 10
1272.195689041123
 20
1712.471139938804
  0
LWPOLYLINE
  5
1802
330
1F
100
AcDbEntity
  8
SANINDUSA
100
AcDbPolyline
 90
        3
 70
   128
 43
0.0
 10
1272.153188935323
 20
1712.536847218081
 10
1272.156843870215
 20
1712.518924968063
 10
1272.160502133634
 20
1712.501003396521
  0
LWPOLYLINE
  5
1803
330
1F
100
AcDbEntity
  8
SANINDUSA
100
AcDbPolyline
 90
       11
 70
   128
 43
0.0
 10
1272.14669630283
 20
1712.539895779276
 10
1272.146704023261
 20
1712.539895543484
 10
1272.146734903216
 20
1712.539894543293
 10
1272.146858392405
 20
1712.539889637793
 10
1272.147351694237
 20
1712.539855648822
 10
1272.149303920365
 20
1712.539492133313
 10
1272.150794836856
 20
1712.538942573239
 10
1272.152143019166
 20
1712.538116050848
 10
1272.152756363146
 20
1712.537520806856
 10
1272.153085691355
 20
1712.537039882978
 10
1272.153182250382
 20
1712.536795072017
  0
LINE
  5
1804
330
1F
100
AcDbEntity
  8
SANINDUSA
100
AcDbLine
 10
1272.035656415982
 20
1712.539896709184
 30
0.0
 11
1272.146739457389
 21
1712.539896709184
 31
0.0
  0
ARC
  5
1805
330
1F
100
AcDbEntity
  8
SANINDUSA
100
AcDbCircle
 10
1272.035656415982
 20
1712.538896709184
 30
0.0
 40
0.001
100
AcDbArc
 50
90.0
 51
180.0
  0
LINE
  5
1806
330
1F
100
AcDbEntity
  8
SANINDUSA
100
AcDbLine
 10
1272.199846508783
 20
1712.443896709184
 30
0.0
 11
1272.035656415982
 21
1712.443896709184
 31
0.0
  0
ARC
  5
1807
330
1F
100
AcDbEntity
  8
SANINDUSA
100
AcDbCircle
 10
1272.199846508783
 20
1712.444896709184
 30
0.0
 40
0.001
100
AcDbArc
 50
270.0
 51
354.0798640465884
  0
LINE
  5
1808
330
1F
100
AcDbEntity
  8
SANINDUSA
100
AcDbLine
 10
1272.024756921045
 20
1712.551896709184
 30
0.0
 11
1272.146608567447
 21
1712.551896709184
 31
0.0
  0
LINE
  5
1809
330
1F
100
AcDbEntity
  8
SANINDUSA
100
AcDbLine
 10
1272.269971927188
 20
1712.431896709184
 30
0.0
 11
1272.271580930876
 21
1712.431896709184
 31
0.0
  0
LINE
  5
180A
330
1F
100
AcDbEntity
  8
SANINDUSA
100
AcDbLine
 10
1272.344971927188
 20
1712.431896709184
 30
0.0
 11
1272.346580930876
 21
1712.431896709184
 31
0.0
  0
LINE
  5
180B
330
1F
100
AcDbEntity
  8
SANINDUSA
100
AcDbLine
 10
1272.419971927188
 20
1712.431896709184
 30
0.0
 11
1272.421580930876
 21
1712.431896709184
 31
0.0
  0
LINE
  5
180C
330
1F
100
AcDbEntity
  8
SANINDUSA
100
AcDbLine
 10
1272.494971927187
 20
1712.431896709184
 30
0.0
 11
1272.496580930876
 21
1712.431896709184
 31
0.0
  0
LINE
  5
180D
330
1F
100
AcDbEntity
  8
SANINDUSA
100
AcDbLine
 10
1272.569971927187
 20
1712.431896709184
 30
0.0
 11
1272.571580930876
 21
1712.431896709184
 31
0.0
  0
LINE
  5
180E
330
1F
100
AcDbEntity
  8
SANINDUSA
100
AcDbLine
 10
1272.644971927188
 20
1712.431896709184
 30
0.0
 11
1272.646580930876
 21
1712.431896709184
 31
0.0
  0
LINE
  5
180F
330
1F
100
AcDbEntity
  8
SANINDUSA
100
AcDbLine
 10
1272.719971927188
 20
1712.431896709184
 30
0.0
 11
1272.721580930876
 21
1712.431896709184
 31
0.0
  0
LINE
  5
1810
330
1F
100
AcDbEntity
  8
SANINDUSA
100
AcDbLine
 10
1272.020670347698
 20
1712.431896709184
 30
0.0
 11
1272.207769886533
 21
1712.431896709184
 31
0.0
  0
LINE
  5
1812
330
1F
100
AcDbEntity
  8
SANINDUSA
100
AcDbLine
 10
1272.957902747136
 20
1712.473383559073
 30
0.0
 11
1272.952255214164
 21
1712.467785099678
 31
0.0
  0
ARC
  5
1813
330
1F
100
AcDbEntity
  8
SANINDUSA
100
AcDbCircle
 10
1272.955775286724
 20
1712.464234171746
 30
0.0
 40
0.005
100
AcDbArc
 50
134.7499828550491
 51
180.0
  0
ARC
  5
1814
330
1F
100
AcDbEntity
  8
SANINDUSA
100
AcDbCircle
 10
1272.964942892697
 20
1712.466281702714
 30
0.0
 40
0.0100000006636475
100
AcDbArc
 50
89.49999994792978
 51
134.7499826155428
  0
ARC
  5
1815
330
1F
100
AcDbEntity
  8
SANINDUSA
100
AcDbCircle
 10
1272.993935258659
 20
1712.501038499521
 30
0.0
 40
0.0250084766517864
100
AcDbArc
 50
269.5164386012935
 51
349.9835613568465
  0
LINE
  5
1816
330
1F
100
AcDbEntity
  8
SANINDUSA
100
AcDbLine
 10
1273.018562553392
 20
1712.496688757165
 30
0.0
 11
1273.026111583061
 21
1712.539501431849
 31
0.0
  0
ARC
  5
1817
330
1F
100
AcDbEntity
  8
SANINDUSA
100
AcDbCircle
 10
1273.040887940037
 20
1712.536891655337
 30
0.0
 40
0.0150050544464735
100
AcDbArc
 50
90.0161927131929
 51
169.9838072481053
  0
ARC
  5
1818
330
1F
100
AcDbEntity
  8
SANINDUSA
100
AcDbCircle
 10
1273.07338371861
 20
1712.546896709181
 30
0.0
 40
0.0050000000022852
100
AcDbArc
 50
1.000000022973011
 51
90.00000001302757
  0
LINE
  5
1819
330
1F
100
AcDbEntity
  8
SANINDUSA
100
AcDbLine
 10
1273.078382957088
 20
1712.546983971216
 30
0.0
 11
1273.080356293325
 21
1712.433931613996
 31
0.0
  0
ARC
  5
181A
330
1F
100
AcDbEntity
  8
SANINDUSA
100
AcDbCircle
 10
1273.078356597934
 20
1712.433896709185
 30
0.0
 40
0.002000000000639
100
AcDbArc
 50
269.9999999869724
 51
0.9999999838963075
  0
ARC
  5
181B
330
1F
100
AcDbEntity
  8
SANINDUSA
100
AcDbCircle
 10
1272.988201133596
 20
1712.436896709188
 30
0.0
 40
0.0050000000038545
100
AcDbArc
 50
185.000000035225
 51
270.0000000130275
  0
LINE
  5
181C
330
1F
100
AcDbEntity
  8
SANINDUSA
100
AcDbLine
 10
1272.98119410365
 20
1712.45961886167
 30
0.0
 11
1272.983220160102
 21
1712.43646093047
 31
0.0
  0
ARC
  5
181D
330
1F
100
AcDbEntity
  8
SANINDUSA
100
AcDbCircle
 10
1272.976213130156
 20
1712.459183082953
 30
0.0
 40
0.0050000000037959
100
AcDbArc
 50
5.000000035225051
 51
89.50000001306506
  0
ARC
  5
181E
330
1F
100
AcDbEntity
  8
SANINDUSA
100
AcDbCircle
 10
1272.967036719033
 20
1712.459263164283
 30
0.0
 40
0.0049999999999998
100
AcDbArc
 50
89.500000000038
 51
177.9999999962464
  0
LINE
  5
181F
330
1F
100
AcDbEntity
  8
SANINDUSA
100
AcDbLine
 10
1272.961843833136
 20
1712.453826910191
 30
0.0
 11
1272.962039764898
 21
1712.459437661766
 31
0.0
  0
ARC
  5
1820
330
1F
100
AcDbEntity
  8
SANINDUSA
100
AcDbCircle
 10
1272.959845051482
 20
1712.453896709184
 30
0.0
 40
0.0020000000000001
100
AcDbArc
 50
270.0
 51
357.9999999962464
  0
LINE
  5
1821
330
1F
100
AcDbEntity
  8
SANINDUSA
100
AcDbLine
 10
1272.952775286724
 20
1712.451896709184
 30
0.0
 11
1272.959845051482
 21
1712.451896709184
 31
0.0
  0
ARC
  5
1822
330
1F
100
AcDbEntity
  8
SANINDUSA
100
AcDbCircle
 10
1272.952775286724
 20
1712.453896709184
 30
0.0
 40
0.0020000000000004
100
AcDbArc
 50
180.0
 51
270.0
  0
LINE
  5
1823
330
1F
100
AcDbEntity
  8
SANINDUSA
100
AcDbLine
 10
1272.950775286723
 20
1712.453896709184
 30
0.0
 11
1272.950775286723
 21
1712.464234171746
 31
0.0
  0
LINE
  5
1824
330
1F
100
AcDbEntity
  8
SANINDUSA
100
AcDbLine
 10
1273.030380246437
 20
1712.494604979033
 30
0.0
 11
1273.037929276106
 21
1712.537417653717
 31
0.0
  0
ARC
  5
1825
330
1F
100
AcDbEntity
  8
SANINDUSA
100
AcDbCircle
 10
1272.993931850233
 20
1712.501042597719
 30
0.0
 40
0.0370125454438141
100
AcDbArc
 50
269.5164386012935
 51
349.9835613568465
  0
LINE
  5
1826
330
1F
100
AcDbEntity
  8
SANINDUSA
100
AcDbLine
 10
1272.990940089551
 20
1712.46295886564
 30
0.0
 11
1272.99252794862
 21
1712.444809553441
 31
0.0
  0
LINE
  5
1827
330
1F
100
AcDbEntity
  8
SANINDUSA
100
AcDbLine
 10
1273.066521988195
 20
1712.53891416159
 30
0.0
 11
1273.068162764299
 21
1712.44491416159
 31
0.0
  0
ARC
  5
1828
330
1F
100
AcDbEntity
  8
SANINDUSA
100
AcDbCircle
 10
1273.067162916604
 20
1712.444896709184
 30
0.0
 40
0.001
100
AcDbArc
 50
270.0
 51
0.9999999969218754
  0
ARC
  5
1829
330
1F
100
AcDbEntity
  8
SANINDUSA
100
AcDbCircle
 10
1273.040883699366
 20
1712.536896709182
 30
0.0
 40
0.0030000000015279
100
AcDbArc
 50
89.99999998697246
 51
169.9999999731177
  0
LINE
  5
182A
330
1F
100
AcDbEntity
  8
SANINDUSA
100
AcDbLine
 10
1272.976256762832
 20
1712.464182892572
 30
0.0
 11
1272.967080351711
 21
1712.464262973898
 31
0.0
  0
LINE
  5
182B
330
1F
100
AcDbEntity
  8
SANINDUSA
100
AcDbLine
 10
1272.993619477732
 20
1712.464031370454
 30
0.0
 11
1272.991945010784
 21
1712.464045983306
 31
0.0
  0
ARC
  5
182C
330
1F
100
AcDbEntity
  8
SANINDUSA
100
AcDbCircle
 10
1272.991936284249
 20
1712.463046021383
 30
0.0
 40
0.001
100
AcDbArc
 50
89.500000000038
 51
185.0000000092691
  0
LINE
  5
182D
330
1F
100
AcDbEntity
  8
SANINDUSA
100
AcDbLine
 10
1272.993724196158
 20
1712.476030913531
 30
0.0
 11
1272.965030158066
 21
1712.476281322608
 31
0.0
  0
LINE
  5
182E
330
1F
100
AcDbEntity
  8
SANINDUSA
100
AcDbLine
 10
1273.040883699367
 20
1712.539896709184
 30
0.0
 11
1273.0655221405
 21
1712.539896709184
 31
0.0
  0
ARC
  5
182F
330
1F
100
AcDbEntity
  8
SANINDUSA
100
AcDbCircle
 10
1273.0655221405
 20
1712.538896709184
 30
0.0
 40
0.001
100
AcDbArc
 50
0.9999999969218754
 51
90.0
  0
LINE
  5
1830
330
1F
100
AcDbEntity
  8
SANINDUSA
100
AcDbLine
 10
1273.067162916604
 20
1712.443896709184
 30
0.0
 11
1272.993524143318
 21
1712.443896709184
 31
0.0
  0
ARC
  5
1831
330
1F
100
AcDbEntity
  8
SANINDUSA
100
AcDbCircle
 10
1272.993524143318
 20
1712.444896709184
 30
0.0
 40
0.001
100
AcDbArc
 50
185.0000000092691
 51
270.0
  0
LINE
  5
1832
330
1F
100
AcDbEntity
  8
SANINDUSA
100
AcDbLine
 10
1273.040883699367
 20
1712.551896709184
 30
0.0
 11
1273.073383718609
 21
1712.551896709184
 31
0.0
  0
LINE
  5
1833
330
1F
100
AcDbEntity
  8
SANINDUSA
100
AcDbLine
 10
1272.988201133597
 20
1712.431896709184
 30
0.0
 11
1273.078356597933
 21
1712.431896709184
 31
0.0
  0
LINE
  5
183D
330
1F
100
AcDbEntity
  8
SANINDUSA
100
AcDbLine
 10
1272.876748405905
 20
1712.477051745787
 30
0.0
 11
1272.965030158066
 21
1712.476281322608
 31
0.0
  0
LINE
  5
1846
330
1F
100
AcDbEntity
  8
SANINDUSA
100
AcDbLine
 10
1272.952775286724
 20
1712.451896709184
 30
0.0
 11
1272.88877757134
 21
1712.451896709184
 31
0.0
  0
LINE
  5
185E
330
1F
100
AcDbEntity
  8
SANINDUSA
100
AcDbLine
 10
1272.930886867348
 20
1712.431896709184
 30
0.0
 11
1272.721580930876
 21
1712.431896709184
 31
0.0
  0
LINE
  5
1860
330
1F
100
AcDbEntity
  8
SANINDUSA
100
AcDbLine
 10
1272.876618291883
 20
1712.551896709184
 30
0.0
 11
1273.040883699367
 21
1712.551896709184
 31
0.0
  0
LINE
  5
1862
330
1F
100
AcDbEntity
  8
SANINDUSA
100
AcDbLine
 10
1272.146608567447
 20
1712.551896709184
 30
0.0
 11
1272.651266004292
 21
1712.551896709184
 31
0.0
  0
LINE
  5
1868
330
1F
100
AcDbEntity
  8
SANINDUSA
100
AcDbLine
 10
1272.209645687408
 20
1712.431896709184
 30
0.0
 11
1272.208119886533
 21
1712.431896709184
 31
0.0
  0
LINE
  5
186D
330
1F
100
AcDbEntity
  8
SANINDUSA
100
AcDbLine
 10
1272.988201133597
 20
1712.431896709184
 30
0.0
 11
1272.97635188867
 21
1712.431896709184
 31
0.0
  0
LINE
  5
1876
330
1F
100
AcDbEntity
  8
SANINDUSA
100
AcDbLine
 10
1272.644971927188
 20
1712.431896709184
 30
0.0
 11
1272.571580930876
 21
1712.431896709184
 31
0.0
  0
LINE
  5
1877
330
1F
100
AcDbEntity
  8
SANINDUSA
100
AcDbLine
 10
1272.569971927187
 20
1712.431896709184
 30
0.0
 11
1272.496580930876
 21
1712.431896709184
 31
0.0
  0
LINE
  5
1879
330
1F
100
AcDbEntity
  8
SANINDUSA
100
AcDbLine
 10
1272.413240265254
 20
1712.431896709184
 30
0.0
 11
1272.346580930876
 21
1712.431896709184
 31
0.0
  0
LINE
  5
187B
330
1F
100
AcDbEntity
  8
SANINDUSA
100
AcDbLine
 10
1272.281683122401
 20
1712.431896709184
 30
0.0
 11
1272.271580930876
 21
1712.431896709184
 31
0.0
  0
LINE
  5
187C
330
1F
100
AcDbEntity
  8
SANINDUSA
100
AcDbLine
 10
1272.719971927188
 20
1712.431896709184
 30
0.0
 11
1272.646580930876
 21
1712.431896709184
 31
0.0
  0
LINE
  5
187D
330
1F
100
AcDbEntity
  8
SANINDUSA
100
AcDbLine
 10
1272.494971927187
 20
1712.431896709184
 30
0.0
 11
1272.421580930876
 21
1712.431896709184
 31
0.0
  0
LINE
  5
188C
330
1F
100
AcDbEntity
  8
SANINDUSA
100
AcDbLine
 10
1272.256449636892
 20
1712.431896709184
 30
0.0
 11
1272.209645687408
 21
1712.431896709184
 31
0.0
  0
LINE
  5
18C7
330
1F
100
AcDbEntity
  8
SANINDUSA
100
AcDbLine
 10
1272.269796907188
 20
1712.431896709184
 30
0.0
 11
1272.256449636892
 21
1712.431896709184
 31
0.0
  0
LINE
  5
18D3
330
1F
100
AcDbEntity
  8
SANINDUSA
100
AcDbLine
 10
1272.97635188867
 20
1712.431896709184
 30
0.0
 11
1272.971870328863
 21
1712.431896709184
 31
0.0
  0
LINE
  5
18E6
330
1F
100
AcDbEntity
  8
SANINDUSA
100
AcDbLine
 10
1272.971870328863
 20
1712.431896709184
 30
0.0
 11
1272.967503357519
 21
1712.431896709184
 31
0.0
  0
LINE
  5
18ED
330
1F
100
AcDbEntity
  8
SANINDUSA
100
AcDbLine
 10
1272.288322078731
 20
1712.431896709184
 30
0.0
 11
1272.281683122401
 21
1712.431896709184
 31
0.0
  0
LINE
  5
18F6
330
1F
100
AcDbEntity
  8
SANINDUSA
100
AcDbLine
 10
1272.344796907187
 20
1712.431896709184
 30
0.0
 11
1272.288322078731
 21
1712.431896709184
 31
0.0
  0
LINE
  5
18FB
330
1F
100
AcDbEntity
  8
SANINDUSA
100
AcDbLine
 10
1272.967738474618
 20
1712.431896709184
 30
0.0
 11
1272.942995864714
 21
1712.431896709184
 31
0.0
  0
LINE
  5
191E
330
1F
100
AcDbEntity
  8
SANINDUSA
100
AcDbLine
 10
1272.942995864714
 20
1712.431896709184
 30
0.0
 11
1272.930886867348
 21
1712.431896709184
 31
0.0
  0
LINE
  5
1947
330
1F
100
AcDbEntity
  8
SANINDUSA
100
AcDbLine
 10
1272.651266004292
 20
1712.551896709184
 30
0.0
 11
1272.876618291883
 21
1712.551896709184
 31
0.0
  0
LINE
  5
194F
330
1F
100
AcDbEntity
  8
SANINDUSA
100
AcDbLine
 10
1272.796131010511
 20
1712.465754728764
 30
0.0
 11
1272.795462441463
 21
1712.46576056748
 31
0.0
  0
LINE
  5
1950
330
1F
100
AcDbEntity
  8
SANINDUSA
100
AcDbLine
 10
1272.721246269129
 20
1712.466408335435
 30
0.0
 11
1272.720346824319
 21
1712.466416184771
 31
0.0
  0
LINE
  5
1951
330
1F
100
AcDbEntity
  8
SANINDUSA
100
AcDbLine
 10
1272.646361500482
 20
1712.467061844911
 30
0.0
 11
1272.645231237788
 21
1712.467071708564
 31
0.0
  0
LINE
  5
1952
330
1F
100
AcDbEntity
  8
SANINDUSA
100
AcDbLine
 10
1272.57147670385
 20
1712.467715255118
 30
0.0
 11
1272.570115681185
 21
1712.467727140947
 31
0.0
  0
LINE
  5
1953
330
1F
100
AcDbEntity
  8
SANINDUSA
100
AcDbLine
 10
1272.49659193497
 20
1712.468368763924
 30
0.0
 11
1272.495000094432
 21
1712.468382665416
 31
0.0
  0
LINE
  5
1954
330
1F
100
AcDbEntity
  8
SANINDUSA
100
AcDbLine
 10
1272.42170719454
 20
1712.469022373338
 30
0.0
 11
1272.419884478195
 21
1712.469038279942
 31
0.0
  0
LINE
  5
1955
330
1F
100
AcDbEntity
  8
SANINDUSA
100
AcDbLine
 10
1272.346822397221
 20
1712.469675781564
 30
0.0
 11
1272.344768920937
 21
1712.469693714324
 31
0.0
  0
LINE
  5
1956
330
1F
100
AcDbEntity
  8
SANINDUSA
100
AcDbLine
 10
1272.271937657245
 20
1712.470329392289
 30
0.0
 11
1272.269653305132
 21
1712.470349327527
 31
0.0
  0
ARC
  5
1957
330
1F
100
AcDbEntity
  8
SANINDUSA
100
AcDbCircle
 10
1272.720776451693
 20
1712.464007261641
 30
0.0
 40
0.0005
100
AcDbArc
 50
190.000000001223
 51
349.8624997263697
  0
ARC
  5
1958
330
1F
100
AcDbEntity
  8
SANINDUSA
100
AcDbCircle
 10
1272.795780989959
 20
1712.463954765105
 30
0.0
 40
0.0005
100
AcDbArc
 50
191.4029772472539
 51
347.5970227612312
  0
CIRCLE
  5
1959
330
1F
100
AcDbEntity
  8
SANINDUSA
100
AcDbCircle
 10
1269.339687552368
 20
1712.614252519806
 30
0.0
 40
0.03
  0
ARC
  5
1BFE
330
1F
100
AcDbEntity
  8
SANINDUSA
100
AcDbCircle
 10
1271.741090192858
 20
1712.546896709184
 30
0.0
 40
0.0050000000000001
100
AcDbArc
 50
0.9999999969218754
 51
90.0
  0
LINE
  5
1C01
330
1F
100
AcDbEntity
  8
SANINDUSA
100
AcDbLine
 10
1270.855106381072
 20
1712.551896709184
 30
0.0
 11
1271.741090192858
 21
1712.551896709184
 31
0.0
  0
LINE
  5
1C04
330
1F
100
AcDbEntity
  8
SANINDUSA
100
AcDbLine
 10
1271.743062615194
 20
1712.431896709184
 30
0.0
 11
1270.853133958735
 21
1712.431896709184
 31
0.0
  0
LINE
  5
1C08
330
1F
100
AcDbEntity
  8
SANINDUSA
100
AcDbLine
 10
1271.746089431333
 20
1712.546983971216
 30
0.0
 11
1271.748062767569
 21
1712.433931613996
 31
0.0
  0
LINE
  5
1C0B
330
1F
100
AcDbEntity
  8
SANINDUSA
100
AcDbLine
 10
1270.853133958735
 20
1712.431896709184
 30
0.0
 11
1270.850133501751
 21
1712.431896709184
 31
0.0
  0
ARC
  5
1C0C
330
1F
100
AcDbEntity
  8
SANINDUSA
100
AcDbCircle
 10
1270.850133501751
 20
1712.433896709184
 30
0.0
 40
0.002
100
AcDbArc
 50
179.0000000030781
 51
270.0
  0
ARC
  5
1C0F
330
1F
100
AcDbEntity
  8
SANINDUSA
100
AcDbCircle
 10
1270.855106381072
 20
1712.546896709184
 30
0.0
 40
0.0050000000000001
100
AcDbArc
 50
90.0
 51
179.0000000030781
  0
LINE
  5
1C10
330
1F
100
AcDbEntity
  8
SANINDUSA
100
AcDbLine
 10
1271.746063072179
 20
1712.431896709184
 30
0.0
 11
1271.743062615194
 21
1712.431896709184
 31
0.0
  0
ARC
  5
1C11
330
1F
100
AcDbEntity
  8
SANINDUSA
100
AcDbCircle
 10
1271.746063072179
 20
1712.433896709184
 30
0.0
 40
0.002
100
AcDbArc
 50
270.0
 51
0.9999999969218754
  0
LINE
  5
1C13
330
1F
100
AcDbEntity
  8
SANINDUSA
100
AcDbLine
 10
1270.84813380636
 20
1712.433931613996
 30
0.0
 11
1270.850107142596
 21
1712.546983971216
 31
0.0
  0
ENDSEC
  0
SECTION
  2
OBJECTS
  0
DICTIONARY
  5
C
330
0
100
AcDbDictionary
281
     1
  3
ACAD_COLOR
350
BA9
  3
ACAD_GROUP
350
D
  3
ACAD_LAYOUT
350
1A
  3
ACAD_MATERIAL
350
BA8
  3
ACAD_MLEADERSTYLE
350
1C60
  3
ACAD_MLINESTYLE
350
17
  3
ACAD_PLOTSETTINGS
350
19
  3
ACAD_PLOTSTYLENAME
350
E
  3
ACAD_SCALELIST
350
1C4E
  3
ACAD_TABLESTYLE
350
BAA
  3
ACAD_VISUALSTYLE
350
1C3A
  3
ACDB_RECOMPOSE_DATA
350
1C8C
  3
AcDbVariableDictionary
350
3D
  3
ASE_INDEX_DICTIONARY
350
1C14
  3
DWGPROPS
350
1C8D
  0
DICTIONARY
  5
1C67
330
10
100
AcDbDictionary
280
     1
281
     1
  3
ADSK_XREC_LAYER_RECONCILED
360
1C68
  0
DICTIONARY
  5
1C69
330
2F
100
AcDbDictionary
280
     1
281
     1
  3
ADSK_XREC_LAYER_RECONCILED
360
1C6A
  0
DICTIONARY
  5
1C6B
330
30
100
AcDbDictionary
280
     1
281
     1
  3
ADSK_XREC_LAYER_RECONCILED
360
1C6C
  0
DICTIONARY
  5
1C6D
330
31
100
AcDbDictionary
280
     1
281
     1
  3
ADSK_XREC_LAYER_RECONCILED
360
1C6E
  0
DICTIONARY
  5
1C6F
330
32
100
AcDbDictionary
280
     1
281
     1
  3
ADSK_XREC_LAYER_RECONCILED
360
1C70
  0
DICTIONARY
  5
1C71
330
33
100
AcDbDictionary
280
     1
281
     1
  3
ADSK_XREC_LAYER_RECONCILED
360
1C72
  0
DICTIONARY
  5
1C73
330
34
100
AcDbDictionary
280
     1
281
     1
  3
ADSK_XREC_LAYER_RECONCILED
360
1C74
  0
DICTIONARY
  5
1C75
330
35
100
AcDbDictionary
280
     1
281
     1
  3
ADSK_XREC_LAYER_RECONCILED
360
1C76
  0
DICTIONARY
  5
1C77
330
36
100
AcDbDictionary
280
     1
281
     1
  3
ADSK_XREC_LAYER_RECONCILED
360
1C78
  0
DICTIONARY
  5
1C79
330
37
100
AcDbDictionary
280
     1
281
     1
  3
ADSK_XREC_LAYER_RECONCILED
360
1C7A
  0
DICTIONARY
  5
1C7B
330
5D6
100
AcDbDictionary
280
     1
281
     1
  3
ADSK_XREC_LAYER_RECONCILED
360
1C7C
  0
DICTIONARY
  5
1C7D
330
8AF
100
AcDbDictionary
280
     1
281
     1
  3
ADSK_XREC_LAYER_RECONCILED
360
1C7E
  0
DICTIONARY
  5
1C7F
330
8F8
100
AcDbDictionary
280
     1
281
     1
  3
ADSK_XREC_LAYER_RECONCILED
360
1C80
  0
DICTIONARY
  5
1C81
330
91D
100
AcDbDictionary
280
     1
281
     1
  3
ADSK_XREC_LAYER_RECONCILED
360
1C82
  0
DICTIONARY
  5
1C83
330
BA5
100
AcDbDictionary
280
     1
281
     1
  3
ADSK_XREC_LAYER_RECONCILED
360
1C84
  0
DICTIONARY
  5
BA9
102
{ACAD_REACTORS
330
C
102
}
330
C
100
AcDbDictionary
281
     1
  0
DICTIONARY
  5
D
102
{ACAD_REACTORS
330
C
102
}
330
C
100
AcDbDictionary
281
     1
  0
DICTIONARY
  5
1A
102
{ACAD_REACTORS
330
C
102
}
330
C
100
AcDbDictionary
281
     1
  3
Layout1
350
1E
  3
Layout2
350
26
  3
Model
350
22
  0
DICTIONARY
  5
BA8
102
{ACAD_REACTORS
330
C
102
}
330
C
100
AcDbDictionary
281
     1
  3
ByBlock
350
1C2A
  3
ByLayer
350
1C22
  3
Global
350
1C32
  0
DICTIONARY
  5
1C60
102
{ACAD_REACTORS
330
C
102
}
330
C
100
AcDbDictionary
281
     1
  3
Standard
350
1C61
  0
DICTIONARY
  5
17
102
{ACAD_REACTORS
330
C
102
}
330
C
100
AcDbDictionary
281
     1
  3
Standard
350
18
  0
DICTIONARY
  5
19
102
{ACAD_REACTORS
330
C
102
}
330
C
100
AcDbDictionary
281
     1
  0
ACDBDICTIONARYWDFLT
  5
E
102
{ACAD_REACTORS
330
C
102
}
330
C
100
AcDbDictionary
281
     1
  3
Normal
350
F
100
AcDbDictionaryWithDefault
340
F
  0
DICTIONARY
  5
1C4E
102
{ACAD_REACTORS
330
C
102
}
330
C
100
AcDbDictionary
281
     1
  3
A0
350
1C4F
  3
A1
350
1C50
  3
A2
350
1C51
  3
A3
350
1C52
  3
A4
350
1C53
  3
A5
350
1C54
  3
A6
350
1C55
  3
A7
350
1C56
  3
A8
350
1C57
  3
A9
350
1C58
  3
B0
350
1C59
  3
B1
350
1C5A
  3
B2
350
1C5B
  3
B3
350
1C5C
  3
B4
350
1C5D
  3
B5
350
1C5E
  3
B6
350
1C5F
  0
DICTIONARY
  5
BAA
102
{ACAD_REACTORS
330
C
102
}
330
C
100
AcDbDictionary
281
     1
  3
Standard
350
BAB
  0
DICTIONARY
  5
1C3A
102
{ACAD_REACTORS
330
C
102
}
330
C
100
AcDbDictionary
281
     1
  3
2dWireframe
350
1C40
  3
3D Hidden
350
1C42
  3
3dWireframe
350
1C41
  3
Basic
350
1C3F
  3
Brighten
350
1C46
  3
ColorChange
350
1C4A
  3
Conceptual
350
1C43
  3
Dim
350
1C45
  3
EdgeColorOff
350
1C4D
  3
Facepattern
350
1C49
  3
Flat
350
1C3B
  3
FlatWithEdges
350
1C3C
  3
Gouraud
350
1C3D
  3
GouraudWithEdges
350
1C3E
  3
JitterOff
350
1C4B
  3
Linepattern
350
1C48
  3
OverhangOff
350
1C4C
  3
Realistic
350
1C44
  3
Thicken
350
1C47
  0
XRECORD
  5
1C8C
102
{ACAD_REACTORS
330
C
102
}
330
C
100
AcDbXrecord
280
     1
 90
        1
330
BAB
  0
DICTIONARY
  5
3D
102
{ACAD_REACTORS
330
C
102
}
330
C
100
AcDbDictionary
281
     1
  3
CANNOSCALE
350
1C86
  3
CMLEADERSTYLE
350
1C85
  3
CTABLESTYLE
350
1C17
  3
DIMASSOC
350
3F
  3
HIDETEXT
350
3E
  3
INDEXCTL
350
1C88
  3
PROJECTNAME
350
1C20
  3
SORTENTS
350
1C87
  3
XCLIPFRAME
350
1C89
  0
DICTIONARY
  5
1C14
102
{ACAD_REACTORS
330
C
102
}
330
C
100
AcDbDictionary
281
     1
  3
ASEBlockHierarchyIndexRecord
350
1C15
1001
DCO15
1040
1534162896.093
  0
XRECORD
  5
1C8D
102
{ACAD_REACTORS
330
C
102
}
330
C
100
AcDbXrecord
280
     1
  1
DWGPROPS COOKIE
  2

  3

  4

  6

  7

  8
Julio
  9

300
=
301
=
302
=
303
=
304
=
305
=
306
=
307
=
308
=
309
=
 40
0.0029367361111111
 41
2453559.724072442
 42
2456141.628432616
  1

 90
        0
  0
XRECORD
  5
1C68
102
{ACAD_REACTORS
330
1C67
102
}
330
1C67
100
AcDbXrecord
280
     1
290
     1
  0
XRECORD
  5
1C6A
102
{ACAD_REACTORS
330
1C69
102
}
330
1C69
100
AcDbXrecord
280
     1
290
     1
  0
XRECORD
  5
1C6C
102
{ACAD_REACTORS
330
1C6B
102
}
330
1C6B
100
AcDbXrecord
280
     1
290
     1
  0
XRECORD
  5
1C6E
102
{ACAD_REACTORS
330
1C6D
102
}
330
1C6D
100
AcDbXrecord
280
     1
290
     1
  0
XRECORD
  5
1C70
102
{ACAD_REACTORS
330
1C6F
102
}
330
1C6F
100
AcDbXrecord
280
     1
290
     1
  0
XRECORD
  5
1C72
102
{ACAD_REACTORS
330
1C71
102
}
330
1C71
100
AcDbXrecord
280
     1
290
     1
  0
XRECORD
  5
1C74
102
{ACAD_REACTORS
330
1C73
102
}
330
1C73
100
AcDbXrecord
280
     1
290
     1
  0
XRECORD
  5
1C76
102
{ACAD_REACTORS
330
1C75
102
}
330
1C75
100
AcDbXrecord
280
     1
290
     1
  0
XRECORD
  5
1C78
102
{ACAD_REACTORS
330
1C77
102
}
330
1C77
100
AcDbXrecord
280
     1
290
     1
  0
XRECORD
  5
1C7A
102
{ACAD_REACTORS
330
1C79
102
}
330
1C79
100
AcDbXrecord
280
     1
290
     1
  0
XRECORD
  5
1C7C
102
{ACAD_REACTORS
330
1C7B
102
}
330
1C7B
100
AcDbXrecord
280
     1
290
     1
  0
XRECORD
  5
1C7E
102
{ACAD_REACTORS
330
1C7D
102
}
330
1C7D
100
AcDbXrecord
280
     1
290
     1
  0
XRECORD
  5
1C80
102
{ACAD_REACTORS
330
1C7F
102
}
330
1C7F
100
AcDbXrecord
280
     1
290
     1
  0
XRECORD
  5
1C82
102
{ACAD_REACTORS
330
1C81
102
}
330
1C81
100
AcDbXrecord
280
     1
290
     1
  0
XRECORD
  5
1C84
102
{ACAD_REACTORS
330
1C83
102
}
330
1C83
100
AcDbXrecord
280
     1
290
     1
  0
LAYOUT
  5
1E
102
{ACAD_XDICTIONARY
360
1C8E
102
}
102
{ACAD_REACTORS
330
1A
102
}
330
1A
100
AcDbPlotSettings
  1

  2
Ploter HP500
  4

  6

 40
0.0
 41
0.0
 42
0.0
 43
0.0
 44
0.0
 45
0.0
 46
0.0
 47
0.0
 48
0.0
 49
0.0
140
0.0
141
0.0
142
1.0
143
1.0
 70
   688
 72
     0
 73
     0
 74
     5
  7
monochrome.ctb
 75
    16
147
1.0
148
0.0
149
0.0
100
AcDbLayout
  1
Layout1
 70
     1
 71
     1
 10
0.0
 20
0.0
 11
420.0
 21
297.0
 12
0.0
 22
0.0
 32
0.0
 14
1.000000000000000E+20
 24
1.000000000000000E+20
 34
1.000000000000000E+20
 15
-1.000000000000000E+20
 25
-1.000000000000000E+20
 35
-1.000000000000000E+20
146
0.0
 13
0.0
 23
0.0
 33
0.0
 16
1.0
 26
0.0
 36
0.0
 17
0.0
 27
1.0
 37
0.0
 76
     0
330
1B
  0
LAYOUT
  5
26
102
{ACAD_XDICTIONARY
360
1C92
102
}
102
{ACAD_REACTORS
330
1A
102
}
330
1A
100
AcDbPlotSettings
  1

  2
Ploter HP500
  4

  6

 40
0.0
 41
0.0
 42
0.0
 43
0.0
 44
0.0
 45
0.0
 46
0.0
 47
0.0
 48
0.0
 49
0.0
140
0.0
141
0.0
142
1.0
143
1.0
 70
   688
 72
     0
 73
     0
 74
     5
  7
monochrome.ctb
 75
    16
147
1.0
148
0.0
149
0.0
100
AcDbLayout
  1
Layout2
 70
     1
 71
     2
 10
0.0
 20
0.0
 11
12.0
 21
9.0
 12
0.0
 22
0.0
 32
0.0
 14
0.0
 24
0.0
 34
0.0
 15
0.0
 25
0.0
 35
0.0
146
0.0
 13
0.0
 23
0.0
 33
0.0
 16
1.0
 26
0.0
 36
0.0
 17
0.0
 27
1.0
 37
0.0
 76
     0
330
23
  0
LAYOUT
  5
22
102
{ACAD_XDICTIONARY
360
1C90
102
}
102
{ACAD_REACTORS
330
1A
102
}
330
1A
100
AcDbPlotSettings
  1

  2
Ploter HP500
  4
User268
  6

 40
4.995333194732666
 41
16.97565841674804
 42
4.995330810546875
 43
16.97567749023437
 44
209.9733276367187
 45
296.9259948730469
 46
0.0
 47
0.0
 48
0.0
 49
0.0
140
0.0
141
0.0
142
1.0
143
1.0
 70
 11952
 72
     1
 73
     1
 74
     0
  7

 75
     0
147
1.0
148
-427.5957866592534
149
7.362384574453926
100
AcDbLayout
  1
Model
 70
     1
 71
     0
 10
0.0
 20
0.0
 11
12.0
 21
9.0
 12
0.0
 22
0.0
 32
0.0
 14
0.0
 24
0.0
 34
0.0
 15
0.0
 25
0.0
 35
0.0
146
0.0
 13
0.0
 23
0.0
 33
0.0
 16
1.0
 26
0.0
 36
0.0
 17
0.0
 27
1.0
 37
0.0
 76
     0
330
1F
331
1C18
  0
MATERIAL
  5
1C2A
102
{ACAD_XDICTIONARY
360
1C2B
102
}
102
{ACAD_REACTORS
330
BA8
102
}
330
BA8
100
AcDbMaterial
  1
ByBlock
 72
     0
 43
0.0008202099737533
 43
0.0
 43
0.0
 43
0.0
 43
0.0
 43
0.0008202099737533
 43
0.0
 43
0.0
 43
0.0
 43
0.0
 43
1.0
 43
0.0
 43
0.0
 43
0.0
 43
0.0
 43
1.0
 77
     0
 47
0.0008202099737533
 47
0.0
 47
0.0
 47
0.0
 47
0.0
 47
0.0008202099737533
 47
0.0
 47
0.0
 47
0.0
 47
0.0
 47
1.0
 47
0.0
 47
0.0
 47
0.0
 47
0.0
 47
1.0
171
     0
 49
0.0008202099737533
 49
0.0
 49
0.0
 49
0.0
 49
0.0
 49
0.0008202099737533
 49
0.0
 49
0.0
 49
0.0
 49
0.0
 49
1.0
 49
0.0
 49
0.0
 49
0.0
 49
0.0
 49
1.0
175
     0
142
0.0008202099737533
142
0.0
142
0.0
142
0.0
142
0.0
142
0.0008202099737533
142
0.0
142
0.0
142
0.0
142
0.0
142
1.0
142
0.0
142
0.0
142
0.0
142
0.0
142
1.0
179
     0
144
0.0008202099737533
144
0.0
144
0.0
144
0.0
144
0.0
144
0.0008202099737533
144
0.0
144
0.0
144
0.0
144
0.0
144
1.0
144
0.0
144
0.0
144
0.0
144
0.0
144
1.0
147
0.0008202099737533
147
0.0
147
0.0
147
0.0
147
0.0
147
0.0008202099737533
147
0.0
147
0.0
147
0.0
147
0.0
147
1.0
147
0.0
147
0.0
147
0.0
147
0.0
147
1.0
  0
MATERIAL
  5
1C22
102
{ACAD_XDICTIONARY
360
1C23
102
}
102
{ACAD_REACTORS
330
BA8
102
}
330
BA8
100
AcDbMaterial
  1
ByLayer
 72
     0
 43
0.0008202099737533
 43
0.0
 43
0.0
 43
0.0
 43
0.0
 43
0.0008202099737533
 43
0.0
 43
0.0
 43
0.0
 43
0.0
 43
1.0
 43
0.0
 43
0.0
 43
0.0
 43
0.0
 43
1.0
 77
     0
 47
0.0008202099737533
 47
0.0
 47
0.0
 47
0.0
 47
0.0
 47
0.0008202099737533
 47
0.0
 47
0.0
 47
0.0
 47
0.0
 47
1.0
 47
0.0
 47
0.0
 47
0.0
 47
0.0
 47
1.0
171
     0
 49
0.0008202099737533
 49
0.0
 49
0.0
 49
0.0
 49
0.0
 49
0.0008202099737533
 49
0.0
 49
0.0
 49
0.0
 49
0.0
 49
1.0
 49
0.0
 49
0.0
 49
0.0
 49
0.0
 49
1.0
175
     0
142
0.0008202099737533
142
0.0
142
0.0
142
0.0
142
0.0
142
0.0008202099737533
142
0.0
142
0.0
142
0.0
142
0.0
142
1.0
142
0.0
142
0.0
142
0.0
142
0.0
142
1.0
179
     0
144
0.0008202099737533
144
0.0
144
0.0
144
0.0
144
0.0
144
0.0008202099737533
144
0.0
144
0.0
144
0.0
144
0.0
144
1.0
144
0.0
144
0.0
144
0.0
144
0.0
144
1.0
147
0.0008202099737533
147
0.0
147
0.0
147
0.0
147
0.0
147
0.0008202099737533
147
0.0
147
0.0
147
0.0
147
0.0
147
1.0
147
0.0
147
0.0
147
0.0
147
0.0
147
1.0
  0
MATERIAL
  5
1C32
102
{ACAD_XDICTIONARY
360
1C33
102
}
102
{ACAD_REACTORS
330
BA8
102
}
330
BA8
100
AcDbMaterial
  1
Global
 72
     0
 43
0.0008202099737533
 43
0.0
 43
0.0
 43
0.0
 43
0.0
 43
0.0008202099737533
 43
0.0
 43
0.0
 43
0.0
 43
0.0
 43
1.0
 43
0.0
 43
0.0
 43
0.0
 43
0.0
 43
1.0
 77
     0
 47
0.0008202099737533
 47
0.0
 47
0.0
 47
0.0
 47
0.0
 47
0.0008202099737533
 47
0.0
 47
0.0
 47
0.0
 47
0.0
 47
1.0
 47
0.0
 47
0.0
 47
0.0
 47
0.0
 47
1.0
171
     0
 49
0.0008202099737533
 49
0.0
 49
0.0
 49
0.0
 49
0.0
 49
0.0008202099737533
 49
0.0
 49
0.0
 49
0.0
 49
0.0
 49
1.0
 49
0.0
 49
0.0
 49
0.0
 49
0.0
 49
1.0
175
     0
142
0.0008202099737533
142
0.0
142
0.0
142
0.0
142
0.0
142
0.0008202099737533
142
0.0
142
0.0
142
0.0
142
0.0
142
1.0
142
0.0
142
0.0
142
0.0
142
0.0
142
1.0
179
     0
144
0.0008202099737533
144
0.0
144
0.0
144
0.0
144
0.0
144
0.0008202099737533
144
0.0
144
0.0
144
0.0
144
0.0
144
1.0
144
0.0
144
0.0
144
0.0
144
0.0
144
1.0
147
0.0008202099737533
147
0.0
147
0.0
147
0.0
147
0.0
147
0.0008202099737533
147
0.0
147
0.0
147
0.0
147
0.0
147
1.0
147
0.0
147
0.0
147
0.0
147
0.0
147
1.0
  0
MLEADERSTYLE
  5
1C61
102
{ACAD_REACTORS
330
1C60
102
}
330
1C60
100
AcDbMLeaderStyle
170
     2
171
     1
172
     0
 90
        2
 40
0.0
 41
0.0
173
     1
 91
-1056964608
340
14
 92
       -2
290
     1
 42
2.0
291
     1
 43
0.36
  3
Standard
 44
4.0
300

342
11
174
     1
178
     6
175
     1
176
     0
 93
-1056964608
 45
4.0
292
     0
297
     0
 46
4.0
 94
-1056964608
 47
1.0
 49
1.0
140
1.0
293
     1
141
0.0
294
     1
177
     0
142
1.0
295
     0
296
     0
143
0.125
1001
ACAD_MLEADERVER
1070
     2
  0
MLINESTYLE
  5
18
102
{ACAD_REACTORS
330
17
102
}
330
17
100
AcDbMlineStyle
  2
STANDARD
 70
     0
  3

 62
   256
 51
90.0
 52
90.0
 71
     2
 49
0.5
 62
   256
  6
BYLAYER
 49
-0.5
 62
   256
  6
BYLAYER
  0
ACDBPLACEHOLDER
  5
F
102
{ACAD_REACTORS
330
E
102
}
330
E
  0
SCALE
  5
1C4F
102
{ACAD_REACTORS
330
1C4E
102
}
330
1C4E
100
AcDbScale
 70
     0
300
1:1
140
1.0
141
1.0
290
     1
  0
SCALE
  5
1C50
102
{ACAD_REACTORS
330
1C4E
102
}
330
1C4E
100
AcDbScale
 70
     0
300
1:2
140
1.0
141
2.0
290
     0
  0
SCALE
  5
1C51
102
{ACAD_REACTORS
330
1C4E
102
}
330
1C4E
100
AcDbScale
 70
     0
300
1:4
140
1.0
141
4.0
290
     0
  0
SCALE
  5
1C52
102
{ACAD_REACTORS
330
1C4E
102
}
330
1C4E
100
AcDbScale
 70
     0
300
1:5
140
1.0
141
5.0
290
     0
  0
SCALE
  5
1C53
102
{ACAD_REACTORS
330
1C4E
102
}
330
1C4E
100
AcDbScale
 70
     0
300
1:8
140
1.0
141
8.0
290
     0
  0
SCALE
  5
1C54
102
{ACAD_REACTORS
330
1C4E
102
}
330
1C4E
100
AcDbScale
 70
     0
300
1:10
140
1.0
141
10.0
290
     0
  0
SCALE
  5
1C55
102
{ACAD_REACTORS
330
1C4E
102
}
330
1C4E
100
AcDbScale
 70
     0
300
1:16
140
1.0
141
16.0
290
     0
  0
SCALE
  5
1C56
102
{ACAD_REACTORS
330
1C4E
102
}
330
1C4E
100
AcDbScale
 70
     0
300
1:20
140
1.0
141
20.0
290
     0
  0
SCALE
  5
1C57
102
{ACAD_REACTORS
330
1C4E
102
}
330
1C4E
100
AcDbScale
 70
     0
300
1:30
140
1.0
141
30.0
290
     0
  0
SCALE
  5
1C58
102
{ACAD_REACTORS
330
1C4E
102
}
330
1C4E
100
AcDbScale
 70
     0
300
1:40
140
1.0
141
40.0
290
     0
  0
SCALE
  5
1C59
102
{ACAD_REACTORS
330
1C4E
102
}
330
1C4E
100
AcDbScale
 70
     0
300
1:50
140
1.0
141
50.0
290
     0
  0
SCALE
  5
1C5A
102
{ACAD_REACTORS
330
1C4E
102
}
330
1C4E
100
AcDbScale
 70
     0
300
1:100
140
1.0
141
100.0
290
     0
  0
SCALE
  5
1C5B
102
{ACAD_REACTORS
330
1C4E
102
}
330
1C4E
100
AcDbScale
 70
     0
300
2:1
140
2.0
141
1.0
290
     0
  0
SCALE
  5
1C5C
102
{ACAD_REACTORS
330
1C4E
102
}
330
1C4E
100
AcDbScale
 70
     0
300
4:1
140
4.0
141
1.0
290
     0
  0
SCALE
  5
1C5D
102
{ACAD_REACTORS
330
1C4E
102
}
330
1C4E
100
AcDbScale
 70
     0
300
8:1
140
8.0
141
1.0
290
     0
  0
SCALE
  5
1C5E
102
{ACAD_REACTORS
330
1C4E
102
}
330
1C4E
100
AcDbScale
 70
     0
300
10:1
140
10.0
141
1.0
290
     0
  0
SCALE
  5
1C5F
102
{ACAD_REACTORS
330
1C4E
102
}
330
1C4E
100
AcDbScale
 70
     0
300
100:1
140
100.0
141
1.0
290
     0
  0
TABLESTYLE
  5
BAB
102
{ACAD_XDICTIONARY
360
1C8A
102
}
102
{ACAD_REACTORS
330
BAA
102
}
330
BAA
100
AcDbTableStyle
  3
Standard
 70
     0
 71
     0
 40
1.5
 41
1.5
280
     0
281
     0
  7
Standard
140
4.5
170
     2
 62
     0
 63
     7
283
     0
274
    -2
284
     1
 64
     0
275
    -2
285
     1
 65
     0
276
    -2
286
     1
 66
     0
277
    -2
287
     1
 67
     0
278
    -2
288
     1
 68
     0
279
    -2
289
     1
 69
     0
  7
Standard
140
6.0
170
     5
 62
     0
 63
     7
283
     0
274
    -2
284
     1
 64
     0
275
    -2
285
     1
 65
     0
276
    -2
286
     1
 66
     0
277
    -2
287
     1
 67
     0
278
    -2
288
     1
 68
     0
279
    -2
289
     1
 69
     0
  7
Standard
140
4.5
170
     5
 62
     0
 63
     7
283
     0
274
    -2
284
     1
 64
     0
275
    -2
285
     1
 65
     0
276
    -2
286
     1
 66
     0
277
    -2
287
     1
 67
     0
278
    -2
288
     1
 68
     0
279
    -2
289
     1
 69
     0
  0
VISUALSTYLE
  5
1C40
102
{ACAD_XDICTIONARY
360
1CB2
102
}
102
{ACAD_REACTORS
330
1C3A
102
}
330
1C3A
100
AcDbVisualStyle
  2
2dWireframe
 70
     4
 71
     0
 72
     2
 73
     0
 90
        0
 40
-0.6
 41
-30.0
 62
     5
 63
     7
 74
     1
 91
        4
 64
     7
 65
   257
 75
     1
175
     1
 42
1.0
 92
        0
 66
   257
 43
1.0
 76
     1
 77
     6
 78
     2
 67
     7
 79
     5
170
     0
171
     0
290
     0
174
     0
 93
        1
 44
0.0
173
     0
291
     0
 45
0.0
1001
ACAD
1000
AcDbSavedByObjectVersion
1070
     0
  0
VISUALSTYLE
  5
1C42
102
{ACAD_XDICTIONARY
360
1CB6
102
}
102
{ACAD_REACTORS
330
1C3A
102
}
330
1C3A
100
AcDbVisualStyle
  2
3D Hidden
 70
     6
 71
     1
 72
     2
 73
     2
 90
        0
 40
-0.6
 41
-30.0
 62
     5
 63
     7
 74
     2
 91
        2
 64
     7
 65
   257
 75
     2
175
     1
 42
179.0
 92
        0
 66
   257
 43
1.0
 76
     1
 77
     6
 78
     2
 67
     7
 79
     3
170
     0
171
     0
290
     0
174
     0
 93
        1
 44
0.0
173
     0
291
     0
 45
0.0
1001
ACAD
1000
AcDbSavedByObjectVersion
1070
     0
  0
VISUALSTYLE
  5
1C41
102
{ACAD_XDICTIONARY
360
1CB4
102
}
102
{ACAD_REACTORS
330
1C3A
102
}
330
1C3A
100
AcDbVisualStyle
  2
3dWireframe
 70
     5
 71
     0
 72
     2
 73
     0
 90
        0
 40
-0.6
 41
-30.0
 62
     5
 63
     7
 74
     1
 91
        4
 64
     7
 65
   257
 75
     1
175
     1
 42
1.0
 92
        0
 66
   257
 43
1.0
 76
     1
 77
     6
 78
     2
 67
     7
 79
     5
170
     0
171
     0
290
     0
174
     0
 93
        1
 44
0.0
173
     0
291
     0
 45
0.0
1001
ACAD
1000
AcDbSavedByObjectVersion
1070
     0
  0
VISUALSTYLE
  5
1C3F
102
{ACAD_XDICTIONARY
360
1CB0
102
}
102
{ACAD_REACTORS
330
1C3A
102
}
330
1C3A
100
AcDbVisualStyle
  2
Basic
 70
     7
 71
     1
 72
     0
 73
     1
 90
        0
 40
-0.6
 41
-30.0
 62
     5
 63
     7
 74
     0
 91
        4
 64
     7
 65
   257
 75
     1
175
     1
 42
1.0
 92
        8
 66
     7
 43
1.0
 76
     1
 77
     6
 78
     2
 67
     7
 79
     5
170
     0
171
     0
290
     0
174
     0
 93
        1
 44
0.0
173
     0
291
     1
 45
0.0
1001
ACAD
1000
AcDbSavedByObjectVersion
1070
     0
  0
VISUALSTYLE
  5
1C46
102
{ACAD_XDICTIONARY
360
1CBE
102
}
102
{ACAD_REACTORS
330
1C3A
102
}
330
1C3A
100
AcDbVisualStyle
  2
Brighten
 70
    12
 71
     2
 72
     2
 73
     0
 90
        0
 40
-0.6
 41
-30.0
 62
     5
 63
     7
 74
     1
 91
        4
 64
     7
 65
   257
 75
     1
175
     1
 42
1.0
 92
        8
 66
     7
 43
1.0
 76
     1
 77
     6
 78
     2
 67
     7
 79
     5
170
     0
171
     0
290
     0
174
     0
 93
        1
 44
50.0
173
     0
291
     1
 45
0.0
1001
ACAD
1000
AcDbSavedByObjectVersion
1070
     0
  0
VISUALSTYLE
  5
1C4A
102
{ACAD_XDICTIONARY
360
1CC6
102
}
102
{ACAD_REACTORS
330
1C3A
102
}
330
1C3A
100
AcDbVisualStyle
  2
ColorChange
 70
    16
 71
     2
 72
     2
 73
     3
 90
        0
 40
-0.6
 41
-30.0
 62
     5
 63
     8
 74
     1
 91
        4
 64
     7
 65
   257
 75
     1
175
     1
 42
1.0
 92
        8
 66
     8
 43
1.0
 76
     1
 77
     6
 78
     2
 67
     7
 79
     5
170
     0
171
     0
290
     0
174
     0
 93
        1
 44
0.0
173
     0
291
     1
 45
0.0
1001
ACAD
1000
AcDbSavedByObjectVersion
1070
     0
  0
VISUALSTYLE
  5
1C43
102
{ACAD_XDICTIONARY
360
1CB8
102
}
102
{ACAD_REACTORS
330
1C3A
102
}
330
1C3A
100
AcDbVisualStyle
  2
Conceptual
 70
     9
 71
     3
 72
     2
 73
     0
 90
        0
 40
-0.6
 41
-30.0
 62
     5
 63
     7
 74
     2
 91
        2
 64
     7
 65
   257
 75
     1
175
     1
 42
179.0
 92
        8
 66
     7
 43
1.0
 76
     1
 77
     6
 78
     2
 67
     7
 79
     3
170
     0
171
     0
290
     0
174
     0
 93
        1
 44
0.0
173
     0
291
     0
 45
0.0
1001
ACAD
1000
AcDbSavedByObjectVersion
1070
     0
  0
VISUALSTYLE
  5
1C45
102
{ACAD_XDICTIONARY
360
1CBC
102
}
102
{ACAD_REACTORS
330
1C3A
102
}
330
1C3A
100
AcDbVisualStyle
  2
Dim
 70
    11
 71
     2
 72
     2
 73
     0
 90
        0
 40
-0.6
 41
-30.0
 62
     5
 63
     7
 74
     1
 91
        4
 64
     7
 65
   257
 75
     1
175
     1
 42
1.0
 92
        8
 66
     7
 43
1.0
 76
     1
 77
     6
 78
     2
 67
     7
 79
     5
170
     0
171
     0
290
     0
174
     0
 93
        1
 44
-50.0
173
     0
291
     1
 45
0.0
1001
ACAD
1000
AcDbSavedByObjectVersion
1070
     0
  0
VISUALSTYLE
  5
1C4D
102
{ACAD_XDICTIONARY
360
1CCC
102
}
102
{ACAD_REACTORS
330
1C3A
102
}
330
1C3A
100
AcDbVisualStyle
  2
EdgeColorOff
 70
    22
 71
     2
 72
     2
 73
     0
 90
        0
 40
-0.6
 41
-30.0
 62
     5
 63
     7
 74
     1
 91
        4
 64
     7
 65
   257
 75
     1
175
     1
 42
1.0
 92
        8
 66
     7
 43
1.0
 76
     1
 77
     6
 78
     2
 67
     7
 79
     5
170
     0
171
     0
290
     0
174
     0
 93
        1
 44
0.0
173
     0
291
     1
 45
0.0
1001
ACAD
1000
AcDbSavedByObjectVersion
1070
     0
  0
VISUALSTYLE
  5
1C49
102
{ACAD_XDICTIONARY
360
1CC4
102
}
102
{ACAD_REACTORS
330
1C3A
102
}
330
1C3A
100
AcDbVisualStyle
  2
Facepattern
 70
    15
 71
     2
 72
     2
 73
     0
 90
        0
 40
-0.6
 41
-30.0
 62
     5
 63
     7
 74
     1
 91
        4
 64
     7
 65
   257
 75
     1
175
     1
 42
1.0
 92
        8
 66
     7
 43
1.0
 76
     1
 77
     6
 78
     2
 67
     7
 79
     5
170
     0
171
     0
290
     0
174
     0
 93
        1
 44
0.0
173
     0
291
     1
 45
0.0
1001
ACAD
1000
AcDbSavedByObjectVersion
1070
     0
  0
VISUALSTYLE
  5
1C3B
102
{ACAD_XDICTIONARY
360
1CA8
102
}
102
{ACAD_REACTORS
330
1C3A
102
}
330
1C3A
100
AcDbVisualStyle
  2
Flat
 70
     0
 71
     2
 72
     1
 73
     1
 90
        2
 40
-0.6
 41
30.0
 62
     5
 63
     7
 74
     0
 91
        4
 64
     7
 65
   257
 75
     1
175
     1
 42
1.0
 92
        8
 66
     7
 43
1.0
 76
     1
 77
     6
 78
     2
 67
     7
 79
     5
170
     0
171
     0
290
     0
174
     0
 93
       13
 44
0.0
173
     0
291
     1
 45
0.0
1001
ACAD
1000
AcDbSavedByObjectVersion
1070
     0
  0
VISUALSTYLE
  5
1C3C
102
{ACAD_XDICTIONARY
360
1CAA
102
}
102
{ACAD_REACTORS
330
1C3A
102
}
330
1C3A
100
AcDbVisualStyle
  2
FlatWithEdges
 70
     1
 71
     2
 72
     1
 73
     1
 90
        2
 40
-0.6
 41
30.0
 62
     5
 63
     7
 74
     1
 91
        4
 64
     7
 65
   257
 75
     1
175
     1
 42
1.0
 92
        0
 66
   257
 43
1.0
 76
     1
 77
     6
 78
     2
 67
     7
 79
     5
170
     0
171
     0
290
     0
174
     0
 93
       13
 44
0.0
173
     0
291
     1
 45
0.0
1001
ACAD
1000
AcDbSavedByObjectVersion
1070
     0
  0
VISUALSTYLE
  5
1C3D
102
{ACAD_XDICTIONARY
360
1CAC
102
}
102
{ACAD_REACTORS
330
1C3A
102
}
330
1C3A
100
AcDbVisualStyle
  2
Gouraud
 70
     2
 71
     2
 72
     2
 73
     1
 90
        2
 40
-0.6
 41
30.0
 62
     5
 63
     7
 74
     0
 91
        4
 64
     7
 65
   257
 75
     1
175
     1
 42
1.0
 92
        0
 66
     7
 43
1.0
 76
     1
 77
     6
 78
     2
 67
     7
 79
     5
170
     0
171
     0
290
     0
174
     0
 93
       13
 44
0.0
173
     0
291
     1
 45
0.0
1001
ACAD
1000
AcDbSavedByObjectVersion
1070
     0
  0
VISUALSTYLE
  5
1C3E
102
{ACAD_XDICTIONARY
360
1CAE
102
}
102
{ACAD_REACTORS
330
1C3A
102
}
330
1C3A
100
AcDbVisualStyle
  2
GouraudWithEdges
 70
     3
 71
     2
 72
     2
 73
     1
 90
        2
 40
-0.6
 41
30.0
 62
     5
 63
     7
 74
     1
 91
        4
 64
     7
 65
   257
 75
     1
175
     1
 42
1.0
 92
        0
 66
   257
 43
1.0
 76
     1
 77
     6
 78
     2
 67
     7
 79
     5
170
     0
171
     0
290
     0
174
     0
 93
       13
 44
0.0
173
     0
291
     1
 45
0.0
1001
ACAD
1000
AcDbSavedByObjectVersion
1070
     0
  0
VISUALSTYLE
  5
1C4B
102
{ACAD_XDICTIONARY
360
1CC8
102
}
102
{ACAD_REACTORS
330
1C3A
102
}
330
1C3A
100
AcDbVisualStyle
  2
JitterOff
 70
    20
 71
     2
 72
     2
 73
     0
 90
        0
 40
-0.6
 41
-30.0
 62
     5
 63
     7
 74
     1
 91
        4
 64
     7
 65
   257
 75
     1
175
     1
 42
1.0
 92
       10
 66
     7
 43
1.0
 76
     1
 77
     6
 78
     2
 67
     7
 79
     5
170
     0
171
     0
290
     0
174
     0
 93
        1
 44
0.0
173
     0
291
     1
 45
0.0
1001
ACAD
1000
AcDbSavedByObjectVersion
1070
     0
  0
VISUALSTYLE
  5
1C48
102
{ACAD_XDICTIONARY
360
1CC2
102
}
102
{ACAD_REACTORS
330
1C3A
102
}
330
1C3A
100
AcDbVisualStyle
  2
Linepattern
 70
    14
 71
     2
 72
     2
 73
     0
 90
        0
 40
-0.6
 41
-30.0
 62
     5
 63
     7
 74
     1
 91
        4
 64
     7
 65
   257
 75
     7
175
     7
 42
1.0
 92
        8
 66
     7
 43
1.0
 76
     1
 77
     6
 78
     2
 67
     7
 79
     5
170
     0
171
     0
290
     0
174
     0
 93
        1
 44
0.0
173
     0
291
     1
 45
0.0
1001
ACAD
1000
AcDbSavedByObjectVersion
1070
     0
  0
VISUALSTYLE
  5
1C4C
102
{ACAD_XDICTIONARY
360
1CCA
102
}
102
{ACAD_REACTORS
330
1C3A
102
}
330
1C3A
100
AcDbVisualStyle
  2
OverhangOff
 70
    21
 71
     2
 72
     2
 73
     0
 90
        0
 40
-0.6
 41
-30.0
 62
     5
 63
     7
 74
     1
 91
        4
 64
     7
 65
   257
 75
     1
175
     1
 42
1.0
 92
        9
 66
     7
 43
1.0
 76
     1
 77
     6
 78
     2
 67
     7
 79
     5
170
     0
171
     0
290
     0
174
     0
 93
        1
 44
0.0
173
     0
291
     1
 45
0.0
1001
ACAD
1000
AcDbSavedByObjectVersion
1070
     0
  0
VISUALSTYLE
  5
1C44
102
{ACAD_XDICTIONARY
360
1CBA
102
}
102
{ACAD_REACTORS
330
1C3A
102
}
330
1C3A
100
AcDbVisualStyle
  2
Realistic
 70
     8
 71
     2
 72
     2
 73
     0
 90
        0
 40
-0.6
 41
-30.0
 62
     5
 63
     7
 74
     1
 91
        0
 64
     7
 65
   257
 75
     1
175
     1
 42
1.0
 92
        8
 66
     8
 43
1.0
 76
     1
 77
     6
 78
     2
 67
     7
 79
     5
170
     0
171
     0
290
     0
174
     0
 93
       13
 44
0.0
173
     0
291
     0
 45
0.0
1001
ACAD
1000
AcDbSavedByObjectVersion
1070
     0
  0
VISUALSTYLE
  5
1C47
102
{ACAD_XDICTIONARY
360
1CC0
102
}
102
{ACAD_REACTORS
330
1C3A
102
}
330
1C3A
100
AcDbVisualStyle
  2
Thicken
 70
    13
 71
     2
 72
     2
 73
     0
 90
        0
 40
-0.6
 41
-30.0
 62
     5
 63
     7
 74
     1
 91
        4
 64
     7
 65
   257
 75
     1
175
     1
 42
1.0
 92
       12
 66
     7
 43
1.0
 76
     1
 77
     6
 78
     2
 67
     7
 79
     5
170
     0
171
     0
290
     0
174
     0
 93
        1
 44
0.0
173
     0
291
     1
 45
0.0
1001
ACAD
1000
AcDbSavedByObjectVersion
1070
     0
  0
DICTIONARYVAR
  5
1C86
102
{ACAD_REACTORS
330
3D
102
}
330
3D
100
DictionaryVariables
280
     0
  1
1:1
  0
DICTIONARYVAR
  5
1C85
102
{ACAD_REACTORS
330
3D
102
}
330
3D
100
DictionaryVariables
280
     0
  1
STANDARD
  0
DICTIONARYVAR
  5
1C17
102
{ACAD_REACTORS
330
3D
102
}
330
3D
100
DictionaryVariables
280
     0
  1
STANDARD
  0
DICTIONARYVAR
  5
3F
102
{ACAD_REACTORS
330
3D
102
}
330
3D
100
DictionaryVariables
280
     0
  1
2
  0
DICTIONARYVAR
  5
3E
102
{ACAD_REACTORS
330
3D
102
}
330
3D
100
DictionaryVariables
280
     0
  1
1
  0
DICTIONARYVAR
  5
1C88
102
{ACAD_REACTORS
330
3D
102
}
330
3D
100
DictionaryVariables
280
     0
  1
0
  0
DICTIONARYVAR
  5
1C20
102
{ACAD_REACTORS
330
3D
102
}
330
3D
100
DictionaryVariables
280
     0
  1

  0
DICTIONARYVAR
  5
1C87
102
{ACAD_REACTORS
330
3D
102
}
330
3D
100
DictionaryVariables
280
     0
  1
127
  0
DICTIONARYVAR
  5
1C89
102
{ACAD_REACTORS
330
3D
102
}
330
3D
100
DictionaryVariables
280
     0
  1
2
  0
XRECORD
  5
1C15
102
{ACAD_REACTORS
330
1C14
102
}
330
1C14
100
AcDbXrecord
280
     1
  0
DICTIONARY
  5
1C8E
330
1E
100
AcDbDictionary
280
     1
281
     1
  3
ACAD_XREC_ROUNDTRIP
360
1C8F
  0
DICTIONARY
  5
1C92
330
26
100
AcDbDictionary
280
     1
281
     1
  3
ACAD_XREC_ROUNDTRIP
360
1C93
  0
DICTIONARY
  5
1C90
330
22
100
AcDbDictionary
280
     1
281
     1
  3
ACAD_XREC_ROUNDTRIP
360
1C91
  0
DICTIONARY
  5
1C2B
330
1C2A
100
AcDbDictionary
280
     1
281
     1
  3
ACAD_XREC_ROUNDTRIP
360
1CA6
  3
BUMPTILE
360
1C2D
  3
DIFFUSETILE
360
1C2C
  3
OPACITYTILE
360
1C30
  3
REFLECTIONTILE
360
1C2F
  3
REFRACTIONTILE
360
1C31
  3
SPECULARTILE
360
1C2E
  0
DICTIONARY
  5
1C23
330
1C22
100
AcDbDictionary
280
     1
281
     1
  3
ACAD_XREC_ROUNDTRIP
360
1CA5
  3
BUMPTILE
360
1C25
  3
DIFFUSETILE
360
1C24
  3
OPACITYTILE
360
1C28
  3
REFLECTIONTILE
360
1C27
  3
REFRACTIONTILE
360
1C29
  3
SPECULARTILE
360
1C26
  0
DICTIONARY
  5
1C33
330
1C32
100
AcDbDictionary
280
     1
281
     1
  3
ACAD_XREC_ROUNDTRIP
360
1CA7
  3
BUMPTILE
360
1C35
  3
DIFFUSETILE
360
1C34
  3
OPACITYTILE
360
1C38
  3
REFLECTIONTILE
360
1C37
  3
REFRACTIONTILE
360
1C39
  3
SPECULARTILE
360
1C36
  0
DICTIONARY
  5
1C8A
330
BAB
100
AcDbDictionary
280
     1
281
     1
  3
ACAD_ROUNDTRIP_2008_TABLESTYLE_CELLSTYLEMAP
360
1C8B
  3
ACAD_XREC_ROUNDTRIP
360
1C94
  0
DICTIONARY
  5
1CB2
330
1C40
100
AcDbDictionary
280
     1
281
     1
  3
ACAD_XREC_ROUNDTRIP
360
1CB3
  0
DICTIONARY
  5
1CB6
330
1C42
100
AcDbDictionary
280
     1
281
     1
  3
ACAD_XREC_ROUNDTRIP
360
1CB7
  0
DICTIONARY
  5
1CB4
330
1C41
100
AcDbDictionary
280
     1
281
     1
  3
ACAD_XREC_ROUNDTRIP
360
1CB5
  0
DICTIONARY
  5
1CB0
330
1C3F
100
AcDbDictionary
280
     1
281
     1
  3
ACAD_XREC_ROUNDTRIP
360
1CB1
  0
DICTIONARY
  5
1CBE
330
1C46
100
AcDbDictionary
280
     1
281
     1
  3
ACAD_XREC_ROUNDTRIP
360
1CBF
  0
DICTIONARY
  5
1CC6
330
1C4A
100
AcDbDictionary
280
     1
281
     1
  3
ACAD_XREC_ROUNDTRIP
360
1CC7
  0
DICTIONARY
  5
1CB8
330
1C43
100
AcDbDictionary
280
     1
281
     1
  3
ACAD_XREC_ROUNDTRIP
360
1CB9
  0
DICTIONARY
  5
1CBC
330
1C45
100
AcDbDictionary
280
     1
281
     1
  3
ACAD_XREC_ROUNDTRIP
360
1CBD
  0
DICTIONARY
  5
1CCC
330
1C4D
100
AcDbDictionary
280
     1
281
     1
  3
ACAD_XREC_ROUNDTRIP
360
1CCD
  0
DICTIONARY
  5
1CC4
330
1C49
100
AcDbDictionary
280
     1
281
     1
  3
ACAD_XREC_ROUNDTRIP
360
1CC5
  0
DICTIONARY
  5
1CA8
330
1C3B
100
AcDbDictionary
280
     1
281
     1
  3
ACAD_XREC_ROUNDTRIP
360
1CA9
  0
DICTIONARY
  5
1CAA
330
1C3C
100
AcDbDictionary
280
     1
281
     1
  3
ACAD_XREC_ROUNDTRIP
360
1CAB
  0
DICTIONARY
  5
1CAC
330
1C3D
100
AcDbDictionary
280
     1
281
     1
  3
ACAD_XREC_ROUNDTRIP
360
1CAD
  0
DICTIONARY
  5
1CAE
330
1C3E
100
AcDbDictionary
280
     1
281
     1
  3
ACAD_XREC_ROUNDTRIP
360
1CAF
  0
DICTIONARY
  5
1CC8
330
1C4B
100
AcDbDictionary
280
     1
281
     1
  3
ACAD_XREC_ROUNDTRIP
360
1CC9
  0
DICTIONARY
  5
1CC2
330
1C48
100
AcDbDictionary
280
     1
281
     1
  3
ACAD_XREC_ROUNDTRIP
360
1CC3
  0
DICTIONARY
  5
1CCA
330
1C4C
100
AcDbDictionary
280
     1
281
     1
  3
ACAD_XREC_ROUNDTRIP
360
1CCB
  0
DICTIONARY
  5
1CBA
330
1C44
100
AcDbDictionary
280
     1
281
     1
  3
ACAD_XREC_ROUNDTRIP
360
1CBB
  0
DICTIONARY
  5
1CC0
330
1C47
100
AcDbDictionary
280
     1
281
     1
  3
ACAD_XREC_ROUNDTRIP
360
1CC1
  0
XRECORD
  5
1C8F
102
{ACAD_REACTORS
330
1C8E
102
}
330
1C8E
100
AcDbXrecord
280
     1
102
SHADEPLOT
 70
     0
102
SHADEPLOTRESLEVEL
 70
     2
102
SHADEPLOTCUSTOMDPI
 70
   300
  0
XRECORD
  5
1C93
102
{ACAD_REACTORS
330
1C92
102
}
330
1C92
100
AcDbXrecord
280
     1
102
SHADEPLOT
 70
     0
102
SHADEPLOTRESLEVEL
 70
     2
102
SHADEPLOTCUSTOMDPI
 70
   300
  0
XRECORD
  5
1C91
102
{ACAD_REACTORS
330
1C90
102
}
330
1C90
100
AcDbXrecord
280
     1
102
SHADEPLOT
 70
     0
102
SHADEPLOTRESLEVEL
 70
     2
102
SHADEPLOTCUSTOMDPI
 70
   300
  0
XRECORD
  5
1CA6
102
{ACAD_REACTORS
330
1C2B
102
}
330
1C2B
100
AcDbXrecord
280
     1
102
MATERIAL
148
0.0
149
0.0
149
0.0
 93
        0
 94
      127
282
     0
 72
     0
 77
     0
171
     0
175
     0
179
     0
273
     0
  0
XRECORD
  5
1C2D
102
{ACAD_REACTORS
330
1C2B
102
}
330
1C2B
100
AcDbXrecord
280
     1
270
     1
271
     1
  0
XRECORD
  5
1C2C
102
{ACAD_REACTORS
330
1C2B
102
}
330
1C2B
100
AcDbXrecord
280
     1
270
     1
271
     1
  0
XRECORD
  5
1C30
102
{ACAD_REACTORS
330
1C2B
102
}
330
1C2B
100
AcDbXrecord
280
     1
270
     1
271
     1
  0
XRECORD
  5
1C2F
102
{ACAD_REACTORS
330
1C2B
102
}
330
1C2B
100
AcDbXrecord
280
     1
270
     1
271
     1
  0
XRECORD
  5
1C31
102
{ACAD_REACTORS
330
1C2B
102
}
330
1C2B
100
AcDbXrecord
280
     1
270
     1
271
     1
  0
XRECORD
  5
1C2E
102
{ACAD_REACTORS
330
1C2B
102
}
330
1C2B
100
AcDbXrecord
280
     1
270
     1
271
     1
  0
XRECORD
  5
1CA5
102
{ACAD_REACTORS
330
1C23
102
}
330
1C23
100
AcDbXrecord
280
     1
102
MATERIAL
148
0.0
149
0.0
149
0.0
 93
        0
 94
      127
282
     0
 72
     0
 77
     0
171
     0
175
     0
179
     0
273
     0
  0
XRECORD
  5
1C25
102
{ACAD_REACTORS
330
1C23
102
}
330
1C23
100
AcDbXrecord
280
     1
270
     1
271
     1
  0
XRECORD
  5
1C24
102
{ACAD_REACTORS
330
1C23
102
}
330
1C23
100
AcDbXrecord
280
     1
270
     1
271
     1
  0
XRECORD
  5
1C28
102
{ACAD_REACTORS
330
1C23
102
}
330
1C23
100
AcDbXrecord
280
     1
270
     1
271
     1
  0
XRECORD
  5
1C27
102
{ACAD_REACTORS
330
1C23
102
}
330
1C23
100
AcDbXrecord
280
     1
270
     1
271
     1
  0
XRECORD
  5
1C29
102
{ACAD_REACTORS
330
1C23
102
}
330
1C23
100
AcDbXrecord
280
     1
270
     1
271
     1
  0
XRECORD
  5
1C26
102
{ACAD_REACTORS
330
1C23
102
}
330
1C23
100
AcDbXrecord
280
     1
270
     1
271
     1
  0
XRECORD
  5
1CA7
102
{ACAD_REACTORS
330
1C33
102
}
330
1C33
100
AcDbXrecord
280
     1
102
MATERIAL
148
0.0
149
0.0
149
0.0
 93
        0
 94
      127
282
     0
 72
     0
 77
     0
171
     0
175
     0
179
     0
273
     0
  0
XRECORD
  5
1C35
102
{ACAD_REACTORS
330
1C33
102
}
330
1C33
100
AcDbXrecord
280
     1
270
     1
271
     1
  0
XRECORD
  5
1C34
102
{ACAD_REACTORS
330
1C33
102
}
330
1C33
100
AcDbXrecord
280
     1
270
     1
271
     1
  0
XRECORD
  5
1C38
102
{ACAD_REACTORS
330
1C33
102
}
330
1C33
100
AcDbXrecord
280
     1
270
     1
271
     1
  0
XRECORD
  5
1C37
102
{ACAD_REACTORS
330
1C33
102
}
330
1C33
100
AcDbXrecord
280
     1
270
     1
271
     1
  0
XRECORD
  5
1C39
102
{ACAD_REACTORS
330
1C33
102
}
330
1C33
100
AcDbXrecord
280
     1
270
     1
271
     1
  0
XRECORD
  5
1C36
102
{ACAD_REACTORS
330
1C33
102
}
330
1C33
100
AcDbXrecord
280
     1
270
     1
271
     1
  0
CELLSTYLEMAP
  5
1C8B
102
{ACAD_REACTORS
330
1C8A
102
}
330
1C8A
100
AcDbCellStyleMap
 90
        3
300
CELLSTYLE
  1
TABLEFORMAT_BEGIN
 90
        5
170
     1
 91
        0
 92
    32768
 62
   257
 93
        1
300
CONTENTFORMAT
  1
CONTENTFORMAT_BEGIN
 90
        0
 91
        0
 92
        4
 93
        0
300

 40
0.0
140
1.0
 94
        5
 62
     0
340
11
144
6.0
309
CONTENTFORMAT_END
171
     1
301
MARGIN
  1
CELLMARGIN_BEGIN
 40
1.5
 40
1.5
 40
1.5
 40
1.5
 40
0.18
 40
0.18
309
CELLMARGIN_END
 94
        6
 95
        1
302
GRIDFORMAT
  1
GRIDFORMAT_BEGIN
 90
        0
 91
        1
 62
     0
 92
       -2
340
0
 93
        0
 40
0.045
309
GRIDFORMAT_END
 95
        2
302
GRIDFORMAT
  1
GRIDFORMAT_BEGIN
 90
        0
 91
        1
 62
     0
 92
       -2
340
0
 93
        0
 40
0.045
309
GRIDFORMAT_END
 95
        4
302
GRIDFORMAT
  1
GRIDFORMAT_BEGIN
 90
        0
 91
        1
 62
     0
 92
       -2
340
0
 93
        0
 40
0.045
309
GRIDFORMAT_END
 95
        8
302
GRIDFORMAT
  1
GRIDFORMAT_BEGIN
 90
        0
 91
        1
 62
     0
 92
       -2
340
0
 93
        0
 40
0.045
309
GRIDFORMAT_END
 95
       16
302
GRIDFORMAT
  1
GRIDFORMAT_BEGIN
 90
        0
 91
        1
 62
     0
 92
       -2
340
0
 93
        0
 40
0.045
309
GRIDFORMAT_END
 95
       32
302
GRIDFORMAT
  1
GRIDFORMAT_BEGIN
 90
        0
 91
        1
 62
     0
 92
       -2
340
0
 93
        0
 40
0.045
309
GRIDFORMAT_END
309
TABLEFORMAT_END
  1
CELLSTYLE_BEGIN
 90
        1
 91
        1
300
_TITLE
309
CELLSTYLE_END
300
CELLSTYLE
  1
TABLEFORMAT_BEGIN
 90
        5
170
     1
 91
        0
 92
        0
 62
   257
 93
        1
300
CONTENTFORMAT
  1
CONTENTFORMAT_BEGIN
 90
        0
 91
        0
 92
        4
 93
        0
300

 40
0.0
140
1.0
 94
        5
 62
     0
340
11
144
4.5
309
CONTENTFORMAT_END
171
     1
301
MARGIN
  1
CELLMARGIN_BEGIN
 40
1.5
 40
1.5
 40
1.5
 40
1.5
 40
0.18
 40
0.18
309
CELLMARGIN_END
 94
        6
 95
        1
302
GRIDFORMAT
  1
GRIDFORMAT_BEGIN
 90
        0
 91
        1
 62
     0
 92
       -2
340
0
 93
        0
 40
0.045
309
GRIDFORMAT_END
 95
        2
302
GRIDFORMAT
  1
GRIDFORMAT_BEGIN
 90
        0
 91
        1
 62
     0
 92
       -2
340
0
 93
        0
 40
0.045
309
GRIDFORMAT_END
 95
        4
302
GRIDFORMAT
  1
GRIDFORMAT_BEGIN
 90
        0
 91
        1
 62
     0
 92
       -2
340
0
 93
        0
 40
0.045
309
GRIDFORMAT_END
 95
        8
302
GRIDFORMAT
  1
GRIDFORMAT_BEGIN
 90
        0
 91
        1
 62
     0
 92
       -2
340
0
 93
        0
 40
0.045
309
GRIDFORMAT_END
 95
       16
302
GRIDFORMAT
  1
GRIDFORMAT_BEGIN
 90
        0
 91
        1
 62
     0
 92
       -2
340
0
 93
        0
 40
0.045
309
GRIDFORMAT_END
 95
       32
302
GRIDFORMAT
  1
GRIDFORMAT_BEGIN
 90
        0
 91
        1
 62
     0
 92
       -2
340
0
 93
        0
 40
0.045
309
GRIDFORMAT_END
309
TABLEFORMAT_END
  1
CELLSTYLE_BEGIN
 90
        2
 91
        1
300
_HEADER
309
CELLSTYLE_END
300
CELLSTYLE
  1
TABLEFORMAT_BEGIN
 90
        5
170
     1
 91
        0
 92
        0
 62
   257
 93
        1
300
CONTENTFORMAT
  1
CONTENTFORMAT_BEGIN
 90
        0
 91
        0
 92
        4
 93
        0
300

 40
0.0
140
1.0
 94
        2
 62
     0
340
11
144
4.5
309
CONTENTFORMAT_END
171
     1
301
MARGIN
  1
CELLMARGIN_BEGIN
 40
1.5
 40
1.5
 40
1.5
 40
1.5
 40
0.18
 40
0.18
309
CELLMARGIN_END
 94
        6
 95
        1
302
GRIDFORMAT
  1
GRIDFORMAT_BEGIN
 90
        0
 91
        1
 62
     0
 92
       -2
340
0
 93
        0
 40
0.045
309
GRIDFORMAT_END
 95
        2
302
GRIDFORMAT
  1
GRIDFORMAT_BEGIN
 90
        0
 91
        1
 62
     0
 92
       -2
340
0
 93
        0
 40
0.045
309
GRIDFORMAT_END
 95
        4
302
GRIDFORMAT
  1
GRIDFORMAT_BEGIN
 90
        0
 91
        1
 62
     0
 92
       -2
340
0
 93
        0
 40
0.045
309
GRIDFORMAT_END
 95
        8
302
GRIDFORMAT
  1
GRIDFORMAT_BEGIN
 90
        0
 91
        1
 62
     0
 92
       -2
340
0
 93
        0
 40
0.045
309
GRIDFORMAT_END
 95
       16
302
GRIDFORMAT
  1
GRIDFORMAT_BEGIN
 90
        0
 91
        1
 62
     0
 92
       -2
340
0
 93
        0
 40
0.045
309
GRIDFORMAT_END
 95
       32
302
GRIDFORMAT
  1
GRIDFORMAT_BEGIN
 90
        0
 91
        1
 62
     0
 92
       -2
340
0
 93
        0
 40
0.045
309
GRIDFORMAT_END
309
TABLEFORMAT_END
  1
CELLSTYLE_BEGIN
 90
        3
 91
        2
300
_DATA
309
CELLSTYLE_END
  0
XRECORD
  5
1C94
102
{ACAD_REACTORS
330
1C8A
102
}
330
1C8A
100
AcDbXrecord
280
     1
102
ACAD_ROUNDTRIP_PRE2007_TABLESTYLE
 90
        4
 91
        0
  1

 92
        4
 93
        0
  2

 94
        4
 95
        0
  3

  0
XRECORD
  5
1CB3
102
{ACAD_REACTORS
330
1CB2
102
}
330
1CB2
100
AcDbXrecord
280
     1
102
RTVSPropertyOp0
 70
     1
102
RTVSPropertyOp1
 70
     1
102
RTVSPropertyOp2
 70
     1
102
RTVSPropertyOp3
 70
     1
102
RTVSPropertyOp4
 70
     1
102
RTVSPropertyOp5
 70
     1
102
RTVSPropertyOp6
 70
     1
102
RTVSPropertyOp7
 70
     1
102
RTVSPropertyOp8
 70
     1
102
RTVSPropertyOp9
 70
     1
102
RTVSPropertyOp10
 70
     1
102
RTVSPropertyOp11
 70
     1
102
RTVSPropertyOp12
 70
     1
102
RTVSPropertyOp13
 70
     1
102
RTVSPropertyOp14
 70
     1
102
RTVSPropertyOp15
 70
     1
102
RTVSPropertyOp16
 70
     1
102
RTVSPropertyOp17
 70
     1
102
RTVSPropertyOp18
 70
     1
102
RTVSPropertyOp19
 70
     1
102
RTVSPropertyOp20
 70
     1
102
RTVSPropertyOp21
 70
     1
102
RTVSPropertyOp22
 70
     1
102
RTVSPropertyOp23
 70
     1
102
RTVSPropertyOp24
 70
     1
102
RTVSPropertyOp25
 70
     1
102
RTVSPropertyOp26
 70
     1
102
RTVSPropertyOp27
 70
     1
  0
XRECORD
  5
1CB7
102
{ACAD_REACTORS
330
1CB6
102
}
330
1CB6
100
AcDbXrecord
280
     1
102
RTVSPropertyOp0
 70
     1
102
RTVSPropertyOp1
 70
     1
102
RTVSPropertyOp2
 70
     1
102
RTVSPropertyOp3
 70
     1
102
RTVSPropertyOp4
 70
     1
102
RTVSPropertyOp5
 70
     1
102
RTVSPropertyOp6
 70
     1
102
RTVSPropertyOp7
 70
     1
102
RTVSPropertyOp8
 70
     1
102
RTVSPropertyOp9
 70
     1
102
RTVSPropertyOp10
 70
     1
102
RTVSPropertyOp11
 70
     1
102
RTVSPropertyOp12
 70
     1
102
RTVSPropertyOp13
 70
     1
102
RTVSPropertyOp14
 70
     1
102
RTVSPropertyOp15
 70
     1
102
RTVSPropertyOp16
 70
     1
102
RTVSPropertyOp17
 70
     1
102
RTVSPropertyOp18
 70
     1
102
RTVSPropertyOp19
 70
     1
102
RTVSPropertyOp20
 70
     1
102
RTVSPropertyOp21
 70
     1
102
RTVSPropertyOp22
 70
     1
102
RTVSPropertyOp23
 70
     1
102
RTVSPropertyOp24
 70
     1
102
RTVSPropertyOp25
 70
     1
102
RTVSPropertyOp26
 70
     1
102
RTVSPropertyOp27
 70
     1
  0
XRECORD
  5
1CB5
102
{ACAD_REACTORS
330
1CB4
102
}
330
1CB4
100
AcDbXrecord
280
     1
102
RTVSPropertyOp0
 70
     1
102
RTVSPropertyOp1
 70
     1
102
RTVSPropertyOp2
 70
     1
102
RTVSPropertyOp3
 70
     1
102
RTVSPropertyOp4
 70
     1
102
RTVSPropertyOp5
 70
     1
102
RTVSPropertyOp6
 70
     1
102
RTVSPropertyOp7
 70
     1
102
RTVSPropertyOp8
 70
     1
102
RTVSPropertyOp9
 70
     1
102
RTVSPropertyOp10
 70
     1
102
RTVSPropertyOp11
 70
     1
102
RTVSPropertyOp12
 70
     1
102
RTVSPropertyOp13
 70
     1
102
RTVSPropertyOp14
 70
     1
102
RTVSPropertyOp15
 70
     1
102
RTVSPropertyOp16
 70
     1
102
RTVSPropertyOp17
 70
     1
102
RTVSPropertyOp18
 70
     1
102
RTVSPropertyOp19
 70
     1
102
RTVSPropertyOp20
 70
     1
102
RTVSPropertyOp21
 70
     1
102
RTVSPropertyOp22
 70
     1
102
RTVSPropertyOp23
 70
     1
102
RTVSPropertyOp24
 70
     1
102
RTVSPropertyOp25
 70
     1
102
RTVSPropertyOp26
 70
     1
102
RTVSPropertyOp27
 70
     1
  0
XRECORD
  5
1CB1
102
{ACAD_REACTORS
330
1CB0
102
}
330
1CB0
100
AcDbXrecord
280
     1
102
RTVSPropertyOp0
 70
     1
102
RTVSPropertyOp1
 70
     1
102
RTVSPropertyOp2
 70
     1
102
RTVSPropertyOp3
 70
     1
102
RTVSPropertyOp4
 70
     1
102
RTVSPropertyOp5
 70
     1
102
RTVSPropertyOp6
 70
     1
102
RTVSPropertyOp7
 70
     1
102
RTVSPropertyOp8
 70
     1
102
RTVSPropertyOp9
 70
     1
102
RTVSPropertyOp10
 70
     1
102
RTVSPropertyOp11
 70
     1
102
RTVSPropertyOp12
 70
     1
102
RTVSPropertyOp13
 70
     1
102
RTVSPropertyOp14
 70
     1
102
RTVSPropertyOp15
 70
     1
102
RTVSPropertyOp16
 70
     1
102
RTVSPropertyOp17
 70
     1
102
RTVSPropertyOp18
 70
     1
102
RTVSPropertyOp19
 70
     1
102
RTVSPropertyOp20
 70
     1
102
RTVSPropertyOp21
 70
     1
102
RTVSPropertyOp22
 70
     1
102
RTVSPropertyOp23
 70
     1
102
RTVSPropertyOp24
 70
     1
102
RTVSPropertyOp25
 70
     1
102
RTVSPropertyOp26
 70
     1
102
RTVSPropertyOp27
 70
     1
  0
XRECORD
  5
1CBF
102
{ACAD_REACTORS
330
1CBE
102
}
330
1CBE
100
AcDbXrecord
280
     1
102
RTVSPropertyOp0
 70
     1
102
RTVSPropertyOp1
 70
     1
102
RTVSPropertyOp2
 70
     1
102
RTVSPropertyOp3
 70
     1
102
RTVSPropertyOp4
 70
     1
102
RTVSPropertyOp5
 70
     1
102
RTVSPropertyOp6
 70
     1
102
RTVSPropertyOp7
 70
     1
102
RTVSPropertyOp8
 70
     1
102
RTVSPropertyOp9
 70
     1
102
RTVSPropertyOp10
 70
     1
102
RTVSPropertyOp11
 70
     1
102
RTVSPropertyOp12
 70
     1
102
RTVSPropertyOp13
 70
     1
102
RTVSPropertyOp14
 70
     1
102
RTVSPropertyOp15
 70
     1
102
RTVSPropertyOp16
 70
     1
102
RTVSPropertyOp17
 70
     1
102
RTVSPropertyOp18
 70
     1
102
RTVSPropertyOp19
 70
     1
102
RTVSPropertyOp20
 70
     1
102
RTVSPropertyOp21
 70
     1
102
RTVSPropertyOp22
 70
     1
102
RTVSPropertyOp23
 70
     1
102
RTVSPropertyOp24
 70
     1
102
RTVSPropertyOp25
 70
     1
102
RTVSPropertyOp26
 70
     1
102
RTVSPropertyOp27
 70
     1
  0
XRECORD
  5
1CC7
102
{ACAD_REACTORS
330
1CC6
102
}
330
1CC6
100
AcDbXrecord
280
     1
102
RTVSPropertyOp0
 70
     1
102
RTVSPropertyOp1
 70
     1
102
RTVSPropertyOp2
 70
     1
102
RTVSPropertyOp3
 70
     1
102
RTVSPropertyOp4
 70
     1
102
RTVSPropertyOp5
 70
     1
102
RTVSPropertyOp6
 70
     1
102
RTVSPropertyOp7
 70
     1
102
RTVSPropertyOp8
 70
     1
102
RTVSPropertyOp9
 70
     1
102
RTVSPropertyOp10
 70
     1
102
RTVSPropertyOp11
 70
     1
102
RTVSPropertyOp12
 70
     1
102
RTVSPropertyOp13
 70
     1
102
RTVSPropertyOp14
 70
     1
102
RTVSPropertyOp15
 70
     1
102
RTVSPropertyOp16
 70
     1
102
RTVSPropertyOp17
 70
     1
102
RTVSPropertyOp18
 70
     1
102
RTVSPropertyOp19
 70
     1
102
RTVSPropertyOp20
 70
     1
102
RTVSPropertyOp21
 70
     1
102
RTVSPropertyOp22
 70
     1
102
RTVSPropertyOp23
 70
     1
102
RTVSPropertyOp24
 70
     1
102
RTVSPropertyOp25
 70
     1
102
RTVSPropertyOp26
 70
     1
102
RTVSPropertyOp27
 70
     1
  0
XRECORD
  5
1CB9
102
{ACAD_REACTORS
330
1CB8
102
}
330
1CB8
100
AcDbXrecord
280
     1
102
RTVSPropertyOp0
 70
     1
102
RTVSPropertyOp1
 70
     1
102
RTVSPropertyOp2
 70
     1
102
RTVSPropertyOp3
 70
     1
102
RTVSPropertyOp4
 70
     1
102
RTVSPropertyOp5
 70
     1
102
RTVSPropertyOp6
 70
     1
102
RTVSPropertyOp7
 70
     1
102
RTVSPropertyOp8
 70
     1
102
RTVSPropertyOp9
 70
     1
102
RTVSPropertyOp10
 70
     1
102
RTVSPropertyOp11
 70
     1
102
RTVSPropertyOp12
 70
     1
102
RTVSPropertyOp13
 70
     1
102
RTVSPropertyOp14
 70
     1
102
RTVSPropertyOp15
 70
     1
102
RTVSPropertyOp16
 70
     1
102
RTVSPropertyOp17
 70
     1
102
RTVSPropertyOp18
 70
     1
102
RTVSPropertyOp19
 70
     1
102
RTVSPropertyOp20
 70
     1
102
RTVSPropertyOp21
 70
     1
102
RTVSPropertyOp22
 70
     1
102
RTVSPropertyOp23
 70
     1
102
RTVSPropertyOp24
 70
     1
102
RTVSPropertyOp25
 70
     1
102
RTVSPropertyOp26
 70
     1
102
RTVSPropertyOp27
 70
     1
  0
XRECORD
  5
1CBD
102
{ACAD_REACTORS
330
1CBC
102
}
330
1CBC
100
AcDbXrecord
280
     1
102
RTVSPropertyOp0
 70
     1
102
RTVSPropertyOp1
 70
     1
102
RTVSPropertyOp2
 70
     1
102
RTVSPropertyOp3
 70
     1
102
RTVSPropertyOp4
 70
     1
102
RTVSPropertyOp5
 70
     1
102
RTVSPropertyOp6
 70
     1
102
RTVSPropertyOp7
 70
     1
102
RTVSPropertyOp8
 70
     1
102
RTVSPropertyOp9
 70
     1
102
RTVSPropertyOp10
 70
     1
102
RTVSPropertyOp11
 70
     1
102
RTVSPropertyOp12
 70
     1
102
RTVSPropertyOp13
 70
     1
102
RTVSPropertyOp14
 70
     1
102
RTVSPropertyOp15
 70
     1
102
RTVSPropertyOp16
 70
     1
102
RTVSPropertyOp17
 70
     1
102
RTVSPropertyOp18
 70
     1
102
RTVSPropertyOp19
 70
     1
102
RTVSPropertyOp20
 70
     1
102
RTVSPropertyOp21
 70
     1
102
RTVSPropertyOp22
 70
     1
102
RTVSPropertyOp23
 70
     1
102
RTVSPropertyOp24
 70
     1
102
RTVSPropertyOp25
 70
     1
102
RTVSPropertyOp26
 70
     1
102
RTVSPropertyOp27
 70
     1
  0
XRECORD
  5
1CCD
102
{ACAD_REACTORS
330
1CCC
102
}
330
1CCC
100
AcDbXrecord
280
     1
102
RTVSPropertyOp0
 70
     0
102
RTVSPropertyOp1
 70
     0
102
RTVSPropertyOp2
 70
     0
102
RTVSPropertyOp3
 70
     0
102
RTVSPropertyOp4
 70
     0
102
RTVSPropertyOp5
 70
     0
102
RTVSPropertyOp6
 70
     0
102
RTVSPropertyOp7
 70
     0
102
RTVSPropertyOp8
 70
     0
102
RTVSPropertyOp9
 70
     0
102
RTVSPropertyOp10
 70
     0
102
RTVSPropertyOp11
 70
     0
102
RTVSPropertyOp12
 70
     0
102
RTVSPropertyOp13
 70
     0
102
RTVSPropertyOp14
 70
     2
102
RTVSPropertyOp15
 70
     0
102
RTVSPropertyOp16
 70
     0
102
RTVSPropertyOp17
 70
     0
102
RTVSPropertyOp18
 70
     0
102
RTVSPropertyOp19
 70
     0
102
RTVSPropertyOp20
 70
     0
102
RTVSPropertyOp21
 70
     0
102
RTVSPropertyOp22
 70
     0
102
RTVSPropertyOp23
 70
     0
102
RTVSPropertyOp24
 70
     0
102
RTVSPropertyOp25
 70
     0
102
RTVSPropertyOp26
 70
     0
102
RTVSPropertyOp27
 70
     0
  0
XRECORD
  5
1CC5
102
{ACAD_REACTORS
330
1CC4
102
}
330
1CC4
100
AcDbXrecord
280
     1
102
RTVSPropertyOp0
 70
     1
102
RTVSPropertyOp1
 70
     1
102
RTVSPropertyOp2
 70
     1
102
RTVSPropertyOp3
 70
     1
102
RTVSPropertyOp4
 70
     1
102
RTVSPropertyOp5
 70
     1
102
RTVSPropertyOp6
 70
     1
102
RTVSPropertyOp7
 70
     1
102
RTVSPropertyOp8
 70
     1
102
RTVSPropertyOp9
 70
     1
102
RTVSPropertyOp10
 70
     1
102
RTVSPropertyOp11
 70
     1
102
RTVSPropertyOp12
 70
     1
102
RTVSPropertyOp13
 70
     1
102
RTVSPropertyOp14
 70
     1
102
RTVSPropertyOp15
 70
     1
102
RTVSPropertyOp16
 70
     1
102
RTVSPropertyOp17
 70
     1
102
RTVSPropertyOp18
 70
     1
102
RTVSPropertyOp19
 70
     1
102
RTVSPropertyOp20
 70
     1
102
RTVSPropertyOp21
 70
     1
102
RTVSPropertyOp22
 70
     1
102
RTVSPropertyOp23
 70
     1
102
RTVSPropertyOp24
 70
     1
102
RTVSPropertyOp25
 70
     1
102
RTVSPropertyOp26
 70
     1
102
RTVSPropertyOp27
 70
     1
  0
XRECORD
  5
1CA9
102
{ACAD_REACTORS
330
1CA8
102
}
330
1CA8
100
AcDbXrecord
280
     1
102
RTVSPropertyOp0
 70
     1
102
RTVSPropertyOp1
 70
     1
102
RTVSPropertyOp2
 70
     1
102
RTVSPropertyOp3
 70
     1
102
RTVSPropertyOp4
 70
     1
102
RTVSPropertyOp5
 70
     1
102
RTVSPropertyOp6
 70
     1
102
RTVSPropertyOp7
 70
     1
102
RTVSPropertyOp8
 70
     1
102
RTVSPropertyOp9
 70
     1
102
RTVSPropertyOp10
 70
     1
102
RTVSPropertyOp11
 70
     1
102
RTVSPropertyOp12
 70
     1
102
RTVSPropertyOp13
 70
     1
102
RTVSPropertyOp14
 70
     1
102
RTVSPropertyOp15
 70
     1
102
RTVSPropertyOp16
 70
     1
102
RTVSPropertyOp17
 70
     1
102
RTVSPropertyOp18
 70
     1
102
RTVSPropertyOp19
 70
     1
102
RTVSPropertyOp20
 70
     1
102
RTVSPropertyOp21
 70
     1
102
RTVSPropertyOp22
 70
     1
102
RTVSPropertyOp23
 70
     1
102
RTVSPropertyOp24
 70
     1
102
RTVSPropertyOp25
 70
     1
102
RTVSPropertyOp26
 70
     1
102
RTVSPropertyOp27
 70
     1
  0
XRECORD
  5
1CAB
102
{ACAD_REACTORS
330
1CAA
102
}
330
1CAA
100
AcDbXrecord
280
     1
102
RTVSPropertyOp0
 70
     1
102
RTVSPropertyOp1
 70
     1
102
RTVSPropertyOp2
 70
     1
102
RTVSPropertyOp3
 70
     1
102
RTVSPropertyOp4
 70
     1
102
RTVSPropertyOp5
 70
     1
102
RTVSPropertyOp6
 70
     1
102
RTVSPropertyOp7
 70
     1
102
RTVSPropertyOp8
 70
     1
102
RTVSPropertyOp9
 70
     1
102
RTVSPropertyOp10
 70
     1
102
RTVSPropertyOp11
 70
     1
102
RTVSPropertyOp12
 70
     1
102
RTVSPropertyOp13
 70
     1
102
RTVSPropertyOp14
 70
     1
102
RTVSPropertyOp15
 70
     1
102
RTVSPropertyOp16
 70
     1
102
RTVSPropertyOp17
 70
     1
102
RTVSPropertyOp18
 70
     1
102
RTVSPropertyOp19
 70
     1
102
RTVSPropertyOp20
 70
     1
102
RTVSPropertyOp21
 70
     1
102
RTVSPropertyOp22
 70
     1
102
RTVSPropertyOp23
 70
     1
102
RTVSPropertyOp24
 70
     1
102
RTVSPropertyOp25
 70
     1
102
RTVSPropertyOp26
 70
     1
102
RTVSPropertyOp27
 70
     1
  0
XRECORD
  5
1CAD
102
{ACAD_REACTORS
330
1CAC
102
}
330
1CAC
100
AcDbXrecord
280
     1
102
RTVSPropertyOp0
 70
     1
102
RTVSPropertyOp1
 70
     1
102
RTVSPropertyOp2
 70
     1
102
RTVSPropertyOp3
 70
     1
102
RTVSPropertyOp4
 70
     1
102
RTVSPropertyOp5
 70
     1
102
RTVSPropertyOp6
 70
     1
102
RTVSPropertyOp7
 70
     1
102
RTVSPropertyOp8
 70
     1
102
RTVSPropertyOp9
 70
     1
102
RTVSPropertyOp10
 70
     1
102
RTVSPropertyOp11
 70
     1
102
RTVSPropertyOp12
 70
     1
102
RTVSPropertyOp13
 70
     1
102
RTVSPropertyOp14
 70
     1
102
RTVSPropertyOp15
 70
     1
102
RTVSPropertyOp16
 70
     1
102
RTVSPropertyOp17
 70
     1
102
RTVSPropertyOp18
 70
     1
102
RTVSPropertyOp19
 70
     1
102
RTVSPropertyOp20
 70
     1
102
RTVSPropertyOp21
 70
     1
102
RTVSPropertyOp22
 70
     1
102
RTVSPropertyOp23
 70
     1
102
RTVSPropertyOp24
 70
     1
102
RTVSPropertyOp25
 70
     1
102
RTVSPropertyOp26
 70
     1
102
RTVSPropertyOp27
 70
     1
  0
XRECORD
  5
1CAF
102
{ACAD_REACTORS
330
1CAE
102
}
330
1CAE
100
AcDbXrecord
280
     1
102
RTVSPropertyOp0
 70
     1
102
RTVSPropertyOp1
 70
     1
102
RTVSPropertyOp2
 70
     1
102
RTVSPropertyOp3
 70
     1
102
RTVSPropertyOp4
 70
     1
102
RTVSPropertyOp5
 70
     1
102
RTVSPropertyOp6
 70
     1
102
RTVSPropertyOp7
 70
     1
102
RTVSPropertyOp8
 70
     1
102
RTVSPropertyOp9
 70
     1
102
RTVSPropertyOp10
 70
     1
102
RTVSPropertyOp11
 70
     1
102
RTVSPropertyOp12
 70
     1
102
RTVSPropertyOp13
 70
     1
102
RTVSPropertyOp14
 70
     1
102
RTVSPropertyOp15
 70
     1
102
RTVSPropertyOp16
 70
     1
102
RTVSPropertyOp17
 70
     1
102
RTVSPropertyOp18
 70
     1
102
RTVSPropertyOp19
 70
     1
102
RTVSPropertyOp20
 70
     1
102
RTVSPropertyOp21
 70
     1
102
RTVSPropertyOp22
 70
     1
102
RTVSPropertyOp23
 70
     1
102
RTVSPropertyOp24
 70
     1
102
RTVSPropertyOp25
 70
     1
102
RTVSPropertyOp26
 70
     1
102
RTVSPropertyOp27
 70
     1
  0
XRECORD
  5
1CC9
102
{ACAD_REACTORS
330
1CC8
102
}
330
1CC8
100
AcDbXrecord
280
     1
102
RTVSPropertyOp0
 70
     0
102
RTVSPropertyOp1
 70
     0
102
RTVSPropertyOp2
 70
     0
102
RTVSPropertyOp3
 70
     0
102
RTVSPropertyOp4
 70
     0
102
RTVSPropertyOp5
 70
     0
102
RTVSPropertyOp6
 70
     0
102
RTVSPropertyOp7
 70
     0
102
RTVSPropertyOp8
 70
     0
102
RTVSPropertyOp9
 70
     0
102
RTVSPropertyOp10
 70
     0
102
RTVSPropertyOp11
 70
     0
102
RTVSPropertyOp12
 70
     0
102
RTVSPropertyOp13
 70
     0
102
RTVSPropertyOp14
 70
     2
102
RTVSPropertyOp15
 70
     0
102
RTVSPropertyOp16
 70
     0
102
RTVSPropertyOp17
 70
     0
102
RTVSPropertyOp18
 70
     0
102
RTVSPropertyOp19
 70
     0
102
RTVSPropertyOp20
 70
     0
102
RTVSPropertyOp21
 70
     0
102
RTVSPropertyOp22
 70
     0
102
RTVSPropertyOp23
 70
     0
102
RTVSPropertyOp24
 70
     0
102
RTVSPropertyOp25
 70
     0
102
RTVSPropertyOp26
 70
     0
102
RTVSPropertyOp27
 70
     0
  0
XRECORD
  5
1CC3
102
{ACAD_REACTORS
330
1CC2
102
}
330
1CC2
100
AcDbXrecord
280
     1
102
RTVSPropertyOp0
 70
     1
102
RTVSPropertyOp1
 70
     1
102
RTVSPropertyOp2
 70
     1
102
RTVSPropertyOp3
 70
     1
102
RTVSPropertyOp4
 70
     1
102
RTVSPropertyOp5
 70
     1
102
RTVSPropertyOp6
 70
     1
102
RTVSPropertyOp7
 70
     1
102
RTVSPropertyOp8
 70
     1
102
RTVSPropertyOp9
 70
     1
102
RTVSPropertyOp10
 70
     1
102
RTVSPropertyOp11
 70
     1
102
RTVSPropertyOp12
 70
     1
102
RTVSPropertyOp13
 70
     1
102
RTVSPropertyOp14
 70
     1
102
RTVSPropertyOp15
 70
     1
102
RTVSPropertyOp16
 70
     1
102
RTVSPropertyOp17
 70
     1
102
RTVSPropertyOp18
 70
     1
102
RTVSPropertyOp19
 70
     1
102
RTVSPropertyOp20
 70
     1
102
RTVSPropertyOp21
 70
     1
102
RTVSPropertyOp22
 70
     1
102
RTVSPropertyOp23
 70
     1
102
RTVSPropertyOp24
 70
     1
102
RTVSPropertyOp25
 70
     1
102
RTVSPropertyOp26
 70
     1
102
RTVSPropertyOp27
 70
     1
  0
XRECORD
  5
1CCB
102
{ACAD_REACTORS
330
1CCA
102
}
330
1CCA
100
AcDbXrecord
280
     1
102
RTVSPropertyOp0
 70
     0
102
RTVSPropertyOp1
 70
     0
102
RTVSPropertyOp2
 70
     0
102
RTVSPropertyOp3
 70
     0
102
RTVSPropertyOp4
 70
     0
102
RTVSPropertyOp5
 70
     0
102
RTVSPropertyOp6
 70
     0
102
RTVSPropertyOp7
 70
     0
102
RTVSPropertyOp8
 70
     0
102
RTVSPropertyOp9
 70
     0
102
RTVSPropertyOp10
 70
     0
102
RTVSPropertyOp11
 70
     0
102
RTVSPropertyOp12
 70
     0
102
RTVSPropertyOp13
 70
     0
102
RTVSPropertyOp14
 70
     2
102
RTVSPropertyOp15
 70
     0
102
RTVSPropertyOp16
 70
     0
102
RTVSPropertyOp17
 70
     0
102
RTVSPropertyOp18
 70
     0
102
RTVSPropertyOp19
 70
     0
102
RTVSPropertyOp20
 70
     0
102
RTVSPropertyOp21
 70
     0
102
RTVSPropertyOp22
 70
     0
102
RTVSPropertyOp23
 70
     0
102
RTVSPropertyOp24
 70
     0
102
RTVSPropertyOp25
 70
     0
102
RTVSPropertyOp26
 70
     0
102
RTVSPropertyOp27
 70
     0
  0
XRECORD
  5
1CBB
102
{ACAD_REACTORS
330
1CBA
102
}
330
1CBA
100
AcDbXrecord
280
     1
102
RTVSPropertyOp0
 70
     1
102
RTVSPropertyOp1
 70
     1
102
RTVSPropertyOp2
 70
     1
102
RTVSPropertyOp3
 70
     1
102
RTVSPropertyOp4
 70
     1
102
RTVSPropertyOp5
 70
     1
102
RTVSPropertyOp6
 70
     1
102
RTVSPropertyOp7
 70
     1
102
RTVSPropertyOp8
 70
     1
102
RTVSPropertyOp9
 70
     1
102
RTVSPropertyOp10
 70
     1
102
RTVSPropertyOp11
 70
     1
102
RTVSPropertyOp12
 70
     1
102
RTVSPropertyOp13
 70
     1
102
RTVSPropertyOp14
 70
     1
102
RTVSPropertyOp15
 70
     1
102
RTVSPropertyOp16
 70
     1
102
RTVSPropertyOp17
 70
     1
102
RTVSPropertyOp18
 70
     1
102
RTVSPropertyOp19
 70
     1
102
RTVSPropertyOp20
 70
     1
102
RTVSPropertyOp21
 70
     1
102
RTVSPropertyOp22
 70
     1
102
RTVSPropertyOp23
 70
     1
102
RTVSPropertyOp24
 70
     1
102
RTVSPropertyOp25
 70
     1
102
RTVSPropertyOp26
 70
     1
102
RTVSPropertyOp27
 70
     1
  0
XRECORD
  5
1CC1
102
{ACAD_REACTORS
330
1CC0
102
}
330
1CC0
100
AcDbXrecord
280
     1
102
RTVSPropertyOp0
 70
     1
102
RTVSPropertyOp1
 70
     1
102
RTVSPropertyOp2
 70
     1
102
RTVSPropertyOp3
 70
     1
102
RTVSPropertyOp4
 70
     1
102
RTVSPropertyOp5
 70
     1
102
RTVSPropertyOp6
 70
     1
102
RTVSPropertyOp7
 70
     1
102
RTVSPropertyOp8
 70
     1
102
RTVSPropertyOp9
 70
     1
102
RTVSPropertyOp10
 70
     1
102
RTVSPropertyOp11
 70
     1
102
RTVSPropertyOp12
 70
     1
102
RTVSPropertyOp13
 70
     1
102
RTVSPropertyOp14
 70
     1
102
RTVSPropertyOp15
 70
     1
102
RTVSPropertyOp16
 70
     1
102
RTVSPropertyOp17
 70
     1
102
RTVSPropertyOp18
 70
     1
102
RTVSPropertyOp19
 70
     1
102
RTVSPropertyOp20
 70
     1
102
RTVSPropertyOp21
 70
     1
102
RTVSPropertyOp22
 70
     1
102
RTVSPropertyOp23
 70
     1
102
RTVSPropertyOp24
 70
     1
102
RTVSPropertyOp25
 70
     1
102
RTVSPropertyOp26
 70
     1
102
RTVSPropertyOp27
 70
     1
  0
ENDSEC
  0
EOF
