  0
SECTION
  2
HEADER
  9
$ACADVER
  1
AC1015
  9
$ACADMAINTVER
 70
    20
  9
$DWGCODEPAGE
  3
ANSI_1252
  9
$INSBASE
 10
0.0
 20
0.0
 30
0.0
  9
$EXTMIN
 10
2402.782223293348
 20
1366.907003493236
 30
0.0
  9
$EXTMAX
 10
2407.102803414219
 20
1367.8070892454
 30
0.0
  9
$LIMMIN
 10
0.0
 20
0.0
  9
$LIMMAX
 10
420.0
 20
297.0
  9
$ORTHOMODE
 70
     1
  9
$REGENMODE
 70
     1
  9
$FILLMODE
 70
     1
  9
$QTEXTMODE
 70
     0
  9
$MIRRTEXT
 70
     1
  9
$LTSCALE
 40
1.0
  9
$ATTMODE
 70
     1
  9
$TEXTSIZE
 40
2.5
  9
$TRACEWID
 40
1.0
  9
$TEXTSTYLE
  7
SANINDUSA
  9
$CLAYER
  8
0
  9
$CELTYPE
  6
ByLayer
  9
$CECOLOR
 62
   256
  9
$CELTSCALE
 40
1.0
  9
$DISPSILH
 70
     0
  9
$DIMSCALE
 40
1.0
  9
$DIMASZ
 40
2.0
  9
$DIMEXO
 40
1.0
  9
$DIMDLI
 40
1.0
  9
$DIMRND
 40
0.0
  9
$DIMDLE
 40
0.0
  9
$DIMEXE
 40
1.0
  9
$DIMTP
 40
0.0
  9
$DIMTM
 40
0.0
  9
$DIMTXT
 40
2.0
  9
$DIMCEN
 40
0.0
  9
$DIMTSZ
 40
0.0
  9
$DIMTOL
 70
     0
  9
$DIMLIM
 70
     0
  9
$DIMTIH
 70
     0
  9
$DIMTOH
 70
     0
  9
$DIMSE1
 70
     0
  9
$DIMSE2
 70
     0
  9
$DIMTAD
 70
     1
  9
$DIMZIN
 70
     8
  9
$DIMBLK
  1

  9
$DIMASO
 70
     1
  9
$DIMSHO
 70
     1
  9
$DIMPOST
  1

  9
$DIMAPOST
  1

  9
$DIMALT
 70
     0
  9
$DIMALTD
 70
     3
  9
$DIMALTF
 40
0.03937007874016
  9
$DIMLFAC
 40
1.0
  9
$DIMTOFL
 70
     1
  9
$DIMTVP
 40
0.0
  9
$DIMTIX
 70
     0
  9
$DIMSOXD
 70
     0
  9
$DIMSAH
 70
     0
  9
$DIMBLK1
  1

  9
$DIMBLK2
  1

  9
$DIMSTYLE
  2
SANINDUSA
  9
$DIMCLRD
 70
   256
  9
$DIMCLRE
 70
   256
  9
$DIMCLRT
 70
   256
  9
$DIMTFAC
 40
1.0
  9
$DIMGAP
 40
1.0
  9
$DIMJUST
 70
     0
  9
$DIMSD1
 70
     0
  9
$DIMSD2
 70
     0
  9
$DIMTOLJ
 70
     0
  9
$DIMTZIN
 70
     8
  9
$DIMALTZ
 70
     0
  9
$DIMALTTZ
 70
     0
  9
$DIMUPT
 70
     0
  9
$DIMDEC
 70
     1
  9
$DIMTDEC
 70
     1
  9
$DIMALTU
 70
     2
  9
$DIMALTTD
 70
     3
  9
$DIMTXSTY
  7
SANINDUSA
  9
$DIMAUNIT
 70
     0
  9
$DIMADEC
 70
     1
  9
$DIMALTRND
 40
0.0
  9
$DIMAZIN
 70
     0
  9
$DIMDSEP
 70
    44
  9
$DIMATFIT
 70
     3
  9
$DIMFRAC
 70
     0
  9
$DIMLDRBLK
  1

  9
$DIMLUNIT
 70
     2
  9
$DIMLWD
 70
    -1
  9
$DIMLWE
 70
    -1
  9
$DIMTMOVE
 70
     0
  9
$LUNITS
 70
     2
  9
$LUPREC
 70
     4
  9
$SKETCHINC
 40
1.0
  9
$FILLETRAD
 40
0.0
  9
$AUNITS
 70
     0
  9
$AUPREC
 70
     0
  9
$MENU
  1
.
  9
$ELEVATION
 40
0.0
  9
$PELEVATION
 40
0.0
  9
$THICKNESS
 40
0.0
  9
$LIMCHECK
 70
     0
  9
$CHAMFERA
 40
10.0
  9
$CHAMFERB
 40
10.0
  9
$CHAMFERC
 40
20.0
  9
$CHAMFERD
 40
0.0
  9
$SKPOLY
 70
     0
  9
$TDCREATE
 40
2453529.478209988
  9
$TDUCREATE
 40
2453529.436543322
  9
$TDUPDATE
 40
2456148.421535544
  9
$TDUUPDATE
 40
2456148.379868877
  9
$TDINDWG
 40
0.0052716319
  9
$TDUSRTIMER
 40
0.0052716319
  9
$USRTIMER
 70
     1
  9
$ANGBASE
 50
0.0
  9
$ANGDIR
 70
     0
  9
$PDMODE
 70
     0
  9
$PDSIZE
 40
0.0
  9
$PLINEWID
 40
0.0
  9
$SPLFRAME
 70
     0
  9
$SPLINETYPE
 70
     6
  9
$SPLINESEGS
 70
     8
  9
$HANDSEED
  5
23B3
  9
$SURFTAB1
 70
     6
  9
$SURFTAB2
 70
     6
  9
$SURFTYPE
 70
     6
  9
$SURFU
 70
     6
  9
$SURFV
 70
     6
  9
$UCSBASE
  2

  9
$UCSNAME
  2

  9
$UCSORG
 10
0.0
 20
0.0
 30
0.0
  9
$UCSXDIR
 10
1.0
 20
0.0
 30
0.0
  9
$UCSYDIR
 10
0.0
 20
1.0
 30
0.0
  9
$UCSORTHOREF
  2

  9
$UCSORTHOVIEW
 70
     0
  9
$UCSORGTOP
 10
0.0
 20
0.0
 30
0.0
  9
$UCSORGBOTTOM
 10
0.0
 20
0.0
 30
0.0
  9
$UCSORGLEFT
 10
0.0
 20
0.0
 30
0.0
  9
$UCSORGRIGHT
 10
0.0
 20
0.0
 30
0.0
  9
$UCSORGFRONT
 10
0.0
 20
0.0
 30
0.0
  9
$UCSORGBACK
 10
0.0
 20
0.0
 30
0.0
  9
$PUCSBASE
  2

  9
$PUCSNAME
  2

  9
$PUCSORG
 10
0.0
 20
0.0
 30
0.0
  9
$PUCSXDIR
 10
1.0
 20
0.0
 30
0.0
  9
$PUCSYDIR
 10
0.0
 20
1.0
 30
0.0
  9
$PUCSORTHOREF
  2

  9
$PUCSORTHOVIEW
 70
     0
  9
$PUCSORGTOP
 10
0.0
 20
0.0
 30
0.0
  9
$PUCSORGBOTTOM
 10
0.0
 20
0.0
 30
0.0
  9
$PUCSORGLEFT
 10
0.0
 20
0.0
 30
0.0
  9
$PUCSORGRIGHT
 10
0.0
 20
0.0
 30
0.0
  9
$PUCSORGFRONT
 10
0.0
 20
0.0
 30
0.0
  9
$PUCSORGBACK
 10
0.0
 20
0.0
 30
0.0
  9
$USERI1
 70
     0
  9
$USERI2
 70
     0
  9
$USERI3
 70
     0
  9
$USERI4
 70
     0
  9
$USERI5
 70
     0
  9
$USERR1
 40
0.0
  9
$USERR2
 40
0.0
  9
$USERR3
 40
0.0
  9
$USERR4
 40
0.0
  9
$USERR5
 40
0.0
  9
$WORLDVIEW
 70
     1
  9
$SHADEDGE
 70
     3
  9
$SHADEDIF
 70
    70
  9
$TILEMODE
 70
     1
  9
$MAXACTVP
 70
    64
  9
$PINSBASE
 10
0.0
 20
0.0
 30
0.0
  9
$PLIMCHECK
 70
     0
  9
$PEXTMIN
 10
1.000000000000000E+20
 20
1.000000000000000E+20
 30
1.000000000000000E+20
  9
$PEXTMAX
 10
-1.000000000000000E+20
 20
-1.000000000000000E+20
 30
-1.000000000000000E+20
  9
$PLIMMIN
 10
0.0
 20
0.0
  9
$PLIMMAX
 10
420.0
 20
297.0
  9
$UNITMODE
 70
     0
  9
$VISRETAIN
 70
     1
  9
$PLINEGEN
 70
     0
  9
$PSLTSCALE
 70
     1
  9
$TREEDEPTH
 70
  3020
  9
$CMLSTYLE
  2
Standard
  9
$CMLJUST
 70
     0
  9
$CMLSCALE
 40
20.0
  9
$PROXYGRAPHICS
 70
     1
  9
$MEASUREMENT
 70
     1
  9
$CELWEIGHT
370
    -1
  9
$ENDCAPS
280
     0
  9
$JOINSTYLE
280
     0
  9
$LWDISPLAY
290
     0
  9
$INSUNITS
 70
     4
  9
$HYPERLINKBASE
  1

  9
$STYLESHEET
  1
monochrome.ctb
  9
$XEDIT
290
     1
  9
$CEPSNTYPE
380
     0
  9
$PSTYLEMODE
290
     1
  9
$FINGERPRINTGUID
  2
{C0E1D700-DCB0-42BD-B026-B4A6329AD4E9}
  9
$VERSIONGUID
  2
{1E519D87-D93D-4417-B083-5AC1B63E003B}
  9
$EXTNAMES
290
     1
  9
$PSVPSCALE
 40
0.0
  9
$OLESTARTUP
290
     0
  0
ENDSEC
  0
SECTION
  2
CLASSES
  0
CLASS
  1
ACDBDICTIONARYWDFLT
  2
AcDbDictionaryWithDefault
  3
ObjectDBX Classes
 90
        0
280
     0
281
     0
  0
CLASS
  1
ACDBPLACEHOLDER
  2
AcDbPlaceHolder
  3
ObjectDBX Classes
 90
        0
280
     0
281
     0
  0
CLASS
  1
LAYOUT
  2
AcDbLayout
  3
ObjectDBX Classes
 90
        0
280
     0
281
     0
  0
CLASS
  1
DICTIONARYVAR
  2
AcDbDictionaryVar
  3
ObjectDBX Classes
 90
        0
280
     0
281
     0
  0
CLASS
  1
DIMASSOC
  2
AcDbDimAssoc
  3
"AcDbDimAssoc|Product Desc:     AcDim ARX App For Dimension|Company:          Autodesk, Inc.|WEB Address:      www.autodesk.com"
 90
    32768
280
     0
281
     0
  0
CLASS
  1
TABLESTYLE
  2
AcDbTableStyle
  3
ObjectDBX Classes
 90
     4095
280
     0
281
     0
  0
CLASS
  1
SORTENTSTABLE
  2
AcDbSortentsTable
  3
ObjectDBX Classes
 90
    32768
280
     0
281
     0
  0
CLASS
  1
MATERIAL
  2
AcDbMaterial
  3
ObjectDBX Classes
 90
     1153
280
     0
281
     0
  0
CLASS
  1
VISUALSTYLE
  2
AcDbVisualStyle
  3
ObjectDBX Classes
 90
     4095
280
     0
281
     0
  0
CLASS
  1
SCALE
  2
AcDbScale
  3
ObjectDBX Classes
 90
     1153
280
     0
281
     0
  0
CLASS
  1
MLEADERSTYLE
  2
AcDbMLeaderStyle
  3
ACDB_MLEADERSTYLE_CLASS
 90
     4095
280
     0
281
     0
  0
CLASS
  1
CELLSTYLEMAP
  2
AcDbCellStyleMap
  3
ObjectDBX Classes
 90
     1152
280
     0
281
     0
  0
ENDSEC
  0
SECTION
  2
TABLES
  0
TABLE
  2
VPORT
  5
8
330
0
100
AcDbSymbolTable
 70
     1
  0
VPORT
  5
22F4
330
8
100
AcDbSymbolTableRecord
100
AcDbViewportTableRecord
  2
*Active
 70
     0
 10
0.0
 20
0.0
 11
1.0
 21
1.0
 12
2404.942513353784
 22
1367.357046369317
 13
0.0
 23
0.0
 14
10.0
 24
10.0
 15
10.0
 25
10.0
 16
0.0
 26
0.0
 36
1.0
 17
0.0
 27
0.0
 37
0.0
 40
2.63572524445473
 41
1.645464025026068
 42
50.0
 43
0.0
 44
0.0
 50
0.0
 51
0.0
 71
     0
 72
   100
 73
     1
 74
     2
 75
     0
 76
     0
 77
     0
 78
     0
281
     0
 65
     1
110
0.0
120
0.0
130
0.0
111
1.0
121
0.0
131
0.0
112
0.0
122
1.0
132
0.0
 79
     0
146
0.0
  0
ENDTAB
  0
TABLE
  2
LTYPE
  5
5
330
0
100
AcDbSymbolTable
 70
     3
  0
LTYPE
  5
14
330
5
100
AcDbSymbolTableRecord
100
AcDbLinetypeTableRecord
  2
ByBlock
 70
     0
  3

 72
    65
 73
     0
 40
0.0
  0
LTYPE
  5
15
330
5
100
AcDbSymbolTableRecord
100
AcDbLinetypeTableRecord
  2
ByLayer
 70
     0
  3

 72
    65
 73
     0
 40
0.0
  0
LTYPE
  5
16
330
5
100
AcDbSymbolTableRecord
100
AcDbLinetypeTableRecord
  2
Continuous
 70
     0
  3
Solid line
 72
    65
 73
     0
 40
0.0
  0
LTYPE
  5
2D
330
5
100
AcDbSymbolTableRecord
100
AcDbLinetypeTableRecord
  2
DASHDOT
 70
     0
  3
Dash dot __ . __ . __ . __ . __ . __ . __ . __
 72
    65
 73
     4
 40
25.4
 49
12.7
 74
     0
 49
-6.349999999999999
 74
     0
 49
0.0
 74
     0
 49
-6.349999999999999
 74
     0
  0
LTYPE
  5
2E
330
5
100
AcDbSymbolTableRecord
100
AcDbLinetypeTableRecord
  2
HIDDEN
 70
     0
  3
Hidden __ __ __ __ __ __ __ __ __ __ __ __ __ _
 72
    65
 73
     2
 40
9.524999999999998
 49
6.349999999999999
 74
     0
 49
-3.174999999999999
 74
     0
  0
ENDTAB
  0
TABLE
  2
LAYER
  5
2
330
0
100
AcDbSymbolTable
 70
    16
  0
LAYER
  5
10
102
{ACAD_XDICTIONARY
360
2343
102
}
330
2
100
AcDbSymbolTableRecord
100
AcDbLayerTableRecord
  2
0
 70
     0
 62
     7
  6
Continuous
370
    -3
390
F
  0
LAYER
  5
2F
102
{ACAD_XDICTIONARY
360
2345
102
}
330
2
100
AcDbSymbolTableRecord
100
AcDbLayerTableRecord
  2
1
 70
     0
 62
     1
  6
Continuous
370
    -3
390
F
  0
LAYER
  5
30
102
{ACAD_XDICTIONARY
360
2347
102
}
330
2
100
AcDbSymbolTableRecord
100
AcDbLayerTableRecord
  2
2
 70
     0
 62
     2
  6
Continuous
370
    -3
390
F
  0
LAYER
  5
31
102
{ACAD_XDICTIONARY
360
2349
102
}
330
2
100
AcDbSymbolTableRecord
100
AcDbLayerTableRecord
  2
3
 70
     0
 62
     3
  6
Continuous
370
    -3
390
F
  0
LAYER
  5
32
102
{ACAD_XDICTIONARY
360
234B
102
}
330
2
100
AcDbSymbolTableRecord
100
AcDbLayerTableRecord
  2
4
 70
     0
 62
     4
  6
Continuous
370
    -3
390
F
  0
LAYER
  5
33
102
{ACAD_XDICTIONARY
360
234D
102
}
330
2
100
AcDbSymbolTableRecord
100
AcDbLayerTableRecord
  2
5
 70
     0
 62
     5
  6
Continuous
370
    -3
390
F
  0
LAYER
  5
34
102
{ACAD_XDICTIONARY
360
234F
102
}
330
2
100
AcDbSymbolTableRecord
100
AcDbLayerTableRecord
  2
6
 70
     0
 62
     6
  6
Continuous
370
    -3
390
F
  0
LAYER
  5
35
102
{ACAD_XDICTIONARY
360
2351
102
}
330
2
100
AcDbSymbolTableRecord
100
AcDbLayerTableRecord
  2
7
 70
     0
 62
     7
  6
Continuous
370
    -3
390
F
  0
LAYER
  5
36
102
{ACAD_XDICTIONARY
360
2353
102
}
330
2
100
AcDbSymbolTableRecord
100
AcDbLayerTableRecord
  2
cen
 70
     0
 62
     7
  6
DASHDOT
370
    -3
390
F
  0
LAYER
  5
37
102
{ACAD_XDICTIONARY
360
2355
102
}
330
2
100
AcDbSymbolTableRecord
100
AcDbLayerTableRecord
  2
hid
 70
     0
 62
     7
  6
HIDDEN
370
    -3
390
F
  0
LAYER
  5
5D6
102
{ACAD_XDICTIONARY
360
2357
102
}
330
2
100
AcDbSymbolTableRecord
100
AcDbLayerTableRecord
  2
hatch
 70
     0
 62
     9
  6
Continuous
370
    -3
390
F
  0
LAYER
  5
8AF
102
{ACAD_XDICTIONARY
360
2359
102
}
330
2
100
AcDbSymbolTableRecord
100
AcDbLayerTableRecord
  2
9
 70
     0
 62
     9
  6
Continuous
370
    -3
390
F
  0
LAYER
  5
8F8
102
{ACAD_XDICTIONARY
360
235B
102
}
330
2
100
AcDbSymbolTableRecord
100
AcDbLayerTableRecord
  2
leg fin
 70
     0
 62
     9
  6
Continuous
370
    -3
390
F
  0
LAYER
  5
91D
102
{ACAD_XDICTIONARY
360
235D
102
}
330
2
100
AcDbSymbolTableRecord
100
AcDbLayerTableRecord
  2
cotas
 70
     0
 62
     1
  6
Continuous
370
    -3
390
F
  0
LAYER
  5
92F
330
2
100
AcDbSymbolTableRecord
100
AcDbLayerTableRecord
  2
Defpoints
 70
     0
 62
     7
  6
Continuous
290
     0
370
    -3
390
F
  0
LAYER
  5
BA5
102
{ACAD_XDICTIONARY
360
235F
102
}
330
2
100
AcDbSymbolTableRecord
100
AcDbLayerTableRecord
  2
SANINDUSA
 70
     0
 62
     3
  6
Continuous
370
    -3
390
F
  0
ENDTAB
  0
TABLE
  2
STYLE
  5
3
330
0
100
AcDbSymbolTable
 70
     3
  0
STYLE
  5
11
330
3
100
AcDbSymbolTableRecord
100
AcDbTextStyleTableRecord
  2
Standard
 70
     0
 40
0.0
 41
1.0
 50
0.0
 71
     0
 42
2.5
  3
Avgardn.ttf
  4

1001
ACAD
1000
AvantGarde Bk BT
1071
       34
  0
STYLE
  5
2C
330
3
100
AcDbSymbolTableRecord
100
AcDbTextStyleTableRecord
  2

 70
     1
 40
0.0
 41
1.0
 50
0.0
 71
     0
 42
2.5
  3
ltypeshp.shx
  4

  0
STYLE
  5
91F
330
3
100
AcDbSymbolTableRecord
100
AcDbTextStyleTableRecord
  2
SANINDUSA
 70
     0
 40
0.0
 41
1.0
 50
0.0
 71
     0
 42
2.5
  3
verdana.TTF
  4

1001
ACAD
1000
Verdana
1071
       34
  0
ENDTAB
  0
TABLE
  2
VIEW
  5
6
330
0
100
AcDbSymbolTable
 70
     0
  0
ENDTAB
  0
TABLE
  2
UCS
  5
7
330
0
100
AcDbSymbolTable
 70
     0
  0
ENDTAB
  0
TABLE
  2
APPID
  5
9
330
0
100
AcDbSymbolTable
 70
     7
  0
APPID
  5
12
330
9
100
AcDbSymbolTableRecord
100
AcDbRegAppTableRecord
  2
ACAD
 70
     0
  0
APPID
  5
3A
330
9
100
AcDbSymbolTableRecord
100
AcDbRegAppTableRecord
  2
DCO15
 70
     0
  0
APPID
  5
D44
330
9
100
AcDbSymbolTableRecord
100
AcDbRegAppTableRecord
  2
ACAD_DSTYLE_DIMEXT_LENGTH
 70
     0
  0
APPID
  5
D45
330
9
100
AcDbSymbolTableRecord
100
AcDbRegAppTableRecord
  2
ACAD_DSTYLE_DIMEXT_ENABLED
 70
     0
  0
APPID
  5
D46
330
9
100
AcDbSymbolTableRecord
100
AcDbRegAppTableRecord
  2
ACAD_DSTYLE_DIMJOGGED_JOGANGLE_SYMBOL
 70
     0
  0
APPID
  5
D47
330
9
100
AcDbSymbolTableRecord
100
AcDbRegAppTableRecord
  2
ACAD_DSTYLE_DIMARC_LENGTH_SYMBOL
 70
     0
  0
APPID
  5
23B2
330
9
100
AcDbSymbolTableRecord
100
AcDbRegAppTableRecord
  2
ACAD_MLEADERVER
 70
     0
  0
ENDTAB
  0
TABLE
  2
DIMSTYLE
  5
A
330
0
100
AcDbSymbolTable
 70
     2
100
AcDbDimStyleTable
 71
     1
340
921
  0
DIMSTYLE
105
45
330
A
100
AcDbSymbolTableRecord
100
AcDbDimStyleTableRecord
  2
STANDARD
 70
     0
289
     0
340
11
  0
DIMSTYLE
105
921
330
A
100
AcDbSymbolTableRecord
100
AcDbDimStyleTableRecord
  2
SANINDUSA
 70
     0
 41
2.0
 42
1.0
 43
1.0
 44
1.0
 73
     0
 74
     0
 77
     1
 78
     8
140
2.0
141
0.0
143
0.03937007874016
147
1.0
171
     3
172
     1
176
   256
177
   256
178
   256
179
     1
271
     1
272
     1
274
     3
278
    44
283
     0
284
     8
340
91F
371
    -1
372
    -1
  0
ENDTAB
  0
TABLE
  2
BLOCK_RECORD
  5
1
330
0
100
AcDbSymbolTable
 70
    80
  0
BLOCK_RECORD
  5
1F
330
1
100
AcDbSymbolTableRecord
100
AcDbBlockTableRecord
  2
*Model_Space
340
22
  0
BLOCK_RECORD
  5
1B
330
1
100
AcDbSymbolTableRecord
100
AcDbBlockTableRecord
  2
*Paper_Space
340
1E
  0
BLOCK_RECORD
  5
23
330
1
100
AcDbSymbolTableRecord
100
AcDbBlockTableRecord
  2
*Paper_Space0
340
26
  0
BLOCK_RECORD
  5
919
330
1
100
AcDbSymbolTableRecord
100
AcDbBlockTableRecord
  2
_DotSmall
340
0
  0
BLOCK_RECORD
  5
922
330
1
100
AcDbSymbolTableRecord
100
AcDbBlockTableRecord
  2
base para cotas
340
0
310
2800000020000000200000000100080000000000000400000000000000000000000000000000000000000000000080000080000000808000800000008000800080800000C0C0C000C0DCC000F0CAA6000020400000206000002080000020A0000020C0000020E00000400000004020000040400000406000004080000040A0
310
000040C0000040E00000600000006020000060400000606000006080000060A0000060C0000060E00000800000008020000080400000806000008080000080A0000080C0000080E00000A0000000A0200000A0400000A0600000A0800000A0A00000A0C00000A0E00000C0000000C0200000C0400000C0600000C0800000C0
310
A00000C0C00000C0E00000E0000000E0200000E0400000E0600000E0800000E0A00000E0C00000E0E00040000000400020004000400040006000400080004000A0004000C0004000E00040200000402020004020400040206000402080004020A0004020C0004020E000404000004040200040404000404060004040800040
310
40A0004040C0004040E00040600000406020004060400040606000406080004060A0004060C0004060E00040800000408020004080400040806000408080004080A0004080C0004080E00040A0000040A0200040A0400040A0600040A0800040A0A00040A0C00040A0E00040C0000040C0200040C0400040C0600040C08000
310
40C0A00040C0C00040C0E00040E0000040E0200040E0400040E0600040E0800040E0A00040E0C00040E0E00080000000800020008000400080006000800080008000A0008000C0008000E00080200000802020008020400080206000802080008020A0008020C0008020E00080400000804020008040400080406000804080
310
008040A0008040C0008040E00080600000806020008060400080606000806080008060A0008060C0008060E00080800000808020008080400080806000808080008080A0008080C0008080E00080A0000080A0200080A0400080A0600080A0800080A0A00080A0C00080A0E00080C0000080C0200080C0400080C0600080C0
310
800080C0A00080C0C00080C0E00080E0000080E0200080E0400080E0600080E0800080E0A00080E0C00080E0E000C0000000C0002000C0004000C0006000C0008000C000A000C000C000C000E000C0200000C0202000C0204000C0206000C0208000C020A000C020C000C020E000C0400000C0402000C0404000C0406000C0
310
408000C040A000C040C000C040E000C0600000C0602000C0604000C0606000C0608000C060A000C060C000C060E000C0800000C0802000C0804000C0806000C0808000C080A000C080C000C080E000C0A00000C0A02000C0A04000C0A06000C0A08000C0A0A000C0A0C000C0A0E000C0C00000C0C02000C0C04000C0C06000
310
C0C08000C0C0A000F0FBFF00A4A0A000808080000000FF0000FF000000FFFF00FF000000FF00FF00FFFF0000FFFFFF00A4A4A4A4A4A4A4A4A4A4A4A4A4A4A4A4A4A4A4A4A4A4A4A4A4A4A4A4A4A4A4A4A4A4A4A4A4A4A4A4A4A4A4A4A4A4A4A4A4A4A4A4A4A4A4A4A4A4A4A4A4A4A4A4A4A4A4A4A4A4A4A4A4A4A4A4A4A4A4
310
A4A4A4A4A4A4A4A4A4A4A4A4A4A4A4A4A4A4A4A4A4A4A4A4A4A4A4A4A4A4A4A4A4A4A4A4A4A4A4A4A4A4A4A4A4A4A4A4A4A4A4A4A4A4A4A4A4A4A4A4A4A4A4A4A4A4A4A4A4A4A4A4A4A4A4A4A4A4A4A4A4A4A4A4A4A4A4A4A4A4A4A4A4A4A4A4A4A4A4A4A4A4A4A4A4A4A4A4A4A4A4A4A4A4A4A4A4A4A4A4A4A4A4A4A4A4A4
310
A4A4A4A4A4A4A4A4A4A4A4A4A4A4A4A4A4A4A4A4A4A4A4A4A4A4A4A4A4A4A4A4A4A4A4A4A4A4A4A4A4A4A4A4A4A4A4A4A4A4A4A4A4A4A4A4A4A4A4A4A4A4A4A4A4A4A4A4A4A4A4A4A4A4A4A4A4A4A4A4A4A4A4A4A4A4A4A4A4A4A4A4A4A4A4A4A4A4A4A4A4A4A4A4A4A4A4A4A4A4A4A4A4A4A4A4A4A4A4A4A4A4A4A4A4A4A4
310
A4A4A4A4A4A4A4A4A4A4A4A4A4A4A4A4A4A4A4A4A4A4A4A4A4A4A4A4A4A4A4A4A4A4A4A4A4A4A4A4A4A4A4A4A4A4A4A4A4A4A4A4A4A4A4A4A4A4A4A4A4A4A4A4A4A4A4A4A4A4A4A4A4A4A4A4A4A4A4A4A4A4A4A4A4A4A4A4A4A4A4A4A4A4A4A4A4A4A4A4A4A4A4A4A4A4A4A4A4A4A4A4A4A4A4A4F9F9F9F9F9F9F9F9F9F9F9
310
F9F9F9F9F9F9F9F9F9F9F9F9F9F9F9F9F9F9F9A4A4F9F9F9F9F9F9F9F9F9F9F9F9F9F9F9F9F9F9F9F9F9F9F9F9F9F9F9F9F9F9A4A4F9F9F9F9F9F9F9F9F9F9F9F9F9F9F9F9F9F9F9F9F9F9F9F9F9F9F9F9F9F9A4A4F9A4A4A4A4A4A4A4A4A4A4A4A4A4A4A4A4A4A4A4A4A4A4A4A4A4A4A4A4F9A4A4A4A4A4A4A4A4A4A4A4A4
310
A4A4A4A4A4A4A4A4A4A4A4A4A4A4A4A4A4A4A4A4A4A4A4A4A4A4A4A4A4A4A4A4A4A4A4A4A4A4A4A4A4A4A4A4A4A4A4A4A4A4A4A4A4A4A4A4A4A4A4A4A4A4A4A4A4A4A4A4A4A4A4A4A4A4A4A4A4A4A4A4A4A4A4A4A4A4A4A4A4A4A4A4A4A4A4A4A4A4A4A4A4A4A4A4A4A4A4A4A4A4A4A4A4A4A4A4A4A4A4A4A4A4A4A4A4A4A4
310
A4A4A4A4A4A4A4A4A4A4A4A4A4A4A4A4A4A4A4A4A4A4A4A4A4A4A4A4A4A4A4A4A4A4A4A4A4A4A4A4A4A4A4A4A4A4A4A4A4A4A4A4A4A4A4A4A4A4A4A4A4A4A4A4A4A4A4A4A4A4A4A4A4A4A4A4A4A4A4A4A4A4A4A4A4A4A4A4A4A4A4A4A4A4A4A4A4A4A4A4A4A4A4A4A4A4A4A4A4A4A4A4A4A4A4A4A4A4A4A4A4A4A4A4A4A4A4
310
A4A4A4A4A4A4A4A4A4A4A4A4A4A4A4A4A4A4A4A4A4A4A4A4A4A4A4A4A4A4A4A4A4A4A4A4A4A4A4A4A4A4A4A4A4A4A4A4A4A4A4A4A4A4A4A4A4A4A4A4A4A4A4A4A4A4A4A4A4A4A4A4A4A4A4A4A4A4A4A4A4A4A4A4A4A4A4A4A4A4A4A4A4A4A4A4A4A4A4A4A4A4A4A4A4A4A4A4A4A4A4A4A4A4A4A4A4A4A4A4A4A4A4A4A4A4A4
310
A4A4A4A4A4A4A4A4A4A4A4A4A4A4A4A4A4A4A4A4A4A4A4A4A4A4A4A4A4A4A4A4A4A4A4A4A4A4A4A4A4A4A4A4A4A4A4A4A4A4A4A4A4A4A4A4
1001
ACAD
1000
DesignCenter Data
1002
{
1070
     1
1070
     4
1002
}
  0
BLOCK_RECORD
  5
AA8
330
1
100
AcDbSymbolTableRecord
100
AcDbBlockTableRecord
  2
_CLOSED
340
0
  0
ENDTAB
  0
ENDSEC
  0
SECTION
  2
BLOCKS
  0
BLOCK
  5
20
330
1F
100
AcDbEntity
  8
0
100
AcDbBlockBegin
  2
*Model_Space
 70
     0
 10
0.0
 20
0.0
 30
0.0
  3
*Model_Space
  1

  0
ENDBLK
  5
21
330
1F
100
AcDbEntity
  8
0
100
AcDbBlockEnd
  0
BLOCK
  5
1C
330
1B
100
AcDbEntity
 67
     1
  8
0
100
AcDbBlockBegin
  2
*Paper_Space
 70
     0
 10
0.0
 20
0.0
 30
0.0
  3
*Paper_Space
  1

  0
ENDBLK
  5
1D
330
1B
100
AcDbEntity
 67
     1
  8
0
100
AcDbBlockEnd
  0
BLOCK
  5
24
330
23
100
AcDbEntity
 67
     1
  8
0
100
AcDbBlockBegin
  2
*Paper_Space0
 70
     0
 10
0.0
 20
0.0
 30
0.0
  3
*Paper_Space0
  1

  0
ENDBLK
  5
25
330
23
100
AcDbEntity
 67
     1
  8
0
100
AcDbBlockEnd
  0
BLOCK
  5
91B
330
919
100
AcDbEntity
  8
0
100
AcDbBlockBegin
  2
_DotSmall
 70
     0
 10
0.0
 20
0.0
 30
0.0
  3
_DotSmall
  1

  0
LWPOLYLINE
  5
91A
330
919
100
AcDbEntity
  8
0
  6
ByBlock
 62
     0
100
AcDbPolyline
 90
        2
 70
     1
 43
0.5
 10
-0.0625
 20
0.0
 42
1.0
 10
0.0625
 20
0.0
 42
1.0
  0
ENDBLK
  5
91C
330
919
100
AcDbEntity
  8
0
100
AcDbBlockEnd
  0
BLOCK
  5
92A
330
922
100
AcDbEntity
  8
0
100
AcDbBlockBegin
  2
base para cotas
 70
     0
 10
0.0
 20
0.0
 30
0.0
  3
base para cotas
  1

  0
LINE
  5
B36
330
922
100
AcDbEntity
  8
cotas
100
AcDbLine
 10
0.0
 20
-30.0
 30
0.0
 11
327.1260136525398
 21
-30.0
 31
0.0
  0
LINE
  5
B37
330
922
100
AcDbEntity
  8
cotas
100
AcDbLine
 10
0.0
 20
-25.0
 30
0.0
 11
327.1260136525398
 21
-25.0
 31
0.0
  0
LINE
  5
B38
330
922
100
AcDbEntity
  8
cotas
100
AcDbLine
 10
0.0
 20
-20.0
 30
0.0
 11
327.1260136525398
 21
-20.0
 31
0.0
  0
LINE
  5
B39
330
922
100
AcDbEntity
  8
cotas
100
AcDbLine
 10
0.0
 20
-15.0
 30
0.0
 11
327.1260136525398
 21
-15.0
 31
0.0
  0
LINE
  5
B3A
330
922
100
AcDbEntity
  8
cotas
100
AcDbLine
 10
0.0
 20
-10.0
 30
0.0
 11
327.1260136525398
 21
-10.0
 31
0.0
  0
LINE
  5
B3B
330
922
100
AcDbEntity
  8
cotas
100
AcDbLine
 10
0.0
 20
0.0
 30
0.0
 11
0.0
 21
-30.0
 31
0.0
  0
LINE
  5
B3C
330
922
100
AcDbEntity
  8
cotas
100
AcDbLine
 10
327.1260136525398
 20
-30.0
 30
0.0
 11
327.1260136525398
 21
0.0
 31
0.0
  0
ENDBLK
  5
92B
330
922
100
AcDbEntity
  8
0
100
AcDbBlockEnd
  0
BLOCK
  5
AAD
330
AA8
100
AcDbEntity
  8
0
100
AcDbBlockBegin
  2
_CLOSED
 70
     0
 10
0.0
 20
0.0
 30
0.0
  3
_CLOSED
  1

  0
LINE
  5
AA9
330
AA8
100
AcDbEntity
  8
0
100
AcDbLine
 10
-1.0
 20
0.166667
 30
0.0
 11
0.0
 21
0.0
 31
0.0
  0
LINE
  5
AAA
330
AA8
100
AcDbEntity
  8
0
100
AcDbLine
 10
0.0
 20
0.0
 30
0.0
 11
-1.0
 21
-0.166667
 31
0.0
  0
LINE
  5
AAB
330
AA8
100
AcDbEntity
  8
0
100
AcDbLine
 10
-1.0
 20
0.166667
 30
0.0
 11
-1.0
 21
-0.166667
 31
0.0
  0
LINE
  5
AAC
330
AA8
100
AcDbEntity
  8
0
100
AcDbLine
 10
0.0
 20
0.0
 30
0.0
 11
-1.0
 21
0.0
 31
0.0
  0
ENDBLK
  5
AAE
330
AA8
100
AcDbEntity
  8
0
100
AcDbBlockEnd
  0
ENDSEC
  0
SECTION
  2
ENTITIES
  0
LINE
  5
13C9
330
1F
100
AcDbEntity
  8
SANINDUSA
100
AcDbLine
 10
2403.976463294112
 20
1367.258680412764
 30
0.0
 11
2403.970463294113
 21
1367.258680412764
 31
0.0
  0
ARC
  5
13CA
330
1F
100
AcDbEntity
  8
SANINDUSA
100
AcDbCircle
 10
2403.970463294113
 20
1367.259680412764
 30
0.0
 40
0.0010000000000001
100
AcDbArc
 50
180.0
 51
270.0
  0
LINE
  5
13CD
330
1F
100
AcDbEntity
  8
SANINDUSA
100
AcDbLine
 10
2404.862463294112
 20
1367.258680412764
 30
0.0
 11
2403.976463294112
 21
1367.258680412764
 31
0.0
  0
ARC
  5
13CF
330
1F
100
AcDbEntity
  8
SANINDUSA
100
AcDbCircle
 10
2404.870540294511
 20
1367.259680412764
 30
0.0
 40
0.0010000000000001
100
AcDbArc
 50
270.0
 51
0.9999999966945132
  0
LINE
  5
13D0
330
1F
100
AcDbEntity
  8
SANINDUSA
100
AcDbLine
 10
2404.870540294511
 20
1367.258680412764
 30
0.0
 11
2404.862463294112
 21
1367.258680412764
 31
0.0
  0
LINE
  5
13D5
330
1F
100
AcDbEntity
  8
SANINDUSA
100
AcDbLine
 10
2403.969463294112
 20
1367.259680412764
 30
0.0
 11
2403.969463294112
 21
1367.373680412764
 31
0.0
  0
LINE
  5
13D7
330
1F
100
AcDbEntity
  8
SANINDUSA
100
AcDbLine
 10
2404.871540142206
 20
1367.259697865171
 30
0.0
 11
2404.869549046273
 21
1367.373767674797
 31
0.0
  0
LINE
  5
13D8
330
1F
100
AcDbEntity
  8
SANINDUSA
100
AcDbLine
 10
2403.976463294112
 20
1367.378680412764
 30
0.0
 11
2404.862463294112
 21
1367.378680412764
 31
0.0
  0
LINE
  5
13DB
330
1F
100
AcDbEntity
  8
SANINDUSA
100
AcDbLine
 10
2403.974463294113
 20
1367.378680412764
 30
0.0
 11
2403.976463294112
 21
1367.378680412764
 31
0.0
  0
ARC
  5
13DC
330
1F
100
AcDbEntity
  8
SANINDUSA
100
AcDbCircle
 10
2403.974463294113
 20
1367.373680412764
 30
0.0
 40
0.005
100
AcDbArc
 50
90.0
 51
180.0
  0
LINE
  5
13DD
330
1F
100
AcDbEntity
  8
SANINDUSA
100
AcDbLine
 10
2404.862463294112
 20
1367.378680412764
 30
0.0
 11
2404.864549807797
 21
1367.378680412764
 31
0.0
  0
ARC
  5
13DE
330
1F
100
AcDbEntity
  8
SANINDUSA
100
AcDbCircle
 10
2404.864549807797
 20
1367.373680412764
 30
0.0
 40
0.005
100
AcDbArc
 50
0.9999999966945132
 51
90.0
  0
ARC
  5
13E0
330
1F
100
AcDbEntity
  8
SANINDUSA
100
AcDbCircle
 10
2403.232309045508
 20
1365.574958467235
 30
0.0
 40
1.451025543699758
100
AcDbArc
 50
74.97218169525149
 51
105.0278183047485
  0
LWPOLYLINE
  5
13E4
330
1F
100
AcDbEntity
  8
SANINDUSA
100
AcDbPolyline
 90
        9
 70
   128
 43
0.0
 10
2402.849456068146
 20
1366.967662300709
 10
2402.847707934255
 20
1366.967460059567
 10
2402.845942940345
 20
1366.967650627316
 10
2402.844249967521
 20
1366.968224407395
 10
2402.842714270066
 20
1366.969152505536
 10
2402.841413182232
 20
1366.970388184815
 10
2402.840412223862
 20
1366.971869219217
 10
2402.839761800953
 20
1366.973521027198
 10
2402.839494667336
 20
1366.975260427443
  0
LWPOLYLINE
  5
13E9
330
1F
100
AcDbEntity
  8
SANINDUSA
100
AcDbPolyline
 90
        9
 70
   128
 43
0.0
 10
2403.625123423681
 20
1366.975260427443
 10
2403.624856290063
 20
1366.973521027198
 10
2403.624205867155
 20
1366.971869219217
 10
2403.623204908784
 20
1366.970388184815
 10
2403.62190382095
 20
1366.969152505536
 10
2403.620368123495
 20
1366.968224407395
 10
2403.618675150671
 20
1366.967650627316
 10
2403.616910156762
 20
1366.967460059567
 10
2403.61516202287
 20
1366.967662300709
  0
LWPOLYLINE
  5
13EC
330
1F
100
AcDbEntity
  8
SANINDUSA
100
AcDbPolyline
 90
        9
 70
   128
 43
0.0
 10
2402.839494667336
 20
1367.68937861924
 10
2402.83962359931
 20
1367.690638695224
 10
2402.839949387487
 20
1367.691866762329
 10
2402.840463756083
 20
1367.693031624776
 10
2402.841153638932
 20
1367.694103692332
 10
2402.842001511395
 20
1367.695055731972
 10
2402.842985835527
 20
1367.69586355966
 10
2402.844081607192
 20
1367.696506654684
 10
2402.845260991223
 20
1367.696968680923
  0
LWPOLYLINE
  5
13ED
330
1F
100
AcDbEntity
  8
SANINDUSA
100
AcDbPolyline
 90
        9
 70
   128
 43
0.0
 10
2403.619357099793
 20
1367.696968680923
 10
2403.620536483825
 20
1367.696506654684
 10
2403.621632255489
 20
1367.69586355966
 10
2403.622616579621
 20
1367.695055731972
 10
2403.623464452085
 20
1367.694103692332
 10
2403.624154334934
 20
1367.693031624776
 10
2403.62466870353
 20
1367.691866762329
 10
2403.624994491706
 20
1367.690638695224
 10
2403.625123423681
 20
1367.68937861924
  0
ARC
  5
13F0
330
1F
100
AcDbEntity
  8
SANINDUSA
100
AcDbCircle
 10
2402.789223064921
 20
1366.914003264813
 30
0.0
 40
0.006999771577112
100
AcDbArc
 50
179.9981302466572
 51
270.0
  0
ARC
  5
13F4
330
1F
100
AcDbEntity
  8
SANINDUSA
100
AcDbCircle
 10
2402.789309045508
 20
1367.800003493239
 30
0.0
 40
0.0070857521602035
100
AcDbArc
 50
90.0
 51
180.0
  0
LINE
  5
13F8
330
1F
100
AcDbEntity
  8
SANINDUSA
100
AcDbLine
 10
2402.782223293348
 20
1366.914003493239
 30
0.0
 11
2402.782223293348
 21
1367.800003493239
 31
0.0
  0
LINE
  5
1405
330
1F
100
AcDbEntity
  8
SANINDUSA
100
AcDbLine
 10
2403.675395254536
 20
1366.90700349324
 30
0.0
 11
2402.78922283648
 21
1366.90700349324
 31
0.0
  0
LINE
  5
1406
330
1F
100
AcDbEntity
  8
SANINDUSA
100
AcDbLine
 10
2402.789309045508
 20
1367.8070892454
 30
0.0
 11
2403.675309045508
 21
1367.8070892454
 31
0.0
  0
LINE
  5
1408
330
1F
100
AcDbEntity
  8
SANINDUSA
100
AcDbLine
 10
2402.839494667336
 20
1367.68937861924
 30
0.0
 11
2402.839494667336
 21
1366.975260427443
 31
0.0
  0
ARC
  5
1409
330
1F
100
AcDbEntity
  8
SANINDUSA
100
AcDbCircle
 10
2403.232309045508
 20
1365.57109440233
 30
0.0
 40
1.448094712736614
100
AcDbArc
 50
74.66965070219046
 51
105.3303492978095
  0
ARC
  5
140A
330
1F
100
AcDbEntity
  8
SANINDUSA
100
AcDbCircle
 10
2403.232309045508
 20
1366.30609440233
 30
0.0
 40
1.443723469081571
100
AcDbArc
 50
74.4493482676482
 51
105.5506517323518
  0
LINE
  5
140B
330
1F
100
AcDbEntity
  8
SANINDUSA
100
AcDbLine
 10
2403.625123423681
 20
1366.975260427443
 30
0.0
 11
2403.625123423681
 21
1367.68937861924
 31
0.0
  0
ARC
  5
140C
330
1F
100
AcDbEntity
  8
SANINDUSA
100
AcDbCircle
 10
2403.675309045508
 20
1367.800003493239
 30
0.0
 40
0.0070857521602035
100
AcDbArc
 50
0.0
 51
90.0
  0
ARC
  5
140F
330
1F
100
AcDbEntity
  8
SANINDUSA
100
AcDbCircle
 10
2403.675395026095
 20
1366.914003264813
 30
0.0
 40
0.0069997715771178
100
AcDbArc
 50
270.0
 51
0.0018697533428032
  0
LINE
  5
1410
330
1F
100
AcDbEntity
  8
SANINDUSA
100
AcDbLine
 10
2403.682394797668
 20
1367.800003493239
 30
0.0
 11
2403.682394797668
 21
1366.914003493239
 31
0.0
  0
ARC
  5
1415
330
1F
100
AcDbEntity
  8
SANINDUSA
100
AcDbCircle
 10
2403.232309045508
 20
1366.302404276291
 30
0.0
 40
1.438876052884334
100
AcDbArc
 50
74.7443208076298
 51
105.2556791923702
  0
LINE
  5
1425
330
1F
100
AcDbEntity
  8
SANINDUSA
100
AcDbLine
 10
2403.677385131938
 20
1366.90700349324
 30
0.0
 11
2403.675395254536
 21
1366.90700349324
 31
0.0
  0
LINE
  5
142F
330
1F
100
AcDbEntity
  8
SANINDUSA
100
AcDbLine
 10
2402.846115304194
 20
1366.983913643154
 30
0.0
 11
2402.847944002881
 21
1367.682942696387
 31
0.0
  0
LINE
  5
1438
330
1F
100
AcDbEntity
  8
SANINDUSA
100
AcDbLine
 10
2403.616674088136
 20
1367.682942696387
 30
0.0
 11
2403.618502786823
 21
1366.983913643154
 31
0.0
  0
LWPOLYLINE
  5
1439
330
1F
100
AcDbEntity
  8
SANINDUSA
100
AcDbPolyline
 90
        9
 70
   128
 43
0.0
 10
2402.856075546099
 20
1366.976359010403
 10
2402.854339291911
 20
1366.976172300441
 10
2402.852588018149
 20
1366.97637427741
 10
2402.850909025764
 20
1366.976954872763
 10
2402.849386012484
 20
1366.977885143838
 10
2402.848094900481
 20
1366.979118716646
 10
2402.847100051656
 20
1366.980594097612
 10
2402.846451059196
 20
1366.982237739036
 10
2402.846180275358
 20
1366.983967705434
  0
LWPOLYLINE
  5
143B
330
1F
100
AcDbEntity
  8
SANINDUSA
100
AcDbPolyline
 90
        9
 70
   128
 43
0.0
 10
2403.618437815658
 20
1366.983967705434
 10
2403.618167031821
 20
1366.982237739036
 10
2403.617518039361
 20
1366.980594097612
 10
2403.616523190536
 20
1366.979118716646
 10
2403.615232078533
 20
1366.977885143838
 10
2403.613709065253
 20
1366.976954872763
 10
2403.612030072868
 20
1366.97637427741
 10
2403.610278799106
 20
1366.976172300441
 10
2403.608542544918
 20
1366.976359010403
  0
LWPOLYLINE
  5
1443
330
1F
100
AcDbEntity
  8
SANINDUSA
100
AcDbPolyline
 90
        9
 70
   128
 43
0.0
 10
2402.847944002881
 20
1367.682942696387
 10
2402.848076750447
 20
1367.684202490828
 10
2402.848407022283
 20
1367.685430159119
 10
2402.848926396092
 20
1367.686594394365
 10
2402.849621627269
 20
1367.687665507282
 10
2402.85047498665
 20
1367.688616183307
 10
2402.85146471263
 20
1367.689422179152
 10
2402.852565566103
 20
1367.690062941034
 10
2402.853749474092
 20
1367.690522128817
  0
LWPOLYLINE
  5
1444
330
1F
100
AcDbEntity
  8
SANINDUSA
100
AcDbPolyline
 90
        9
 70
   128
 43
0.0
 10
2403.610868616925
 20
1367.690522128817
 10
2403.612052524913
 20
1367.690062941034
 10
2403.613153378387
 20
1367.689422179152
 10
2403.614143104367
 20
1367.688616183307
 10
2403.614996463748
 20
1367.687665507282
 10
2403.615691694924
 20
1367.686594394365
 10
2403.616211068733
 20
1367.685430159119
 10
2403.616541340569
 20
1367.684202490828
 10
2403.616674088136
 20
1367.682942696387
  0
ARC
  5
1445
330
1F
100
AcDbEntity
  8
SANINDUSA
100
AcDbCircle
 10
2403.471495840657
 20
1367.142439193874
 30
0.0
 40
0.0164896483649001
100
AcDbArc
 50
21.37678875580359
 51
141.3280825934888
  0
ARC
  5
1446
330
1F
100
AcDbEntity
  8
SANINDUSA
100
AcDbCircle
 10
2403.462982672422
 20
1367.149171111358
 30
0.0
 40
0.0056369582663691
100
AcDbArc
 50
140.6807713570362
 51
202.0203505865165
  0
ARC
  5
1447
330
1F
100
AcDbEntity
  8
SANINDUSA
100
AcDbCircle
 10
2403.47311214527
 20
1367.153068083157
 30
0.0
 40
0.0164896483648998
100
AcDbArc
 50
201.3767887558036
 51
321.3280825934889
  0
ARC
  5
1448
330
1F
100
AcDbEntity
  8
SANINDUSA
100
AcDbCircle
 10
2403.481625313506
 20
1367.146336165673
 30
0.0
 40
0.005636958266351
100
AcDbArc
 50
320.6807713570362
 51
22.02035058651652
  0
ARC
  5
1449
330
1F
100
AcDbEntity
  8
SANINDUSA
100
AcDbCircle
 10
2403.421987444457
 20
1367.154618711101
 30
0.0
 40
0.0056369360993686
100
AcDbArc
 50
322.8429042085935
 51
24.18267700354944
  0
ARC
  5
144A
330
1F
100
AcDbEntity
  8
SANINDUSA
100
AcDbCircle
 10
2403.412012113435
 20
1367.150342398017
 30
0.0
 40
0.0164896934120444
100
AcDbArc
 50
23.53872254529203
 51
143.4896896097335
  0
ARC
  5
144B
330
1F
100
AcDbEntity
  8
SANINDUSA
100
AcDbCircle
 10
2403.403251064535
 20
1367.156748505121
 30
0.0
 40
0.0056369360993588
100
AcDbArc
 50
142.8429042085935
 51
204.1826770035494
  0
ARC
  5
144C
330
1F
100
AcDbEntity
  8
SANINDUSA
100
AcDbCircle
 10
2403.413226395557
 20
1367.161024818205
 30
0.0
 40
0.0164896934120452
100
AcDbArc
 50
203.538722545292
 51
323.4896896097335
  0
ARC
  5
144D
330
1F
100
AcDbEntity
  8
SANINDUSA
100
AcDbCircle
 10
2403.362079529578
 20
1367.160645766525
 30
0.0
 40
0.0056369184825563
100
AcDbArc
 50
325.0050581296784
 51
26.3449903948763
  0
ARC
  5
144E
330
1F
100
AcDbEntity
  8
SANINDUSA
100
AcDbCircle
 10
2403.352272550051
 20
1367.155996207779
 30
0.0
 40
0.0164897286080001
100
AcDbArc
 50
25.70062332300944
 51
145.6513215654432
  0
ARC
  5
144F
330
1F
100
AcDbEntity
  8
SANINDUSA
100
AcDbCircle
 10
2403.343276091804
 20
1367.162067373422
 30
0.0
 40
0.0056369184825679
100
AcDbArc
 50
145.0050581296784
 51
206.3449903948763
  0
ARC
  5
1450
330
1F
100
AcDbEntity
  8
SANINDUSA
100
AcDbCircle
 10
2403.35308307133
 20
1367.166716932168
 30
0.0
 40
0.0164897286079978
100
AcDbArc
 50
205.7006233230094
 51
325.6513215654432
  0
ARC
  5
1451
330
1F
100
AcDbEntity
  8
SANINDUSA
100
AcDbCircle
 10
2403.301986858833
 20
1367.164408750938
 30
0.0
 40
0.0056369055162465
100
AcDbArc
 50
327.167232260122
 51
28.50728896615404
  0
ARC
  5
1452
330
1F
100
AcDbEntity
  8
SANINDUSA
100
AcDbCircle
 10
2403.292362199894
 20
1367.159392574387
 30
0.0
 40
0.0164897537523241
100
AcDbArc
 50
27.86249166712998
 51
147.8129805539471
  0
ARC
  5
1453
330
1F
100
AcDbEntity
  8
SANINDUSA
100
AcDbCircle
 10
2403.283143139996
 20
1367.165120144221
 30
0.0
 40
0.0056369055162157
100
AcDbArc
 50
147.167232260122
 51
208.5072889661541
  0
ARC
  5
1454
330
1F
100
AcDbEntity
  8
SANINDUSA
100
AcDbCircle
 10
2403.292767798934
 20
1367.170136320773
 30
0.0
 40
0.0164897537523242
100
AcDbArc
 50
207.86249166713
 51
327.812980553947
  0
ARC
  5
1455
330
1F
100
AcDbEntity
  8
SANINDUSA
100
AcDbCircle
 10
2403.241794985266
 20
1367.16590230665
 30
0.0
 40
0.0056368972741039
100
AcDbArc
 50
329.3294256078763
 51
30.66957102135528
  0
ARC
  5
1456
330
1F
100
AcDbEntity
  8
SANINDUSA
100
AcDbCircle
 10
2403.232366355454
 20
1367.160526662838
 30
0.0
 40
0.0164897687018141
100
AcDbArc
 50
30.02432833974661
 51
149.9746685232601
  0
ARC
  5
1457
330
1F
100
AcDbEntity
  8
SANINDUSA
100
AcDbCircle
 10
2403.222937819749
 20
1367.165902471707
 30
0.0
 40
0.0056368972741063
100
AcDbArc
 50
149.3294256078763
 51
210.6695710213553
  0
ARC
  5
1458
330
1F
100
AcDbEntity
  8
SANINDUSA
100
AcDbCircle
 10
2403.232366449561
 20
1367.171278115519
 30
0.0
 40
0.0164897687018163
100
AcDbArc
 50
210.0243283397466
 51
329.9746685232601
  0
ARC
  5
1459
330
1F
100
AcDbEntity
  8
SANINDUSA
100
AcDbCircle
 10
2403.181589603195
 20
1367.165124306912
 30
0.0
 40
0.0056368938031691
100
AcDbArc
 50
331.4916370867011
 51
32.83183497637749
  0
ARC
  5
145A
330
1F
100
AcDbEntity
  8
SANINDUSA
100
AcDbCircle
 10
2403.1723704309
 20
1367.159396858777
 30
0.0
 40
0.0164897733713244
100
AcDbArc
 50
32.18613424851629
 51
152.1363872432926
  0
ARC
  5
145B
330
1F
100
AcDbEntity
  8
SANINDUSA
100
AcDbCircle
 10
2403.162745844687
 20
1367.164413242481
 30
0.0
 40
0.0056368938031971
100
AcDbArc
 50
151.4916370867011
 51
212.8318349763775
  0
ARC
  5
145C
330
1F
100
AcDbEntity
  8
SANINDUSA
100
AcDbCircle
 10
2403.171965016983
 20
1367.170140690616
 30
0.0
 40
0.0164897733713262
100
AcDbArc
 50
212.1861342485163
 51
332.1363872432926
  0
ARC
  5
145D
330
1F
100
AcDbEntity
  8
SANINDUSA
100
AcDbCircle
 10
2403.121456426219
 20
1367.162075858955
 30
0.0
 40
0.0056368951231435
100
AcDbArc
 50
333.653865444235
 51
34.99407932255926
  0
ARC
  5
145E
330
1F
100
AcDbEntity
  8
SANINDUSA
100
AcDbCircle
 10
2403.1124598405
 20
1367.156004770793
 30
0.0
 40
0.0164897677342442
100
AcDbArc
 50
34.34791050829324
 51
154.2981383272589
  0
ARC
  5
145F
330
1F
100
AcDbEntity
  8
SANINDUSA
100
AcDbCircle
 10
2403.102652909393
 20
1367.160654577137
 30
0.0
 40
0.0056368951231702
100
AcDbArc
 50
153.6538654559094
 51
214.9940793225593
  0
ARC
  5
1460
330
1F
100
AcDbEntity
  8
SANINDUSA
100
AcDbCircle
 10
2403.111649495111
 20
1367.1667256653
 30
0.0
 40
0.0164897677342412
100
AcDbArc
 50
214.3479105082932
 51
334.2981383272589
  0
ARC
  5
1461
330
1F
100
AcDbEntity
  8
SANINDUSA
100
AcDbCircle
 10
2403.061481065181
 20
1367.156761302417
 30
0.0
 40
0.0056369012265385
100
AcDbArc
 50
335.8161094433716
 51
37.15630264332366
  0
ARC
  5
1462
330
1F
100
AcDbEntity
  8
SANINDUSA
100
AcDbCircle
 10
2403.05271987703
 20
1367.150355228128
 30
0.0
 40
0.0164897518226546
100
AcDbArc
 50
36.50965838482032
 51
156.4599231887857
  0
ARC
  5
1463
330
1F
100
AcDbEntity
  8
SANINDUSA
100
AcDbCircle
 10
2403.042744567398
 20
1367.154631827239
 30
0.0
 40
0.0056369012265506
100
AcDbArc
 50
155.8161094433716
 51
217.1563026433237
  0
ARC
  5
1464
330
1F
100
AcDbEntity
  8
SANINDUSA
100
AcDbCircle
 10
2403.051505755549
 20
1367.161037901528
 30
0.0
 40
0.0164897518226503
100
AcDbArc
 50
216.5096583848203
 51
336.4599231887857
  0
ARC
  5
1465
330
1F
100
AcDbEntity
  8
SANINDUSA
100
AcDbCircle
 10
2403.00174890629
 20
1367.149188203168
 30
0.0
 40
0.0056369120786052
100
AcDbArc
 50
337.9783676628274
 51
39.31850369086706
  0
ARC
  5
1466
330
1F
100
AcDbEntity
  8
SANINDUSA
100
AcDbCircle
 10
2402.993235590352
 20
1367.142456273803
 30
0.0
 40
0.0164897257271442
100
AcDbArc
 50
38.67137933204508
 51
158.6217430330988
  0
ARC
  5
1467
330
1F
100
AcDbEntity
  8
SANINDUSA
100
AcDbCircle
 10
2402.983106109389
 20
1367.146353567694
 30
0.0
 40
0.0056369120785763
100
AcDbArc
 50
157.9783676628274
 51
219.318503690867
  0
ARC
  5
1468
330
1F
100
AcDbEntity
  8
SANINDUSA
100
AcDbCircle
 10
2402.991619425327
 20
1367.153085497059
 30
0.0
 40
0.0164897257271452
100
AcDbArc
 50
218.6713793320451
 51
338.6217430330988
  0
ARC
  5
1469
330
1F
100
AcDbEntity
  8
SANINDUSA
100
AcDbCircle
 10
2403.481625313506
 20
1367.211329013006
 30
0.0
 40
0.005636958266333
100
AcDbArc
 50
320.6807713570362
 51
22.02035058651652
  0
ARC
  5
146A
330
1F
100
AcDbEntity
  8
SANINDUSA
100
AcDbCircle
 10
2403.471495840657
 20
1367.207432041208
 30
0.0
 40
0.0164896483648989
100
AcDbArc
 50
21.37678875580359
 51
141.3280825934888
  0
ARC
  5
146B
330
1F
100
AcDbEntity
  8
SANINDUSA
100
AcDbCircle
 10
2403.462982672422
 20
1367.214163958692
 30
0.0
 40
0.0056369582663696
100
AcDbArc
 50
140.6807713570362
 51
202.0203505865165
  0
ARC
  5
146C
330
1F
100
AcDbEntity
  8
SANINDUSA
100
AcDbCircle
 10
2403.47311214527
 20
1367.21806093049
 30
0.0
 40
0.0164896483648995
100
AcDbArc
 50
201.3767887558036
 51
321.3280825934889
  0
ARC
  5
146D
330
1F
100
AcDbEntity
  8
SANINDUSA
100
AcDbCircle
 10
2403.421987444457
 20
1367.219611558434
 30
0.0
 40
0.0056369360993763
100
AcDbArc
 50
322.8429042085935
 51
24.18267700354944
  0
ARC
  5
146E
330
1F
100
AcDbEntity
  8
SANINDUSA
100
AcDbCircle
 10
2403.412012113435
 20
1367.21533524535
 30
0.0
 40
0.0164896934120448
100
AcDbArc
 50
23.53872254529203
 51
143.4896896097335
  0
ARC
  5
146F
330
1F
100
AcDbEntity
  8
SANINDUSA
100
AcDbCircle
 10
2403.403251064535
 20
1367.221741352454
 30
0.0
 40
0.0056369360993621
100
AcDbArc
 50
142.8429042085935
 51
204.1826770035494
  0
ARC
  5
1470
330
1F
100
AcDbEntity
  8
SANINDUSA
100
AcDbCircle
 10
2403.413226395557
 20
1367.226017665538
 30
0.0
 40
0.0164896934120447
100
AcDbArc
 50
203.538722545292
 51
323.4896896097335
  0
ARC
  5
1471
330
1F
100
AcDbEntity
  8
SANINDUSA
100
AcDbCircle
 10
2403.362079529578
 20
1367.225638613858
 30
0.0
 40
0.0056369184825744
100
AcDbArc
 50
325.0050581296784
 51
26.3449903948763
  0
ARC
  5
1472
330
1F
100
AcDbEntity
  8
SANINDUSA
100
AcDbCircle
 10
2403.352272550051
 20
1367.220989055112
 30
0.0
 40
0.0164897286079986
100
AcDbArc
 50
25.70062332300944
 51
145.6513215654432
  0
ARC
  5
1473
330
1F
100
AcDbEntity
  8
SANINDUSA
100
AcDbCircle
 10
2403.343276091805
 20
1367.227060220756
 30
0.0
 40
0.0056369184825814
100
AcDbArc
 50
145.0050581296784
 51
206.3449903948763
  0
ARC
  5
1474
330
1F
100
AcDbEntity
  8
SANINDUSA
100
AcDbCircle
 10
2403.35308307133
 20
1367.231709779501
 30
0.0
 40
0.016489728608
100
AcDbArc
 50
205.7006233230094
 51
325.6513215654432
  0
ARC
  5
1475
330
1F
100
AcDbEntity
  8
SANINDUSA
100
AcDbCircle
 10
2403.301986858833
 20
1367.229401598271
 30
0.0
 40
0.0056369055162354
100
AcDbArc
 50
327.167232260122
 51
28.50728896615404
  0
ARC
  5
1476
330
1F
100
AcDbEntity
  8
SANINDUSA
100
AcDbCircle
 10
2403.292362199894
 20
1367.22438542172
 30
0.0
 40
0.0164897537523238
100
AcDbArc
 50
27.86249166712998
 51
147.8129805539471
  0
ARC
  5
1477
330
1F
100
AcDbEntity
  8
SANINDUSA
100
AcDbCircle
 10
2403.283143139996
 20
1367.230112991555
 30
0.0
 40
0.005636905516208
100
AcDbArc
 50
147.167232260122
 51
208.5072889661541
  0
ARC
  5
1478
330
1F
100
AcDbEntity
  8
SANINDUSA
100
AcDbCircle
 10
2403.292767798934
 20
1367.235129168106
 30
0.0
 40
0.0164897537523226
100
AcDbArc
 50
207.86249166713
 51
327.812980553947
  0
ARC
  5
1479
330
1F
100
AcDbEntity
  8
SANINDUSA
100
AcDbCircle
 10
2403.241794985266
 20
1367.230895153983
 30
0.0
 40
0.0056368972741382
100
AcDbArc
 50
329.3294256078763
 51
30.66957102135528
  0
ARC
  5
147A
330
1F
100
AcDbEntity
  8
SANINDUSA
100
AcDbCircle
 10
2403.232366355454
 20
1367.225519510171
 30
0.0
 40
0.0164897687018145
100
AcDbArc
 50
30.02432833974661
 51
149.9746685232601
  0
ARC
  5
147B
330
1F
100
AcDbEntity
  8
SANINDUSA
100
AcDbCircle
 10
2403.222937819749
 20
1367.230895319041
 30
0.0
 40
0.0056368972741017
100
AcDbArc
 50
149.3294256078763
 51
210.6695710213553
  0
ARC
  5
147C
330
1F
100
AcDbEntity
  8
SANINDUSA
100
AcDbCircle
 10
2403.232366449561
 20
1367.236270962852
 30
0.0
 40
0.0164897687018143
100
AcDbArc
 50
210.0243283397466
 51
329.9746685232601
  0
ARC
  5
147D
330
1F
100
AcDbEntity
  8
SANINDUSA
100
AcDbCircle
 10
2403.181589603195
 20
1367.230117154245
 30
0.0
 40
0.0056368938032026
100
AcDbArc
 50
331.4916370867011
 51
32.83183497637749
  0
ARC
  5
147E
330
1F
100
AcDbEntity
  8
SANINDUSA
100
AcDbCircle
 10
2403.1723704309
 20
1367.22438970611
 30
0.0
 40
0.0164897733713268
100
AcDbArc
 50
32.18613424851629
 51
152.1363872432926
  0
ARC
  5
147F
330
1F
100
AcDbEntity
  8
SANINDUSA
100
AcDbCircle
 10
2403.162745844687
 20
1367.229406089814
 30
0.0
 40
0.0056368938031772
100
AcDbArc
 50
151.4916370867011
 51
212.8318349763775
  0
ARC
  5
1480
330
1F
100
AcDbEntity
  8
SANINDUSA
100
AcDbCircle
 10
2403.171965016983
 20
1367.23513353795
 30
0.0
 40
0.0164897733713235
100
AcDbArc
 50
212.1861342485163
 51
332.1363872432926
  0
ARC
  5
1481
330
1F
100
AcDbEntity
  8
SANINDUSA
100
AcDbCircle
 10
2403.121456426219
 20
1367.227068706289
 30
0.0
 40
0.0056368951231544
100
AcDbArc
 50
333.6538654559094
 51
34.99407932255926
  0
ARC
  5
1482
330
1F
100
AcDbEntity
  8
SANINDUSA
100
AcDbCircle
 10
2403.1124598405
 20
1367.220997618126
 30
0.0
 40
0.016489767734243
100
AcDbArc
 50
34.34791050829324
 51
154.2981383272589
  0
ARC
  5
1483
330
1F
100
AcDbEntity
  8
SANINDUSA
100
AcDbCircle
 10
2403.102652909393
 20
1367.225647424471
 30
0.0
 40
0.0056368951231294
100
AcDbArc
 50
153.653865444235
 51
214.9940793225593
  0
ARC
  5
1484
330
1F
100
AcDbEntity
  8
SANINDUSA
100
AcDbCircle
 10
2403.111649495111
 20
1367.231718512633
 30
0.0
 40
0.0164897677342416
100
AcDbArc
 50
214.3479105082932
 51
334.2981383272589
  0
ARC
  5
1485
330
1F
100
AcDbEntity
  8
SANINDUSA
100
AcDbCircle
 10
2403.061481065181
 20
1367.22175414975
 30
0.0
 40
0.0056369012265809
100
AcDbArc
 50
335.8161094433716
 51
37.15630264332366
  0
ARC
  5
1486
330
1F
100
AcDbEntity
  8
SANINDUSA
100
AcDbCircle
 10
2403.05271987703
 20
1367.215348075462
 30
0.0
 40
0.0164897518226522
100
AcDbArc
 50
36.50965838482032
 51
156.4599231887857
  0
ARC
  5
1487
330
1F
100
AcDbEntity
  8
SANINDUSA
100
AcDbCircle
 10
2403.042744567398
 20
1367.219624674573
 30
0.0
 40
0.0056369012265592
100
AcDbArc
 50
155.8161094433716
 51
217.1563026433237
  0
ARC
  5
1488
330
1F
100
AcDbEntity
  8
SANINDUSA
100
AcDbCircle
 10
2403.051505755549
 20
1367.226030748861
 30
0.0
 40
0.0164897518226524
100
AcDbArc
 50
216.5096583848203
 51
336.4599231887857
  0
ARC
  5
1489
330
1F
100
AcDbEntity
  8
SANINDUSA
100
AcDbCircle
 10
2403.00174890629
 20
1367.214181050501
 30
0.0
 40
0.0056369120786179
100
AcDbArc
 50
337.9783676628274
 51
39.31850369086706
  0
ARC
  5
148A
330
1F
100
AcDbEntity
  8
SANINDUSA
100
AcDbCircle
 10
2402.993235590352
 20
1367.207449121136
 30
0.0
 40
0.016489725727143
100
AcDbArc
 50
38.67137933204508
 51
158.6217430330988
  0
ARC
  5
148B
330
1F
100
AcDbEntity
  8
SANINDUSA
100
AcDbCircle
 10
2402.983106109389
 20
1367.211346415027
 30
0.0
 40
0.0056369120785901
100
AcDbArc
 50
157.9783676628274
 51
219.318503690867
  0
ARC
  5
148C
330
1F
100
AcDbEntity
  8
SANINDUSA
100
AcDbCircle
 10
2402.991619425327
 20
1367.218078344392
 30
0.0
 40
0.0164897257271449
100
AcDbArc
 50
218.6713793320451
 51
338.6217430330988
  0
ARC
  5
148D
330
1F
100
AcDbEntity
  8
SANINDUSA
100
AcDbCircle
 10
2403.481625313506
 20
1367.27632186034
 30
0.0
 40
0.0056369582663486
100
AcDbArc
 50
320.6807713570362
 51
22.02035058651652
  0
ARC
  5
148E
330
1F
100
AcDbEntity
  8
SANINDUSA
100
AcDbCircle
 10
2403.471495840657
 20
1367.272424888541
 30
0.0
 40
0.0164896483648998
100
AcDbArc
 50
21.37678875580359
 51
141.3280825934888
  0
ARC
  5
148F
330
1F
100
AcDbEntity
  8
SANINDUSA
100
AcDbCircle
 10
2403.462982672422
 20
1367.279156806025
 30
0.0
 40
0.0056369582663457
100
AcDbArc
 50
140.6807713570362
 51
202.0203505865165
  0
ARC
  5
1490
330
1F
100
AcDbEntity
  8
SANINDUSA
100
AcDbCircle
 10
2403.47311214527
 20
1367.283053777823
 30
0.0
 40
0.016489648364901
100
AcDbArc
 50
201.3767887558036
 51
321.3280825934889
  0
ARC
  5
1491
330
1F
100
AcDbEntity
  8
SANINDUSA
100
AcDbCircle
 10
2403.421987444457
 20
1367.284604405768
 30
0.0
 40
0.0056369360993747
100
AcDbArc
 50
322.8429042085935
 51
24.18267700354944
  0
ARC
  5
1492
330
1F
100
AcDbEntity
  8
SANINDUSA
100
AcDbCircle
 10
2403.412012113435
 20
1367.280328092684
 30
0.0
 40
0.0164896934120468
100
AcDbArc
 50
23.53872254529203
 51
143.4896896097335
  0
ARC
  5
1493
330
1F
100
AcDbEntity
  8
SANINDUSA
100
AcDbCircle
 10
2403.403251064535
 20
1367.286734199787
 30
0.0
 40
0.005636936099351
100
AcDbArc
 50
142.8429042085935
 51
204.1826770035494
  0
ARC
  5
1494
330
1F
100
AcDbEntity
  8
SANINDUSA
100
AcDbCircle
 10
2403.413226395557
 20
1367.291010512872
 30
0.0
 40
0.0164896934120452
100
AcDbArc
 50
203.538722545292
 51
323.4896896097335
  0
ARC
  5
1495
330
1F
100
AcDbEntity
  8
SANINDUSA
100
AcDbCircle
 10
2403.362079529578
 20
1367.290631461191
 30
0.0
 40
0.0056369184825718
100
AcDbArc
 50
325.0050581296784
 51
26.3449903948763
  0
ARC
  5
1496
330
1F
100
AcDbEntity
  8
SANINDUSA
100
AcDbCircle
 10
2403.352272550051
 20
1367.285981902445
 30
0.0
 40
0.0164897286080002
100
AcDbArc
 50
25.70062332300944
 51
145.6513215654432
  0
ARC
  5
1497
330
1F
100
AcDbEntity
  8
SANINDUSA
100
AcDbCircle
 10
2403.343276091804
 20
1367.292053068089
 30
0.0
 40
0.0056369184825394
100
AcDbArc
 50
145.0050581296784
 51
206.3449903948763
  0
ARC
  5
1498
330
1F
100
AcDbEntity
  8
SANINDUSA
100
AcDbCircle
 10
2403.35308307133
 20
1367.296702626835
 30
0.0
 40
0.0164897286079993
100
AcDbArc
 50
205.7006233230094
 51
325.6513215654432
  0
ARC
  5
1499
330
1F
100
AcDbEntity
  8
SANINDUSA
100
AcDbCircle
 10
2403.301986858833
 20
1367.294394445605
 30
0.0
 40
0.0056369055162339
100
AcDbArc
 50
327.167232260122
 51
28.50728896615404
  0
ARC
  5
149A
330
1F
100
AcDbEntity
  8
SANINDUSA
100
AcDbCircle
 10
2403.292362199894
 20
1367.289378269054
 30
0.0
 40
0.0164897537523245
100
AcDbArc
 50
27.86249166712998
 51
147.8129805539471
  0
ARC
  5
149B
330
1F
100
AcDbEntity
  8
SANINDUSA
100
AcDbCircle
 10
2403.283143139996
 20
1367.295105838888
 30
0.0
 40
0.005636905516216
100
AcDbArc
 50
147.167232260122
 51
208.5072889661541
  0
ARC
  5
149C
330
1F
100
AcDbEntity
  8
SANINDUSA
100
AcDbCircle
 10
2403.292767798934
 20
1367.300122015439
 30
0.0
 40
0.0164897537523246
100
AcDbArc
 50
207.86249166713
 51
327.812980553947
  0
ARC
  5
149D
330
1F
100
AcDbEntity
  8
SANINDUSA
100
AcDbCircle
 10
2403.241794985266
 20
1367.295888001316
 30
0.0
 40
0.0056368972741126
100
AcDbArc
 50
329.3294256078763
 51
30.66957102135528
  0
ARC
  5
149E
330
1F
100
AcDbEntity
  8
SANINDUSA
100
AcDbCircle
 10
2403.232366355454
 20
1367.290512357504
 30
0.0
 40
0.0164897687018146
100
AcDbArc
 50
30.02432833974661
 51
149.9746685232601
  0
ARC
  5
149F
330
1F
100
AcDbEntity
  8
SANINDUSA
100
AcDbCircle
 10
2403.222937819749
 20
1367.295888166374
 30
0.0
 40
0.0056368972741062
100
AcDbArc
 50
149.3294256078763
 51
210.6695710213553
  0
ARC
  5
14A0
330
1F
100
AcDbEntity
  8
SANINDUSA
100
AcDbCircle
 10
2403.232366449561
 20
1367.301263810186
 30
0.0
 40
0.0164897687018128
100
AcDbArc
 50
210.0243283397466
 51
329.9746685232601
  0
ARC
  5
14A1
330
1F
100
AcDbEntity
  8
SANINDUSA
100
AcDbCircle
 10
2403.181589603195
 20
1367.295110001579
 30
0.0
 40
0.0056368938032081
100
AcDbArc
 50
331.4916370867011
 51
32.83183497637749
  0
ARC
  5
14A2
330
1F
100
AcDbEntity
  8
SANINDUSA
100
AcDbCircle
 10
2403.1723704309
 20
1367.289382553443
 30
0.0
 40
0.0164897733713272
100
AcDbArc
 50
32.18613424851629
 51
152.1363872432926
  0
ARC
  5
14A3
330
1F
100
AcDbEntity
  8
SANINDUSA
100
AcDbCircle
 10
2403.162745844687
 20
1367.294398937148
 30
0.0
 40
0.0056368938031733
100
AcDbArc
 50
151.4916370867011
 51
212.8318349763775
  0
ARC
  5
14A4
330
1F
100
AcDbEntity
  8
SANINDUSA
100
AcDbCircle
 10
2403.171965016983
 20
1367.300126385283
 30
0.0
 40
0.0164897733713244
100
AcDbArc
 50
212.1861342485163
 51
332.1363872432926
  0
ARC
  5
14A5
330
1F
100
AcDbEntity
  8
SANINDUSA
100
AcDbCircle
 10
2403.121456426219
 20
1367.292061553622
 30
0.0
 40
0.0056368951231543
100
AcDbArc
 50
333.653865444235
 51
34.99407932255926
  0
ARC
  5
14A6
330
1F
100
AcDbEntity
  8
SANINDUSA
100
AcDbCircle
 10
2403.1124598405
 20
1367.28599046546
 30
0.0
 40
0.0164897677342439
100
AcDbArc
 50
34.34791050829324
 51
154.2981383272589
  0
ARC
  5
14A7
330
1F
100
AcDbEntity
  8
SANINDUSA
100
AcDbCircle
 10
2403.102652909393
 20
1367.290640271804
 30
0.0
 40
0.0056368951231601
100
AcDbArc
 50
153.6538654559094
 51
214.9940793225593
  0
ARC
  5
14A8
330
1F
100
AcDbEntity
  8
SANINDUSA
100
AcDbCircle
 10
2403.111649495111
 20
1367.296711359966
 30
0.0
 40
0.0164897677342441
100
AcDbArc
 50
214.3479105082932
 51
334.2981383272589
  0
ARC
  5
14A9
330
1F
100
AcDbEntity
  8
SANINDUSA
100
AcDbCircle
 10
2403.061481065181
 20
1367.286746997084
 30
0.0
 40
0.0056369012265423
100
AcDbArc
 50
335.8161094433716
 51
37.15630264332366
  0
ARC
  5
14AA
330
1F
100
AcDbEntity
  8
SANINDUSA
100
AcDbCircle
 10
2403.05271987703
 20
1367.280340922795
 30
0.0
 40
0.0164897518226539
100
AcDbArc
 50
36.50965838482032
 51
156.4599231887857
  0
ARC
  5
14AB
330
1F
100
AcDbEntity
  8
SANINDUSA
100
AcDbCircle
 10
2403.042744567398
 20
1367.284617521906
 30
0.0
 40
0.0056369012265254
100
AcDbArc
 50
155.8161094433716
 51
217.1563026433237
  0
ARC
  5
14AC
330
1F
100
AcDbEntity
  8
SANINDUSA
100
AcDbCircle
 10
2403.051505755549
 20
1367.291023596194
 30
0.0
 40
0.0164897518226528
100
AcDbArc
 50
216.5096583848203
 51
336.4599231887857
  0
ARC
  5
14AD
330
1F
100
AcDbEntity
  8
SANINDUSA
100
AcDbCircle
 10
2403.00174890629
 20
1367.279173897834
 30
0.0
 40
0.0056369120785829
100
AcDbArc
 50
337.9783676628274
 51
39.31850369086706
  0
ARC
  5
14AE
330
1F
100
AcDbEntity
  8
SANINDUSA
100
AcDbCircle
 10
2402.993235590352
 20
1367.272441968469
 30
0.0
 40
0.0164897257271451
100
AcDbArc
 50
38.67137933204508
 51
158.6217430330988
  0
ARC
  5
14AF
330
1F
100
AcDbEntity
  8
SANINDUSA
100
AcDbCircle
 10
2402.983106109389
 20
1367.276339262361
 30
0.0
 40
0.0056369120786428
100
AcDbArc
 50
157.9783676628274
 51
219.318503690867
  0
ARC
  5
14B0
330
1F
100
AcDbEntity
  8
SANINDUSA
100
AcDbCircle
 10
2402.991619425327
 20
1367.283071191726
 30
0.0
 40
0.0164897257271433
100
AcDbArc
 50
218.6713793320451
 51
338.6217430330988
  0
ARC
  5
14B1
330
1F
100
AcDbEntity
  8
SANINDUSA
100
AcDbCircle
 10
2403.481625313506
 20
1367.341314707673
 30
0.0
 40
0.0056369582663368
100
AcDbArc
 50
320.6807713570362
 51
22.02035058651652
  0
ARC
  5
14B2
330
1F
100
AcDbEntity
  8
SANINDUSA
100
AcDbCircle
 10
2403.471495840657
 20
1367.337417735875
 30
0.0
 40
0.0164896483649027
100
AcDbArc
 50
21.37678875580359
 51
141.3280825934888
  0
ARC
  5
14B3
330
1F
100
AcDbEntity
  8
SANINDUSA
100
AcDbCircle
 10
2403.462982672422
 20
1367.344149653359
 30
0.0
 40
0.0056369582663772
100
AcDbArc
 50
140.6807713570362
 51
202.0203505865165
  0
ARC
  5
14B4
330
1F
100
AcDbEntity
  8
SANINDUSA
100
AcDbCircle
 10
2403.47311214527
 20
1367.348046625157
 30
0.0
 40
0.016489648364899
100
AcDbArc
 50
201.3767887558036
 51
321.3280825934889
  0
ARC
  5
14B5
330
1F
100
AcDbEntity
  8
SANINDUSA
100
AcDbCircle
 10
2403.421987444457
 20
1367.349597253101
 30
0.0
 40
0.0056369360993899
100
AcDbArc
 50
322.8429042085935
 51
24.18267700354944
  0
ARC
  5
14B6
330
1F
100
AcDbEntity
  8
SANINDUSA
100
AcDbCircle
 10
2403.412012113435
 20
1367.345320940017
 30
0.0
 40
0.0164896934120465
100
AcDbArc
 50
23.53872254529203
 51
143.4896896097335
  0
ARC
  5
14B7
330
1F
100
AcDbEntity
  8
SANINDUSA
100
AcDbCircle
 10
2403.403251064535
 20
1367.351727047121
 30
0.0
 40
0.0056369360994182
100
AcDbArc
 50
142.8429042085935
 51
204.1826770035494
  0
ARC
  5
14B8
330
1F
100
AcDbEntity
  8
SANINDUSA
100
AcDbCircle
 10
2403.413226395557
 20
1367.356003360205
 30
0.0
 40
0.0164896934120464
100
AcDbArc
 50
203.538722545292
 51
323.4896896097335
  0
ARC
  5
14B9
330
1F
100
AcDbEntity
  8
SANINDUSA
100
AcDbCircle
 10
2403.362079529578
 20
1367.355624308524
 30
0.0
 40
0.0056369184825923
100
AcDbArc
 50
325.0050581296784
 51
26.3449903948763
  0
ARC
  5
14BA
330
1F
100
AcDbEntity
  8
SANINDUSA
100
AcDbCircle
 10
2403.352272550051
 20
1367.350974749779
 30
0.0
 40
0.0164897286079995
100
AcDbArc
 50
25.70062332300944
 51
145.6513215654432
  0
ARC
  5
14BB
330
1F
100
AcDbEntity
  8
SANINDUSA
100
AcDbCircle
 10
2403.343276091804
 20
1367.357045915422
 30
0.0
 40
0.0056369184825585
100
AcDbArc
 50
145.0050581296784
 51
206.3449903948763
  0
ARC
  5
14BC
330
1F
100
AcDbEntity
  8
SANINDUSA
100
AcDbCircle
 10
2403.35308307133
 20
1367.361695474168
 30
0.0
 40
0.016489728607999
100
AcDbArc
 50
205.7006233230094
 51
325.6513215654432
  0
ARC
  5
14BD
330
1F
100
AcDbEntity
  8
SANINDUSA
100
AcDbCircle
 10
2403.301986858833
 20
1367.359387292938
 30
0.0
 40
0.0056369055161978
100
AcDbArc
 50
327.167232260122
 51
28.50728896615404
  0
ARC
  5
14BE
330
1F
100
AcDbEntity
  8
SANINDUSA
100
AcDbCircle
 10
2403.292362199894
 20
1367.354371116387
 30
0.0
 40
0.016489753752325
100
AcDbArc
 50
27.86249166712998
 51
147.8129805539471
  0
ARC
  5
14BF
330
1F
100
AcDbEntity
  8
SANINDUSA
100
AcDbCircle
 10
2403.283143139996
 20
1367.360098686222
 30
0.0
 40
0.0056369055162263
100
AcDbArc
 50
147.167232260122
 51
208.5072889661541
  0
ARC
  5
14C0
330
1F
100
AcDbEntity
  8
SANINDUSA
100
AcDbCircle
 10
2403.292767798934
 20
1367.365114862773
 30
0.0
 40
0.0164897537523223
100
AcDbArc
 50
207.86249166713
 51
327.812980553947
  0
ARC
  5
14C1
330
1F
100
AcDbEntity
  8
SANINDUSA
100
AcDbCircle
 10
2403.241794985266
 20
1367.36088084865
 30
0.0
 40
0.0056368972741834
100
AcDbArc
 50
329.3294256078763
 51
30.66957102135528
  0
ARC
  5
14C2
330
1F
100
AcDbEntity
  8
SANINDUSA
100
AcDbCircle
 10
2403.232366355454
 20
1367.355505204838
 30
0.0
 40
0.0164897687018153
100
AcDbArc
 50
30.02432833974661
 51
149.9746685232601
  0
ARC
  5
14C3
330
1F
100
AcDbEntity
  8
SANINDUSA
100
AcDbCircle
 10
2403.222937819749
 20
1367.360881013707
 30
0.0
 40
0.0056368972741058
100
AcDbArc
 50
149.3294256078763
 51
210.6695710213553
  0
ARC
  5
14C4
330
1F
100
AcDbEntity
  8
SANINDUSA
100
AcDbCircle
 10
2403.232366449561
 20
1367.366256657519
 30
0.0
 40
0.0164897687018157
100
AcDbArc
 50
210.0243283397466
 51
329.9746685232601
  0
ARC
  5
14C5
330
1F
100
AcDbEntity
  8
SANINDUSA
100
AcDbCircle
 10
2403.181589603195
 20
1367.360102848912
 30
0.0
 40
0.0056368938031476
100
AcDbArc
 50
331.4916370867011
 51
32.83183497637749
  0
ARC
  5
14C6
330
1F
100
AcDbEntity
  8
SANINDUSA
100
AcDbCircle
 10
2403.1723704309
 20
1367.354375400777
 30
0.0
 40
0.0164897733713257
100
AcDbArc
 50
32.18613424851629
 51
152.1363872432926
  0
ARC
  5
14C7
330
1F
100
AcDbEntity
  8
SANINDUSA
100
AcDbCircle
 10
2403.162745844687
 20
1367.359391784481
 30
0.0
 40
0.0056368938031425
100
AcDbArc
 50
151.4916370867011
 51
212.8318349763775
  0
ARC
  5
14C8
330
1F
100
AcDbEntity
  8
SANINDUSA
100
AcDbCircle
 10
2403.171965016983
 20
1367.365119232617
 30
0.0
 40
0.016489773371327
100
AcDbArc
 50
212.1861342485163
 51
332.1363872432926
  0
ARC
  5
14C9
330
1F
100
AcDbEntity
  8
SANINDUSA
100
AcDbCircle
 10
2403.121456426219
 20
1367.357054400955
 30
0.0
 40
0.0056368951230961
100
AcDbArc
 50
333.653865444235
 51
34.99407932255926
  0
ARC
  5
14CA
330
1F
100
AcDbEntity
  8
SANINDUSA
100
AcDbCircle
 10
2403.1124598405
 20
1367.350983312793
 30
0.0
 40
0.0164897677342443
100
AcDbArc
 50
34.34791050829324
 51
154.2981383272589
  0
ARC
  5
14CB
330
1F
100
AcDbEntity
  8
SANINDUSA
100
AcDbCircle
 10
2403.102652909393
 20
1367.355633119138
 30
0.0
 40
0.0056368951231208
100
AcDbArc
 50
153.653865444235
 51
214.9940793225593
  0
ARC
  5
14CC
330
1F
100
AcDbEntity
  8
SANINDUSA
100
AcDbCircle
 10
2403.111649495111
 20
1367.3617042073
 30
0.0
 40
0.0164897677342433
100
AcDbArc
 50
214.3479105082932
 51
334.2981383272589
  0
ARC
  5
14CD
330
1F
100
AcDbEntity
  8
SANINDUSA
100
AcDbCircle
 10
2403.061481065181
 20
1367.351739844417
 30
0.0
 40
0.0056369012264763
100
AcDbArc
 50
335.8161094433716
 51
37.15630264332366
  0
ARC
  5
14CE
330
1F
100
AcDbEntity
  8
SANINDUSA
100
AcDbCircle
 10
2403.05271987703
 20
1367.345333770129
 30
0.0
 40
0.0164897518226543
100
AcDbArc
 50
36.50965838482032
 51
156.4599231887857
  0
ARC
  5
14CF
330
1F
100
AcDbEntity
  8
SANINDUSA
100
AcDbCircle
 10
2403.042744567398
 20
1367.349610369239
 30
0.0
 40
0.0056369012265023
100
AcDbArc
 50
155.8161094433716
 51
217.1563026433237
  0
ARC
  5
14D0
330
1F
100
AcDbEntity
  8
SANINDUSA
100
AcDbCircle
 10
2403.051505755549
 20
1367.356016443528
 30
0.0
 40
0.01648975182265
100
AcDbArc
 50
216.5096583848203
 51
336.4599231887857
  0
ARC
  5
14D1
330
1F
100
AcDbEntity
  8
SANINDUSA
100
AcDbCircle
 10
2403.00174890629
 20
1367.344166745168
 30
0.0
 40
0.0056369120786184
100
AcDbArc
 50
337.9783676628274
 51
39.31850369086706
  0
ARC
  5
14D2
330
1F
100
AcDbEntity
  8
SANINDUSA
100
AcDbCircle
 10
2402.993235590352
 20
1367.337434815803
 30
0.0
 40
0.0164897257271473
100
AcDbArc
 50
38.67137933204508
 51
158.6217430330988
  0
ARC
  5
14D3
330
1F
100
AcDbEntity
  8
SANINDUSA
100
AcDbCircle
 10
2402.983106109389
 20
1367.341332109694
 30
0.0
 40
0.0056369120785767
100
AcDbArc
 50
157.9783676628274
 51
219.318503690867
  0
ARC
  5
14D4
330
1F
100
AcDbEntity
  8
SANINDUSA
100
AcDbCircle
 10
2402.991619425327
 20
1367.348064039059
 30
0.0
 40
0.0164897257271448
100
AcDbArc
 50
218.6713793320451
 51
338.6217430330988
  0
ARC
  5
14D5
330
1F
100
AcDbEntity
  8
SANINDUSA
100
AcDbCircle
 10
2403.481625313506
 20
1367.406307555006
 30
0.0
 40
0.005636958266341
100
AcDbArc
 50
320.6807713570362
 51
22.02035058651652
  0
ARC
  5
14D6
330
1F
100
AcDbEntity
  8
SANINDUSA
100
AcDbCircle
 10
2403.471495840657
 20
1367.402410583208
 30
0.0
 40
0.0164896483648987
100
AcDbArc
 50
21.37678875580359
 51
141.3280825934888
  0
ARC
  5
14D7
330
1F
100
AcDbEntity
  8
SANINDUSA
100
AcDbCircle
 10
2403.462982672422
 20
1367.409142500692
 30
0.0
 40
0.005636958266405
100
AcDbArc
 50
140.6807713570362
 51
202.0203505865165
  0
ARC
  5
14D8
330
1F
100
AcDbEntity
  8
SANINDUSA
100
AcDbCircle
 10
2403.47311214527
 20
1367.41303947249
 30
0.0
 40
0.0164896483648999
100
AcDbArc
 50
201.3767887558036
 51
321.3280825934889
  0
ARC
  5
14D9
330
1F
100
AcDbEntity
  8
SANINDUSA
100
AcDbCircle
 10
2403.421987444457
 20
1367.414590100435
 30
0.0
 40
0.0056369360993843
100
AcDbArc
 50
322.8429042085935
 51
24.18267700354944
  0
ARC
  5
14DA
330
1F
100
AcDbEntity
  8
SANINDUSA
100
AcDbCircle
 10
2403.412012113435
 20
1367.410313787351
 30
0.0
 40
0.0164896934120432
100
AcDbArc
 50
23.53872254529203
 51
143.4896896097335
  0
ARC
  5
14DB
330
1F
100
AcDbEntity
  8
SANINDUSA
100
AcDbCircle
 10
2403.403251064535
 20
1367.416719894454
 30
0.0
 40
0.0056369360993414
100
AcDbArc
 50
142.8429042085935
 51
204.1826770035494
  0
ARC
  5
14DC
330
1F
100
AcDbEntity
  8
SANINDUSA
100
AcDbCircle
 10
2403.413226395557
 20
1367.420996207538
 30
0.0
 40
0.0164896934120445
100
AcDbArc
 50
203.538722545292
 51
323.4896896097335
  0
ARC
  5
14DD
330
1F
100
AcDbEntity
  8
SANINDUSA
100
AcDbCircle
 10
2403.362079529578
 20
1367.420617155858
 30
0.0
 40
0.0056369184825255
100
AcDbArc
 50
325.0050581296784
 51
26.3449903948763
  0
ARC
  5
14DE
330
1F
100
AcDbEntity
  8
SANINDUSA
100
AcDbCircle
 10
2403.352272550051
 20
1367.415967597112
 30
0.0
 40
0.0164897286080008
100
AcDbArc
 50
25.70062332300944
 51
145.6513215654432
  0
ARC
  5
14DF
330
1F
100
AcDbEntity
  8
SANINDUSA
100
AcDbCircle
 10
2403.343276091804
 20
1367.422038762756
 30
0.0
 40
0.005636918482563
100
AcDbArc
 50
145.0050581296784
 51
206.3449903948763
  0
ARC
  5
14E0
330
1F
100
AcDbEntity
  8
SANINDUSA
100
AcDbCircle
 10
2403.35308307133
 20
1367.426688321502
 30
0.0
 40
0.0164897286079989
100
AcDbArc
 50
205.7006233230094
 51
325.6513215654432
  0
ARC
  5
14E1
330
1F
100
AcDbEntity
  8
SANINDUSA
100
AcDbCircle
 10
2403.301986858833
 20
1367.424380140272
 30
0.0
 40
0.0056369055162251
100
AcDbArc
 50
327.167232260122
 51
28.50728896615404
  0
ARC
  5
14E2
330
1F
100
AcDbEntity
  8
SANINDUSA
100
AcDbCircle
 10
2403.292362199894
 20
1367.41936396372
 30
0.0
 40
0.0164897537523225
100
AcDbArc
 50
27.86249166712998
 51
147.8129805539471
  0
ARC
  5
14E3
330
1F
100
AcDbEntity
  8
SANINDUSA
100
AcDbCircle
 10
2403.283143139996
 20
1367.425091533555
 30
0.0
 40
0.005636905516242
100
AcDbArc
 50
147.167232260122
 51
208.5072889661541
  0
ARC
  5
14E4
330
1F
100
AcDbEntity
  8
SANINDUSA
100
AcDbCircle
 10
2403.292767798934
 20
1367.430107710106
 30
0.0
 40
0.0164897537523259
100
AcDbArc
 50
207.86249166713
 51
327.812980553947
  0
ARC
  5
14E5
330
1F
100
AcDbEntity
  8
SANINDUSA
100
AcDbCircle
 10
2403.241794985266
 20
1367.425873695983
 30
0.0
 40
0.0056368972741851
100
AcDbArc
 50
329.3294256078763
 51
30.66957102135528
  0
ARC
  5
14E6
330
1F
100
AcDbEntity
  8
SANINDUSA
100
AcDbCircle
 10
2403.232366355454
 20
1367.420498052171
 30
0.0
 40
0.0164897687018162
100
AcDbArc
 50
30.02432833974661
 51
149.9746685232601
  0
ARC
  5
14E7
330
1F
100
AcDbEntity
  8
SANINDUSA
100
AcDbCircle
 10
2403.222937819749
 20
1367.425873861041
 30
0.0
 40
0.0056368972741054
100
AcDbArc
 50
149.3294256078763
 51
210.6695710213553
  0
ARC
  5
14E8
330
1F
100
AcDbEntity
  8
SANINDUSA
100
AcDbCircle
 10
2403.232366449561
 20
1367.431249504853
 30
0.0
 40
0.016489768701814
100
AcDbArc
 50
210.0243283397466
 51
329.9746685232601
  0
ARC
  5
14E9
330
1F
100
AcDbEntity
  8
SANINDUSA
100
AcDbCircle
 10
2403.181589603195
 20
1367.425095696245
 30
0.0
 40
0.0056368938032039
100
AcDbArc
 50
331.4916370867011
 51
32.83183497637749
  0
ARC
  5
14EA
330
1F
100
AcDbEntity
  8
SANINDUSA
100
AcDbCircle
 10
2403.1723704309
 20
1367.41936824811
 30
0.0
 40
0.0164897733713246
100
AcDbArc
 50
32.18613424851629
 51
152.1363872432926
  0
ARC
  5
14EB
330
1F
100
AcDbEntity
  8
SANINDUSA
100
AcDbCircle
 10
2403.162745844687
 20
1367.424384631815
 30
0.0
 40
0.0056368938031654
100
AcDbArc
 50
151.4916370867011
 51
212.8318349763775
  0
ARC
  5
14EC
330
1F
100
AcDbEntity
  8
SANINDUSA
100
AcDbCircle
 10
2403.171965016983
 20
1367.43011207995
 30
0.0
 40
0.016489773371326
100
AcDbArc
 50
212.1861342485163
 51
332.1363872432926
  0
ARC
  5
14ED
330
1F
100
AcDbEntity
  8
SANINDUSA
100
AcDbCircle
 10
2403.121456426219
 20
1367.422047248289
 30
0.0
 40
0.0056368951231968
100
AcDbArc
 50
333.6538654559094
 51
34.99407932255926
  0
ARC
  5
14EE
330
1F
100
AcDbEntity
  8
SANINDUSA
100
AcDbCircle
 10
2403.1124598405
 20
1367.415976160127
 30
0.0
 40
0.0164897677342439
100
AcDbArc
 50
34.34791050829324
 51
154.2981383272589
  0
ARC
  5
14EF
330
1F
100
AcDbEntity
  8
SANINDUSA
100
AcDbCircle
 10
2403.102652909393
 20
1367.420625966471
 30
0.0
 40
0.0056368951230943
100
AcDbArc
 50
153.653865444235
 51
214.9940793225593
  0
ARC
  5
14F0
330
1F
100
AcDbEntity
  8
SANINDUSA
100
AcDbCircle
 10
2403.111649495111
 20
1367.426697054633
 30
0.0
 40
0.0164897677342406
100
AcDbArc
 50
214.3479105082932
 51
334.2981383272589
  0
ARC
  5
14F1
330
1F
100
AcDbEntity
  8
SANINDUSA
100
AcDbCircle
 10
2403.061481065181
 20
1367.416732691751
 30
0.0
 40
0.0056369012264875
100
AcDbArc
 50
335.8161094433716
 51
37.15630264332366
  0
ARC
  5
14F2
330
1F
100
AcDbEntity
  8
SANINDUSA
100
AcDbCircle
 10
2403.05271987703
 20
1367.410326617462
 30
0.0
 40
0.0164897518226557
100
AcDbArc
 50
36.50965838482032
 51
156.4599231887857
  0
ARC
  5
14F3
330
1F
100
AcDbEntity
  8
SANINDUSA
100
AcDbCircle
 10
2403.042744567398
 20
1367.414603216573
 30
0.0
 40
0.0056369012265223
100
AcDbArc
 50
155.8161094433716
 51
217.1563026433237
  0
ARC
  5
14F4
330
1F
100
AcDbEntity
  8
SANINDUSA
100
AcDbCircle
 10
2403.051505755549
 20
1367.421009290861
 30
0.0
 40
0.0164897518226525
100
AcDbArc
 50
216.5096583848203
 51
336.4599231887857
  0
ARC
  5
14F5
330
1F
100
AcDbEntity
  8
SANINDUSA
100
AcDbCircle
 10
2403.00174890629
 20
1367.409159592501
 30
0.0
 40
0.0056369120785927
100
AcDbArc
 50
337.9783676628274
 51
39.31850369086706
  0
ARC
  5
14F6
330
1F
100
AcDbEntity
  8
SANINDUSA
100
AcDbCircle
 10
2402.993235590352
 20
1367.402427663136
 30
0.0
 40
0.0164897257271412
100
AcDbArc
 50
38.67137933204508
 51
158.6217430330988
  0
ARC
  5
14F7
330
1F
100
AcDbEntity
  8
SANINDUSA
100
AcDbCircle
 10
2402.983106109389
 20
1367.406324957027
 30
0.0
 40
0.0056369120786253
100
AcDbArc
 50
157.9783676628274
 51
219.318503690867
  0
ARC
  5
14F8
330
1F
100
AcDbEntity
  8
SANINDUSA
100
AcDbCircle
 10
2402.991619425327
 20
1367.413056886392
 30
0.0
 40
0.0164897257271475
100
AcDbArc
 50
218.6713793320451
 51
338.6217430330988
  0
ARC
  5
14F9
330
1F
100
AcDbEntity
  8
SANINDUSA
100
AcDbCircle
 10
2403.481625313506
 20
1367.47130040234
 30
0.0
 40
0.0056369582663207
100
AcDbArc
 50
320.6807713570362
 51
22.02035058651652
  0
ARC
  5
14FA
330
1F
100
AcDbEntity
  8
SANINDUSA
100
AcDbCircle
 10
2403.471495840657
 20
1367.467403430542
 30
0.0
 40
0.0164896483649008
100
AcDbArc
 50
21.37678875580359
 51
141.3280825934888
  0
ARC
  5
14FB
330
1F
100
AcDbEntity
  8
SANINDUSA
100
AcDbCircle
 10
2403.462982672422
 20
1367.474135348025
 30
0.0
 40
0.005636958266373
100
AcDbArc
 50
140.6807713570362
 51
202.0203505865165
  0
ARC
  5
14FC
330
1F
100
AcDbEntity
  8
SANINDUSA
100
AcDbCircle
 10
2403.47311214527
 20
1367.478032319824
 30
0.0
 40
0.0164896483649007
100
AcDbArc
 50
201.3767887558036
 51
321.3280825934889
  0
ARC
  5
14FD
330
1F
100
AcDbEntity
  8
SANINDUSA
100
AcDbCircle
 10
2403.421987444457
 20
1367.479582947768
 30
0.0
 40
0.0056369360993764
100
AcDbArc
 50
322.8429042085935
 51
24.18267700354944
  0
ARC
  5
14FE
330
1F
100
AcDbEntity
  8
SANINDUSA
100
AcDbCircle
 10
2403.412012113435
 20
1367.475306634684
 30
0.0
 40
0.0164896934120459
100
AcDbArc
 50
23.53872254529203
 51
143.4896896097335
  0
ARC
  5
14FF
330
1F
100
AcDbEntity
  8
SANINDUSA
100
AcDbCircle
 10
2403.403251064535
 20
1367.481712741788
 30
0.0
 40
0.0056369360993493
100
AcDbArc
 50
142.8429042085935
 51
204.1826770035494
  0
ARC
  5
1500
330
1F
100
AcDbEntity
  8
SANINDUSA
100
AcDbCircle
 10
2403.413226395557
 20
1367.485989054872
 30
0.0
 40
0.0164896934120448
100
AcDbArc
 50
203.538722545292
 51
323.4896896097335
  0
ARC
  5
1501
330
1F
100
AcDbEntity
  8
SANINDUSA
100
AcDbCircle
 10
2403.362079529578
 20
1367.485610003192
 30
0.0
 40
0.0056369184825853
100
AcDbArc
 50
325.0050581296784
 51
26.3449903948763
  0
ARC
  5
1502
330
1F
100
AcDbEntity
  8
SANINDUSA
100
AcDbCircle
 10
2403.352272550051
 20
1367.480960444446
 30
0.0
 40
0.0164897286079999
100
AcDbArc
 50
25.70062332300944
 51
145.6513215654432
  0
ARC
  5
1503
330
1F
100
AcDbEntity
  8
SANINDUSA
100
AcDbCircle
 10
2403.343276091804
 20
1367.487031610089
 30
0.0
 40
0.0056369184825211
100
AcDbArc
 50
145.0050581296784
 51
206.3449903948763
  0
ARC
  5
1504
330
1F
100
AcDbEntity
  8
SANINDUSA
100
AcDbCircle
 10
2403.35308307133
 20
1367.491681168835
 30
0.0
 40
0.0164897286080008
100
AcDbArc
 50
205.7006233230094
 51
325.6513215654432
  0
ARC
  5
1505
330
1F
100
AcDbEntity
  8
SANINDUSA
100
AcDbCircle
 10
2403.301986858833
 20
1367.489372987605
 30
0.0
 40
0.0056369055162015
100
AcDbArc
 50
327.167232260122
 51
28.50728896615404
  0
ARC
  5
1506
330
1F
100
AcDbEntity
  8
SANINDUSA
100
AcDbCircle
 10
2403.292362199894
 20
1367.484356811054
 30
0.0
 40
0.0164897537523248
100
AcDbArc
 50
27.86249166712998
 51
147.8129805539471
  0
ARC
  5
1507
330
1F
100
AcDbEntity
  8
SANINDUSA
100
AcDbCircle
 10
2403.283143139996
 20
1367.490084380889
 30
0.0
 40
0.0056369055161989
100
AcDbArc
 50
147.167232260122
 51
208.5072889661541
  0
ARC
  5
1508
330
1F
100
AcDbEntity
  8
SANINDUSA
100
AcDbCircle
 10
2403.292767798934
 20
1367.49510055744
 30
0.0
 40
0.0164897537523247
100
AcDbArc
 50
207.86249166713
 51
327.812980553947
  0
ARC
  5
1509
330
1F
100
AcDbEntity
  8
SANINDUSA
100
AcDbCircle
 10
2403.241794985266
 20
1367.490866543317
 30
0.0
 40
0.0056368972741192
100
AcDbArc
 50
329.3294256078763
 51
30.66957102135528
  0
ARC
  5
150A
330
1F
100
AcDbEntity
  8
SANINDUSA
100
AcDbCircle
 10
2403.232366355454
 20
1367.485490899505
 30
0.0
 40
0.0164897687018144
100
AcDbArc
 50
30.02432833974661
 51
149.9746685232601
  0
ARC
  5
150B
330
1F
100
AcDbEntity
  8
SANINDUSA
100
AcDbCircle
 10
2403.222937819749
 20
1367.490866708374
 30
0.0
 40
0.0056368972741075
100
AcDbArc
 50
149.3294256078763
 51
210.6695710213553
  0
ARC
  5
150C
330
1F
100
AcDbEntity
  8
SANINDUSA
100
AcDbCircle
 10
2403.232366449561
 20
1367.496242352186
 30
0.0
 40
0.0164897687018158
100
AcDbArc
 50
210.0243283397466
 51
329.9746685232601
  0
ARC
  5
150D
330
1F
100
AcDbEntity
  8
SANINDUSA
100
AcDbCircle
 10
2403.181589603195
 20
1367.490088543579
 30
0.0
 40
0.0056368938031345
100
AcDbArc
 50
331.4916370867011
 51
32.83183497637749
  0
ARC
  5
150E
330
1F
100
AcDbEntity
  8
SANINDUSA
100
AcDbCircle
 10
2403.1723704309
 20
1367.484361095444
 30
0.0
 40
0.0164897733713293
100
AcDbArc
 50
32.18613424851629
 51
152.1363872432926
  0
ARC
  5
150F
330
1F
100
AcDbEntity
  8
SANINDUSA
100
AcDbCircle
 10
2403.162745844687
 20
1367.489377479148
 30
0.0
 40
0.0056368938032323
100
AcDbArc
 50
151.4916370867011
 51
212.8318349763775
  0
ARC
  5
1510
330
1F
100
AcDbEntity
  8
SANINDUSA
100
AcDbCircle
 10
2403.171965016983
 20
1367.495104927283
 30
0.0
 40
0.0164897733713254
100
AcDbArc
 50
212.1861342485163
 51
332.1363872432926
  0
ARC
  5
1511
330
1F
100
AcDbEntity
  8
SANINDUSA
100
AcDbCircle
 10
2403.121456426219
 20
1367.487040095622
 30
0.0
 40
0.0056368951231461
100
AcDbArc
 50
333.653865444235
 51
34.99407932255926
  0
ARC
  5
1512
330
1F
100
AcDbEntity
  8
SANINDUSA
100
AcDbCircle
 10
2403.1124598405
 20
1367.48096900746
 30
0.0
 40
0.0164897677342433
100
AcDbArc
 50
34.34791050829324
 51
154.2981383272589
  0
ARC
  5
1513
330
1F
100
AcDbEntity
  8
SANINDUSA
100
AcDbCircle
 10
2403.102652909393
 20
1367.485618813804
 30
0.0
 40
0.0056368951230832
100
AcDbArc
 50
153.653865444235
 51
214.9940793225593
  0
ARC
  5
1514
330
1F
100
AcDbEntity
  8
SANINDUSA
100
AcDbCircle
 10
2403.111649495111
 20
1367.491689901967
 30
0.0
 40
0.0164897677342405
100
AcDbArc
 50
214.3479105082932
 51
334.2981383272589
  0
ARC
  5
1515
330
1F
100
AcDbEntity
  8
SANINDUSA
100
AcDbCircle
 10
2403.061481065181
 20
1367.481725539084
 30
0.0
 40
0.0056369012264853
100
AcDbArc
 50
335.8161094433716
 51
37.15630264332366
  0
ARC
  5
1516
330
1F
100
AcDbEntity
  8
SANINDUSA
100
AcDbCircle
 10
2403.05271987703
 20
1367.475319464795
 30
0.0
 40
0.0164897518226569
100
AcDbArc
 50
36.50965838482032
 51
156.4599231887857
  0
ARC
  5
1517
330
1F
100
AcDbEntity
  8
SANINDUSA
100
AcDbCircle
 10
2403.042744567398
 20
1367.479596063906
 30
0.0
 40
0.0056369012265842
100
AcDbArc
 50
155.8161094433716
 51
217.1563026433237
  0
ARC
  5
1518
330
1F
100
AcDbEntity
  8
SANINDUSA
100
AcDbCircle
 10
2403.051505755549
 20
1367.486002138195
 30
0.0
 40
0.0164897518226509
100
AcDbArc
 50
216.5096583848203
 51
336.4599231887857
  0
ARC
  5
1519
330
1F
100
AcDbEntity
  8
SANINDUSA
100
AcDbCircle
 10
2403.00174890629
 20
1367.474152439834
 30
0.0
 40
0.005636912078529
100
AcDbArc
 50
337.9783676628274
 51
39.31850369086706
  0
ARC
  5
151A
330
1F
100
AcDbEntity
  8
SANINDUSA
100
AcDbCircle
 10
2402.993235590352
 20
1367.467420510469
 30
0.0
 40
0.0164897257271453
100
AcDbArc
 50
38.67137933204508
 51
158.6217430330988
  0
ARC
  5
151B
330
1F
100
AcDbEntity
  8
SANINDUSA
100
AcDbCircle
 10
2402.983106109389
 20
1367.471317804361
 30
0.0
 40
0.005636912078561
100
AcDbArc
 50
157.9783676628274
 51
219.318503690867
  0
ARC
  5
151C
330
1F
100
AcDbEntity
  8
SANINDUSA
100
AcDbCircle
 10
2402.991619425327
 20
1367.478049733725
 30
0.0
 40
0.0164897257271462
100
AcDbArc
 50
218.6713793320451
 51
338.6217430330988
  0
ARC
  5
151D
330
1F
100
AcDbEntity
  8
SANINDUSA
100
AcDbCircle
 10
2403.481625313506
 20
1367.536293249673
 30
0.0
 40
0.0056369582663653
100
AcDbArc
 50
320.6807713570362
 51
22.02035058651652
  0
ARC
  5
151E
330
1F
100
AcDbEntity
  8
SANINDUSA
100
AcDbCircle
 10
2403.471495840657
 20
1367.532396277875
 30
0.0
 40
0.0164896483649027
100
AcDbArc
 50
21.37678875580359
 51
141.3280825934888
  0
ARC
  5
151F
330
1F
100
AcDbEntity
  8
SANINDUSA
100
AcDbCircle
 10
2403.462982672422
 20
1367.539128195359
 30
0.0
 40
0.0056369582663483
100
AcDbArc
 50
140.6807713570362
 51
202.0203505865165
  0
ARC
  5
1520
330
1F
100
AcDbEntity
  8
SANINDUSA
100
AcDbCircle
 10
2403.47311214527
 20
1367.543025167157
 30
0.0
 40
0.0164896483648998
100
AcDbArc
 50
201.3767887558036
 51
321.3280825934889
  0
ARC
  5
1521
330
1F
100
AcDbEntity
  8
SANINDUSA
100
AcDbCircle
 10
2403.421987444457
 20
1367.544575795101
 30
0.0
 40
0.0056369360993807
100
AcDbArc
 50
322.8429042085935
 51
24.18267700354944
  0
ARC
  5
1522
330
1F
100
AcDbEntity
  8
SANINDUSA
100
AcDbCircle
 10
2403.412012113435
 20
1367.540299482017
 30
0.0
 40
0.0164896934120442
100
AcDbArc
 50
23.53872254529203
 51
143.4896896097335
  0
ARC
  5
1523
330
1F
100
AcDbEntity
  8
SANINDUSA
100
AcDbCircle
 10
2403.403251064535
 20
1367.546705589121
 30
0.0
 40
0.0056369360994018
100
AcDbArc
 50
142.8429042085935
 51
204.1826770035494
  0
ARC
  5
1524
330
1F
100
AcDbEntity
  8
SANINDUSA
100
AcDbCircle
 10
2403.413226395557
 20
1367.550981902205
 30
0.0
 40
0.0164896934120474
100
AcDbArc
 50
203.538722545292
 51
323.4896896097335
  0
ARC
  5
1525
330
1F
100
AcDbEntity
  8
SANINDUSA
100
AcDbCircle
 10
2403.362079529578
 20
1367.550602850525
 30
0.0
 40
0.0056369184825372
100
AcDbArc
 50
325.0050581296784
 51
26.3449903948763
  0
ARC
  5
1526
330
1F
100
AcDbEntity
  8
SANINDUSA
100
AcDbCircle
 10
2403.352272550051
 20
1367.545953291779
 30
0.0
 40
0.0164897286079989
100
AcDbArc
 50
25.70062332300944
 51
145.6513215654432
  0
ARC
  5
1527
330
1F
100
AcDbEntity
  8
SANINDUSA
100
AcDbCircle
 10
2403.343276091804
 20
1367.552024457423
 30
0.0
 40
0.0056369184824946
100
AcDbArc
 50
145.0050581296784
 51
206.3449903948763
  0
ARC
  5
1528
330
1F
100
AcDbEntity
  8
SANINDUSA
100
AcDbCircle
 10
2403.35308307133
 20
1367.556674016168
 30
0.0
 40
0.0164897286079971
100
AcDbArc
 50
205.7006233230094
 51
325.6513215654432
  0
ARC
  5
1529
330
1F
100
AcDbEntity
  8
SANINDUSA
100
AcDbCircle
 10
2403.301986858833
 20
1367.554365834938
 30
0.0
 40
0.0056369055162326
100
AcDbArc
 50
327.167232260122
 51
28.50728896615404
  0
ARC
  5
152A
330
1F
100
AcDbEntity
  8
SANINDUSA
100
AcDbCircle
 10
2403.292362199894
 20
1367.549349658387
 30
0.0
 40
0.0164897537523206
100
AcDbArc
 50
27.86249166712998
 51
147.8129805539471
  0
ARC
  5
152B
330
1F
100
AcDbEntity
  8
SANINDUSA
100
AcDbCircle
 10
2403.283143139996
 20
1367.555077228222
 30
0.0
 40
0.0056369055161768
100
AcDbArc
 50
147.167232260122
 51
208.5072889661541
  0
ARC
  5
152C
330
1F
100
AcDbEntity
  8
SANINDUSA
100
AcDbCircle
 10
2403.292767798934
 20
1367.560093404773
 30
0.0
 40
0.0164897537523236
100
AcDbArc
 50
207.86249166713
 51
327.812980553947
  0
ARC
  5
152D
330
1F
100
AcDbEntity
  8
SANINDUSA
100
AcDbCircle
 10
2403.241794985266
 20
1367.55585939065
 30
0.0
 40
0.0056368972740769
100
AcDbArc
 50
329.3294256078763
 51
30.66957102135528
  0
ARC
  5
152E
330
1F
100
AcDbEntity
  8
SANINDUSA
100
AcDbCircle
 10
2403.232366355454
 20
1367.550483746838
 30
0.0
 40
0.0164897687018171
100
AcDbArc
 50
30.02432833974661
 51
149.9746685232601
  0
ARC
  5
152F
330
1F
100
AcDbEntity
  8
SANINDUSA
100
AcDbCircle
 10
2403.222937819749
 20
1367.555859555708
 30
0.0
 40
0.0056368972741125
100
AcDbArc
 50
149.3294256078763
 51
210.6695710213553
  0
ARC
  5
1530
330
1F
100
AcDbEntity
  8
SANINDUSA
100
AcDbCircle
 10
2403.232366449561
 20
1367.561235199519
 30
0.0
 40
0.0164897687018164
100
AcDbArc
 50
210.0243283397466
 51
329.9746685232601
  0
ARC
  5
1531
330
1F
100
AcDbEntity
  8
SANINDUSA
100
AcDbCircle
 10
2403.181589603195
 20
1367.555081390912
 30
0.0
 40
0.0056368938031867
100
AcDbArc
 50
331.4916370867011
 51
32.83183497637749
  0
ARC
  5
1532
330
1F
100
AcDbEntity
  8
SANINDUSA
100
AcDbCircle
 10
2403.1723704309
 20
1367.549353942777
 30
0.0
 40
0.0164897733713269
100
AcDbArc
 50
32.18613424851629
 51
152.1363872432926
  0
ARC
  5
1533
330
1F
100
AcDbEntity
  8
SANINDUSA
100
AcDbCircle
 10
2403.162745844687
 20
1367.554370326481
 30
0.0
 40
0.005636893803223
100
AcDbArc
 50
151.4916370867011
 51
212.8318349763775
  0
ARC
  5
1534
330
1F
100
AcDbEntity
  8
SANINDUSA
100
AcDbCircle
 10
2403.171965016983
 20
1367.560097774617
 30
0.0
 40
0.0164897733713218
100
AcDbArc
 50
212.1861342485163
 51
332.1363872432926
  0
ARC
  5
1535
330
1F
100
AcDbEntity
  8
SANINDUSA
100
AcDbCircle
 10
2403.121456426219
 20
1367.552032942956
 30
0.0
 40
0.0056368951231859
100
AcDbArc
 50
333.6538654559094
 51
34.99407932255926
  0
ARC
  5
1536
330
1F
100
AcDbEntity
  8
SANINDUSA
100
AcDbCircle
 10
2403.1124598405
 20
1367.545961854793
 30
0.0
 40
0.0164897677342434
100
AcDbArc
 50
34.34791050829324
 51
154.2981383272589
  0
ARC
  5
1537
330
1F
100
AcDbEntity
  8
SANINDUSA
100
AcDbCircle
 10
2403.102652909393
 20
1367.550611661138
 30
0.0
 40
0.0056368951232238
100
AcDbArc
 50
153.6538654559094
 51
214.9940793225593
  0
ARC
  5
1538
330
1F
100
AcDbEntity
  8
SANINDUSA
100
AcDbCircle
 10
2403.111649495111
 20
1367.5566827493
 30
0.0
 40
0.0164897677342441
100
AcDbArc
 50
214.3479105082932
 51
334.2981383272589
  0
ARC
  5
1539
330
1F
100
AcDbEntity
  8
SANINDUSA
100
AcDbCircle
 10
2403.061481065181
 20
1367.546718386417
 30
0.0
 40
0.0056369012265324
100
AcDbArc
 50
335.8161094433716
 51
37.15630264332366
  0
ARC
  5
153A
330
1F
100
AcDbEntity
  8
SANINDUSA
100
AcDbCircle
 10
2403.05271987703
 20
1367.540312312129
 30
0.0
 40
0.0164897518226538
100
AcDbArc
 50
36.50965838482032
 51
156.4599231887857
  0
ARC
  5
153B
330
1F
100
AcDbEntity
  8
SANINDUSA
100
AcDbCircle
 10
2403.042744567398
 20
1367.544588911239
 30
0.0
 40
0.0056369012266424
100
AcDbArc
 50
155.8161094433716
 51
217.1563026433237
  0
ARC
  5
153C
330
1F
100
AcDbEntity
  8
SANINDUSA
100
AcDbCircle
 10
2403.051505755549
 20
1367.550994985528
 30
0.0
 40
0.0164897518226512
100
AcDbArc
 50
216.5096583848203
 51
336.4599231887857
  0
ARC
  5
153D
330
1F
100
AcDbEntity
  8
SANINDUSA
100
AcDbCircle
 10
2403.00174890629
 20
1367.539145287168
 30
0.0
 40
0.0056369120786275
100
AcDbArc
 50
337.9783676628274
 51
39.31850369086706
  0
ARC
  5
153E
330
1F
100
AcDbEntity
  8
SANINDUSA
100
AcDbCircle
 10
2402.993235590352
 20
1367.532413357803
 30
0.0
 40
0.0164897257271467
100
AcDbArc
 50
38.67137933204508
 51
158.6217430330988
  0
ARC
  5
153F
330
1F
100
AcDbEntity
  8
SANINDUSA
100
AcDbCircle
 10
2402.983106109389
 20
1367.536310651694
 30
0.0
 40
0.0056369120785176
100
AcDbArc
 50
157.9783676628274
 51
219.318503690867
  0
ARC
  5
1540
330
1F
100
AcDbEntity
  8
SANINDUSA
100
AcDbCircle
 10
2402.991619425327
 20
1367.543042581059
 30
0.0
 40
0.0164897257271455
100
AcDbArc
 50
218.6713793320451
 51
338.6217430330988
  0
LWPOLYLINE
  5
1541
330
1F
100
AcDbEntity
  8
SANINDUSA
100
AcDbPolyline
 90
       73
 70
   128
 43
0.0
 10
2403.232309045508
 20
1367.609142490548
 10
2403.228242862061
 20
1367.609320004416
 10
2403.224207624726
 20
1367.60985119503
 10
2403.220234044095
 20
1367.61073201971
 10
2403.216352361515
 20
1367.611955774848
 10
2403.212592118936
 20
1367.613513146929
 10
2403.208981934074
 20
1367.61539228341
 10
2403.205549282614
 20
1367.617578882928
 10
2403.202320289108
 20
1367.620056304141
 10
2403.199319528146
 20
1367.622805692377
 10
2403.196569837331
 20
1367.625806123133
 10
2403.194092143471
 20
1367.629034761317
 10
2403.19190530331
 20
1367.632467035044
 10
2403.190025960024
 20
1367.636076822638
 10
2403.18846841655
 20
1367.639836651436
 10
2403.187244526733
 20
1367.643717906872
 10
2403.186363605116
 20
1367.647691050246
 10
2403.185832356042
 20
1367.651725843539
 10
2403.185654822639
 20
1367.655791579539
 10
2403.185832356042
 20
1367.659857315538
 10
2403.186363605116
 20
1367.663892108832
 10
2403.187244526733
 20
1367.667865252206
 10
2403.18846841655
 20
1367.671746507642
 10
2403.190025960024
 20
1367.67550633644
 10
2403.19190530331
 20
1367.679116124034
 10
2403.194092143471
 20
1367.682548397761
 10
2403.196569837331
 20
1367.685777035945
 10
2403.199319528146
 20
1367.6887774667
 10
2403.202320289108
 20
1367.691526854937
 10
2403.205549282614
 20
1367.69400427615
 10
2403.208981934074
 20
1367.696190875668
 10
2403.212592118936
 20
1367.698070012149
 10
2403.216352361515
 20
1367.69962738423
 10
2403.220234044095
 20
1367.700851139368
 10
2403.224207624726
 20
1367.701731964048
 10
2403.228242862061
 20
1367.702263154662
 10
2403.232309045508
 20
1367.70244066853
 10
2403.236375228955
 20
1367.702263154662
 10
2403.24041046629
 20
1367.701731964048
 10
2403.244384046921
 20
1367.700851139368
 10
2403.248265729501
 20
1367.69962738423
 10
2403.25202597208
 20
1367.698070012149
 10
2403.255636156943
 20
1367.696190875668
 10
2403.259068808402
 20
1367.69400427615
 10
2403.262297801908
 20
1367.691526854937
 10
2403.26529856287
 20
1367.6887774667
 10
2403.268048253685
 20
1367.685777035945
 10
2403.270525947546
 20
1367.682548397761
 10
2403.272712787707
 20
1367.679116124034
 10
2403.274592130993
 20
1367.67550633644
 10
2403.276149674467
 20
1367.671746507642
 10
2403.277373564283
 20
1367.667865252206
 10
2403.278254485901
 20
1367.663892108832
 10
2403.278785734974
 20
1367.659857315538
 10
2403.278963268377
 20
1367.655791579539
 10
2403.278785734974
 20
1367.651725843539
 10
2403.278254485901
 20
1367.647691050246
 10
2403.277373564283
 20
1367.643717906872
 10
2403.276149674467
 20
1367.639836651436
 10
2403.274592130993
 20
1367.636076822638
 10
2403.272712787707
 20
1367.632467035044
 10
2403.270525947546
 20
1367.629034761317
 10
2403.268048253685
 20
1367.625806123133
 10
2403.26529856287
 20
1367.622805692377
 10
2403.262297801908
 20
1367.620056304141
 10
2403.259068808402
 20
1367.617578882928
 10
2403.255636156943
 20
1367.61539228341
 10
2403.25202597208
 20
1367.613513146929
 10
2403.248265729501
 20
1367.611955774848
 10
2403.244384046921
 20
1367.61073201971
 10
2403.24041046629
 20
1367.60985119503
 10
2403.236375228955
 20
1367.609320004416
 10
2403.232309045508
 20
1367.609142490548
  0
CIRCLE
  5
1838
330
1F
100
AcDbEntity
  8
SANINDUSA
100
AcDbCircle
 10
2403.232309045508
 20
1367.655791579539
 30
0.0
 40
0.0300000000000005
  0
LINE
  5
18A2
330
1F
100
AcDbEntity
  8
SANINDUSA
100
AcDbLine
 10
2406.835309047778
 20
1367.261645136584
 30
0.0
 11
2406.841281387174
 21
1367.283934210652
 31
0.0
  0
LINE
  5
18A3
330
1F
100
AcDbEntity
  8
SANINDUSA
100
AcDbLine
 10
2406.82961168956
 20
1367.279019339297
 30
0.0
 11
2406.831622128911
 21
1367.286522401103
 31
0.0
  0
ARC
  5
18A5
330
1F
100
AcDbEntity
  8
SANINDUSA
100
AcDbCircle
 10
2406.846111016305
 20
1367.282640115426
 30
0.0
 40
0.005
100
AcDbArc
 50
89.15000000214417
 51
165.0000000030343
  0
ARC
  5
18A6
330
1F
100
AcDbEntity
  8
SANINDUSA
100
AcDbCircle
 10
2406.846111016305
 20
1367.282640115426
 30
0.0
 40
0.015
100
AcDbArc
 50
164.6724878093359
 51
165.0000000030343
  0
ARC
  5
18A7
330
1F
100
AcDbEntity
  8
SANINDUSA
100
AcDbCircle
 10
2406.830680126687
 20
1367.286869494291
 30
0.0
 40
0.001
100
AcDbArc
 50
344.6724878093359
 51
89.15000000214417
  0
ARC
  5
18A8
330
1F
100
AcDbEntity
  8
SANINDUSA
100
AcDbCircle
 10
2406.99942774594
 20
1367.275364898813
 30
0.0
 40
0.0099999999999998
100
AcDbArc
 50
95.77137368949538
 51
167.8482705367476
  0
ARC
  5
18A9
330
1F
100
AcDbEntity
  8
SANINDUSA
100
AcDbCircle
 10
2406.988674216512
 20
1367.277680412764
 30
0.0
 40
0.0010000000000001
100
AcDbArc
 50
270.0
 51
347.8482705367476
  0
LINE
  5
18AB
330
1F
100
AcDbEntity
  8
SANINDUSA
100
AcDbLine
 10
2406.993465922751
 20
1367.296672642952
 30
0.0
 11
2406.981891007533
 21
1367.289537776102
 31
0.0
  0
LINE
  5
18AD
330
1F
100
AcDbEntity
  8
SANINDUSA
100
AcDbLine
 10
2406.917263412366
 20
1367.29026174627
 30
0.0
 11
2406.905540149603
 21
1367.297977143757
 31
0.0
  0
ARC
  5
18AE
330
1F
100
AcDbEntity
  8
SANINDUSA
100
AcDbCircle
 10
2406.984514652425
 20
1367.285281429372
 30
0.0
 40
0.0050000000000001
100
AcDbArc
 50
121.6499999946292
 51
180.0
  0
ARC
  5
18B0
330
1F
100
AcDbEntity
  8
SANINDUSA
100
AcDbCircle
 10
2406.914514652424
 20
1367.286085106619
 30
0.0
 40
0.005
100
AcDbArc
 50
0.0
 51
56.65000000569821
  0
LINE
  5
18B1
330
1F
100
AcDbEntity
  8
SANINDUSA
100
AcDbLine
 10
2406.919514652424
 20
1367.286085106619
 30
0.0
 11
2406.919514652424
 21
1367.277680412764
 31
0.0
  0
LINE
  5
18B2
330
1F
100
AcDbEntity
  8
SANINDUSA
100
AcDbLine
 10
2406.979514652424
 20
1367.277680412764
 30
0.0
 11
2406.979514652424
 21
1367.285281429372
 31
0.0
  0
LINE
  5
18B4
330
1F
100
AcDbEntity
  8
SANINDUSA
100
AcDbLine
 10
2406.371488408729
 20
1367.26997450799
 30
0.0
 11
2406.373720257071
 21
1367.261645136584
 31
0.0
  0
ARC
  5
18B5
330
1F
100
AcDbEntity
  8
SANINDUSA
100
AcDbCircle
 10
2406.366658779598
 20
1367.268680412764
 30
0.0
 40
0.005
100
AcDbArc
 50
14.99999999696573
 51
90.0
  0
ARC
  5
18B6
330
1F
100
AcDbEntity
  8
SANINDUSA
100
AcDbCircle
 10
2406.366658779598
 20
1367.268680412764
 30
0.0
 40
0.015
100
AcDbArc
 50
36.53512535697976
 51
90.0
  0
ARC
  5
18B7
330
1F
100
AcDbEntity
  8
SANINDUSA
100
AcDbCircle
 10
2406.379514652425
 20
1367.278205460474
 30
0.0
 40
0.001
100
AcDbArc
 50
216.5351253569798
 51
323.4648746430202
  0
ARC
  5
18B8
330
1F
100
AcDbEntity
  8
SANINDUSA
100
AcDbCircle
 10
2406.441658779598
 20
1367.268680412764
 30
0.0
 40
0.0050000000000001
100
AcDbArc
 50
14.99999999696573
 51
90.0
  0
ARC
  5
18B9
330
1F
100
AcDbEntity
  8
SANINDUSA
100
AcDbCircle
 10
2406.441658779598
 20
1367.268680412764
 30
0.0
 40
0.0150000000000001
100
AcDbArc
 50
36.53512535697976
 51
90.0
  0
ARC
  5
18BA
330
1F
100
AcDbEntity
  8
SANINDUSA
100
AcDbCircle
 10
2406.454514652424
 20
1367.278205460474
 30
0.0
 40
0.001
100
AcDbArc
 50
216.5351253569798
 51
323.4648746430202
  0
LINE
  5
18BB
330
1F
100
AcDbEntity
  8
SANINDUSA
100
AcDbLine
 10
2406.446488408729
 20
1367.26997450799
 30
0.0
 11
2406.448720257071
 21
1367.261645136584
 31
0.0
  0
LINE
  5
18BC
330
1F
100
AcDbEntity
  8
SANINDUSA
100
AcDbLine
 10
2406.52148840873
 20
1367.26997450799
 30
0.0
 11
2406.523720257071
 21
1367.261645136584
 31
0.0
  0
ARC
  5
18BD
330
1F
100
AcDbEntity
  8
SANINDUSA
100
AcDbCircle
 10
2406.516658779598
 20
1367.268680412764
 30
0.0
 40
0.0050000000000001
100
AcDbArc
 50
14.99999999696573
 51
90.0
  0
ARC
  5
18BE
330
1F
100
AcDbEntity
  8
SANINDUSA
100
AcDbCircle
 10
2406.516658779598
 20
1367.268680412764
 30
0.0
 40
0.0150000000000001
100
AcDbArc
 50
36.53512535697976
 51
90.0
  0
ARC
  5
18BF
330
1F
100
AcDbEntity
  8
SANINDUSA
100
AcDbCircle
 10
2406.529514652425
 20
1367.278205460474
 30
0.0
 40
0.001
100
AcDbArc
 50
216.5351253569798
 51
323.4648746430202
  0
ARC
  5
18C0
330
1F
100
AcDbEntity
  8
SANINDUSA
100
AcDbCircle
 10
2406.591658779598
 20
1367.268680412764
 30
0.0
 40
0.0050000000000001
100
AcDbArc
 50
14.99999999696573
 51
90.0
  0
ARC
  5
18C1
330
1F
100
AcDbEntity
  8
SANINDUSA
100
AcDbCircle
 10
2406.591658779598
 20
1367.268680412764
 30
0.0
 40
0.0150000000000001
100
AcDbArc
 50
36.53512535697976
 51
90.0
  0
ARC
  5
18C2
330
1F
100
AcDbEntity
  8
SANINDUSA
100
AcDbCircle
 10
2406.604514652424
 20
1367.278205460474
 30
0.0
 40
0.001
100
AcDbArc
 50
216.5351253569798
 51
323.4648746430202
  0
LINE
  5
18C3
330
1F
100
AcDbEntity
  8
SANINDUSA
100
AcDbLine
 10
2406.596488408729
 20
1367.26997450799
 30
0.0
 11
2406.598720257071
 21
1367.261645136584
 31
0.0
  0
LINE
  5
18C6
330
1F
100
AcDbEntity
  8
SANINDUSA
100
AcDbLine
 10
2406.610309047778
 20
1367.261645136584
 30
0.0
 11
2406.61254089612
 21
1367.26997450799
 31
0.0
  0
LINE
  5
18C8
330
1F
100
AcDbEntity
  8
SANINDUSA
100
AcDbLine
 10
2406.535309047777
 20
1367.261645136584
 30
0.0
 11
2406.537540896119
 21
1367.26997450799
 31
0.0
  0
ARC
  5
18C9
330
1F
100
AcDbEntity
  8
SANINDUSA
100
AcDbCircle
 10
2406.542370525251
 20
1367.268680412764
 30
0.0
 40
0.0050000000000001
100
AcDbArc
 50
90.0
 51
165.0000000030343
  0
ARC
  5
18CA
330
1F
100
AcDbEntity
  8
SANINDUSA
100
AcDbCircle
 10
2406.542370525251
 20
1367.268680412764
 30
0.0
 40
0.0150000000000001
100
AcDbArc
 50
90.0
 51
143.4648746430202
  0
ARC
  5
18CB
330
1F
100
AcDbEntity
  8
SANINDUSA
100
AcDbCircle
 10
2406.467370525251
 20
1367.268680412764
 30
0.0
 40
0.0050000000000001
100
AcDbArc
 50
90.0
 51
165.0000000030343
  0
ARC
  5
18CC
330
1F
100
AcDbEntity
  8
SANINDUSA
100
AcDbCircle
 10
2406.467370525251
 20
1367.268680412764
 30
0.0
 40
0.0150000000000001
100
AcDbArc
 50
90.0
 51
143.4648746430202
  0
LINE
  5
18CE
330
1F
100
AcDbEntity
  8
SANINDUSA
100
AcDbLine
 10
2406.460309047778
 20
1367.261645136584
 30
0.0
 11
2406.462540896119
 21
1367.26997450799
 31
0.0
  0
ARC
  5
18CF
330
1F
100
AcDbEntity
  8
SANINDUSA
100
AcDbCircle
 10
2406.392370525251
 20
1367.268680412764
 30
0.0
 40
0.005
100
AcDbArc
 50
90.0
 51
165.0000000030343
  0
ARC
  5
18D0
330
1F
100
AcDbEntity
  8
SANINDUSA
100
AcDbCircle
 10
2406.392370525251
 20
1367.268680412764
 30
0.0
 40
0.015
100
AcDbArc
 50
90.0
 51
143.4648746430202
  0
LINE
  5
18D2
330
1F
100
AcDbEntity
  8
SANINDUSA
100
AcDbLine
 10
2406.385309047778
 20
1367.261645136584
 30
0.0
 11
2406.387540896119
 21
1367.26997450799
 31
0.0
  0
LINE
  5
18D3
330
1F
100
AcDbEntity
  8
SANINDUSA
100
AcDbLine
 10
2406.341309398612
 20
1367.261985820054
 30
0.0
 11
2406.342642930227
 21
1367.269548653653
 31
0.0
  0
LINE
  5
18D4
330
1F
100
AcDbEntity
  8
SANINDUSA
100
AcDbLine
 10
2406.332657604915
 20
1367.270506764587
 30
0.0
 11
2406.332794852696
 21
1367.271285135429
 31
0.0
  0
ARC
  5
18D5
330
1F
100
AcDbEntity
  8
SANINDUSA
100
AcDbCircle
 10
2406.331672797163
 20
1367.270680412764
 30
0.0
 40
0.001
100
AcDbArc
 50
270.0
 51
349.999999998777
  0
ARC
  5
18D6
330
1F
100
AcDbEntity
  8
SANINDUSA
100
AcDbCircle
 10
2406.347566968991
 20
1367.268680412764
 30
0.0
 40
0.005
100
AcDbArc
 50
90.0
 51
169.999999998777
  0
ARC
  5
18D7
330
1F
100
AcDbEntity
  8
SANINDUSA
100
AcDbCircle
 10
2406.347566968991
 20
1367.268680412764
 30
0.0
 40
0.015
100
AcDbArc
 50
90.0
 51
169.999999998777
  0
LINE
  5
18D8
330
1F
100
AcDbEntity
  8
SANINDUSA
100
AcDbLine
 10
2406.392370525251
 20
1367.273680412764
 30
0.0
 11
2406.441658779598
 21
1367.273680412764
 31
0.0
  0
LINE
  5
18D9
330
1F
100
AcDbEntity
  8
SANINDUSA
100
AcDbLine
 10
2406.392370525251
 20
1367.283680412765
 30
0.0
 11
2406.441658779598
 21
1367.283680412765
 31
0.0
  0
LINE
  5
18DA
330
1F
100
AcDbEntity
  8
SANINDUSA
100
AcDbLine
 10
2406.467370525251
 20
1367.273680412764
 30
0.0
 11
2406.516658779598
 21
1367.273680412764
 31
0.0
  0
LINE
  5
18DB
330
1F
100
AcDbEntity
  8
SANINDUSA
100
AcDbLine
 10
2406.467370525251
 20
1367.283680412765
 30
0.0
 11
2406.516658779598
 21
1367.283680412765
 31
0.0
  0
LINE
  5
18DC
330
1F
100
AcDbEntity
  8
SANINDUSA
100
AcDbLine
 10
2406.542370525251
 20
1367.273680412764
 30
0.0
 11
2406.591658779598
 21
1367.273680412764
 31
0.0
  0
LINE
  5
18DD
330
1F
100
AcDbEntity
  8
SANINDUSA
100
AcDbLine
 10
2406.542370525251
 20
1367.283680412765
 30
0.0
 11
2406.591658779598
 21
1367.283680412765
 31
0.0
  0
LINE
  5
18DE
330
1F
100
AcDbEntity
  8
SANINDUSA
100
AcDbLine
 10
2406.347566968991
 20
1367.273680412764
 30
0.0
 11
2406.366658779598
 21
1367.273680412764
 31
0.0
  0
LINE
  5
18DF
330
1F
100
AcDbEntity
  8
SANINDUSA
100
AcDbLine
 10
2406.347566968991
 20
1367.283680412765
 30
0.0
 11
2406.366658779598
 21
1367.283680412765
 31
0.0
  0
ARC
  5
18E0
330
1F
100
AcDbEntity
  8
SANINDUSA
100
AcDbCircle
 10
2406.848936118512
 20
1367.27316631413
 30
0.0
 40
0.0279319740500209
100
AcDbArc
 50
88.6335301301195
 51
100.9726092877519
  0
ARC
  5
18E1
330
1F
100
AcDbEntity
  8
SANINDUSA
100
AcDbCircle
 10
2406.653957576512
 20
1367.276059091255
 30
0.0
 40
0.0279319740481089
100
AcDbArc
 50
88.6335301301195
 51
100.9726092877519
  0
ARC
  5
18E2
330
1F
100
AcDbEntity
  8
SANINDUSA
100
AcDbCircle
 10
2406.588964729178
 20
1367.277023350297
 30
0.0
 40
0.0279319740466344
100
AcDbArc
 50
88.6335301301195
 51
100.9726092877519
  0
ARC
  5
18E3
330
1F
100
AcDbEntity
  8
SANINDUSA
100
AcDbCircle
 10
2406.783943271178
 20
1367.274130573174
 30
0.0
 40
0.0279319740473962
100
AcDbArc
 50
88.6335301301195
 51
100.9726092877519
  0
ARC
  5
18E4
330
1F
100
AcDbEntity
  8
SANINDUSA
100
AcDbCircle
 10
2406.523971881844
 20
1367.277987609337
 30
0.0
 40
0.0279319740476741
100
AcDbArc
 50
88.6335301301195
 51
100.9726092877519
  0
ARC
  5
18E5
330
1F
100
AcDbEntity
  8
SANINDUSA
100
AcDbCircle
 10
2406.458979034511
 20
1367.278951868379
 30
0.0
 40
0.0279319740458284
100
AcDbArc
 50
88.6335301301195
 51
100.9726092877519
  0
ARC
  5
18E6
330
1F
100
AcDbEntity
  8
SANINDUSA
100
AcDbCircle
 10
2406.718950423845
 20
1367.275094832216
 30
0.0
 40
0.0279319740457396
100
AcDbArc
 50
88.6335301301195
 51
100.9726092877519
  0
ARC
  5
18E7
330
1F
100
AcDbEntity
  8
SANINDUSA
100
AcDbCircle
 10
2406.720424625645
 20
1367.283557655381
 30
0.0
 40
0.019477687904115
100
AcDbArc
 50
74.63125473998478
 51
92.36260465120835
  0
ARC
  5
18E8
330
1F
100
AcDbEntity
  8
SANINDUSA
100
AcDbCircle
 10
2406.785417472979
 20
1367.282593396342
 30
0.0
 40
0.0194776879020754
100
AcDbArc
 50
74.63125473998478
 51
92.36260465120835
  0
ARC
  5
18E9
330
1F
100
AcDbEntity
  8
SANINDUSA
100
AcDbCircle
 10
2406.525446083645
 20
1367.286450432503
 30
0.0
 40
0.0194776879038323
100
AcDbArc
 50
74.63125473998478
 51
92.36260465120835
  0
ARC
  5
18EA
330
1F
100
AcDbEntity
  8
SANINDUSA
100
AcDbCircle
 10
2406.850410320312
 20
1367.2816291373
 30
0.0
 40
0.0194776879026725
100
AcDbArc
 50
74.63125473998478
 51
92.36260465120835
  0
ARC
  5
18EB
330
1F
100
AcDbEntity
  8
SANINDUSA
100
AcDbCircle
 10
2406.655431778311
 20
1367.284521914423
 30
0.0
 40
0.0194776879027437
100
AcDbArc
 50
74.63125473998478
 51
92.36260465120835
  0
ARC
  5
18EC
330
1F
100
AcDbEntity
  8
SANINDUSA
100
AcDbCircle
 10
2406.460453236312
 20
1367.287414691546
 30
0.0
 40
0.01947768790178
100
AcDbArc
 50
74.63125473998478
 51
92.36260465120835
  0
ARC
  5
18ED
330
1F
100
AcDbEntity
  8
SANINDUSA
100
AcDbCircle
 10
2406.590438930978
 20
1367.285486173463
 30
0.0
 40
0.0194776879034878
100
AcDbArc
 50
74.63125473998478
 51
92.36260465120835
  0
ARC
  5
18EE
330
1F
100
AcDbEntity
  8
SANINDUSA
100
AcDbCircle
 10
2407.058313060593
 20
1367.363680412764
 30
0.0
 40
0.003
100
AcDbArc
 50
90.0
 51
169.999999998777
  0
LINE
  5
18EF
330
1F
100
AcDbEntity
  8
SANINDUSA
100
AcDbLine
 10
2407.046821095102
 20
1367.315782549258
 30
0.0
 11
2407.055358637334
 21
1367.364201357297
 31
0.0
  0
LINE
  5
18F4
330
1F
100
AcDbEntity
  8
SANINDUSA
100
AcDbLine
 10
2406.301094494916
 20
1367.364201357297
 30
0.0
 11
2406.307889598517
 21
1367.325664409782
 31
0.0
  0
ARC
  5
18F7
330
1F
100
AcDbEntity
  8
SANINDUSA
100
AcDbCircle
 10
2406.298140071657
 20
1367.363680412764
 30
0.0
 40
0.003
100
AcDbArc
 50
10.00000000122301
 51
90.0
  0
ARC
  5
18F8
330
1F
100
AcDbEntity
  8
SANINDUSA
100
AcDbCircle
 10
2406.910483054164
 20
1367.277680412764
 30
0.0
 40
0.0010000000000001
100
AcDbArc
 50
184.3438707405697
 51
270.0
  0
ARC
  5
18FA
330
1F
100
AcDbEntity
  8
SANINDUSA
100
AcDbCircle
 10
2406.998924949845
 20
1367.280339554187
 30
0.0
 40
0.0049999999999999
100
AcDbArc
 50
10.00000000122301
 51
95.77137368949538
  0
LWPOLYLINE
  5
18FC
330
1F
100
AcDbEntity
  8
SANINDUSA
100
AcDbPolyline
 90
        3
 70
   128
 43
0.0
 10
2406.725586800496
 20
1367.302338823526
 10
2406.728067538098
 20
1367.30162933806
 10
2406.730714033173
 20
1367.30135406064
  0
LWPOLYLINE
  5
18FD
330
1F
100
AcDbEntity
  8
SANINDUSA
100
AcDbPolyline
 90
        3
 70
   128
 43
0.0
 10
2406.79057964783
 20
1367.301374564485
 10
2406.793060385432
 20
1367.30066507902
 10
2406.795706880507
 20
1367.300389801599
  0
LWPOLYLINE
  5
18FE
330
1F
100
AcDbEntity
  8
SANINDUSA
100
AcDbPolyline
 90
        3
 70
   128
 43
0.0
 10
2406.530608258496
 20
1367.305231600648
 10
2406.533088996098
 20
1367.304522115183
 10
2406.535735491173
 20
1367.304246837762
  0
LWPOLYLINE
  5
18FF
330
1F
100
AcDbEntity
  8
SANINDUSA
100
AcDbPolyline
 90
        3
 70
   128
 43
0.0
 10
2406.855572495163
 20
1367.300410305444
 10
2406.858053232765
 20
1367.299700819979
 10
2406.86069972784
 20
1367.299425542558
  0
LWPOLYLINE
  5
1900
330
1F
100
AcDbEntity
  8
SANINDUSA
100
AcDbPolyline
 90
        3
 70
   128
 43
0.0
 10
2406.660593953163
 20
1367.303303082566
 10
2406.663074690765
 20
1367.302593597101
 10
2406.66572118584
 20
1367.302318319681
  0
LWPOLYLINE
  5
1901
330
1F
100
AcDbEntity
  8
SANINDUSA
100
AcDbPolyline
 90
        3
 70
   128
 43
0.0
 10
2406.465615411163
 20
1367.306195859689
 10
2406.468096148764
 20
1367.305486374224
 10
2406.47074264384
 20
1367.305211096803
  0
LWPOLYLINE
  5
1902
330
1F
100
AcDbEntity
  8
SANINDUSA
100
AcDbPolyline
 90
        3
 70
   128
 43
0.0
 10
2406.595601105829
 20
1367.304267341607
 10
2406.598081843432
 20
1367.303557856142
 10
2406.600728338507
 20
1367.303282578722
  0
LWPOLYLINE
  5
1903
330
1F
100
AcDbEntity
  8
SANINDUSA
100
AcDbPolyline
 90
        3
 70
   128
 43
0.0
 10
2406.773472517276
 20
1367.300719679219
 10
2406.776046165083
 20
1367.300903431039
 10
2406.778626707657
 20
1367.301551902946
  0
LINE
  5
1904
330
1F
100
AcDbEntity
  8
SANINDUSA
100
AcDbLine
 10
2406.212726566125
 20
1367.269680412764
 30
0.0
 11
2406.212726566125
 21
1367.366680412764
 31
0.0
  0
LINE
  5
1905
330
1F
100
AcDbEntity
  8
SANINDUSA
100
AcDbLine
 10
2406.331672797163
 20
1367.269680412764
 30
0.0
 11
2406.212726566125
 21
1367.269680412764
 31
0.0
  0
ARC
  5
1906
330
1F
100
AcDbEntity
  8
SANINDUSA
100
AcDbCircle
 10
2406.3373701676
 20
1367.262680412764
 30
0.0
 40
0.0040000000000001
100
AcDbArc
 50
270.0
 51
349.999999998777
  0
ARC
  5
1907
330
1F
100
AcDbEntity
  8
SANINDUSA
100
AcDbCircle
 10
2406.201726566125
 20
1367.259680412764
 30
0.0
 40
0.001
100
AcDbArc
 50
180.0
 51
270.0
  0
LINE
  5
1908
330
1F
100
AcDbEntity
  8
SANINDUSA
100
AcDbLine
 10
2406.200726566125
 20
1367.259680412764
 30
0.0
 11
2406.200726566125
 21
1367.373680412764
 31
0.0
  0
ARC
  5
1909
330
1F
100
AcDbEntity
  8
SANINDUSA
100
AcDbCircle
 10
2406.205726566125
 20
1367.373680412764
 30
0.0
 40
0.005
100
AcDbArc
 50
90.0
 51
180.0
  0
LINE
  5
190A
330
1F
100
AcDbEntity
  8
SANINDUSA
100
AcDbLine
 10
2406.205726566125
 20
1367.378680412764
 30
0.0
 11
2406.298140071657
 21
1367.378680412764
 31
0.0
  0
ARC
  5
190B
330
1F
100
AcDbEntity
  8
SANINDUSA
100
AcDbCircle
 10
2406.298140071657
 20
1367.363680412764
 30
0.0
 40
0.015
100
AcDbArc
 50
10.00000000122301
 51
90.0
  0
LINE
  5
190C
330
1F
100
AcDbEntity
  8
SANINDUSA
100
AcDbLine
 10
2406.312912187952
 20
1367.366285135429
 30
0.0
 11
2406.319707291553
 21
1367.327748187914
 31
0.0
  0
ARC
  5
190D
330
1F
100
AcDbEntity
  8
SANINDUSA
100
AcDbCircle
 10
2406.344327485379
 20
1367.332089392356
 30
0.0
 40
0.025
100
AcDbArc
 50
190.000000001223
 51
269.1500000021441
  0
ARC
  5
190E
330
1F
100
AcDbEntity
  8
SANINDUSA
100
AcDbCircle
 10
2406.344327485379
 20
1367.332089392356
 30
0.0
 40
0.037
100
AcDbArc
 50
190.000000001223
 51
269.1500000021441
  0
LWPOLYLINE
  5
190F
330
1F
100
AcDbEntity
  8
SANINDUSA
100
AcDbPolyline
 90
        3
 70
   128
 43
0.0
 10
2406.448508280609
 20
1367.305540974423
 10
2406.451081928416
 20
1367.305724726243
 10
2406.45366247099
 20
1367.306373198151
  0
LWPOLYLINE
  5
1910
330
1F
100
AcDbEntity
  8
SANINDUSA
100
AcDbPolyline
 90
        3
 70
   128
 43
0.0
 10
2406.513501127943
 20
1367.304576715382
 10
2406.516074775749
 20
1367.304760467202
 10
2406.518655318323
 20
1367.30540893911
  0
LWPOLYLINE
  5
1911
330
1F
100
AcDbEntity
  8
SANINDUSA
100
AcDbPolyline
 90
        3
 70
   128
 43
0.0
 10
2406.578493975276
 20
1367.303612456341
 10
2406.581067623083
 20
1367.303796208162
 10
2406.583648165657
 20
1367.304444680069
  0
LWPOLYLINE
  5
1912
330
1F
100
AcDbEntity
  8
SANINDUSA
100
AcDbPolyline
 90
        3
 70
   128
 43
0.0
 10
2406.64348682261
 20
1367.3026481973
 10
2406.646060470416
 20
1367.302831949121
 10
2406.64864101299
 20
1367.303480421028
  0
LWPOLYLINE
  5
1913
330
1F
100
AcDbEntity
  8
SANINDUSA
100
AcDbPolyline
 90
        3
 70
   128
 43
0.0
 10
2406.708479669942
 20
1367.30168393826
 10
2406.71105331775
 20
1367.30186769008
 10
2406.713633860324
 20
1367.302516161987
  0
LWPOLYLINE
  5
1914
330
1F
100
AcDbEntity
  8
SANINDUSA
100
AcDbPolyline
 90
        3
 70
   128
 43
0.0
 10
2406.838465364609
 20
1367.299755420178
 10
2406.841039012416
 20
1367.299939171998
 10
2406.843619554991
 20
1367.300587643906
  0
ARC
  5
1915
330
1F
100
AcDbEntity
  8
SANINDUSA
100
AcDbCircle
 10
2406.902791389661
 20
1367.293800504105
 30
0.0
 40
0.0050000000000001
100
AcDbArc
 50
56.65000000569821
 51
89.15000000214417
  0
ARC
  5
1916
330
1F
100
AcDbEntity
  8
SANINDUSA
100
AcDbCircle
 10
2406.918514652424
 20
1367.277680412764
 30
0.0
 40
0.0010000000000002
100
AcDbArc
 50
270.0
 51
0.0
  0
ARC
  5
1917
330
1F
100
AcDbEntity
  8
SANINDUSA
100
AcDbCircle
 10
2406.899514652425
 20
1367.276847248144
 30
0.0
 40
0.01
100
AcDbArc
 50
4.343870740569701
 51
89.15000000214417
  0
LINE
  5
1918
330
1F
100
AcDbEntity
  8
SANINDUSA
100
AcDbLine
 10
2406.846185190078
 20
1367.287639565221
 30
0.0
 11
2406.899662999969
 21
1367.286846147733
 31
0.0
  0
ARC
  5
1919
330
1F
100
AcDbEntity
  8
SANINDUSA
100
AcDbCircle
 10
2406.831445344473
 20
1367.262680412764
 30
0.0
 40
0.004
100
AcDbArc
 50
270.0
 51
345.0000000030343
  0
LINE
  5
191A
330
1F
100
AcDbEntity
  8
SANINDUSA
100
AcDbLine
 10
2406.827583960376
 20
1367.258680412764
 30
0.0
 11
2406.831445344473
 21
1367.258680412764
 31
0.0
  0
ARC
  5
191B
330
1F
100
AcDbEntity
  8
SANINDUSA
100
AcDbCircle
 10
2406.827583960376
 20
1367.262680412764
 30
0.0
 40
0.0040000000000003
100
AcDbArc
 50
194.9999999969657
 51
270.0
  0
LINE
  5
191C
330
1F
100
AcDbEntity
  8
SANINDUSA
100
AcDbLine
 10
2406.821488408729
 20
1367.26997450799
 30
0.0
 11
2406.823720257071
 21
1367.261645136584
 31
0.0
  0
ARC
  5
191D
330
1F
100
AcDbEntity
  8
SANINDUSA
100
AcDbCircle
 10
2406.816658779598
 20
1367.268680412764
 30
0.0
 40
0.0050000000000001
100
AcDbArc
 50
14.99999999696573
 51
90.0
  0
ARC
  5
191E
330
1F
100
AcDbEntity
  8
SANINDUSA
100
AcDbCircle
 10
2406.816658779598
 20
1367.268680412764
 30
0.0
 40
0.0150000000000001
100
AcDbArc
 50
41.48004019898082
 51
90.0
  0
ARC
  5
191F
330
1F
100
AcDbEntity
  8
SANINDUSA
100
AcDbCircle
 10
2406.828645763733
 20
1367.279278158342
 30
0.0
 40
0.001
100
AcDbArc
 50
221.4800401989808
 51
345.0000000030343
  0
LINE
  5
1920
330
1F
100
AcDbEntity
  8
SANINDUSA
100
AcDbLine
 10
2406.767370525251
 20
1367.273680412764
 30
0.0
 11
2406.816658779598
 21
1367.273680412764
 31
0.0
  0
LINE
  5
1921
330
1F
100
AcDbEntity
  8
SANINDUSA
100
AcDbLine
 10
2406.767370525251
 20
1367.283680412765
 30
0.0
 11
2406.816658779598
 21
1367.283680412765
 31
0.0
  0
ARC
  5
1922
330
1F
100
AcDbEntity
  8
SANINDUSA
100
AcDbCircle
 10
2406.767370525251
 20
1367.268680412764
 30
0.0
 40
0.005
100
AcDbArc
 50
90.0
 51
165.0000000030343
  0
ARC
  5
1923
330
1F
100
AcDbEntity
  8
SANINDUSA
100
AcDbCircle
 10
2406.767370525251
 20
1367.268680412764
 30
0.0
 40
0.015
100
AcDbArc
 50
90.0
 51
143.4648746430202
  0
LINE
  5
1924
330
1F
100
AcDbEntity
  8
SANINDUSA
100
AcDbLine
 10
2406.760309047778
 20
1367.261645136584
 30
0.0
 11
2406.762540896119
 21
1367.26997450799
 31
0.0
  0
ARC
  5
1925
330
1F
100
AcDbEntity
  8
SANINDUSA
100
AcDbCircle
 10
2406.756445344472
 20
1367.262680412764
 30
0.0
 40
0.0040000000000001
100
AcDbArc
 50
270.0
 51
345.0000000030343
  0
ARC
  5
1926
330
1F
100
AcDbEntity
  8
SANINDUSA
100
AcDbCircle
 10
2406.752583960376
 20
1367.262680412764
 30
0.0
 40
0.0040000000000001
100
AcDbArc
 50
194.9999999969657
 51
270.0
  0
LINE
  5
1927
330
1F
100
AcDbEntity
  8
SANINDUSA
100
AcDbLine
 10
2406.746488408729
 20
1367.26997450799
 30
0.0
 11
2406.748720257071
 21
1367.261645136584
 31
0.0
  0
ARC
  5
1928
330
1F
100
AcDbEntity
  8
SANINDUSA
100
AcDbCircle
 10
2406.741658779598
 20
1367.268680412764
 30
0.0
 40
0.005
100
AcDbArc
 50
14.99999999696573
 51
90.0
  0
ARC
  5
1929
330
1F
100
AcDbEntity
  8
SANINDUSA
100
AcDbCircle
 10
2406.741658779598
 20
1367.268680412764
 30
0.0
 40
0.015
100
AcDbArc
 50
36.53512535697976
 51
90.0
  0
ARC
  5
192A
330
1F
100
AcDbEntity
  8
SANINDUSA
100
AcDbCircle
 10
2406.754514652425
 20
1367.278205460474
 30
0.0
 40
0.001
100
AcDbArc
 50
216.5351253569798
 51
323.4648746430202
  0
LINE
  5
192B
330
1F
100
AcDbEntity
  8
SANINDUSA
100
AcDbLine
 10
2406.692370525251
 20
1367.273680412764
 30
0.0
 11
2406.741658779598
 21
1367.273680412764
 31
0.0
  0
LINE
  5
192C
330
1F
100
AcDbEntity
  8
SANINDUSA
100
AcDbLine
 10
2406.692370525251
 20
1367.283680412765
 30
0.0
 11
2406.741658779598
 21
1367.283680412765
 31
0.0
  0
ARC
  5
192D
330
1F
100
AcDbEntity
  8
SANINDUSA
100
AcDbCircle
 10
2406.692370525251
 20
1367.268680412764
 30
0.0
 40
0.005
100
AcDbArc
 50
90.0
 51
165.0000000030343
  0
ARC
  5
192E
330
1F
100
AcDbEntity
  8
SANINDUSA
100
AcDbCircle
 10
2406.692370525251
 20
1367.268680412764
 30
0.0
 40
0.015
100
AcDbArc
 50
90.0
 51
143.4648746430202
  0
LINE
  5
192F
330
1F
100
AcDbEntity
  8
SANINDUSA
100
AcDbLine
 10
2406.685309047777
 20
1367.261645136584
 30
0.0
 11
2406.687540896119
 21
1367.26997450799
 31
0.0
  0
ARC
  5
1930
330
1F
100
AcDbEntity
  8
SANINDUSA
100
AcDbCircle
 10
2406.681445344472
 20
1367.262680412764
 30
0.0
 40
0.004
100
AcDbArc
 50
270.0
 51
345.0000000030343
  0
ARC
  5
1931
330
1F
100
AcDbEntity
  8
SANINDUSA
100
AcDbCircle
 10
2406.677583960376
 20
1367.262680412764
 30
0.0
 40
0.004
100
AcDbArc
 50
194.9999999969657
 51
270.0
  0
LINE
  5
1932
330
1F
100
AcDbEntity
  8
SANINDUSA
100
AcDbLine
 10
2406.67148840873
 20
1367.26997450799
 30
0.0
 11
2406.673720257071
 21
1367.261645136584
 31
0.0
  0
ARC
  5
1933
330
1F
100
AcDbEntity
  8
SANINDUSA
100
AcDbCircle
 10
2406.666658779598
 20
1367.268680412764
 30
0.0
 40
0.005
100
AcDbArc
 50
14.99999999696573
 51
90.0
  0
ARC
  5
1934
330
1F
100
AcDbEntity
  8
SANINDUSA
100
AcDbCircle
 10
2406.666658779598
 20
1367.268680412764
 30
0.0
 40
0.015
100
AcDbArc
 50
36.53512535697976
 51
90.0
  0
ARC
  5
1935
330
1F
100
AcDbEntity
  8
SANINDUSA
100
AcDbCircle
 10
2406.679514652424
 20
1367.278205460474
 30
0.0
 40
0.001
100
AcDbArc
 50
216.5351253569798
 51
323.4648746430202
  0
ARC
  5
1936
330
1F
100
AcDbEntity
  8
SANINDUSA
100
AcDbCircle
 10
2406.617370525251
 20
1367.268680412764
 30
0.0
 40
0.0050000000000001
100
AcDbArc
 50
90.0
 51
165.0000000030343
  0
ARC
  5
1937
330
1F
100
AcDbEntity
  8
SANINDUSA
100
AcDbCircle
 10
2406.617370525251
 20
1367.268680412764
 30
0.0
 40
0.0150000000000001
100
AcDbArc
 50
90.0
 51
143.4648746430202
  0
ARC
  5
1938
330
1F
100
AcDbEntity
  8
SANINDUSA
100
AcDbCircle
 10
2406.606445344472
 20
1367.262680412764
 30
0.0
 40
0.0040000000000001
100
AcDbArc
 50
270.0
 51
345.0000000030343
  0
ARC
  5
1939
330
1F
100
AcDbEntity
  8
SANINDUSA
100
AcDbCircle
 10
2406.602583960376
 20
1367.262680412764
 30
0.0
 40
0.0040000000000003
100
AcDbArc
 50
194.9999999969657
 51
270.0
  0
ARC
  5
193A
330
1F
100
AcDbEntity
  8
SANINDUSA
100
AcDbCircle
 10
2406.531445344472
 20
1367.262680412764
 30
0.0
 40
0.0040000000000001
100
AcDbArc
 50
270.0
 51
345.0000000030343
  0
ARC
  5
193B
330
1F
100
AcDbEntity
  8
SANINDUSA
100
AcDbCircle
 10
2406.527583960376
 20
1367.262680412764
 30
0.0
 40
0.0040000000000004
100
AcDbArc
 50
194.9999999969657
 51
270.0
  0
ARC
  5
193C
330
1F
100
AcDbEntity
  8
SANINDUSA
100
AcDbCircle
 10
2406.456445344473
 20
1367.262680412764
 30
0.0
 40
0.0040000000000003
100
AcDbArc
 50
270.0
 51
345.0000000030343
  0
ARC
  5
193D
330
1F
100
AcDbEntity
  8
SANINDUSA
100
AcDbCircle
 10
2406.452583960376
 20
1367.262680412764
 30
0.0
 40
0.004
100
AcDbArc
 50
194.9999999969657
 51
270.0
  0
ARC
  5
193E
330
1F
100
AcDbEntity
  8
SANINDUSA
100
AcDbCircle
 10
2406.381445344472
 20
1367.262680412764
 30
0.0
 40
0.0040000000000001
100
AcDbArc
 50
270.0
 51
345.0000000030343
  0
ARC
  5
193F
330
1F
100
AcDbEntity
  8
SANINDUSA
100
AcDbCircle
 10
2406.377583960376
 20
1367.262680412764
 30
0.0
 40
0.004
100
AcDbArc
 50
194.9999999969657
 51
270.0
  0
LINE
  5
1940
330
1F
100
AcDbEntity
  8
SANINDUSA
100
AcDbLine
 10
2406.377583960376
 20
1367.258680412764
 30
0.0
 11
2406.381445344472
 21
1367.258680412764
 31
0.0
  0
LINE
  5
1941
330
1F
100
AcDbEntity
  8
SANINDUSA
100
AcDbLine
 10
2406.452583960376
 20
1367.258680412764
 30
0.0
 11
2406.456445344473
 21
1367.258680412764
 31
0.0
  0
LINE
  5
1942
330
1F
100
AcDbEntity
  8
SANINDUSA
100
AcDbLine
 10
2406.527583960376
 20
1367.258680412764
 30
0.0
 11
2406.531445344472
 21
1367.258680412764
 31
0.0
  0
LINE
  5
1943
330
1F
100
AcDbEntity
  8
SANINDUSA
100
AcDbLine
 10
2406.602583960376
 20
1367.258680412764
 30
0.0
 11
2406.606445344472
 21
1367.258680412764
 31
0.0
  0
LINE
  5
1944
330
1F
100
AcDbEntity
  8
SANINDUSA
100
AcDbLine
 10
2406.677583960376
 20
1367.258680412764
 30
0.0
 11
2406.681445344472
 21
1367.258680412764
 31
0.0
  0
LINE
  5
1945
330
1F
100
AcDbEntity
  8
SANINDUSA
100
AcDbLine
 10
2406.752583960376
 20
1367.258680412764
 30
0.0
 11
2406.756445344472
 21
1367.258680412764
 31
0.0
  0
LINE
  5
1946
330
1F
100
AcDbEntity
  8
SANINDUSA
100
AcDbLine
 10
2406.201726566125
 20
1367.258680412764
 30
0.0
 11
2406.3373701676
 21
1367.258680412764
 31
0.0
  0
LINE
  5
1947
330
1F
100
AcDbEntity
  8
SANINDUSA
100
AcDbLine
 10
2406.86069972784
 20
1367.299425542558
 30
0.0
 11
2406.902865563434
 21
1367.2987999539
 31
0.0
  0
LINE
  5
1948
330
1F
100
AcDbEntity
  8
SANINDUSA
100
AcDbLine
 10
2406.795706880507
 20
1367.300389801599
 30
0.0
 11
2406.838465364609
 21
1367.299755420178
 31
0.0
  0
LINE
  5
1949
330
1F
100
AcDbEntity
  8
SANINDUSA
100
AcDbLine
 10
2406.730714033173
 20
1367.30135406064
 30
0.0
 11
2406.773472517276
 21
1367.300719679219
 31
0.0
  0
LINE
  5
194A
330
1F
100
AcDbEntity
  8
SANINDUSA
100
AcDbLine
 10
2406.66572118584
 20
1367.302318319681
 30
0.0
 11
2406.708479669942
 21
1367.30168393826
 31
0.0
  0
LINE
  5
194B
330
1F
100
AcDbEntity
  8
SANINDUSA
100
AcDbLine
 10
2406.600728338507
 20
1367.303282578722
 30
0.0
 11
2406.64348682261
 21
1367.3026481973
 31
0.0
  0
LINE
  5
194C
330
1F
100
AcDbEntity
  8
SANINDUSA
100
AcDbLine
 10
2406.535735491173
 20
1367.304246837762
 30
0.0
 11
2406.578493975276
 21
1367.303612456341
 31
0.0
  0
LINE
  5
194D
330
1F
100
AcDbEntity
  8
SANINDUSA
100
AcDbLine
 10
2406.47074264384
 20
1367.305211096803
 30
0.0
 11
2406.513501127943
 21
1367.304576715382
 31
0.0
  0
LINE
  5
194E
330
1F
100
AcDbEntity
  8
SANINDUSA
100
AcDbLine
 10
2406.343956616517
 20
1367.307092143382
 30
0.0
 11
2406.448508280609
 21
1367.305540974423
 31
0.0
  0
LINE
  5
194F
330
1F
100
AcDbEntity
  8
SANINDUSA
100
AcDbLine
 10
2406.212726566125
 20
1367.366680412764
 30
0.0
 11
2406.298140071657
 21
1367.366680412764
 31
0.0
  0
LINE
  5
1950
330
1F
100
AcDbEntity
  8
SANINDUSA
100
AcDbLine
 10
2406.617370525251
 20
1367.273680412764
 30
0.0
 11
2406.666658779598
 21
1367.273680412764
 31
0.0
  0
LINE
  5
1951
330
1F
100
AcDbEntity
  8
SANINDUSA
100
AcDbLine
 10
2406.617370525251
 20
1367.283680412765
 30
0.0
 11
2406.666658779598
 21
1367.283680412765
 31
0.0
  0
LINE
  5
1959
330
1F
100
AcDbEntity
  8
SANINDUSA
100
AcDbLine
 10
2406.910483054164
 20
1367.276680412764
 30
0.0
 11
2406.918514652424
 21
1367.276680412764
 31
0.0
  0
LINE
  5
195A
330
1F
100
AcDbEntity
  8
SANINDUSA
100
AcDbLine
 10
2406.602583960376
 20
1367.258680412764
 30
0.0
 11
2406.531445344472
 21
1367.258680412764
 31
0.0
  0
LINE
  5
195E
330
1F
100
AcDbEntity
  8
SANINDUSA
100
AcDbLine
 10
2407.00384898861
 20
1367.281207795075
 30
0.0
 11
2407.007238341429
 21
1367.261985820054
 31
0.0
  0
LINE
  5
1960
330
1F
100
AcDbEntity
  8
SANINDUSA
100
AcDbLine
 10
2406.752583960376
 20
1367.258680412764
 30
0.0
 11
2406.681445344472
 21
1367.258680412764
 31
0.0
  0
ARC
  5
1961
330
1F
100
AcDbEntity
  8
SANINDUSA
100
AcDbCircle
 10
2407.095813079809
 20
1367.373680412764
 30
0.0
 40
0.0050000000000001
100
AcDbArc
 50
0.9999999966945132
 51
90.0
  0
ARC
  5
1962
330
1F
100
AcDbEntity
  8
SANINDUSA
100
AcDbCircle
 10
2407.011177572441
 20
1367.262680412764
 30
0.0
 40
0.0040000000000004
100
AcDbArc
 50
190.000000001223
 51
270.0
  0
ARC
  5
1963
330
1F
100
AcDbEntity
  8
SANINDUSA
100
AcDbCircle
 10
2406.980514652425
 20
1367.277680412764
 30
0.0
 40
0.0010000000000001
100
AcDbArc
 50
180.0
 51
270.0
  0
ARC
  5
1964
330
1F
100
AcDbEntity
  8
SANINDUSA
100
AcDbCircle
 10
2406.996089567643
 20
1367.292416296222
 30
0.0
 40
0.0050000000000002
100
AcDbArc
 50
89.15000000214417
 51
121.6499999946292
  0
ARC
  5
1965
330
1F
100
AcDbEntity
  8
SANINDUSA
100
AcDbCircle
 10
2407.010383208241
 20
1367.322207531831
 30
0.0
 40
0.025
100
AcDbArc
 50
269.1500000021441
 51
349.999999998777
  0
LINE
  5
1966
330
1F
100
AcDbEntity
  8
SANINDUSA
100
AcDbLine
 10
2407.035003402067
 20
1367.31786632739
 30
0.0
 11
2407.043540944297
 21
1367.366285135429
 31
0.0
  0
ARC
  5
1967
330
1F
100
AcDbEntity
  8
SANINDUSA
100
AcDbCircle
 10
2407.058313060593
 20
1367.363680412764
 30
0.0
 40
0.015
100
AcDbArc
 50
90.0
 51
169.999999998777
  0
LINE
  5
1968
330
1F
100
AcDbEntity
  8
SANINDUSA
100
AcDbLine
 10
2407.058313060593
 20
1367.378680412764
 30
0.0
 11
2407.095813079809
 21
1367.378680412764
 31
0.0
  0
ARC
  5
1969
330
1F
100
AcDbEntity
  8
SANINDUSA
100
AcDbCircle
 10
2407.010383208241
 20
1367.322207531831
 30
0.0
 40
0.0370000000000006
100
AcDbArc
 50
276.0411505645056
 51
349.999999998777
  0
LINE
  5
196A
330
1F
100
AcDbEntity
  8
SANINDUSA
100
AcDbLine
 10
2407.014277188681
 20
1367.285413008919
 30
0.0
 11
2407.017051269859
 21
1367.269680412764
 31
0.0
  0
LINE
  5
196B
330
1F
100
AcDbEntity
  8
SANINDUSA
100
AcDbLine
 10
2407.090627340265
 20
1367.269680412764
 30
0.0
 11
2407.088934198967
 21
1367.366680412764
 31
0.0
  0
LINE
  5
196C
330
1F
100
AcDbEntity
  8
SANINDUSA
100
AcDbLine
 10
2407.102803414219
 20
1367.259697865171
 30
0.0
 11
2407.100812318285
 21
1367.373767674797
 31
0.0
  0
ARC
  5
196D
330
1F
100
AcDbEntity
  8
SANINDUSA
100
AcDbCircle
 10
2407.101803566523
 20
1367.259680412764
 30
0.0
 40
0.001
100
AcDbArc
 50
270.0
 51
0.9999999966945132
  0
LINE
  5
196E
330
1F
100
AcDbEntity
  8
SANINDUSA
100
AcDbLine
 10
2407.090627340265
 20
1367.269680412764
 30
0.0
 11
2407.017051269859
 21
1367.269680412764
 31
0.0
  0
LINE
  5
196F
330
1F
100
AcDbEntity
  8
SANINDUSA
100
AcDbLine
 10
2407.011177572441
 20
1367.258680412764
 30
0.0
 11
2407.101803566523
 21
1367.258680412764
 31
0.0
  0
LINE
  5
1970
330
1F
100
AcDbEntity
  8
SANINDUSA
100
AcDbLine
 10
2406.996163741415
 20
1367.297415746017
 30
0.0
 11
2407.010012339379
 21
1367.297210282857
 31
0.0
  0
LINE
  5
1971
330
1F
100
AcDbEntity
  8
SANINDUSA
100
AcDbLine
 10
2407.058313060593
 20
1367.366680412764
 30
0.0
 11
2407.088934198967
 21
1367.366680412764
 31
0.0
  0
LINE
  5
1972
330
1F
100
AcDbEntity
  8
SANINDUSA
100
AcDbLine
 10
2406.980514652425
 20
1367.276680412764
 30
0.0
 11
2406.988674216512
 21
1367.276680412764
 31
0.0
  0
LINE
  5
1974
330
1F
100
AcDbEntity
  8
SANINDUSA
100
AcDbLine
 10
2406.832897335251
 20
1367.258680412764
 30
0.0
 11
2406.831445344473
 21
1367.258680412764
 31
0.0
  0
LINE
  5
1977
330
1F
100
AcDbEntity
  8
SANINDUSA
100
AcDbLine
 10
2406.452583960376
 20
1367.258680412764
 30
0.0
 11
2406.381445344472
 21
1367.258680412764
 31
0.0
  0
LINE
  5
1978
330
1F
100
AcDbEntity
  8
SANINDUSA
100
AcDbLine
 10
2406.677583960376
 20
1367.258680412764
 30
0.0
 11
2406.606445344472
 21
1367.258680412764
 31
0.0
  0
LINE
  5
1979
330
1F
100
AcDbEntity
  8
SANINDUSA
100
AcDbLine
 10
2406.527583960376
 20
1367.258680412764
 30
0.0
 11
2406.456445344473
 21
1367.258680412764
 31
0.0
  0
LINE
  5
197D
330
1F
100
AcDbEntity
  8
SANINDUSA
100
AcDbLine
 10
2406.99894832501
 20
1367.258680412764
 30
0.0
 11
2406.832952016938
 21
1367.258680412764
 31
0.0
  0
LINE
  5
197E
330
1F
100
AcDbEntity
  8
SANINDUSA
100
AcDbLine
 10
2406.827583960376
 20
1367.258680412764
 30
0.0
 11
2406.756445344472
 21
1367.258680412764
 31
0.0
  0
LINE
  5
1988
330
1F
100
AcDbEntity
  8
SANINDUSA
100
AcDbLine
 10
2406.902865563434
 20
1367.2987999539
 30
0.0
 11
2406.996163741415
 21
1367.297415746017
 31
0.0
  0
LINE
  5
198C
330
1F
100
AcDbEntity
  8
SANINDUSA
100
AcDbLine
 10
2407.000204072585
 20
1367.378680412764
 30
0.0
 11
2407.058313060593
 21
1367.378680412764
 31
0.0
  0
LINE
  5
198D
330
1F
100
AcDbEntity
  8
SANINDUSA
100
AcDbLine
 10
2406.980514652425
 20
1367.276680412764
 30
0.0
 11
2406.918514652424
 21
1367.276680412764
 31
0.0
  0
LINE
  5
1998
330
1F
100
AcDbEntity
  8
SANINDUSA
100
AcDbLine
 10
2407.011177572441
 20
1367.258680412764
 30
0.0
 11
2407.007840537171
 21
1367.258680412764
 31
0.0
  0
LINE
  5
19A2
330
1F
100
AcDbEntity
  8
SANINDUSA
100
AcDbLine
 10
2407.007840537171
 20
1367.258680412764
 30
0.0
 11
2407.007229928224
 21
1367.258680412764
 31
0.0
  0
LINE
  5
19A5
330
1F
100
AcDbEntity
  8
SANINDUSA
100
AcDbLine
 10
2407.007229928224
 20
1367.258680412764
 30
0.0
 11
2407.005443608834
 21
1367.258680412764
 31
0.0
  0
LINE
  5
19A9
330
1F
100
AcDbEntity
  8
SANINDUSA
100
AcDbLine
 10
2407.005443608834
 20
1367.258680412764
 30
0.0
 11
2406.99894832501
 21
1367.258680412764
 31
0.0
  0
LINE
  5
19AA
330
1F
100
AcDbEntity
  8
SANINDUSA
100
AcDbLine
 10
2406.377583960376
 20
1367.258680412764
 30
0.0
 11
2406.3373701676
 21
1367.258680412764
 31
0.0
  0
LINE
  5
19B7
330
1F
100
AcDbEntity
  8
SANINDUSA
100
AcDbLine
 10
2406.298140071657
 20
1367.378680412764
 30
0.0
 11
2407.000204072585
 21
1367.378680412764
 31
0.0
  0
LINE
  5
19B8
330
1F
100
AcDbEntity
  8
SANINDUSA
100
AcDbLine
 10
2406.830694961441
 20
1367.28786938425
 30
0.0
 11
2406.343778599463
 21
1367.295093463874
 31
0.0
  0
LINE
  5
1C56
330
1F
100
AcDbEntity
  8
SANINDUSA
100
AcDbLine
 10
2405.054486829877
 20
1367.258680412764
 30
0.0
 11
2405.048486829878
 21
1367.258680412764
 31
0.0
  0
ARC
  5
1C57
330
1F
100
AcDbEntity
  8
SANINDUSA
100
AcDbCircle
 10
2405.048486829878
 20
1367.259680412764
 30
0.0
 40
0.0010000000000001
100
AcDbArc
 50
180.0
 51
270.0
  0
LINE
  5
1C5A
330
1F
100
AcDbEntity
  8
SANINDUSA
100
AcDbLine
 10
2405.940486829877
 20
1367.258680412764
 30
0.0
 11
2405.054486829877
 21
1367.258680412764
 31
0.0
  0
ARC
  5
1C5C
330
1F
100
AcDbEntity
  8
SANINDUSA
100
AcDbCircle
 10
2405.948563830276
 20
1367.259680412764
 30
0.0
 40
0.0010000000000001
100
AcDbArc
 50
270.0
 51
0.9999999966945132
  0
LINE
  5
1C5D
330
1F
100
AcDbEntity
  8
SANINDUSA
100
AcDbLine
 10
2405.948563830276
 20
1367.258680412764
 30
0.0
 11
2405.940486829877
 21
1367.258680412764
 31
0.0
  0
LINE
  5
1C62
330
1F
100
AcDbEntity
  8
SANINDUSA
100
AcDbLine
 10
2405.047486829877
 20
1367.259680412764
 30
0.0
 11
2405.047486829877
 21
1367.373680412764
 31
0.0
  0
LINE
  5
1C64
330
1F
100
AcDbEntity
  8
SANINDUSA
100
AcDbLine
 10
2405.949563677971
 20
1367.259697865171
 30
0.0
 11
2405.947572582038
 21
1367.373767674797
 31
0.0
  0
LINE
  5
1C65
330
1F
100
AcDbEntity
  8
SANINDUSA
100
AcDbLine
 10
2405.054486829877
 20
1367.378680412764
 30
0.0
 11
2405.940486829877
 21
1367.378680412764
 31
0.0
  0
LINE
  5
1C68
330
1F
100
AcDbEntity
  8
SANINDUSA
100
AcDbLine
 10
2405.052486829877
 20
1367.378680412764
 30
0.0
 11
2405.054486829877
 21
1367.378680412764
 31
0.0
  0
ARC
  5
1C69
330
1F
100
AcDbEntity
  8
SANINDUSA
100
AcDbCircle
 10
2405.052486829877
 20
1367.373680412764
 30
0.0
 40
0.005
100
AcDbArc
 50
90.0
 51
180.0
  0
LINE
  5
1C6A
330
1F
100
AcDbEntity
  8
SANINDUSA
100
AcDbLine
 10
2405.940486829877
 20
1367.378680412764
 30
0.0
 11
2405.942573343561
 21
1367.378680412764
 31
0.0
  0
ARC
  5
1C6B
330
1F
100
AcDbEntity
  8
SANINDUSA
100
AcDbCircle
 10
2405.942573343561
 20
1367.373680412764
 30
0.0
 40
0.005
100
AcDbArc
 50
0.9999999966945132
 51
90.0
  0
ENDSEC
  0
SECTION
  2
OBJECTS
  0
DICTIONARY
  5
C
330
0
100
AcDbDictionary
281
     1
  3
ACAD_COLOR
350
BA9
  3
ACAD_GROUP
350
D
  3
ACAD_LAYOUT
350
1A
  3
ACAD_MATERIAL
350
BA8
  3
ACAD_MLEADERSTYLE
350
233C
  3
ACAD_MLINESTYLE
350
17
  3
ACAD_PLOTSETTINGS
350
19
  3
ACAD_PLOTSTYLENAME
350
E
  3
ACAD_SCALELIST
350
232A
  3
ACAD_TABLESTYLE
350
BAA
  3
ACAD_VISUALSTYLE
350
2316
  3
ACDB_RECOMPOSE_DATA
350
2368
  3
AcDbVariableDictionary
350
3D
  3
ASE_INDEX_DICTIONARY
350
22E9
  3
DWGPROPS
350
2369
  0
DICTIONARY
  5
2343
330
10
100
AcDbDictionary
280
     1
281
     1
  3
ADSK_XREC_LAYER_RECONCILED
360
2344
  0
DICTIONARY
  5
2345
330
2F
100
AcDbDictionary
280
     1
281
     1
  3
ADSK_XREC_LAYER_RECONCILED
360
2346
  0
DICTIONARY
  5
2347
330
30
100
AcDbDictionary
280
     1
281
     1
  3
ADSK_XREC_LAYER_RECONCILED
360
2348
  0
DICTIONARY
  5
2349
330
31
100
AcDbDictionary
280
     1
281
     1
  3
ADSK_XREC_LAYER_RECONCILED
360
234A
  0
DICTIONARY
  5
234B
330
32
100
AcDbDictionary
280
     1
281
     1
  3
ADSK_XREC_LAYER_RECONCILED
360
234C
  0
DICTIONARY
  5
234D
330
33
100
AcDbDictionary
280
     1
281
     1
  3
ADSK_XREC_LAYER_RECONCILED
360
234E
  0
DICTIONARY
  5
234F
330
34
100
AcDbDictionary
280
     1
281
     1
  3
ADSK_XREC_LAYER_RECONCILED
360
2350
  0
DICTIONARY
  5
2351
330
35
100
AcDbDictionary
280
     1
281
     1
  3
ADSK_XREC_LAYER_RECONCILED
360
2352
  0
DICTIONARY
  5
2353
330
36
100
AcDbDictionary
280
     1
281
     1
  3
ADSK_XREC_LAYER_RECONCILED
360
2354
  0
DICTIONARY
  5
2355
330
37
100
AcDbDictionary
280
     1
281
     1
  3
ADSK_XREC_LAYER_RECONCILED
360
2356
  0
DICTIONARY
  5
2357
330
5D6
100
AcDbDictionary
280
     1
281
     1
  3
ADSK_XREC_LAYER_RECONCILED
360
2358
  0
DICTIONARY
  5
2359
330
8AF
100
AcDbDictionary
280
     1
281
     1
  3
ADSK_XREC_LAYER_RECONCILED
360
235A
  0
DICTIONARY
  5
235B
330
8F8
100
AcDbDictionary
280
     1
281
     1
  3
ADSK_XREC_LAYER_RECONCILED
360
235C
  0
DICTIONARY
  5
235D
330
91D
100
AcDbDictionary
280
     1
281
     1
  3
ADSK_XREC_LAYER_RECONCILED
360
235E
  0
DICTIONARY
  5
235F
330
BA5
100
AcDbDictionary
280
     1
281
     1
  3
ADSK_XREC_LAYER_RECONCILED
360
2360
  0
DICTIONARY
  5
BA9
102
{ACAD_REACTORS
330
C
102
}
330
C
100
AcDbDictionary
281
     1
  0
DICTIONARY
  5
D
102
{ACAD_REACTORS
330
C
102
}
330
C
100
AcDbDictionary
281
     1
  0
DICTIONARY
  5
1A
102
{ACAD_REACTORS
330
C
102
}
330
C
100
AcDbDictionary
281
     1
  3
Layout1
350
1E
  3
Layout2
350
26
  3
Model
350
22
  0
DICTIONARY
  5
BA8
102
{ACAD_REACTORS
330
C
102
}
330
C
100
AcDbDictionary
281
     1
  3
ByBlock
350
2306
  3
ByLayer
350
22FE
  3
Global
350
230E
  0
DICTIONARY
  5
233C
102
{ACAD_REACTORS
330
C
102
}
330
C
100
AcDbDictionary
281
     1
  3
Standard
350
233D
  0
DICTIONARY
  5
17
102
{ACAD_REACTORS
330
C
102
}
330
C
100
AcDbDictionary
281
     1
  3
Standard
350
18
  0
DICTIONARY
  5
19
102
{ACAD_REACTORS
330
C
102
}
330
C
100
AcDbDictionary
281
     1
  0
ACDBDICTIONARYWDFLT
  5
E
102
{ACAD_REACTORS
330
C
102
}
330
C
100
AcDbDictionary
281
     1
  3
Normal
350
F
100
AcDbDictionaryWithDefault
340
F
  0
DICTIONARY
  5
232A
102
{ACAD_REACTORS
330
C
102
}
330
C
100
AcDbDictionary
281
     1
  3
A0
350
232B
  3
A1
350
232C
  3
A2
350
232D
  3
A3
350
232E
  3
A4
350
232F
  3
A5
350
2330
  3
A6
350
2331
  3
A7
350
2332
  3
A8
350
2333
  3
A9
350
2334
  3
B0
350
2335
  3
B1
350
2336
  3
B2
350
2337
  3
B3
350
2338
  3
B4
350
2339
  3
B5
350
233A
  3
B6
350
233B
  0
DICTIONARY
  5
BAA
102
{ACAD_REACTORS
330
C
102
}
330
C
100
AcDbDictionary
281
     1
  3
Standard
350
BAB
  0
DICTIONARY
  5
2316
102
{ACAD_REACTORS
330
C
102
}
330
C
100
AcDbDictionary
281
     1
  3
2dWireframe
350
231C
  3
3D Hidden
350
231E
  3
3dWireframe
350
231D
  3
Basic
350
231B
  3
Brighten
350
2322
  3
ColorChange
350
2326
  3
Conceptual
350
231F
  3
Dim
350
2321
  3
EdgeColorOff
350
2329
  3
Facepattern
350
2325
  3
Flat
350
2317
  3
FlatWithEdges
350
2318
  3
Gouraud
350
2319
  3
GouraudWithEdges
350
231A
  3
JitterOff
350
2327
  3
Linepattern
350
2324
  3
OverhangOff
350
2328
  3
Realistic
350
2320
  3
Thicken
350
2323
  0
XRECORD
  5
2368
102
{ACAD_REACTORS
330
C
102
}
330
C
100
AcDbXrecord
280
     1
 90
        1
330
BAB
  0
DICTIONARY
  5
3D
102
{ACAD_REACTORS
330
C
102
}
330
C
100
AcDbDictionary
281
     1
  3
CANNOSCALE
350
2362
  3
CMLEADERSTYLE
350
2361
  3
CTABLESTYLE
350
22EC
  3
DIMASSOC
350
3F
  3
HIDETEXT
350
3E
  3
INDEXCTL
350
2364
  3
PROJECTNAME
350
22FC
  3
SORTENTS
350
2363
  3
XCLIPFRAME
350
2365
  0
DICTIONARY
  5
22E9
102
{ACAD_REACTORS
330
C
102
}
330
C
100
AcDbDictionary
281
     1
  3
ASEBlockHierarchyIndexRecord
350
22EA
1001
DCO15
1040
1531549854.109
  0
XRECORD
  5
2369
102
{ACAD_REACTORS
330
C
102
}
330
C
100
AcDbXrecord
280
     1
  1
DWGPROPS COOKIE
  2

  3

  4

  6

  7

  8
Julio
  9

300
=
301
=
302
=
303
=
304
=
305
=
306
=
307
=
308
=
309
=
 40
0.0052712731481481
 41
2453529.478209988
 42
2456148.421535544
  1

 90
        0
  0
XRECORD
  5
2344
102
{ACAD_REACTORS
330
2343
102
}
330
2343
100
AcDbXrecord
280
     1
290
     1
  0
XRECORD
  5
2346
102
{ACAD_REACTORS
330
2345
102
}
330
2345
100
AcDbXrecord
280
     1
290
     1
  0
XRECORD
  5
2348
102
{ACAD_REACTORS
330
2347
102
}
330
2347
100
AcDbXrecord
280
     1
290
     1
  0
XRECORD
  5
234A
102
{ACAD_REACTORS
330
2349
102
}
330
2349
100
AcDbXrecord
280
     1
290
     1
  0
XRECORD
  5
234C
102
{ACAD_REACTORS
330
234B
102
}
330
234B
100
AcDbXrecord
280
     1
290
     1
  0
XRECORD
  5
234E
102
{ACAD_REACTORS
330
234D
102
}
330
234D
100
AcDbXrecord
280
     1
290
     1
  0
XRECORD
  5
2350
102
{ACAD_REACTORS
330
234F
102
}
330
234F
100
AcDbXrecord
280
     1
290
     1
  0
XRECORD
  5
2352
102
{ACAD_REACTORS
330
2351
102
}
330
2351
100
AcDbXrecord
280
     1
290
     1
  0
XRECORD
  5
2354
102
{ACAD_REACTORS
330
2353
102
}
330
2353
100
AcDbXrecord
280
     1
290
     1
  0
XRECORD
  5
2356
102
{ACAD_REACTORS
330
2355
102
}
330
2355
100
AcDbXrecord
280
     1
290
     1
  0
XRECORD
  5
2358
102
{ACAD_REACTORS
330
2357
102
}
330
2357
100
AcDbXrecord
280
     1
290
     1
  0
XRECORD
  5
235A
102
{ACAD_REACTORS
330
2359
102
}
330
2359
100
AcDbXrecord
280
     1
290
     1
  0
XRECORD
  5
235C
102
{ACAD_REACTORS
330
235B
102
}
330
235B
100
AcDbXrecord
280
     1
290
     1
  0
XRECORD
  5
235E
102
{ACAD_REACTORS
330
235D
102
}
330
235D
100
AcDbXrecord
280
     1
290
     1
  0
XRECORD
  5
2360
102
{ACAD_REACTORS
330
235F
102
}
330
235F
100
AcDbXrecord
280
     1
290
     1
  0
LAYOUT
  5
1E
102
{ACAD_XDICTIONARY
360
236A
102
}
102
{ACAD_REACTORS
330
1A
102
}
330
1A
100
AcDbPlotSettings
  1

  2
Ploter HP500
  4

  6

 40
0.0
 41
0.0
 42
0.0
 43
0.0
 44
0.0
 45
0.0
 46
0.0
 47
0.0
 48
0.0
 49
0.0
140
0.0
141
0.0
142
1.0
143
1.0
 70
   688
 72
     0
 73
     0
 74
     5
  7
monochrome.ctb
 75
    16
147
1.0
148
0.0
149
0.0
100
AcDbLayout
  1
Layout1
 70
     1
 71
     1
 10
0.0
 20
0.0
 11
420.0
 21
297.0
 12
0.0
 22
0.0
 32
0.0
 14
1.000000000000000E+20
 24
1.000000000000000E+20
 34
1.000000000000000E+20
 15
-1.000000000000000E+20
 25
-1.000000000000000E+20
 35
-1.000000000000000E+20
146
0.0
 13
0.0
 23
0.0
 33
0.0
 16
1.0
 26
0.0
 36
0.0
 17
0.0
 27
1.0
 37
0.0
 76
     0
330
1B
  0
LAYOUT
  5
26
102
{ACAD_XDICTIONARY
360
236E
102
}
102
{ACAD_REACTORS
330
1A
102
}
330
1A
100
AcDbPlotSettings
  1

  2
Ploter HP500
  4

  6

 40
0.0
 41
0.0
 42
0.0
 43
0.0
 44
0.0
 45
0.0
 46
0.0
 47
0.0
 48
0.0
 49
0.0
140
0.0
141
0.0
142
1.0
143
1.0
 70
   688
 72
     0
 73
     0
 74
     5
  7
monochrome.ctb
 75
    16
147
1.0
148
0.0
149
0.0
100
AcDbLayout
  1
Layout2
 70
     1
 71
     2
 10
0.0
 20
0.0
 11
12.0
 21
9.0
 12
0.0
 22
0.0
 32
0.0
 14
0.0
 24
0.0
 34
0.0
 15
0.0
 25
0.0
 35
0.0
146
0.0
 13
0.0
 23
0.0
 33
0.0
 16
1.0
 26
0.0
 36
0.0
 17
0.0
 27
1.0
 37
0.0
 76
     0
330
23
  0
LAYOUT
  5
22
102
{ACAD_XDICTIONARY
360
236C
102
}
102
{ACAD_REACTORS
330
1A
102
}
330
1A
100
AcDbPlotSettings
  1

  2
Ploter HP500
  4
User268
  6

 40
4.995333194732666
 41
16.97565841674804
 42
4.995330810546875
 43
16.97567749023437
 44
209.9733276367187
 45
296.9259948730469
 46
0.0
 47
0.0
 48
0.0
 49
0.0
140
0.0
141
0.0
142
1.0
143
1.0
 70
 11952
 72
     1
 73
     1
 74
     0
  7

 75
     0
147
1.0
148
-427.5957866592534
149
7.362384574453926
100
AcDbLayout
  1
Model
 70
     1
 71
     0
 10
0.0
 20
0.0
 11
12.0
 21
9.0
 12
0.0
 22
0.0
 32
0.0
 14
0.0
 24
0.0
 34
0.0
 15
0.0
 25
0.0
 35
0.0
146
0.0
 13
0.0
 23
0.0
 33
0.0
 16
1.0
 26
0.0
 36
0.0
 17
0.0
 27
1.0
 37
0.0
 76
     0
330
1F
331
22F4
  0
MATERIAL
  5
2306
102
{ACAD_XDICTIONARY
360
2307
102
}
102
{ACAD_REACTORS
330
BA8
102
}
330
BA8
100
AcDbMaterial
  1
ByBlock
 72
     0
 43
0.0008202099737533
 43
0.0
 43
0.0
 43
0.0
 43
0.0
 43
0.0008202099737533
 43
0.0
 43
0.0
 43
0.0
 43
0.0
 43
1.0
 43
0.0
 43
0.0
 43
0.0
 43
0.0
 43
1.0
 77
     0
 47
0.0008202099737533
 47
0.0
 47
0.0
 47
0.0
 47
0.0
 47
0.0008202099737533
 47
0.0
 47
0.0
 47
0.0
 47
0.0
 47
1.0
 47
0.0
 47
0.0
 47
0.0
 47
0.0
 47
1.0
171
     0
 49
0.0008202099737533
 49
0.0
 49
0.0
 49
0.0
 49
0.0
 49
0.0008202099737533
 49
0.0
 49
0.0
 49
0.0
 49
0.0
 49
1.0
 49
0.0
 49
0.0
 49
0.0
 49
0.0
 49
1.0
175
     0
142
0.0008202099737533
142
0.0
142
0.0
142
0.0
142
0.0
142
0.0008202099737533
142
0.0
142
0.0
142
0.0
142
0.0
142
1.0
142
0.0
142
0.0
142
0.0
142
0.0
142
1.0
179
     0
144
0.0008202099737533
144
0.0
144
0.0
144
0.0
144
0.0
144
0.0008202099737533
144
0.0
144
0.0
144
0.0
144
0.0
144
1.0
144
0.0
144
0.0
144
0.0
144
0.0
144
1.0
147
0.0008202099737533
147
0.0
147
0.0
147
0.0
147
0.0
147
0.0008202099737533
147
0.0
147
0.0
147
0.0
147
0.0
147
1.0
147
0.0
147
0.0
147
0.0
147
0.0
147
1.0
  0
MATERIAL
  5
22FE
102
{ACAD_XDICTIONARY
360
22FF
102
}
102
{ACAD_REACTORS
330
BA8
102
}
330
BA8
100
AcDbMaterial
  1
ByLayer
 72
     0
 43
0.0008202099737533
 43
0.0
 43
0.0
 43
0.0
 43
0.0
 43
0.0008202099737533
 43
0.0
 43
0.0
 43
0.0
 43
0.0
 43
1.0
 43
0.0
 43
0.0
 43
0.0
 43
0.0
 43
1.0
 77
     0
 47
0.0008202099737533
 47
0.0
 47
0.0
 47
0.0
 47
0.0
 47
0.0008202099737533
 47
0.0
 47
0.0
 47
0.0
 47
0.0
 47
1.0
 47
0.0
 47
0.0
 47
0.0
 47
0.0
 47
1.0
171
     0
 49
0.0008202099737533
 49
0.0
 49
0.0
 49
0.0
 49
0.0
 49
0.0008202099737533
 49
0.0
 49
0.0
 49
0.0
 49
0.0
 49
1.0
 49
0.0
 49
0.0
 49
0.0
 49
0.0
 49
1.0
175
     0
142
0.0008202099737533
142
0.0
142
0.0
142
0.0
142
0.0
142
0.0008202099737533
142
0.0
142
0.0
142
0.0
142
0.0
142
1.0
142
0.0
142
0.0
142
0.0
142
0.0
142
1.0
179
     0
144
0.0008202099737533
144
0.0
144
0.0
144
0.0
144
0.0
144
0.0008202099737533
144
0.0
144
0.0
144
0.0
144
0.0
144
1.0
144
0.0
144
0.0
144
0.0
144
0.0
144
1.0
147
0.0008202099737533
147
0.0
147
0.0
147
0.0
147
0.0
147
0.0008202099737533
147
0.0
147
0.0
147
0.0
147
0.0
147
1.0
147
0.0
147
0.0
147
0.0
147
0.0
147
1.0
  0
MATERIAL
  5
230E
102
{ACAD_XDICTIONARY
360
230F
102
}
102
{ACAD_REACTORS
330
BA8
102
}
330
BA8
100
AcDbMaterial
  1
Global
 72
     0
 43
0.0008202099737533
 43
0.0
 43
0.0
 43
0.0
 43
0.0
 43
0.0008202099737533
 43
0.0
 43
0.0
 43
0.0
 43
0.0
 43
1.0
 43
0.0
 43
0.0
 43
0.0
 43
0.0
 43
1.0
 77
     0
 47
0.0008202099737533
 47
0.0
 47
0.0
 47
0.0
 47
0.0
 47
0.0008202099737533
 47
0.0
 47
0.0
 47
0.0
 47
0.0
 47
1.0
 47
0.0
 47
0.0
 47
0.0
 47
0.0
 47
1.0
171
     0
 49
0.0008202099737533
 49
0.0
 49
0.0
 49
0.0
 49
0.0
 49
0.0008202099737533
 49
0.0
 49
0.0
 49
0.0
 49
0.0
 49
1.0
 49
0.0
 49
0.0
 49
0.0
 49
0.0
 49
1.0
175
     0
142
0.0008202099737533
142
0.0
142
0.0
142
0.0
142
0.0
142
0.0008202099737533
142
0.0
142
0.0
142
0.0
142
0.0
142
1.0
142
0.0
142
0.0
142
0.0
142
0.0
142
1.0
179
     0
144
0.0008202099737533
144
0.0
144
0.0
144
0.0
144
0.0
144
0.0008202099737533
144
0.0
144
0.0
144
0.0
144
0.0
144
1.0
144
0.0
144
0.0
144
0.0
144
0.0
144
1.0
147
0.0008202099737533
147
0.0
147
0.0
147
0.0
147
0.0
147
0.0008202099737533
147
0.0
147
0.0
147
0.0
147
0.0
147
1.0
147
0.0
147
0.0
147
0.0
147
0.0
147
1.0
  0
MLEADERSTYLE
  5
233D
102
{ACAD_REACTORS
330
233C
102
}
330
233C
100
AcDbMLeaderStyle
170
     2
171
     1
172
     0
 90
        2
 40
0.0
 41
0.0
173
     1
 91
-1056964608
340
14
 92
       -2
290
     1
 42
2.0
291
     1
 43
0.36
  3
Standard
 44
4.0
300

342
11
174
     1
178
     6
175
     1
176
     0
 93
-1056964608
 45
4.0
292
     0
297
     0
 46
4.0
 94
-1056964608
 47
1.0
 49
1.0
140
1.0
293
     1
141
0.0
294
     1
177
     0
142
1.0
295
     0
296
     0
143
0.125
1001
ACAD_MLEADERVER
1070
     2
  0
MLINESTYLE
  5
18
102
{ACAD_REACTORS
330
17
102
}
330
17
100
AcDbMlineStyle
  2
STANDARD
 70
     0
  3

 62
   256
 51
90.0
 52
90.0
 71
     2
 49
0.5
 62
   256
  6
BYLAYER
 49
-0.5
 62
   256
  6
BYLAYER
  0
ACDBPLACEHOLDER
  5
F
102
{ACAD_REACTORS
330
E
102
}
330
E
  0
SCALE
  5
232B
102
{ACAD_REACTORS
330
232A
102
}
330
232A
100
AcDbScale
 70
     0
300
1:1
140
1.0
141
1.0
290
     1
  0
SCALE
  5
232C
102
{ACAD_REACTORS
330
232A
102
}
330
232A
100
AcDbScale
 70
     0
300
1:2
140
1.0
141
2.0
290
     0
  0
SCALE
  5
232D
102
{ACAD_REACTORS
330
232A
102
}
330
232A
100
AcDbScale
 70
     0
300
1:4
140
1.0
141
4.0
290
     0
  0
SCALE
  5
232E
102
{ACAD_REACTORS
330
232A
102
}
330
232A
100
AcDbScale
 70
     0
300
1:5
140
1.0
141
5.0
290
     0
  0
SCALE
  5
232F
102
{ACAD_REACTORS
330
232A
102
}
330
232A
100
AcDbScale
 70
     0
300
1:8
140
1.0
141
8.0
290
     0
  0
SCALE
  5
2330
102
{ACAD_REACTORS
330
232A
102
}
330
232A
100
AcDbScale
 70
     0
300
1:10
140
1.0
141
10.0
290
     0
  0
SCALE
  5
2331
102
{ACAD_REACTORS
330
232A
102
}
330
232A
100
AcDbScale
 70
     0
300
1:16
140
1.0
141
16.0
290
     0
  0
SCALE
  5
2332
102
{ACAD_REACTORS
330
232A
102
}
330
232A
100
AcDbScale
 70
     0
300
1:20
140
1.0
141
20.0
290
     0
  0
SCALE
  5
2333
102
{ACAD_REACTORS
330
232A
102
}
330
232A
100
AcDbScale
 70
     0
300
1:30
140
1.0
141
30.0
290
     0
  0
SCALE
  5
2334
102
{ACAD_REACTORS
330
232A
102
}
330
232A
100
AcDbScale
 70
     0
300
1:40
140
1.0
141
40.0
290
     0
  0
SCALE
  5
2335
102
{ACAD_REACTORS
330
232A
102
}
330
232A
100
AcDbScale
 70
     0
300
1:50
140
1.0
141
50.0
290
     0
  0
SCALE
  5
2336
102
{ACAD_REACTORS
330
232A
102
}
330
232A
100
AcDbScale
 70
     0
300
1:100
140
1.0
141
100.0
290
     0
  0
SCALE
  5
2337
102
{ACAD_REACTORS
330
232A
102
}
330
232A
100
AcDbScale
 70
     0
300
2:1
140
2.0
141
1.0
290
     0
  0
SCALE
  5
2338
102
{ACAD_REACTORS
330
232A
102
}
330
232A
100
AcDbScale
 70
     0
300
4:1
140
4.0
141
1.0
290
     0
  0
SCALE
  5
2339
102
{ACAD_REACTORS
330
232A
102
}
330
232A
100
AcDbScale
 70
     0
300
8:1
140
8.0
141
1.0
290
     0
  0
SCALE
  5
233A
102
{ACAD_REACTORS
330
232A
102
}
330
232A
100
AcDbScale
 70
     0
300
10:1
140
10.0
141
1.0
290
     0
  0
SCALE
  5
233B
102
{ACAD_REACTORS
330
232A
102
}
330
232A
100
AcDbScale
 70
     0
300
100:1
140
100.0
141
1.0
290
     0
  0
TABLESTYLE
  5
BAB
102
{ACAD_XDICTIONARY
360
2366
102
}
102
{ACAD_REACTORS
330
BAA
102
}
330
BAA
100
AcDbTableStyle
  3
Standard
 70
     0
 71
     0
 40
1.5
 41
1.5
280
     0
281
     0
  7
Standard
140
4.5
170
     2
 62
     0
 63
     7
283
     0
274
    -2
284
     1
 64
     0
275
    -2
285
     1
 65
     0
276
    -2
286
     1
 66
     0
277
    -2
287
     1
 67
     0
278
    -2
288
     1
 68
     0
279
    -2
289
     1
 69
     0
  7
Standard
140
6.0
170
     5
 62
     0
 63
     7
283
     0
274
    -2
284
     1
 64
     0
275
    -2
285
     1
 65
     0
276
    -2
286
     1
 66
     0
277
    -2
287
     1
 67
     0
278
    -2
288
     1
 68
     0
279
    -2
289
     1
 69
     0
  7
Standard
140
4.5
170
     5
 62
     0
 63
     7
283
     0
274
    -2
284
     1
 64
     0
275
    -2
285
     1
 65
     0
276
    -2
286
     1
 66
     0
277
    -2
287
     1
 67
     0
278
    -2
288
     1
 68
     0
279
    -2
289
     1
 69
     0
  0
VISUALSTYLE
  5
231C
102
{ACAD_XDICTIONARY
360
2396
102
}
102
{ACAD_REACTORS
330
2316
102
}
330
2316
100
AcDbVisualStyle
  2
2dWireframe
 70
     4
 71
     0
 72
     2
 73
     0
 90
        0
 40
-0.6
 41
-30.0
 62
     5
 63
     7
 74
     1
 91
        4
 64
     7
 65
   257
 75
     1
175
     1
 42
1.0
 92
        0
 66
   257
 43
1.0
 76
     1
 77
     6
 78
     2
 67
     7
 79
     5
170
     0
171
     0
290
     0
174
     0
 93
        1
 44
0.0
173
     0
291
     0
 45
0.0
1001
ACAD
1000
AcDbSavedByObjectVersion
1070
     0
  0
VISUALSTYLE
  5
231E
102
{ACAD_XDICTIONARY
360
239A
102
}
102
{ACAD_REACTORS
330
2316
102
}
330
2316
100
AcDbVisualStyle
  2
3D Hidden
 70
     6
 71
     1
 72
     2
 73
     2
 90
        0
 40
-0.6
 41
-30.0
 62
     5
 63
     7
 74
     2
 91
        2
 64
     7
 65
   257
 75
     2
175
     1
 42
179.0
 92
        0
 66
   257
 43
1.0
 76
     1
 77
     6
 78
     2
 67
     7
 79
     3
170
     0
171
     0
290
     0
174
     0
 93
        1
 44
0.0
173
     0
291
     0
 45
0.0
1001
ACAD
1000
AcDbSavedByObjectVersion
1070
     0
  0
VISUALSTYLE
  5
231D
102
{ACAD_XDICTIONARY
360
2398
102
}
102
{ACAD_REACTORS
330
2316
102
}
330
2316
100
AcDbVisualStyle
  2
3dWireframe
 70
     5
 71
     0
 72
     2
 73
     0
 90
        0
 40
-0.6
 41
-30.0
 62
     5
 63
     7
 74
     1
 91
        4
 64
     7
 65
   257
 75
     1
175
     1
 42
1.0
 92
        0
 66
   257
 43
1.0
 76
     1
 77
     6
 78
     2
 67
     7
 79
     5
170
     0
171
     0
290
     0
174
     0
 93
        1
 44
0.0
173
     0
291
     0
 45
0.0
1001
ACAD
1000
AcDbSavedByObjectVersion
1070
     0
  0
VISUALSTYLE
  5
231B
102
{ACAD_XDICTIONARY
360
2394
102
}
102
{ACAD_REACTORS
330
2316
102
}
330
2316
100
AcDbVisualStyle
  2
Basic
 70
     7
 71
     1
 72
     0
 73
     1
 90
        0
 40
-0.6
 41
-30.0
 62
     5
 63
     7
 74
     0
 91
        4
 64
     7
 65
   257
 75
     1
175
     1
 42
1.0
 92
        8
 66
     7
 43
1.0
 76
     1
 77
     6
 78
     2
 67
     7
 79
     5
170
     0
171
     0
290
     0
174
     0
 93
        1
 44
0.0
173
     0
291
     1
 45
0.0
1001
ACAD
1000
AcDbSavedByObjectVersion
1070
     0
  0
VISUALSTYLE
  5
2322
102
{ACAD_XDICTIONARY
360
23A2
102
}
102
{ACAD_REACTORS
330
2316
102
}
330
2316
100
AcDbVisualStyle
  2
Brighten
 70
    12
 71
     2
 72
     2
 73
     0
 90
        0
 40
-0.6
 41
-30.0
 62
     5
 63
     7
 74
     1
 91
        4
 64
     7
 65
   257
 75
     1
175
     1
 42
1.0
 92
        8
 66
     7
 43
1.0
 76
     1
 77
     6
 78
     2
 67
     7
 79
     5
170
     0
171
     0
290
     0
174
     0
 93
        1
 44
50.0
173
     0
291
     1
 45
0.0
1001
ACAD
1000
AcDbSavedByObjectVersion
1070
     0
  0
VISUALSTYLE
  5
2326
102
{ACAD_XDICTIONARY
360
23AA
102
}
102
{ACAD_REACTORS
330
2316
102
}
330
2316
100
AcDbVisualStyle
  2
ColorChange
 70
    16
 71
     2
 72
     2
 73
     3
 90
        0
 40
-0.6
 41
-30.0
 62
     5
 63
     8
 74
     1
 91
        4
 64
     7
 65
   257
 75
     1
175
     1
 42
1.0
 92
        8
 66
     8
 43
1.0
 76
     1
 77
     6
 78
     2
 67
     7
 79
     5
170
     0
171
     0
290
     0
174
     0
 93
        1
 44
0.0
173
     0
291
     1
 45
0.0
1001
ACAD
1000
AcDbSavedByObjectVersion
1070
     0
  0
VISUALSTYLE
  5
231F
102
{ACAD_XDICTIONARY
360
239C
102
}
102
{ACAD_REACTORS
330
2316
102
}
330
2316
100
AcDbVisualStyle
  2
Conceptual
 70
     9
 71
     3
 72
     2
 73
     0
 90
        0
 40
-0.6
 41
-30.0
 62
     5
 63
     7
 74
     2
 91
        2
 64
     7
 65
   257
 75
     1
175
     1
 42
179.0
 92
        8
 66
     7
 43
1.0
 76
     1
 77
     6
 78
     2
 67
     7
 79
     3
170
     0
171
     0
290
     0
174
     0
 93
        1
 44
0.0
173
     0
291
     0
 45
0.0
1001
ACAD
1000
AcDbSavedByObjectVersion
1070
     0
  0
VISUALSTYLE
  5
2321
102
{ACAD_XDICTIONARY
360
23A0
102
}
102
{ACAD_REACTORS
330
2316
102
}
330
2316
100
AcDbVisualStyle
  2
Dim
 70
    11
 71
     2
 72
     2
 73
     0
 90
        0
 40
-0.6
 41
-30.0
 62
     5
 63
     7
 74
     1
 91
        4
 64
     7
 65
   257
 75
     1
175
     1
 42
1.0
 92
        8
 66
     7
 43
1.0
 76
     1
 77
     6
 78
     2
 67
     7
 79
     5
170
     0
171
     0
290
     0
174
     0
 93
        1
 44
-50.0
173
     0
291
     1
 45
0.0
1001
ACAD
1000
AcDbSavedByObjectVersion
1070
     0
  0
VISUALSTYLE
  5
2329
102
{ACAD_XDICTIONARY
360
23B0
102
}
102
{ACAD_REACTORS
330
2316
102
}
330
2316
100
AcDbVisualStyle
  2
EdgeColorOff
 70
    22
 71
     2
 72
     2
 73
     0
 90
        0
 40
-0.6
 41
-30.0
 62
     5
 63
     7
 74
     1
 91
        4
 64
     7
 65
   257
 75
     1
175
     1
 42
1.0
 92
        8
 66
     7
 43
1.0
 76
     1
 77
     6
 78
     2
 67
     7
 79
     5
170
     0
171
     0
290
     0
174
     0
 93
        1
 44
0.0
173
     0
291
     1
 45
0.0
1001
ACAD
1000
AcDbSavedByObjectVersion
1070
     0
  0
VISUALSTYLE
  5
2325
102
{ACAD_XDICTIONARY
360
23A8
102
}
102
{ACAD_REACTORS
330
2316
102
}
330
2316
100
AcDbVisualStyle
  2
Facepattern
 70
    15
 71
     2
 72
     2
 73
     0
 90
        0
 40
-0.6
 41
-30.0
 62
     5
 63
     7
 74
     1
 91
        4
 64
     7
 65
   257
 75
     1
175
     1
 42
1.0
 92
        8
 66
     7
 43
1.0
 76
     1
 77
     6
 78
     2
 67
     7
 79
     5
170
     0
171
     0
290
     0
174
     0
 93
        1
 44
0.0
173
     0
291
     1
 45
0.0
1001
ACAD
1000
AcDbSavedByObjectVersion
1070
     0
  0
VISUALSTYLE
  5
2317
102
{ACAD_XDICTIONARY
360
238C
102
}
102
{ACAD_REACTORS
330
2316
102
}
330
2316
100
AcDbVisualStyle
  2
Flat
 70
     0
 71
     2
 72
     1
 73
     1
 90
        2
 40
-0.6
 41
30.0
 62
     5
 63
     7
 74
     0
 91
        4
 64
     7
 65
   257
 75
     1
175
     1
 42
1.0
 92
        8
 66
     7
 43
1.0
 76
     1
 77
     6
 78
     2
 67
     7
 79
     5
170
     0
171
     0
290
     0
174
     0
 93
       13
 44
0.0
173
     0
291
     1
 45
0.0
1001
ACAD
1000
AcDbSavedByObjectVersion
1070
     0
  0
VISUALSTYLE
  5
2318
102
{ACAD_XDICTIONARY
360
238E
102
}
102
{ACAD_REACTORS
330
2316
102
}
330
2316
100
AcDbVisualStyle
  2
FlatWithEdges
 70
     1
 71
     2
 72
     1
 73
     1
 90
        2
 40
-0.6
 41
30.0
 62
     5
 63
     7
 74
     1
 91
        4
 64
     7
 65
   257
 75
     1
175
     1
 42
1.0
 92
        0
 66
   257
 43
1.0
 76
     1
 77
     6
 78
     2
 67
     7
 79
     5
170
     0
171
     0
290
     0
174
     0
 93
       13
 44
0.0
173
     0
291
     1
 45
0.0
1001
ACAD
1000
AcDbSavedByObjectVersion
1070
     0
  0
VISUALSTYLE
  5
2319
102
{ACAD_XDICTIONARY
360
2390
102
}
102
{ACAD_REACTORS
330
2316
102
}
330
2316
100
AcDbVisualStyle
  2
Gouraud
 70
     2
 71
     2
 72
     2
 73
     1
 90
        2
 40
-0.6
 41
30.0
 62
     5
 63
     7
 74
     0
 91
        4
 64
     7
 65
   257
 75
     1
175
     1
 42
1.0
 92
        0
 66
     7
 43
1.0
 76
     1
 77
     6
 78
     2
 67
     7
 79
     5
170
     0
171
     0
290
     0
174
     0
 93
       13
 44
0.0
173
     0
291
     1
 45
0.0
1001
ACAD
1000
AcDbSavedByObjectVersion
1070
     0
  0
VISUALSTYLE
  5
231A
102
{ACAD_XDICTIONARY
360
2392
102
}
102
{ACAD_REACTORS
330
2316
102
}
330
2316
100
AcDbVisualStyle
  2
GouraudWithEdges
 70
     3
 71
     2
 72
     2
 73
     1
 90
        2
 40
-0.6
 41
30.0
 62
     5
 63
     7
 74
     1
 91
        4
 64
     7
 65
   257
 75
     1
175
     1
 42
1.0
 92
        0
 66
   257
 43
1.0
 76
     1
 77
     6
 78
     2
 67
     7
 79
     5
170
     0
171
     0
290
     0
174
     0
 93
       13
 44
0.0
173
     0
291
     1
 45
0.0
1001
ACAD
1000
AcDbSavedByObjectVersion
1070
     0
  0
VISUALSTYLE
  5
2327
102
{ACAD_XDICTIONARY
360
23AC
102
}
102
{ACAD_REACTORS
330
2316
102
}
330
2316
100
AcDbVisualStyle
  2
JitterOff
 70
    20
 71
     2
 72
     2
 73
     0
 90
        0
 40
-0.6
 41
-30.0
 62
     5
 63
     7
 74
     1
 91
        4
 64
     7
 65
   257
 75
     1
175
     1
 42
1.0
 92
       10
 66
     7
 43
1.0
 76
     1
 77
     6
 78
     2
 67
     7
 79
     5
170
     0
171
     0
290
     0
174
     0
 93
        1
 44
0.0
173
     0
291
     1
 45
0.0
1001
ACAD
1000
AcDbSavedByObjectVersion
1070
     0
  0
VISUALSTYLE
  5
2324
102
{ACAD_XDICTIONARY
360
23A6
102
}
102
{ACAD_REACTORS
330
2316
102
}
330
2316
100
AcDbVisualStyle
  2
Linepattern
 70
    14
 71
     2
 72
     2
 73
     0
 90
        0
 40
-0.6
 41
-30.0
 62
     5
 63
     7
 74
     1
 91
        4
 64
     7
 65
   257
 75
     7
175
     7
 42
1.0
 92
        8
 66
     7
 43
1.0
 76
     1
 77
     6
 78
     2
 67
     7
 79
     5
170
     0
171
     0
290
     0
174
     0
 93
        1
 44
0.0
173
     0
291
     1
 45
0.0
1001
ACAD
1000
AcDbSavedByObjectVersion
1070
     0
  0
VISUALSTYLE
  5
2328
102
{ACAD_XDICTIONARY
360
23AE
102
}
102
{ACAD_REACTORS
330
2316
102
}
330
2316
100
AcDbVisualStyle
  2
OverhangOff
 70
    21
 71
     2
 72
     2
 73
     0
 90
        0
 40
-0.6
 41
-30.0
 62
     5
 63
     7
 74
     1
 91
        4
 64
     7
 65
   257
 75
     1
175
     1
 42
1.0
 92
        9
 66
     7
 43
1.0
 76
     1
 77
     6
 78
     2
 67
     7
 79
     5
170
     0
171
     0
290
     0
174
     0
 93
        1
 44
0.0
173
     0
291
     1
 45
0.0
1001
ACAD
1000
AcDbSavedByObjectVersion
1070
     0
  0
VISUALSTYLE
  5
2320
102
{ACAD_XDICTIONARY
360
239E
102
}
102
{ACAD_REACTORS
330
2316
102
}
330
2316
100
AcDbVisualStyle
  2
Realistic
 70
     8
 71
     2
 72
     2
 73
     0
 90
        0
 40
-0.6
 41
-30.0
 62
     5
 63
     7
 74
     1
 91
        0
 64
     7
 65
   257
 75
     1
175
     1
 42
1.0
 92
        8
 66
     8
 43
1.0
 76
     1
 77
     6
 78
     2
 67
     7
 79
     5
170
     0
171
     0
290
     0
174
     0
 93
       13
 44
0.0
173
     0
291
     0
 45
0.0
1001
ACAD
1000
AcDbSavedByObjectVersion
1070
     0
  0
VISUALSTYLE
  5
2323
102
{ACAD_XDICTIONARY
360
23A4
102
}
102
{ACAD_REACTORS
330
2316
102
}
330
2316
100
AcDbVisualStyle
  2
Thicken
 70
    13
 71
     2
 72
     2
 73
     0
 90
        0
 40
-0.6
 41
-30.0
 62
     5
 63
     7
 74
     1
 91
        4
 64
     7
 65
   257
 75
     1
175
     1
 42
1.0
 92
       12
 66
     7
 43
1.0
 76
     1
 77
     6
 78
     2
 67
     7
 79
     5
170
     0
171
     0
290
     0
174
     0
 93
        1
 44
0.0
173
     0
291
     1
 45
0.0
1001
ACAD
1000
AcDbSavedByObjectVersion
1070
     0
  0
DICTIONARYVAR
  5
2362
102
{ACAD_REACTORS
330
3D
102
}
330
3D
100
DictionaryVariables
280
     0
  1
1:1
  0
DICTIONARYVAR
  5
2361
102
{ACAD_REACTORS
330
3D
102
}
330
3D
100
DictionaryVariables
280
     0
  1
STANDARD
  0
DICTIONARYVAR
  5
22EC
102
{ACAD_REACTORS
330
3D
102
}
330
3D
100
DictionaryVariables
280
     0
  1
STANDARD
  0
DICTIONARYVAR
  5
3F
102
{ACAD_REACTORS
330
3D
102
}
330
3D
100
DictionaryVariables
280
     0
  1
2
  0
DICTIONARYVAR
  5
3E
102
{ACAD_REACTORS
330
3D
102
}
330
3D
100
DictionaryVariables
280
     0
  1
1
  0
DICTIONARYVAR
  5
2364
102
{ACAD_REACTORS
330
3D
102
}
330
3D
100
DictionaryVariables
280
     0
  1
0
  0
DICTIONARYVAR
  5
22FC
102
{ACAD_REACTORS
330
3D
102
}
330
3D
100
DictionaryVariables
280
     0
  1

  0
DICTIONARYVAR
  5
2363
102
{ACAD_REACTORS
330
3D
102
}
330
3D
100
DictionaryVariables
280
     0
  1
127
  0
DICTIONARYVAR
  5
2365
102
{ACAD_REACTORS
330
3D
102
}
330
3D
100
DictionaryVariables
280
     0
  1
2
  0
XRECORD
  5
22EA
102
{ACAD_REACTORS
330
22E9
102
}
330
22E9
100
AcDbXrecord
280
     1
  0
DICTIONARY
  5
236A
330
1E
100
AcDbDictionary
280
     1
281
     1
  3
ACAD_XREC_ROUNDTRIP
360
236B
  0
DICTIONARY
  5
236E
330
26
100
AcDbDictionary
280
     1
281
     1
  3
ACAD_XREC_ROUNDTRIP
360
236F
  0
DICTIONARY
  5
236C
330
22
100
AcDbDictionary
280
     1
281
     1
  3
ACAD_XREC_ROUNDTRIP
360
236D
  0
DICTIONARY
  5
2307
330
2306
100
AcDbDictionary
280
     1
281
     1
  3
ACAD_XREC_ROUNDTRIP
360
238A
  3
BUMPTILE
360
2309
  3
DIFFUSETILE
360
2308
  3
OPACITYTILE
360
230C
  3
REFLECTIONTILE
360
230B
  3
REFRACTIONTILE
360
230D
  3
SPECULARTILE
360
230A
  0
DICTIONARY
  5
22FF
330
22FE
100
AcDbDictionary
280
     1
281
     1
  3
ACAD_XREC_ROUNDTRIP
360
2389
  3
BUMPTILE
360
2301
  3
DIFFUSETILE
360
2300
  3
OPACITYTILE
360
2304
  3
REFLECTIONTILE
360
2303
  3
REFRACTIONTILE
360
2305
  3
SPECULARTILE
360
2302
  0
DICTIONARY
  5
230F
330
230E
100
AcDbDictionary
280
     1
281
     1
  3
ACAD_XREC_ROUNDTRIP
360
238B
  3
BUMPTILE
360
2311
  3
DIFFUSETILE
360
2310
  3
OPACITYTILE
360
2314
  3
REFLECTIONTILE
360
2313
  3
REFRACTIONTILE
360
2315
  3
SPECULARTILE
360
2312
  0
DICTIONARY
  5
2366
330
BAB
100
AcDbDictionary
280
     1
281
     1
  3
ACAD_ROUNDTRIP_2008_TABLESTYLE_CELLSTYLEMAP
360
2367
  3
ACAD_XREC_ROUNDTRIP
360
2370
  0
DICTIONARY
  5
2396
330
231C
100
AcDbDictionary
280
     1
281
     1
  3
ACAD_XREC_ROUNDTRIP
360
2397
  0
DICTIONARY
  5
239A
330
231E
100
AcDbDictionary
280
     1
281
     1
  3
ACAD_XREC_ROUNDTRIP
360
239B
  0
DICTIONARY
  5
2398
330
231D
100
AcDbDictionary
280
     1
281
     1
  3
ACAD_XREC_ROUNDTRIP
360
2399
  0
DICTIONARY
  5
2394
330
231B
100
AcDbDictionary
280
     1
281
     1
  3
ACAD_XREC_ROUNDTRIP
360
2395
  0
DICTIONARY
  5
23A2
330
2322
100
AcDbDictionary
280
     1
281
     1
  3
ACAD_XREC_ROUNDTRIP
360
23A3
  0
DICTIONARY
  5
23AA
330
2326
100
AcDbDictionary
280
     1
281
     1
  3
ACAD_XREC_ROUNDTRIP
360
23AB
  0
DICTIONARY
  5
239C
330
231F
100
AcDbDictionary
280
     1
281
     1
  3
ACAD_XREC_ROUNDTRIP
360
239D
  0
DICTIONARY
  5
23A0
330
2321
100
AcDbDictionary
280
     1
281
     1
  3
ACAD_XREC_ROUNDTRIP
360
23A1
  0
DICTIONARY
  5
23B0
330
2329
100
AcDbDictionary
280
     1
281
     1
  3
ACAD_XREC_ROUNDTRIP
360
23B1
  0
DICTIONARY
  5
23A8
330
2325
100
AcDbDictionary
280
     1
281
     1
  3
ACAD_XREC_ROUNDTRIP
360
23A9
  0
DICTIONARY
  5
238C
330
2317
100
AcDbDictionary
280
     1
281
     1
  3
ACAD_XREC_ROUNDTRIP
360
238D
  0
DICTIONARY
  5
238E
330
2318
100
AcDbDictionary
280
     1
281
     1
  3
ACAD_XREC_ROUNDTRIP
360
238F
  0
DICTIONARY
  5
2390
330
2319
100
AcDbDictionary
280
     1
281
     1
  3
ACAD_XREC_ROUNDTRIP
360
2391
  0
DICTIONARY
  5
2392
330
231A
100
AcDbDictionary
280
     1
281
     1
  3
ACAD_XREC_ROUNDTRIP
360
2393
  0
DICTIONARY
  5
23AC
330
2327
100
AcDbDictionary
280
     1
281
     1
  3
ACAD_XREC_ROUNDTRIP
360
23AD
  0
DICTIONARY
  5
23A6
330
2324
100
AcDbDictionary
280
     1
281
     1
  3
ACAD_XREC_ROUNDTRIP
360
23A7
  0
DICTIONARY
  5
23AE
330
2328
100
AcDbDictionary
280
     1
281
     1
  3
ACAD_XREC_ROUNDTRIP
360
23AF
  0
DICTIONARY
  5
239E
330
2320
100
AcDbDictionary
280
     1
281
     1
  3
ACAD_XREC_ROUNDTRIP
360
239F
  0
DICTIONARY
  5
23A4
330
2323
100
AcDbDictionary
280
     1
281
     1
  3
ACAD_XREC_ROUNDTRIP
360
23A5
  0
XRECORD
  5
236B
102
{ACAD_REACTORS
330
236A
102
}
330
236A
100
AcDbXrecord
280
     1
102
SHADEPLOT
 70
     0
102
SHADEPLOTRESLEVEL
 70
     2
102
SHADEPLOTCUSTOMDPI
 70
   300
  0
XRECORD
  5
236F
102
{ACAD_REACTORS
330
236E
102
}
330
236E
100
AcDbXrecord
280
     1
102
SHADEPLOT
 70
     0
102
SHADEPLOTRESLEVEL
 70
     2
102
SHADEPLOTCUSTOMDPI
 70
   300
  0
XRECORD
  5
236D
102
{ACAD_REACTORS
330
236C
102
}
330
236C
100
AcDbXrecord
280
     1
102
SHADEPLOT
 70
     0
102
SHADEPLOTRESLEVEL
 70
     2
102
SHADEPLOTCUSTOMDPI
 70
   300
  0
XRECORD
  5
238A
102
{ACAD_REACTORS
330
2307
102
}
330
2307
100
AcDbXrecord
280
     1
102
MATERIAL
148
0.0
149
0.0
149
0.0
 93
        0
 94
      127
282
     0
 72
     0
 77
     0
171
     0
175
     0
179
     0
273
     0
  0
XRECORD
  5
2309
102
{ACAD_REACTORS
330
2307
102
}
330
2307
100
AcDbXrecord
280
     1
270
     1
271
     1
  0
XRECORD
  5
2308
102
{ACAD_REACTORS
330
2307
102
}
330
2307
100
AcDbXrecord
280
     1
270
     1
271
     1
  0
XRECORD
  5
230C
102
{ACAD_REACTORS
330
2307
102
}
330
2307
100
AcDbXrecord
280
     1
270
     1
271
     1
  0
XRECORD
  5
230B
102
{ACAD_REACTORS
330
2307
102
}
330
2307
100
AcDbXrecord
280
     1
270
     1
271
     1
  0
XRECORD
  5
230D
102
{ACAD_REACTORS
330
2307
102
}
330
2307
100
AcDbXrecord
280
     1
270
     1
271
     1
  0
XRECORD
  5
230A
102
{ACAD_REACTORS
330
2307
102
}
330
2307
100
AcDbXrecord
280
     1
270
     1
271
     1
  0
XRECORD
  5
2389
102
{ACAD_REACTORS
330
22FF
102
}
330
22FF
100
AcDbXrecord
280
     1
102
MATERIAL
148
0.0
149
0.0
149
0.0
 93
        0
 94
      127
282
     0
 72
     0
 77
     0
171
     0
175
     0
179
     0
273
     0
  0
XRECORD
  5
2301
102
{ACAD_REACTORS
330
22FF
102
}
330
22FF
100
AcDbXrecord
280
     1
270
     1
271
     1
  0
XRECORD
  5
2300
102
{ACAD_REACTORS
330
22FF
102
}
330
22FF
100
AcDbXrecord
280
     1
270
     1
271
     1
  0
XRECORD
  5
2304
102
{ACAD_REACTORS
330
22FF
102
}
330
22FF
100
AcDbXrecord
280
     1
270
     1
271
     1
  0
XRECORD
  5
2303
102
{ACAD_REACTORS
330
22FF
102
}
330
22FF
100
AcDbXrecord
280
     1
270
     1
271
     1
  0
XRECORD
  5
2305
102
{ACAD_REACTORS
330
22FF
102
}
330
22FF
100
AcDbXrecord
280
     1
270
     1
271
     1
  0
XRECORD
  5
2302
102
{ACAD_REACTORS
330
22FF
102
}
330
22FF
100
AcDbXrecord
280
     1
270
     1
271
     1
  0
XRECORD
  5
238B
102
{ACAD_REACTORS
330
230F
102
}
330
230F
100
AcDbXrecord
280
     1
102
MATERIAL
148
0.0
149
0.0
149
0.0
 93
        0
 94
      127
282
     0
 72
     0
 77
     0
171
     0
175
     0
179
     0
273
     0
  0
XRECORD
  5
2311
102
{ACAD_REACTORS
330
230F
102
}
330
230F
100
AcDbXrecord
280
     1
270
     1
271
     1
  0
XRECORD
  5
2310
102
{ACAD_REACTORS
330
230F
102
}
330
230F
100
AcDbXrecord
280
     1
270
     1
271
     1
  0
XRECORD
  5
2314
102
{ACAD_REACTORS
330
230F
102
}
330
230F
100
AcDbXrecord
280
     1
270
     1
271
     1
  0
XRECORD
  5
2313
102
{ACAD_REACTORS
330
230F
102
}
330
230F
100
AcDbXrecord
280
     1
270
     1
271
     1
  0
XRECORD
  5
2315
102
{ACAD_REACTORS
330
230F
102
}
330
230F
100
AcDbXrecord
280
     1
270
     1
271
     1
  0
XRECORD
  5
2312
102
{ACAD_REACTORS
330
230F
102
}
330
230F
100
AcDbXrecord
280
     1
270
     1
271
     1
  0
CELLSTYLEMAP
  5
2367
102
{ACAD_REACTORS
330
2366
102
}
330
2366
100
AcDbCellStyleMap
 90
        3
300
CELLSTYLE
  1
TABLEFORMAT_BEGIN
 90
        5
170
     1
 91
        0
 92
    32768
 62
   257
 93
        1
300
CONTENTFORMAT
  1
CONTENTFORMAT_BEGIN
 90
        0
 91
        0
 92
        4
 93
        0
300

 40
0.0
140
1.0
 94
        5
 62
     0
340
11
144
6.0
309
CONTENTFORMAT_END
171
     1
301
MARGIN
  1
CELLMARGIN_BEGIN
 40
1.5
 40
1.5
 40
1.5
 40
1.5
 40
0.18
 40
0.18
309
CELLMARGIN_END
 94
        6
 95
        1
302
GRIDFORMAT
  1
GRIDFORMAT_BEGIN
 90
        0
 91
        1
 62
     0
 92
       -2
340
0
 93
        0
 40
0.045
309
GRIDFORMAT_END
 95
        2
302
GRIDFORMAT
  1
GRIDFORMAT_BEGIN
 90
        0
 91
        1
 62
     0
 92
       -2
340
0
 93
        0
 40
0.045
309
GRIDFORMAT_END
 95
        4
302
GRIDFORMAT
  1
GRIDFORMAT_BEGIN
 90
        0
 91
        1
 62
     0
 92
       -2
340
0
 93
        0
 40
0.045
309
GRIDFORMAT_END
 95
        8
302
GRIDFORMAT
  1
GRIDFORMAT_BEGIN
 90
        0
 91
        1
 62
     0
 92
       -2
340
0
 93
        0
 40
0.045
309
GRIDFORMAT_END
 95
       16
302
GRIDFORMAT
  1
GRIDFORMAT_BEGIN
 90
        0
 91
        1
 62
     0
 92
       -2
340
0
 93
        0
 40
0.045
309
GRIDFORMAT_END
 95
       32
302
GRIDFORMAT
  1
GRIDFORMAT_BEGIN
 90
        0
 91
        1
 62
     0
 92
       -2
340
0
 93
        0
 40
0.045
309
GRIDFORMAT_END
309
TABLEFORMAT_END
  1
CELLSTYLE_BEGIN
 90
        1
 91
        1
300
_TITLE
309
CELLSTYLE_END
300
CELLSTYLE
  1
TABLEFORMAT_BEGIN
 90
        5
170
     1
 91
        0
 92
        0
 62
   257
 93
        1
300
CONTENTFORMAT
  1
CONTENTFORMAT_BEGIN
 90
        0
 91
        0
 92
        4
 93
        0
300

 40
0.0
140
1.0
 94
        5
 62
     0
340
11
144
4.5
309
CONTENTFORMAT_END
171
     1
301
MARGIN
  1
CELLMARGIN_BEGIN
 40
1.5
 40
1.5
 40
1.5
 40
1.5
 40
0.18
 40
0.18
309
CELLMARGIN_END
 94
        6
 95
        1
302
GRIDFORMAT
  1
GRIDFORMAT_BEGIN
 90
        0
 91
        1
 62
     0
 92
       -2
340
0
 93
        0
 40
0.045
309
GRIDFORMAT_END
 95
        2
302
GRIDFORMAT
  1
GRIDFORMAT_BEGIN
 90
        0
 91
        1
 62
     0
 92
       -2
340
0
 93
        0
 40
0.045
309
GRIDFORMAT_END
 95
        4
302
GRIDFORMAT
  1
GRIDFORMAT_BEGIN
 90
        0
 91
        1
 62
     0
 92
       -2
340
0
 93
        0
 40
0.045
309
GRIDFORMAT_END
 95
        8
302
GRIDFORMAT
  1
GRIDFORMAT_BEGIN
 90
        0
 91
        1
 62
     0
 92
       -2
340
0
 93
        0
 40
0.045
309
GRIDFORMAT_END
 95
       16
302
GRIDFORMAT
  1
GRIDFORMAT_BEGIN
 90
        0
 91
        1
 62
     0
 92
       -2
340
0
 93
        0
 40
0.045
309
GRIDFORMAT_END
 95
       32
302
GRIDFORMAT
  1
GRIDFORMAT_BEGIN
 90
        0
 91
        1
 62
     0
 92
       -2
340
0
 93
        0
 40
0.045
309
GRIDFORMAT_END
309
TABLEFORMAT_END
  1
CELLSTYLE_BEGIN
 90
        2
 91
        1
300
_HEADER
309
CELLSTYLE_END
300
CELLSTYLE
  1
TABLEFORMAT_BEGIN
 90
        5
170
     1
 91
        0
 92
        0
 62
   257
 93
        1
300
CONTENTFORMAT
  1
CONTENTFORMAT_BEGIN
 90
        0
 91
        0
 92
        4
 93
        0
300

 40
0.0
140
1.0
 94
        2
 62
     0
340
11
144
4.5
309
CONTENTFORMAT_END
171
     1
301
MARGIN
  1
CELLMARGIN_BEGIN
 40
1.5
 40
1.5
 40
1.5
 40
1.5
 40
0.18
 40
0.18
309
CELLMARGIN_END
 94
        6
 95
        1
302
GRIDFORMAT
  1
GRIDFORMAT_BEGIN
 90
        0
 91
        1
 62
     0
 92
       -2
340
0
 93
        0
 40
0.045
309
GRIDFORMAT_END
 95
        2
302
GRIDFORMAT
  1
GRIDFORMAT_BEGIN
 90
        0
 91
        1
 62
     0
 92
       -2
340
0
 93
        0
 40
0.045
309
GRIDFORMAT_END
 95
        4
302
GRIDFORMAT
  1
GRIDFORMAT_BEGIN
 90
        0
 91
        1
 62
     0
 92
       -2
340
0
 93
        0
 40
0.045
309
GRIDFORMAT_END
 95
        8
302
GRIDFORMAT
  1
GRIDFORMAT_BEGIN
 90
        0
 91
        1
 62
     0
 92
       -2
340
0
 93
        0
 40
0.045
309
GRIDFORMAT_END
 95
       16
302
GRIDFORMAT
  1
GRIDFORMAT_BEGIN
 90
        0
 91
        1
 62
     0
 92
       -2
340
0
 93
        0
 40
0.045
309
GRIDFORMAT_END
 95
       32
302
GRIDFORMAT
  1
GRIDFORMAT_BEGIN
 90
        0
 91
        1
 62
     0
 92
       -2
340
0
 93
        0
 40
0.045
309
GRIDFORMAT_END
309
TABLEFORMAT_END
  1
CELLSTYLE_BEGIN
 90
        3
 91
        2
300
_DATA
309
CELLSTYLE_END
  0
XRECORD
  5
2370
102
{ACAD_REACTORS
330
2366
102
}
330
2366
100
AcDbXrecord
280
     1
102
ACAD_ROUNDTRIP_PRE2007_TABLESTYLE
 90
        4
 91
        0
  1

 92
        4
 93
        0
  2

 94
        4
 95
        0
  3

  0
XRECORD
  5
2397
102
{ACAD_REACTORS
330
2396
102
}
330
2396
100
AcDbXrecord
280
     1
102
RTVSPropertyOp0
 70
     1
102
RTVSPropertyOp1
 70
     1
102
RTVSPropertyOp2
 70
     1
102
RTVSPropertyOp3
 70
     1
102
RTVSPropertyOp4
 70
     1
102
RTVSPropertyOp5
 70
     1
102
RTVSPropertyOp6
 70
     1
102
RTVSPropertyOp7
 70
     1
102
RTVSPropertyOp8
 70
     1
102
RTVSPropertyOp9
 70
     1
102
RTVSPropertyOp10
 70
     1
102
RTVSPropertyOp11
 70
     1
102
RTVSPropertyOp12
 70
     1
102
RTVSPropertyOp13
 70
     1
102
RTVSPropertyOp14
 70
     1
102
RTVSPropertyOp15
 70
     1
102
RTVSPropertyOp16
 70
     1
102
RTVSPropertyOp17
 70
     1
102
RTVSPropertyOp18
 70
     1
102
RTVSPropertyOp19
 70
     1
102
RTVSPropertyOp20
 70
     1
102
RTVSPropertyOp21
 70
     1
102
RTVSPropertyOp22
 70
     1
102
RTVSPropertyOp23
 70
     1
102
RTVSPropertyOp24
 70
     1
102
RTVSPropertyOp25
 70
     1
102
RTVSPropertyOp26
 70
     1
102
RTVSPropertyOp27
 70
     1
  0
XRECORD
  5
239B
102
{ACAD_REACTORS
330
239A
102
}
330
239A
100
AcDbXrecord
280
     1
102
RTVSPropertyOp0
 70
     1
102
RTVSPropertyOp1
 70
     1
102
RTVSPropertyOp2
 70
     1
102
RTVSPropertyOp3
 70
     1
102
RTVSPropertyOp4
 70
     1
102
RTVSPropertyOp5
 70
     1
102
RTVSPropertyOp6
 70
     1
102
RTVSPropertyOp7
 70
     1
102
RTVSPropertyOp8
 70
     1
102
RTVSPropertyOp9
 70
     1
102
RTVSPropertyOp10
 70
     1
102
RTVSPropertyOp11
 70
     1
102
RTVSPropertyOp12
 70
     1
102
RTVSPropertyOp13
 70
     1
102
RTVSPropertyOp14
 70
     1
102
RTVSPropertyOp15
 70
     1
102
RTVSPropertyOp16
 70
     1
102
RTVSPropertyOp17
 70
     1
102
RTVSPropertyOp18
 70
     1
102
RTVSPropertyOp19
 70
     1
102
RTVSPropertyOp20
 70
     1
102
RTVSPropertyOp21
 70
     1
102
RTVSPropertyOp22
 70
     1
102
RTVSPropertyOp23
 70
     1
102
RTVSPropertyOp24
 70
     1
102
RTVSPropertyOp25
 70
     1
102
RTVSPropertyOp26
 70
     1
102
RTVSPropertyOp27
 70
     1
  0
XRECORD
  5
2399
102
{ACAD_REACTORS
330
2398
102
}
330
2398
100
AcDbXrecord
280
     1
102
RTVSPropertyOp0
 70
     1
102
RTVSPropertyOp1
 70
     1
102
RTVSPropertyOp2
 70
     1
102
RTVSPropertyOp3
 70
     1
102
RTVSPropertyOp4
 70
     1
102
RTVSPropertyOp5
 70
     1
102
RTVSPropertyOp6
 70
     1
102
RTVSPropertyOp7
 70
     1
102
RTVSPropertyOp8
 70
     1
102
RTVSPropertyOp9
 70
     1
102
RTVSPropertyOp10
 70
     1
102
RTVSPropertyOp11
 70
     1
102
RTVSPropertyOp12
 70
     1
102
RTVSPropertyOp13
 70
     1
102
RTVSPropertyOp14
 70
     1
102
RTVSPropertyOp15
 70
     1
102
RTVSPropertyOp16
 70
     1
102
RTVSPropertyOp17
 70
     1
102
RTVSPropertyOp18
 70
     1
102
RTVSPropertyOp19
 70
     1
102
RTVSPropertyOp20
 70
     1
102
RTVSPropertyOp21
 70
     1
102
RTVSPropertyOp22
 70
     1
102
RTVSPropertyOp23
 70
     1
102
RTVSPropertyOp24
 70
     1
102
RTVSPropertyOp25
 70
     1
102
RTVSPropertyOp26
 70
     1
102
RTVSPropertyOp27
 70
     1
  0
XRECORD
  5
2395
102
{ACAD_REACTORS
330
2394
102
}
330
2394
100
AcDbXrecord
280
     1
102
RTVSPropertyOp0
 70
     1
102
RTVSPropertyOp1
 70
     1
102
RTVSPropertyOp2
 70
     1
102
RTVSPropertyOp3
 70
     1
102
RTVSPropertyOp4
 70
     1
102
RTVSPropertyOp5
 70
     1
102
RTVSPropertyOp6
 70
     1
102
RTVSPropertyOp7
 70
     1
102
RTVSPropertyOp8
 70
     1
102
RTVSPropertyOp9
 70
     1
102
RTVSPropertyOp10
 70
     1
102
RTVSPropertyOp11
 70
     1
102
RTVSPropertyOp12
 70
     1
102
RTVSPropertyOp13
 70
     1
102
RTVSPropertyOp14
 70
     1
102
RTVSPropertyOp15
 70
     1
102
RTVSPropertyOp16
 70
     1
102
RTVSPropertyOp17
 70
     1
102
RTVSPropertyOp18
 70
     1
102
RTVSPropertyOp19
 70
     1
102
RTVSPropertyOp20
 70
     1
102
RTVSPropertyOp21
 70
     1
102
RTVSPropertyOp22
 70
     1
102
RTVSPropertyOp23
 70
     1
102
RTVSPropertyOp24
 70
     1
102
RTVSPropertyOp25
 70
     1
102
RTVSPropertyOp26
 70
     1
102
RTVSPropertyOp27
 70
     1
  0
XRECORD
  5
23A3
102
{ACAD_REACTORS
330
23A2
102
}
330
23A2
100
AcDbXrecord
280
     1
102
RTVSPropertyOp0
 70
     1
102
RTVSPropertyOp1
 70
     1
102
RTVSPropertyOp2
 70
     1
102
RTVSPropertyOp3
 70
     1
102
RTVSPropertyOp4
 70
     1
102
RTVSPropertyOp5
 70
     1
102
RTVSPropertyOp6
 70
     1
102
RTVSPropertyOp7
 70
     1
102
RTVSPropertyOp8
 70
     1
102
RTVSPropertyOp9
 70
     1
102
RTVSPropertyOp10
 70
     1
102
RTVSPropertyOp11
 70
     1
102
RTVSPropertyOp12
 70
     1
102
RTVSPropertyOp13
 70
     1
102
RTVSPropertyOp14
 70
     1
102
RTVSPropertyOp15
 70
     1
102
RTVSPropertyOp16
 70
     1
102
RTVSPropertyOp17
 70
     1
102
RTVSPropertyOp18
 70
     1
102
RTVSPropertyOp19
 70
     1
102
RTVSPropertyOp20
 70
     1
102
RTVSPropertyOp21
 70
     1
102
RTVSPropertyOp22
 70
     1
102
RTVSPropertyOp23
 70
     1
102
RTVSPropertyOp24
 70
     1
102
RTVSPropertyOp25
 70
     1
102
RTVSPropertyOp26
 70
     1
102
RTVSPropertyOp27
 70
     1
  0
XRECORD
  5
23AB
102
{ACAD_REACTORS
330
23AA
102
}
330
23AA
100
AcDbXrecord
280
     1
102
RTVSPropertyOp0
 70
     1
102
RTVSPropertyOp1
 70
     1
102
RTVSPropertyOp2
 70
     1
102
RTVSPropertyOp3
 70
     1
102
RTVSPropertyOp4
 70
     1
102
RTVSPropertyOp5
 70
     1
102
RTVSPropertyOp6
 70
     1
102
RTVSPropertyOp7
 70
     1
102
RTVSPropertyOp8
 70
     1
102
RTVSPropertyOp9
 70
     1
102
RTVSPropertyOp10
 70
     1
102
RTVSPropertyOp11
 70
     1
102
RTVSPropertyOp12
 70
     1
102
RTVSPropertyOp13
 70
     1
102
RTVSPropertyOp14
 70
     1
102
RTVSPropertyOp15
 70
     1
102
RTVSPropertyOp16
 70
     1
102
RTVSPropertyOp17
 70
     1
102
RTVSPropertyOp18
 70
     1
102
RTVSPropertyOp19
 70
     1
102
RTVSPropertyOp20
 70
     1
102
RTVSPropertyOp21
 70
     1
102
RTVSPropertyOp22
 70
     1
102
RTVSPropertyOp23
 70
     1
102
RTVSPropertyOp24
 70
     1
102
RTVSPropertyOp25
 70
     1
102
RTVSPropertyOp26
 70
     1
102
RTVSPropertyOp27
 70
     1
  0
XRECORD
  5
239D
102
{ACAD_REACTORS
330
239C
102
}
330
239C
100
AcDbXrecord
280
     1
102
RTVSPropertyOp0
 70
     1
102
RTVSPropertyOp1
 70
     1
102
RTVSPropertyOp2
 70
     1
102
RTVSPropertyOp3
 70
     1
102
RTVSPropertyOp4
 70
     1
102
RTVSPropertyOp5
 70
     1
102
RTVSPropertyOp6
 70
     1
102
RTVSPropertyOp7
 70
     1
102
RTVSPropertyOp8
 70
     1
102
RTVSPropertyOp9
 70
     1
102
RTVSPropertyOp10
 70
     1
102
RTVSPropertyOp11
 70
     1
102
RTVSPropertyOp12
 70
     1
102
RTVSPropertyOp13
 70
     1
102
RTVSPropertyOp14
 70
     1
102
RTVSPropertyOp15
 70
     1
102
RTVSPropertyOp16
 70
     1
102
RTVSPropertyOp17
 70
     1
102
RTVSPropertyOp18
 70
     1
102
RTVSPropertyOp19
 70
     1
102
RTVSPropertyOp20
 70
     1
102
RTVSPropertyOp21
 70
     1
102
RTVSPropertyOp22
 70
     1
102
RTVSPropertyOp23
 70
     1
102
RTVSPropertyOp24
 70
     1
102
RTVSPropertyOp25
 70
     1
102
RTVSPropertyOp26
 70
     1
102
RTVSPropertyOp27
 70
     1
  0
XRECORD
  5
23A1
102
{ACAD_REACTORS
330
23A0
102
}
330
23A0
100
AcDbXrecord
280
     1
102
RTVSPropertyOp0
 70
     1
102
RTVSPropertyOp1
 70
     1
102
RTVSPropertyOp2
 70
     1
102
RTVSPropertyOp3
 70
     1
102
RTVSPropertyOp4
 70
     1
102
RTVSPropertyOp5
 70
     1
102
RTVSPropertyOp6
 70
     1
102
RTVSPropertyOp7
 70
     1
102
RTVSPropertyOp8
 70
     1
102
RTVSPropertyOp9
 70
     1
102
RTVSPropertyOp10
 70
     1
102
RTVSPropertyOp11
 70
     1
102
RTVSPropertyOp12
 70
     1
102
RTVSPropertyOp13
 70
     1
102
RTVSPropertyOp14
 70
     1
102
RTVSPropertyOp15
 70
     1
102
RTVSPropertyOp16
 70
     1
102
RTVSPropertyOp17
 70
     1
102
RTVSPropertyOp18
 70
     1
102
RTVSPropertyOp19
 70
     1
102
RTVSPropertyOp20
 70
     1
102
RTVSPropertyOp21
 70
     1
102
RTVSPropertyOp22
 70
     1
102
RTVSPropertyOp23
 70
     1
102
RTVSPropertyOp24
 70
     1
102
RTVSPropertyOp25
 70
     1
102
RTVSPropertyOp26
 70
     1
102
RTVSPropertyOp27
 70
     1
  0
XRECORD
  5
23B1
102
{ACAD_REACTORS
330
23B0
102
}
330
23B0
100
AcDbXrecord
280
     1
102
RTVSPropertyOp0
 70
     0
102
RTVSPropertyOp1
 70
     0
102
RTVSPropertyOp2
 70
     0
102
RTVSPropertyOp3
 70
     0
102
RTVSPropertyOp4
 70
     0
102
RTVSPropertyOp5
 70
     0
102
RTVSPropertyOp6
 70
     0
102
RTVSPropertyOp7
 70
     0
102
RTVSPropertyOp8
 70
     0
102
RTVSPropertyOp9
 70
     0
102
RTVSPropertyOp10
 70
     0
102
RTVSPropertyOp11
 70
     0
102
RTVSPropertyOp12
 70
     0
102
RTVSPropertyOp13
 70
     0
102
RTVSPropertyOp14
 70
     2
102
RTVSPropertyOp15
 70
     0
102
RTVSPropertyOp16
 70
     0
102
RTVSPropertyOp17
 70
     0
102
RTVSPropertyOp18
 70
     0
102
RTVSPropertyOp19
 70
     0
102
RTVSPropertyOp20
 70
     0
102
RTVSPropertyOp21
 70
     0
102
RTVSPropertyOp22
 70
     0
102
RTVSPropertyOp23
 70
     0
102
RTVSPropertyOp24
 70
     0
102
RTVSPropertyOp25
 70
     0
102
RTVSPropertyOp26
 70
     0
102
RTVSPropertyOp27
 70
     0
  0
XRECORD
  5
23A9
102
{ACAD_REACTORS
330
23A8
102
}
330
23A8
100
AcDbXrecord
280
     1
102
RTVSPropertyOp0
 70
     1
102
RTVSPropertyOp1
 70
     1
102
RTVSPropertyOp2
 70
     1
102
RTVSPropertyOp3
 70
     1
102
RTVSPropertyOp4
 70
     1
102
RTVSPropertyOp5
 70
     1
102
RTVSPropertyOp6
 70
     1
102
RTVSPropertyOp7
 70
     1
102
RTVSPropertyOp8
 70
     1
102
RTVSPropertyOp9
 70
     1
102
RTVSPropertyOp10
 70
     1
102
RTVSPropertyOp11
 70
     1
102
RTVSPropertyOp12
 70
     1
102
RTVSPropertyOp13
 70
     1
102
RTVSPropertyOp14
 70
     1
102
RTVSPropertyOp15
 70
     1
102
RTVSPropertyOp16
 70
     1
102
RTVSPropertyOp17
 70
     1
102
RTVSPropertyOp18
 70
     1
102
RTVSPropertyOp19
 70
     1
102
RTVSPropertyOp20
 70
     1
102
RTVSPropertyOp21
 70
     1
102
RTVSPropertyOp22
 70
     1
102
RTVSPropertyOp23
 70
     1
102
RTVSPropertyOp24
 70
     1
102
RTVSPropertyOp25
 70
     1
102
RTVSPropertyOp26
 70
     1
102
RTVSPropertyOp27
 70
     1
  0
XRECORD
  5
238D
102
{ACAD_REACTORS
330
238C
102
}
330
238C
100
AcDbXrecord
280
     1
102
RTVSPropertyOp0
 70
     1
102
RTVSPropertyOp1
 70
     1
102
RTVSPropertyOp2
 70
     1
102
RTVSPropertyOp3
 70
     1
102
RTVSPropertyOp4
 70
     1
102
RTVSPropertyOp5
 70
     1
102
RTVSPropertyOp6
 70
     1
102
RTVSPropertyOp7
 70
     1
102
RTVSPropertyOp8
 70
     1
102
RTVSPropertyOp9
 70
     1
102
RTVSPropertyOp10
 70
     1
102
RTVSPropertyOp11
 70
     1
102
RTVSPropertyOp12
 70
     1
102
RTVSPropertyOp13
 70
     1
102
RTVSPropertyOp14
 70
     1
102
RTVSPropertyOp15
 70
     1
102
RTVSPropertyOp16
 70
     1
102
RTVSPropertyOp17
 70
     1
102
RTVSPropertyOp18
 70
     1
102
RTVSPropertyOp19
 70
     1
102
RTVSPropertyOp20
 70
     1
102
RTVSPropertyOp21
 70
     1
102
RTVSPropertyOp22
 70
     1
102
RTVSPropertyOp23
 70
     1
102
RTVSPropertyOp24
 70
     1
102
RTVSPropertyOp25
 70
     1
102
RTVSPropertyOp26
 70
     1
102
RTVSPropertyOp27
 70
     1
  0
XRECORD
  5
238F
102
{ACAD_REACTORS
330
238E
102
}
330
238E
100
AcDbXrecord
280
     1
102
RTVSPropertyOp0
 70
     1
102
RTVSPropertyOp1
 70
     1
102
RTVSPropertyOp2
 70
     1
102
RTVSPropertyOp3
 70
     1
102
RTVSPropertyOp4
 70
     1
102
RTVSPropertyOp5
 70
     1
102
RTVSPropertyOp6
 70
     1
102
RTVSPropertyOp7
 70
     1
102
RTVSPropertyOp8
 70
     1
102
RTVSPropertyOp9
 70
     1
102
RTVSPropertyOp10
 70
     1
102
RTVSPropertyOp11
 70
     1
102
RTVSPropertyOp12
 70
     1
102
RTVSPropertyOp13
 70
     1
102
RTVSPropertyOp14
 70
     1
102
RTVSPropertyOp15
 70
     1
102
RTVSPropertyOp16
 70
     1
102
RTVSPropertyOp17
 70
     1
102
RTVSPropertyOp18
 70
     1
102
RTVSPropertyOp19
 70
     1
102
RTVSPropertyOp20
 70
     1
102
RTVSPropertyOp21
 70
     1
102
RTVSPropertyOp22
 70
     1
102
RTVSPropertyOp23
 70
     1
102
RTVSPropertyOp24
 70
     1
102
RTVSPropertyOp25
 70
     1
102
RTVSPropertyOp26
 70
     1
102
RTVSPropertyOp27
 70
     1
  0
XRECORD
  5
2391
102
{ACAD_REACTORS
330
2390
102
}
330
2390
100
AcDbXrecord
280
     1
102
RTVSPropertyOp0
 70
     1
102
RTVSPropertyOp1
 70
     1
102
RTVSPropertyOp2
 70
     1
102
RTVSPropertyOp3
 70
     1
102
RTVSPropertyOp4
 70
     1
102
RTVSPropertyOp5
 70
     1
102
RTVSPropertyOp6
 70
     1
102
RTVSPropertyOp7
 70
     1
102
RTVSPropertyOp8
 70
     1
102
RTVSPropertyOp9
 70
     1
102
RTVSPropertyOp10
 70
     1
102
RTVSPropertyOp11
 70
     1
102
RTVSPropertyOp12
 70
     1
102
RTVSPropertyOp13
 70
     1
102
RTVSPropertyOp14
 70
     1
102
RTVSPropertyOp15
 70
     1
102
RTVSPropertyOp16
 70
     1
102
RTVSPropertyOp17
 70
     1
102
RTVSPropertyOp18
 70
     1
102
RTVSPropertyOp19
 70
     1
102
RTVSPropertyOp20
 70
     1
102
RTVSPropertyOp21
 70
     1
102
RTVSPropertyOp22
 70
     1
102
RTVSPropertyOp23
 70
     1
102
RTVSPropertyOp24
 70
     1
102
RTVSPropertyOp25
 70
     1
102
RTVSPropertyOp26
 70
     1
102
RTVSPropertyOp27
 70
     1
  0
XRECORD
  5
2393
102
{ACAD_REACTORS
330
2392
102
}
330
2392
100
AcDbXrecord
280
     1
102
RTVSPropertyOp0
 70
     1
102
RTVSPropertyOp1
 70
     1
102
RTVSPropertyOp2
 70
     1
102
RTVSPropertyOp3
 70
     1
102
RTVSPropertyOp4
 70
     1
102
RTVSPropertyOp5
 70
     1
102
RTVSPropertyOp6
 70
     1
102
RTVSPropertyOp7
 70
     1
102
RTVSPropertyOp8
 70
     1
102
RTVSPropertyOp9
 70
     1
102
RTVSPropertyOp10
 70
     1
102
RTVSPropertyOp11
 70
     1
102
RTVSPropertyOp12
 70
     1
102
RTVSPropertyOp13
 70
     1
102
RTVSPropertyOp14
 70
     1
102
RTVSPropertyOp15
 70
     1
102
RTVSPropertyOp16
 70
     1
102
RTVSPropertyOp17
 70
     1
102
RTVSPropertyOp18
 70
     1
102
RTVSPropertyOp19
 70
     1
102
RTVSPropertyOp20
 70
     1
102
RTVSPropertyOp21
 70
     1
102
RTVSPropertyOp22
 70
     1
102
RTVSPropertyOp23
 70
     1
102
RTVSPropertyOp24
 70
     1
102
RTVSPropertyOp25
 70
     1
102
RTVSPropertyOp26
 70
     1
102
RTVSPropertyOp27
 70
     1
  0
XRECORD
  5
23AD
102
{ACAD_REACTORS
330
23AC
102
}
330
23AC
100
AcDbXrecord
280
     1
102
RTVSPropertyOp0
 70
     0
102
RTVSPropertyOp1
 70
     0
102
RTVSPropertyOp2
 70
     0
102
RTVSPropertyOp3
 70
     0
102
RTVSPropertyOp4
 70
     0
102
RTVSPropertyOp5
 70
     0
102
RTVSPropertyOp6
 70
     0
102
RTVSPropertyOp7
 70
     0
102
RTVSPropertyOp8
 70
     0
102
RTVSPropertyOp9
 70
     0
102
RTVSPropertyOp10
 70
     0
102
RTVSPropertyOp11
 70
     0
102
RTVSPropertyOp12
 70
     0
102
RTVSPropertyOp13
 70
     0
102
RTVSPropertyOp14
 70
     2
102
RTVSPropertyOp15
 70
     0
102
RTVSPropertyOp16
 70
     0
102
RTVSPropertyOp17
 70
     0
102
RTVSPropertyOp18
 70
     0
102
RTVSPropertyOp19
 70
     0
102
RTVSPropertyOp20
 70
     0
102
RTVSPropertyOp21
 70
     0
102
RTVSPropertyOp22
 70
     0
102
RTVSPropertyOp23
 70
     0
102
RTVSPropertyOp24
 70
     0
102
RTVSPropertyOp25
 70
     0
102
RTVSPropertyOp26
 70
     0
102
RTVSPropertyOp27
 70
     0
  0
XRECORD
  5
23A7
102
{ACAD_REACTORS
330
23A6
102
}
330
23A6
100
AcDbXrecord
280
     1
102
RTVSPropertyOp0
 70
     1
102
RTVSPropertyOp1
 70
     1
102
RTVSPropertyOp2
 70
     1
102
RTVSPropertyOp3
 70
     1
102
RTVSPropertyOp4
 70
     1
102
RTVSPropertyOp5
 70
     1
102
RTVSPropertyOp6
 70
     1
102
RTVSPropertyOp7
 70
     1
102
RTVSPropertyOp8
 70
     1
102
RTVSPropertyOp9
 70
     1
102
RTVSPropertyOp10
 70
     1
102
RTVSPropertyOp11
 70
     1
102
RTVSPropertyOp12
 70
     1
102
RTVSPropertyOp13
 70
     1
102
RTVSPropertyOp14
 70
     1
102
RTVSPropertyOp15
 70
     1
102
RTVSPropertyOp16
 70
     1
102
RTVSPropertyOp17
 70
     1
102
RTVSPropertyOp18
 70
     1
102
RTVSPropertyOp19
 70
     1
102
RTVSPropertyOp20
 70
     1
102
RTVSPropertyOp21
 70
     1
102
RTVSPropertyOp22
 70
     1
102
RTVSPropertyOp23
 70
     1
102
RTVSPropertyOp24
 70
     1
102
RTVSPropertyOp25
 70
     1
102
RTVSPropertyOp26
 70
     1
102
RTVSPropertyOp27
 70
     1
  0
XRECORD
  5
23AF
102
{ACAD_REACTORS
330
23AE
102
}
330
23AE
100
AcDbXrecord
280
     1
102
RTVSPropertyOp0
 70
     0
102
RTVSPropertyOp1
 70
     0
102
RTVSPropertyOp2
 70
     0
102
RTVSPropertyOp3
 70
     0
102
RTVSPropertyOp4
 70
     0
102
RTVSPropertyOp5
 70
     0
102
RTVSPropertyOp6
 70
     0
102
RTVSPropertyOp7
 70
     0
102
RTVSPropertyOp8
 70
     0
102
RTVSPropertyOp9
 70
     0
102
RTVSPropertyOp10
 70
     0
102
RTVSPropertyOp11
 70
     0
102
RTVSPropertyOp12
 70
     0
102
RTVSPropertyOp13
 70
     0
102
RTVSPropertyOp14
 70
     2
102
RTVSPropertyOp15
 70
     0
102
RTVSPropertyOp16
 70
     0
102
RTVSPropertyOp17
 70
     0
102
RTVSPropertyOp18
 70
     0
102
RTVSPropertyOp19
 70
     0
102
RTVSPropertyOp20
 70
     0
102
RTVSPropertyOp21
 70
     0
102
RTVSPropertyOp22
 70
     0
102
RTVSPropertyOp23
 70
     0
102
RTVSPropertyOp24
 70
     0
102
RTVSPropertyOp25
 70
     0
102
RTVSPropertyOp26
 70
     0
102
RTVSPropertyOp27
 70
     0
  0
XRECORD
  5
239F
102
{ACAD_REACTORS
330
239E
102
}
330
239E
100
AcDbXrecord
280
     1
102
RTVSPropertyOp0
 70
     1
102
RTVSPropertyOp1
 70
     1
102
RTVSPropertyOp2
 70
     1
102
RTVSPropertyOp3
 70
     1
102
RTVSPropertyOp4
 70
     1
102
RTVSPropertyOp5
 70
     1
102
RTVSPropertyOp6
 70
     1
102
RTVSPropertyOp7
 70
     1
102
RTVSPropertyOp8
 70
     1
102
RTVSPropertyOp9
 70
     1
102
RTVSPropertyOp10
 70
     1
102
RTVSPropertyOp11
 70
     1
102
RTVSPropertyOp12
 70
     1
102
RTVSPropertyOp13
 70
     1
102
RTVSPropertyOp14
 70
     1
102
RTVSPropertyOp15
 70
     1
102
RTVSPropertyOp16
 70
     1
102
RTVSPropertyOp17
 70
     1
102
RTVSPropertyOp18
 70
     1
102
RTVSPropertyOp19
 70
     1
102
RTVSPropertyOp20
 70
     1
102
RTVSPropertyOp21
 70
     1
102
RTVSPropertyOp22
 70
     1
102
RTVSPropertyOp23
 70
     1
102
RTVSPropertyOp24
 70
     1
102
RTVSPropertyOp25
 70
     1
102
RTVSPropertyOp26
 70
     1
102
RTVSPropertyOp27
 70
     1
  0
XRECORD
  5
23A5
102
{ACAD_REACTORS
330
23A4
102
}
330
23A4
100
AcDbXrecord
280
     1
102
RTVSPropertyOp0
 70
     1
102
RTVSPropertyOp1
 70
     1
102
RTVSPropertyOp2
 70
     1
102
RTVSPropertyOp3
 70
     1
102
RTVSPropertyOp4
 70
     1
102
RTVSPropertyOp5
 70
     1
102
RTVSPropertyOp6
 70
     1
102
RTVSPropertyOp7
 70
     1
102
RTVSPropertyOp8
 70
     1
102
RTVSPropertyOp9
 70
     1
102
RTVSPropertyOp10
 70
     1
102
RTVSPropertyOp11
 70
     1
102
RTVSPropertyOp12
 70
     1
102
RTVSPropertyOp13
 70
     1
102
RTVSPropertyOp14
 70
     1
102
RTVSPropertyOp15
 70
     1
102
RTVSPropertyOp16
 70
     1
102
RTVSPropertyOp17
 70
     1
102
RTVSPropertyOp18
 70
     1
102
RTVSPropertyOp19
 70
     1
102
RTVSPropertyOp20
 70
     1
102
RTVSPropertyOp21
 70
     1
102
RTVSPropertyOp22
 70
     1
102
RTVSPropertyOp23
 70
     1
102
RTVSPropertyOp24
 70
     1
102
RTVSPropertyOp25
 70
     1
102
RTVSPropertyOp26
 70
     1
102
RTVSPropertyOp27
 70
     1
  0
ENDSEC
  0
EOF
