  0
SECTION
  2
HEADER
  9
$ACADVER
  1
AC1015
  9
$ACADMAINTVER
 70
    20
  9
$DWGCODEPAGE
  3
ANSI_1252
  9
$INSBASE
 10
0.0
 20
0.0
 30
0.0
  9
$EXTMIN
 10
1681.305310686685
 20
1956.13732799219
 30
0.0
  9
$EXTMAX
 10
1685.253760426992
 20
1956.937256953399
 30
0.0
  9
$LIMMIN
 10
0.0
 20
0.0
  9
$LIMMAX
 10
420.0
 20
297.0
  9
$ORTHOMODE
 70
     1
  9
$REGENMODE
 70
     1
  9
$FILLMODE
 70
     1
  9
$QTEXTMODE
 70
     0
  9
$MIRRTEXT
 70
     1
  9
$LTSCALE
 40
1.0
  9
$ATTMODE
 70
     1
  9
$TEXTSIZE
 40
2.5
  9
$TRACEWID
 40
1.0
  9
$TEXTSTYLE
  7
SANINDUSA
  9
$CLAYER
  8
0
  9
$CELTYPE
  6
ByLayer
  9
$CECOLOR
 62
   256
  9
$CELTSCALE
 40
1.0
  9
$DISPSILH
 70
     0
  9
$DIMSCALE
 40
1.0
  9
$DIMASZ
 40
2.0
  9
$DIMEXO
 40
1.0
  9
$DIMDLI
 40
1.0
  9
$DIMRND
 40
0.0
  9
$DIMDLE
 40
0.0
  9
$DIMEXE
 40
1.0
  9
$DIMTP
 40
0.0
  9
$DIMTM
 40
0.0
  9
$DIMTXT
 40
2.0
  9
$DIMCEN
 40
0.0
  9
$DIMTSZ
 40
0.0
  9
$DIMTOL
 70
     0
  9
$DIMLIM
 70
     0
  9
$DIMTIH
 70
     0
  9
$DIMTOH
 70
     0
  9
$DIMSE1
 70
     0
  9
$DIMSE2
 70
     0
  9
$DIMTAD
 70
     1
  9
$DIMZIN
 70
     8
  9
$DIMBLK
  1

  9
$DIMASO
 70
     1
  9
$DIMSHO
 70
     1
  9
$DIMPOST
  1

  9
$DIMAPOST
  1

  9
$DIMALT
 70
     0
  9
$DIMALTD
 70
     3
  9
$DIMALTF
 40
0.03937007874016
  9
$DIMLFAC
 40
1.0
  9
$DIMTOFL
 70
     1
  9
$DIMTVP
 40
0.0
  9
$DIMTIX
 70
     0
  9
$DIMSOXD
 70
     0
  9
$DIMSAH
 70
     0
  9
$DIMBLK1
  1

  9
$DIMBLK2
  1

  9
$DIMSTYLE
  2
SANINDUSA
  9
$DIMCLRD
 70
   256
  9
$DIMCLRE
 70
   256
  9
$DIMCLRT
 70
   256
  9
$DIMTFAC
 40
1.0
  9
$DIMGAP
 40
1.0
  9
$DIMJUST
 70
     0
  9
$DIMSD1
 70
     0
  9
$DIMSD2
 70
     0
  9
$DIMTOLJ
 70
     0
  9
$DIMTZIN
 70
     8
  9
$DIMALTZ
 70
     0
  9
$DIMALTTZ
 70
     0
  9
$DIMUPT
 70
     0
  9
$DIMDEC
 70
     1
  9
$DIMTDEC
 70
     1
  9
$DIMALTU
 70
     2
  9
$DIMALTTD
 70
     3
  9
$DIMTXSTY
  7
SANINDUSA
  9
$DIMAUNIT
 70
     0
  9
$DIMADEC
 70
     1
  9
$DIMALTRND
 40
0.0
  9
$DIMAZIN
 70
     0
  9
$DIMDSEP
 70
    44
  9
$DIMATFIT
 70
     3
  9
$DIMFRAC
 70
     0
  9
$DIMLDRBLK
  1

  9
$DIMLUNIT
 70
     2
  9
$DIMLWD
 70
    -1
  9
$DIMLWE
 70
    -1
  9
$DIMTMOVE
 70
     0
  9
$LUNITS
 70
     2
  9
$LUPREC
 70
     4
  9
$SKETCHINC
 40
1.0
  9
$FILLETRAD
 40
0.0
  9
$AUNITS
 70
     0
  9
$AUPREC
 70
     0
  9
$MENU
  1
.
  9
$ELEVATION
 40
0.0
  9
$PELEVATION
 40
0.0
  9
$THICKNESS
 40
0.0
  9
$LIMCHECK
 70
     0
  9
$CHAMFERA
 40
10.0
  9
$CHAMFERB
 40
10.0
  9
$CHAMFERC
 40
20.0
  9
$CHAMFERD
 40
0.0
  9
$SKPOLY
 70
     0
  9
$TDCREATE
 40
2453559.720908738
  9
$TDUCREATE
 40
2453559.679242072
  9
$TDUPDATE
 40
2456141.625772385
  9
$TDUUPDATE
 40
2456141.584105718
  9
$TDINDWG
 40
0.0026396065
  9
$TDUSRTIMER
 40
0.0026396065
  9
$USRTIMER
 70
     1
  9
$ANGBASE
 50
0.0
  9
$ANGDIR
 70
     0
  9
$PDMODE
 70
     0
  9
$PDSIZE
 40
0.0
  9
$PLINEWID
 40
0.0
  9
$SPLFRAME
 70
     0
  9
$SPLINETYPE
 70
     6
  9
$SPLINESEGS
 70
     8
  9
$HANDSEED
  5
1CB4
  9
$SURFTAB1
 70
     6
  9
$SURFTAB2
 70
     6
  9
$SURFTYPE
 70
     6
  9
$SURFU
 70
     6
  9
$SURFV
 70
     6
  9
$UCSBASE
  2

  9
$UCSNAME
  2

  9
$UCSORG
 10
0.0
 20
0.0
 30
0.0
  9
$UCSXDIR
 10
1.0
 20
0.0
 30
0.0
  9
$UCSYDIR
 10
0.0
 20
1.0
 30
0.0
  9
$UCSORTHOREF
  2

  9
$UCSORTHOVIEW
 70
     0
  9
$UCSORGTOP
 10
0.0
 20
0.0
 30
0.0
  9
$UCSORGBOTTOM
 10
0.0
 20
0.0
 30
0.0
  9
$UCSORGLEFT
 10
0.0
 20
0.0
 30
0.0
  9
$UCSORGRIGHT
 10
0.0
 20
0.0
 30
0.0
  9
$UCSORGFRONT
 10
0.0
 20
0.0
 30
0.0
  9
$UCSORGBACK
 10
0.0
 20
0.0
 30
0.0
  9
$PUCSBASE
  2

  9
$PUCSNAME
  2

  9
$PUCSORG
 10
0.0
 20
0.0
 30
0.0
  9
$PUCSXDIR
 10
1.0
 20
0.0
 30
0.0
  9
$PUCSYDIR
 10
0.0
 20
1.0
 30
0.0
  9
$PUCSORTHOREF
  2

  9
$PUCSORTHOVIEW
 70
     0
  9
$PUCSORGTOP
 10
0.0
 20
0.0
 30
0.0
  9
$PUCSORGBOTTOM
 10
0.0
 20
0.0
 30
0.0
  9
$PUCSORGLEFT
 10
0.0
 20
0.0
 30
0.0
  9
$PUCSORGRIGHT
 10
0.0
 20
0.0
 30
0.0
  9
$PUCSORGFRONT
 10
0.0
 20
0.0
 30
0.0
  9
$PUCSORGBACK
 10
0.0
 20
0.0
 30
0.0
  9
$USERI1
 70
     0
  9
$USERI2
 70
     0
  9
$USERI3
 70
     0
  9
$USERI4
 70
     0
  9
$USERI5
 70
     0
  9
$USERR1
 40
0.0
  9
$USERR2
 40
0.0
  9
$USERR3
 40
0.0
  9
$USERR4
 40
0.0
  9
$USERR5
 40
0.0
  9
$WORLDVIEW
 70
     1
  9
$SHADEDGE
 70
     3
  9
$SHADEDIF
 70
    70
  9
$TILEMODE
 70
     1
  9
$MAXACTVP
 70
    64
  9
$PINSBASE
 10
0.0
 20
0.0
 30
0.0
  9
$PLIMCHECK
 70
     0
  9
$PEXTMIN
 10
1.000000000000000E+20
 20
1.000000000000000E+20
 30
1.000000000000000E+20
  9
$PEXTMAX
 10
-1.000000000000000E+20
 20
-1.000000000000000E+20
 30
-1.000000000000000E+20
  9
$PLIMMIN
 10
0.0
 20
0.0
  9
$PLIMMAX
 10
420.0
 20
297.0
  9
$UNITMODE
 70
     0
  9
$VISRETAIN
 70
     1
  9
$PLINEGEN
 70
     0
  9
$PSLTSCALE
 70
     1
  9
$TREEDEPTH
 70
  3020
  9
$CMLSTYLE
  2
Standard
  9
$CMLJUST
 70
     0
  9
$CMLSCALE
 40
20.0
  9
$PROXYGRAPHICS
 70
     1
  9
$MEASUREMENT
 70
     1
  9
$CELWEIGHT
370
    -1
  9
$ENDCAPS
280
     0
  9
$JOINSTYLE
280
     0
  9
$LWDISPLAY
290
     0
  9
$INSUNITS
 70
     4
  9
$HYPERLINKBASE
  1

  9
$STYLESHEET
  1
monochrome.ctb
  9
$XEDIT
290
     1
  9
$CEPSNTYPE
380
     0
  9
$PSTYLEMODE
290
     1
  9
$FINGERPRINTGUID
  2
{F99DB4D9-5891-4F42-98ED-B96FCF0FFCF4}
  9
$VERSIONGUID
  2
{F3A0E973-ED62-4DD6-9A3D-0B6D68C5F4CA}
  9
$EXTNAMES
290
     1
  9
$PSVPSCALE
 40
0.0
  9
$OLESTARTUP
290
     0
  0
ENDSEC
  0
SECTION
  2
CLASSES
  0
CLASS
  1
ACDBDICTIONARYWDFLT
  2
AcDbDictionaryWithDefault
  3
ObjectDBX Classes
 90
        0
280
     0
281
     0
  0
CLASS
  1
ACDBPLACEHOLDER
  2
AcDbPlaceHolder
  3
ObjectDBX Classes
 90
        0
280
     0
281
     0
  0
CLASS
  1
LAYOUT
  2
AcDbLayout
  3
ObjectDBX Classes
 90
        0
280
     0
281
     0
  0
CLASS
  1
DICTIONARYVAR
  2
AcDbDictionaryVar
  3
ObjectDBX Classes
 90
        0
280
     0
281
     0
  0
CLASS
  1
DIMASSOC
  2
AcDbDimAssoc
  3
"AcDbDimAssoc|Product Desc:     AcDim ARX App For Dimension|Company:          Autodesk, Inc.|WEB Address:      www.autodesk.com"
 90
    32768
280
     0
281
     0
  0
CLASS
  1
TABLESTYLE
  2
AcDbTableStyle
  3
ObjectDBX Classes
 90
     4095
280
     0
281
     0
  0
CLASS
  1
SORTENTSTABLE
  2
AcDbSortentsTable
  3
ObjectDBX Classes
 90
    32768
280
     0
281
     0
  0
CLASS
  1
MATERIAL
  2
AcDbMaterial
  3
ObjectDBX Classes
 90
     1153
280
     0
281
     0
  0
CLASS
  1
VISUALSTYLE
  2
AcDbVisualStyle
  3
ObjectDBX Classes
 90
     4095
280
     0
281
     0
  0
CLASS
  1
SCALE
  2
AcDbScale
  3
ObjectDBX Classes
 90
     1153
280
     0
281
     0
  0
CLASS
  1
MLEADERSTYLE
  2
AcDbMLeaderStyle
  3
ACDB_MLEADERSTYLE_CLASS
 90
     4095
280
     0
281
     0
  0
CLASS
  1
CELLSTYLEMAP
  2
AcDbCellStyleMap
  3
ObjectDBX Classes
 90
     1152
280
     0
281
     0
  0
ENDSEC
  0
SECTION
  2
TABLES
  0
TABLE
  2
VPORT
  5
8
330
0
100
AcDbSymbolTable
 70
     1
  0
VPORT
  5
1BF9
330
8
100
AcDbSymbolTableRecord
100
AcDbViewportTableRecord
  2
*Active
 70
     0
 10
0.0
 20
0.0
 11
1.0
 21
1.0
 12
1683.2045783306
 22
1956.523094647604
 13
0.0
 23
0.0
 14
10.0
 24
10.0
 15
10.0
 25
10.0
 16
0.0
 26
0.0
 36
1.0
 17
0.0
 27
0.0
 37
0.0
 40
2.801687340000626
 41
1.645464025026068
 42
50.0
 43
0.0
 44
0.0
 50
0.0
 51
0.0
 71
     0
 72
   100
 73
     1
 74
     2
 75
     0
 76
     0
 77
     0
 78
     0
281
     0
 65
     1
110
0.0
120
0.0
130
0.0
111
1.0
121
0.0
131
0.0
112
0.0
122
1.0
132
0.0
 79
     0
146
0.0
  0
ENDTAB
  0
TABLE
  2
LTYPE
  5
5
330
0
100
AcDbSymbolTable
 70
     3
  0
LTYPE
  5
14
330
5
100
AcDbSymbolTableRecord
100
AcDbLinetypeTableRecord
  2
ByBlock
 70
     0
  3

 72
    65
 73
     0
 40
0.0
  0
LTYPE
  5
15
330
5
100
AcDbSymbolTableRecord
100
AcDbLinetypeTableRecord
  2
ByLayer
 70
     0
  3

 72
    65
 73
     0
 40
0.0
  0
LTYPE
  5
16
330
5
100
AcDbSymbolTableRecord
100
AcDbLinetypeTableRecord
  2
Continuous
 70
     0
  3
Solid line
 72
    65
 73
     0
 40
0.0
  0
LTYPE
  5
2D
330
5
100
AcDbSymbolTableRecord
100
AcDbLinetypeTableRecord
  2
DASHDOT
 70
     0
  3
Dash dot __ . __ . __ . __ . __ . __ . __ . __
 72
    65
 73
     4
 40
25.4
 49
12.7
 74
     0
 49
-6.349999999999999
 74
     0
 49
0.0
 74
     0
 49
-6.349999999999999
 74
     0
  0
LTYPE
  5
2E
330
5
100
AcDbSymbolTableRecord
100
AcDbLinetypeTableRecord
  2
HIDDEN
 70
     0
  3
Hidden __ __ __ __ __ __ __ __ __ __ __ __ __ _
 72
    65
 73
     2
 40
9.524999999999998
 49
6.349999999999999
 74
     0
 49
-3.174999999999999
 74
     0
  0
ENDTAB
  0
TABLE
  2
LAYER
  5
2
330
0
100
AcDbSymbolTable
 70
    16
  0
LAYER
  5
10
102
{ACAD_XDICTIONARY
360
1C48
102
}
330
2
100
AcDbSymbolTableRecord
100
AcDbLayerTableRecord
  2
0
 70
     0
 62
     7
  6
Continuous
370
    -3
390
F
  0
LAYER
  5
2F
102
{ACAD_XDICTIONARY
360
1C4A
102
}
330
2
100
AcDbSymbolTableRecord
100
AcDbLayerTableRecord
  2
1
 70
     0
 62
     1
  6
Continuous
370
    -3
390
F
  0
LAYER
  5
30
102
{ACAD_XDICTIONARY
360
1C4C
102
}
330
2
100
AcDbSymbolTableRecord
100
AcDbLayerTableRecord
  2
2
 70
     0
 62
     2
  6
Continuous
370
    -3
390
F
  0
LAYER
  5
31
102
{ACAD_XDICTIONARY
360
1C4E
102
}
330
2
100
AcDbSymbolTableRecord
100
AcDbLayerTableRecord
  2
3
 70
     0
 62
     3
  6
Continuous
370
    -3
390
F
  0
LAYER
  5
32
102
{ACAD_XDICTIONARY
360
1C50
102
}
330
2
100
AcDbSymbolTableRecord
100
AcDbLayerTableRecord
  2
4
 70
     0
 62
     4
  6
Continuous
370
    -3
390
F
  0
LAYER
  5
33
102
{ACAD_XDICTIONARY
360
1C52
102
}
330
2
100
AcDbSymbolTableRecord
100
AcDbLayerTableRecord
  2
5
 70
     0
 62
     5
  6
Continuous
370
    -3
390
F
  0
LAYER
  5
34
102
{ACAD_XDICTIONARY
360
1C54
102
}
330
2
100
AcDbSymbolTableRecord
100
AcDbLayerTableRecord
  2
6
 70
     0
 62
     6
  6
Continuous
370
    -3
390
F
  0
LAYER
  5
35
102
{ACAD_XDICTIONARY
360
1C56
102
}
330
2
100
AcDbSymbolTableRecord
100
AcDbLayerTableRecord
  2
7
 70
     0
 62
     7
  6
Continuous
370
    -3
390
F
  0
LAYER
  5
36
102
{ACAD_XDICTIONARY
360
1C58
102
}
330
2
100
AcDbSymbolTableRecord
100
AcDbLayerTableRecord
  2
cen
 70
     0
 62
     7
  6
DASHDOT
370
    -3
390
F
  0
LAYER
  5
37
102
{ACAD_XDICTIONARY
360
1C5A
102
}
330
2
100
AcDbSymbolTableRecord
100
AcDbLayerTableRecord
  2
hid
 70
     0
 62
     7
  6
HIDDEN
370
    -3
390
F
  0
LAYER
  5
5D6
102
{ACAD_XDICTIONARY
360
1C5C
102
}
330
2
100
AcDbSymbolTableRecord
100
AcDbLayerTableRecord
  2
hatch
 70
     0
 62
     9
  6
Continuous
370
    -3
390
F
  0
LAYER
  5
8AF
102
{ACAD_XDICTIONARY
360
1C5E
102
}
330
2
100
AcDbSymbolTableRecord
100
AcDbLayerTableRecord
  2
9
 70
     0
 62
     9
  6
Continuous
370
    -3
390
F
  0
LAYER
  5
8F8
102
{ACAD_XDICTIONARY
360
1C60
102
}
330
2
100
AcDbSymbolTableRecord
100
AcDbLayerTableRecord
  2
leg fin
 70
     0
 62
     9
  6
Continuous
370
    -3
390
F
  0
LAYER
  5
91D
102
{ACAD_XDICTIONARY
360
1C62
102
}
330
2
100
AcDbSymbolTableRecord
100
AcDbLayerTableRecord
  2
cotas
 70
     0
 62
     1
  6
Continuous
370
    -3
390
F
  0
LAYER
  5
92F
330
2
100
AcDbSymbolTableRecord
100
AcDbLayerTableRecord
  2
Defpoints
 70
     0
 62
     7
  6
Continuous
290
     0
370
    -3
390
F
  0
LAYER
  5
BA5
102
{ACAD_XDICTIONARY
360
1C64
102
}
330
2
100
AcDbSymbolTableRecord
100
AcDbLayerTableRecord
  2
SANINDUSA
 70
     0
 62
     3
  6
Continuous
370
    -3
390
F
  0
ENDTAB
  0
TABLE
  2
STYLE
  5
3
330
0
100
AcDbSymbolTable
 70
     3
  0
STYLE
  5
11
330
3
100
AcDbSymbolTableRecord
100
AcDbTextStyleTableRecord
  2
Standard
 70
     0
 40
0.0
 41
1.0
 50
0.0
 71
     0
 42
2.5
  3
Avgardn.ttf
  4

1001
ACAD
1000
AvantGarde Bk BT
1071
       34
  0
STYLE
  5
2C
330
3
100
AcDbSymbolTableRecord
100
AcDbTextStyleTableRecord
  2

 70
     1
 40
0.0
 41
1.0
 50
0.0
 71
     0
 42
2.5
  3
ltypeshp.shx
  4

  0
STYLE
  5
91F
330
3
100
AcDbSymbolTableRecord
100
AcDbTextStyleTableRecord
  2
SANINDUSA
 70
     0
 40
0.0
 41
1.0
 50
0.0
 71
     0
 42
2.5
  3
verdana.TTF
  4

1001
ACAD
1000
Verdana
1071
       34
  0
ENDTAB
  0
TABLE
  2
VIEW
  5
6
330
0
100
AcDbSymbolTable
 70
     0
  0
ENDTAB
  0
TABLE
  2
UCS
  5
7
330
0
100
AcDbSymbolTable
 70
     0
  0
ENDTAB
  0
TABLE
  2
APPID
  5
9
330
0
100
AcDbSymbolTable
 70
     7
  0
APPID
  5
12
330
9
100
AcDbSymbolTableRecord
100
AcDbRegAppTableRecord
  2
ACAD
 70
     0
  0
APPID
  5
3A
330
9
100
AcDbSymbolTableRecord
100
AcDbRegAppTableRecord
  2
DCO15
 70
     0
  0
APPID
  5
D53
330
9
100
AcDbSymbolTableRecord
100
AcDbRegAppTableRecord
  2
ACAD_DSTYLE_DIMEXT_LENGTH
 70
     0
  0
APPID
  5
D54
330
9
100
AcDbSymbolTableRecord
100
AcDbRegAppTableRecord
  2
ACAD_DSTYLE_DIMEXT_ENABLED
 70
     0
  0
APPID
  5
D55
330
9
100
AcDbSymbolTableRecord
100
AcDbRegAppTableRecord
  2
ACAD_DSTYLE_DIMJOGGED_JOGANGLE_SYMBOL
 70
     0
  0
APPID
  5
D56
330
9
100
AcDbSymbolTableRecord
100
AcDbRegAppTableRecord
  2
ACAD_DSTYLE_DIMARC_LENGTH_SYMBOL
 70
     0
  0
APPID
  5
1CB3
330
9
100
AcDbSymbolTableRecord
100
AcDbRegAppTableRecord
  2
ACAD_MLEADERVER
 70
     0
  0
ENDTAB
  0
TABLE
  2
DIMSTYLE
  5
A
330
0
100
AcDbSymbolTable
 70
     2
100
AcDbDimStyleTable
 71
     1
340
921
  0
DIMSTYLE
105
45
330
A
100
AcDbSymbolTableRecord
100
AcDbDimStyleTableRecord
  2
STANDARD
 70
     0
289
     0
340
11
  0
DIMSTYLE
105
921
330
A
100
AcDbSymbolTableRecord
100
AcDbDimStyleTableRecord
  2
SANINDUSA
 70
     0
 41
2.0
 42
1.0
 43
1.0
 44
1.0
 73
     0
 74
     0
 77
     1
 78
     8
140
2.0
141
0.0
143
0.03937007874016
147
1.0
171
     3
172
     1
176
   256
177
   256
178
   256
179
     1
271
     1
272
     1
274
     3
278
    44
283
     0
284
     8
340
91F
371
    -1
372
    -1
  0
ENDTAB
  0
TABLE
  2
BLOCK_RECORD
  5
1
330
0
100
AcDbSymbolTable
 70
    80
  0
BLOCK_RECORD
  5
1F
330
1
100
AcDbSymbolTableRecord
100
AcDbBlockTableRecord
  2
*Model_Space
340
22
  0
BLOCK_RECORD
  5
1B
330
1
100
AcDbSymbolTableRecord
100
AcDbBlockTableRecord
  2
*Paper_Space
340
1E
  0
BLOCK_RECORD
  5
23
330
1
100
AcDbSymbolTableRecord
100
AcDbBlockTableRecord
  2
*Paper_Space0
340
26
  0
BLOCK_RECORD
  5
919
330
1
100
AcDbSymbolTableRecord
100
AcDbBlockTableRecord
  2
_DotSmall
340
0
  0
BLOCK_RECORD
  5
922
330
1
100
AcDbSymbolTableRecord
100
AcDbBlockTableRecord
  2
base para cotas
340
0
310
2800000020000000200000000100080000000000000400000000000000000000000000000000000000000000000080000080000000808000800000008000800080800000C0C0C000C0DCC000F0CAA6000020400000206000002080000020A0000020C0000020E00000400000004020000040400000406000004080000040A0
310
000040C0000040E00000600000006020000060400000606000006080000060A0000060C0000060E00000800000008020000080400000806000008080000080A0000080C0000080E00000A0000000A0200000A0400000A0600000A0800000A0A00000A0C00000A0E00000C0000000C0200000C0400000C0600000C0800000C0
310
A00000C0C00000C0E00000E0000000E0200000E0400000E0600000E0800000E0A00000E0C00000E0E00040000000400020004000400040006000400080004000A0004000C0004000E00040200000402020004020400040206000402080004020A0004020C0004020E000404000004040200040404000404060004040800040
310
40A0004040C0004040E00040600000406020004060400040606000406080004060A0004060C0004060E00040800000408020004080400040806000408080004080A0004080C0004080E00040A0000040A0200040A0400040A0600040A0800040A0A00040A0C00040A0E00040C0000040C0200040C0400040C0600040C08000
310
40C0A00040C0C00040C0E00040E0000040E0200040E0400040E0600040E0800040E0A00040E0C00040E0E00080000000800020008000400080006000800080008000A0008000C0008000E00080200000802020008020400080206000802080008020A0008020C0008020E00080400000804020008040400080406000804080
310
008040A0008040C0008040E00080600000806020008060400080606000806080008060A0008060C0008060E00080800000808020008080400080806000808080008080A0008080C0008080E00080A0000080A0200080A0400080A0600080A0800080A0A00080A0C00080A0E00080C0000080C0200080C0400080C0600080C0
310
800080C0A00080C0C00080C0E00080E0000080E0200080E0400080E0600080E0800080E0A00080E0C00080E0E000C0000000C0002000C0004000C0006000C0008000C000A000C000C000C000E000C0200000C0202000C0204000C0206000C0208000C020A000C020C000C020E000C0400000C0402000C0404000C0406000C0
310
408000C040A000C040C000C040E000C0600000C0602000C0604000C0606000C0608000C060A000C060C000C060E000C0800000C0802000C0804000C0806000C0808000C080A000C080C000C080E000C0A00000C0A02000C0A04000C0A06000C0A08000C0A0A000C0A0C000C0A0E000C0C00000C0C02000C0C04000C0C06000
310
C0C08000C0C0A000F0FBFF00A4A0A000808080000000FF0000FF000000FFFF00FF000000FF00FF00FFFF0000FFFFFF00A4A4A4A4A4A4A4A4A4A4A4A4A4A4A4A4A4A4A4A4A4A4A4A4A4A4A4A4A4A4A4A4A4A4A4A4A4A4A4A4A4A4A4A4A4A4A4A4A4A4A4A4A4A4A4A4A4A4A4A4A4A4A4A4A4A4A4A4A4A4A4A4A4A4A4A4A4A4A4
310
A4A4A4A4A4A4A4A4A4A4A4A4A4A4A4A4A4A4A4A4A4A4A4A4A4A4A4A4A4A4A4A4A4A4A4A4A4A4A4A4A4A4A4A4A4A4A4A4A4A4A4A4A4A4A4A4A4A4A4A4A4A4A4A4A4A4A4A4A4A4A4A4A4A4A4A4A4A4A4A4A4A4A4A4A4A4A4A4A4A4A4A4A4A4A4A4A4A4A4A4A4A4A4A4A4A4A4A4A4A4A4A4A4A4A4A4A4A4A4A4A4A4A4A4A4A4A4
310
A4A4A4A4A4A4A4A4A4A4A4A4A4A4A4A4A4A4A4A4A4A4A4A4A4A4A4A4A4A4A4A4A4A4A4A4A4A4A4A4A4A4A4A4A4A4A4A4A4A4A4A4A4A4A4A4A4A4A4A4A4A4A4A4A4A4A4A4A4A4A4A4A4A4A4A4A4A4A4A4A4A4A4A4A4A4A4A4A4A4A4A4A4A4A4A4A4A4A4A4A4A4A4A4A4A4A4A4A4A4A4A4A4A4A4A4A4A4A4A4A4A4A4A4A4A4A4
310
A4A4A4A4A4A4A4A4A4A4A4A4A4A4A4A4A4A4A4A4A4A4A4A4A4A4A4A4A4A4A4A4A4A4A4A4A4A4A4A4A4A4A4A4A4A4A4A4A4A4A4A4A4A4A4A4A4A4A4A4A4A4A4A4A4A4A4A4A4A4A4A4A4A4A4A4A4A4A4A4A4A4A4A4A4A4A4A4A4A4A4A4A4A4A4A4A4A4A4A4A4A4A4A4A4A4A4A4A4A4A4A4A4A4A4A4F9F9F9F9F9F9F9F9F9F9F9
310
F9F9F9F9F9F9F9F9F9F9F9F9F9F9F9F9F9F9F9A4A4F9F9F9F9F9F9F9F9F9F9F9F9F9F9F9F9F9F9F9F9F9F9F9F9F9F9F9F9F9F9A4A4F9F9F9F9F9F9F9F9F9F9F9F9F9F9F9F9F9F9F9F9F9F9F9F9F9F9F9F9F9F9A4A4F9A4A4A4A4A4A4A4A4A4A4A4A4A4A4A4A4A4A4A4A4A4A4A4A4A4A4A4A4F9A4A4A4A4A4A4A4A4A4A4A4A4
310
A4A4A4A4A4A4A4A4A4A4A4A4A4A4A4A4A4A4A4A4A4A4A4A4A4A4A4A4A4A4A4A4A4A4A4A4A4A4A4A4A4A4A4A4A4A4A4A4A4A4A4A4A4A4A4A4A4A4A4A4A4A4A4A4A4A4A4A4A4A4A4A4A4A4A4A4A4A4A4A4A4A4A4A4A4A4A4A4A4A4A4A4A4A4A4A4A4A4A4A4A4A4A4A4A4A4A4A4A4A4A4A4A4A4A4A4A4A4A4A4A4A4A4A4A4A4A4
310
A4A4A4A4A4A4A4A4A4A4A4A4A4A4A4A4A4A4A4A4A4A4A4A4A4A4A4A4A4A4A4A4A4A4A4A4A4A4A4A4A4A4A4A4A4A4A4A4A4A4A4A4A4A4A4A4A4A4A4A4A4A4A4A4A4A4A4A4A4A4A4A4A4A4A4A4A4A4A4A4A4A4A4A4A4A4A4A4A4A4A4A4A4A4A4A4A4A4A4A4A4A4A4A4A4A4A4A4A4A4A4A4A4A4A4A4A4A4A4A4A4A4A4A4A4A4A4
310
A4A4A4A4A4A4A4A4A4A4A4A4A4A4A4A4A4A4A4A4A4A4A4A4A4A4A4A4A4A4A4A4A4A4A4A4A4A4A4A4A4A4A4A4A4A4A4A4A4A4A4A4A4A4A4A4A4A4A4A4A4A4A4A4A4A4A4A4A4A4A4A4A4A4A4A4A4A4A4A4A4A4A4A4A4A4A4A4A4A4A4A4A4A4A4A4A4A4A4A4A4A4A4A4A4A4A4A4A4A4A4A4A4A4A4A4A4A4A4A4A4A4A4A4A4A4A4
310
A4A4A4A4A4A4A4A4A4A4A4A4A4A4A4A4A4A4A4A4A4A4A4A4A4A4A4A4A4A4A4A4A4A4A4A4A4A4A4A4A4A4A4A4A4A4A4A4A4A4A4A4A4A4A4A4
1001
ACAD
1000
DesignCenter Data
1002
{
1070
     1
1070
     4
1002
}
  0
BLOCK_RECORD
  5
AA8
330
1
100
AcDbSymbolTableRecord
100
AcDbBlockTableRecord
  2
_CLOSED
340
0
  0
ENDTAB
  0
ENDSEC
  0
SECTION
  2
BLOCKS
  0
BLOCK
  5
20
330
1F
100
AcDbEntity
  8
0
100
AcDbBlockBegin
  2
*Model_Space
 70
     0
 10
0.0
 20
0.0
 30
0.0
  3
*Model_Space
  1

  0
ENDBLK
  5
21
330
1F
100
AcDbEntity
  8
0
100
AcDbBlockEnd
  0
BLOCK
  5
1C
330
1B
100
AcDbEntity
 67
     1
  8
0
100
AcDbBlockBegin
  2
*Paper_Space
 70
     0
 10
0.0
 20
0.0
 30
0.0
  3
*Paper_Space
  1

  0
ENDBLK
  5
1D
330
1B
100
AcDbEntity
 67
     1
  8
0
100
AcDbBlockEnd
  0
BLOCK
  5
24
330
23
100
AcDbEntity
 67
     1
  8
0
100
AcDbBlockBegin
  2
*Paper_Space0
 70
     0
 10
0.0
 20
0.0
 30
0.0
  3
*Paper_Space0
  1

  0
ENDBLK
  5
25
330
23
100
AcDbEntity
 67
     1
  8
0
100
AcDbBlockEnd
  0
BLOCK
  5
91B
330
919
100
AcDbEntity
  8
0
100
AcDbBlockBegin
  2
_DotSmall
 70
     0
 10
0.0
 20
0.0
 30
0.0
  3
_DotSmall
  1

  0
LWPOLYLINE
  5
91A
330
919
100
AcDbEntity
  8
0
  6
ByBlock
 62
     0
100
AcDbPolyline
 90
        2
 70
     1
 43
0.5
 10
-0.0625
 20
0.0
 42
1.0
 10
0.0625
 20
0.0
 42
1.0
  0
ENDBLK
  5
91C
330
919
100
AcDbEntity
  8
0
100
AcDbBlockEnd
  0
BLOCK
  5
92A
330
922
100
AcDbEntity
  8
0
100
AcDbBlockBegin
  2
base para cotas
 70
     0
 10
0.0
 20
0.0
 30
0.0
  3
base para cotas
  1

  0
LINE
  5
B36
330
922
100
AcDbEntity
  8
cotas
100
AcDbLine
 10
0.0
 20
-30.0
 30
0.0
 11
327.1260136525398
 21
-30.0
 31
0.0
  0
LINE
  5
B37
330
922
100
AcDbEntity
  8
cotas
100
AcDbLine
 10
0.0
 20
-25.0
 30
0.0
 11
327.1260136525398
 21
-25.0
 31
0.0
  0
LINE
  5
B38
330
922
100
AcDbEntity
  8
cotas
100
AcDbLine
 10
0.0
 20
-20.0
 30
0.0
 11
327.1260136525398
 21
-20.0
 31
0.0
  0
LINE
  5
B39
330
922
100
AcDbEntity
  8
cotas
100
AcDbLine
 10
0.0
 20
-15.0
 30
0.0
 11
327.1260136525398
 21
-15.0
 31
0.0
  0
LINE
  5
B3A
330
922
100
AcDbEntity
  8
cotas
100
AcDbLine
 10
0.0
 20
-10.0
 30
0.0
 11
327.1260136525398
 21
-10.0
 31
0.0
  0
LINE
  5
B3B
330
922
100
AcDbEntity
  8
cotas
100
AcDbLine
 10
0.0
 20
0.0
 30
0.0
 11
0.0
 21
-30.0
 31
0.0
  0
LINE
  5
B3C
330
922
100
AcDbEntity
  8
cotas
100
AcDbLine
 10
327.1260136525398
 20
-30.0
 30
0.0
 11
327.1260136525398
 21
0.0
 31
0.0
  0
ENDBLK
  5
92B
330
922
100
AcDbEntity
  8
0
100
AcDbBlockEnd
  0
BLOCK
  5
AAD
330
AA8
100
AcDbEntity
  8
0
100
AcDbBlockBegin
  2
_CLOSED
 70
     0
 10
0.0
 20
0.0
 30
0.0
  3
_CLOSED
  1

  0
LINE
  5
AA9
330
AA8
100
AcDbEntity
  8
0
100
AcDbLine
 10
-1.0
 20
0.166667
 30
0.0
 11
0.0
 21
0.0
 31
0.0
  0
LINE
  5
AAA
330
AA8
100
AcDbEntity
  8
0
100
AcDbLine
 10
0.0
 20
0.0
 30
0.0
 11
-1.0
 21
-0.166667
 31
0.0
  0
LINE
  5
AAB
330
AA8
100
AcDbEntity
  8
0
100
AcDbLine
 10
-1.0
 20
0.166667
 30
0.0
 11
-1.0
 21
-0.166667
 31
0.0
  0
LINE
  5
AAC
330
AA8
100
AcDbEntity
  8
0
100
AcDbLine
 10
0.0
 20
0.0
 30
0.0
 11
-1.0
 21
0.0
 31
0.0
  0
ENDBLK
  5
AAE
330
AA8
100
AcDbEntity
  8
0
100
AcDbBlockEnd
  0
ENDSEC
  0
SECTION
  2
ENTITIES
  0
LINE
  5
128F
330
1F
100
AcDbEntity
  8
SANINDUSA
100
AcDbLine
 10
1682.397137405648
 20
1956.449501233538
 30
0.0
 11
1682.394137405648
 21
1956.449501233538
 31
0.0
  0
ARC
  5
1290
330
1F
100
AcDbEntity
  8
SANINDUSA
100
AcDbCircle
 10
1682.394137405648
 20
1956.451501233537
 30
0.0
 40
0.002
100
AcDbArc
 50
180.0
 51
270.0
  0
LINE
  5
1293
330
1F
100
AcDbEntity
  8
SANINDUSA
100
AcDbLine
 10
1683.185008039985
 20
1956.449501233538
 30
0.0
 11
1682.397137405648
 21
1956.449501233538
 31
0.0
  0
LINE
  5
1296
330
1F
100
AcDbEntity
  8
SANINDUSA
100
AcDbLine
 10
1683.188007583071
 20
1956.449501233538
 30
0.0
 11
1683.185008039985
 21
1956.449501233538
 31
0.0
  0
ARC
  5
1298
330
1F
100
AcDbEntity
  8
SANINDUSA
100
AcDbCircle
 10
1683.188007583071
 20
1956.451501233537
 30
0.0
 40
0.002
100
AcDbArc
 50
270.0
 51
0.9999999969218754
  0
LINE
  5
129A
330
1F
100
AcDbEntity
  8
SANINDUSA
100
AcDbLine
 10
1683.188033942226
 20
1956.56458849557
 30
0.0
 11
1683.190007278461
 21
1956.451536138351
 31
0.0
  0
LINE
  5
129F
330
1F
100
AcDbEntity
  8
SANINDUSA
100
AcDbLine
 10
1682.392137405648
 20
1956.451501233537
 30
0.0
 11
1682.392137405648
 21
1956.564501233538
 31
0.0
  0
ARC
  5
12A1
330
1F
100
AcDbEntity
  8
SANINDUSA
100
AcDbCircle
 10
1682.397137405648
 20
1956.564501233538
 30
0.0
 40
0.005
100
AcDbArc
 50
90.0
 51
180.0
  0
LINE
  5
12A2
330
1F
100
AcDbEntity
  8
SANINDUSA
100
AcDbLine
 10
1682.397137405648
 20
1956.569501233538
 30
0.0
 11
1683.18303470375
 21
1956.569501233538
 31
0.0
  0
ARC
  5
12A4
330
1F
100
AcDbEntity
  8
SANINDUSA
100
AcDbCircle
 10
1683.18303470375
 20
1956.564501233538
 30
0.0
 40
0.0050000000000002
100
AcDbArc
 50
0.9999999969218754
 51
90.0
  0
ARC
  5
12A8
330
1F
100
AcDbEntity
  8
SANINDUSA
100
AcDbCircle
 10
1682.602816217934
 20
1956.537292472795
 30
0.0
 40
1.245319909421228
100
AcDbArc
 50
165.4620810031452
 51
194.0136534304544
  0
LWPOLYLINE
  5
12AA
330
1F
100
AcDbEntity
  8
SANINDUSA
100
AcDbPolyline
 90
        9
 70
   128
 43
0.0
 10
1681.397369305058
 20
1956.849893523716
 10
1681.397817156578
 20
1956.851160095069
 10
1681.398431998651
 20
1956.852357676563
 10
1681.399202409962
 20
1956.853464021911
 10
1681.400114079339
 20
1956.854458579626
 10
1681.401150071603
 20
1956.855322874792
 10
1681.402291142146
 20
1956.856040852251
 10
1681.403516094428
 20
1956.856599174843
 10
1681.40480217372
 20
1956.856987471163
  0
LWPOLYLINE
  5
12AC
330
1F
100
AcDbEntity
  8
SANINDUSA
100
AcDbPolyline
 90
        9
 70
   128
 43
0.0
 10
1682.022911077262
 20
1956.238878567621
 10
1682.022522780943
 20
1956.237592488329
 10
1682.02196445835
 20
1956.236367536047
 10
1682.021246480891
 20
1956.235226465503
 10
1682.020382185725
 20
1956.23419047324
 10
1682.01938762801
 20
1956.233278803862
 10
1682.018281282663
 20
1956.232508392552
 10
1682.017083701168
 20
1956.231893550479
 10
1682.015817129815
 20
1956.231445698958
  0
ARC
  5
12B0
330
1F
100
AcDbEntity
  8
SANINDUSA
100
AcDbCircle
 10
1681.703216078894
 20
1957.436892611835
 30
0.0
 40
1.245319909421229
100
AcDbArc
 50
255.9863465695456
 51
284.5379189968548
  0
ARC
  5
12B4
330
1F
100
AcDbEntity
  8
SANINDUSA
100
AcDbCircle
 10
1681.703216078894
 20
1955.436599975302
 30
0.0
 40
1.451396395613063
100
AcDbArc
 50
95.70666739232459
 51
101.8648992749926
  0
ARC
  5
12B9
330
1F
100
AcDbEntity
  8
SANINDUSA
100
AcDbCircle
 10
1680.602523581402
 20
1956.537292472795
 30
0.0
 40
1.451396395613064
100
AcDbArc
 50
348.1351007250073
 51
354.2933326076754
  0
LWPOLYLINE
  5
12BB
330
1F
100
AcDbEntity
  8
SANINDUSA
100
AcDbPolyline
 90
        9
 70
   128
 43
0.0
 10
1681.401657992765
 20
1956.228635852081
 10
1681.400418338353
 20
1956.229058253182
 10
1681.399242212213
 20
1956.229640104061
 10
1681.398150365975
 20
1956.230371138512
 10
1681.397162064226
 20
1956.231238458127
 10
1681.396294744612
 20
1956.232226759875
 10
1681.395563710161
 20
1956.233318606114
 10
1681.394981859282
 20
1956.234494732253
 10
1681.39455945818
 20
1956.235734386666
  0
LINE
  5
12C7
330
1F
100
AcDbEntity
  8
SANINDUSA
100
AcDbLine
 10
1681.305310686686
 20
1956.144300566902
 30
0.0
 11
1681.305310686686
 21
1956.930284378688
 31
0.0
  0
ARC
  5
12CB
330
1F
100
AcDbEntity
  8
SANINDUSA
100
AcDbCircle
 10
1681.603216078895
 20
1956.437292472795
 30
0.0
 40
0.4457197703810903
100
AcDbArc
 50
354.2933326076754
 51
95.70666739232459
  0
ARC
  5
12E3
330
1F
100
AcDbEntity
  8
SANINDUSA
100
AcDbCircle
 10
1682.098180775084
 20
1956.142327776605
 30
0.0
 40
0.0049997844438279
100
AcDbArc
 50
270.00625626038
 51
0.0
  0
LINE
  5
12E6
330
1F
100
AcDbEntity
  8
SANINDUSA
100
AcDbLine
 10
1681.603216078895
 20
1956.937256953399
 30
0.0
 11
1681.310310686686
 21
1956.937256953399
 31
0.0
  0
LINE
  5
12E8
330
1F
100
AcDbEntity
  8
SANINDUSA
100
AcDbLine
 10
1681.305310686686
 20
1956.930284378688
 30
0.0
 11
1681.305310686686
 21
1956.932256801025
 31
0.0
  0
ARC
  5
12E9
330
1F
100
AcDbEntity
  8
SANINDUSA
100
AcDbCircle
 10
1681.310310762874
 20
1956.932256877211
 30
0.0
 40
0.0050000761889811
100
AcDbArc
 50
90.00087304139556
 51
180.0
  0
ARC
  5
12EA
330
1F
100
AcDbEntity
  8
SANINDUSA
100
AcDbCircle
 10
1681.603216078895
 20
1956.437292472795
 30
0.0
 40
0.4999644806043685
100
AcDbArc
 50
0.0
 51
90.0
  0
LINE
  5
12EC
330
1F
100
AcDbEntity
  8
SANINDUSA
100
AcDbLine
 10
1682.103180559499
 20
1956.142327230666
 30
0.0
 11
1682.103180559499
 21
1956.437292472795
 31
0.0
  0
ARC
  5
12EE
330
1F
100
AcDbEntity
  8
SANINDUSA
100
AcDbCircle
 10
1681.310310762874
 20
1956.142328068379
 30
0.0
 40
0.005000076188965
100
AcDbArc
 50
180.0
 51
269.9991269586044
  0
LINE
  5
12EF
330
1F
100
AcDbEntity
  8
SANINDUSA
100
AcDbLine
 10
1681.305310686686
 20
1956.142328144565
 30
0.0
 11
1681.305310686686
 21
1956.144300566902
 31
0.0
  0
LINE
  5
12F0
330
1F
100
AcDbEntity
  8
SANINDUSA
100
AcDbLine
 10
1681.310310686686
 20
1956.13732799219
 30
0.0
 11
1682.098181321023
 21
1956.13732799219
 31
0.0
  0
ARC
  5
1304
330
1F
100
AcDbEntity
  8
SANINDUSA
100
AcDbCircle
 10
1681.702825805717
 20
1956.301933329669
 30
0.0
 40
0.0056552475791673
100
AcDbArc
 50
257.03856705409
 51
325.745741515561
  0
ARC
  5
1305
330
1F
100
AcDbEntity
  8
SANINDUSA
100
AcDbCircle
 10
1681.693737736444
 20
1956.30843928427
 30
0.0
 40
0.0168309964250564
100
AcDbArc
 50
324.8534191256017
 51
77.93550069368166
  0
ARC
  5
1306
330
1F
100
AcDbEntity
  8
SANINDUSA
100
AcDbCircle
 10
1681.695987183676
 20
1956.319387374274
 30
0.0
 40
0.0056552475791763
100
AcDbArc
 50
77.03856705408998
 51
145.745741515561
  0
ARC
  5
1307
330
1F
100
AcDbEntity
  8
SANINDUSA
100
AcDbCircle
 10
1681.70507525295
 20
1956.312881419673
 30
0.0
 40
0.016830996425056
100
AcDbArc
 50
144.8534191256016
 51
257.9355006936816
  0
ARC
  5
1308
330
1F
100
AcDbEntity
  8
SANINDUSA
100
AcDbCircle
 10
1681.676039671146
 20
1956.360129928503
 30
0.0
 40
0.0056551604339953
100
AcDbArc
 50
266.3685793482899
 51
335.0765332260215
  0
ARC
  5
1309
330
1F
100
AcDbEntity
  8
SANINDUSA
100
AcDbCircle
 10
1681.666016836494
 20
1956.365076608567
 30
0.0
 40
0.0168311945534175
100
AcDbArc
 50
334.1835644873369
 51
87.26455136246283
  0
ARC
  5
130A
330
1F
100
AcDbEntity
  8
SANINDUSA
100
AcDbCircle
 10
1681.666461910457
 20
1956.376244818946
 30
0.0
 40
0.0056551604339587
100
AcDbArc
 50
86.36857934828993
 51
155.0765332260215
  0
ARC
  5
130B
330
1F
100
AcDbEntity
  8
SANINDUSA
100
AcDbCircle
 10
1681.67648474511
 20
1956.371298138883
 30
0.0
 40
0.0168311945534172
100
AcDbArc
 50
154.1835644873369
 51
267.2645513624628
  0
ARC
  5
130C
330
1F
100
AcDbEntity
  8
SANINDUSA
100
AcDbCircle
 10
1681.640173246162
 20
1956.413214611113
 30
0.0
 40
0.0056551100889291
100
AcDbArc
 50
275.6988262540715
 51
344.4072481893759
  0
ARC
  5
130D
330
1F
100
AcDbEntity
  8
SANINDUSA
100
AcDbCircle
 10
1681.629480925239
 20
1956.416471104832
 30
0.0
 40
0.0168313041081216
100
AcDbArc
 50
343.5133941450853
 51
96.59375986654978
  0
ARC
  5
130E
330
1F
100
AcDbEntity
  8
SANINDUSA
100
AcDbCircle
 10
1681.628109752922
 20
1956.427563914238
 30
0.0
 40
0.0056551100889314
100
AcDbArc
 50
95.69882625407151
 51
164.4072481893758
  0
ARC
  5
130F
330
1F
100
AcDbEntity
  8
SANINDUSA
100
AcDbCircle
 10
1681.638802073845
 20
1956.424307420519
 30
0.0
 40
0.0168313041081215
100
AcDbArc
 50
163.5133941450853
 51
276.5937598665498
  0
ARC
  5
1310
330
1F
100
AcDbEntity
  8
SANINDUSA
100
AcDbCircle
 10
1681.59617547185
 20
1956.459782856242
 30
0.0
 40
0.0056551018364361
100
AcDbArc
 50
285.0292818381612
 51
353.737811231158
  0
ARC
  5
1311
330
1F
100
AcDbEntity
  8
SANINDUSA
100
AcDbCircle
 10
1681.585096661172
 20
1956.461263018882
 30
0.0
 40
0.0168313135697688
100
AcDbArc
 50
352.8429260100143
 51
105.923209421292
  0
ARC
  5
1312
330
1F
100
AcDbEntity
  8
SANINDUSA
100
AcDbCircle
 10
1681.581945450352
 20
1956.47198685906
 30
0.0
 40
0.0056551018364352
100
AcDbArc
 50
105.0292818381613
 51
173.737811231158
  0
ARC
  5
1313
330
1F
100
AcDbEntity
  8
SANINDUSA
100
AcDbCircle
 10
1681.593024261029
 20
1956.47050669642
 30
0.0
 40
0.0168313135697685
100
AcDbArc
 50
172.8429260100143
 51
285.923209421292
  0
ARC
  5
1314
330
1F
100
AcDbEntity
  8
SANINDUSA
100
AcDbCircle
 10
1681.545210432322
 20
1956.498602548187
 30
0.0
 40
0.0056551365439392
100
AcDbArc
 50
294.3598982039111
 51
3.068163160933781
  0
ARC
  5
1315
330
1F
100
AcDbEntity
  8
SANINDUSA
100
AcDbCircle
 10
1681.53403833526
 20
1956.498267277613
 30
0.0
 40
0.0168312219433989
100
AcDbArc
 50
2.172209308080483
 51
115.2529578856937
  0
ARC
  5
1316
330
1F
100
AcDbEntity
  8
SANINDUSA
100
AcDbCircle
 10
1681.529190433074
 20
1956.508338317946
 30
0.0
 40
0.0056551365439478
100
AcDbArc
 50
114.359898203911
 51
183.0681631609337
  0
ARC
  5
1317
330
1F
100
AcDbEntity
  8
SANINDUSA
100
AcDbCircle
 10
1681.540362530135
 20
1956.50867358852
 30
0.0
 40
0.0168312219433994
100
AcDbArc
 50
182.1722093080805
 51
295.2529578856938
  0
ARC
  5
1318
330
1F
100
AcDbEntity
  8
SANINDUSA
100
AcDbCircle
 10
1681.477656808711
 20
1956.526504835688
 30
0.0
 40
0.0168310388632007
100
AcDbArc
 50
11.5013193781365
 51
124.5830317095128
  0
ARC
  5
1319
330
1F
100
AcDbEntity
  8
SANINDUSA
100
AcDbCircle
 10
1681.471240502961
 20
1956.535656515854
 30
0.0
 40
0.0056552105629461
100
AcDbArc
 50
123.6906105382757
 51
192.3982669676147
  0
ARC
  5
131A
330
1F
100
AcDbEntity
  8
SANINDUSA
100
AcDbCircle
 10
1681.482210252359
 20
1956.537798258673
 30
0.0
 40
0.0168310388631984
100
AcDbArc
 50
191.5013193781365
 51
304.5830317095128
  0
ARC
  5
131B
330
1F
100
AcDbEntity
  8
SANINDUSA
100
AcDbCircle
 10
1681.488626558109
 20
1956.528646578507
 30
0.0
 40
0.0056552105629469
100
AcDbArc
 50
303.6906105382757
 51
12.39826696761474
  0
ARC
  5
131C
330
1F
100
AcDbEntity
  8
SANINDUSA
100
AcDbCircle
 10
1681.80581529845
 20
1956.318386096483
 30
0.0
 40
0.0056462799622451
100
AcDbArc
 50
248.545660370182
 51
313.6824596346521
  0
ARC
  5
131D
330
1F
100
AcDbEntity
  8
SANINDUSA
100
AcDbCircle
 10
1681.798374897422
 20
1956.326504227661
 30
0.0
 40
0.0166574691093082
100
AcDbArc
 50
312.9046009901312
 51
69.32933525665498
  0
ARC
  5
131E
330
1F
100
AcDbEntity
  8
SANINDUSA
100
AcDbCircle
 10
1681.802189733623
 20
1956.33683432477
 30
0.0
 40
0.0056462799622674
100
AcDbArc
 50
68.54566037018203
 51
133.6824596346521
  0
ARC
  5
131F
330
1F
100
AcDbEntity
  8
SANINDUSA
100
AcDbCircle
 10
1681.809630134652
 20
1956.328716193591
 30
0.0
 40
0.0166574691093086
100
AcDbArc
 50
132.9046009901312
 51
249.329335256655
  0
ARC
  5
1320
330
1F
100
AcDbEntity
  8
SANINDUSA
100
AcDbCircle
 10
1681.779453531946
 20
1956.407341041259
 30
0.0
 40
0.0056461146499046
100
AcDbArc
 50
262.075399354991
 51
327.2135797318524
  0
ARC
  5
1321
330
1F
100
AcDbEntity
  8
SANINDUSA
100
AcDbCircle
 10
1681.770319875471
 20
1956.413493396169
 30
0.0
 40
0.0166578262875923
100
AcDbArc
 50
326.4351914580319
 51
82.85788570033691
  0
ARC
  5
1322
330
1F
100
AcDbEntity
  8
SANINDUSA
100
AcDbCircle
 10
1681.771612528197
 20
1956.424429775082
 30
0.0
 40
0.0056461146499252
100
AcDbArc
 50
82.07539935499093
 51
147.2135797318523
  0
ARC
  5
1323
330
1F
100
AcDbEntity
  8
SANINDUSA
100
AcDbCircle
 10
1681.780746184672
 20
1956.418277420172
 30
0.0
 40
0.0166578262875931
100
AcDbArc
 50
146.4351914580319
 51
262.8578857003369
  0
ARC
  5
1324
330
1F
100
AcDbEntity
  8
SANINDUSA
100
AcDbCircle
 10
1681.733012270268
 20
1956.48766101758
 30
0.0
 40
0.005646013815451
100
AcDbArc
 50
275.6056140533431
 51
340.74467274471
  0
ARC
  5
1325
330
1F
100
AcDbEntity
  8
SANINDUSA
100
AcDbCircle
 10
1681.722692481984
 20
1956.491505994237
 30
0.0
 40
0.0166580284080196
100
AcDbArc
 50
339.9651176781817
 51
96.38665180599721
  0
ARC
  5
1326
330
1F
100
AcDbEntity
  8
SANINDUSA
100
AcDbCircle
 10
1681.721390991002
 20
1956.502441626969
 30
0.0
 40
0.0056460138154141
100
AcDbArc
 50
95.60561405334311
 51
160.74467274471
  0
ARC
  5
1327
330
1F
100
AcDbEntity
  8
SANINDUSA
100
AcDbCircle
 10
1681.731710779287
 20
1956.498596650311
 30
0.0
 40
0.0166580284080204
100
AcDbArc
 50
159.9651176781816
 51
276.3866518059972
  0
ARC
  5
1328
330
1F
100
AcDbEntity
  8
SANINDUSA
100
AcDbCircle
 10
1681.669069184818
 20
1956.554887875891
 30
0.0
 40
0.0056459995333613
100
AcDbArc
 50
289.1362574626768
 51
354.2754993818502
  0
ARC
  5
1329
330
1F
100
AcDbEntity
  8
SANINDUSA
100
AcDbCircle
 10
1681.658136261341
 20
1956.556212075834
 30
0.0
 40
0.0166580312128936
100
AcDbArc
 50
353.4943958044205
 51
109.915903725464
  0
ARC
  5
132A
330
1F
100
AcDbEntity
  8
SANINDUSA
100
AcDbCircle
 10
1681.654312708578
 20
1956.566539839403
 30
0.0
 40
0.0056459995333487
100
AcDbArc
 50
109.1362574626768
 51
174.2754993688876
  0
ARC
  5
132B
330
1F
100
AcDbEntity
  8
SANINDUSA
100
AcDbCircle
 10
1681.665245632055
 20
1956.565215639461
 30
0.0
 40
0.0166580312128928
100
AcDbArc
 50
173.4943958044205
 51
289.915903725464
  0
ARC
  5
132C
330
1F
100
AcDbEntity
  8
SANINDUSA
100
AcDbCircle
 10
1681.591173393587
 20
1956.60529016854
 30
0.0
 40
0.0056460749302802
100
AcDbArc
 50
302.6671887300861
 51
7.805878608937714
  0
ARC
  5
132D
330
1F
100
AcDbEntity
  8
SANINDUSA
100
AcDbCircle
 10
1681.580234305158
 20
1956.604020233527
 30
0.0
 40
0.0166578340879755
100
AcDbArc
 50
7.023183860693591
 51
123.4458052067814
  0
ARC
  5
132E
330
1F
100
AcDbEntity
  8
SANINDUSA
100
AcDbCircle
 10
1681.574100889438
 20
1956.613166676539
 30
0.0
 40
0.0056460749302945
100
AcDbArc
 50
122.667188730086
 51
187.8058786089377
  0
ARC
  5
132F
330
1F
100
AcDbEntity
  8
SANINDUSA
100
AcDbCircle
 10
1681.585039977867
 20
1956.614436611552
 30
0.0
 40
0.0166578340879711
100
AcDbArc
 50
187.0231838606936
 51
303.4458052067814
  0
ARC
  5
1330
330
1F
100
AcDbEntity
  8
SANINDUSA
100
AcDbCircle
 10
1681.493310418539
 20
1956.632276892738
 30
0.0
 40
0.0166574801970797
100
AcDbArc
 50
20.55174719511908
 51
136.976377849087
  0
ARC
  5
1331
330
1F
100
AcDbEntity
  8
SANINDUSA
100
AcDbCircle
 10
1681.485207690531
 20
1956.639734165809
 30
0.0
 40
0.0056462235003333
100
AcDbArc
 50
136.1982039182664
 51
201.3357274259095
  0
ARC
  5
1332
330
1F
100
AcDbEntity
  8
SANINDUSA
100
AcDbCircle
 10
1681.495545757011
 20
1956.643527550069
 30
0.0
 40
0.0166574801970786
100
AcDbArc
 50
200.5517471951191
 51
316.976377849087
  0
ARC
  5
1333
330
1F
100
AcDbEntity
  8
SANINDUSA
100
AcDbCircle
 10
1681.503648485018
 20
1956.636070276998
 30
0.0
 40
0.0056462235003205
100
AcDbArc
 50
316.1982039182664
 51
21.33572742590956
  0
ARC
  5
1334
330
1F
100
AcDbEntity
  8
SANINDUSA
100
AcDbCircle
 10
1681.89632988462
 20
1956.333101992478
 30
0.0
 40
0.0056555195985497
100
AcDbArc
 50
236.5041597188566
 51
305.2089611719422
  0
ARC
  5
1335
330
1F
100
AcDbEntity
  8
SANINDUSA
100
AcDbCircle
 10
1681.890102176087
 20
1956.342381852849
 30
0.0
 40
0.0168303614721451
100
AcDbArc
 50
304.3169324097359
 51
57.40246895944443
  0
ARC
  5
1336
330
1F
100
AcDbEntity
  8
SANINDUSA
100
AcDbCircle
 10
1681.896048124115
 20
1956.351844737722
 30
0.0
 40
0.0056555195985354
100
AcDbArc
 50
56.50415971885659
 51
125.2089611719422
  0
ARC
  5
1337
330
1F
100
AcDbEntity
  8
SANINDUSA
100
AcDbCircle
 10
1681.902275832648
 20
1956.342564877352
 30
0.0
 40
0.0168303614721438
100
AcDbArc
 50
124.3169324097359
 51
237.4024689594445
  0
ARC
  5
1338
330
1F
100
AcDbEntity
  8
SANINDUSA
100
AcDbCircle
 10
1681.878750580378
 20
1956.452993013398
 30
0.0
 40
0.0056552800446951
100
AcDbArc
 50
254.2034341135336
 51
322.9103217841095
  0
ARC
  5
1339
330
1F
100
AcDbEntity
  8
SANINDUSA
100
AcDbCircle
 10
1681.869995528555
 20
1956.459940466988
 30
0.0
 40
0.0168309216279563
100
AcDbArc
 50
322.0181373145957
 51
75.10062897107784
  0
ARC
  5
133A
330
1F
100
AcDbEntity
  8
SANINDUSA
100
AcDbCircle
 10
1681.872783637002
 20
1956.470763810051
 30
0.0
 40
0.0056552800446793
100
AcDbArc
 50
74.20343411353361
 51
142.9103217841095
  0
ARC
  5
133B
330
1F
100
AcDbEntity
  8
SANINDUSA
100
AcDbCircle
 10
1681.881538688825
 20
1956.46381635646
 30
0.0
 40
0.016830921627955
100
AcDbArc
 50
142.0181373145957
 51
255.1006289710779
  0
ARC
  5
133C
330
1F
100
AcDbEntity
  8
SANINDUSA
100
AcDbCircle
 10
1681.825552879676
 20
1956.561865963324
 30
0.0
 40
0.0056551256928546
100
AcDbArc
 50
271.9035220805439
 51
340.6117951645371
  0
ARC
  5
133D
330
1F
100
AcDbEntity
  8
SANINDUSA
100
AcDbCircle
 10
1681.815099579174
 20
1956.565822967547
 30
0.0
 40
0.0168312711983541
100
AcDbArc
 50
339.7183245621187
 51
92.7988804098207
  0
ARC
  5
133E
330
1F
100
AcDbEntity
  8
SANINDUSA
100
AcDbCircle
 10
1681.814465548091
 20
1956.576982155524
 30
0.0
 40
0.0056551256928865
100
AcDbArc
 50
91.90352208054388
 51
160.6117951645371
  0
ARC
  5
133F
330
1F
100
AcDbEntity
  8
SANINDUSA
100
AcDbCircle
 10
1681.824918848594
 20
1956.573025151301
 30
0.0
 40
0.0168312711983576
100
AcDbArc
 50
159.7183245621186
 51
272.7988804098207
  0
ARC
  5
1340
330
1F
100
AcDbEntity
  8
SANINDUSA
100
AcDbCircle
 10
1681.741773287911
 20
1956.649413095152
 30
0.0
 40
0.0056551136095792
100
AcDbArc
 50
289.6043911258922
 51
358.3128364991011
  0
ARC
  5
1341
330
1F
100
AcDbEntity
  8
SANINDUSA
100
AcDbCircle
 10
1681.73061176421
 20
1956.650004999239
 30
0.0
 40
0.0168312809179337
100
AcDbArc
 50
357.4174249549361
 51
110.4978697563857
  0
ARC
  5
1342
330
1F
100
AcDbEntity
  8
SANINDUSA
100
AcDbCircle
 10
1681.726615336579
 20
1956.660443314608
 30
0.0
 40
0.00565511360963
100
AcDbArc
 50
109.6043911258922
 51
178.3128364991012
  0
ARC
  5
1343
330
1F
100
AcDbEntity
  8
SANINDUSA
100
AcDbCircle
 10
1681.73777686028
 20
1956.65985141052
 30
0.0
 40
0.0168312809179302
100
AcDbArc
 50
177.4174249549361
 51
290.4978697563858
  0
ARC
  5
1344
330
1F
100
AcDbEntity
  8
SANINDUSA
100
AcDbCircle
 10
1681.635343734408
 20
1956.707345642347
 30
0.0
 40
0.0056552482620979
100
AcDbArc
 50
307.305719892299
 51
16.01306071245754
  0
ARC
  5
1345
330
1F
100
AcDbEntity
  8
SANINDUSA
100
AcDbCircle
 10
1681.624530941096
 20
1956.70451666883
 30
0.0
 40
0.0168309471919657
100
AcDbArc
 50
15.11577108398818
 51
128.1979706661352
  0
ARC
  5
1346
330
1F
100
AcDbEntity
  8
SANINDUSA
100
AcDbCircle
 10
1681.617550474459
 20
1956.713245495467
 30
0.0
 40
0.0056552482620849
100
AcDbArc
 50
127.3057198922989
 51
196.0130607124575
  0
ARC
  5
1347
330
1F
100
AcDbEntity
  8
SANINDUSA
100
AcDbCircle
 10
1681.628363267771
 20
1956.716074468983
 30
0.0
 40
0.0168309471919588
100
AcDbArc
 50
195.1157710839881
 51
308.1979706661352
  0
ARC
  5
1348
330
1F
100
AcDbEntity
  8
SANINDUSA
100
AcDbCircle
 10
1681.506900239013
 20
1956.724196941481
 30
0.0
 40
0.0168303934268394
100
AcDbArc
 50
32.81397442161798
 51
145.8991458544886
  0
ARC
  5
1349
330
1F
100
AcDbEntity
  8
SANINDUSA
100
AcDbCircle
 10
1681.497596893603
 20
1956.730389641495
 30
0.0
 40
0.005655479867133
100
AcDbArc
 50
145.0070170487652
 51
213.7123849467398
  0
ARC
  5
134A
330
1F
100
AcDbEntity
  8
SANINDUSA
100
AcDbCircle
 10
1681.507037314755
 20
1956.736371325528
 30
0.0
 40
0.0168303934268396
100
AcDbArc
 50
212.813974421618
 51
325.8991458544887
  0
ARC
  5
134B
330
1F
100
AcDbEntity
  8
SANINDUSA
100
AcDbCircle
 10
1681.516340660166
 20
1956.730178625514
 30
0.0
 40
0.0056554798670992
100
AcDbArc
 50
325.0070170487652
 51
33.71238494673978
  0
ARC
  5
1350
330
1F
100
AcDbEntity
  8
SANINDUSA
100
AcDbCircle
 10
1681.500437950919
 20
1956.680416125604
 30
0.0
 40
0.0164771995957163
100
AcDbArc
 50
24.1945311964782
 51
143.8899072206029
  0
ARC
  5
1351
330
1F
100
AcDbEntity
  8
SANINDUSA
100
AcDbCircle
 10
1681.491644607062
 20
1956.686742835384
 30
0.0
 40
0.0056450511704746
100
AcDbArc
 50
143.1692888844131
 51
208.256630927563
  0
ARC
  5
1352
330
1F
100
AcDbEntity
  8
SANINDUSA
100
AcDbCircle
 10
1681.501629652649
 20
1956.691832208149
 30
0.0
 40
0.0168514273597561
100
AcDbArc
 50
207.4261933274184
 51
320.6582450822781
  0
ARC
  5
1353
330
1F
100
AcDbEntity
  8
SANINDUSA
100
AcDbCircle
 10
1681.510345576384
 20
1956.68479078469
 30
0.0
 40
0.005647410117561
100
AcDbArc
 50
319.8493354911335
 51
24.90590709287771
  0
ARC
  5
1354
330
1F
100
AcDbEntity
  8
SANINDUSA
100
AcDbCircle
 10
1681.613662423124
 20
1956.656835135787
 30
0.0
 40
0.0056472268712461
100
AcDbArc
 50
304.2281788741612
 51
9.28619573401599
  0
ARC
  5
1355
330
1F
100
AcDbEntity
  8
SANINDUSA
100
AcDbCircle
 10
1681.602942269703
 20
1956.655289215441
 30
0.0
 40
0.0164776131396051
100
AcDbArc
 50
8.576106387075459
 51
128.2691140877975
  0
ARC
  5
1356
330
1F
100
AcDbEntity
  8
SANINDUSA
100
AcDbCircle
 10
1681.596176895532
 20
1956.663750486068
 30
0.0
 40
0.0056448544233736
100
AcDbArc
 50
127.5481602009687
 51
192.6370661900889
  0
ARC
  5
1357
330
1F
100
AcDbEntity
  8
SANINDUSA
100
AcDbCircle
 10
1681.607164076864
 20
1956.665963929021
 30
0.0
 40
0.0168518860191308
100
AcDbArc
 50
191.80781254609
 51
305.03740794276
  0
ARC
  5
1358
330
1F
100
AcDbEntity
  8
SANINDUSA
100
AcDbCircle
 10
1681.705637852154
 20
1956.60209370873
 30
0.0
 40
0.0056471366795289
100
AcDbArc
 50
288.6070999943404
 51
353.6657792976349
  0
ARC
  5
1359
330
1F
100
AcDbEntity
  8
SANINDUSA
100
AcDbCircle
 10
1681.694897001408
 20
1956.603490975029
 30
0.0
 40
0.0164778339861572
100
AcDbArc
 50
352.9573967287078
 51
112.6492704289906
  0
ARC
  5
135A
330
1F
100
AcDbEntity
  8
SANINDUSA
100
AcDbCircle
 10
1681.690659458188
 20
1956.613461627249
 30
0.0
 40
0.0056447412092741
100
AcDbArc
 50
111.9270365054479
 51
177.0167966552232
  0
ARC
  5
135B
330
1F
100
AcDbEntity
  8
SANINDUSA
100
AcDbCircle
 10
1681.701837254578
 20
1956.612635377521
 30
0.0
 40
0.0168521483764892
100
AcDbArc
 50
176.1892239830901
 51
289.4174431920756
  0
ARC
  5
135C
330
1F
100
AcDbEntity
  8
SANINDUSA
100
AcDbCircle
 10
1681.779478319226
 20
1956.524609922296
 30
0.0
 40
0.0056471656953513
100
AcDbArc
 50
272.9864117586298
 51
338.0447785535033
  0
ARC
  5
135D
330
1F
100
AcDbEntity
  8
SANINDUSA
100
AcDbCircle
 10
1681.769510318294
 20
1956.528847340573
 30
0.0
 40
0.0164777980836577
100
AcDbArc
 50
337.3380280420442
 51
97.03033088704749
  0
ARC
  5
135E
330
1F
100
AcDbEntity
  8
SANINDUSA
100
AcDbCircle
 10
1681.768113555784
 20
1956.539590662339
 30
0.0
 40
0.005644744357052
100
AcDbArc
 50
96.30624367801374
 51
161.3959004720426
  0
ARC
  5
135F
330
1F
100
AcDbEntity
  8
SANINDUSA
100
AcDbCircle
 10
1681.778656161662
 20
1956.535785546632
 30
0.0
 40
0.0168521383406851
100
AcDbArc
 50
160.5700183743232
 51
273.7983405722242
  0
ARC
  5
1360
330
1F
100
AcDbEntity
  8
SANINDUSA
100
AcDbCircle
 10
1681.829729823609
 20
1956.430106978012
 30
0.0
 40
0.005647305505233
100
AcDbArc
 50
257.3663137606974
 51
322.4234837432251
  0
ARC
  5
1361
330
1F
100
AcDbEntity
  8
SANINDUSA
100
AcDbCircle
 10
1681.821271196961
 20
1956.436871533155
 30
0.0
 40
0.0164775158466059
100
AcDbArc
 50
321.717817261802
 51
81.41198797231025
  0
ARC
  5
1362
330
1F
100
AcDbEntity
  8
SANINDUSA
100
AcDbCircle
 10
1681.822818167646
 20
1956.447593854877
 30
0.0
 40
0.0056448629540961
100
AcDbArc
 50
80.68601164946732
 51
145.7746375343944
  0
ARC
  5
1363
330
1F
100
AcDbEntity
  8
SANINDUSA
100
AcDbCircle
 10
1681.831946604585
 20
1956.441090924613
 30
0.0
 40
0.0168518588227796
100
AcDbArc
 50
144.9499653598903
 51
258.1798398754098
  0
ARC
  5
1364
330
1F
100
AcDbEntity
  8
SANINDUSA
100
AcDbCircle
 10
1681.85268071914
 20
1956.325565104917
 30
0.0
 40
0.0056475155679034
100
AcDbArc
 50
241.7468343927344
 51
306.8022703754356
  0
ARC
  5
1365
330
1F
100
AcDbEntity
  8
SANINDUSA
100
AcDbCircle
 10
1681.846356401963
 20
1956.334356939136
 30
0.0
 40
0.0164770691323565
100
AcDbArc
 50
306.0968254929866
 51
65.79376115312168
  0
ARC
  5
1366
330
1F
100
AcDbEntity
  8
SANINDUSA
100
AcDbCircle
 10
1681.850732593437
 20
1956.344266343912
 30
0.0
 40
0.0056450626106331
100
AcDbArc
 50
65.06640770641571
 51
130.1533741375305
  0
ARC
  5
1367
330
1F
100
AcDbEntity
  8
SANINDUSA
100
AcDbCircle
 10
1681.857772420167
 20
1956.335546119042
 30
0.0
 40
0.0168513908910802
100
AcDbArc
 50
129.3290802974167
 51
242.5615063463506
  0
ARC
  5
1368
330
1F
100
AcDbEntity
  8
SANINDUSA
100
AcDbCircle
 10
1681.485720072167
 20
1956.580960246787
 30
0.0
 40
0.016830898697626
100
AcDbArc
 50
16.8877270167762
 51
129.9701851054126
  0
ARC
  5
1369
330
1F
100
AcDbEntity
  8
SANINDUSA
100
AcDbCircle
 10
1681.47847304524
 20
1956.589468971386
 30
0.0
 40
0.0056552683067409
100
AcDbArc
 50
129.078000633673
 51
197.7851727560463
  0
ARC
  5
136A
330
1F
100
AcDbEntity
  8
SANINDUSA
100
AcDbCircle
 10
1681.489193131048
 20
1956.592630905421
 30
0.0
 40
0.0168308986976281
100
AcDbArc
 50
196.8877270167762
 51
309.9701851054127
  0
ARC
  5
136B
330
1F
100
AcDbEntity
  8
SANINDUSA
100
AcDbCircle
 10
1681.496440157974
 20
1956.584122180823
 30
0.0
 40
0.0056552683067427
100
AcDbArc
 50
309.078000633673
 51
17.78517275604629
  0
ARC
  5
136C
330
1F
100
AcDbEntity
  8
SANINDUSA
100
AcDbCircle
 10
1681.568428237952
 20
1956.55260520788
 30
0.0
 40
0.0056551583070784
100
AcDbArc
 50
297.6271046411292
 51
6.335193101943791
  0
ARC
  5
136D
330
1F
100
AcDbEntity
  8
SANINDUSA
100
AcDbCircle
 10
1681.55729347077
 20
1956.551633903036
 30
0.0
 40
0.0168311674430098
100
AcDbArc
 50
5.43887714005029
 51
118.5199106118257
  0
ARC
  5
136E
330
1F
100
AcDbEntity
  8
SANINDUSA
100
AcDbCircle
 10
1681.551879575077
 20
1956.561412247715
 30
0.0
 40
0.0056551583071099
100
AcDbArc
 50
117.6271046411292
 51
186.3351931019438
  0
ARC
  5
136F
330
1F
100
AcDbEntity
  8
SANINDUSA
100
AcDbCircle
 10
1681.563014342259
 20
1956.562383552559
 30
0.0
 40
0.0168311674430108
100
AcDbArc
 50
185.4388771400503
 51
298.5199106118257
  0
ARC
  5
1370
330
1F
100
AcDbEntity
  8
SANINDUSA
100
AcDbCircle
 10
1681.632727847921
 20
1956.507425302451
 30
0.0
 40
0.0056551038186523
100
AcDbArc
 50
286.1763143535301
 51
354.884831093559
  0
ARC
  5
1371
330
1F
100
AcDbEntity
  8
SANINDUSA
100
AcDbCircle
 10
1681.621621639304
 20
1956.508683431236
 30
0.0
 40
0.016831307659826
100
AcDbArc
 50
353.9898142362842
 51
107.07012577426
  0
ARC
  5
1372
330
1F
100
AcDbEntity
  8
SANINDUSA
100
AcDbCircle
 10
1681.618256423328
 20
1956.519342043566
 30
0.0
 40
0.0056551038186481
100
AcDbArc
 50
106.1763143535301
 51
174.8848310935589
  0
ARC
  5
1373
330
1F
100
AcDbEntity
  8
SANINDUSA
100
AcDbCircle
 10
1681.629362631945
 20
1956.518083914781
 30
0.0
 40
0.016831307659825
100
AcDbArc
 50
173.9898142362841
 51
287.0701257742601
  0
ARC
  5
1374
330
1F
100
AcDbEntity
  8
SANINDUSA
100
AcDbCircle
 10
1681.686779654249
 20
1956.45038080442
 30
0.0
 40
0.0056551134295363
100
AcDbArc
 50
274.7257543504341
 51
343.4341437603999
  0
ARC
  5
1375
330
1F
100
AcDbEntity
  8
SANINDUSA
100
AcDbCircle
 10
1681.676144181485
 20
1956.453818385515
 30
0.0
 40
0.0168312972429378
100
AcDbArc
 50
342.5403906227282
 51
95.62079663970829
  0
ARC
  5
1376
330
1F
100
AcDbEntity
  8
SANINDUSA
100
AcDbCircle
 10
1681.674961559635
 20
1956.46493286783
 30
0.0
 40
0.0056551134295386
100
AcDbArc
 50
94.7257543504341
 51
163.4341437603999
  0
ARC
  5
1377
330
1F
100
AcDbEntity
  8
SANINDUSA
100
AcDbCircle
 10
1681.685597032399
 20
1956.461495286735
 30
0.0
 40
0.0168312972429407
100
AcDbArc
 50
162.5403906227281
 51
275.6207966397083
  0
ARC
  5
1378
330
1F
100
AcDbEntity
  8
SANINDUSA
100
AcDbCircle
 10
1681.728432234451
 20
1956.383742295339
 30
0.0
 40
0.0056551856250635
100
AcDbArc
 50
263.2755129271152
 51
331.9832394893964
  0
ARC
  5
1379
330
1F
100
AcDbEntity
  8
SANINDUSA
100
AcDbCircle
 10
1681.718690972717
 20
1956.389222517458
 30
0.0
 40
0.0168311378347463
100
AcDbArc
 50
331.0905154464309
 51
84.17181748167067
  0
ARC
  5
137A
330
1F
100
AcDbEntity
  8
SANINDUSA
100
AcDbCircle
 10
1681.719737906434
 20
1956.400350371256
 30
0.0
 40
0.0056551856250861
100
AcDbArc
 50
83.27551292711524
 51
151.9832394893964
  0
ARC
  5
137B
330
1F
100
AcDbEntity
  8
SANINDUSA
100
AcDbCircle
 10
1681.729479168168
 20
1956.394870149137
 30
0.0
 40
0.0168311378347469
100
AcDbArc
 50
151.0905154464308
 51
264.1718174816706
  0
ARC
  5
137C
330
1F
100
AcDbEntity
  8
SANINDUSA
100
AcDbCircle
 10
1681.756027703457
 20
1956.31016221533
 30
0.0
 40
0.0056553090261419
100
AcDbArc
 50
251.8256281204312
 51
320.5322608200066
  0
ARC
  5
137D
330
1F
100
AcDbEntity
  8
SANINDUSA
100
AcDbCircle
 10
1681.747568518642
 20
1956.317466877173
 30
0.0
 40
0.0168308545660523
100
AcDbArc
 50
319.6401690049904
 51
72.72302740226776
  0
ARC
  5
137E
330
1F
100
AcDbEntity
  8
SANINDUSA
100
AcDbCircle
 10
1681.750803185856
 20
1956.328165152536
 30
0.0
 40
0.0056553090261586
100
AcDbArc
 50
71.82562812043125
 51
140.5322608200066
  0
ARC
  5
137F
330
1F
100
AcDbEntity
  8
SANINDUSA
100
AcDbCircle
 10
1681.75926237067
 20
1956.320860490694
 30
0.0
 40
0.0168308545660469
100
AcDbArc
 50
139.6401690049903
 51
252.7230274022677
  0
ARC
  5
1380
330
1F
100
AcDbEntity
  8
SANINDUSA
100
AcDbCircle
 10
1681.469066435336
 20
1956.468523679115
 30
0.0
 40
0.0168311571865377
100
AcDbArc
 50
5.989783193164416
 51
119.0708705401023
  0
ARC
  5
1381
330
1F
100
AcDbEntity
  8
SANINDUSA
100
AcDbCircle
 10
1681.463558772595
 20
1956.47824950138
 30
0.0
 40
0.0056551624367799
100
AcDbArc
 50
118.1781043252243
 51
186.8861589896316
  0
ARC
  5
1382
330
1F
100
AcDbEntity
  8
SANINDUSA
100
AcDbCircle
 10
1681.474683672407
 20
1956.479327814423
 30
0.0
 40
0.0168311571865373
100
AcDbArc
 50
185.9897831931644
 51
299.0708705401024
  0
ARC
  5
1383
330
1F
100
AcDbEntity
  8
SANINDUSA
100
AcDbCircle
 10
1681.480191335148
 20
1956.469601992157
 30
0.0
 40
0.0056551624367654
100
AcDbArc
 50
298.1781043252244
 51
6.886158989631585
  0
ARC
  5
1384
330
1F
100
AcDbEntity
  8
SANINDUSA
100
AcDbCircle
 10
1681.521782658018
 20
1956.443214915857
 30
0.0
 40
0.0056551192649308
100
AcDbArc
 50
291.0075841667863
 51
359.7159859970352
  0
ARC
  5
1385
330
1F
100
AcDbEntity
  8
SANINDUSA
100
AcDbCircle
 10
1681.510610008552
 20
1956.443533375772
 30
0.0
 40
0.016831266112289
100
AcDbArc
 50
358.820413269075
 51
111.9009335934017
  0
ARC
  5
1386
330
1F
100
AcDbEntity
  8
SANINDUSA
100
AcDbCircle
 10
1681.506359209785
 20
1956.453870692027
 30
0.0
 40
0.0056551192649098
100
AcDbArc
 50
111.0075841667863
 51
179.7159859970351
  0
ARC
  5
1387
330
1F
100
AcDbEntity
  8
SANINDUSA
100
AcDbCircle
 10
1681.517531859251
 20
1956.453552232111
 30
0.0
 40
0.0168312661122873
100
AcDbArc
 50
178.820413269075
 51
291.9009335934017
  0
ARC
  5
1388
330
1F
100
AcDbEntity
  8
SANINDUSA
100
AcDbCircle
 10
1681.559755539097
 20
1956.411843209497
 30
0.0
 40
0.0056551004703466
100
AcDbArc
 50
283.837135603988
 51
352.5456721343333
  0
ARC
  5
1389
330
1F
100
AcDbEntity
  8
SANINDUSA
100
AcDbCircle
 10
1681.548709909988
 20
1956.413553510438
 30
0.0
 40
0.0168313180788822
100
AcDbArc
 50
351.6509231117236
 51
104.7311861365483
  0
ARC
  5
138A
330
1F
100
AcDbEntity
  8
SANINDUSA
100
AcDbCircle
 10
1681.545782458382
 20
1956.424340588012
 30
0.0
 40
0.0056551004703462
100
AcDbArc
 50
103.837135603988
 51
172.5456721343332
  0
ARC
  5
138B
330
1F
100
AcDbEntity
  8
SANINDUSA
100
AcDbCircle
 10
1681.556828087491
 20
1956.422630287071
 30
0.0
 40
0.0168313180788817
100
AcDbArc
 50
171.6509231117235
 51
284.7311861365483
  0
ARC
  5
138C
330
1F
100
AcDbEntity
  8
SANINDUSA
100
AcDbCircle
 10
1681.593516100448
 20
1956.375977520895
 30
0.0
 40
0.0056551072240852
100
AcDbArc
 50
276.6667865897687
 51
345.3752369549694
  0
ARC
  5
138D
330
1F
100
AcDbEntity
  8
SANINDUSA
100
AcDbCircle
 10
1681.582770290628
 20
1956.379052947204
 30
0.0
 40
0.0168313098476351
100
AcDbArc
 50
344.4812809437631
 51
97.56161245497096
  0
ARC
  5
138E
330
1F
100
AcDbEntity
  8
SANINDUSA
100
AcDbCircle
 10
1681.581211950209
 20
1956.390121022733
 30
0.0
 40
0.0056551072240904
100
AcDbArc
 50
96.66678658976868
 51
165.3752369549693
  0
ARC
  5
138F
330
1F
100
AcDbEntity
  8
SANINDUSA
100
AcDbCircle
 10
1681.59195776003
 20
1956.387045596424
 30
0.0
 40
0.0168313098476344
100
AcDbArc
 50
164.481280943763
 51
277.5616124549709
  0
ARC
  5
1390
330
1F
100
AcDbEntity
  8
SANINDUSA
100
AcDbCircle
 10
1681.622536345256
 20
1956.336178780323
 30
0.0
 40
0.0056551391053649
100
AcDbArc
 50
269.4965588877728
 51
338.2047075689142
  0
ARC
  5
1391
330
1F
100
AcDbEntity
  8
SANINDUSA
100
AcDbCircle
 10
1681.612258473178
 20
1956.340571245872
 30
0.0
 40
0.0168312419315821
100
AcDbArc
 50
337.3114644640937
 51
90.39218598537893
  0
ARC
  5
1392
330
1F
100
AcDbEntity
  8
SANINDUSA
100
AcDbCircle
 10
1681.612093575894
 20
1956.351747172707
 30
0.0
 40
0.005655139105352
100
AcDbArc
 50
89.49655888777284
 51
158.2047075689142
  0
ARC
  5
1393
330
1F
100
AcDbEntity
  8
SANINDUSA
100
AcDbCircle
 10
1681.622371447972
 20
1956.347354707157
 30
0.0
 40
0.0168312419315802
100
AcDbArc
 50
157.3114644640937
 51
270.3921859853789
  0
ARC
  5
1394
330
1F
100
AcDbEntity
  8
SANINDUSA
100
AcDbCircle
 10
1681.646362414723
 20
1956.293069427142
 30
0.0
 40
0.0056551941277479
100
AcDbArc
 50
262.3264666824085
 51
331.03411698397
  0
ARC
  5
1395
330
1F
100
AcDbEntity
  8
SANINDUSA
100
AcDbCircle
 10
1681.636713280962
 20
1956.29871022566
 30
0.0
 40
0.0168311185634901
100
AcDbArc
 50
330.1414622554567
 51
83.22287097397243
  0
ARC
  5
1396
330
1F
100
AcDbEntity
  8
SANINDUSA
100
AcDbCircle
 10
1681.637944351698
 20
1956.309819188239
 30
0.0
 40
0.0056551941277548
100
AcDbArc
 50
82.32646668240846
 51
151.0341169839699
  0
ARC
  5
1397
330
1F
100
AcDbEntity
  8
SANINDUSA
100
AcDbCircle
 10
1681.64759348546
 20
1956.304178389722
 30
0.0
 40
0.0168311185634899
100
AcDbArc
 50
150.1414622554567
 51
263.2228709739724
  0
CIRCLE
  5
1398
330
1F
100
AcDbEntity
  8
SANINDUSA
100
AcDbCircle
 10
1681.847636236541
 20
1956.68163046063
 30
0.0
 40
0.0441416504483788
  0
LINE
  5
1594
330
1F
100
AcDbEntity
  8
SANINDUSA
100
AcDbLine
 10
1684.680251552924
 20
1956.453207138312
 30
0.0
 11
1684.688251518296
 21
1956.483063415539
 31
0.0
  0
LINE
  5
1595
330
1F
100
AcDbEntity
  8
SANINDUSA
100
AcDbLine
 10
1684.674741521646
 20
1956.471280454681
 30
0.0
 11
1684.678592260033
 21
1956.48565160599
 31
0.0
  0
ARC
  5
1596
330
1F
100
AcDbEntity
  8
SANINDUSA
100
AcDbCircle
 10
1684.674258558732
 20
1956.471409864204
 30
0.0
 40
0.0005
100
AcDbArc
 50
194.9999999969657
 51
345.0000000030343
  0
ARC
  5
1597
330
1F
100
AcDbEntity
  8
SANINDUSA
100
AcDbCircle
 10
1684.675421923793
 20
1956.454501233537
 30
0.0
 40
0.0049999999998921
100
AcDbArc
 50
270.0
 51
345.0000000030343
  0
ARC
  5
1598
330
1F
100
AcDbEntity
  8
SANINDUSA
100
AcDbCircle
 10
1684.673095193672
 20
1956.454501233538
 30
0.0
 40
0.0050000000000894
100
AcDbArc
 50
194.9999999969657
 51
270.0
  0
LINE
  5
1599
330
1F
100
AcDbEntity
  8
SANINDUSA
100
AcDbLine
 10
1684.660159667293
 20
1956.483458758683
 30
0.0
 11
1684.668265564541
 21
1956.453207138312
 31
0.0
  0
LINE
  5
159A
330
1F
100
AcDbEntity
  8
SANINDUSA
100
AcDbLine
 10
1684.669818925556
 20
1956.486046949134
 30
0.0
 11
1684.673775595819
 21
1956.471280454681
 31
0.0
  0
ARC
  5
159B
330
1F
100
AcDbEntity
  8
SANINDUSA
100
AcDbCircle
 10
1684.655330038161
 20
1956.482164663457
 30
0.0
 40
0.0050000000000019
100
AcDbArc
 50
14.99999999696573
 51
89.39999999469881
  0
ARC
  5
159C
330
1F
100
AcDbEntity
  8
SANINDUSA
100
AcDbCircle
 10
1684.655330038161
 20
1956.482164663457
 30
0.0
 40
0.0150000000000019
100
AcDbArc
 50
14.99999999696573
 51
16.27685279074122
  0
ARC
  5
159D
330
1F
100
AcDbEntity
  8
SANINDUSA
100
AcDbCircle
 10
1684.670208776486
 20
1956.486508986865
 30
0.0
 40
0.0005
100
AcDbArc
 50
89.39958335072892
 51
196.2768527907412
  0
LINE
  5
159E
330
1F
100
AcDbEntity
  8
SANINDUSA
100
AcDbLine
 10
1684.618343371949
 20
1956.487552275247
 30
0.0
 11
1684.655382397082
 21
1956.487164389304
 31
0.0
  0
ARC
  5
159F
330
1F
100
AcDbEntity
  8
SANINDUSA
100
AcDbCircle
 10
1684.618291013029
 20
1956.4825525494
 30
0.0
 40
0.0050000000000016
100
AcDbArc
 50
89.39999999469881
 51
165.0000000030343
  0
ARC
  5
15A0
330
1F
100
AcDbEntity
  8
SANINDUSA
100
AcDbCircle
 10
1684.618291013029
 20
1956.4825525494
 30
0.0
 40
0.0150000000000017
100
AcDbArc
 50
162.5227305544269
 51
165.0000000030343
  0
ARC
  5
15A1
330
1F
100
AcDbEntity
  8
SANINDUSA
100
AcDbCircle
 10
1684.603506552353
 20
1956.487207624321
 30
0.0
 40
0.0005
100
AcDbArc
 50
342.5227305544269
 51
89.39999999469881
  0
LINE
  5
15A2
330
1F
100
AcDbEntity
  8
SANINDUSA
100
AcDbLine
 10
1684.605251552924
 20
1956.453207138312
 30
0.0
 11
1684.613461383897
 21
1956.483846644626
 31
0.0
  0
LINE
  5
15A3
330
1F
100
AcDbEntity
  8
SANINDUSA
100
AcDbLine
 10
1684.599741521645
 20
1956.471280454681
 30
0.0
 11
1684.603802125634
 21
1956.486434835077
 31
0.0
  0
ARC
  5
15A4
330
1F
100
AcDbEntity
  8
SANINDUSA
100
AcDbCircle
 10
1684.599258558732
 20
1956.471409864204
 30
0.0
 40
0.0005
100
AcDbArc
 50
194.9999999969657
 51
345.0000000030343
  0
ARC
  5
15A5
330
1F
100
AcDbEntity
  8
SANINDUSA
100
AcDbCircle
 10
1684.600421923792
 20
1956.454501233537
 30
0.0
 40
0.0049999999999209
100
AcDbArc
 50
270.0
 51
345.0000000030343
  0
ARC
  5
15A6
330
1F
100
AcDbEntity
  8
SANINDUSA
100
AcDbCircle
 10
1684.598095193672
 20
1956.454501233538
 30
0.0
 40
0.0050000000001054
100
AcDbArc
 50
194.9999999969657
 51
270.0
  0
LINE
  5
15A7
330
1F
100
AcDbEntity
  8
SANINDUSA
100
AcDbLine
 10
1684.584948620587
 20
1956.484246395714
 30
0.0
 11
1684.593265564541
 21
1956.453207138312
 31
0.0
  0
LINE
  5
15A8
330
1F
100
AcDbEntity
  8
SANINDUSA
100
AcDbLine
 10
1684.594607878849
 20
1956.486834586165
 30
0.0
 11
1684.598775595819
 21
1956.471280454681
 31
0.0
  0
ARC
  5
15A9
330
1F
100
AcDbEntity
  8
SANINDUSA
100
AcDbCircle
 10
1684.580118991455
 20
1956.482952300488
 30
0.0
 40
0.0050000000000012
100
AcDbArc
 50
14.99999999696573
 51
89.39999999469881
  0
ARC
  5
15AA
330
1F
100
AcDbEntity
  8
SANINDUSA
100
AcDbCircle
 10
1684.580118991455
 20
1956.482952300488
 30
0.0
 40
0.0150000000000012
100
AcDbArc
 50
14.99999999696573
 51
16.27726943688441
  0
ARC
  5
15AB
330
1F
100
AcDbEntity
  8
SANINDUSA
100
AcDbCircle
 10
1684.594997698188
 20
1956.487296732091
 30
0.0
 40
0.0005
100
AcDbArc
 50
89.39999999469881
 51
196.2772694368844
  0
LINE
  5
15AC
330
1F
100
AcDbEntity
  8
SANINDUSA
100
AcDbLine
 10
1684.54355323755
 20
1956.488335504334
 30
0.0
 11
1684.580171350376
 21
1956.487952026335
 31
0.0
  0
ARC
  5
15AD
330
1F
100
AcDbEntity
  8
SANINDUSA
100
AcDbCircle
 10
1684.54350087863
 20
1956.483335778487
 30
0.0
 40
0.0050000000000014
100
AcDbArc
 50
89.39999999469881
 51
165.0000000030343
  0
LINE
  5
15AE
330
1F
100
AcDbEntity
  8
SANINDUSA
100
AcDbLine
 10
1684.530251552924
 20
1956.453207138312
 30
0.0
 11
1684.538671249498
 21
1956.484629873712
 31
0.0
  0
LINE
  5
15AF
330
1F
100
AcDbEntity
  8
SANINDUSA
100
AcDbLine
 10
1684.520249233715
 20
1956.462242414493
 30
0.0
 11
1684.526954928946
 21
1956.487268409795
 31
0.0
  0
ARC
  5
15B0
330
1F
100
AcDbEntity
  8
SANINDUSA
100
AcDbCircle
 10
1684.519283307889
 20
1956.462501233538
 30
0.0
 40
0.001
100
AcDbArc
 50
270.0
 51
345.0000000030343
  0
ARC
  5
15B1
330
1F
100
AcDbEntity
  8
SANINDUSA
100
AcDbCircle
 10
1684.525421923792
 20
1956.454501233538
 30
0.0
 40
0.0050000000002147
100
AcDbArc
 50
270.0
 51
345.0000000030343
  0
ARC
  5
15B2
330
1F
100
AcDbEntity
  8
SANINDUSA
100
AcDbCircle
 10
1684.335374562716
 20
1956.451566675754
 30
0.0
 40
0.0020669774875122
100
AcDbArc
 50
181.3484610255248
 51
272.2084581975871
  0
LWPOLYLINE
  5
15B3
330
1F
100
AcDbEntity
  8
SANINDUSA
100
AcDbPolyline
 90
       10
 70
   128
 43
0.0
 10
1684.334504073727
 20
1956.56456290981
 10
1684.334349526573
 20
1956.55183487214
 10
1684.334200070603
 20
1956.539119547134
 10
1684.334055853372
 20
1956.526429488426
 10
1684.333917017263
 20
1956.513777224702
 10
1684.333783699347
 20
1956.501175247336
 10
1684.333656031246
 20
1956.488635998054
 10
1684.333534139005
 20
1956.476171856651
 10
1684.333418142967
 20
1956.463795128771
 10
1684.333308157652
 20
1956.451518033755
  0
ARC
  5
15B4
330
1F
100
AcDbEntity
  8
SANINDUSA
100
AcDbCircle
 10
1684.339503692644
 20
1956.564501233538
 30
0.0
 40
0.0049999993278997
100
AcDbArc
 50
90.02970774424881
 51
179.2932239624891
  0
LWPOLYLINE
  5
15B7
330
1F
100
AcDbEntity
  8
SANINDUSA
100
AcDbPolyline
 90
        9
 70
   128
 43
0.0
 10
1684.443822111654
 20
1956.569500203466
 10
1684.447733439333
 20
1956.569130505939
 10
1684.451524259286
 20
1956.568104223206
 10
1684.454502436943
 20
1956.566736632255
 10
1684.457215244738
 20
1956.564903261284
 10
1684.459094390161
 20
1956.563122658416
 10
1684.460660560043
 20
1956.561064710367
 10
1684.461715611697
 20
1956.559023966395
 10
1684.462391432858
 20
1956.556830631278
  0
LWPOLYLINE
  5
15B8
330
1F
100
AcDbEntity
  8
SANINDUSA
100
AcDbPolyline
 90
        3
 70
   128
 43
0.0
 10
1684.462391432858
 20
1956.556830631278
 10
1684.46636756332
 20
1956.537508593051
 10
1684.468871003617
 20
1956.525353042941
  0
LWPOLYLINE
  5
15B9
330
1F
100
AcDbEntity
  8
SANINDUSA
100
AcDbPolyline
 90
       10
 70
   128
 43
0.0
 10
1684.468871003617
 20
1956.525353042941
 10
1684.470200322628
 20
1956.520874634619
 10
1684.472248170282
 20
1956.516674433886
 10
1684.474980599062
 20
1956.51281655109
 10
1684.478275484445
 20
1956.509423946743
 10
1684.482360037298
 20
1956.50635041986
 10
1684.486863440804
 20
1956.503927785681
 10
1684.492180327521
 20
1956.502047203268
 10
1684.497723861149
 20
1956.501002650249
 10
1684.501103298687
 20
1956.500782609158
  0
LWPOLYLINE
  5
15BA
330
1F
100
AcDbEntity
  8
SANINDUSA
100
AcDbPolyline
 90
       12
 70
   128
 43
0.0
 10
1684.450637384607
 20
1956.554413064506
 10
1684.457216341767
 20
1956.522452659594
 42
0.0213865525663329
 10
1684.457226744177
 20
1956.52241119086
 10
1684.458978940636
 20
1956.516508129863
 10
1684.461890429523
 20
1956.510536573467
 10
1684.465724988188
 20
1956.505122606958
 10
1684.470316051989
 20
1956.500395382427
 10
1684.475872746342
 20
1956.496214104795
 10
1684.481991502156
 20
1956.492922481704
 10
1684.489050122138
 20
1956.490425848374
 10
1684.496217476185
 20
1956.489075323273
 10
1684.500323608708
 20
1956.488807965801
  0
LINE
  5
15BC
330
1F
100
AcDbEntity
  8
SANINDUSA
100
AcDbLine
 10
1684.501499929934
 20
1956.500776559643
 30
0.0
 11
1685.055253707474
 21
1956.494977451663
 31
0.0
  0
LINE
  5
15BD
330
1F
100
AcDbEntity
  8
SANINDUSA
100
AcDbLine
 10
1684.971058167612
 20
1956.483858519521
 30
0.0
 11
1684.977462460239
 21
1956.483791451474
 31
0.0
  0
ARC
  5
15BE
330
1F
100
AcDbEntity
  8
SANINDUSA
100
AcDbCircle
 10
1685.055148989635
 20
1956.484977999606
 30
0.0
 40
0.0100000003625711
100
AcDbArc
 50
44.69992146350392
 51
89.40000003377932
  0
LINE
  5
15BF
330
1F
100
AcDbEntity
  8
SANINDUSA
100
AcDbLine
 10
1685.067814205797
 20
1956.486396208372
 30
0.0
 11
1685.062256994273
 21
1956.492011937146
 31
0.0
  0
ARC
  5
15C0
330
1F
100
AcDbEntity
  8
SANINDUSA
100
AcDbCircle
 10
1685.064260203506
 20
1956.482879239645
 30
0.0
 40
0.0050000001311446
100
AcDbArc
 50
359.9999996743112
 51
44.69992132527951
  0
LINE
  5
15C1
330
1F
100
AcDbEntity
  8
SANINDUSA
100
AcDbLine
 10
1685.069260203637
 20
1956.482879239617
 30
0.0
 11
1685.069260203637
 21
1956.469501233538
 31
0.0
  0
ARC
  5
15C2
330
1F
100
AcDbEntity
  8
SANINDUSA
100
AcDbCircle
 10
1685.067260203637
 20
1956.469501233538
 30
0.0
 40
0.0019999999999999
100
AcDbArc
 50
270.0
 51
0.0
  0
LINE
  5
15C3
330
1F
100
AcDbEntity
  8
SANINDUSA
100
AcDbLine
 10
1685.060189936267
 20
1956.467501233538
 30
0.0
 11
1685.067260203637
 21
1956.467501233538
 31
0.0
  0
ARC
  5
15C4
330
1F
100
AcDbEntity
  8
SANINDUSA
100
AcDbCircle
 10
1685.060189936267
 20
1956.469501233538
 30
0.0
 40
0.002
100
AcDbArc
 50
182.0000000037536
 51
270.0
  0
LINE
  5
15C5
330
1F
100
AcDbEntity
  8
SANINDUSA
100
AcDbLine
 10
1685.057885795247
 20
1956.478175782702
 30
0.0
 11
1685.058191154613
 21
1956.469431434544
 31
0.0
  0
ARC
  5
15C6
330
1F
100
AcDbEntity
  8
SANINDUSA
100
AcDbCircle
 10
1685.052888841112
 20
1956.478001285218
 30
0.0
 40
0.0050000000000001
100
AcDbArc
 50
2.000000003753602
 51
89.39999999469881
  0
LINE
  5
15C7
330
1F
100
AcDbEntity
  8
SANINDUSA
100
AcDbLine
 10
1684.992294043944
 20
1956.483636129815
 30
0.0
 11
1685.052941200033
 21
1956.483001011065
 31
0.0
  0
ARC
  5
15C8
330
1F
100
AcDbEntity
  8
SANINDUSA
100
AcDbCircle
 10
1684.992241685023
 20
1956.478636403969
 30
0.0
 40
0.0049999999998633
100
AcDbArc
 50
89.39999999469881
 51
165.0000000030343
  0
ARC
  5
15C9
330
1F
100
AcDbEntity
  8
SANINDUSA
100
AcDbCircle
 10
1684.992241685023
 20
1956.478636403969
 30
0.0
 40
0.0149999999998633
100
AcDbArc
 50
162.522730566853
 51
165.0000000030343
  0
ARC
  5
15CA
330
1F
100
AcDbEntity
  8
SANINDUSA
100
AcDbCircle
 10
1684.977457224347
 20
1956.48329147889
 30
0.0
 40
0.0005
100
AcDbArc
 50
342.522730566853
 51
89.39999999469881
  0
LINE
  5
15CB
330
1F
100
AcDbEntity
  8
SANINDUSA
100
AcDbLine
 10
1684.982931044849
 20
1956.463207138312
 30
0.0
 11
1684.987412055892
 21
1956.479930499194
 31
0.0
  0
LINE
  5
15CC
330
1F
100
AcDbEntity
  8
SANINDUSA
100
AcDbLine
 10
1684.974741521646
 20
1956.471280454681
 30
0.0
 11
1684.977752797629
 21
1956.482518689645
 31
0.0
  0
ARC
  5
15CD
330
1F
100
AcDbEntity
  8
SANINDUSA
100
AcDbCircle
 10
1684.974258558733
 20
1956.471409864204
 30
0.0
 40
0.0005
100
AcDbArc
 50
194.9999999969657
 51
345.0000000030343
  0
ARC
  5
15CE
330
1F
100
AcDbEntity
  8
SANINDUSA
100
AcDbCircle
 10
1684.978101415717
 20
1956.464501233537
 30
0.0
 40
0.0049999999998672
100
AcDbArc
 50
270.0
 51
345.0000000030343
  0
LINE
  5
15CF
330
1F
100
AcDbEntity
  8
SANINDUSA
100
AcDbLine
 10
1684.970415701749
 20
1956.459501233538
 30
0.0
 11
1684.978101415717
 21
1956.459501233538
 31
0.0
  0
ARC
  5
15D0
330
1F
100
AcDbEntity
  8
SANINDUSA
100
AcDbCircle
 10
1684.970415701749
 20
1956.464501233537
 30
0.0
 40
0.0049999999999927
100
AcDbArc
 50
194.9999999969657
 51
270.0
  0
LINE
  5
15D1
330
1F
100
AcDbEntity
  8
SANINDUSA
100
AcDbLine
 10
1684.961003854119
 20
1956.480308210559
 30
0.0
 11
1684.965586072617
 21
1956.463207138312
 31
0.0
  0
LINE
  5
15D2
330
1F
100
AcDbEntity
  8
SANINDUSA
100
AcDbLine
 10
1684.970663112382
 20
1956.48289640101
 30
0.0
 11
1684.97377559582
 21
1956.471280454681
 31
0.0
  0
ARC
  5
15D3
330
1F
100
AcDbEntity
  8
SANINDUSA
100
AcDbCircle
 10
1684.956174224987
 20
1956.479014115334
 30
0.0
 40
0.0050000000000929
100
AcDbArc
 50
14.99999999696573
 51
89.39999999469881
  0
ARC
  5
15D4
330
1F
100
AcDbEntity
  8
SANINDUSA
100
AcDbCircle
 10
1684.956174224987
 20
1956.479014115334
 30
0.0
 40
0.0150000000000929
100
AcDbArc
 50
14.99999999696573
 51
16.27726943688441
  0
ARC
  5
15D5
330
1F
100
AcDbEntity
  8
SANINDUSA
100
AcDbCircle
 10
1684.97105293172
 20
1956.483358546937
 30
0.0
 40
0.0005
100
AcDbArc
 50
89.39999999469881
 51
196.2772694368844
  0
LINE
  5
15D6
330
1F
100
AcDbEntity
  8
SANINDUSA
100
AcDbLine
 10
1684.917503909545
 20
1956.484419358902
 30
0.0
 11
1684.956226583908
 21
1956.484013841181
 31
0.0
  0
ARC
  5
15D7
330
1F
100
AcDbEntity
  8
SANINDUSA
100
AcDbCircle
 10
1684.917451550624
 20
1956.479419633055
 30
0.0
 40
0.0050000000000361
100
AcDbArc
 50
89.39999999469881
 51
165.0000000030343
  0
ARC
  5
15D8
330
1F
100
AcDbEntity
  8
SANINDUSA
100
AcDbCircle
 10
1684.917451550624
 20
1956.479419633055
 30
0.0
 40
0.0150000000000361
100
AcDbArc
 50
162.5227305544269
 51
165.0000000030343
  0
ARC
  5
15D9
330
1F
100
AcDbEntity
  8
SANINDUSA
100
AcDbCircle
 10
1684.902667089948
 20
1956.484074707976
 30
0.0
 40
0.0005
100
AcDbArc
 50
342.5227305544269
 51
89.39999999469881
  0
LINE
  5
15DA
330
1F
100
AcDbEntity
  8
SANINDUSA
100
AcDbLine
 10
1684.905251552924
 20
1956.453207138312
 30
0.0
 11
1684.912621921492
 21
1956.48071372828
 31
0.0
  0
LINE
  5
15DB
330
1F
100
AcDbEntity
  8
SANINDUSA
100
AcDbLine
 10
1684.899741521646
 20
1956.471280454681
 30
0.0
 11
1684.90296266323
 21
1956.483301918731
 31
0.0
  0
ARC
  5
15DC
330
1F
100
AcDbEntity
  8
SANINDUSA
100
AcDbCircle
 10
1684.899258558733
 20
1956.471409864204
 30
0.0
 40
0.0005
100
AcDbArc
 50
194.9999999969657
 51
345.0000000030343
  0
ARC
  5
15DD
330
1F
100
AcDbEntity
  8
SANINDUSA
100
AcDbCircle
 10
1684.900421923793
 20
1956.454501233537
 30
0.0
 40
0.0049999999999794
100
AcDbArc
 50
270.0
 51
345.0000000030343
  0
ARC
  5
15DE
330
1F
100
AcDbEntity
  8
SANINDUSA
100
AcDbCircle
 10
1684.898095193673
 20
1956.454501233538
 30
0.0
 40
0.0050000000000509
100
AcDbArc
 50
194.9999999969657
 51
270.0
  0
LINE
  5
15DF
330
1F
100
AcDbEntity
  8
SANINDUSA
100
AcDbLine
 10
1684.885792807412
 20
1956.48109584759
 30
0.0
 11
1684.893265564541
 21
1956.453207138312
 31
0.0
  0
LINE
  5
15E0
330
1F
100
AcDbEntity
  8
SANINDUSA
100
AcDbLine
 10
1684.895452065675
 20
1956.483684038041
 30
0.0
 11
1684.89877559582
 21
1956.471280454681
 31
0.0
  0
ARC
  5
15E1
330
1F
100
AcDbEntity
  8
SANINDUSA
100
AcDbCircle
 10
1684.880963178281
 20
1956.479801752364
 30
0.0
 40
0.0050000000000002
100
AcDbArc
 50
14.99999999696573
 51
89.39999999469881
  0
ARC
  5
15E2
330
1F
100
AcDbEntity
  8
SANINDUSA
100
AcDbCircle
 10
1684.880963178281
 20
1956.479801752364
 30
0.0
 40
0.0150000000000002
100
AcDbArc
 50
14.99999999696573
 51
16.27726943688441
  0
ARC
  5
15E3
330
1F
100
AcDbEntity
  8
SANINDUSA
100
AcDbCircle
 10
1684.895841885014
 20
1956.484146183967
 30
0.0
 40
0.0005
100
AcDbArc
 50
89.39999999469881
 51
196.2772694368844
  0
LINE
  5
15E4
330
1F
100
AcDbEntity
  8
SANINDUSA
100
AcDbLine
 10
1684.842713775146
 20
1956.485202587988
 30
0.0
 11
1684.881015537201
 21
1956.484801478211
 31
0.0
  0
ARC
  5
15E5
330
1F
100
AcDbEntity
  8
SANINDUSA
100
AcDbCircle
 10
1684.842661416225
 20
1956.480202862141
 30
0.0
 40
0.0050000000000053
100
AcDbArc
 50
89.39999999469881
 51
165.0000000030343
  0
ARC
  5
15E6
330
1F
100
AcDbEntity
  8
SANINDUSA
100
AcDbCircle
 10
1684.842661416225
 20
1956.480202862141
 30
0.0
 40
0.0150000000000053
100
AcDbArc
 50
162.5227305544269
 51
165.0000000030343
  0
ARC
  5
15E7
330
1F
100
AcDbEntity
  8
SANINDUSA
100
AcDbCircle
 10
1684.827876955549
 20
1956.484857937062
 30
0.0
 40
0.0005
100
AcDbArc
 50
342.5227305544269
 51
89.39999999469881
  0
LINE
  5
15E8
330
1F
100
AcDbEntity
  8
SANINDUSA
100
AcDbLine
 10
1684.830251552924
 20
1956.453207138312
 30
0.0
 11
1684.837831787094
 21
1956.481496957367
 31
0.0
  0
LINE
  5
15E9
330
1F
100
AcDbEntity
  8
SANINDUSA
100
AcDbLine
 10
1684.824741521646
 20
1956.471280454681
 30
0.0
 11
1684.828172528831
 21
1956.484085147818
 31
0.0
  0
ARC
  5
15EA
330
1F
100
AcDbEntity
  8
SANINDUSA
100
AcDbCircle
 10
1684.824258558733
 20
1956.471409864204
 30
0.0
 40
0.0005
100
AcDbArc
 50
194.9999999969657
 51
345.0000000030343
  0
ARC
  5
15EB
330
1F
100
AcDbEntity
  8
SANINDUSA
100
AcDbCircle
 10
1684.825421923793
 20
1956.454501233537
 30
0.0
 40
0.0049999999998329
100
AcDbArc
 50
270.0
 51
345.0000000030343
  0
ARC
  5
15EC
330
1F
100
AcDbEntity
  8
SANINDUSA
100
AcDbCircle
 10
1684.823095193673
 20
1956.454501233538
 30
0.0
 40
0.0050000000002353
100
AcDbArc
 50
194.9999999969657
 51
270.0
  0
LINE
  5
15ED
330
1F
100
AcDbEntity
  8
SANINDUSA
100
AcDbLine
 10
1684.810581760706
 20
1956.481883484621
 30
0.0
 11
1684.818265564541
 21
1956.453207138312
 31
0.0
  0
LINE
  5
15EE
330
1F
100
AcDbEntity
  8
SANINDUSA
100
AcDbLine
 10
1684.820241018969
 20
1956.484471675072
 30
0.0
 11
1684.823775595819
 21
1956.471280454681
 31
0.0
  0
ARC
  5
15EF
330
1F
100
AcDbEntity
  8
SANINDUSA
100
AcDbCircle
 10
1684.805752131574
 20
1956.480589389395
 30
0.0
 40
0.0050000000000042
100
AcDbArc
 50
14.99999999696573
 51
89.39999999469881
  0
ARC
  5
15F0
330
1F
100
AcDbEntity
  8
SANINDUSA
100
AcDbCircle
 10
1684.805752131574
 20
1956.480589389395
 30
0.0
 40
0.0150000000000042
100
AcDbArc
 50
14.99999999696573
 51
16.27726943688441
  0
ARC
  5
15F1
330
1F
100
AcDbEntity
  8
SANINDUSA
100
AcDbCircle
 10
1684.820630838307
 20
1956.484933820998
 30
0.0
 40
0.0005
100
AcDbArc
 50
89.39999999469881
 51
196.2772694368844
  0
LINE
  5
15F2
330
1F
100
AcDbEntity
  8
SANINDUSA
100
AcDbLine
 10
1684.767923640747
 20
1956.485985817074
 30
0.0
 11
1684.805804490495
 21
1956.485589115242
 31
0.0
  0
ARC
  5
15F3
330
1F
100
AcDbEntity
  8
SANINDUSA
100
AcDbCircle
 10
1684.767871281826
 20
1956.480986091228
 30
0.0
 40
0.005000000000003
100
AcDbArc
 50
89.39999999469881
 51
165.0000000030343
  0
ARC
  5
15F4
330
1F
100
AcDbEntity
  8
SANINDUSA
100
AcDbCircle
 10
1684.767871281826
 20
1956.480986091228
 30
0.0
 40
0.015000000000003
100
AcDbArc
 50
162.5227305544269
 51
165.0000000030343
  0
ARC
  5
15F5
330
1F
100
AcDbEntity
  8
SANINDUSA
100
AcDbCircle
 10
1684.75308682115
 20
1956.485641166149
 30
0.0
 40
0.0005
100
AcDbArc
 50
342.5227305544269
 51
89.39999999469881
  0
LINE
  5
15F6
330
1F
100
AcDbEntity
  8
SANINDUSA
100
AcDbLine
 10
1684.755251552924
 20
1956.453207138312
 30
0.0
 11
1684.763041652695
 21
1956.482280186453
 31
0.0
  0
LINE
  5
15F7
330
1F
100
AcDbEntity
  8
SANINDUSA
100
AcDbLine
 10
1684.749741521646
 20
1956.471280454681
 30
0.0
 11
1684.753382394432
 21
1956.484868376904
 31
0.0
  0
ARC
  5
15F8
330
1F
100
AcDbEntity
  8
SANINDUSA
100
AcDbCircle
 10
1684.749258558732
 20
1956.471409864204
 30
0.0
 40
0.0005
100
AcDbArc
 50
194.9999999969657
 51
345.0000000030343
  0
ARC
  5
15F9
330
1F
100
AcDbEntity
  8
SANINDUSA
100
AcDbCircle
 10
1684.750421923792
 20
1956.454501233537
 30
0.0
 40
0.0050000000000018
100
AcDbArc
 50
270.0
 51
345.0000000030343
  0
ARC
  5
15FA
330
1F
100
AcDbEntity
  8
SANINDUSA
100
AcDbCircle
 10
1684.748095193672
 20
1956.454501233537
 30
0.0
 40
0.0049999999998013
100
AcDbArc
 50
194.9999999969657
 51
270.0
  0
LINE
  5
15FB
330
1F
100
AcDbEntity
  8
SANINDUSA
100
AcDbLine
 10
1684.735370713999
 20
1956.482671121652
 30
0.0
 11
1684.743265564541
 21
1956.453207138312
 31
0.0
  0
LINE
  5
15FC
330
1F
100
AcDbEntity
  8
SANINDUSA
100
AcDbLine
 10
1684.745029972262
 20
1956.485259312103
 30
0.0
 11
1684.748775595819
 21
1956.471280454681
 31
0.0
  0
ARC
  5
15FD
330
1F
100
AcDbEntity
  8
SANINDUSA
100
AcDbCircle
 10
1684.730541084868
 20
1956.481377026426
 30
0.0
 40
0.0050000000000028
100
AcDbArc
 50
14.99999999696573
 51
89.39999999469881
  0
ARC
  5
15FE
330
1F
100
AcDbEntity
  8
SANINDUSA
100
AcDbCircle
 10
1684.730541084868
 20
1956.481377026426
 30
0.0
 40
0.0150000000000028
100
AcDbArc
 50
14.99999999696573
 51
16.27726943688441
  0
ARC
  5
15FF
330
1F
100
AcDbEntity
  8
SANINDUSA
100
AcDbCircle
 10
1684.745419791601
 20
1956.48572145803
 30
0.0
 40
0.0005
100
AcDbArc
 50
89.39999999469881
 51
196.2772694368844
  0
LINE
  5
1600
330
1F
100
AcDbEntity
  8
SANINDUSA
100
AcDbLine
 10
1684.693133506348
 20
1956.486769046161
 30
0.0
 11
1684.730593443788
 21
1956.486376752273
 31
0.0
  0
ARC
  5
1601
330
1F
100
AcDbEntity
  8
SANINDUSA
100
AcDbCircle
 10
1684.693081147427
 20
1956.481769320314
 30
0.0
 40
0.0050000000000018
100
AcDbArc
 50
89.39999999469881
 51
165.0000000030343
  0
ARC
  5
1602
330
1F
100
AcDbEntity
  8
SANINDUSA
100
AcDbCircle
 10
1684.693081147427
 20
1956.481769320314
 30
0.0
 40
0.0150000000000018
100
AcDbArc
 50
162.5233744092765
 51
165.0000000030343
  0
ARC
  5
1603
330
1F
100
AcDbEntity
  8
SANINDUSA
100
AcDbCircle
 10
1684.678296634442
 20
1956.486424229099
 30
0.0
 40
0.0005
100
AcDbArc
 50
342.5233744092765
 51
89.39958335072892
  0
LWPOLYLINE
  5
1604
330
1F
100
AcDbEntity
  8
SANINDUSA
100
AcDbPolyline
 90
       11
 70
   128
 43
0.0
 10
1684.443628745171
 20
1956.557501219767
 10
1684.44363573038
 20
1956.557501186636
 10
1684.443663670971
 20
1956.557501006124
 10
1684.443719550354
 20
1956.55750041553
 10
1684.4439430276
 20
1956.557495024559
 10
1684.44483530324
 20
1956.557426643466
 10
1684.448319004641
 20
1956.556428963001
 10
1684.449403814403
 20
1956.555792246572
 10
1684.450317977014
 20
1956.554915798967
 10
1684.45058122541
 20
1956.554480426507
 10
1684.450629993953
 20
1956.554341296797
  0
LINE
  5
1605
330
1F
100
AcDbEntity
  8
SANINDUSA
100
AcDbLine
 10
1684.34940578007
 20
1956.462501233538
 30
0.0
 11
1684.34940578007
 21
1956.556501233538
 31
0.0
  0
LINE
  5
1606
330
1F
100
AcDbEntity
  8
SANINDUSA
100
AcDbLine
 10
1684.35040578007
 20
1956.557501233538
 30
0.0
 11
1684.443584200304
 21
1956.557501233538
 31
0.0
  0
ARC
  5
1607
330
1F
100
AcDbEntity
  8
SANINDUSA
100
AcDbCircle
 10
1684.35040578007
 20
1956.556501233538
 30
0.0
 40
0.001
100
AcDbArc
 50
90.0
 51
180.0
  0
LINE
  5
1608
330
1F
100
AcDbEntity
  8
SANINDUSA
100
AcDbLine
 10
1684.339501100154
 20
1956.569501232193
 30
0.0
 11
1684.443618461097
 21
1956.569501233538
 31
0.0
  0
LINE
  5
1609
330
1F
100
AcDbEntity
  8
SANINDUSA
100
AcDbLine
 10
1684.598095193672
 20
1956.449501233538
 30
0.0
 11
1684.600421923792
 21
1956.449501233538
 31
0.0
  0
LINE
  5
160A
330
1F
100
AcDbEntity
  8
SANINDUSA
100
AcDbLine
 10
1684.673095193672
 20
1956.449501233538
 30
0.0
 11
1684.675421923792
 21
1956.449501233538
 31
0.0
  0
LINE
  5
160B
330
1F
100
AcDbEntity
  8
SANINDUSA
100
AcDbLine
 10
1684.748095193672
 20
1956.449501233538
 30
0.0
 11
1684.750421923792
 21
1956.449501233538
 31
0.0
  0
LINE
  5
160C
330
1F
100
AcDbEntity
  8
SANINDUSA
100
AcDbLine
 10
1684.823095193672
 20
1956.449501233538
 30
0.0
 11
1684.825421923792
 21
1956.449501233538
 31
0.0
  0
LINE
  5
160D
330
1F
100
AcDbEntity
  8
SANINDUSA
100
AcDbLine
 10
1684.898095193673
 20
1956.449501233538
 30
0.0
 11
1684.900421923793
 21
1956.449501233538
 31
0.0
  0
LINE
  5
160E
330
1F
100
AcDbEntity
  8
SANINDUSA
100
AcDbLine
 10
1684.335454214362
 20
1956.449501233538
 30
0.0
 11
1684.525421923792
 21
1956.449501233538
 31
0.0
  0
LINE
  5
160F
330
1F
100
AcDbEntity
  8
SANINDUSA
100
AcDbLine
 10
1684.35040578007
 20
1956.461501233538
 30
0.0
 11
1684.519283307889
 21
1956.461501233538
 31
0.0
  0
ARC
  5
1610
330
1F
100
AcDbEntity
  8
SANINDUSA
100
AcDbCircle
 10
1684.35040578007
 20
1956.462501233538
 30
0.0
 40
0.001
100
AcDbArc
 50
180.0
 51
270.0
  0
ARC
  5
1612
330
1F
100
AcDbEntity
  8
SANINDUSA
100
AcDbCircle
 10
1685.251760426985
 20
1956.451501233544
 30
0.0
 40
0.0020000000067919
100
AcDbArc
 50
269.9999998045867
 51
0.9999998013109962
  0
ARC
  5
1613
330
1F
100
AcDbEntity
  8
SANINDUSA
100
AcDbCircle
 10
1685.158142074644
 20
1956.454501233585
 30
0.0
 40
0.0050000000473658
100
AcDbArc
 50
188.0000004715975
 51
270.0000001302755
  0
LINE
  5
1614
330
1F
100
AcDbEntity
  8
SANINDUSA
100
AcDbLine
 10
1685.149827809143
 20
1956.477733823324
 30
0.0
 11
1685.153190734259
 21
1956.453805368033
 31
0.0
  0
ARC
  5
1615
330
1F
100
AcDbEntity
  8
SANINDUSA
100
AcDbCircle
 10
1685.144876468771
 20
1956.477037957786
 30
0.0
 40
0.0050000000329142
100
AcDbArc
 50
8.000000340776717
 51
85.2829406120575
  0
ARC
  5
1616
330
1F
100
AcDbEntity
  8
SANINDUSA
100
AcDbCircle
 10
1685.14559437365
 20
1956.477030439663
 30
0.0
 40
0.0050000000000003
100
AcDbArc
 50
93.51705967167127
 51
177.9999999962464
  0
LINE
  5
1617
330
1F
100
AcDbEntity
  8
SANINDUSA
100
AcDbLine
 10
1685.140325962822
 20
1956.469431434544
 30
0.0
 11
1685.140597419515
 21
1956.477204937147
 31
0.0
  0
ARC
  5
1618
330
1F
100
AcDbEntity
  8
SANINDUSA
100
AcDbCircle
 10
1685.138327181168
 20
1956.469501233538
 30
0.0
 40
0.0020000000000002
100
AcDbArc
 50
270.0
 51
357.9999999962464
  0
LINE
  5
1619
330
1F
100
AcDbEntity
  8
SANINDUSA
100
AcDbLine
 10
1685.131256913799
 20
1956.467501233538
 30
0.0
 11
1685.138327181168
 21
1956.467501233538
 31
0.0
  0
ARC
  5
161A
330
1F
100
AcDbEntity
  8
SANINDUSA
100
AcDbCircle
 10
1685.131256913799
 20
1956.469501233538
 30
0.0
 40
0.0020000000000001
100
AcDbArc
 50
180.0
 51
270.0
  0
LINE
  5
161B
330
1F
100
AcDbEntity
  8
SANINDUSA
100
AcDbLine
 10
1685.129256913799
 20
1956.469501233538
 30
0.0
 11
1685.129256913799
 21
1956.482010787488
 31
0.0
  0
ARC
  5
161C
330
1F
100
AcDbEntity
  8
SANINDUSA
100
AcDbCircle
 10
1685.134256913814
 20
1956.482010787489
 30
0.0
 40
0.00500000001513
100
AcDbArc
 50
134.7000526607322
 51
180.0000000130275
  0
LINE
  5
161D
330
1F
100
AcDbEntity
  8
SANINDUSA
100
AcDbLine
 10
1685.13639554565
 20
1956.491161483107
 30
0.0
 11
1685.130739937022
 21
1956.485564781636
 31
0.0
  0
ARC
  5
161E
330
1F
100
AcDbEntity
  8
SANINDUSA
100
AcDbCircle
 10
1685.143429499231
 20
1956.484053494808
 30
0.0
 40
0.0100000000315023
100
AcDbArc
 50
89.39999999469881
 51
134.7000526330487
  0
ARC
  5
161F
330
1F
100
AcDbEntity
  8
SANINDUSA
100
AcDbCircle
 10
1685.163179986653
 20
1956.523858987268
 30
0.0
 40
0.0300101339392926
100
AcDbArc
 50
269.4164056453437
 51
349.9835938097427
  0
LINE
  5
1620
330
1F
100
AcDbEntity
  8
SANINDUSA
100
AcDbLine
 10
1685.192732705826
 20
1956.518639319796
 30
0.0
 11
1685.199515411742
 21
1956.557105956203
 31
0.0
  0
ARC
  5
1621
330
1F
100
AcDbEntity
  8
SANINDUSA
100
AcDbCircle
 10
1685.214291768781
 20
1956.554496179615
 30
0.0
 40
0.0150050545221057
100
AcDbArc
 50
90.01619251777963
 51
169.9838070103858
  0
ARC
  5
1622
330
1F
100
AcDbEntity
  8
SANINDUSA
100
AcDbCircle
 10
1685.246787547634
 20
1956.564501233514
 30
0.0
 40
0.005000000023789
100
AcDbArc
 50
1.000000270458799
 51
90.0000001302755
  0
LINE
  5
1623
330
1F
100
AcDbEntity
  8
SANINDUSA
100
AcDbLine
 10
1685.251786786134
 20
1956.56458849557
 30
0.0
 11
1685.253760122382
 21
1956.451536138351
 31
0.0
  0
LINE
  5
1624
330
1F
100
AcDbEntity
  8
SANINDUSA
100
AcDbLine
 10
1685.204550398965
 20
1956.516555541663
 30
0.0
 11
1685.211333104877
 21
1956.55502217807
 31
0.0
  0
ARC
  5
1625
330
1F
100
AcDbEntity
  8
SANINDUSA
100
AcDbCircle
 10
1685.163176592131
 20
1956.523863076112
 30
0.0
 40
0.0420141875044866
100
AcDbArc
 50
269.4164056583706
 51
349.9835938225717
  0
LINE
  5
1626
330
1F
100
AcDbEntity
  8
SANINDUSA
100
AcDbLine
 10
1685.160504974211
 20
1956.48187456468
 30
0.0
 11
1685.162748662206
 21
1956.481851067975
 31
0.0
  0
ARC
  5
1627
330
1F
100
AcDbEntity
  8
SANINDUSA
100
AcDbCircle
 10
1685.160494502427
 20
1956.48087461951
 30
0.0
 40
0.001
100
AcDbArc
 50
89.39999999469881
 51
188.0000000773221
  0
LINE
  5
1628
330
1F
100
AcDbEntity
  8
SANINDUSA
100
AcDbLine
 10
1685.159504234358
 20
1956.480735446408
 30
0.0
 11
1685.162086445386
 21
1956.462362060435
 31
0.0
  0
LINE
  5
1629
330
1F
100
AcDbEntity
  8
SANINDUSA
100
AcDbLine
 10
1685.239925817163
 20
1956.556518685944
 30
0.0
 11
1685.241566593279
 21
1956.462518685944
 31
0.0
  0
ARC
  5
162A
330
1F
100
AcDbEntity
  8
SANINDUSA
100
AcDbCircle
 10
1685.240566745584
 20
1956.462501233538
 30
0.0
 40
0.001
100
AcDbArc
 50
270.0
 51
1.000000009947443
  0
ARC
  5
162B
330
1F
100
AcDbEntity
  8
SANINDUSA
100
AcDbCircle
 10
1685.214287528147
 20
1956.554501233525
 30
0.0
 40
0.003000000012798
100
AcDbArc
 50
89.99999973944897
 51
169.999999801808
  0
LINE
  5
162C
330
1F
100
AcDbEntity
  8
SANINDUSA
100
AcDbLine
 10
1685.143534217072
 20
1956.494052946533
 30
0.0
 11
1685.162874319432
 21
1956.493850410051
 31
0.0
  0
LINE
  5
162D
330
1F
100
AcDbEntity
  8
SANINDUSA
100
AcDbLine
 10
1685.21428752816
 20
1956.557501233538
 30
0.0
 11
1685.238925969468
 21
1956.557501233538
 31
0.0
  0
ARC
  5
162E
330
1F
100
AcDbEntity
  8
SANINDUSA
100
AcDbCircle
 10
1685.238925969468
 20
1956.556501233538
 30
0.0
 40
0.001
100
AcDbArc
 50
1.000000009947443
 51
90.0
  0
LINE
  5
162F
330
1F
100
AcDbEntity
  8
SANINDUSA
100
AcDbLine
 10
1685.240566745584
 20
1956.461501233538
 30
0.0
 11
1685.163076713454
 21
1956.461501233538
 31
0.0
  0
ARC
  5
1630
330
1F
100
AcDbEntity
  8
SANINDUSA
100
AcDbCircle
 10
1685.163076713454
 20
1956.462501233538
 30
0.0
 40
0.001
100
AcDbArc
 50
188.0000000773221
 51
270.0
  0
LINE
  5
1631
330
1F
100
AcDbEntity
  8
SANINDUSA
100
AcDbLine
 10
1685.21428752816
 20
1956.569501233538
 30
0.0
 11
1685.246787547623
 21
1956.569501233538
 31
0.0
  0
LINE
  5
1632
330
1F
100
AcDbEntity
  8
SANINDUSA
100
AcDbLine
 10
1685.158142074656
 20
1956.449501233538
 30
0.0
 11
1685.251760426978
 21
1956.449501233538
 31
0.0
  0
LINE
  5
1634
330
1F
100
AcDbEntity
  8
SANINDUSA
100
AcDbLine
 10
1685.055253707474
 20
1956.494977451663
 30
0.0
 11
1685.143534217072
 21
1956.494052946533
 31
0.0
  0
LINE
  5
1637
330
1F
100
AcDbEntity
  8
SANINDUSA
100
AcDbLine
 10
1685.131256913799
 20
1956.467501233538
 30
0.0
 11
1685.067260203637
 21
1956.467501233538
 31
0.0
  0
LINE
  5
1660
330
1F
100
AcDbEntity
  8
SANINDUSA
100
AcDbLine
 10
1684.443584200304
 20
1956.569501233538
 30
0.0
 11
1684.905618736113
 21
1956.569501233538
 31
0.0
  0
LINE
  5
1664
330
1F
100
AcDbEntity
  8
SANINDUSA
100
AcDbLine
 10
1685.045420928853
 20
1956.569501233538
 30
0.0
 11
1685.21428752816
 21
1956.569501233538
 31
0.0
  0
LINE
  5
1667
330
1F
100
AcDbEntity
  8
SANINDUSA
100
AcDbLine
 10
1685.100355330415
 20
1956.449501233538
 30
0.0
 11
1685.022475892314
 21
1956.449501233538
 31
0.0
  0
LINE
  5
1668
330
1F
100
AcDbEntity
  8
SANINDUSA
100
AcDbLine
 10
1684.996195371032
 20
1956.449501233538
 30
0.0
 11
1684.900421923793
 21
1956.449501233538
 31
0.0
  0
LINE
  5
1671
330
1F
100
AcDbEntity
  8
SANINDUSA
100
AcDbLine
 10
1685.158142074656
 20
1956.449501233538
 30
0.0
 11
1685.145376441171
 21
1956.449501233538
 31
0.0
  0
LINE
  5
1674
330
1F
100
AcDbEntity
  8
SANINDUSA
100
AcDbLine
 10
1684.898080691781
 20
1956.449501233538
 30
0.0
 11
1684.825421923792
 21
1956.449501233538
 31
0.0
  0
LINE
  5
1675
330
1F
100
AcDbEntity
  8
SANINDUSA
100
AcDbLine
 10
1684.822978799763
 20
1956.449501233538
 30
0.0
 11
1684.750421923792
 21
1956.449501233538
 31
0.0
  0
LINE
  5
1676
330
1F
100
AcDbEntity
  8
SANINDUSA
100
AcDbLine
 10
1684.747996128543
 20
1956.449501233538
 30
0.0
 11
1684.675421923792
 21
1956.449501233538
 31
0.0
  0
LINE
  5
1678
330
1F
100
AcDbEntity
  8
SANINDUSA
100
AcDbLine
 10
1684.638292872881
 20
1956.449501233538
 30
0.0
 11
1684.600421923792
 21
1956.449501233538
 31
0.0
  0
LINE
  5
167A
330
1F
100
AcDbEntity
  8
SANINDUSA
100
AcDbLine
 10
1684.527300194883
 20
1956.449501233538
 30
0.0
 11
1684.525421923792
 21
1956.449501233538
 31
0.0
  0
LINE
  5
16A3
330
1F
100
AcDbEntity
  8
SANINDUSA
100
AcDbLine
 10
1684.533805857668
 20
1956.449501233538
 30
0.0
 11
1684.527300194883
 21
1956.449501233538
 31
0.0
  0
LINE
  5
16BD
330
1F
100
AcDbEntity
  8
SANINDUSA
100
AcDbLine
 10
1684.598025726742
 20
1956.449501233538
 30
0.0
 11
1684.533805857668
 21
1956.449501233538
 31
0.0
  0
LINE
  5
16C5
330
1F
100
AcDbEntity
  8
SANINDUSA
100
AcDbLine
 10
1685.022475892314
 20
1956.449501233538
 30
0.0
 11
1684.998133202697
 21
1956.449501233538
 31
0.0
  0
LINE
  5
16C7
330
1F
100
AcDbEntity
  8
SANINDUSA
100
AcDbLine
 10
1684.998133202697
 20
1956.449501233538
 30
0.0
 11
1684.996195371032
 21
1956.449501233538
 31
0.0
  0
LINE
  5
16DA
330
1F
100
AcDbEntity
  8
SANINDUSA
100
AcDbLine
 10
1685.145376441171
 20
1956.449501233538
 30
0.0
 11
1685.14114555068
 21
1956.449501233538
 31
0.0
  0
LINE
  5
16F1
330
1F
100
AcDbEntity
  8
SANINDUSA
100
AcDbLine
 10
1685.14114555068
 20
1956.449501233538
 30
0.0
 11
1685.136664926078
 21
1956.449501233538
 31
0.0
  0
LINE
  5
16FC
330
1F
100
AcDbEntity
  8
SANINDUSA
100
AcDbLine
 10
1685.136659427932
 20
1956.449501233538
 30
0.0
 11
1685.113061821577
 21
1956.449501233538
 31
0.0
  0
LINE
  5
171B
330
1F
100
AcDbEntity
  8
SANINDUSA
100
AcDbLine
 10
1685.113061821577
 20
1956.449501233538
 30
0.0
 11
1685.100355330415
 21
1956.449501233538
 31
0.0
  0
LINE
  5
1720
330
1F
100
AcDbEntity
  8
SANINDUSA
100
AcDbLine
 10
1684.645862903613
 20
1956.449501233538
 30
0.0
 11
1684.638292872881
 21
1956.449501233538
 31
0.0
  0
LINE
  5
1722
330
1F
100
AcDbEntity
  8
SANINDUSA
100
AcDbLine
 10
1684.672970852993
 20
1956.449501233538
 30
0.0
 11
1684.645862903613
 21
1956.449501233538
 31
0.0
  0
LINE
  5
1736
330
1F
100
AcDbEntity
  8
SANINDUSA
100
AcDbLine
 10
1684.905618736113
 20
1956.569501233538
 30
0.0
 11
1685.045420928853
 21
1956.569501233538
 31
0.0
  0
CIRCLE
  5
173A
330
1F
100
AcDbEntity
  8
SANINDUSA
100
AcDbCircle
 10
1681.847550018255
 20
1956.681543564171
 30
0.0
 40
0.03
  0
LINE
  5
173B
330
1F
100
AcDbEntity
  8
SANINDUSA
100
AcDbLine
 10
1684.90267232584
 20
1956.48457468056
 30
0.0
 11
1684.895847120906
 21
1956.484646156552
 31
0.0
  0
LINE
  5
173C
330
1F
100
AcDbEntity
  8
SANINDUSA
100
AcDbLine
 10
1684.827882191441
 20
1956.485357909647
 30
0.0
 11
1684.820636074199
 21
1956.485433793583
 31
0.0
  0
LINE
  5
173D
330
1F
100
AcDbEntity
  8
SANINDUSA
100
AcDbLine
 10
1684.753092057042
 20
1956.486141138734
 30
0.0
 11
1684.745425027493
 21
1956.486221430614
 31
0.0
  0
LINE
  5
173E
330
1F
100
AcDbEntity
  8
SANINDUSA
100
AcDbLine
 10
1684.67830187397
 20
1956.486924201645
 30
0.0
 11
1684.670214016013
 21
1956.487008959411
 31
0.0
  0
LINE
  5
173F
330
1F
100
AcDbEntity
  8
SANINDUSA
100
AcDbLine
 10
1684.603511788244
 20
1956.487707596906
 30
0.0
 11
1684.59500293408
 21
1956.487796704676
 31
0.0
  0
LINE
  5
1740
330
1F
100
AcDbEntity
  8
SANINDUSA
100
AcDbLine
 10
1684.525999938482
 20
1956.488527169048
 30
0.0
 11
1684.500323608708
 21
1956.488807965801
 31
0.0
  0
ARC
  5
1741
330
1F
100
AcDbEntity
  8
SANINDUSA
100
AcDbCircle
 10
1684.52598900312
 20
1956.487527228841
 30
0.0
 40
0.001
100
AcDbArc
 50
345.0000000030343
 51
89.37343741785076
  0
LINE
  5
19EC
330
1F
100
AcDbEntity
  8
SANINDUSA
100
AcDbLine
 10
1683.332399370195
 20
1956.449501233538
 30
0.0
 11
1683.329399370195
 21
1956.449501233538
 31
0.0
  0
ARC
  5
19ED
330
1F
100
AcDbEntity
  8
SANINDUSA
100
AcDbCircle
 10
1683.329399370195
 20
1956.451501233537
 30
0.0
 40
0.002
100
AcDbArc
 50
180.0
 51
270.0
  0
LINE
  5
19F0
330
1F
100
AcDbEntity
  8
SANINDUSA
100
AcDbLine
 10
1684.120270004532
 20
1956.449501233538
 30
0.0
 11
1683.332399370195
 21
1956.449501233538
 31
0.0
  0
LINE
  5
19F3
330
1F
100
AcDbEntity
  8
SANINDUSA
100
AcDbLine
 10
1684.123269547617
 20
1956.449501233538
 30
0.0
 11
1684.120270004532
 21
1956.449501233538
 31
0.0
  0
ARC
  5
19F5
330
1F
100
AcDbEntity
  8
SANINDUSA
100
AcDbCircle
 10
1684.123269547617
 20
1956.451501233537
 30
0.0
 40
0.002
100
AcDbArc
 50
270.0
 51
0.9999999969218754
  0
LINE
  5
19F7
330
1F
100
AcDbEntity
  8
SANINDUSA
100
AcDbLine
 10
1684.123295906772
 20
1956.56458849557
 30
0.0
 11
1684.125269243008
 21
1956.451536138351
 31
0.0
  0
LINE
  5
19FC
330
1F
100
AcDbEntity
  8
SANINDUSA
100
AcDbLine
 10
1683.327399370195
 20
1956.451501233537
 30
0.0
 11
1683.327399370195
 21
1956.564501233538
 31
0.0
  0
ARC
  5
19FE
330
1F
100
AcDbEntity
  8
SANINDUSA
100
AcDbCircle
 10
1683.332399370195
 20
1956.564501233538
 30
0.0
 40
0.005
100
AcDbArc
 50
90.0
 51
180.0
  0
LINE
  5
19FF
330
1F
100
AcDbEntity
  8
SANINDUSA
100
AcDbLine
 10
1683.332399370195
 20
1956.569501233538
 30
0.0
 11
1684.118296668296
 21
1956.569501233538
 31
0.0
  0
ARC
  5
1A01
330
1F
100
AcDbEntity
  8
SANINDUSA
100
AcDbCircle
 10
1684.118296668296
 20
1956.564501233538
 30
0.0
 40
0.0050000000000002
100
AcDbArc
 50
0.9999999969218754
 51
90.0
  0
ENDSEC
  0
SECTION
  2
OBJECTS
  0
DICTIONARY
  5
C
330
0
100
AcDbDictionary
281
     1
  3
ACAD_COLOR
350
BA9
  3
ACAD_GROUP
350
D
  3
ACAD_LAYOUT
350
1A
  3
ACAD_MATERIAL
350
BA8
  3
ACAD_MLEADERSTYLE
350
1C41
  3
ACAD_MLINESTYLE
350
17
  3
ACAD_PLOTSETTINGS
350
19
  3
ACAD_PLOTSTYLENAME
350
E
  3
ACAD_SCALELIST
350
1C2F
  3
ACAD_TABLESTYLE
350
BAA
  3
ACAD_VISUALSTYLE
350
1C1B
  3
ACDB_RECOMPOSE_DATA
350
1C6D
  3
AcDbVariableDictionary
350
3D
  3
ASE_INDEX_DICTIONARY
350
1BF5
  3
DWGPROPS
350
1C6E
  0
DICTIONARY
  5
1C48
330
10
100
AcDbDictionary
280
     1
281
     1
  3
ADSK_XREC_LAYER_RECONCILED
360
1C49
  0
DICTIONARY
  5
1C4A
330
2F
100
AcDbDictionary
280
     1
281
     1
  3
ADSK_XREC_LAYER_RECONCILED
360
1C4B
  0
DICTIONARY
  5
1C4C
330
30
100
AcDbDictionary
280
     1
281
     1
  3
ADSK_XREC_LAYER_RECONCILED
360
1C4D
  0
DICTIONARY
  5
1C4E
330
31
100
AcDbDictionary
280
     1
281
     1
  3
ADSK_XREC_LAYER_RECONCILED
360
1C4F
  0
DICTIONARY
  5
1C50
330
32
100
AcDbDictionary
280
     1
281
     1
  3
ADSK_XREC_LAYER_RECONCILED
360
1C51
  0
DICTIONARY
  5
1C52
330
33
100
AcDbDictionary
280
     1
281
     1
  3
ADSK_XREC_LAYER_RECONCILED
360
1C53
  0
DICTIONARY
  5
1C54
330
34
100
AcDbDictionary
280
     1
281
     1
  3
ADSK_XREC_LAYER_RECONCILED
360
1C55
  0
DICTIONARY
  5
1C56
330
35
100
AcDbDictionary
280
     1
281
     1
  3
ADSK_XREC_LAYER_RECONCILED
360
1C57
  0
DICTIONARY
  5
1C58
330
36
100
AcDbDictionary
280
     1
281
     1
  3
ADSK_XREC_LAYER_RECONCILED
360
1C59
  0
DICTIONARY
  5
1C5A
330
37
100
AcDbDictionary
280
     1
281
     1
  3
ADSK_XREC_LAYER_RECONCILED
360
1C5B
  0
DICTIONARY
  5
1C5C
330
5D6
100
AcDbDictionary
280
     1
281
     1
  3
ADSK_XREC_LAYER_RECONCILED
360
1C5D
  0
DICTIONARY
  5
1C5E
330
8AF
100
AcDbDictionary
280
     1
281
     1
  3
ADSK_XREC_LAYER_RECONCILED
360
1C5F
  0
DICTIONARY
  5
1C60
330
8F8
100
AcDbDictionary
280
     1
281
     1
  3
ADSK_XREC_LAYER_RECONCILED
360
1C61
  0
DICTIONARY
  5
1C62
330
91D
100
AcDbDictionary
280
     1
281
     1
  3
ADSK_XREC_LAYER_RECONCILED
360
1C63
  0
DICTIONARY
  5
1C64
330
BA5
100
AcDbDictionary
280
     1
281
     1
  3
ADSK_XREC_LAYER_RECONCILED
360
1C65
  0
DICTIONARY
  5
BA9
102
{ACAD_REACTORS
330
C
102
}
330
C
100
AcDbDictionary
281
     1
  0
DICTIONARY
  5
D
102
{ACAD_REACTORS
330
C
102
}
330
C
100
AcDbDictionary
281
     1
  0
DICTIONARY
  5
1A
102
{ACAD_REACTORS
330
C
102
}
330
C
100
AcDbDictionary
281
     1
  3
Layout1
350
1E
  3
Layout2
350
26
  3
Model
350
22
  0
DICTIONARY
  5
BA8
102
{ACAD_REACTORS
330
C
102
}
330
C
100
AcDbDictionary
281
     1
  3
ByBlock
350
1C0B
  3
ByLayer
350
1C03
  3
Global
350
1C13
  0
DICTIONARY
  5
1C41
102
{ACAD_REACTORS
330
C
102
}
330
C
100
AcDbDictionary
281
     1
  3
Standard
350
1C42
  0
DICTIONARY
  5
17
102
{ACAD_REACTORS
330
C
102
}
330
C
100
AcDbDictionary
281
     1
  3
Standard
350
18
  0
DICTIONARY
  5
19
102
{ACAD_REACTORS
330
C
102
}
330
C
100
AcDbDictionary
281
     1
  0
ACDBDICTIONARYWDFLT
  5
E
102
{ACAD_REACTORS
330
C
102
}
330
C
100
AcDbDictionary
281
     1
  3
Normal
350
F
100
AcDbDictionaryWithDefault
340
F
  0
DICTIONARY
  5
1C2F
102
{ACAD_REACTORS
330
C
102
}
330
C
100
AcDbDictionary
281
     1
  3
A0
350
1C30
  3
A1
350
1C31
  3
A2
350
1C32
  3
A3
350
1C33
  3
A4
350
1C34
  3
A5
350
1C35
  3
A6
350
1C36
  3
A7
350
1C37
  3
A8
350
1C38
  3
A9
350
1C39
  3
B0
350
1C3A
  3
B1
350
1C3B
  3
B2
350
1C3C
  3
B3
350
1C3D
  3
B4
350
1C3E
  3
B5
350
1C3F
  3
B6
350
1C40
  0
DICTIONARY
  5
BAA
102
{ACAD_REACTORS
330
C
102
}
330
C
100
AcDbDictionary
281
     1
  3
Standard
350
BAB
  0
DICTIONARY
  5
1C1B
102
{ACAD_REACTORS
330
C
102
}
330
C
100
AcDbDictionary
281
     1
  3
2dWireframe
350
1C21
  3
3D Hidden
350
1C23
  3
3dWireframe
350
1C22
  3
Basic
350
1C20
  3
Brighten
350
1C27
  3
ColorChange
350
1C2B
  3
Conceptual
350
1C24
  3
Dim
350
1C26
  3
EdgeColorOff
350
1C2E
  3
Facepattern
350
1C2A
  3
Flat
350
1C1C
  3
FlatWithEdges
350
1C1D
  3
Gouraud
350
1C1E
  3
GouraudWithEdges
350
1C1F
  3
JitterOff
350
1C2C
  3
Linepattern
350
1C29
  3
OverhangOff
350
1C2D
  3
Realistic
350
1C25
  3
Thicken
350
1C28
  0
XRECORD
  5
1C6D
102
{ACAD_REACTORS
330
C
102
}
330
C
100
AcDbXrecord
280
     1
 90
        1
330
BAB
  0
DICTIONARY
  5
3D
102
{ACAD_REACTORS
330
C
102
}
330
C
100
AcDbDictionary
281
     1
  3
CANNOSCALE
350
1C67
  3
CMLEADERSTYLE
350
1C66
  3
CTABLESTYLE
350
1BF8
  3
DIMASSOC
350
3F
  3
HIDETEXT
350
3E
  3
INDEXCTL
350
1C69
  3
PROJECTNAME
350
1C01
  3
SORTENTS
350
1C68
  3
XCLIPFRAME
350
1C6A
  0
DICTIONARY
  5
1BF5
102
{ACAD_REACTORS
330
C
102
}
330
C
100
AcDbDictionary
281
     1
  3
ASEBlockHierarchyIndexRecord
350
1BF6
1001
DCO15
1040
1534162595.437
  0
XRECORD
  5
1C6E
102
{ACAD_REACTORS
330
C
102
}
330
C
100
AcDbXrecord
280
     1
  1
DWGPROPS COOKIE
  2

  3

  4

  6

  7

  8
Julio
  9

300
=
301
=
302
=
303
=
304
=
305
=
306
=
307
=
308
=
309
=
 40
0.0026392476851852
 41
2453559.720908738
 42
2456141.625772385
  1

 90
        0
  0
XRECORD
  5
1C49
102
{ACAD_REACTORS
330
1C48
102
}
330
1C48
100
AcDbXrecord
280
     1
290
     1
  0
XRECORD
  5
1C4B
102
{ACAD_REACTORS
330
1C4A
102
}
330
1C4A
100
AcDbXrecord
280
     1
290
     1
  0
XRECORD
  5
1C4D
102
{ACAD_REACTORS
330
1C4C
102
}
330
1C4C
100
AcDbXrecord
280
     1
290
     1
  0
XRECORD
  5
1C4F
102
{ACAD_REACTORS
330
1C4E
102
}
330
1C4E
100
AcDbXrecord
280
     1
290
     1
  0
XRECORD
  5
1C51
102
{ACAD_REACTORS
330
1C50
102
}
330
1C50
100
AcDbXrecord
280
     1
290
     1
  0
XRECORD
  5
1C53
102
{ACAD_REACTORS
330
1C52
102
}
330
1C52
100
AcDbXrecord
280
     1
290
     1
  0
XRECORD
  5
1C55
102
{ACAD_REACTORS
330
1C54
102
}
330
1C54
100
AcDbXrecord
280
     1
290
     1
  0
XRECORD
  5
1C57
102
{ACAD_REACTORS
330
1C56
102
}
330
1C56
100
AcDbXrecord
280
     1
290
     1
  0
XRECORD
  5
1C59
102
{ACAD_REACTORS
330
1C58
102
}
330
1C58
100
AcDbXrecord
280
     1
290
     1
  0
XRECORD
  5
1C5B
102
{ACAD_REACTORS
330
1C5A
102
}
330
1C5A
100
AcDbXrecord
280
     1
290
     1
  0
XRECORD
  5
1C5D
102
{ACAD_REACTORS
330
1C5C
102
}
330
1C5C
100
AcDbXrecord
280
     1
290
     1
  0
XRECORD
  5
1C5F
102
{ACAD_REACTORS
330
1C5E
102
}
330
1C5E
100
AcDbXrecord
280
     1
290
     1
  0
XRECORD
  5
1C61
102
{ACAD_REACTORS
330
1C60
102
}
330
1C60
100
AcDbXrecord
280
     1
290
     1
  0
XRECORD
  5
1C63
102
{ACAD_REACTORS
330
1C62
102
}
330
1C62
100
AcDbXrecord
280
     1
290
     1
  0
XRECORD
  5
1C65
102
{ACAD_REACTORS
330
1C64
102
}
330
1C64
100
AcDbXrecord
280
     1
290
     1
  0
LAYOUT
  5
1E
102
{ACAD_XDICTIONARY
360
1C6F
102
}
102
{ACAD_REACTORS
330
1A
102
}
330
1A
100
AcDbPlotSettings
  1

  2
Ploter HP500
  4

  6

 40
0.0
 41
0.0
 42
0.0
 43
0.0
 44
0.0
 45
0.0
 46
0.0
 47
0.0
 48
0.0
 49
0.0
140
0.0
141
0.0
142
1.0
143
1.0
 70
   688
 72
     0
 73
     0
 74
     5
  7
monochrome.ctb
 75
    16
147
1.0
148
0.0
149
0.0
100
AcDbLayout
  1
Layout1
 70
     1
 71
     1
 10
0.0
 20
0.0
 11
420.0
 21
297.0
 12
0.0
 22
0.0
 32
0.0
 14
1.000000000000000E+20
 24
1.000000000000000E+20
 34
1.000000000000000E+20
 15
-1.000000000000000E+20
 25
-1.000000000000000E+20
 35
-1.000000000000000E+20
146
0.0
 13
0.0
 23
0.0
 33
0.0
 16
1.0
 26
0.0
 36
0.0
 17
0.0
 27
1.0
 37
0.0
 76
     0
330
1B
  0
LAYOUT
  5
26
102
{ACAD_XDICTIONARY
360
1C73
102
}
102
{ACAD_REACTORS
330
1A
102
}
330
1A
100
AcDbPlotSettings
  1

  2
Ploter HP500
  4

  6

 40
0.0
 41
0.0
 42
0.0
 43
0.0
 44
0.0
 45
0.0
 46
0.0
 47
0.0
 48
0.0
 49
0.0
140
0.0
141
0.0
142
1.0
143
1.0
 70
   688
 72
     0
 73
     0
 74
     5
  7
monochrome.ctb
 75
    16
147
1.0
148
0.0
149
0.0
100
AcDbLayout
  1
Layout2
 70
     1
 71
     2
 10
0.0
 20
0.0
 11
12.0
 21
9.0
 12
0.0
 22
0.0
 32
0.0
 14
0.0
 24
0.0
 34
0.0
 15
0.0
 25
0.0
 35
0.0
146
0.0
 13
0.0
 23
0.0
 33
0.0
 16
1.0
 26
0.0
 36
0.0
 17
0.0
 27
1.0
 37
0.0
 76
     0
330
23
  0
LAYOUT
  5
22
102
{ACAD_XDICTIONARY
360
1C71
102
}
102
{ACAD_REACTORS
330
1A
102
}
330
1A
100
AcDbPlotSettings
  1

  2
Ploter HP500
  4
User268
  6

 40
4.995333194732666
 41
16.97565841674804
 42
4.995330810546875
 43
16.97567749023437
 44
209.9733276367187
 45
296.9259948730469
 46
0.0
 47
0.0
 48
0.0
 49
0.0
140
0.0
141
0.0
142
1.0
143
1.0
 70
 11952
 72
     1
 73
     1
 74
     0
  7

 75
     0
147
1.0
148
-427.5957866592534
149
7.362384574453926
100
AcDbLayout
  1
Model
 70
     1
 71
     0
 10
0.0
 20
0.0
 11
12.0
 21
9.0
 12
0.0
 22
0.0
 32
0.0
 14
0.0
 24
0.0
 34
0.0
 15
0.0
 25
0.0
 35
0.0
146
0.0
 13
0.0
 23
0.0
 33
0.0
 16
1.0
 26
0.0
 36
0.0
 17
0.0
 27
1.0
 37
0.0
 76
     0
330
1F
331
1BF9
  0
MATERIAL
  5
1C0B
102
{ACAD_XDICTIONARY
360
1C0C
102
}
102
{ACAD_REACTORS
330
BA8
102
}
330
BA8
100
AcDbMaterial
  1
ByBlock
 72
     0
 43
0.0008202099737533
 43
0.0
 43
0.0
 43
0.0
 43
0.0
 43
0.0008202099737533
 43
0.0
 43
0.0
 43
0.0
 43
0.0
 43
1.0
 43
0.0
 43
0.0
 43
0.0
 43
0.0
 43
1.0
 77
     0
 47
0.0008202099737533
 47
0.0
 47
0.0
 47
0.0
 47
0.0
 47
0.0008202099737533
 47
0.0
 47
0.0
 47
0.0
 47
0.0
 47
1.0
 47
0.0
 47
0.0
 47
0.0
 47
0.0
 47
1.0
171
     0
 49
0.0008202099737533
 49
0.0
 49
0.0
 49
0.0
 49
0.0
 49
0.0008202099737533
 49
0.0
 49
0.0
 49
0.0
 49
0.0
 49
1.0
 49
0.0
 49
0.0
 49
0.0
 49
0.0
 49
1.0
175
     0
142
0.0008202099737533
142
0.0
142
0.0
142
0.0
142
0.0
142
0.0008202099737533
142
0.0
142
0.0
142
0.0
142
0.0
142
1.0
142
0.0
142
0.0
142
0.0
142
0.0
142
1.0
179
     0
144
0.0008202099737533
144
0.0
144
0.0
144
0.0
144
0.0
144
0.0008202099737533
144
0.0
144
0.0
144
0.0
144
0.0
144
1.0
144
0.0
144
0.0
144
0.0
144
0.0
144
1.0
147
0.0008202099737533
147
0.0
147
0.0
147
0.0
147
0.0
147
0.0008202099737533
147
0.0
147
0.0
147
0.0
147
0.0
147
1.0
147
0.0
147
0.0
147
0.0
147
0.0
147
1.0
  0
MATERIAL
  5
1C03
102
{ACAD_XDICTIONARY
360
1C04
102
}
102
{ACAD_REACTORS
330
BA8
102
}
330
BA8
100
AcDbMaterial
  1
ByLayer
 72
     0
 43
0.0008202099737533
 43
0.0
 43
0.0
 43
0.0
 43
0.0
 43
0.0008202099737533
 43
0.0
 43
0.0
 43
0.0
 43
0.0
 43
1.0
 43
0.0
 43
0.0
 43
0.0
 43
0.0
 43
1.0
 77
     0
 47
0.0008202099737533
 47
0.0
 47
0.0
 47
0.0
 47
0.0
 47
0.0008202099737533
 47
0.0
 47
0.0
 47
0.0
 47
0.0
 47
1.0
 47
0.0
 47
0.0
 47
0.0
 47
0.0
 47
1.0
171
     0
 49
0.0008202099737533
 49
0.0
 49
0.0
 49
0.0
 49
0.0
 49
0.0008202099737533
 49
0.0
 49
0.0
 49
0.0
 49
0.0
 49
1.0
 49
0.0
 49
0.0
 49
0.0
 49
0.0
 49
1.0
175
     0
142
0.0008202099737533
142
0.0
142
0.0
142
0.0
142
0.0
142
0.0008202099737533
142
0.0
142
0.0
142
0.0
142
0.0
142
1.0
142
0.0
142
0.0
142
0.0
142
0.0
142
1.0
179
     0
144
0.0008202099737533
144
0.0
144
0.0
144
0.0
144
0.0
144
0.0008202099737533
144
0.0
144
0.0
144
0.0
144
0.0
144
1.0
144
0.0
144
0.0
144
0.0
144
0.0
144
1.0
147
0.0008202099737533
147
0.0
147
0.0
147
0.0
147
0.0
147
0.0008202099737533
147
0.0
147
0.0
147
0.0
147
0.0
147
1.0
147
0.0
147
0.0
147
0.0
147
0.0
147
1.0
  0
MATERIAL
  5
1C13
102
{ACAD_XDICTIONARY
360
1C14
102
}
102
{ACAD_REACTORS
330
BA8
102
}
330
BA8
100
AcDbMaterial
  1
Global
 72
     0
 43
0.0008202099737533
 43
0.0
 43
0.0
 43
0.0
 43
0.0
 43
0.0008202099737533
 43
0.0
 43
0.0
 43
0.0
 43
0.0
 43
1.0
 43
0.0
 43
0.0
 43
0.0
 43
0.0
 43
1.0
 77
     0
 47
0.0008202099737533
 47
0.0
 47
0.0
 47
0.0
 47
0.0
 47
0.0008202099737533
 47
0.0
 47
0.0
 47
0.0
 47
0.0
 47
1.0
 47
0.0
 47
0.0
 47
0.0
 47
0.0
 47
1.0
171
     0
 49
0.0008202099737533
 49
0.0
 49
0.0
 49
0.0
 49
0.0
 49
0.0008202099737533
 49
0.0
 49
0.0
 49
0.0
 49
0.0
 49
1.0
 49
0.0
 49
0.0
 49
0.0
 49
0.0
 49
1.0
175
     0
142
0.0008202099737533
142
0.0
142
0.0
142
0.0
142
0.0
142
0.0008202099737533
142
0.0
142
0.0
142
0.0
142
0.0
142
1.0
142
0.0
142
0.0
142
0.0
142
0.0
142
1.0
179
     0
144
0.0008202099737533
144
0.0
144
0.0
144
0.0
144
0.0
144
0.0008202099737533
144
0.0
144
0.0
144
0.0
144
0.0
144
1.0
144
0.0
144
0.0
144
0.0
144
0.0
144
1.0
147
0.0008202099737533
147
0.0
147
0.0
147
0.0
147
0.0
147
0.0008202099737533
147
0.0
147
0.0
147
0.0
147
0.0
147
1.0
147
0.0
147
0.0
147
0.0
147
0.0
147
1.0
  0
MLEADERSTYLE
  5
1C42
102
{ACAD_REACTORS
330
1C41
102
}
330
1C41
100
AcDbMLeaderStyle
170
     2
171
     1
172
     0
 90
        2
 40
0.0
 41
0.0
173
     1
 91
-1056964608
340
14
 92
       -2
290
     1
 42
2.0
291
     1
 43
0.36
  3
Standard
 44
4.0
300

342
11
174
     1
178
     6
175
     1
176
     0
 93
-1056964608
 45
4.0
292
     0
297
     0
 46
4.0
 94
-1056964608
 47
1.0
 49
1.0
140
1.0
293
     1
141
0.0
294
     1
177
     0
142
1.0
295
     0
296
     0
143
0.125
1001
ACAD_MLEADERVER
1070
     2
  0
MLINESTYLE
  5
18
102
{ACAD_REACTORS
330
17
102
}
330
17
100
AcDbMlineStyle
  2
STANDARD
 70
     0
  3

 62
   256
 51
90.0
 52
90.0
 71
     2
 49
0.5
 62
   256
  6
BYLAYER
 49
-0.5
 62
   256
  6
BYLAYER
  0
ACDBPLACEHOLDER
  5
F
102
{ACAD_REACTORS
330
E
102
}
330
E
  0
SCALE
  5
1C30
102
{ACAD_REACTORS
330
1C2F
102
}
330
1C2F
100
AcDbScale
 70
     0
300
1:1
140
1.0
141
1.0
290
     1
  0
SCALE
  5
1C31
102
{ACAD_REACTORS
330
1C2F
102
}
330
1C2F
100
AcDbScale
 70
     0
300
1:2
140
1.0
141
2.0
290
     0
  0
SCALE
  5
1C32
102
{ACAD_REACTORS
330
1C2F
102
}
330
1C2F
100
AcDbScale
 70
     0
300
1:4
140
1.0
141
4.0
290
     0
  0
SCALE
  5
1C33
102
{ACAD_REACTORS
330
1C2F
102
}
330
1C2F
100
AcDbScale
 70
     0
300
1:5
140
1.0
141
5.0
290
     0
  0
SCALE
  5
1C34
102
{ACAD_REACTORS
330
1C2F
102
}
330
1C2F
100
AcDbScale
 70
     0
300
1:8
140
1.0
141
8.0
290
     0
  0
SCALE
  5
1C35
102
{ACAD_REACTORS
330
1C2F
102
}
330
1C2F
100
AcDbScale
 70
     0
300
1:10
140
1.0
141
10.0
290
     0
  0
SCALE
  5
1C36
102
{ACAD_REACTORS
330
1C2F
102
}
330
1C2F
100
AcDbScale
 70
     0
300
1:16
140
1.0
141
16.0
290
     0
  0
SCALE
  5
1C37
102
{ACAD_REACTORS
330
1C2F
102
}
330
1C2F
100
AcDbScale
 70
     0
300
1:20
140
1.0
141
20.0
290
     0
  0
SCALE
  5
1C38
102
{ACAD_REACTORS
330
1C2F
102
}
330
1C2F
100
AcDbScale
 70
     0
300
1:30
140
1.0
141
30.0
290
     0
  0
SCALE
  5
1C39
102
{ACAD_REACTORS
330
1C2F
102
}
330
1C2F
100
AcDbScale
 70
     0
300
1:40
140
1.0
141
40.0
290
     0
  0
SCALE
  5
1C3A
102
{ACAD_REACTORS
330
1C2F
102
}
330
1C2F
100
AcDbScale
 70
     0
300
1:50
140
1.0
141
50.0
290
     0
  0
SCALE
  5
1C3B
102
{ACAD_REACTORS
330
1C2F
102
}
330
1C2F
100
AcDbScale
 70
     0
300
1:100
140
1.0
141
100.0
290
     0
  0
SCALE
  5
1C3C
102
{ACAD_REACTORS
330
1C2F
102
}
330
1C2F
100
AcDbScale
 70
     0
300
2:1
140
2.0
141
1.0
290
     0
  0
SCALE
  5
1C3D
102
{ACAD_REACTORS
330
1C2F
102
}
330
1C2F
100
AcDbScale
 70
     0
300
4:1
140
4.0
141
1.0
290
     0
  0
SCALE
  5
1C3E
102
{ACAD_REACTORS
330
1C2F
102
}
330
1C2F
100
AcDbScale
 70
     0
300
8:1
140
8.0
141
1.0
290
     0
  0
SCALE
  5
1C3F
102
{ACAD_REACTORS
330
1C2F
102
}
330
1C2F
100
AcDbScale
 70
     0
300
10:1
140
10.0
141
1.0
290
     0
  0
SCALE
  5
1C40
102
{ACAD_REACTORS
330
1C2F
102
}
330
1C2F
100
AcDbScale
 70
     0
300
100:1
140
100.0
141
1.0
290
     0
  0
TABLESTYLE
  5
BAB
102
{ACAD_XDICTIONARY
360
1C6B
102
}
102
{ACAD_REACTORS
330
BAA
102
}
330
BAA
100
AcDbTableStyle
  3
Standard
 70
     0
 71
     0
 40
1.5
 41
1.5
280
     0
281
     0
  7
Standard
140
4.5
170
     2
 62
     0
 63
     7
283
     0
274
    -2
284
     1
 64
     0
275
    -2
285
     1
 65
     0
276
    -2
286
     1
 66
     0
277
    -2
287
     1
 67
     0
278
    -2
288
     1
 68
     0
279
    -2
289
     1
 69
     0
  7
Standard
140
6.0
170
     5
 62
     0
 63
     7
283
     0
274
    -2
284
     1
 64
     0
275
    -2
285
     1
 65
     0
276
    -2
286
     1
 66
     0
277
    -2
287
     1
 67
     0
278
    -2
288
     1
 68
     0
279
    -2
289
     1
 69
     0
  7
Standard
140
4.5
170
     5
 62
     0
 63
     7
283
     0
274
    -2
284
     1
 64
     0
275
    -2
285
     1
 65
     0
276
    -2
286
     1
 66
     0
277
    -2
287
     1
 67
     0
278
    -2
288
     1
 68
     0
279
    -2
289
     1
 69
     0
  0
VISUALSTYLE
  5
1C21
102
{ACAD_XDICTIONARY
360
1C97
102
}
102
{ACAD_REACTORS
330
1C1B
102
}
330
1C1B
100
AcDbVisualStyle
  2
2dWireframe
 70
     4
 71
     0
 72
     2
 73
     0
 90
        0
 40
-0.6
 41
-30.0
 62
     5
 63
     7
 74
     1
 91
        4
 64
     7
 65
   257
 75
     1
175
     1
 42
1.0
 92
        0
 66
   257
 43
1.0
 76
     1
 77
     6
 78
     2
 67
     7
 79
     5
170
     0
171
     0
290
     0
174
     0
 93
        1
 44
0.0
173
     0
291
     0
 45
0.0
1001
ACAD
1000
AcDbSavedByObjectVersion
1070
     0
  0
VISUALSTYLE
  5
1C23
102
{ACAD_XDICTIONARY
360
1C9B
102
}
102
{ACAD_REACTORS
330
1C1B
102
}
330
1C1B
100
AcDbVisualStyle
  2
3D Hidden
 70
     6
 71
     1
 72
     2
 73
     2
 90
        0
 40
-0.6
 41
-30.0
 62
     5
 63
     7
 74
     2
 91
        2
 64
     7
 65
   257
 75
     2
175
     1
 42
179.0
 92
        0
 66
   257
 43
1.0
 76
     1
 77
     6
 78
     2
 67
     7
 79
     3
170
     0
171
     0
290
     0
174
     0
 93
        1
 44
0.0
173
     0
291
     0
 45
0.0
1001
ACAD
1000
AcDbSavedByObjectVersion
1070
     0
  0
VISUALSTYLE
  5
1C22
102
{ACAD_XDICTIONARY
360
1C99
102
}
102
{ACAD_REACTORS
330
1C1B
102
}
330
1C1B
100
AcDbVisualStyle
  2
3dWireframe
 70
     5
 71
     0
 72
     2
 73
     0
 90
        0
 40
-0.6
 41
-30.0
 62
     5
 63
     7
 74
     1
 91
        4
 64
     7
 65
   257
 75
     1
175
     1
 42
1.0
 92
        0
 66
   257
 43
1.0
 76
     1
 77
     6
 78
     2
 67
     7
 79
     5
170
     0
171
     0
290
     0
174
     0
 93
        1
 44
0.0
173
     0
291
     0
 45
0.0
1001
ACAD
1000
AcDbSavedByObjectVersion
1070
     0
  0
VISUALSTYLE
  5
1C20
102
{ACAD_XDICTIONARY
360
1C95
102
}
102
{ACAD_REACTORS
330
1C1B
102
}
330
1C1B
100
AcDbVisualStyle
  2
Basic
 70
     7
 71
     1
 72
     0
 73
     1
 90
        0
 40
-0.6
 41
-30.0
 62
     5
 63
     7
 74
     0
 91
        4
 64
     7
 65
   257
 75
     1
175
     1
 42
1.0
 92
        8
 66
     7
 43
1.0
 76
     1
 77
     6
 78
     2
 67
     7
 79
     5
170
     0
171
     0
290
     0
174
     0
 93
        1
 44
0.0
173
     0
291
     1
 45
0.0
1001
ACAD
1000
AcDbSavedByObjectVersion
1070
     0
  0
VISUALSTYLE
  5
1C27
102
{ACAD_XDICTIONARY
360
1CA3
102
}
102
{ACAD_REACTORS
330
1C1B
102
}
330
1C1B
100
AcDbVisualStyle
  2
Brighten
 70
    12
 71
     2
 72
     2
 73
     0
 90
        0
 40
-0.6
 41
-30.0
 62
     5
 63
     7
 74
     1
 91
        4
 64
     7
 65
   257
 75
     1
175
     1
 42
1.0
 92
        8
 66
     7
 43
1.0
 76
     1
 77
     6
 78
     2
 67
     7
 79
     5
170
     0
171
     0
290
     0
174
     0
 93
        1
 44
50.0
173
     0
291
     1
 45
0.0
1001
ACAD
1000
AcDbSavedByObjectVersion
1070
     0
  0
VISUALSTYLE
  5
1C2B
102
{ACAD_XDICTIONARY
360
1CAB
102
}
102
{ACAD_REACTORS
330
1C1B
102
}
330
1C1B
100
AcDbVisualStyle
  2
ColorChange
 70
    16
 71
     2
 72
     2
 73
     3
 90
        0
 40
-0.6
 41
-30.0
 62
     5
 63
     8
 74
     1
 91
        4
 64
     7
 65
   257
 75
     1
175
     1
 42
1.0
 92
        8
 66
     8
 43
1.0
 76
     1
 77
     6
 78
     2
 67
     7
 79
     5
170
     0
171
     0
290
     0
174
     0
 93
        1
 44
0.0
173
     0
291
     1
 45
0.0
1001
ACAD
1000
AcDbSavedByObjectVersion
1070
     0
  0
VISUALSTYLE
  5
1C24
102
{ACAD_XDICTIONARY
360
1C9D
102
}
102
{ACAD_REACTORS
330
1C1B
102
}
330
1C1B
100
AcDbVisualStyle
  2
Conceptual
 70
     9
 71
     3
 72
     2
 73
     0
 90
        0
 40
-0.6
 41
-30.0
 62
     5
 63
     7
 74
     2
 91
        2
 64
     7
 65
   257
 75
     1
175
     1
 42
179.0
 92
        8
 66
     7
 43
1.0
 76
     1
 77
     6
 78
     2
 67
     7
 79
     3
170
     0
171
     0
290
     0
174
     0
 93
        1
 44
0.0
173
     0
291
     0
 45
0.0
1001
ACAD
1000
AcDbSavedByObjectVersion
1070
     0
  0
VISUALSTYLE
  5
1C26
102
{ACAD_XDICTIONARY
360
1CA1
102
}
102
{ACAD_REACTORS
330
1C1B
102
}
330
1C1B
100
AcDbVisualStyle
  2
Dim
 70
    11
 71
     2
 72
     2
 73
     0
 90
        0
 40
-0.6
 41
-30.0
 62
     5
 63
     7
 74
     1
 91
        4
 64
     7
 65
   257
 75
     1
175
     1
 42
1.0
 92
        8
 66
     7
 43
1.0
 76
     1
 77
     6
 78
     2
 67
     7
 79
     5
170
     0
171
     0
290
     0
174
     0
 93
        1
 44
-50.0
173
     0
291
     1
 45
0.0
1001
ACAD
1000
AcDbSavedByObjectVersion
1070
     0
  0
VISUALSTYLE
  5
1C2E
102
{ACAD_XDICTIONARY
360
1CB1
102
}
102
{ACAD_REACTORS
330
1C1B
102
}
330
1C1B
100
AcDbVisualStyle
  2
EdgeColorOff
 70
    22
 71
     2
 72
     2
 73
     0
 90
        0
 40
-0.6
 41
-30.0
 62
     5
 63
     7
 74
     1
 91
        4
 64
     7
 65
   257
 75
     1
175
     1
 42
1.0
 92
        8
 66
     7
 43
1.0
 76
     1
 77
     6
 78
     2
 67
     7
 79
     5
170
     0
171
     0
290
     0
174
     0
 93
        1
 44
0.0
173
     0
291
     1
 45
0.0
1001
ACAD
1000
AcDbSavedByObjectVersion
1070
     0
  0
VISUALSTYLE
  5
1C2A
102
{ACAD_XDICTIONARY
360
1CA9
102
}
102
{ACAD_REACTORS
330
1C1B
102
}
330
1C1B
100
AcDbVisualStyle
  2
Facepattern
 70
    15
 71
     2
 72
     2
 73
     0
 90
        0
 40
-0.6
 41
-30.0
 62
     5
 63
     7
 74
     1
 91
        4
 64
     7
 65
   257
 75
     1
175
     1
 42
1.0
 92
        8
 66
     7
 43
1.0
 76
     1
 77
     6
 78
     2
 67
     7
 79
     5
170
     0
171
     0
290
     0
174
     0
 93
        1
 44
0.0
173
     0
291
     1
 45
0.0
1001
ACAD
1000
AcDbSavedByObjectVersion
1070
     0
  0
VISUALSTYLE
  5
1C1C
102
{ACAD_XDICTIONARY
360
1C8D
102
}
102
{ACAD_REACTORS
330
1C1B
102
}
330
1C1B
100
AcDbVisualStyle
  2
Flat
 70
     0
 71
     2
 72
     1
 73
     1
 90
        2
 40
-0.6
 41
30.0
 62
     5
 63
     7
 74
     0
 91
        4
 64
     7
 65
   257
 75
     1
175
     1
 42
1.0
 92
        8
 66
     7
 43
1.0
 76
     1
 77
     6
 78
     2
 67
     7
 79
     5
170
     0
171
     0
290
     0
174
     0
 93
       13
 44
0.0
173
     0
291
     1
 45
0.0
1001
ACAD
1000
AcDbSavedByObjectVersion
1070
     0
  0
VISUALSTYLE
  5
1C1D
102
{ACAD_XDICTIONARY
360
1C8F
102
}
102
{ACAD_REACTORS
330
1C1B
102
}
330
1C1B
100
AcDbVisualStyle
  2
FlatWithEdges
 70
     1
 71
     2
 72
     1
 73
     1
 90
        2
 40
-0.6
 41
30.0
 62
     5
 63
     7
 74
     1
 91
        4
 64
     7
 65
   257
 75
     1
175
     1
 42
1.0
 92
        0
 66
   257
 43
1.0
 76
     1
 77
     6
 78
     2
 67
     7
 79
     5
170
     0
171
     0
290
     0
174
     0
 93
       13
 44
0.0
173
     0
291
     1
 45
0.0
1001
ACAD
1000
AcDbSavedByObjectVersion
1070
     0
  0
VISUALSTYLE
  5
1C1E
102
{ACAD_XDICTIONARY
360
1C91
102
}
102
{ACAD_REACTORS
330
1C1B
102
}
330
1C1B
100
AcDbVisualStyle
  2
Gouraud
 70
     2
 71
     2
 72
     2
 73
     1
 90
        2
 40
-0.6
 41
30.0
 62
     5
 63
     7
 74
     0
 91
        4
 64
     7
 65
   257
 75
     1
175
     1
 42
1.0
 92
        0
 66
     7
 43
1.0
 76
     1
 77
     6
 78
     2
 67
     7
 79
     5
170
     0
171
     0
290
     0
174
     0
 93
       13
 44
0.0
173
     0
291
     1
 45
0.0
1001
ACAD
1000
AcDbSavedByObjectVersion
1070
     0
  0
VISUALSTYLE
  5
1C1F
102
{ACAD_XDICTIONARY
360
1C93
102
}
102
{ACAD_REACTORS
330
1C1B
102
}
330
1C1B
100
AcDbVisualStyle
  2
GouraudWithEdges
 70
     3
 71
     2
 72
     2
 73
     1
 90
        2
 40
-0.6
 41
30.0
 62
     5
 63
     7
 74
     1
 91
        4
 64
     7
 65
   257
 75
     1
175
     1
 42
1.0
 92
        0
 66
   257
 43
1.0
 76
     1
 77
     6
 78
     2
 67
     7
 79
     5
170
     0
171
     0
290
     0
174
     0
 93
       13
 44
0.0
173
     0
291
     1
 45
0.0
1001
ACAD
1000
AcDbSavedByObjectVersion
1070
     0
  0
VISUALSTYLE
  5
1C2C
102
{ACAD_XDICTIONARY
360
1CAD
102
}
102
{ACAD_REACTORS
330
1C1B
102
}
330
1C1B
100
AcDbVisualStyle
  2
JitterOff
 70
    20
 71
     2
 72
     2
 73
     0
 90
        0
 40
-0.6
 41
-30.0
 62
     5
 63
     7
 74
     1
 91
        4
 64
     7
 65
   257
 75
     1
175
     1
 42
1.0
 92
       10
 66
     7
 43
1.0
 76
     1
 77
     6
 78
     2
 67
     7
 79
     5
170
     0
171
     0
290
     0
174
     0
 93
        1
 44
0.0
173
     0
291
     1
 45
0.0
1001
ACAD
1000
AcDbSavedByObjectVersion
1070
     0
  0
VISUALSTYLE
  5
1C29
102
{ACAD_XDICTIONARY
360
1CA7
102
}
102
{ACAD_REACTORS
330
1C1B
102
}
330
1C1B
100
AcDbVisualStyle
  2
Linepattern
 70
    14
 71
     2
 72
     2
 73
     0
 90
        0
 40
-0.6
 41
-30.0
 62
     5
 63
     7
 74
     1
 91
        4
 64
     7
 65
   257
 75
     7
175
     7
 42
1.0
 92
        8
 66
     7
 43
1.0
 76
     1
 77
     6
 78
     2
 67
     7
 79
     5
170
     0
171
     0
290
     0
174
     0
 93
        1
 44
0.0
173
     0
291
     1
 45
0.0
1001
ACAD
1000
AcDbSavedByObjectVersion
1070
     0
  0
VISUALSTYLE
  5
1C2D
102
{ACAD_XDICTIONARY
360
1CAF
102
}
102
{ACAD_REACTORS
330
1C1B
102
}
330
1C1B
100
AcDbVisualStyle
  2
OverhangOff
 70
    21
 71
     2
 72
     2
 73
     0
 90
        0
 40
-0.6
 41
-30.0
 62
     5
 63
     7
 74
     1
 91
        4
 64
     7
 65
   257
 75
     1
175
     1
 42
1.0
 92
        9
 66
     7
 43
1.0
 76
     1
 77
     6
 78
     2
 67
     7
 79
     5
170
     0
171
     0
290
     0
174
     0
 93
        1
 44
0.0
173
     0
291
     1
 45
0.0
1001
ACAD
1000
AcDbSavedByObjectVersion
1070
     0
  0
VISUALSTYLE
  5
1C25
102
{ACAD_XDICTIONARY
360
1C9F
102
}
102
{ACAD_REACTORS
330
1C1B
102
}
330
1C1B
100
AcDbVisualStyle
  2
Realistic
 70
     8
 71
     2
 72
     2
 73
     0
 90
        0
 40
-0.6
 41
-30.0
 62
     5
 63
     7
 74
     1
 91
        0
 64
     7
 65
   257
 75
     1
175
     1
 42
1.0
 92
        8
 66
     8
 43
1.0
 76
     1
 77
     6
 78
     2
 67
     7
 79
     5
170
     0
171
     0
290
     0
174
     0
 93
       13
 44
0.0
173
     0
291
     0
 45
0.0
1001
ACAD
1000
AcDbSavedByObjectVersion
1070
     0
  0
VISUALSTYLE
  5
1C28
102
{ACAD_XDICTIONARY
360
1CA5
102
}
102
{ACAD_REACTORS
330
1C1B
102
}
330
1C1B
100
AcDbVisualStyle
  2
Thicken
 70
    13
 71
     2
 72
     2
 73
     0
 90
        0
 40
-0.6
 41
-30.0
 62
     5
 63
     7
 74
     1
 91
        4
 64
     7
 65
   257
 75
     1
175
     1
 42
1.0
 92
       12
 66
     7
 43
1.0
 76
     1
 77
     6
 78
     2
 67
     7
 79
     5
170
     0
171
     0
290
     0
174
     0
 93
        1
 44
0.0
173
     0
291
     1
 45
0.0
1001
ACAD
1000
AcDbSavedByObjectVersion
1070
     0
  0
DICTIONARYVAR
  5
1C67
102
{ACAD_REACTORS
330
3D
102
}
330
3D
100
DictionaryVariables
280
     0
  1
1:1
  0
DICTIONARYVAR
  5
1C66
102
{ACAD_REACTORS
330
3D
102
}
330
3D
100
DictionaryVariables
280
     0
  1
STANDARD
  0
DICTIONARYVAR
  5
1BF8
102
{ACAD_REACTORS
330
3D
102
}
330
3D
100
DictionaryVariables
280
     0
  1
STANDARD
  0
DICTIONARYVAR
  5
3F
102
{ACAD_REACTORS
330
3D
102
}
330
3D
100
DictionaryVariables
280
     0
  1
2
  0
DICTIONARYVAR
  5
3E
102
{ACAD_REACTORS
330
3D
102
}
330
3D
100
DictionaryVariables
280
     0
  1
1
  0
DICTIONARYVAR
  5
1C69
102
{ACAD_REACTORS
330
3D
102
}
330
3D
100
DictionaryVariables
280
     0
  1
0
  0
DICTIONARYVAR
  5
1C01
102
{ACAD_REACTORS
330
3D
102
}
330
3D
100
DictionaryVariables
280
     0
  1

  0
DICTIONARYVAR
  5
1C68
102
{ACAD_REACTORS
330
3D
102
}
330
3D
100
DictionaryVariables
280
     0
  1
127
  0
DICTIONARYVAR
  5
1C6A
102
{ACAD_REACTORS
330
3D
102
}
330
3D
100
DictionaryVariables
280
     0
  1
2
  0
XRECORD
  5
1BF6
102
{ACAD_REACTORS
330
1BF5
102
}
330
1BF5
100
AcDbXrecord
280
     1
  0
DICTIONARY
  5
1C6F
330
1E
100
AcDbDictionary
280
     1
281
     1
  3
ACAD_XREC_ROUNDTRIP
360
1C70
  0
DICTIONARY
  5
1C73
330
26
100
AcDbDictionary
280
     1
281
     1
  3
ACAD_XREC_ROUNDTRIP
360
1C74
  0
DICTIONARY
  5
1C71
330
22
100
AcDbDictionary
280
     1
281
     1
  3
ACAD_XREC_ROUNDTRIP
360
1C72
  0
DICTIONARY
  5
1C0C
330
1C0B
100
AcDbDictionary
280
     1
281
     1
  3
ACAD_XREC_ROUNDTRIP
360
1C8B
  3
BUMPTILE
360
1C0E
  3
DIFFUSETILE
360
1C0D
  3
OPACITYTILE
360
1C11
  3
REFLECTIONTILE
360
1C10
  3
REFRACTIONTILE
360
1C12
  3
SPECULARTILE
360
1C0F
  0
DICTIONARY
  5
1C04
330
1C03
100
AcDbDictionary
280
     1
281
     1
  3
ACAD_XREC_ROUNDTRIP
360
1C8A
  3
BUMPTILE
360
1C06
  3
DIFFUSETILE
360
1C05
  3
OPACITYTILE
360
1C09
  3
REFLECTIONTILE
360
1C08
  3
REFRACTIONTILE
360
1C0A
  3
SPECULARTILE
360
1C07
  0
DICTIONARY
  5
1C14
330
1C13
100
AcDbDictionary
280
     1
281
     1
  3
ACAD_XREC_ROUNDTRIP
360
1C8C
  3
BUMPTILE
360
1C16
  3
DIFFUSETILE
360
1C15
  3
OPACITYTILE
360
1C19
  3
REFLECTIONTILE
360
1C18
  3
REFRACTIONTILE
360
1C1A
  3
SPECULARTILE
360
1C17
  0
DICTIONARY
  5
1C6B
330
BAB
100
AcDbDictionary
280
     1
281
     1
  3
ACAD_ROUNDTRIP_2008_TABLESTYLE_CELLSTYLEMAP
360
1C6C
  3
ACAD_XREC_ROUNDTRIP
360
1C75
  0
DICTIONARY
  5
1C97
330
1C21
100
AcDbDictionary
280
     1
281
     1
  3
ACAD_XREC_ROUNDTRIP
360
1C98
  0
DICTIONARY
  5
1C9B
330
1C23
100
AcDbDictionary
280
     1
281
     1
  3
ACAD_XREC_ROUNDTRIP
360
1C9C
  0
DICTIONARY
  5
1C99
330
1C22
100
AcDbDictionary
280
     1
281
     1
  3
ACAD_XREC_ROUNDTRIP
360
1C9A
  0
DICTIONARY
  5
1C95
330
1C20
100
AcDbDictionary
280
     1
281
     1
  3
ACAD_XREC_ROUNDTRIP
360
1C96
  0
DICTIONARY
  5
1CA3
330
1C27
100
AcDbDictionary
280
     1
281
     1
  3
ACAD_XREC_ROUNDTRIP
360
1CA4
  0
DICTIONARY
  5
1CAB
330
1C2B
100
AcDbDictionary
280
     1
281
     1
  3
ACAD_XREC_ROUNDTRIP
360
1CAC
  0
DICTIONARY
  5
1C9D
330
1C24
100
AcDbDictionary
280
     1
281
     1
  3
ACAD_XREC_ROUNDTRIP
360
1C9E
  0
DICTIONARY
  5
1CA1
330
1C26
100
AcDbDictionary
280
     1
281
     1
  3
ACAD_XREC_ROUNDTRIP
360
1CA2
  0
DICTIONARY
  5
1CB1
330
1C2E
100
AcDbDictionary
280
     1
281
     1
  3
ACAD_XREC_ROUNDTRIP
360
1CB2
  0
DICTIONARY
  5
1CA9
330
1C2A
100
AcDbDictionary
280
     1
281
     1
  3
ACAD_XREC_ROUNDTRIP
360
1CAA
  0
DICTIONARY
  5
1C8D
330
1C1C
100
AcDbDictionary
280
     1
281
     1
  3
ACAD_XREC_ROUNDTRIP
360
1C8E
  0
DICTIONARY
  5
1C8F
330
1C1D
100
AcDbDictionary
280
     1
281
     1
  3
ACAD_XREC_ROUNDTRIP
360
1C90
  0
DICTIONARY
  5
1C91
330
1C1E
100
AcDbDictionary
280
     1
281
     1
  3
ACAD_XREC_ROUNDTRIP
360
1C92
  0
DICTIONARY
  5
1C93
330
1C1F
100
AcDbDictionary
280
     1
281
     1
  3
ACAD_XREC_ROUNDTRIP
360
1C94
  0
DICTIONARY
  5
1CAD
330
1C2C
100
AcDbDictionary
280
     1
281
     1
  3
ACAD_XREC_ROUNDTRIP
360
1CAE
  0
DICTIONARY
  5
1CA7
330
1C29
100
AcDbDictionary
280
     1
281
     1
  3
ACAD_XREC_ROUNDTRIP
360
1CA8
  0
DICTIONARY
  5
1CAF
330
1C2D
100
AcDbDictionary
280
     1
281
     1
  3
ACAD_XREC_ROUNDTRIP
360
1CB0
  0
DICTIONARY
  5
1C9F
330
1C25
100
AcDbDictionary
280
     1
281
     1
  3
ACAD_XREC_ROUNDTRIP
360
1CA0
  0
DICTIONARY
  5
1CA5
330
1C28
100
AcDbDictionary
280
     1
281
     1
  3
ACAD_XREC_ROUNDTRIP
360
1CA6
  0
XRECORD
  5
1C70
102
{ACAD_REACTORS
330
1C6F
102
}
330
1C6F
100
AcDbXrecord
280
     1
102
SHADEPLOT
 70
     0
102
SHADEPLOTRESLEVEL
 70
     2
102
SHADEPLOTCUSTOMDPI
 70
   300
  0
XRECORD
  5
1C74
102
{ACAD_REACTORS
330
1C73
102
}
330
1C73
100
AcDbXrecord
280
     1
102
SHADEPLOT
 70
     0
102
SHADEPLOTRESLEVEL
 70
     2
102
SHADEPLOTCUSTOMDPI
 70
   300
  0
XRECORD
  5
1C72
102
{ACAD_REACTORS
330
1C71
102
}
330
1C71
100
AcDbXrecord
280
     1
102
SHADEPLOT
 70
     0
102
SHADEPLOTRESLEVEL
 70
     2
102
SHADEPLOTCUSTOMDPI
 70
   300
  0
XRECORD
  5
1C8B
102
{ACAD_REACTORS
330
1C0C
102
}
330
1C0C
100
AcDbXrecord
280
     1
102
MATERIAL
148
0.0
149
0.0
149
0.0
 93
        0
 94
      127
282
     0
 72
     0
 77
     0
171
     0
175
     0
179
     0
273
     0
  0
XRECORD
  5
1C0E
102
{ACAD_REACTORS
330
1C0C
102
}
330
1C0C
100
AcDbXrecord
280
     1
270
     1
271
     1
  0
XRECORD
  5
1C0D
102
{ACAD_REACTORS
330
1C0C
102
}
330
1C0C
100
AcDbXrecord
280
     1
270
     1
271
     1
  0
XRECORD
  5
1C11
102
{ACAD_REACTORS
330
1C0C
102
}
330
1C0C
100
AcDbXrecord
280
     1
270
     1
271
     1
  0
XRECORD
  5
1C10
102
{ACAD_REACTORS
330
1C0C
102
}
330
1C0C
100
AcDbXrecord
280
     1
270
     1
271
     1
  0
XRECORD
  5
1C12
102
{ACAD_REACTORS
330
1C0C
102
}
330
1C0C
100
AcDbXrecord
280
     1
270
     1
271
     1
  0
XRECORD
  5
1C0F
102
{ACAD_REACTORS
330
1C0C
102
}
330
1C0C
100
AcDbXrecord
280
     1
270
     1
271
     1
  0
XRECORD
  5
1C8A
102
{ACAD_REACTORS
330
1C04
102
}
330
1C04
100
AcDbXrecord
280
     1
102
MATERIAL
148
0.0
149
0.0
149
0.0
 93
        0
 94
      127
282
     0
 72
     0
 77
     0
171
     0
175
     0
179
     0
273
     0
  0
XRECORD
  5
1C06
102
{ACAD_REACTORS
330
1C04
102
}
330
1C04
100
AcDbXrecord
280
     1
270
     1
271
     1
  0
XRECORD
  5
1C05
102
{ACAD_REACTORS
330
1C04
102
}
330
1C04
100
AcDbXrecord
280
     1
270
     1
271
     1
  0
XRECORD
  5
1C09
102
{ACAD_REACTORS
330
1C04
102
}
330
1C04
100
AcDbXrecord
280
     1
270
     1
271
     1
  0
XRECORD
  5
1C08
102
{ACAD_REACTORS
330
1C04
102
}
330
1C04
100
AcDbXrecord
280
     1
270
     1
271
     1
  0
XRECORD
  5
1C0A
102
{ACAD_REACTORS
330
1C04
102
}
330
1C04
100
AcDbXrecord
280
     1
270
     1
271
     1
  0
XRECORD
  5
1C07
102
{ACAD_REACTORS
330
1C04
102
}
330
1C04
100
AcDbXrecord
280
     1
270
     1
271
     1
  0
XRECORD
  5
1C8C
102
{ACAD_REACTORS
330
1C14
102
}
330
1C14
100
AcDbXrecord
280
     1
102
MATERIAL
148
0.0
149
0.0
149
0.0
 93
        0
 94
      127
282
     0
 72
     0
 77
     0
171
     0
175
     0
179
     0
273
     0
  0
XRECORD
  5
1C16
102
{ACAD_REACTORS
330
1C14
102
}
330
1C14
100
AcDbXrecord
280
     1
270
     1
271
     1
  0
XRECORD
  5
1C15
102
{ACAD_REACTORS
330
1C14
102
}
330
1C14
100
AcDbXrecord
280
     1
270
     1
271
     1
  0
XRECORD
  5
1C19
102
{ACAD_REACTORS
330
1C14
102
}
330
1C14
100
AcDbXrecord
280
     1
270
     1
271
     1
  0
XRECORD
  5
1C18
102
{ACAD_REACTORS
330
1C14
102
}
330
1C14
100
AcDbXrecord
280
     1
270
     1
271
     1
  0
XRECORD
  5
1C1A
102
{ACAD_REACTORS
330
1C14
102
}
330
1C14
100
AcDbXrecord
280
     1
270
     1
271
     1
  0
XRECORD
  5
1C17
102
{ACAD_REACTORS
330
1C14
102
}
330
1C14
100
AcDbXrecord
280
     1
270
     1
271
     1
  0
CELLSTYLEMAP
  5
1C6C
102
{ACAD_REACTORS
330
1C6B
102
}
330
1C6B
100
AcDbCellStyleMap
 90
        3
300
CELLSTYLE
  1
TABLEFORMAT_BEGIN
 90
        5
170
     1
 91
        0
 92
    32768
 62
   257
 93
        1
300
CONTENTFORMAT
  1
CONTENTFORMAT_BEGIN
 90
        0
 91
        0
 92
        4
 93
        0
300

 40
0.0
140
1.0
 94
        5
 62
     0
340
11
144
6.0
309
CONTENTFORMAT_END
171
     1
301
MARGIN
  1
CELLMARGIN_BEGIN
 40
1.5
 40
1.5
 40
1.5
 40
1.5
 40
0.18
 40
0.18
309
CELLMARGIN_END
 94
        6
 95
        1
302
GRIDFORMAT
  1
GRIDFORMAT_BEGIN
 90
        0
 91
        1
 62
     0
 92
       -2
340
0
 93
        0
 40
0.045
309
GRIDFORMAT_END
 95
        2
302
GRIDFORMAT
  1
GRIDFORMAT_BEGIN
 90
        0
 91
        1
 62
     0
 92
       -2
340
0
 93
        0
 40
0.045
309
GRIDFORMAT_END
 95
        4
302
GRIDFORMAT
  1
GRIDFORMAT_BEGIN
 90
        0
 91
        1
 62
     0
 92
       -2
340
0
 93
        0
 40
0.045
309
GRIDFORMAT_END
 95
        8
302
GRIDFORMAT
  1
GRIDFORMAT_BEGIN
 90
        0
 91
        1
 62
     0
 92
       -2
340
0
 93
        0
 40
0.045
309
GRIDFORMAT_END
 95
       16
302
GRIDFORMAT
  1
GRIDFORMAT_BEGIN
 90
        0
 91
        1
 62
     0
 92
       -2
340
0
 93
        0
 40
0.045
309
GRIDFORMAT_END
 95
       32
302
GRIDFORMAT
  1
GRIDFORMAT_BEGIN
 90
        0
 91
        1
 62
     0
 92
       -2
340
0
 93
        0
 40
0.045
309
GRIDFORMAT_END
309
TABLEFORMAT_END
  1
CELLSTYLE_BEGIN
 90
        1
 91
        1
300
_TITLE
309
CELLSTYLE_END
300
CELLSTYLE
  1
TABLEFORMAT_BEGIN
 90
        5
170
     1
 91
        0
 92
        0
 62
   257
 93
        1
300
CONTENTFORMAT
  1
CONTENTFORMAT_BEGIN
 90
        0
 91
        0
 92
        4
 93
        0
300

 40
0.0
140
1.0
 94
        5
 62
     0
340
11
144
4.5
309
CONTENTFORMAT_END
171
     1
301
MARGIN
  1
CELLMARGIN_BEGIN
 40
1.5
 40
1.5
 40
1.5
 40
1.5
 40
0.18
 40
0.18
309
CELLMARGIN_END
 94
        6
 95
        1
302
GRIDFORMAT
  1
GRIDFORMAT_BEGIN
 90
        0
 91
        1
 62
     0
 92
       -2
340
0
 93
        0
 40
0.045
309
GRIDFORMAT_END
 95
        2
302
GRIDFORMAT
  1
GRIDFORMAT_BEGIN
 90
        0
 91
        1
 62
     0
 92
       -2
340
0
 93
        0
 40
0.045
309
GRIDFORMAT_END
 95
        4
302
GRIDFORMAT
  1
GRIDFORMAT_BEGIN
 90
        0
 91
        1
 62
     0
 92
       -2
340
0
 93
        0
 40
0.045
309
GRIDFORMAT_END
 95
        8
302
GRIDFORMAT
  1
GRIDFORMAT_BEGIN
 90
        0
 91
        1
 62
     0
 92
       -2
340
0
 93
        0
 40
0.045
309
GRIDFORMAT_END
 95
       16
302
GRIDFORMAT
  1
GRIDFORMAT_BEGIN
 90
        0
 91
        1
 62
     0
 92
       -2
340
0
 93
        0
 40
0.045
309
GRIDFORMAT_END
 95
       32
302
GRIDFORMAT
  1
GRIDFORMAT_BEGIN
 90
        0
 91
        1
 62
     0
 92
       -2
340
0
 93
        0
 40
0.045
309
GRIDFORMAT_END
309
TABLEFORMAT_END
  1
CELLSTYLE_BEGIN
 90
        2
 91
        1
300
_HEADER
309
CELLSTYLE_END
300
CELLSTYLE
  1
TABLEFORMAT_BEGIN
 90
        5
170
     1
 91
        0
 92
        0
 62
   257
 93
        1
300
CONTENTFORMAT
  1
CONTENTFORMAT_BEGIN
 90
        0
 91
        0
 92
        4
 93
        0
300

 40
0.0
140
1.0
 94
        2
 62
     0
340
11
144
4.5
309
CONTENTFORMAT_END
171
     1
301
MARGIN
  1
CELLMARGIN_BEGIN
 40
1.5
 40
1.5
 40
1.5
 40
1.5
 40
0.18
 40
0.18
309
CELLMARGIN_END
 94
        6
 95
        1
302
GRIDFORMAT
  1
GRIDFORMAT_BEGIN
 90
        0
 91
        1
 62
     0
 92
       -2
340
0
 93
        0
 40
0.045
309
GRIDFORMAT_END
 95
        2
302
GRIDFORMAT
  1
GRIDFORMAT_BEGIN
 90
        0
 91
        1
 62
     0
 92
       -2
340
0
 93
        0
 40
0.045
309
GRIDFORMAT_END
 95
        4
302
GRIDFORMAT
  1
GRIDFORMAT_BEGIN
 90
        0
 91
        1
 62
     0
 92
       -2
340
0
 93
        0
 40
0.045
309
GRIDFORMAT_END
 95
        8
302
GRIDFORMAT
  1
GRIDFORMAT_BEGIN
 90
        0
 91
        1
 62
     0
 92
       -2
340
0
 93
        0
 40
0.045
309
GRIDFORMAT_END
 95
       16
302
GRIDFORMAT
  1
GRIDFORMAT_BEGIN
 90
        0
 91
        1
 62
     0
 92
       -2
340
0
 93
        0
 40
0.045
309
GRIDFORMAT_END
 95
       32
302
GRIDFORMAT
  1
GRIDFORMAT_BEGIN
 90
        0
 91
        1
 62
     0
 92
       -2
340
0
 93
        0
 40
0.045
309
GRIDFORMAT_END
309
TABLEFORMAT_END
  1
CELLSTYLE_BEGIN
 90
        3
 91
        2
300
_DATA
309
CELLSTYLE_END
  0
XRECORD
  5
1C75
102
{ACAD_REACTORS
330
1C6B
102
}
330
1C6B
100
AcDbXrecord
280
     1
102
ACAD_ROUNDTRIP_PRE2007_TABLESTYLE
 90
        4
 91
        0
  1

 92
        4
 93
        0
  2

 94
        4
 95
        0
  3

  0
XRECORD
  5
1C98
102
{ACAD_REACTORS
330
1C97
102
}
330
1C97
100
AcDbXrecord
280
     1
102
RTVSPropertyOp0
 70
     1
102
RTVSPropertyOp1
 70
     1
102
RTVSPropertyOp2
 70
     1
102
RTVSPropertyOp3
 70
     1
102
RTVSPropertyOp4
 70
     1
102
RTVSPropertyOp5
 70
     1
102
RTVSPropertyOp6
 70
     1
102
RTVSPropertyOp7
 70
     1
102
RTVSPropertyOp8
 70
     1
102
RTVSPropertyOp9
 70
     1
102
RTVSPropertyOp10
 70
     1
102
RTVSPropertyOp11
 70
     1
102
RTVSPropertyOp12
 70
     1
102
RTVSPropertyOp13
 70
     1
102
RTVSPropertyOp14
 70
     1
102
RTVSPropertyOp15
 70
     1
102
RTVSPropertyOp16
 70
     1
102
RTVSPropertyOp17
 70
     1
102
RTVSPropertyOp18
 70
     1
102
RTVSPropertyOp19
 70
     1
102
RTVSPropertyOp20
 70
     1
102
RTVSPropertyOp21
 70
     1
102
RTVSPropertyOp22
 70
     1
102
RTVSPropertyOp23
 70
     1
102
RTVSPropertyOp24
 70
     1
102
RTVSPropertyOp25
 70
     1
102
RTVSPropertyOp26
 70
     1
102
RTVSPropertyOp27
 70
     1
  0
XRECORD
  5
1C9C
102
{ACAD_REACTORS
330
1C9B
102
}
330
1C9B
100
AcDbXrecord
280
     1
102
RTVSPropertyOp0
 70
     1
102
RTVSPropertyOp1
 70
     1
102
RTVSPropertyOp2
 70
     1
102
RTVSPropertyOp3
 70
     1
102
RTVSPropertyOp4
 70
     1
102
RTVSPropertyOp5
 70
     1
102
RTVSPropertyOp6
 70
     1
102
RTVSPropertyOp7
 70
     1
102
RTVSPropertyOp8
 70
     1
102
RTVSPropertyOp9
 70
     1
102
RTVSPropertyOp10
 70
     1
102
RTVSPropertyOp11
 70
     1
102
RTVSPropertyOp12
 70
     1
102
RTVSPropertyOp13
 70
     1
102
RTVSPropertyOp14
 70
     1
102
RTVSPropertyOp15
 70
     1
102
RTVSPropertyOp16
 70
     1
102
RTVSPropertyOp17
 70
     1
102
RTVSPropertyOp18
 70
     1
102
RTVSPropertyOp19
 70
     1
102
RTVSPropertyOp20
 70
     1
102
RTVSPropertyOp21
 70
     1
102
RTVSPropertyOp22
 70
     1
102
RTVSPropertyOp23
 70
     1
102
RTVSPropertyOp24
 70
     1
102
RTVSPropertyOp25
 70
     1
102
RTVSPropertyOp26
 70
     1
102
RTVSPropertyOp27
 70
     1
  0
XRECORD
  5
1C9A
102
{ACAD_REACTORS
330
1C99
102
}
330
1C99
100
AcDbXrecord
280
     1
102
RTVSPropertyOp0
 70
     1
102
RTVSPropertyOp1
 70
     1
102
RTVSPropertyOp2
 70
     1
102
RTVSPropertyOp3
 70
     1
102
RTVSPropertyOp4
 70
     1
102
RTVSPropertyOp5
 70
     1
102
RTVSPropertyOp6
 70
     1
102
RTVSPropertyOp7
 70
     1
102
RTVSPropertyOp8
 70
     1
102
RTVSPropertyOp9
 70
     1
102
RTVSPropertyOp10
 70
     1
102
RTVSPropertyOp11
 70
     1
102
RTVSPropertyOp12
 70
     1
102
RTVSPropertyOp13
 70
     1
102
RTVSPropertyOp14
 70
     1
102
RTVSPropertyOp15
 70
     1
102
RTVSPropertyOp16
 70
     1
102
RTVSPropertyOp17
 70
     1
102
RTVSPropertyOp18
 70
     1
102
RTVSPropertyOp19
 70
     1
102
RTVSPropertyOp20
 70
     1
102
RTVSPropertyOp21
 70
     1
102
RTVSPropertyOp22
 70
     1
102
RTVSPropertyOp23
 70
     1
102
RTVSPropertyOp24
 70
     1
102
RTVSPropertyOp25
 70
     1
102
RTVSPropertyOp26
 70
     1
102
RTVSPropertyOp27
 70
     1
  0
XRECORD
  5
1C96
102
{ACAD_REACTORS
330
1C95
102
}
330
1C95
100
AcDbXrecord
280
     1
102
RTVSPropertyOp0
 70
     1
102
RTVSPropertyOp1
 70
     1
102
RTVSPropertyOp2
 70
     1
102
RTVSPropertyOp3
 70
     1
102
RTVSPropertyOp4
 70
     1
102
RTVSPropertyOp5
 70
     1
102
RTVSPropertyOp6
 70
     1
102
RTVSPropertyOp7
 70
     1
102
RTVSPropertyOp8
 70
     1
102
RTVSPropertyOp9
 70
     1
102
RTVSPropertyOp10
 70
     1
102
RTVSPropertyOp11
 70
     1
102
RTVSPropertyOp12
 70
     1
102
RTVSPropertyOp13
 70
     1
102
RTVSPropertyOp14
 70
     1
102
RTVSPropertyOp15
 70
     1
102
RTVSPropertyOp16
 70
     1
102
RTVSPropertyOp17
 70
     1
102
RTVSPropertyOp18
 70
     1
102
RTVSPropertyOp19
 70
     1
102
RTVSPropertyOp20
 70
     1
102
RTVSPropertyOp21
 70
     1
102
RTVSPropertyOp22
 70
     1
102
RTVSPropertyOp23
 70
     1
102
RTVSPropertyOp24
 70
     1
102
RTVSPropertyOp25
 70
     1
102
RTVSPropertyOp26
 70
     1
102
RTVSPropertyOp27
 70
     1
  0
XRECORD
  5
1CA4
102
{ACAD_REACTORS
330
1CA3
102
}
330
1CA3
100
AcDbXrecord
280
     1
102
RTVSPropertyOp0
 70
     1
102
RTVSPropertyOp1
 70
     1
102
RTVSPropertyOp2
 70
     1
102
RTVSPropertyOp3
 70
     1
102
RTVSPropertyOp4
 70
     1
102
RTVSPropertyOp5
 70
     1
102
RTVSPropertyOp6
 70
     1
102
RTVSPropertyOp7
 70
     1
102
RTVSPropertyOp8
 70
     1
102
RTVSPropertyOp9
 70
     1
102
RTVSPropertyOp10
 70
     1
102
RTVSPropertyOp11
 70
     1
102
RTVSPropertyOp12
 70
     1
102
RTVSPropertyOp13
 70
     1
102
RTVSPropertyOp14
 70
     1
102
RTVSPropertyOp15
 70
     1
102
RTVSPropertyOp16
 70
     1
102
RTVSPropertyOp17
 70
     1
102
RTVSPropertyOp18
 70
     1
102
RTVSPropertyOp19
 70
     1
102
RTVSPropertyOp20
 70
     1
102
RTVSPropertyOp21
 70
     1
102
RTVSPropertyOp22
 70
     1
102
RTVSPropertyOp23
 70
     1
102
RTVSPropertyOp24
 70
     1
102
RTVSPropertyOp25
 70
     1
102
RTVSPropertyOp26
 70
     1
102
RTVSPropertyOp27
 70
     1
  0
XRECORD
  5
1CAC
102
{ACAD_REACTORS
330
1CAB
102
}
330
1CAB
100
AcDbXrecord
280
     1
102
RTVSPropertyOp0
 70
     1
102
RTVSPropertyOp1
 70
     1
102
RTVSPropertyOp2
 70
     1
102
RTVSPropertyOp3
 70
     1
102
RTVSPropertyOp4
 70
     1
102
RTVSPropertyOp5
 70
     1
102
RTVSPropertyOp6
 70
     1
102
RTVSPropertyOp7
 70
     1
102
RTVSPropertyOp8
 70
     1
102
RTVSPropertyOp9
 70
     1
102
RTVSPropertyOp10
 70
     1
102
RTVSPropertyOp11
 70
     1
102
RTVSPropertyOp12
 70
     1
102
RTVSPropertyOp13
 70
     1
102
RTVSPropertyOp14
 70
     1
102
RTVSPropertyOp15
 70
     1
102
RTVSPropertyOp16
 70
     1
102
RTVSPropertyOp17
 70
     1
102
RTVSPropertyOp18
 70
     1
102
RTVSPropertyOp19
 70
     1
102
RTVSPropertyOp20
 70
     1
102
RTVSPropertyOp21
 70
     1
102
RTVSPropertyOp22
 70
     1
102
RTVSPropertyOp23
 70
     1
102
RTVSPropertyOp24
 70
     1
102
RTVSPropertyOp25
 70
     1
102
RTVSPropertyOp26
 70
     1
102
RTVSPropertyOp27
 70
     1
  0
XRECORD
  5
1C9E
102
{ACAD_REACTORS
330
1C9D
102
}
330
1C9D
100
AcDbXrecord
280
     1
102
RTVSPropertyOp0
 70
     1
102
RTVSPropertyOp1
 70
     1
102
RTVSPropertyOp2
 70
     1
102
RTVSPropertyOp3
 70
     1
102
RTVSPropertyOp4
 70
     1
102
RTVSPropertyOp5
 70
     1
102
RTVSPropertyOp6
 70
     1
102
RTVSPropertyOp7
 70
     1
102
RTVSPropertyOp8
 70
     1
102
RTVSPropertyOp9
 70
     1
102
RTVSPropertyOp10
 70
     1
102
RTVSPropertyOp11
 70
     1
102
RTVSPropertyOp12
 70
     1
102
RTVSPropertyOp13
 70
     1
102
RTVSPropertyOp14
 70
     1
102
RTVSPropertyOp15
 70
     1
102
RTVSPropertyOp16
 70
     1
102
RTVSPropertyOp17
 70
     1
102
RTVSPropertyOp18
 70
     1
102
RTVSPropertyOp19
 70
     1
102
RTVSPropertyOp20
 70
     1
102
RTVSPropertyOp21
 70
     1
102
RTVSPropertyOp22
 70
     1
102
RTVSPropertyOp23
 70
     1
102
RTVSPropertyOp24
 70
     1
102
RTVSPropertyOp25
 70
     1
102
RTVSPropertyOp26
 70
     1
102
RTVSPropertyOp27
 70
     1
  0
XRECORD
  5
1CA2
102
{ACAD_REACTORS
330
1CA1
102
}
330
1CA1
100
AcDbXrecord
280
     1
102
RTVSPropertyOp0
 70
     1
102
RTVSPropertyOp1
 70
     1
102
RTVSPropertyOp2
 70
     1
102
RTVSPropertyOp3
 70
     1
102
RTVSPropertyOp4
 70
     1
102
RTVSPropertyOp5
 70
     1
102
RTVSPropertyOp6
 70
     1
102
RTVSPropertyOp7
 70
     1
102
RTVSPropertyOp8
 70
     1
102
RTVSPropertyOp9
 70
     1
102
RTVSPropertyOp10
 70
     1
102
RTVSPropertyOp11
 70
     1
102
RTVSPropertyOp12
 70
     1
102
RTVSPropertyOp13
 70
     1
102
RTVSPropertyOp14
 70
     1
102
RTVSPropertyOp15
 70
     1
102
RTVSPropertyOp16
 70
     1
102
RTVSPropertyOp17
 70
     1
102
RTVSPropertyOp18
 70
     1
102
RTVSPropertyOp19
 70
     1
102
RTVSPropertyOp20
 70
     1
102
RTVSPropertyOp21
 70
     1
102
RTVSPropertyOp22
 70
     1
102
RTVSPropertyOp23
 70
     1
102
RTVSPropertyOp24
 70
     1
102
RTVSPropertyOp25
 70
     1
102
RTVSPropertyOp26
 70
     1
102
RTVSPropertyOp27
 70
     1
  0
XRECORD
  5
1CB2
102
{ACAD_REACTORS
330
1CB1
102
}
330
1CB1
100
AcDbXrecord
280
     1
102
RTVSPropertyOp0
 70
     0
102
RTVSPropertyOp1
 70
     0
102
RTVSPropertyOp2
 70
     0
102
RTVSPropertyOp3
 70
     0
102
RTVSPropertyOp4
 70
     0
102
RTVSPropertyOp5
 70
     0
102
RTVSPropertyOp6
 70
     0
102
RTVSPropertyOp7
 70
     0
102
RTVSPropertyOp8
 70
     0
102
RTVSPropertyOp9
 70
     0
102
RTVSPropertyOp10
 70
     0
102
RTVSPropertyOp11
 70
     0
102
RTVSPropertyOp12
 70
     0
102
RTVSPropertyOp13
 70
     0
102
RTVSPropertyOp14
 70
     2
102
RTVSPropertyOp15
 70
     0
102
RTVSPropertyOp16
 70
     0
102
RTVSPropertyOp17
 70
     0
102
RTVSPropertyOp18
 70
     0
102
RTVSPropertyOp19
 70
     0
102
RTVSPropertyOp20
 70
     0
102
RTVSPropertyOp21
 70
     0
102
RTVSPropertyOp22
 70
     0
102
RTVSPropertyOp23
 70
     0
102
RTVSPropertyOp24
 70
     0
102
RTVSPropertyOp25
 70
     0
102
RTVSPropertyOp26
 70
     0
102
RTVSPropertyOp27
 70
     0
  0
XRECORD
  5
1CAA
102
{ACAD_REACTORS
330
1CA9
102
}
330
1CA9
100
AcDbXrecord
280
     1
102
RTVSPropertyOp0
 70
     1
102
RTVSPropertyOp1
 70
     1
102
RTVSPropertyOp2
 70
     1
102
RTVSPropertyOp3
 70
     1
102
RTVSPropertyOp4
 70
     1
102
RTVSPropertyOp5
 70
     1
102
RTVSPropertyOp6
 70
     1
102
RTVSPropertyOp7
 70
     1
102
RTVSPropertyOp8
 70
     1
102
RTVSPropertyOp9
 70
     1
102
RTVSPropertyOp10
 70
     1
102
RTVSPropertyOp11
 70
     1
102
RTVSPropertyOp12
 70
     1
102
RTVSPropertyOp13
 70
     1
102
RTVSPropertyOp14
 70
     1
102
RTVSPropertyOp15
 70
     1
102
RTVSPropertyOp16
 70
     1
102
RTVSPropertyOp17
 70
     1
102
RTVSPropertyOp18
 70
     1
102
RTVSPropertyOp19
 70
     1
102
RTVSPropertyOp20
 70
     1
102
RTVSPropertyOp21
 70
     1
102
RTVSPropertyOp22
 70
     1
102
RTVSPropertyOp23
 70
     1
102
RTVSPropertyOp24
 70
     1
102
RTVSPropertyOp25
 70
     1
102
RTVSPropertyOp26
 70
     1
102
RTVSPropertyOp27
 70
     1
  0
XRECORD
  5
1C8E
102
{ACAD_REACTORS
330
1C8D
102
}
330
1C8D
100
AcDbXrecord
280
     1
102
RTVSPropertyOp0
 70
     1
102
RTVSPropertyOp1
 70
     1
102
RTVSPropertyOp2
 70
     1
102
RTVSPropertyOp3
 70
     1
102
RTVSPropertyOp4
 70
     1
102
RTVSPropertyOp5
 70
     1
102
RTVSPropertyOp6
 70
     1
102
RTVSPropertyOp7
 70
     1
102
RTVSPropertyOp8
 70
     1
102
RTVSPropertyOp9
 70
     1
102
RTVSPropertyOp10
 70
     1
102
RTVSPropertyOp11
 70
     1
102
RTVSPropertyOp12
 70
     1
102
RTVSPropertyOp13
 70
     1
102
RTVSPropertyOp14
 70
     1
102
RTVSPropertyOp15
 70
     1
102
RTVSPropertyOp16
 70
     1
102
RTVSPropertyOp17
 70
     1
102
RTVSPropertyOp18
 70
     1
102
RTVSPropertyOp19
 70
     1
102
RTVSPropertyOp20
 70
     1
102
RTVSPropertyOp21
 70
     1
102
RTVSPropertyOp22
 70
     1
102
RTVSPropertyOp23
 70
     1
102
RTVSPropertyOp24
 70
     1
102
RTVSPropertyOp25
 70
     1
102
RTVSPropertyOp26
 70
     1
102
RTVSPropertyOp27
 70
     1
  0
XRECORD
  5
1C90
102
{ACAD_REACTORS
330
1C8F
102
}
330
1C8F
100
AcDbXrecord
280
     1
102
RTVSPropertyOp0
 70
     1
102
RTVSPropertyOp1
 70
     1
102
RTVSPropertyOp2
 70
     1
102
RTVSPropertyOp3
 70
     1
102
RTVSPropertyOp4
 70
     1
102
RTVSPropertyOp5
 70
     1
102
RTVSPropertyOp6
 70
     1
102
RTVSPropertyOp7
 70
     1
102
RTVSPropertyOp8
 70
     1
102
RTVSPropertyOp9
 70
     1
102
RTVSPropertyOp10
 70
     1
102
RTVSPropertyOp11
 70
     1
102
RTVSPropertyOp12
 70
     1
102
RTVSPropertyOp13
 70
     1
102
RTVSPropertyOp14
 70
     1
102
RTVSPropertyOp15
 70
     1
102
RTVSPropertyOp16
 70
     1
102
RTVSPropertyOp17
 70
     1
102
RTVSPropertyOp18
 70
     1
102
RTVSPropertyOp19
 70
     1
102
RTVSPropertyOp20
 70
     1
102
RTVSPropertyOp21
 70
     1
102
RTVSPropertyOp22
 70
     1
102
RTVSPropertyOp23
 70
     1
102
RTVSPropertyOp24
 70
     1
102
RTVSPropertyOp25
 70
     1
102
RTVSPropertyOp26
 70
     1
102
RTVSPropertyOp27
 70
     1
  0
XRECORD
  5
1C92
102
{ACAD_REACTORS
330
1C91
102
}
330
1C91
100
AcDbXrecord
280
     1
102
RTVSPropertyOp0
 70
     1
102
RTVSPropertyOp1
 70
     1
102
RTVSPropertyOp2
 70
     1
102
RTVSPropertyOp3
 70
     1
102
RTVSPropertyOp4
 70
     1
102
RTVSPropertyOp5
 70
     1
102
RTVSPropertyOp6
 70
     1
102
RTVSPropertyOp7
 70
     1
102
RTVSPropertyOp8
 70
     1
102
RTVSPropertyOp9
 70
     1
102
RTVSPropertyOp10
 70
     1
102
RTVSPropertyOp11
 70
     1
102
RTVSPropertyOp12
 70
     1
102
RTVSPropertyOp13
 70
     1
102
RTVSPropertyOp14
 70
     1
102
RTVSPropertyOp15
 70
     1
102
RTVSPropertyOp16
 70
     1
102
RTVSPropertyOp17
 70
     1
102
RTVSPropertyOp18
 70
     1
102
RTVSPropertyOp19
 70
     1
102
RTVSPropertyOp20
 70
     1
102
RTVSPropertyOp21
 70
     1
102
RTVSPropertyOp22
 70
     1
102
RTVSPropertyOp23
 70
     1
102
RTVSPropertyOp24
 70
     1
102
RTVSPropertyOp25
 70
     1
102
RTVSPropertyOp26
 70
     1
102
RTVSPropertyOp27
 70
     1
  0
XRECORD
  5
1C94
102
{ACAD_REACTORS
330
1C93
102
}
330
1C93
100
AcDbXrecord
280
     1
102
RTVSPropertyOp0
 70
     1
102
RTVSPropertyOp1
 70
     1
102
RTVSPropertyOp2
 70
     1
102
RTVSPropertyOp3
 70
     1
102
RTVSPropertyOp4
 70
     1
102
RTVSPropertyOp5
 70
     1
102
RTVSPropertyOp6
 70
     1
102
RTVSPropertyOp7
 70
     1
102
RTVSPropertyOp8
 70
     1
102
RTVSPropertyOp9
 70
     1
102
RTVSPropertyOp10
 70
     1
102
RTVSPropertyOp11
 70
     1
102
RTVSPropertyOp12
 70
     1
102
RTVSPropertyOp13
 70
     1
102
RTVSPropertyOp14
 70
     1
102
RTVSPropertyOp15
 70
     1
102
RTVSPropertyOp16
 70
     1
102
RTVSPropertyOp17
 70
     1
102
RTVSPropertyOp18
 70
     1
102
RTVSPropertyOp19
 70
     1
102
RTVSPropertyOp20
 70
     1
102
RTVSPropertyOp21
 70
     1
102
RTVSPropertyOp22
 70
     1
102
RTVSPropertyOp23
 70
     1
102
RTVSPropertyOp24
 70
     1
102
RTVSPropertyOp25
 70
     1
102
RTVSPropertyOp26
 70
     1
102
RTVSPropertyOp27
 70
     1
  0
XRECORD
  5
1CAE
102
{ACAD_REACTORS
330
1CAD
102
}
330
1CAD
100
AcDbXrecord
280
     1
102
RTVSPropertyOp0
 70
     0
102
RTVSPropertyOp1
 70
     0
102
RTVSPropertyOp2
 70
     0
102
RTVSPropertyOp3
 70
     0
102
RTVSPropertyOp4
 70
     0
102
RTVSPropertyOp5
 70
     0
102
RTVSPropertyOp6
 70
     0
102
RTVSPropertyOp7
 70
     0
102
RTVSPropertyOp8
 70
     0
102
RTVSPropertyOp9
 70
     0
102
RTVSPropertyOp10
 70
     0
102
RTVSPropertyOp11
 70
     0
102
RTVSPropertyOp12
 70
     0
102
RTVSPropertyOp13
 70
     0
102
RTVSPropertyOp14
 70
     2
102
RTVSPropertyOp15
 70
     0
102
RTVSPropertyOp16
 70
     0
102
RTVSPropertyOp17
 70
     0
102
RTVSPropertyOp18
 70
     0
102
RTVSPropertyOp19
 70
     0
102
RTVSPropertyOp20
 70
     0
102
RTVSPropertyOp21
 70
     0
102
RTVSPropertyOp22
 70
     0
102
RTVSPropertyOp23
 70
     0
102
RTVSPropertyOp24
 70
     0
102
RTVSPropertyOp25
 70
     0
102
RTVSPropertyOp26
 70
     0
102
RTVSPropertyOp27
 70
     0
  0
XRECORD
  5
1CA8
102
{ACAD_REACTORS
330
1CA7
102
}
330
1CA7
100
AcDbXrecord
280
     1
102
RTVSPropertyOp0
 70
     1
102
RTVSPropertyOp1
 70
     1
102
RTVSPropertyOp2
 70
     1
102
RTVSPropertyOp3
 70
     1
102
RTVSPropertyOp4
 70
     1
102
RTVSPropertyOp5
 70
     1
102
RTVSPropertyOp6
 70
     1
102
RTVSPropertyOp7
 70
     1
102
RTVSPropertyOp8
 70
     1
102
RTVSPropertyOp9
 70
     1
102
RTVSPropertyOp10
 70
     1
102
RTVSPropertyOp11
 70
     1
102
RTVSPropertyOp12
 70
     1
102
RTVSPropertyOp13
 70
     1
102
RTVSPropertyOp14
 70
     1
102
RTVSPropertyOp15
 70
     1
102
RTVSPropertyOp16
 70
     1
102
RTVSPropertyOp17
 70
     1
102
RTVSPropertyOp18
 70
     1
102
RTVSPropertyOp19
 70
     1
102
RTVSPropertyOp20
 70
     1
102
RTVSPropertyOp21
 70
     1
102
RTVSPropertyOp22
 70
     1
102
RTVSPropertyOp23
 70
     1
102
RTVSPropertyOp24
 70
     1
102
RTVSPropertyOp25
 70
     1
102
RTVSPropertyOp26
 70
     1
102
RTVSPropertyOp27
 70
     1
  0
XRECORD
  5
1CB0
102
{ACAD_REACTORS
330
1CAF
102
}
330
1CAF
100
AcDbXrecord
280
     1
102
RTVSPropertyOp0
 70
     0
102
RTVSPropertyOp1
 70
     0
102
RTVSPropertyOp2
 70
     0
102
RTVSPropertyOp3
 70
     0
102
RTVSPropertyOp4
 70
     0
102
RTVSPropertyOp5
 70
     0
102
RTVSPropertyOp6
 70
     0
102
RTVSPropertyOp7
 70
     0
102
RTVSPropertyOp8
 70
     0
102
RTVSPropertyOp9
 70
     0
102
RTVSPropertyOp10
 70
     0
102
RTVSPropertyOp11
 70
     0
102
RTVSPropertyOp12
 70
     0
102
RTVSPropertyOp13
 70
     0
102
RTVSPropertyOp14
 70
     2
102
RTVSPropertyOp15
 70
     0
102
RTVSPropertyOp16
 70
     0
102
RTVSPropertyOp17
 70
     0
102
RTVSPropertyOp18
 70
     0
102
RTVSPropertyOp19
 70
     0
102
RTVSPropertyOp20
 70
     0
102
RTVSPropertyOp21
 70
     0
102
RTVSPropertyOp22
 70
     0
102
RTVSPropertyOp23
 70
     0
102
RTVSPropertyOp24
 70
     0
102
RTVSPropertyOp25
 70
     0
102
RTVSPropertyOp26
 70
     0
102
RTVSPropertyOp27
 70
     0
  0
XRECORD
  5
1CA0
102
{ACAD_REACTORS
330
1C9F
102
}
330
1C9F
100
AcDbXrecord
280
     1
102
RTVSPropertyOp0
 70
     1
102
RTVSPropertyOp1
 70
     1
102
RTVSPropertyOp2
 70
     1
102
RTVSPropertyOp3
 70
     1
102
RTVSPropertyOp4
 70
     1
102
RTVSPropertyOp5
 70
     1
102
RTVSPropertyOp6
 70
     1
102
RTVSPropertyOp7
 70
     1
102
RTVSPropertyOp8
 70
     1
102
RTVSPropertyOp9
 70
     1
102
RTVSPropertyOp10
 70
     1
102
RTVSPropertyOp11
 70
     1
102
RTVSPropertyOp12
 70
     1
102
RTVSPropertyOp13
 70
     1
102
RTVSPropertyOp14
 70
     1
102
RTVSPropertyOp15
 70
     1
102
RTVSPropertyOp16
 70
     1
102
RTVSPropertyOp17
 70
     1
102
RTVSPropertyOp18
 70
     1
102
RTVSPropertyOp19
 70
     1
102
RTVSPropertyOp20
 70
     1
102
RTVSPropertyOp21
 70
     1
102
RTVSPropertyOp22
 70
     1
102
RTVSPropertyOp23
 70
     1
102
RTVSPropertyOp24
 70
     1
102
RTVSPropertyOp25
 70
     1
102
RTVSPropertyOp26
 70
     1
102
RTVSPropertyOp27
 70
     1
  0
XRECORD
  5
1CA6
102
{ACAD_REACTORS
330
1CA5
102
}
330
1CA5
100
AcDbXrecord
280
     1
102
RTVSPropertyOp0
 70
     1
102
RTVSPropertyOp1
 70
     1
102
RTVSPropertyOp2
 70
     1
102
RTVSPropertyOp3
 70
     1
102
RTVSPropertyOp4
 70
     1
102
RTVSPropertyOp5
 70
     1
102
RTVSPropertyOp6
 70
     1
102
RTVSPropertyOp7
 70
     1
102
RTVSPropertyOp8
 70
     1
102
RTVSPropertyOp9
 70
     1
102
RTVSPropertyOp10
 70
     1
102
RTVSPropertyOp11
 70
     1
102
RTVSPropertyOp12
 70
     1
102
RTVSPropertyOp13
 70
     1
102
RTVSPropertyOp14
 70
     1
102
RTVSPropertyOp15
 70
     1
102
RTVSPropertyOp16
 70
     1
102
RTVSPropertyOp17
 70
     1
102
RTVSPropertyOp18
 70
     1
102
RTVSPropertyOp19
 70
     1
102
RTVSPropertyOp20
 70
     1
102
RTVSPropertyOp21
 70
     1
102
RTVSPropertyOp22
 70
     1
102
RTVSPropertyOp23
 70
     1
102
RTVSPropertyOp24
 70
     1
102
RTVSPropertyOp25
 70
     1
102
RTVSPropertyOp26
 70
     1
102
RTVSPropertyOp27
 70
     1
  0
ENDSEC
  0
EOF
