  0
SECTION
  2
HEADER
  9
$ACADVER
  1
AC1015
  9
$ACADMAINTVER
 70
    20
  9
$DWGCODEPAGE
  3
ANSI_1252
  9
$INSBASE
 10
0.0
 20
0.0
 30
0.0
  9
$EXTMIN
 10
101.5023190955665
 20
142.934236506106
 30
0.0
  9
$EXTMAX
 10
106.210067456507
 20
143.5051188549544
 30
0.0
  9
$LIMMIN
 10
0.0
 20
0.0
  9
$LIMMAX
 10
420.0
 20
297.0
  9
$ORTHOMODE
 70
     0
  9
$REGENMODE
 70
     1
  9
$FILLMODE
 70
     1
  9
$QTEXTMODE
 70
     0
  9
$MIRRTEXT
 70
     1
  9
$LTSCALE
 40
1.0
  9
$ATTMODE
 70
     1
  9
$TEXTSIZE
 40
2.5
  9
$TRACEWID
 40
1.0
  9
$TEXTSTYLE
  7
SANINDUSA
  9
$CLAYER
  8
cotas
  9
$CELTYPE
  6
ByLayer
  9
$CECOLOR
 62
   256
  9
$CELTSCALE
 40
1.0
  9
$DISPSILH
 70
     0
  9
$DIMSCALE
 40
1.0
  9
$DIMASZ
 40
2.0
  9
$DIMEXO
 40
1.0
  9
$DIMDLI
 40
1.0
  9
$DIMRND
 40
0.0
  9
$DIMDLE
 40
0.0
  9
$DIMEXE
 40
1.0
  9
$DIMTP
 40
0.0
  9
$DIMTM
 40
0.0
  9
$DIMTXT
 40
2.0
  9
$DIMCEN
 40
0.0
  9
$DIMTSZ
 40
0.0
  9
$DIMTOL
 70
     0
  9
$DIMLIM
 70
     0
  9
$DIMTIH
 70
     0
  9
$DIMTOH
 70
     0
  9
$DIMSE1
 70
     0
  9
$DIMSE2
 70
     0
  9
$DIMTAD
 70
     1
  9
$DIMZIN
 70
     8
  9
$DIMBLK
  1

  9
$DIMASO
 70
     1
  9
$DIMSHO
 70
     1
  9
$DIMPOST
  1

  9
$DIMAPOST
  1

  9
$DIMALT
 70
     0
  9
$DIMALTD
 70
     3
  9
$DIMALTF
 40
0.03937007874016
  9
$DIMLFAC
 40
1.0
  9
$DIMTOFL
 70
     1
  9
$DIMTVP
 40
0.0
  9
$DIMTIX
 70
     0
  9
$DIMSOXD
 70
     0
  9
$DIMSAH
 70
     0
  9
$DIMBLK1
  1

  9
$DIMBLK2
  1

  9
$DIMSTYLE
  2
SANINDUSA
  9
$DIMCLRD
 70
   256
  9
$DIMCLRE
 70
   256
  9
$DIMCLRT
 70
   256
  9
$DIMTFAC
 40
1.0
  9
$DIMGAP
 40
1.0
  9
$DIMJUST
 70
     0
  9
$DIMSD1
 70
     0
  9
$DIMSD2
 70
     0
  9
$DIMTOLJ
 70
     0
  9
$DIMTZIN
 70
     8
  9
$DIMALTZ
 70
     0
  9
$DIMALTTZ
 70
     0
  9
$DIMUPT
 70
     0
  9
$DIMDEC
 70
     1
  9
$DIMTDEC
 70
     1
  9
$DIMALTU
 70
     2
  9
$DIMALTTD
 70
     3
  9
$DIMTXSTY
  7
SANINDUSA
  9
$DIMAUNIT
 70
     0
  9
$DIMADEC
 70
     1
  9
$DIMALTRND
 40
0.0
  9
$DIMAZIN
 70
     0
  9
$DIMDSEP
 70
    44
  9
$DIMATFIT
 70
     3
  9
$DIMFRAC
 70
     0
  9
$DIMLDRBLK
  1

  9
$DIMLUNIT
 70
     2
  9
$DIMLWD
 70
    -1
  9
$DIMLWE
 70
    -1
  9
$DIMTMOVE
 70
     0
  9
$LUNITS
 70
     2
  9
$LUPREC
 70
     4
  9
$SKETCHINC
 40
1.0
  9
$FILLETRAD
 40
0.0
  9
$AUNITS
 70
     0
  9
$AUPREC
 70
     0
  9
$MENU
  1
.
  9
$ELEVATION
 40
0.0
  9
$PELEVATION
 40
0.0
  9
$THICKNESS
 40
0.0
  9
$LIMCHECK
 70
     0
  9
$CHAMFERA
 40
10.0
  9
$CHAMFERB
 40
10.0
  9
$CHAMFERC
 40
20.0
  9
$CHAMFERD
 40
0.0
  9
$SKPOLY
 70
     0
  9
$TDCREATE
 40
2453480.737774885
  9
$TDUCREATE
 40
2453480.696108218
  9
$TDUPDATE
 40
2456146.742626042
  9
$TDUUPDATE
 40
2456146.700959375
  9
$TDINDWG
 40
0.0286174306
  9
$TDUSRTIMER
 40
0.0286174306
  9
$USRTIMER
 70
     1
  9
$ANGBASE
 50
0.0
  9
$ANGDIR
 70
     0
  9
$PDMODE
 70
     0
  9
$PDSIZE
 40
0.0
  9
$PLINEWID
 40
0.0
  9
$SPLFRAME
 70
     0
  9
$SPLINETYPE
 70
     6
  9
$SPLINESEGS
 70
     8
  9
$HANDSEED
  5
1325
  9
$SURFTAB1
 70
     6
  9
$SURFTAB2
 70
     6
  9
$SURFTYPE
 70
     6
  9
$SURFU
 70
     6
  9
$SURFV
 70
     6
  9
$UCSBASE
  2

  9
$UCSNAME
  2

  9
$UCSORG
 10
0.0
 20
0.0
 30
0.0
  9
$UCSXDIR
 10
1.0
 20
0.0
 30
0.0
  9
$UCSYDIR
 10
0.0
 20
1.0
 30
0.0
  9
$UCSORTHOREF
  2

  9
$UCSORTHOVIEW
 70
     0
  9
$UCSORGTOP
 10
0.0
 20
0.0
 30
0.0
  9
$UCSORGBOTTOM
 10
0.0
 20
0.0
 30
0.0
  9
$UCSORGLEFT
 10
0.0
 20
0.0
 30
0.0
  9
$UCSORGRIGHT
 10
0.0
 20
0.0
 30
0.0
  9
$UCSORGFRONT
 10
0.0
 20
0.0
 30
0.0
  9
$UCSORGBACK
 10
0.0
 20
0.0
 30
0.0
  9
$PUCSBASE
  2

  9
$PUCSNAME
  2

  9
$PUCSORG
 10
0.0
 20
0.0
 30
0.0
  9
$PUCSXDIR
 10
1.0
 20
0.0
 30
0.0
  9
$PUCSYDIR
 10
0.0
 20
1.0
 30
0.0
  9
$PUCSORTHOREF
  2

  9
$PUCSORTHOVIEW
 70
     0
  9
$PUCSORGTOP
 10
0.0
 20
0.0
 30
0.0
  9
$PUCSORGBOTTOM
 10
0.0
 20
0.0
 30
0.0
  9
$PUCSORGLEFT
 10
0.0
 20
0.0
 30
0.0
  9
$PUCSORGRIGHT
 10
0.0
 20
0.0
 30
0.0
  9
$PUCSORGFRONT
 10
0.0
 20
0.0
 30
0.0
  9
$PUCSORGBACK
 10
0.0
 20
0.0
 30
0.0
  9
$USERI1
 70
     0
  9
$USERI2
 70
     0
  9
$USERI3
 70
     0
  9
$USERI4
 70
     0
  9
$USERI5
 70
     0
  9
$USERR1
 40
0.0
  9
$USERR2
 40
0.0
  9
$USERR3
 40
0.0
  9
$USERR4
 40
0.0
  9
$USERR5
 40
0.0
  9
$WORLDVIEW
 70
     1
  9
$SHADEDGE
 70
     3
  9
$SHADEDIF
 70
    70
  9
$TILEMODE
 70
     1
  9
$MAXACTVP
 70
    64
  9
$PINSBASE
 10
0.0
 20
0.0
 30
0.0
  9
$PLIMCHECK
 70
     0
  9
$PEXTMIN
 10
1.000000000000000E+20
 20
1.000000000000000E+20
 30
1.000000000000000E+20
  9
$PEXTMAX
 10
-1.000000000000000E+20
 20
-1.000000000000000E+20
 30
-1.000000000000000E+20
  9
$PLIMMIN
 10
0.0
 20
0.0
  9
$PLIMMAX
 10
420.0
 20
297.0
  9
$UNITMODE
 70
     0
  9
$VISRETAIN
 70
     1
  9
$PLINEGEN
 70
     0
  9
$PSLTSCALE
 70
     1
  9
$TREEDEPTH
 70
  3020
  9
$CMLSTYLE
  2
Standard
  9
$CMLJUST
 70
     0
  9
$CMLSCALE
 40
20.0
  9
$PROXYGRAPHICS
 70
     1
  9
$MEASUREMENT
 70
     1
  9
$CELWEIGHT
370
    -1
  9
$ENDCAPS
280
     0
  9
$JOINSTYLE
280
     0
  9
$LWDISPLAY
290
     0
  9
$INSUNITS
 70
     4
  9
$HYPERLINKBASE
  1

  9
$STYLESHEET
  1
monochrome.ctb
  9
$XEDIT
290
     1
  9
$CEPSNTYPE
380
     0
  9
$PSTYLEMODE
290
     1
  9
$FINGERPRINTGUID
  2
{B98A73AA-52AA-4C10-B469-C0E7150AC31F}
  9
$VERSIONGUID
  2
{AA8E1DD1-9643-49CC-9074-00480541C0A7}
  9
$EXTNAMES
290
     1
  9
$PSVPSCALE
 40
0.0
  9
$OLESTARTUP
290
     0
  0
ENDSEC
  0
SECTION
  2
CLASSES
  0
CLASS
  1
ACDBDICTIONARYWDFLT
  2
AcDbDictionaryWithDefault
  3
ObjectDBX Classes
 90
        0
280
     0
281
     0
  0
CLASS
  1
ACDBPLACEHOLDER
  2
AcDbPlaceHolder
  3
ObjectDBX Classes
 90
        0
280
     0
281
     0
  0
CLASS
  1
LAYOUT
  2
AcDbLayout
  3
ObjectDBX Classes
 90
        0
280
     0
281
     0
  0
CLASS
  1
DICTIONARYVAR
  2
AcDbDictionaryVar
  3
ObjectDBX Classes
 90
        0
280
     0
281
     0
  0
CLASS
  1
DIMASSOC
  2
AcDbDimAssoc
  3
"AcDbDimAssoc|Product Desc:     AcDim ARX App For Dimension|Company:          Autodesk, Inc.|WEB Address:      www.autodesk.com"
 90
    32768
280
     0
281
     0
  0
CLASS
  1
MATERIAL
  2
AcDbMaterial
  3
ObjectDBX Classes
 90
     1153
280
     0
281
     0
  0
CLASS
  1
VISUALSTYLE
  2
AcDbVisualStyle
  3
ObjectDBX Classes
 90
     4095
280
     0
281
     0
  0
CLASS
  1
TABLESTYLE
  2
AcDbTableStyle
  3
ObjectDBX Classes
 90
     4095
280
     0
281
     0
  0
CLASS
  1
SCALE
  2
AcDbScale
  3
ObjectDBX Classes
 90
     1153
280
     0
281
     0
  0
CLASS
  1
MLEADERSTYLE
  2
AcDbMLeaderStyle
  3
ACDB_MLEADERSTYLE_CLASS
 90
     4095
280
     0
281
     0
  0
CLASS
  1
CELLSTYLEMAP
  2
AcDbCellStyleMap
  3
ObjectDBX Classes
 90
     1152
280
     0
281
     0
  0
ENDSEC
  0
SECTION
  2
TABLES
  0
TABLE
  2
VPORT
  5
8
330
0
100
AcDbSymbolTable
 70
     1
  0
VPORT
  5
1280
330
8
100
AcDbSymbolTableRecord
100
AcDbViewportTableRecord
  2
*Active
 70
     0
 10
0.0
 20
0.0
 11
1.0
 21
1.0
 12
103.9867764023875
 22
143.2392052824197
 13
0.0
 23
0.0
 14
10.0
 24
10.0
 15
10.0
 25
10.0
 16
0.0
 26
0.0
 36
1.0
 17
0.0
 27
0.0
 37
0.0
 40
3.030632728039809
 41
1.645464025026068
 42
50.0
 43
0.0
 44
0.0
 50
0.0
 51
0.0
 71
     0
 72
   100
 73
     1
 74
     2
 75
     0
 76
     0
 77
     0
 78
     0
281
     0
 65
     1
110
0.0
120
0.0
130
0.0
111
1.0
121
0.0
131
0.0
112
0.0
122
1.0
132
0.0
 79
     0
146
0.0
  0
ENDTAB
  0
TABLE
  2
LTYPE
  5
5
330
0
100
AcDbSymbolTable
 70
     3
  0
LTYPE
  5
14
330
5
100
AcDbSymbolTableRecord
100
AcDbLinetypeTableRecord
  2
ByBlock
 70
     0
  3

 72
    65
 73
     0
 40
0.0
  0
LTYPE
  5
15
330
5
100
AcDbSymbolTableRecord
100
AcDbLinetypeTableRecord
  2
ByLayer
 70
     0
  3

 72
    65
 73
     0
 40
0.0
  0
LTYPE
  5
16
330
5
100
AcDbSymbolTableRecord
100
AcDbLinetypeTableRecord
  2
Continuous
 70
     0
  3
Solid line
 72
    65
 73
     0
 40
0.0
  0
LTYPE
  5
2D
330
5
100
AcDbSymbolTableRecord
100
AcDbLinetypeTableRecord
  2
DASHDOT
 70
     0
  3
Dash dot __ . __ . __ . __ . __ . __ . __ . __
 72
    65
 73
     4
 40
25.4
 49
12.7
 74
     0
 49
-6.349999999999999
 74
     0
 49
0.0
 74
     0
 49
-6.349999999999999
 74
     0
  0
LTYPE
  5
2E
330
5
100
AcDbSymbolTableRecord
100
AcDbLinetypeTableRecord
  2
HIDDEN
 70
     0
  3
Hidden __ __ __ __ __ __ __ __ __ __ __ __ __ _
 72
    65
 73
     2
 40
9.524999999999998
 49
6.349999999999999
 74
     0
 49
-3.174999999999999
 74
     0
  0
ENDTAB
  0
TABLE
  2
LAYER
  5
2
330
0
100
AcDbSymbolTable
 70
    17
  0
LAYER
  5
10
102
{ACAD_XDICTIONARY
360
12CA
102
}
330
2
100
AcDbSymbolTableRecord
100
AcDbLayerTableRecord
  2
0
 70
     0
 62
     7
  6
Continuous
370
    -3
390
F
  0
LAYER
  5
2F
102
{ACAD_XDICTIONARY
360
12CC
102
}
330
2
100
AcDbSymbolTableRecord
100
AcDbLayerTableRecord
  2
1
 70
     0
 62
     1
  6
Continuous
370
    -3
390
F
  0
LAYER
  5
30
102
{ACAD_XDICTIONARY
360
12CE
102
}
330
2
100
AcDbSymbolTableRecord
100
AcDbLayerTableRecord
  2
2
 70
     0
 62
     2
  6
Continuous
370
    -3
390
F
  0
LAYER
  5
31
102
{ACAD_XDICTIONARY
360
12D0
102
}
330
2
100
AcDbSymbolTableRecord
100
AcDbLayerTableRecord
  2
3
 70
     0
 62
     3
  6
Continuous
370
    -3
390
F
  0
LAYER
  5
32
102
{ACAD_XDICTIONARY
360
12D2
102
}
330
2
100
AcDbSymbolTableRecord
100
AcDbLayerTableRecord
  2
4
 70
     0
 62
     4
  6
Continuous
370
    -3
390
F
  0
LAYER
  5
33
102
{ACAD_XDICTIONARY
360
12D4
102
}
330
2
100
AcDbSymbolTableRecord
100
AcDbLayerTableRecord
  2
5
 70
     0
 62
     5
  6
Continuous
370
    -3
390
F
  0
LAYER
  5
34
102
{ACAD_XDICTIONARY
360
12D6
102
}
330
2
100
AcDbSymbolTableRecord
100
AcDbLayerTableRecord
  2
6
 70
     0
 62
     6
  6
Continuous
370
    -3
390
F
  0
LAYER
  5
35
102
{ACAD_XDICTIONARY
360
12D8
102
}
330
2
100
AcDbSymbolTableRecord
100
AcDbLayerTableRecord
  2
7
 70
     0
 62
     7
  6
Continuous
370
    -3
390
F
  0
LAYER
  5
36
102
{ACAD_XDICTIONARY
360
12DA
102
}
330
2
100
AcDbSymbolTableRecord
100
AcDbLayerTableRecord
  2
cen
 70
     0
 62
     7
  6
DASHDOT
370
    -3
390
F
  0
LAYER
  5
37
102
{ACAD_XDICTIONARY
360
12DC
102
}
330
2
100
AcDbSymbolTableRecord
100
AcDbLayerTableRecord
  2
hid
 70
     0
 62
     7
  6
HIDDEN
370
    -3
390
F
  0
LAYER
  5
5D6
102
{ACAD_XDICTIONARY
360
12DE
102
}
330
2
100
AcDbSymbolTableRecord
100
AcDbLayerTableRecord
  2
hatch
 70
     0
 62
     9
  6
Continuous
370
    -3
390
F
  0
LAYER
  5
8AF
102
{ACAD_XDICTIONARY
360
12E0
102
}
330
2
100
AcDbSymbolTableRecord
100
AcDbLayerTableRecord
  2
9
 70
     0
 62
    -9
  6
Continuous
370
    -3
390
F
  0
LAYER
  5
8F8
102
{ACAD_XDICTIONARY
360
12E2
102
}
330
2
100
AcDbSymbolTableRecord
100
AcDbLayerTableRecord
  2
leg fin
 70
     0
 62
     9
  6
Continuous
370
    -3
390
F
  0
LAYER
  5
91D
102
{ACAD_XDICTIONARY
360
12E4
102
}
330
2
100
AcDbSymbolTableRecord
100
AcDbLayerTableRecord
  2
cotas
 70
     0
 62
     1
  6
Continuous
370
    -3
390
F
  0
LAYER
  5
92F
330
2
100
AcDbSymbolTableRecord
100
AcDbLayerTableRecord
  2
Defpoints
 70
     0
 62
     7
  6
Continuous
290
     0
370
    -3
390
F
  0
LAYER
  5
F2D
102
{ACAD_XDICTIONARY
360
12E6
102
}
330
2
100
AcDbSymbolTableRecord
100
AcDbLayerTableRecord
  2
BLOCKS
 70
     0
 62
     3
  6
Continuous
370
    -3
390
F
  0
LAYER
  5
FCD
102
{ACAD_XDICTIONARY
360
12E8
102
}
330
2
100
AcDbSymbolTableRecord
100
AcDbLayerTableRecord
  2
SANINDUSA
 70
     0
 62
     3
  6
Continuous
370
    -3
390
F
  0
ENDTAB
  0
TABLE
  2
STYLE
  5
3
330
0
100
AcDbSymbolTable
 70
     3
  0
STYLE
  5
11
330
3
100
AcDbSymbolTableRecord
100
AcDbTextStyleTableRecord
  2
Standard
 70
     0
 40
0.0
 41
1.0
 50
0.0
 71
     0
 42
2.5
  3
Avgardn.ttf
  4

1001
ACAD
1000
AvantGarde Bk BT
1071
       34
  0
STYLE
  5
2C
330
3
100
AcDbSymbolTableRecord
100
AcDbTextStyleTableRecord
  2

 70
     1
 40
0.0
 41
1.0
 50
0.0
 71
     0
 42
2.5
  3
ltypeshp.shx
  4

  0
STYLE
  5
91F
330
3
100
AcDbSymbolTableRecord
100
AcDbTextStyleTableRecord
  2
SANINDUSA
 70
     0
 40
0.0
 41
1.0
 50
0.0
 71
     0
 42
2.5
  3
verdana.TTF
  4

1001
ACAD
1000
Verdana
1071
       34
  0
ENDTAB
  0
TABLE
  2
VIEW
  5
6
330
0
100
AcDbSymbolTable
 70
     0
  0
ENDTAB
  0
TABLE
  2
UCS
  5
7
330
0
100
AcDbSymbolTable
 70
     0
  0
ENDTAB
  0
TABLE
  2
APPID
  5
9
330
0
100
AcDbSymbolTable
 70
     3
  0
APPID
  5
12
330
9
100
AcDbSymbolTableRecord
100
AcDbRegAppTableRecord
  2
ACAD
 70
     0
  0
APPID
  5
3A
330
9
100
AcDbSymbolTableRecord
100
AcDbRegAppTableRecord
  2
DCO15
 70
     0
  0
APPID
  5
1324
330
9
100
AcDbSymbolTableRecord
100
AcDbRegAppTableRecord
  2
ACAD_MLEADERVER
 70
     0
  0
ENDTAB
  0
TABLE
  2
DIMSTYLE
  5
A
330
0
100
AcDbSymbolTable
 70
     2
100
AcDbDimStyleTable
 71
     1
340
921
  0
DIMSTYLE
105
45
330
A
100
AcDbSymbolTableRecord
100
AcDbDimStyleTableRecord
  2
STANDARD
 70
     0
289
     0
340
11
  0
DIMSTYLE
105
921
330
A
100
AcDbSymbolTableRecord
100
AcDbDimStyleTableRecord
  2
SANINDUSA
 70
     0
 41
2.0
 42
1.0
 43
1.0
 44
1.0
 73
     0
 74
     0
 77
     1
 78
     8
140
2.0
141
0.0
143
0.03937007874016
147
1.0
171
     3
172
     1
176
   256
177
   256
178
   256
179
     1
271
     1
272
     1
274
     3
278
    44
283
     0
284
     8
340
91F
371
    -1
372
    -1
  0
ENDTAB
  0
TABLE
  2
BLOCK_RECORD
  5
1
330
0
100
AcDbSymbolTable
 70
     6
  0
BLOCK_RECORD
  5
1F
330
1
100
AcDbSymbolTableRecord
100
AcDbBlockTableRecord
  2
*Model_Space
340
22
  0
BLOCK_RECORD
  5
1B
330
1
100
AcDbSymbolTableRecord
100
AcDbBlockTableRecord
  2
*Paper_Space
340
1E
  0
BLOCK_RECORD
  5
23
330
1
100
AcDbSymbolTableRecord
100
AcDbBlockTableRecord
  2
*Paper_Space0
340
26
  0
BLOCK_RECORD
  5
919
330
1
100
AcDbSymbolTableRecord
100
AcDbBlockTableRecord
  2
_DotSmall
340
0
  0
BLOCK_RECORD
  5
922
330
1
100
AcDbSymbolTableRecord
100
AcDbBlockTableRecord
  2
base para cotas
340
0
310
2800000020000000200000000100080000000000000400000000000000000000000000000000000000000000000080000080000000808000800000008000800080800000C0C0C000C0DCC000F0CAA6000020400000206000002080000020A0000020C0000020E00000400000004020000040400000406000004080000040A0
310
000040C0000040E00000600000006020000060400000606000006080000060A0000060C0000060E00000800000008020000080400000806000008080000080A0000080C0000080E00000A0000000A0200000A0400000A0600000A0800000A0A00000A0C00000A0E00000C0000000C0200000C0400000C0600000C0800000C0
310
A00000C0C00000C0E00000E0000000E0200000E0400000E0600000E0800000E0A00000E0C00000E0E00040000000400020004000400040006000400080004000A0004000C0004000E00040200000402020004020400040206000402080004020A0004020C0004020E000404000004040200040404000404060004040800040
310
40A0004040C0004040E00040600000406020004060400040606000406080004060A0004060C0004060E00040800000408020004080400040806000408080004080A0004080C0004080E00040A0000040A0200040A0400040A0600040A0800040A0A00040A0C00040A0E00040C0000040C0200040C0400040C0600040C08000
310
40C0A00040C0C00040C0E00040E0000040E0200040E0400040E0600040E0800040E0A00040E0C00040E0E00080000000800020008000400080006000800080008000A0008000C0008000E00080200000802020008020400080206000802080008020A0008020C0008020E00080400000804020008040400080406000804080
310
008040A0008040C0008040E00080600000806020008060400080606000806080008060A0008060C0008060E00080800000808020008080400080806000808080008080A0008080C0008080E00080A0000080A0200080A0400080A0600080A0800080A0A00080A0C00080A0E00080C0000080C0200080C0400080C0600080C0
310
800080C0A00080C0C00080C0E00080E0000080E0200080E0400080E0600080E0800080E0A00080E0C00080E0E000C0000000C0002000C0004000C0006000C0008000C000A000C000C000C000E000C0200000C0202000C0204000C0206000C0208000C020A000C020C000C020E000C0400000C0402000C0404000C0406000C0
310
408000C040A000C040C000C040E000C0600000C0602000C0604000C0606000C0608000C060A000C060C000C060E000C0800000C0802000C0804000C0806000C0808000C080A000C080C000C080E000C0A00000C0A02000C0A04000C0A06000C0A08000C0A0A000C0A0C000C0A0E000C0C00000C0C02000C0C04000C0C06000
310
C0C08000C0C0A000F0FBFF00A4A0A000808080000000FF0000FF000000FFFF00FF000000FF00FF00FFFF0000FFFFFF00A4A4A4A4A4A4A4A4A4A4A4A4A4A4A4A4A4A4A4A4A4A4A4A4A4A4A4A4A4A4A4A4A4A4A4A4A4A4A4A4A4A4A4A4A4A4A4A4A4A4A4A4A4A4A4A4A4A4A4A4A4A4A4A4A4A4A4A4A4A4A4A4A4A4A4A4A4A4A4
310
A4A4A4A4A4A4A4A4A4A4A4A4A4A4A4A4A4A4A4A4A4A4A4A4A4A4A4A4A4A4A4A4A4A4A4A4A4A4A4A4A4A4A4A4A4A4A4A4A4A4A4A4A4A4A4A4A4A4A4A4A4A4A4A4A4A4A4A4A4A4A4A4A4A4A4A4A4A4A4A4A4A4A4A4A4A4A4A4A4A4A4A4A4A4A4A4A4A4A4A4A4A4A4A4A4A4A4A4A4A4A4A4A4A4A4A4A4A4A4A4A4A4A4A4A4A4A4
310
A4A4A4A4A4A4A4A4A4A4A4A4A4A4A4A4A4A4A4A4A4A4A4A4A4A4A4A4A4A4A4A4A4A4A4A4A4A4A4A4A4A4A4A4A4A4A4A4A4A4A4A4A4A4A4A4A4A4A4A4A4A4A4A4A4A4A4A4A4A4A4A4A4A4A4A4A4A4A4A4A4A4A4A4A4A4A4A4A4A4A4A4A4A4A4A4A4A4A4A4A4A4A4A4A4A4A4A4A4A4A4A4A4A4A4A4A4A4A4A4A4A4A4A4A4A4A4
310
A4A4A4A4A4A4A4A4A4A4A4A4A4A4A4A4A4A4A4A4A4A4A4A4A4A4A4A4A4A4A4A4A4A4A4A4A4A4A4A4A4A4A4A4A4A4A4A4A4A4A4A4A4A4A4A4A4A4A4A4A4A4A4A4A4A4A4A4A4A4A4A4A4A4A4A4A4A4A4A4A4A4A4A4A4A4A4A4A4A4A4A4A4A4A4A4A4A4A4A4A4A4A4A4A4A4A4A4A4A4A4A4A4A4A4A4F9F9F9F9F9F9F9F9F9F9F9
310
F9F9F9F9F9F9F9F9F9F9F9F9F9F9F9F9F9F9F9A4A4F9F9F9F9F9F9F9F9F9F9F9F9F9F9F9F9F9F9F9F9F9F9F9F9F9F9F9F9F9F9A4A4F9F9F9F9F9F9F9F9F9F9F9F9F9F9F9F9F9F9F9F9F9F9F9F9F9F9F9F9F9F9A4A4F9A4A4A4A4A4A4A4A4A4A4A4A4A4A4A4A4A4A4A4A4A4A4A4A4A4A4A4A4F9A4A4A4A4A4A4A4A4A4A4A4A4
310
A4A4A4A4A4A4A4A4A4A4A4A4A4A4A4A4A4A4A4A4A4A4A4A4A4A4A4A4A4A4A4A4A4A4A4A4A4A4A4A4A4A4A4A4A4A4A4A4A4A4A4A4A4A4A4A4A4A4A4A4A4A4A4A4A4A4A4A4A4A4A4A4A4A4A4A4A4A4A4A4A4A4A4A4A4A4A4A4A4A4A4A4A4A4A4A4A4A4A4A4A4A4A4A4A4A4A4A4A4A4A4A4A4A4A4A4A4A4A4A4A4A4A4A4A4A4A4
310
A4A4A4A4A4A4A4A4A4A4A4A4A4A4A4A4A4A4A4A4A4A4A4A4A4A4A4A4A4A4A4A4A4A4A4A4A4A4A4A4A4A4A4A4A4A4A4A4A4A4A4A4A4A4A4A4A4A4A4A4A4A4A4A4A4A4A4A4A4A4A4A4A4A4A4A4A4A4A4A4A4A4A4A4A4A4A4A4A4A4A4A4A4A4A4A4A4A4A4A4A4A4A4A4A4A4A4A4A4A4A4A4A4A4A4A4A4A4A4A4A4A4A4A4A4A4A4
310
A4A4A4A4A4A4A4A4A4A4A4A4A4A4A4A4A4A4A4A4A4A4A4A4A4A4A4A4A4A4A4A4A4A4A4A4A4A4A4A4A4A4A4A4A4A4A4A4A4A4A4A4A4A4A4A4A4A4A4A4A4A4A4A4A4A4A4A4A4A4A4A4A4A4A4A4A4A4A4A4A4A4A4A4A4A4A4A4A4A4A4A4A4A4A4A4A4A4A4A4A4A4A4A4A4A4A4A4A4A4A4A4A4A4A4A4A4A4A4A4A4A4A4A4A4A4A4
310
A4A4A4A4A4A4A4A4A4A4A4A4A4A4A4A4A4A4A4A4A4A4A4A4A4A4A4A4A4A4A4A4A4A4A4A4A4A4A4A4A4A4A4A4A4A4A4A4A4A4A4A4A4A4A4A4
1001
ACAD
1000
DesignCenter Data
1002
{
1070
     1
1070
     4
1002
}
  0
BLOCK_RECORD
  5
AA8
330
1
100
AcDbSymbolTableRecord
100
AcDbBlockTableRecord
  2
_CLOSED
340
0
  0
BLOCK_RECORD
  5
F2E
330
1
100
AcDbSymbolTableRecord
100
AcDbBlockTableRecord
  2
106200CT
340
0
  0
BLOCK_RECORD
  5
FA7
330
1
100
AcDbSymbolTableRecord
100
AcDbBlockTableRecord
  2
106200AL
340
0
  0
ENDTAB
  0
ENDSEC
  0
SECTION
  2
BLOCKS
  0
BLOCK
  5
20
330
1F
100
AcDbEntity
  8
0
100
AcDbBlockBegin
  2
*Model_Space
 70
     0
 10
0.0
 20
0.0
 30
0.0
  3
*Model_Space
  1

  0
ENDBLK
  5
21
330
1F
100
AcDbEntity
  8
0
100
AcDbBlockEnd
  0
BLOCK
  5
1C
330
1B
100
AcDbEntity
 67
     1
  8
0
100
AcDbBlockBegin
  2
*Paper_Space
 70
     0
 10
0.0
 20
0.0
 30
0.0
  3
*Paper_Space
  1

  0
ENDBLK
  5
1D
330
1B
100
AcDbEntity
 67
     1
  8
0
100
AcDbBlockEnd
  0
BLOCK
  5
24
330
23
100
AcDbEntity
 67
     1
  8
0
100
AcDbBlockBegin
  2
*Paper_Space0
 70
     0
 10
0.0
 20
0.0
 30
0.0
  3
*Paper_Space0
  1

  0
ENDBLK
  5
25
330
23
100
AcDbEntity
 67
     1
  8
0
100
AcDbBlockEnd
  0
BLOCK
  5
91B
330
919
100
AcDbEntity
  8
0
100
AcDbBlockBegin
  2
_DotSmall
 70
     0
 10
0.0
 20
0.0
 30
0.0
  3
_DotSmall
  1

  0
LWPOLYLINE
  5
91A
330
919
100
AcDbEntity
  8
0
  6
ByBlock
 62
     0
100
AcDbPolyline
 90
        2
 70
     1
 43
0.5
 10
-0.0625
 20
0.0
 42
1.0
 10
0.0625
 20
0.0
 42
1.0
  0
ENDBLK
  5
91C
330
919
100
AcDbEntity
  8
0
100
AcDbBlockEnd
  0
BLOCK
  5
92A
330
922
100
AcDbEntity
  8
0
100
AcDbBlockBegin
  2
base para cotas
 70
     0
 10
0.0
 20
0.0
 30
0.0
  3
base para cotas
  1

  0
LINE
  5
B36
330
922
100
AcDbEntity
  8
cotas
100
AcDbLine
 10
0.0
 20
-30.0
 30
0.0
 11
327.1260136525398
 21
-30.0
 31
0.0
  0
LINE
  5
B37
330
922
100
AcDbEntity
  8
cotas
100
AcDbLine
 10
0.0
 20
-25.0
 30
0.0
 11
327.1260136525398
 21
-25.0
 31
0.0
  0
LINE
  5
B38
330
922
100
AcDbEntity
  8
cotas
100
AcDbLine
 10
0.0
 20
-20.0
 30
0.0
 11
327.1260136525398
 21
-20.0
 31
0.0
  0
LINE
  5
B39
330
922
100
AcDbEntity
  8
cotas
100
AcDbLine
 10
0.0
 20
-15.0
 30
0.0
 11
327.1260136525398
 21
-15.0
 31
0.0
  0
LINE
  5
B3A
330
922
100
AcDbEntity
  8
cotas
100
AcDbLine
 10
0.0
 20
-10.0
 30
0.0
 11
327.1260136525398
 21
-10.0
 31
0.0
  0
LINE
  5
B3B
330
922
100
AcDbEntity
  8
cotas
100
AcDbLine
 10
0.0
 20
0.0
 30
0.0
 11
0.0
 21
-30.0
 31
0.0
  0
LINE
  5
B3C
330
922
100
AcDbEntity
  8
cotas
100
AcDbLine
 10
327.1260136525398
 20
-30.0
 30
0.0
 11
327.1260136525398
 21
0.0
 31
0.0
  0
ENDBLK
  5
92B
330
922
100
AcDbEntity
  8
0
100
AcDbBlockEnd
  0
BLOCK
  5
AAD
330
AA8
100
AcDbEntity
  8
0
100
AcDbBlockBegin
  2
_CLOSED
 70
     0
 10
0.0
 20
0.0
 30
0.0
  3
_CLOSED
  1

  0
LINE
  5
AA9
330
AA8
100
AcDbEntity
  8
0
100
AcDbLine
 10
-1.0
 20
0.166667
 30
0.0
 11
0.0
 21
0.0
 31
0.0
  0
LINE
  5
AAA
330
AA8
100
AcDbEntity
  8
0
100
AcDbLine
 10
0.0
 20
0.0
 30
0.0
 11
-1.0
 21
-0.166667
 31
0.0
  0
LINE
  5
AAB
330
AA8
100
AcDbEntity
  8
0
100
AcDbLine
 10
-1.0
 20
0.166667
 30
0.0
 11
-1.0
 21
-0.166667
 31
0.0
  0
LINE
  5
AAC
330
AA8
100
AcDbEntity
  8
0
100
AcDbLine
 10
0.0
 20
0.0
 30
0.0
 11
-1.0
 21
0.0
 31
0.0
  0
ENDBLK
  5
AAE
330
AA8
100
AcDbEntity
  8
0
100
AcDbBlockEnd
  0
BLOCK
  5
FA4
330
F2E
100
AcDbEntity
  8
0
100
AcDbBlockBegin
  2
106200CT
 70
     0
 10
0.0
 20
0.0
 30
0.0
  3
106200CT
  1

  0
LINE
  5
F2F
330
F2E
100
AcDbEntity
  8
BLOCKS
  6
Continuous
100
AcDbLine
 10
0.3325306147434048
 20
0.7000000000000455
 30
0.0
 11
0.33299999999997
 21
0.7000000000000455
 31
0.0
  0
LINE
  5
F30
330
F2E
100
AcDbEntity
  8
BLOCKS
  6
Continuous
100
AcDbLine
 10
0.3327542494627096
 20
0.7039999999999509
 30
0.0
 11
0.3227386327544082
 21
0.7039999999999509
 31
0.0
  0
LINE
  5
F31
330
F2E
100
AcDbEntity
  8
BLOCKS
  6
Continuous
100
AcDbLine
 10
0.4850000000000137
 20
0.8300000000000409
 30
0.0
 11
0.4850000000000137
 21
0.7799999999999728
 31
0.0
  0
LWPOLYLINE
  5
F32
330
F2E
100
AcDbEntity
  8
BLOCKS
  6
Continuous
100
AcDbPolyline
 90
       17
 70
   128
 43
0.0
 10
0.4421214689879207
 20
0.8300537890809209
 10
0.4342356061888495
 20
0.8172069529769032
 10
0.425537523841399
 20
0.8050387601911097
 10
0.4161170544318793
 20
0.7935359219317207
 10
0.4060196540802963
 20
0.7827181914212816
 10
0.395288050094905
 20
0.7726073537176035
 10
0.3841681132886379
 20
0.7633891898832417
 10
0.372511143272618
 20
0.7548997415902932
 10
0.3603546948750136
 20
0.7471618248353025
 10
0.347736324569496
 20
0.7401982543867689
 10
0.3344232498367319
 20
0.7339144756219867
 10
0.3207082139628028
 20
0.7284849370948905
 10
0.3066312277185261
 20
0.7239331984550291
 10
0.2922318778341832
 20
0.7202854270270791
 10
0.2775520050655587
 20
0.7175539287920856
 10
0.2626163921771649
 20
0.7158559094808652
 10
0.2474999999999454
 20
0.7150000000000319
  0
ARC
  5
F33
330
F2E
100
AcDbEntity
  8
BLOCKS
100
AcDbCircle
 10
0.422954151165186
 20
0.7730000000000246
 30
0.0
 40
0.002
100
AcDbArc
 50
90.0
 51
140.9357675971388
  0
ARC
  5
F34
330
F2E
100
AcDbEntity
  8
BLOCKS
  6
Continuous
100
AcDbCircle
 10
0.240844400373021
 20
0.6689999999999828
 30
0.0
 40
0.001
100
AcDbArc
 50
270.0
 51
353.0000000000073
  0
ARC
  5
F35
330
F2E
100
AcDbEntity
  8
BLOCKS
  6
Continuous
100
AcDbCircle
 10
0.2346971563658826
 20
0.6689999999999828
 30
0.0
 40
0.001
100
AcDbArc
 50
176.9999999999939
 51
270.0
  0
LWPOLYLINE
  5
F36
330
F2E
100
AcDbEntity
  8
BLOCKS
  6
Continuous
100
AcDbPolyline
 90
       13
 70
   128
 43
0.0
 10
0.3833616427270954
 20
0.7504310047186209
 10
0.3781450319842179
 20
0.7466318916468709
 10
0.3654604033499709
 20
0.7385577735140032
 10
0.3522909351614771
 20
0.731290074335675
 10
0.3384019792312074
 20
0.7247344793215689
 10
0.3240904502127933
 20
0.7190687997782561
 10
0.3144496839737485
 20
0.7159514955878877
 42
0.8546965523829813
 10
0.3147573463638764
 20
0.7140000000000555
 10
0.3304976991065587
 20
0.7140000000000555
 42
-0.2914734195861366
 10
0.3314040068936492
 20
0.7134226182616886
 10
0.3327307624737159
 20
0.7105773817382897
 42
0.2914734195861055
 10
0.3336370702608065
 20
0.7100000000000364
 10
0.3369379422390466
 20
0.7100000000000364
  0
ARC
  5
F37
330
F2E
100
AcDbEntity
  8
BLOCKS
100
AcDbCircle
 10
0.3839503427756199
 20
0.7496226531535513
 30
0.0
 40
0.001
100
AcDbArc
 50
314.100415310674
 51
126.064813872643
  0
ARC
  5
F38
330
F2E
100
AcDbEntity
  8
BLOCKS
  6
Continuous
100
AcDbCircle
 10
0.4800000000000182
 20
0.7799999999999728
 30
0.0
 40
0.005
100
AcDbArc
 50
270.0
 51
0.0
  0
LINE
  5
F39
330
F2E
100
AcDbEntity
  8
BLOCKS
  6
Continuous
100
AcDbLine
 10
0.4832953881460753
 20
0.7762396254220221
 30
0.0
 11
0.4837603745779689
 21
0.7767046118539156
 31
0.0
  0
LINE
  5
F3A
330
F2E
100
AcDbEntity
  8
BLOCKS
  6
Continuous
100
AcDbLine
 10
0.4800000000000182
 20
0.7749999999999773
 30
0.0
 11
0.422954151165186
 21
0.7749999999999773
 31
0.0
  0
LINE
  5
F3B
330
F2E
100
AcDbEntity
  8
BLOCKS
  6
Continuous
100
AcDbLine
 10
0.3325808673075699
 20
0.7008988329595241
 30
0.0
 11
0.33299999999997
 21
0.7000000000000455
 31
0.0
  0
LINE
  5
F3C
330
F2E
100
AcDbEntity
  8
BLOCKS
  6
Continuous
100
AcDbLine
 10
0.3400000000000318
 20
0.7000000000000455
 30
0.0
 11
0.33299999999997
 21
0.7000000000000455
 31
0.0
  0
LINE
  5
F3D
330
F2E
100
AcDbEntity
  8
BLOCKS
  6
Continuous
100
AcDbLine
 10
0.2355824640740138
 20
0.705000000000041
 30
0.0
 11
0.2474999999999454
 21
0.7150000000000319
 31
0.0
  0
ARC
  5
F3E
330
F2E
100
AcDbEntity
  8
BLOCKS
  6
Continuous
100
AcDbCircle
 10
0.2505729961528686
 20
0.6989999999999555
 30
0.0
 40
0.005
100
AcDbArc
 50
90.0
 51
173.0000000000073
  0
LINE
  5
F3F
330
F2E
100
AcDbEntity
  8
BLOCKS
  6
Continuous
100
AcDbLine
 10
0.240844400373021
 20
0.6680000000000064
 30
0.0
 11
0.2346971563658826
 21
0.6680000000000064
 31
0.0
  0
LINE
  5
F40
330
F2E
100
AcDbEntity
  8
BLOCKS
  6
Continuous
100
AcDbLine
 10
0.2336985268310627
 20
0.6690523359562804
 30
0.0
 11
0.2355824640740138
 21
0.705000000000041
 31
0.0
  0
LINE
  5
F41
330
F2E
100
AcDbEntity
  8
BLOCKS
  6
Continuous
100
AcDbLine
 10
0.2418369465246997
 20
0.6688781306565943
 30
0.0
 11
0.2456102653945891
 21
0.6996093467170113
 31
0.0
  0
LINE
  5
F42
330
F2E
100
AcDbEntity
  8
BLOCKS
  6
Continuous
100
AcDbLine
 10
0.2505729961528686
 20
0.7039999999999509
 30
0.0
 11
0.3311347693673952
 21
0.7039999999999509
 31
0.0
  0
ARC
  5
F43
330
F2E
100
AcDbEntity
  8
BLOCKS
  6
Continuous
100
AcDbCircle
 10
0.1340924031138684
 20
1.007452305928836
 30
0.0
 40
0.3700335915512612
100
AcDbArc
 50
303.8110935237973
 51
320.9357675971388
  0
ARC
  5
F44
330
F2E
100
AcDbEntity
  8
BLOCKS
  6
Continuous
100
AcDbCircle
 10
0.1340924031138684
 20
1.007452305928836
 30
0.0
 40
0.3600335915512613
100
AcDbArc
 50
304.2917615098915
 51
314.100415310665
  0
ARC
  5
F45
330
F2E
100
AcDbEntity
  8
BLOCKS
100
AcDbCircle
 10
0.4740000000000464
 20
0.7860000000000582
 30
0.0
 40
0.001
100
AcDbArc
 50
270.0
 51
0.0
  0
ARC
  5
F46
330
F2E
100
AcDbEntity
  8
BLOCKS
  6
Continuous
100
AcDbCircle
 10
0.4800000000000182
 20
0.8300000000000409
 30
0.0
 40
0.005
100
AcDbArc
 50
0.0
 51
90.0
  0
LINE
  5
F47
330
F2E
100
AcDbEntity
  8
BLOCKS
  6
Continuous
100
AcDbLine
 10
0.4800000000000182
 20
0.8350000000000363
 30
0.0
 11
0.450750444357368
 21
0.8350000000000363
 31
0.0
  0
LWPOLYLINE
  5
F48
330
F2E
100
AcDbEntity
  8
BLOCKS
  6
Continuous
100
AcDbPolyline
 90
        5
 70
   128
 43
0.0
 10
0.450750444357368
 20
0.8350000000000363
 10
0.4481758084239118
 20
0.8346688087904112
 10
0.4457774116210658
 20
0.8336757677126342
 10
0.4437086904093804
 20
0.8321085210361616
 10
0.4421214689879207
 20
0.8300537890809209
  0
LWPOLYLINE
  5
F49
330
F2E
100
AcDbEntity
  8
BLOCKS
  6
Continuous
100
AcDbPolyline
 90
       11
 70
   128
 43
0.0
 10
0.4750000000000228
 20
0.7860000000000582
 10
0.4750000000000228
 20
0.8239999999999554
 42
0.4142135623730922
 10
0.4740000000000464
 20
0.8250000000000454
 10
0.4513124932053643
 20
0.8250000000000454
 42
0.2607454363429309
 10
0.4504602466943198
 20
0.8245231404060859
 10
0.4425747079370695
 20
0.8116768321976906
 10
0.4334819972744981
 20
0.7989565736546638
 10
0.4236483766959509
 20
0.7869492582967724
 10
0.4233992403485445
 20
0.786682349015905
 42
0.6558001702623026
 10
0.424130266901102
 20
0.7849999999999682
 10
0.4740000000000464
 20
0.7849999999999682
  0
LINE
  5
F4A
330
F2E
100
AcDbEntity
  8
BLOCKS
  6
Continuous
100
AcDbLine
 10
0.3325306147434048
 20
0.7000000000000455
 30
0.0
 11
0.33299999999997
 21
0.7000000000000455
 31
0.0
  0
LWPOLYLINE
  5
F4B
330
F2E
100
AcDbEntity
  8
BLOCKS
  6
Continuous
100
AcDbPolyline
 90
       10
 70
   128
 43
0.0
 10
0.1761019077115407
 20
0.6856648157953487
 10
0.1635049049825739
 20
0.6936026042208141
 10
0.1444243781220393
 20
0.7090813597342276
 10
0.1340894280339171
 20
0.7213522460274362
 10
0.1262148539105965
 20
0.731181117393021
 10
0.1195132939964196
 20
0.7414888565241427
 10
0.1139517185480372
 20
0.7522195536677146
 10
0.1093066586771556
 20
0.7630532780623298
 10
0.1041127590362976
 20
0.7778349869145132
 10
0.103744573550216
 20
0.7792054725034632
  0
LWPOLYLINE
  5
F4C
330
F2E
100
AcDbEntity
  8
BLOCKS
  6
Continuous
100
AcDbPolyline
 90
       10
 70
   128
 43
0.0
 10
0.177674894989309
 20
0.6728538624788598
 10
0.157668582899305
 20
0.685460502007345
 10
0.1373872255095421
 20
0.7019134110287269
 10
0.1263618320556361
 20
0.7150040740949635
 10
0.118100945619517
 20
0.7253151320487632
 10
0.1108612783988292
 20
0.7364505396346886
 10
0.1049050261075308
 20
0.7479427400090799
 10
0.0999834712813481
 20
0.7594213366388658
 10
0.0945531172403662
 20
0.7748759888170298
 10
0.094087017378115
 20
0.7766109380974058
  0
LWPOLYLINE
  5
F4D
330
F2E
100
AcDbEntity
  8
BLOCKS
  6
Continuous
100
AcDbPolyline
 90
        9
 70
   128
 43
0.0
 10
0.1725000000000136
 20
0.7150000000000319
 10
0.1639681062684986
 20
0.7208836099853216
 10
0.1560530650326655
 20
0.7274953594512681
 10
0.1488781078402326
 20
0.7348805157953393
 10
0.1424426704927555
 20
0.7429130880816502
 10
0.1368173251914868
 20
0.7515654903029372
 10
0.1320451034292773
 20
0.7607731809848702
 10
0.1279530334687706
 20
0.7703171609091442
 10
0.1237106196356308
 20
0.782390964880733
  0
LWPOLYLINE
  5
F4E
330
F2E
100
AcDbEntity
  8
BLOCKS
  6
Continuous
100
AcDbPolyline
 90
       10
 70
   128
 43
0.0
 10
0.1664340365738326
 20
0.7070358747802175
 10
0.1579112610967286
 20
0.712913196800173
 10
0.1492430329185481
 20
0.7201541133439378
 10
0.1413726825786625
 20
0.7282550352285853
 10
0.134328762201676
 20
0.7370471027373924
 10
0.1281653095938964
 20
0.7465271734135968
 10
0.1229984109886573
 20
0.7564963673263492
 10
0.1186298460729631
 20
0.7666852194856802
 10
0.113672400832229
 20
0.7807939850118828
 10
0.1134021297222034
 20
0.7818000069096343
  0
LWPOLYLINE
  5
F4F
330
F2E
100
AcDbEntity
  8
BLOCKS
  6
Continuous
100
AcDbPolyline
 90
        3
 70
   128
 43
0.0
 10
0.103744573550216
 20
0.7792054725034632
 10
0.1000192761017615
 20
0.7930720334099988
 10
0.0942858683874874
 20
0.8244999999999436
  0
LWPOLYLINE
  5
F50
330
F2E
100
AcDbEntity
  8
BLOCKS
  6
Continuous
100
AcDbPolyline
 90
        3
 70
   128
 43
0.0
 10
0.094087017378115
 20
0.7766109380974058
 10
0.0902552708221265
 20
0.7908737312658332
 10
0.0841208265840123
 20
0.8244999999999436
  0
LINE
  5
F51
330
F2E
100
AcDbEntity
  8
BLOCKS
  6
Continuous
100
AcDbLine
 10
0.0299999999999727
 20
0.7469999999999573
 30
0.0
 11
0.0299999999999727
 21
0.8224999999999909
 31
0.0
  0
LINE
  5
F52
330
F2E
100
AcDbEntity
  8
BLOCKS
  6
Continuous
100
AcDbLine
 10
0.0199999999999818
 20
0.7559999999999718
 30
0.0
 11
0.0199999999999818
 21
0.8234999999999672
 31
0.0
  0
LINE
  5
F53
330
F2E
100
AcDbEntity
  8
BLOCKS
  6
Continuous
100
AcDbLine
 10
0.0099999999999909
 20
0.8234999999999672
 30
0.0
 11
0.0099999999999909
 21
0.7559999999999718
 31
0.0
  0
LINE
  5
F54
330
F2E
100
AcDbEntity
  8
BLOCKS
  6
Continuous
100
AcDbLine
 10
0.0
 20
0.8300000000000409
 30
0.0
 11
0.0
 21
0.7469999999999573
 31
0.0
  0
ARC
  5
F55
330
F2E
100
AcDbEntity
  8
BLOCKS
  6
Continuous
100
AcDbCircle
 10
0.0190000000000055
 20
0.7559999999999718
 30
0.0
 40
0.001
100
AcDbArc
 50
270.0
 51
0.0
  0
ARC
  5
F56
330
F2E
100
AcDbEntity
  8
BLOCKS
  6
Continuous
100
AcDbCircle
 10
0.0109999999999673
 20
0.7559999999999718
 30
0.0
 40
0.001
100
AcDbArc
 50
180.0
 51
270.0
  0
ARC
  5
F57
330
F2E
100
AcDbEntity
  8
BLOCKS
  6
Continuous
100
AcDbCircle
 10
0.02800000000002
 20
0.7469999999999573
 30
0.0
 40
0.002
100
AcDbArc
 50
270.0
 51
0.0
  0
ARC
  5
F58
330
F2E
100
AcDbEntity
  8
BLOCKS
  6
Continuous
100
AcDbCircle
 10
0.0019999999999527
 20
0.7469999999999573
 30
0.0
 40
0.002
100
AcDbArc
 50
180.0
 51
270.0
  0
ARC
  5
F59
330
F2E
100
AcDbEntity
  8
BLOCKS
100
AcDbCircle
 10
0.02800000000002
 20
0.7069999999999937
 30
0.0
 40
0.002
100
AcDbArc
 50
270.0
 51
0.0
  0
ARC
  5
F5A
330
F2E
100
AcDbEntity
  8
BLOCKS
100
AcDbCircle
 10
0.0019999999999527
 20
0.7069999999999937
 30
0.0
 40
0.002
100
AcDbArc
 50
180.0
 51
270.0
  0
LINE
  5
F5B
330
F2E
100
AcDbEntity
  8
BLOCKS
100
AcDbLine
 10
0.0
 20
0.7469999999999573
 30
0.0
 11
0.0
 21
0.7069999999999937
 31
0.0
  0
LINE
  5
F5C
330
F2E
100
AcDbEntity
  8
BLOCKS
100
AcDbLine
 10
0.0299999999999727
 20
0.7469999999999573
 30
0.0
 11
0.0299999999999727
 21
0.7069999999999937
 31
0.0
  0
LINE
  5
F5D
330
F2E
100
AcDbEntity
  8
BLOCKS
  6
Continuous
100
AcDbLine
 10
0.02800000000002
 20
0.705000000000041
 30
0.0
 11
0.1281663446908396
 21
0.7128615413132593
 31
0.0
  0
LINE
  5
F5E
330
F2E
100
AcDbEntity
  8
BLOCKS
  6
Continuous
100
AcDbLine
 10
0.0109999999999673
 20
0.7549999999999955
 30
0.0
 11
0.0190000000000055
 21
0.7549999999999955
 31
0.0
  0
LINE
  5
F5F
330
F2E
100
AcDbEntity
  8
BLOCKS
  6
Continuous
100
AcDbLine
 10
0.0019999999999527
 20
0.705000000000041
 30
0.0
 11
0.02800000000002
 21
0.705000000000041
 31
0.0
  0
LINE
  5
F60
330
F2E
100
AcDbEntity
  8
BLOCKS
  6
Continuous
100
AcDbLine
 10
0.02800000000002
 20
0.7450000000000046
 30
0.0
 11
0.0019999999999527
 21
0.7450000000000046
 31
0.0
  0
LWPOLYLINE
  5
F61
330
F2E
100
AcDbEntity
  8
BLOCKS
  6
Continuous
100
AcDbPolyline
 90
        2
 70
   128
 43
0.0
 10
0.0841208265840123
 20
0.8244999999999436
 10
0.0784999999999627
 20
0.8244999999999436
  0
LWPOLYLINE
  5
F62
330
F2E
100
AcDbEntity
  8
BLOCKS
  6
Continuous
100
AcDbPolyline
 90
        4
 70
   128
 43
0.0
 10
0.1237106196356308
 20
0.782390964880733
 10
0.1232320426281603
 20
0.7837529831092525
 10
0.1195408837671721
 20
0.7974924709947118
 10
0.1169792809366754
 20
0.8110594603501795
  0
LWPOLYLINE
  5
F63
330
F2E
100
AcDbEntity
  8
BLOCKS
  6
Continuous
100
AcDbPolyline
 90
        3
 70
   128
 43
0.0
 10
0.1134021297222034
 20
0.7818000069096343
 10
0.1097832813813966
 20
0.7952703355541644
 10
0.1069208125633168
 20
0.8109611042664255
  0
LWPOLYLINE
  5
F64
330
F2E
100
AcDbEntity
  8
BLOCKS
  6
Continuous
100
AcDbPolyline
 90
        3
 70
   128
 43
0.0
 10
0.1169621483844594
 20
0.811243774159152
 10
0.1169186975826051
 20
0.8114754788749678
 10
0.1155177601747255
 20
0.8256499418005205
  0
LWPOLYLINE
  5
F65
330
F2E
100
AcDbEntity
  8
BLOCKS
  6
Continuous
100
AcDbPolyline
 90
        4
 70
   128
 43
0.0
 10
0.1069208125633168
 20
0.8109611042664255
 10
0.1057609201428704
 20
0.8226967121673851
 42
0.3856447525189537
 10
0.1037706175720814
 20
0.8244999999999436
 10
0.0942858683874874
 20
0.8244999999999436
  0
ARC
  5
F66
330
F2E
100
AcDbEntity
  8
BLOCKS
  6
Continuous
100
AcDbCircle
 10
0.1227671660087708
 20
0.7820594603501832
 30
0.0
 40
0.001
100
AcDbArc
 50
19.36011983357906
 51
90.0
  0
ARC
  5
F67
330
F2E
100
AcDbEntity
  8
BLOCKS
  6
Continuous
100
AcDbCircle
 10
0.1143678853394476
 20
0.7820594603501832
 30
0.0
 40
0.001
100
AcDbArc
 50
90.0
 51
195.0376337244965
  0
ARC
  5
F68
330
F2E
100
AcDbEntity
  8
BLOCKS
  6
Continuous
100
AcDbCircle
 10
0.1079159638487681
 20
0.8110594603501795
 30
0.0
 40
0.001
100
AcDbArc
 50
185.6445143185086
 51
270.0
  0
ARC
  5
F69
330
F2E
100
AcDbEntity
  8
BLOCKS
  6
Continuous
100
AcDbCircle
 10
0.1159792809366991
 20
0.8110594603501795
 30
0.0
 40
0.001
100
AcDbArc
 50
270.0
 51
10.62112860131357
  0
ARC
  5
F6A
330
F2E
100
AcDbEntity
  8
BLOCKS
  6
Continuous
100
AcDbCircle
 10
0.0784999999999627
 20
0.8339999999999463
 30
0.0
 40
0.001
100
AcDbArc
 50
90.0
 51
180.0
  0
ARC
  5
F6B
330
F2E
100
AcDbEntity
  8
BLOCKS
  6
Continuous
100
AcDbCircle
 10
0.0784999999999627
 20
0.8255000000000336
 30
0.0
 40
0.001
100
AcDbArc
 50
180.0
 51
270.0
  0
ARC
  5
F6C
330
F2E
100
AcDbEntity
  8
BLOCKS
  6
Continuous
100
AcDbCircle
 10
0.0415000000000418
 20
0.8255000000000336
 30
0.0
 40
0.001
100
AcDbArc
 50
270.0
 51
0.0
  0
ARC
  5
F6D
330
F2E
100
AcDbEntity
  8
BLOCKS
  6
Continuous
100
AcDbCircle
 10
0.0415000000000418
 20
0.8339999999999463
 30
0.0
 40
0.001
100
AcDbArc
 50
0.0
 51
90.0
  0
ARC
  5
F6E
330
F2E
100
AcDbEntity
  8
BLOCKS
  6
Continuous
100
AcDbCircle
 10
0.0190000000000055
 20
0.8234999999999672
 30
0.0
 40
0.001
100
AcDbArc
 50
0.0
 51
90.0
  0
ARC
  5
F6F
330
F2E
100
AcDbEntity
  8
BLOCKS
  6
Continuous
100
AcDbCircle
 10
0.0109999999999673
 20
0.8234999999999672
 30
0.0
 40
0.001
100
AcDbArc
 50
90.0
 51
180.0
  0
ARC
  5
F70
330
F2E
100
AcDbEntity
  8
BLOCKS
100
AcDbCircle
 10
0.0320000000000391
 20
0.8224999999999909
 30
0.0
 40
0.002
100
AcDbArc
 50
90.0
 51
180.0
  0
LINE
  5
F71
330
F2E
100
AcDbEntity
  8
BLOCKS
  6
Continuous
100
AcDbLine
 10
0.1079159638487681
 20
0.8100594603502031
 30
0.0
 11
0.1159792809366991
 21
0.8100594603502031
 31
0.0
  0
LINE
  5
F72
330
F2E
100
AcDbEntity
  8
BLOCKS
  6
Continuous
100
AcDbLine
 10
0.1055389037444456
 20
0.8350000000000363
 30
0.0
 11
0.0784999999999627
 21
0.8350000000000363
 31
0.0
  0
LINE
  5
F73
330
F2E
100
AcDbEntity
  8
BLOCKS
  6
Continuous
100
AcDbLine
 10
0.0774999999999864
 20
0.8255000000000336
 30
0.0
 11
0.0774999999999864
 21
0.8339999999999463
 31
0.0
  0
LINE
  5
F74
330
F2E
100
AcDbEntity
  8
BLOCKS
  6
Continuous
100
AcDbLine
 10
0.0415000000000418
 20
0.8244999999999436
 30
0.0
 11
0.0320000000000391
 21
0.8244999999999436
 31
0.0
  0
LINE
  5
F75
330
F2E
100
AcDbEntity
  8
BLOCKS
  6
Continuous
100
AcDbLine
 10
0.0425000000000182
 20
0.8339999999999463
 30
0.0
 11
0.0425000000000182
 21
0.8255000000000336
 31
0.0
  0
LINE
  5
F76
330
F2E
100
AcDbEntity
  8
BLOCKS
  6
Continuous
100
AcDbLine
 10
0.0784999999999627
 20
0.8350000000000363
 30
0.0
 11
0.0415000000000418
 21
0.8350000000000363
 31
0.0
  0
LINE
  5
F77
330
F2E
100
AcDbEntity
  8
BLOCKS
  6
Continuous
100
AcDbLine
 10
0.0415000000000418
 20
0.8244999999999436
 30
0.0
 11
0.0784999999999627
 21
0.8244999999999436
 31
0.0
  0
LWPOLYLINE
  5
F78
330
F2E
100
AcDbEntity
  8
BLOCKS
  6
Continuous
100
AcDbPolyline
 90
        9
 70
   128
 43
0.0
 10
0.1155177601747255
 20
0.8256499418005205
 10
0.1152213553214096
 20
0.8275059822088906
 10
0.1145801104070188
 20
0.8292727721778874
 10
0.1136225367287125
 20
0.830889535774304
 10
0.1123763221897889
 20
0.8322972398208321
 10
0.1108914577991982
 20
0.8334487820986851
 10
0.1092150159429366
 20
0.8342997956484623
 10
0.1074108025416081
 20
0.8348248536250366
 10
0.1055389037444456
 20
0.8350000000000363
  0
LINE
  5
F79
330
F2E
100
AcDbEntity
  8
BLOCKS
  6
Continuous
100
AcDbLine
 10
0.1227671660087708
 20
0.7830594603501595
 30
0.0
 11
0.1143678853394476
 21
0.7830594603501595
 31
0.0
  0
ARC
  5
F7A
330
F2E
100
AcDbEntity
  8
BLOCKS
  6
Continuous
100
AcDbCircle
 10
0.0049999999999955
 20
0.8300000000000409
 30
0.0
 40
0.005
100
AcDbArc
 50
90.0
 51
180.0
  0
LINE
  5
F7B
330
F2E
100
AcDbEntity
  8
BLOCKS
  6
Continuous
100
AcDbLine
 10
0.0190000000000055
 20
0.8244999999999436
 30
0.0
 11
0.0109999999999673
 21
0.8244999999999436
 31
0.0
  0
LINE
  5
F7C
330
F2E
100
AcDbEntity
  8
BLOCKS
  6
Continuous
100
AcDbLine
 10
0.0415000000000418
 20
0.8350000000000363
 30
0.0
 11
0.0049999999999955
 21
0.8350000000000363
 31
0.0
  0
ARC
  5
F7D
330
F2E
100
AcDbEntity
  8
BLOCKS
100
AcDbCircle
 10
0.1759056132442538
 20
0.6954690149868839
 30
0.0
 40
0.001
100
AcDbArc
 50
187.0000000000056
 51
251.8532889174807
  0
ARC
  5
F7E
330
F2E
100
AcDbEntity
  8
BLOCKS
100
AcDbCircle
 10
0.1840556529890591
 20
0.6927978151737762
 30
0.0
 40
0.001
100
AcDbArc
 50
251.8532889174807
 51
3.000000000006105
  0
ARC
  5
F7F
330
F2E
100
AcDbEntity
  8
BLOCKS
100
AcDbCircle
 10
0.1846226325429825
 20
0.6819792008072909
 30
0.0
 40
0.001
100
AcDbArc
 50
2.999999999993096
 51
72.79291484729357
  0
LINE
  5
F80
330
F2E
100
AcDbEntity
  8
BLOCKS
  6
Continuous
100
AcDbLine
 10
0.1856212620776887
 20
0.6820315367635886
 30
0.0
 11
0.1858603597210049
 21
0.6774692819496977
 31
0.0
  0
LINE
  5
F81
330
F2E
100
AcDbEntity
  8
BLOCKS
100
AcDbLine
 10
0.1837442017432522
 20
0.6918475530408159
 30
0.0
 11
0.1755941619984469
 21
0.69451875285381
 31
0.0
  0
LINE
  5
F82
330
F2E
100
AcDbEntity
  8
BLOCKS
100
AcDbLine
 10
0.1761019077115407
 20
0.6856648157953487
 30
0.0
 11
0.1849184587197214
 21
0.6829344425950695
 31
0.0
  0
LINE
  5
F83
330
F2E
100
AcDbEntity
  8
BLOCKS
  6
Continuous
100
AcDbLine
 10
0.1858603597210049
 20
0.6774692819496977
 30
0.0
 11
0.1863014731688963
 21
0.6690523359562804
 31
0.0
  0
LINE
  5
F84
330
F2E
100
AcDbEntity
  8
BLOCKS
  6
Continuous
100
AcDbLine
 10
0.177674894989309
 20
0.6728538624788598
 30
0.0
 11
0.1781630534753731
 21
0.6688781306565943
 31
0.0
  0
ARC
  5
F85
330
F2E
100
AcDbEntity
  8
BLOCKS
  6
Continuous
100
AcDbCircle
 10
0.1853028436340764
 20
0.6689999999999828
 30
0.0
 40
0.001
100
AcDbArc
 50
270.0
 51
3.000000000006105
  0
ARC
  5
F86
330
F2E
100
AcDbEntity
  8
BLOCKS
  6
Continuous
100
AcDbCircle
 10
0.1791555996269381
 20
0.6689999999999828
 30
0.0
 40
0.001
100
AcDbArc
 50
187.0000000000056
 51
270.0
  0
LINE
  5
F87
330
F2E
100
AcDbEntity
  8
BLOCKS
  6
Continuous
100
AcDbLine
 10
0.1725000000000136
 20
0.7150000000000319
 30
0.0
 11
0.1844175359259452
 21
0.705000000000041
 31
0.0
  0
ARC
  5
F88
330
F2E
100
AcDbEntity
  8
BLOCKS
  6
Continuous
100
AcDbCircle
 10
0.1695642421129833
 20
0.6978822840202384
 30
0.0
 40
0.005
100
AcDbArc
 50
6.999999999992674
 51
49.99999999998743
  0
LINE
  5
F89
330
F2E
100
AcDbEntity
  8
BLOCKS
  6
Continuous
100
AcDbLine
 10
0.1664340365739463
 20
0.7070358747802175
 30
0.0
 11
0.1727781801613446
 21
0.7017125062358219
 31
0.0
  0
LINE
  5
F8A
330
F2E
100
AcDbEntity
  8
BLOCKS
  6
Continuous
100
AcDbLine
 10
0.1853028436340764
 20
0.6680000000000064
 30
0.0
 11
0.1791555996269381
 21
0.6680000000000064
 31
0.0
  0
LINE
  5
F8B
330
F2E
100
AcDbEntity
  8
BLOCKS
  6
Continuous
100
AcDbLine
 10
0.1844175359259452
 20
0.705000000000041
 30
0.0
 11
0.185054282523879
 21
0.6928501511300738
 31
0.0
  0
LINE
  5
F8C
330
F2E
100
AcDbEntity
  8
BLOCKS
  6
Continuous
100
AcDbLine
 10
0.1745269728711491
 20
0.6984916307372942
 30
0.0
 11
0.1749130670926888
 21
0.6953471456434955
 31
0.0
  0
LINE
  5
F8D
330
F2E
100
AcDbEntity
  8
BLOCKS
  6
Continuous
100
AcDbLine
 10
0.2336433762405932
 20
0.6680000000000064
 30
0.0
 11
0.1863566237593659
 21
0.6680000000000064
 31
0.0
  0
LINE
  5
F8E
330
F2E
100
AcDbEntity
  8
BLOCKS
  6
Continuous
100
AcDbLine
 10
0.2355824640740138
 20
0.705000000000041
 30
0.0
 11
0.1844175359259452
 21
0.705000000000041
 31
0.0
  0
LWPOLYLINE
  5
F8F
330
F2E
100
AcDbEntity
  8
BLOCKS
  6
Continuous
100
AcDbPolyline
 90
       45
 70
   128
 43
0.0
 10
0.4421214689879207
 20
0.8300537890809209
 10
0.441614480700082
 20
0.8300633332282814
 10
0.4401001285378925
 20
0.8300853003103156
 10
0.4375884562392685
 20
0.8301109432802604
 10
0.4340954794265599
 20
0.8301413943363513
 10
0.4296449101132112
 20
0.8301771684899676
 10
0.4242635574321412
 20
0.8302178589880213
 10
0.4179883644802658
 20
0.8302626696425932
 10
0.4108590393017267
 20
0.8303106730043054
 10
0.4029220520637864
 20
0.8303605256564878
 10
0.3942302326596518
 20
0.8304103650782508
 10
0.3864499956960117
 20
0.8304504070972598
 10
0.3782199694353494
 20
0.8304872132994205
 10
0.369577321197994
 20
0.830518808282818
 10
0.3605601886232534
 20
0.8305430344249771
 10
0.3512094064298026
 20
0.8305570421089214
 10
0.3415661875567366
 20
0.8305578179418944
 10
0.3316722146607844
 20
0.8305421501647742
 10
0.3215696540557928
 20
0.8305065896578298
 10
0.3113004441668181
 20
0.8304477669872767
 10
0.3009063427272167
 20
0.8303623368974513
 10
0.2904277942816407
 20
0.8302481456449868
 10
0.2799047674710664
 20
0.8301036110646009
 10
0.2693767362745802
 20
0.8299277005568228
 10
0.2588822535980171
 20
0.8297220607676081
 10
0.2484599064723625
 20
0.8294891283995866
 10
0.2381482979959628
 20
0.8292321515755247
 10
0.2279872845606405
 20
0.8289565394945839
 10
0.2180173331375954
 20
0.8286679704741573
 10
0.2082795344282431
 20
0.8283724405052907
 10
0.1988165492266489
 20
0.8280758487265984
 10
0.1896711996432714
 20
0.8277837281777919
 10
0.1808865359330411
 20
0.8275013055393856
 10
0.1725044010876218
 20
0.8272322620191516
 10
0.1645658063217752
 20
0.8269798124479166
 10
0.1556813760001887
 20
0.8267025582866835
 10
0.1475554233513776
 20
0.8264554639331436
 10
0.1402473295287336
 20
0.8262403651092427
 10
0.1338092485035531
 20
0.826058048329969
 10
0.1282855517341659
 20
0.8259086253319765
 10
0.123717415903684
 20
0.8257920585415376
 10
0.1201344895523562
 20
0.825708070822543
 10
0.117562848564603
 20
0.8256564215721482
 10
0.1160212035772474
 20
0.8256381731783903
 10
0.1155177601747255
 20
0.8256499418005205
  0
LINE
  5
F90
330
F2E
100
AcDbEntity
  8
BLOCKS
  6
Continuous
100
AcDbLine
 10
0.1055389037444456
 20
0.8350000000000363
 30
0.0
 11
0.450750444357368
 21
0.8350000000000363
 31
0.0
  0
LINE
  5
F91
330
F2E
100
AcDbEntity
  8
BLOCKS
  6
Continuous
100
AcDbLine
 10
0.2474999999999454
 20
0.7150000000000319
 30
0.0
 11
0.1725000000000136
 21
0.7150000000000319
 31
0.0
  0
LINE
  5
F92
330
F2E
100
AcDbEntity
  8
BLOCKS
  6
Continuous
100
AcDbLine
 10
0.2355824640740138
 20
0.705000000000041
 30
0.0
 11
0.1844175359259452
 21
0.705000000000041
 31
0.0
  0
LINE
  5
F93
330
F2E
100
AcDbEntity
  8
BLOCKS
  6
Continuous
100
AcDbLine
 10
0.2346971563658826
 20
0.6680000000000064
 30
0.0
 11
0.1853028436340764
 21
0.6680000000000064
 31
0.0
  0
LINE
  5
F94
330
F2E
100
AcDbEntity
  8
BLOCKS
  6
Continuous
100
AcDbLine
 10
0.1384139135747091
 20
0.5045220948310316
 30
0.0
 11
0.1283982968664077
 21
0.5045220948310316
 31
0.0
  0
LWPOLYLINE
  5
F95
330
F2E
100
AcDbEntity
  8
BLOCKS
  6
Continuous
100
AcDbPolyline
 90
       14
 70
   128
 43
0.0
 10
0.1404096277889266
 20
0.5539999999999737
 10
0.140414317787986
 20
0.5486709663591683
 10
0.1400945777145353
 20
0.5434163177104665
 10
0.1394834437614918
 20
0.5383413153463153
 10
0.1381154497366879
 20
0.5311906796868016
 10
0.1363846825253177
 20
0.5246736526612495
 10
0.1350193823381005
 20
0.5204285258442951
 10
0.1336340395010893
 20
0.5165957708396718
 10
0.1323034236744434
 20
0.5132309565187825
 10
0.1310108292765335
 20
0.5101813632134054
 10
0.1299145656062137
 20
0.507734565110809
 10
0.1290836382886482
 20
0.5059533807118442
 10
0.1285736079239541
 20
0.5048839532969396
 10
0.1283982968664077
 20
0.5045220948310316
  0
LWPOLYLINE
  5
F96
330
F2E
100
AcDbEntity
  8
BLOCKS
  6
Continuous
100
AcDbPolyline
 90
       13
 70
   128
 43
0.0
 10
0.1524370542319957
 20
0.5539999999999737
 10
0.152406168397647
 20
0.5487853167336425
 10
0.1520145717192918
 20
0.5436444456084928
 10
0.151301930271984
 20
0.5386826922459705
 10
0.1497447239084977
 20
0.5317034659518641
 10
0.1477977623973175
 20
0.525329399905445
 10
0.1454394692871119
 20
0.5190885344004528
 10
0.1431187906113109
 20
0.5137998366660668
 10
0.1415932875728458
 20
0.5106179364315722
 10
0.1402889605060409
 20
0.5080408373025876
 10
0.1392878965723412
 20
0.5061392661901892
 10
0.1386381552058538
 20
0.5049320720602282
 10
0.1384139135747091
 20
0.5045220948310316
  0
LINE
  5
F97
330
F2E
100
AcDbEntity
  8
BLOCKS
  6
Continuous
100
AcDbLine
 10
0.2915543470089687
 20
0.0
 30
0.0
 11
0.2835418536423049
 21
0.0
 31
0.0
  0
ARC
  5
F98
330
F2E
100
AcDbEntity
  8
BLOCKS
  6
Continuous
100
AcDbCircle
 10
0.2915543470089687
 20
0.0009999999999764
 30
0.0
 40
0.001
100
AcDbArc
 50
270.0
 51
356.8000000000003
  0
ARC
  5
F99
330
F2E
100
AcDbEntity
  8
BLOCKS
  6
Continuous
100
AcDbCircle
 10
0.2835418536423049
 20
0.0009999999999764
 30
0.0
 40
0.001
100
AcDbArc
 50
176.7999999999999
 51
270.0
  0
LINE
  5
F9A
330
F2E
100
AcDbEntity
  8
BLOCKS
  6
Continuous
100
AcDbLine
 10
0.1664581463576269
 20
0.0
 30
0.0
 11
0.1584456529910767
 21
0.0
 31
0.0
  0
ARC
  5
F9B
330
F2E
100
AcDbEntity
  8
BLOCKS
  6
Continuous
100
AcDbCircle
 10
0.1664581463576269
 20
0.0009999999999764
 30
0.0
 40
0.001
100
AcDbArc
 50
270.0
 51
3.19999999999994
  0
ARC
  5
F9C
330
F2E
100
AcDbEntity
  8
BLOCKS
  6
Continuous
100
AcDbCircle
 10
0.1584456529910767
 20
0.0009999999999764
 30
0.0
 40
0.001
100
AcDbArc
 50
183.2000000000004
 51
269.9999999999854
  0
LINE
  5
F9D
330
F2E
100
AcDbEntity
  8
BLOCKS
  6
Continuous
100
AcDbLine
 10
0.2835418536423049
 20
0.0
 30
0.0
 11
0.1664581463576269
 21
0.0
 31
0.0
  0
LINE
  5
F9E
330
F2E
100
AcDbEntity
  8
BLOCKS
  6
Continuous
100
AcDbLine
 10
0.1574472122268844
 20
0.0009441784950468
 30
0.0
 11
0.1284859523951809
 21
0.5047030240639288
 31
0.0
  0
LINE
  5
F9F
330
F2E
100
AcDbEntity
  8
BLOCKS
  6
Continuous
100
AcDbLine
 10
0.1674565871218192
 20
0.0010558215050196
 30
0.0
 11
0.1384139135747091
 21
0.5045220948310316
 31
0.0
  0
LINE
  5
FA0
330
F2E
100
AcDbEntity
  8
BLOCKS
  6
Continuous
100
AcDbLine
 10
0.3327542494627096
 20
0.7039999999999509
 30
0.0
 11
0.2925527877731611
 21
0.0009441784950468
 31
0.0
  0
LINE
  5
FA1
330
F2E
100
AcDbEntity
  8
BLOCKS
  6
Continuous
100
AcDbLine
 10
0.3227386327544082
 20
0.7039999999999509
 30
0.0
 11
0.2825434128781126
 21
0.0010558215050196
 31
0.0
  0
LINE
  5
FA2
330
F2E
100
AcDbEntity
  8
BLOCKS
  6
Continuous
100
AcDbLine
 10
0.1404096277889266
 20
0.5539999999999737
 30
0.0
 11
0.1354959315044653
 21
0.7039999999999509
 31
0.0
  0
LINE
  5
FA3
330
F2E
100
AcDbEntity
  8
BLOCKS
  6
Continuous
100
AcDbLine
 10
0.1524370542319957
 20
0.5539999999999737
 30
0.0
 11
0.1481771675264554
 21
0.693160252601615
 31
0.0
  0
ENDBLK
  5
FA5
330
F2E
100
AcDbEntity
  8
0
100
AcDbBlockEnd
  0
BLOCK
  5
FCA
330
FA7
100
AcDbEntity
  8
0
100
AcDbBlockBegin
  2
106200AL
 70
     0
 10
0.0
 20
0.0
 30
0.0
  3
106200AL
  1

  0
LINE
  5
FA8
330
FA7
100
AcDbEntity
  8
BLOCKS
  6
Continuous
100
AcDbLine
 10
0.3325306147434048
 20
0.7000000000000455
 30
0.0
 11
0.33299999999997
 21
0.7000000000000455
 31
0.0
  0
LINE
  5
FA9
330
FA7
100
AcDbEntity
  8
BLOCKS
  6
Continuous
100
AcDbLine
 10
0.4799999999999045
 20
0.8350000000000363
 30
0.0
 11
0.4507504443572543
 21
0.8350000000000363
 31
0.0
  0
ARC
  5
FAA
330
FA7
100
AcDbEntity
  8
BLOCKS
  6
Continuous
100
AcDbCircle
 10
0.4799999999999045
 20
0.8300000000000409
 30
0.0
 40
0.005
100
AcDbArc
 50
0.0
 51
90.0
  0
ARC
  5
FAB
330
FA7
100
AcDbEntity
  8
BLOCKS
  6
Continuous
100
AcDbCircle
 10
0.1340924031138684
 20
1.007452305928836
 30
0.0
 40
0.3700335915512612
100
AcDbArc
 50
303.8110935237973
 51
320.9357675971388
  0
LINE
  5
FAC
330
FA7
100
AcDbEntity
  8
BLOCKS
  6
Continuous
100
AcDbLine
 10
0.3399999999999181
 20
0.7000000000000455
 30
0.0
 11
0.33299999999997
 21
0.7000000000000455
 31
0.0
  0
LINE
  5
FAD
330
FA7
100
AcDbEntity
  8
BLOCKS
  6
Continuous
100
AcDbLine
 10
0.4799999999999045
 20
0.775000000000091
 30
0.0
 11
0.4229541511650723
 21
0.775000000000091
 31
0.0
  0
LINE
  5
FAE
330
FA7
100
AcDbEntity
  8
BLOCKS
  6
Continuous
100
AcDbLine
 10
0.4832953881460753
 20
0.7762396254221358
 30
0.0
 11
0.4837603745779689
 21
0.7767046118539156
 31
0.0
  0
ARC
  5
FAF
330
FA7
100
AcDbEntity
  8
BLOCKS
  6
Continuous
100
AcDbCircle
 10
0.4799999999999045
 20
0.7800000000000864
 30
0.0
 40
0.005
100
AcDbArc
 50
270.0
 51
0.0
  0
ARC
  5
FB0
330
FA7
100
AcDbEntity
  8
BLOCKS
100
AcDbCircle
 10
0.4229541511650723
 20
0.7730000000000246
 30
0.0
 40
0.002
100
AcDbArc
 50
90.0
 51
140.9357675971388
  0
LINE
  5
FB1
330
FA7
100
AcDbEntity
  8
BLOCKS
  6
Continuous
100
AcDbLine
 10
0.4849999999999
 20
0.8300000000000409
 30
0.0
 11
0.4849999999999
 21
0.7800000000000864
 31
0.0
  0
LINE
  5
FB2
330
FA7
100
AcDbEntity
  8
BLOCKS
  6
Continuous
100
AcDbLine
 10
0.3327542494625959
 20
0.7040000000000646
 30
0.0
 11
0.3227386327542945
 21
0.7040000000000646
 31
0.0
  0
LINE
  5
FB3
330
FA7
100
AcDbEntity
  8
BLOCKS
  6
Continuous
100
AcDbLine
 10
0.3325306147434048
 20
0.7000000000000455
 30
0.0
 11
0.33299999999997
 21
0.7000000000000455
 31
0.0
  0
LINE
  5
FB4
330
FA7
100
AcDbEntity
  8
BLOCKS
  6
Continuous
100
AcDbLine
 10
0.0414999999999282
 20
0.8350000000000363
 30
0.0
 11
0.0049999999999955
 21
0.8350000000000363
 31
0.0
  0
ARC
  5
FB5
330
FA7
100
AcDbEntity
  8
BLOCKS
  6
Continuous
100
AcDbCircle
 10
0.0049999999999955
 20
0.8300000000000409
 30
0.0
 40
0.005
100
AcDbArc
 50
90.0
 51
180.0
  0
LINE
  5
FB6
330
FA7
100
AcDbEntity
  8
BLOCKS
  6
Continuous
100
AcDbLine
 10
0.0784999999999627
 20
0.8350000000000363
 30
0.0
 11
0.0414999999999282
 21
0.8350000000000363
 31
0.0
  0
LINE
  5
FB7
330
FA7
100
AcDbEntity
  8
BLOCKS
  6
Continuous
100
AcDbLine
 10
0.1055389037444456
 20
0.8350000000000363
 30
0.0
 11
0.0784999999999627
 21
0.8350000000000363
 31
0.0
  0
LINE
  5
FB8
330
FA7
100
AcDbEntity
  8
BLOCKS
  6
Continuous
100
AcDbLine
 10
0.0019999999999527
 20
0.705000000000041
 30
0.0
 11
0.0279999999999063
 21
0.705000000000041
 31
0.0
  0
LINE
  5
FB9
330
FA7
100
AcDbEntity
  8
BLOCKS
  6
Continuous
100
AcDbLine
 10
0.0279999999999063
 20
0.705000000000041
 30
0.0
 11
0.128166344690726
 21
0.712861541313373
 31
0.0
  0
LINE
  5
FBA
330
FA7
100
AcDbEntity
  8
BLOCKS
100
AcDbLine
 10
0.0
 20
0.747000000000071
 30
0.0
 11
0.0
 21
0.7069999999999937
 31
0.0
  0
ARC
  5
FBB
330
FA7
100
AcDbEntity
  8
BLOCKS
100
AcDbCircle
 10
0.0019999999999527
 20
0.7069999999999937
 30
0.0
 40
0.002
100
AcDbArc
 50
180.0
 51
270.0
  0
LINE
  5
FBC
330
FA7
100
AcDbEntity
  8
BLOCKS
  6
Continuous
100
AcDbLine
 10
0.0
 20
0.8300000000000409
 30
0.0
 11
0.0
 21
0.747000000000071
 31
0.0
  0
LWPOLYLINE
  5
FBD
330
FA7
100
AcDbEntity
  8
BLOCKS
  6
Continuous
100
AcDbPolyline
 90
        3
 70
   128
 43
0.0
 10
0.094087017378115
 20
0.7766109380974058
 10
0.0902552708221265
 20
0.7908737312658332
 10
0.0822053103247527
 20
0.8350000000000363
  0
LWPOLYLINE
  5
FBE
330
FA7
100
AcDbEntity
  8
BLOCKS
  6
Continuous
100
AcDbPolyline
 90
        8
 70
   128
 43
0.0
 10
0.1356298306191093
 20
0.7039999999999509
 10
0.1263618320556361
 20
0.7150040740949635
 10
0.118100945619517
 20
0.7253151320487632
 10
0.1108612783988292
 20
0.7364505396346886
 10
0.1049050261075308
 20
0.7479427400090799
 10
0.0999834712813481
 20
0.7594213366388658
 10
0.0945531172403662
 20
0.7748759888170298
 10
0.094087017378115
 20
0.7766109380974058
  0
LINE
  5
FBF
330
FA7
100
AcDbEntity
  8
BLOCKS
  6
Continuous
100
AcDbLine
 10
0.1055389037444456
 20
0.8350000000000363
 30
0.0
 11
0.4507504443572543
 21
0.8350000000000363
 31
0.0
  0
LINE
  5
FC0
330
FA7
100
AcDbEntity
  8
BLOCKS
100
AcDbLine
 10
0.4214012712391196
 20
0.7742603824560775
 30
0.0
 11
0.094769424954734
 21
0.7742603824560775
 31
0.0
  0
LINE
  5
FC1
330
FA7
100
AcDbEntity
  8
BLOCKS
  6
Continuous
100
AcDbLine
 10
0.1354959315043516
 20
0.7040000000000646
 30
0.0
 11
0.3311347693672815
 21
0.7040000000000646
 31
0.0
  0
ARC
  5
FC2
330
FA7
100
AcDbEntity
  8
BLOCKS
  6
Continuous
100
AcDbCircle
 10
0.2915543470089687
 20
0.00100000000009
 30
0.0
 40
0.001
100
AcDbArc
 50
270.0
 51
356.8000000000003
  0
LINE
  5
FC3
330
FA7
100
AcDbEntity
  8
BLOCKS
  6
Continuous
100
AcDbLine
 10
0.2915543470089687
 20
0.0
 30
0.0
 11
0.2835418536423049
 21
0.0
 31
0.0
  0
ARC
  5
FC4
330
FA7
100
AcDbEntity
  8
BLOCKS
  6
Continuous
100
AcDbCircle
 10
0.158445652990963
 20
0.00100000000009
 30
0.0
 40
0.001
100
AcDbArc
 50
183.2000000000004
 51
269.9999999999854
  0
LINE
  5
FC5
330
FA7
100
AcDbEntity
  8
BLOCKS
  6
Continuous
100
AcDbLine
 10
0.1664581463576269
 20
0.0
 30
0.0
 11
0.158445652990963
 21
0.0
 31
0.0
  0
LINE
  5
FC6
330
FA7
100
AcDbEntity
  8
BLOCKS
  6
Continuous
100
AcDbLine
 10
0.2835418536423049
 20
0.0
 30
0.0
 11
0.1664581463576269
 21
0.0
 31
0.0
  0
LWPOLYLINE
  5
FC7
330
FA7
100
AcDbEntity
  8
BLOCKS
  6
Continuous
100
AcDbPolyline
 90
       15
 70
   128
 43
0.0
 10
0.1404096277889266
 20
0.5539999999999737
 10
0.140414317787986
 20
0.5486709663591683
 10
0.1400945777145353
 20
0.5434163177104665
 10
0.1394834437614918
 20
0.5383413153463153
 10
0.1381154497366879
 20
0.5311906796868016
 10
0.1363846825253177
 20
0.5246736526612495
 10
0.1350193823381005
 20
0.5204285258442951
 10
0.1336340395010893
 20
0.5165957708396718
 10
0.1323034236744434
 20
0.5132309565187825
 10
0.1310108292765335
 20
0.5101813632134054
 10
0.1299145656062137
 20
0.507734565110809
 10
0.1290836382886482
 20
0.5059533807118442
 10
0.1285736079239541
 20
0.5048839532969396
 10
0.1284859523951809
 20
0.5047030240640425
 10
0.1574472122268844
 20
0.0009441784950468
  0
LINE
  5
FC8
330
FA7
100
AcDbEntity
  8
BLOCKS
  6
Continuous
100
AcDbLine
 10
0.3327542494625959
 20
0.7040000000000646
 30
0.0
 11
0.2925527877731611
 21
0.0009441784950468
 31
0.0
  0
LINE
  5
FC9
330
FA7
100
AcDbEntity
  8
BLOCKS
  6
Continuous
100
AcDbLine
 10
0.1404096277888129
 20
0.5540000000000874
 30
0.0
 11
0.1354959315043516
 21
0.7040000000000646
 31
0.0
  0
ENDBLK
  5
FCB
330
FA7
100
AcDbEntity
  8
0
100
AcDbBlockEnd
  0
ENDSEC
  0
SECTION
  2
ENTITIES
  0
ARC
  5
D6B
330
1F
100
AcDbEntity
  8
SANINDUSA
100
AcDbCircle
 10
105.4962664685188
 20
143.2221345066903
 30
0.0
 40
0.0060000000000002
100
AcDbArc
 50
0.0
 51
90.0
  0
LWPOLYLINE
  5
D6C
330
1F
100
AcDbEntity
  8
9
100
AcDbPolyline
 90
        9
 70
   128
 43
0.0
 10
105.4330345557358
 20
143.2221345066903
 10
105.4329246786933
 20
143.2233050486224
 10
105.4325992700789
 20
143.2244306072845
 10
105.4320708351633
 20
143.2254679280884
 10
105.4313596814037
 20
143.2263771473774
 10
105.4304931380405
 20
143.2271233243641
 10
105.4295045058491
 20
143.2276777838854
 10
105.4284317774101
 20
143.2280192183727
 10
105.4273161770759
 20
143.2281345066903
  0
LINE
  5
D6D
330
1F
100
AcDbEntity
  8
SANINDUSA
100
AcDbLine
 10
105.4273161770759
 20
143.2281345066903
 30
0.0
 11
105.4962664685188
 21
143.2281345066903
 31
0.0
  0
LINE
  5
D6E
330
1F
100
AcDbEntity
  8
9
100
AcDbLine
 10
105.5022664685189
 20
143.2221345066903
 30
0.0
 11
105.4330345557358
 21
143.2221345066903
 31
0.0
  0
LWPOLYLINE
  5
D6F
330
1F
100
AcDbEntity
  8
9
100
AcDbPolyline
 90
        9
 70
   128
 43
0.0
 10
105.334683074086
 20
143.2221345066903
 10
105.334599566292
 20
143.2233050486224
 10
105.3343522520677
 20
143.2244306072845
 10
105.33395063556
 20
143.2254679280884
 10
105.3334101506661
 20
143.2263771473774
 10
105.3327515679173
 20
143.2271233243641
 10
105.3320001962794
 20
143.2276777838854
 10
105.331184910543
 20
143.2280192183727
 10
105.3303370416817
 20
143.2281345066903
  0
LWPOLYLINE
  5
D70
330
1F
100
AcDbEntity
  8
9
100
AcDbPolyline
 90
        9
 70
   128
 43
0.0
 10
105.168085165255
 20
143.2221345066903
 10
105.168168673049
 20
143.2233050486224
 10
105.1684159872733
 20
143.2244306072845
 10
105.168817603781
 20
143.2254679280884
 10
105.169358088675
 20
143.2263771473774
 10
105.1700166714237
 20
143.2271233243641
 10
105.1707680430617
 20
143.2276777838854
 10
105.1715833287981
 20
143.2280192183727
 10
105.1724311976593
 20
143.2281345066903
  0
LINE
  5
D71
330
1F
100
AcDbEntity
  8
SANINDUSA
100
AcDbLine
 10
105.1150415305821
 20
143.2281345066903
 30
0.0
 11
105.1278865019054
 21
143.2281345066903
 31
0.0
  0
LINE
  5
D72
330
1F
100
AcDbEntity
  8
SANINDUSA
100
AcDbLine
 10
105.1104691653516
 20
143.2281345066903
 30
0.0
 11
105.1150415305821
 21
143.2281345066903
 31
0.0
  0
LINE
  5
D73
330
1F
100
AcDbEntity
  8
SANINDUSA
100
AcDbLine
 10
105.1104691653516
 20
143.2221345066903
 30
0.0
 11
105.1104691653516
 21
143.2281345066903
 31
0.0
  0
LINE
  5
D74
330
1F
100
AcDbEntity
  8
9
100
AcDbLine
 10
105.1229101200329
 20
143.2221345066903
 30
0.0
 11
105.1104691653516
 21
143.2221345066903
 31
0.0
  0
LWPOLYLINE
  5
D75
330
1F
100
AcDbEntity
  8
SANINDUSA
100
AcDbPolyline
 90
        9
 70
   128
 43
0.0
 10
105.1229101200329
 20
143.2221345066903
 10
105.1230057398152
 20
143.2233050486224
 10
105.1232889245474
 20
143.2244306072845
 10
105.1237487915992
 20
143.2254679280884
 10
105.1243676685376
 20
143.2263771473774
 10
105.1251217722689
 20
143.2271233243641
 10
105.1259821230096
 20
143.2276777838854
 10
105.1269156579634
 20
143.2280192183727
 10
105.1278865019054
 20
143.2281345066903
  0
LINE
  5
D76
330
1F
100
AcDbEntity
  8
SANINDUSA
100
AcDbLine
 10
105.1278865019054
 20
143.2281345066903
 30
0.0
 11
105.1724311976593
 21
143.2281345066903
 31
0.0
  0
LINE
  5
D77
330
1F
100
AcDbEntity
  8
9
100
AcDbLine
 10
105.168085165255
 20
143.2221345066903
 30
0.0
 11
105.1229101200329
 21
143.2221345066903
 31
0.0
  0
LINE
  5
D78
330
1F
100
AcDbEntity
  8
SANINDUSA
100
AcDbLine
 10
105.1724311976593
 20
143.2281345066903
 30
0.0
 11
105.3303370416817
 21
143.2281345066903
 31
0.0
  0
LINE
  5
D79
330
1F
100
AcDbEntity
  8
9
100
AcDbLine
 10
105.334683074086
 20
143.2221345066903
 30
0.0
 11
105.168085165255
 21
143.2221345066903
 31
0.0
  0
ARC
  5
D7A
330
1F
100
AcDbEntity
  8
SANINDUSA
100
AcDbCircle
 10
104.9333841196705
 20
143.2261345066903
 30
0.0
 40
0.0019999999999999
100
AcDbArc
 50
90.00000000001628
 51
180.0
  0
LINE
  5
D7B
330
1F
100
AcDbEntity
  8
SANINDUSA
100
AcDbLine
 10
104.9313841196705
 20
143.2221345066903
 30
0.0
 11
104.9313841196705
 21
143.2261345066903
 31
0.0
  0
LINE
  5
D7C
330
1F
100
AcDbEntity
  8
9
100
AcDbLine
 10
104.9333841196705
 20
143.2221345066903
 30
0.0
 11
104.9313841196705
 21
143.2221345066903
 31
0.0
  0
LINE
  5
D7D
330
1F
100
AcDbEntity
  8
9
100
AcDbLine
 10
104.9333841196705
 20
143.2281345066903
 30
0.0
 11
104.9333841196705
 21
143.2221345066903
 31
0.0
  0
LINE
  5
D7E
330
1F
100
AcDbEntity
  8
SANINDUSA
100
AcDbLine
 10
104.9333841196705
 20
143.2281345066903
 30
0.0
 11
105.1104691653516
 21
143.2281345066903
 31
0.0
  0
LINE
  5
D7F
330
1F
100
AcDbEntity
  8
9
100
AcDbLine
 10
105.1104691653516
 20
143.2221345066903
 30
0.0
 11
104.9333841196705
 21
143.2221345066903
 31
0.0
  0
LINE
  5
D80
330
1F
100
AcDbEntity
  8
SANINDUSA
100
AcDbLine
 10
105.3303370416817
 20
143.2281345066903
 30
0.0
 11
105.4273161770759
 21
143.2281345066903
 31
0.0
  0
LINE
  5
D81
330
1F
100
AcDbEntity
  8
9
100
AcDbLine
 10
105.4330345557358
 20
143.2221345066903
 30
0.0
 11
105.334683074086
 21
143.2221345066903
 31
0.0
  0
LINE
  5
D82
330
1F
100
AcDbEntity
  8
9
100
AcDbLine
 10
104.4777111908566
 20
143.2221345066903
 30
0.0
 11
104.44199728165
 21
143.2221345066903
 31
0.0
  0
ARC
  5
D83
330
1F
100
AcDbEntity
  8
SANINDUSA
100
AcDbCircle
 10
104.4717111908566
 20
143.2221345066903
 30
0.0
 40
0.0059999999999999
100
AcDbArc
 50
0.0
 51
90.0
  0
LWPOLYLINE
  5
D84
330
1F
100
AcDbEntity
  8
9
100
AcDbPolyline
 90
        9
 70
   128
 43
0.0
 10
104.2757280818265
 20
143.2221345066903
 10
104.2756931757855
 20
143.2233050486224
 10
104.2755897990818
 20
143.2244306072845
 10
104.2754219244244
 20
143.2254679280884
 10
104.2751960031422
 20
143.2263771473774
 10
104.2749207172633
 20
143.2271233243641
 10
104.2746066458696
 20
143.2276777838854
 10
104.2742658585487
 20
143.2280192183727
 10
104.2739114515663
 20
143.2281345066903
  0
LINE
  5
D85
330
1F
100
AcDbEntity
  8
SANINDUSA
100
AcDbLine
 10
104.2739114515662
 20
143.2281345066903
 30
0.0
 11
104.4378606160433
 21
143.2281345066903
 31
0.0
  0
LINE
  5
D86
330
1F
100
AcDbEntity
  8
SANINDUSA
100
AcDbLine
 10
104.4378606160433
 20
143.2281345066903
 30
0.0
 11
104.4717111908566
 21
143.2281345066903
 31
0.0
  0
LWPOLYLINE
  5
D87
330
1F
100
AcDbEntity
  8
9
100
AcDbPolyline
 90
        9
 70
   128
 43
0.0
 10
104.44199728165
 20
143.2221345066903
 10
104.4419177967803
 20
143.2233050486224
 10
104.4416823967301
 20
143.2244306072845
 10
104.4413001277915
 20
143.2254679280884
 10
104.4407856803453
 20
143.2263771473774
 10
104.4401588243183
 20
143.2271233243641
 10
104.4394436494362
 20
143.2276777838854
 10
104.4386676394686
 20
143.2280192183727
 10
104.4378606160433
 20
143.2281345066903
  0
LINE
  5
D88
330
1F
100
AcDbEntity
  8
9
100
AcDbLine
 10
104.44199728165
 20
143.2221345066903
 30
0.0
 11
104.2757280818265
 21
143.2221345066903
 31
0.0
  0
ARC
  5
D89
330
1F
100
AcDbEntity
  8
SANINDUSA
100
AcDbCircle
 10
105.4962664685188
 20
143.1741345066903
 30
0.0
 40
0.0060000000000002
100
AcDbArc
 50
270.0
 51
0.0
  0
LWPOLYLINE
  5
D8A
330
1F
100
AcDbEntity
  8
9
100
AcDbPolyline
 90
        9
 70
   128
 43
0.0
 10
105.4273161770759
 20
143.1681345066903
 10
105.4284317774101
 20
143.1682497950079
 10
105.4295045058491
 20
143.1685912294953
 10
105.4304931380405
 20
143.1691456890165
 10
105.4313596814037
 20
143.1698918660032
 10
105.4320708351633
 20
143.1708010852922
 10
105.4325992700789
 20
143.1718384060961
 10
105.4329246786933
 20
143.1729639647582
 10
105.4330345557358
 20
143.1741345066903
  0
LWPOLYLINE
  5
D8B
330
1F
100
AcDbEntity
  8
9
100
AcDbPolyline
 90
       14
 70
   128
 43
0.0
 10
105.4487638213416
 20
143.1584269409497
 10
105.4483090482579
 20
143.1584395432727
 10
105.4468495424939
 20
143.1584812510241
 10
105.4443989315739
 20
143.1585505982035
 10
105.440962736111
 20
143.1586460890728
 10
105.4365464767183
 20
143.1587662278938
 10
105.4311556740089
 20
143.1589095189282
 10
105.4247958485958
 20
143.1590744664377
 10
105.4171192147263
 20
143.1592678725014
 10
105.4083944480791
 20
143.1594800980844
 10
105.3986345079446
 20
143.1597084821124
 10
105.3878523536134
 20
143.159950363511
 10
105.3878523357217
 20
143.1599503639036
 10
105.3878523357217
 20
143.1599503639036
  0
LWPOLYLINE
  5
D8C
330
1F
100
AcDbEntity
  8
9
100
AcDbPolyline
 90
        9
 70
   128
 43
0.0
 10
105.4032314056998
 20
143.1681345066903
 10
105.4009998031134
 20
143.1679969675559
 10
105.3987988937958
 20
143.167586241854
 10
105.3966589488632
 20
143.1669079786704
 10
105.3946094009331
 20
143.1659715067782
 10
105.3926784393102
 20
143.1647897063307
 10
105.3908926222736
 20
143.1633788317089
 10
105.3892765117962
 20
143.1617582879605
 10
105.3878523357217
 20
143.1599503639036
  0
LINE
  5
D8D
330
1F
100
AcDbEntity
  8
SANINDUSA
100
AcDbLine
 10
105.4962664685188
 20
143.1681345066903
 30
0.0
 11
105.4273161770759
 21
143.1681345066903
 31
0.0
  0
LINE
  5
D8E
330
1F
100
AcDbEntity
  8
9
100
AcDbLine
 10
105.4330345557358
 20
143.1741345066903
 30
0.0
 11
105.5022664685189
 21
143.1741345066903
 31
0.0
  0
ARC
  5
D8F
330
1F
100
AcDbEntity
  8
SANINDUSA
100
AcDbCircle
 10
105.4659260669913
 20
143.1481345066903
 30
0.0
 40
0.02
100
AcDbArc
 50
90.00000006835231
 51
149.0585450683907
  0
LWPOLYLINE
  5
D90
330
1F
100
AcDbEntity
  8
9
100
AcDbPolyline
 90
        9
 70
   128
 43
0.0
 10
105.3303370416817
 20
143.1681345066903
 10
105.331184910543
 20
143.1682497950079
 10
105.3320001962794
 20
143.1685912294953
 10
105.3327515679173
 20
143.1691456890165
 10
105.3334101506661
 20
143.1698918660032
 10
105.33395063556
 20
143.1708010852922
 10
105.3343522520677
 20
143.1718384060961
 10
105.334599566292
 20
143.1729639647582
 10
105.334683074086
 20
143.1741345066903
  0
LWPOLYLINE
  5
D91
330
1F
100
AcDbEntity
  8
9
100
AcDbPolyline
 90
        9
 70
   128
 43
0.0
 10
105.3700297620786
 20
143.1681345066903
 10
105.3682238934162
 20
143.1680260177099
 10
105.3664376164387
 20
143.1677017277547
 10
105.364690310283
 20
143.1671651550133
 10
105.3630009312954
 20
143.1664221207087
 10
105.3613878073764
 20
143.1654806859443
 10
105.3598684391426
 20
143.1643510642498
 10
105.3584593100654
 20
143.1630455107759
 10
105.3571757076423
 20
143.161578189339
  0
LWPOLYLINE
  5
D92
330
1F
100
AcDbEntity
  8
9
100
AcDbPolyline
 90
        9
 70
   128
 43
0.0
 10
105.1724311976593
 20
143.1681345066903
 10
105.1715833287981
 20
143.1682497950079
 10
105.1707680430617
 20
143.1685912294953
 10
105.1700166714237
 20
143.1691456890165
 10
105.169358088675
 20
143.1698918660032
 10
105.168817603781
 20
143.1708010852922
 10
105.1684159872733
 20
143.1718384060961
 10
105.168168673049
 20
143.1729639647582
 10
105.168085165255
 20
143.1741345066903
  0
LWPOLYLINE
  5
D93
330
1F
100
AcDbEntity
  8
9
100
AcDbPolyline
 90
        9
 70
   128
 43
0.0
 10
105.1484174739712
 20
143.1681345066903
 10
105.1501731803273
 20
143.168028684719
 10
105.1519103074528
 20
143.1677123386341
 10
105.1536104727257
 20
143.1671888160721
 10
105.1552556846622
 20
143.1664636570521
 10
105.1568285333051
 20
143.1655445353498
 10
105.15831237446
 20
143.1644411772921
 10
105.1596915058274
 20
143.1631652588316
 10
105.1609513331672
 20
143.1617302819888
  0
LINE
  5
D94
330
1F
100
AcDbEntity
  8
SANINDUSA
100
AcDbLine
 10
105.1278865019054
 20
143.1681345066903
 30
0.0
 11
105.1104691653516
 21
143.1681345066903
 31
0.0
  0
LINE
  5
D95
330
1F
100
AcDbEntity
  8
SANINDUSA
100
AcDbLine
 10
105.1104691653516
 20
143.1681345066903
 30
0.0
 11
105.1104691653516
 21
143.1741345066903
 31
0.0
  0
LINE
  5
D96
330
1F
100
AcDbEntity
  8
9
100
AcDbLine
 10
105.1104691653516
 20
143.1741345066903
 30
0.0
 11
105.1229101200329
 21
143.1741345066903
 31
0.0
  0
LWPOLYLINE
  5
D97
330
1F
100
AcDbEntity
  8
SANINDUSA
100
AcDbPolyline
 90
        9
 70
   128
 43
0.0
 10
105.1278865019054
 20
143.1681345066903
 10
105.1269156579634
 20
143.1682497950079
 10
105.1259821230096
 20
143.1685912294953
 10
105.1251217722689
 20
143.1691456890165
 10
105.1243676685376
 20
143.1698918660032
 10
105.1237487915992
 20
143.1708010852922
 10
105.1232889245474
 20
143.1718384060961
 10
105.1230057398152
 20
143.1729639647582
 10
105.1229101200329
 20
143.1741345066903
  0
LWPOLYLINE
  5
D98
330
1F
100
AcDbEntity
  8
9
100
AcDbPolyline
 90
        6
 70
   128
 43
0.0
 10
105.129868939956
 20
143.157353042285
 10
105.1282450649512
 20
143.1590402952785
 10
105.1263001120721
 20
143.1604700868727
 10
105.1242100670392
 20
143.1615308079676
 10
105.1219203427237
 20
143.1622683246465
 10
105.1182632766988
 20
143.1626945509425
  0
LWPOLYLINE
  5
D99
330
1F
100
AcDbEntity
  8
9
100
AcDbPolyline
 90
        9
 70
   128
 43
0.0
 10
105.134256155767
 20
143.1605037800369
 10
105.1339610307478
 20
143.1603447233158
 10
105.1335710315879
 20
143.1601033206984
 10
105.133095200324
 20
143.1597851690463
 10
105.1325445689895
 20
143.1593976446289
 10
105.1319319038394
 20
143.1589497321066
 10
105.1312714093678
 20
143.1584518162236
 10
105.1305783989803
 20
143.15791544104
 10
105.129868939956
 20
143.157353042285
  0
LINE
  5
D9A
330
1F
100
AcDbEntity
  8
9
100
AcDbLine
 10
105.1182632766988
 20
143.1681345066903
 30
0.0
 11
105.1182632766988
 21
143.1626945509425
 31
0.0
  0
LWPOLYLINE
  5
D9B
330
1F
100
AcDbEntity
  8
SANINDUSA
100
AcDbPolyline
 90
        6
 70
   128
 43
0.0
 10
105.1182632766987
 20
143.1681345066903
 10
105.1232909903157
 20
143.1675256119819
 10
105.1263728228527
 20
143.1665016942494
 10
105.1293230647225
 20
143.1649567008764
 10
105.1319434343607
 20
143.1629725908741
 10
105.134256155767
 20
143.1605037800369
  0
LWPOLYLINE
  5
D9C
330
1F
100
AcDbEntity
  8
9
100
AcDbPolyline
 90
        7
 70
   128
 43
0.0
 10
105.1609513331672
 20
143.1617302819888
 10
105.1609513028471
 20
143.1617302809302
 10
105.1539217568035
 20
143.1614695109651
 10
105.147399000152
 20
143.1611952550118
 10
105.1413995367106
 20
143.1609074059785
 10
105.1359235187746
 20
143.1606052423889
 10
105.134256155767
 20
143.1605037800369
  0
LINE
  5
D9D
330
1F
100
AcDbEntity
  8
SANINDUSA
100
AcDbLine
 10
105.1724311976593
 20
143.1681345066903
 30
0.0
 11
105.1278865019054
 21
143.1681345066903
 31
0.0
  0
LINE
  5
D9E
330
1F
100
AcDbEntity
  8
9
100
AcDbLine
 10
105.1229101200329
 20
143.1741345066903
 30
0.0
 11
105.168085165255
 21
143.1741345066903
 31
0.0
  0
LWPOLYLINE
  5
D9F
330
1F
100
AcDbEntity
  8
9
100
AcDbPolyline
 90
       28
 70
   128
 43
0.0
 10
105.3571757076423
 20
143.161578189339
 10
105.3571756804601
 20
143.1615781925455
 10
105.3518325913047
 20
143.1621146815821
 10
105.3456210070508
 20
143.1625756436925
 10
105.3386132644878
 20
143.1629669465902
 10
105.3308817004051
 20
143.1632944579886
 10
105.322901799326
 20
143.1635534273446
 10
105.3143258323015
 20
143.163768418389
 10
105.3052644148993
 20
143.1639423225434
 10
105.2958281626867
 20
143.1640780312293
 10
105.2865189798108
 20
143.1641750994613
 10
105.2769439157862
 20
143.1642426756896
 10
105.2672191940598
 20
143.1642815106489
 10
105.2574610380788
 20
143.1642923550738
 10
105.2479114312204
 20
143.1642762981027
 10
105.2384061825827
 20
143.1642332961798
 10
105.2290541196008
 20
143.1641625803062
 10
105.21996406971
 20
143.1640633814833
 10
105.2112016522745
 20
143.1639342292041
 10
105.2027668771395
 20
143.1637719474302
 10
105.194749192542
 20
143.163574215955
 10
105.1872380467189
 20
143.1633387145718
 10
105.1801596947508
 20
143.1630563173795
 10
105.1736579890611
 20
143.1627251624821
 10
105.1677952199142
 20
143.1623413447736
 10
105.1642201470722
 20
143.1620500721533
 10
105.160951361819
 20
143.1617302850688
 10
105.1609513331672
 20
143.1617302819888
  0
LINE
  5
DA0
330
1F
100
AcDbEntity
  8
SANINDUSA
100
AcDbLine
 10
105.3303370416817
 20
143.1681345066903
 30
0.0
 11
105.1724311976593
 21
143.1681345066903
 31
0.0
  0
LINE
  5
DA1
330
1F
100
AcDbEntity
  8
9
100
AcDbLine
 10
105.168085165255
 20
143.1741345066903
 30
0.0
 11
105.334683074086
 21
143.1741345066903
 31
0.0
  0
LINE
  5
DA2
330
1F
100
AcDbEntity
  8
9
100
AcDbLine
 10
104.9333841196705
 20
143.1741345066903
 30
0.0
 11
104.9313841196705
 21
143.1741345066903
 31
0.0
  0
LINE
  5
DA3
330
1F
100
AcDbEntity
  8
SANINDUSA
100
AcDbLine
 10
104.9313841196705
 20
143.1701345066903
 30
0.0
 11
104.9313841196705
 21
143.1741345066903
 31
0.0
  0
ARC
  5
DA4
330
1F
100
AcDbEntity
  8
SANINDUSA
100
AcDbCircle
 10
104.9333841196705
 20
143.1701345066903
 30
0.0
 40
0.0020000000000002
100
AcDbArc
 50
180.0
 51
269.9999999999838
  0
LINE
  5
DA5
330
1F
100
AcDbEntity
  8
9
100
AcDbLine
 10
104.9333841196705
 20
143.1741345066903
 30
0.0
 11
104.9333841196705
 21
143.1681345066903
 31
0.0
  0
LWPOLYLINE
  5
DA6
330
1F
100
AcDbEntity
  8
9
100
AcDbPolyline
 90
        9
 70
   128
 43
0.0
 10
104.9333841196705
 20
143.1626945509425
 10
104.9329939390265
 20
143.1626981379736
 10
104.9326187528058
 20
143.1627087612192
 10
104.9322729792045
 20
143.1627260124341
 10
104.9319699061082
 20
143.1627492286637
 10
104.9317211804459
 20
143.1627775177213
 10
104.9315363606055
 20
143.1628097924743
 10
104.9314225491097
 20
143.162844812622
 10
104.9313841196705
 20
143.1628812323599
  0
LINE
  5
DA7
330
1F
100
AcDbEntity
  8
SANINDUSA
100
AcDbLine
 10
104.9313841196705
 20
143.1628812323599
 30
0.0
 11
104.9313841196705
 21
143.1701345066903
 31
0.0
  0
LINE
  5
DA8
330
1F
100
AcDbEntity
  8
9
100
AcDbLine
 10
104.9333841196705
 20
143.1681345066903
 30
0.0
 11
104.9333841196705
 21
143.1626945509425
 31
0.0
  0
LINE
  5
DA9
330
1F
100
AcDbEntity
  8
9
100
AcDbLine
 10
105.1182632766988
 20
143.1626945509425
 30
0.0
 11
104.9333841196705
 21
143.1626945509425
 31
0.0
  0
LINE
  5
DAA
330
1F
100
AcDbEntity
  8
SANINDUSA
100
AcDbLine
 10
105.1104691653516
 20
143.1681345066903
 30
0.0
 11
104.9333841196705
 21
143.1681345066903
 31
0.0
  0
LINE
  5
DAB
330
1F
100
AcDbEntity
  8
9
100
AcDbLine
 10
104.9333841196705
 20
143.1741345066903
 30
0.0
 11
105.1104691653516
 21
143.1741345066903
 31
0.0
  0
LWPOLYLINE
  5
DAD
330
1F
100
AcDbEntity
  8
SANINDUSA
100
AcDbPolyline
 90
        9
 70
   128
 43
0.0
 10
105.1865707414304
 20
143.1220422374971
 10
105.1862519015978
 20
143.1221661615128
 10
105.1859276146314
 20
143.1222682976178
 10
105.1855991222897
 20
143.1223482547127
 10
105.1852676824346
 20
143.1224057266262
 10
105.1849345642143
 20
143.1224404932869
 10
105.1846010432041
 20
143.1224524215665
 10
105.1842683965215
 20
143.1224414657893
 10
105.1839378979359
 20
143.1224076679071
  0
LWPOLYLINE
  5
DAF
330
1F
100
AcDbEntity
  8
9
100
AcDbPolyline
 90
        4
 70
   128
 43
0.0
 10
105.1758219178912
 20
143.1207172235443
 10
105.175509986309
 20
143.1206390282986
 10
105.1723677997059
 20
143.1198526517132
 10
105.1721306228731
 20
143.1197934190219
  0
LINE
  5
DB0
330
1F
100
AcDbEntity
  8
9
100
AcDbLine
 10
105.1758219178912
 20
143.1207172235443
 30
0.0
 11
105.1772025283383
 21
143.1210118076981
 31
0.0
  0
LINE
  5
DB1
330
1F
100
AcDbEntity
  8
9
100
AcDbLine
 10
105.1718861032201
 20
143.125557194352
 30
0.0
 11
105.1702987814296
 21
143.1258585584371
 31
0.0
  0
LWPOLYLINE
  5
DB2
330
1F
100
AcDbEntity
  8
9
100
AcDbPolyline
 90
        9
 70
   128
 43
0.0
 10
105.1744320293924
 20
143.1297296271569
 10
105.1742383410197
 20
143.1295149789622
 10
105.1739969584106
 20
143.1291943815715
 10
105.1737129496149
 20
143.1287745662218
 10
105.1733922776583
 20
143.1282643473222
 10
105.1730416753433
 20
143.1276744373874
 10
105.1726685038875
 20
143.1270172221187
 10
105.1722805983689
 20
143.1263065003547
 10
105.1718861032202
 20
143.125557194352
  0
LWPOLYLINE
  5
DB3
330
1F
100
AcDbEntity
  8
9
100
AcDbPolyline
 90
        9
 70
   128
 43
0.0
 10
105.1728236909396
 20
143.1305276494497
 10
105.1726574452033
 20
143.1302744522858
 10
105.1724353347008
 20
143.1299034004189
 10
105.1721626201018
 20
143.1294232821833
 10
105.1718457606304
 20
143.1288454691417
 10
105.171492261078
 20
143.1281836467506
 10
105.171110494054
 20
143.1274534902213
 10
105.1707095016803
 20
143.1266722932539
 10
105.1702987814296
 20
143.1258585584371
  0
LINE
  5
DB4
330
1F
100
AcDbEntity
  8
SANINDUSA
100
AcDbLine
 10
105.1728236909396
 20
143.1305276494497
 30
0.0
 11
105.1744320293924
 21
143.1297296271569
 31
0.0
  0
LWPOLYLINE
  5
DB5
330
1F
100
AcDbEntity
  8
9
100
AcDbPolyline
 90
        3
 70
   128
 43
0.0
 10
105.1772025283383
 20
143.1210118076981
 10
105.1804019712026
 20
143.1216835961429
 10
105.183937897936
 20
143.1224076679071
  0
LWPOLYLINE
  5
DB6
330
1F
100
AcDbEntity
  8
9
100
AcDbPolyline
 90
       12
 70
   128
 43
0.0
 10
105.183937897936
 20
143.1224076679071
 10
105.1841973674024
 20
143.1224609476787
 10
105.1845309460662
 20
143.1225751756145
 10
105.1846280888001
 20
143.1226477365698
 10
105.1846389043688
 20
143.1227807453284
 10
105.1844792518585
 20
143.1229167865671
 10
105.184170457997
 20
143.1230599119644
 10
105.1837232050908
 20
143.1232110881817
 10
105.1818228130363
 20
143.1236772953071
 10
105.1795340974058
 20
143.1241344928216
 10
105.1757353549292
 20
143.1248408002975
 10
105.1718861032202
 20
143.125557194352
  0
LWPOLYLINE
  5
DB7
330
1F
100
AcDbEntity
  8
SANINDUSA
100
AcDbPolyline
 90
       10
 70
   128
 43
0.0
 10
105.1744320293924
 20
143.1297296271569
 10
105.1744320827307
 20
143.1297296003914
 10
105.1782992643514
 20
143.1278191775182
 10
105.1820086510461
 20
143.1259862532306
 10
105.1843011111021
 20
143.1247937867936
 10
105.186225356822
 20
143.1236323500023
 10
105.1870108128
 20
143.1229580993778
 10
105.1872013961513
 20
143.1224150872563
 10
105.1868140178796
 20
143.1221105940856
 10
105.1865707414304
 20
143.1220422374971
  0
LWPOLYLINE
  5
DC0
330
1F
100
AcDbEntity
  8
SANINDUSA
100
AcDbPolyline
 90
        3
 70
   128
 43
0.0
 10
105.1537995393709
 20
143.1104285471259
 10
105.1438832352132
 20
143.1152643386445
 10
105.1433459958304
 20
143.1155723264127
  0
LINE
  5
DC3
330
1F
100
AcDbEntity
  8
SANINDUSA
100
AcDbLine
 10
105.1707536484575
 20
143.1041197245588
 30
0.0
 11
105.1743397363692
 21
143.1064711571767
 31
0.0
  0
LWPOLYLINE
  5
DC8
330
1F
100
AcDbEntity
  8
9
100
AcDbPolyline
 90
        3
 70
   128
 43
0.0
 10
105.1197000574041
 20
143.0985674786776
 10
105.1200280739981
 20
143.0995765552212
 10
105.1202846273834
 20
143.1003609646652
  0
LINE
  5
DC9
330
1F
100
AcDbEntity
  8
SANINDUSA
100
AcDbLine
 10
105.1197000574041
 20
143.0985674786776
 30
0.0
 11
105.1154019957454
 21
143.099978007386
 31
0.0
  0
LWPOLYLINE
  5
DCA
330
1F
100
AcDbEntity
  8
9
100
AcDbPolyline
 90
        9
 70
   128
 43
0.0
 10
105.1235546349101
 20
143.0942996383055
 10
105.1241134805545
 20
143.0942776390107
 10
105.1246674605793
 20
143.0942540081279
 10
105.1252117517279
 20
143.0942289514008
 10
105.1257416151003
 20
143.0942026869868
 10
105.1262524374127
 20
143.0941754435588
 10
105.1267397711633
 20
143.094147458313
 10
105.1271993733548
 20
143.0941189749044
 10
105.1276272424361
 20
143.0940902413253
  0
LWPOLYLINE
  5
DCB
330
1F
100
AcDbEntity
  8
SANINDUSA
100
AcDbPolyline
 90
        5
 70
   128
 43
0.0
 10
105.1235546349101
 20
143.0942996383055
 10
105.1233787011558
 20
143.0954090574668
 10
105.1227759614705
 20
143.0964998057835
 10
105.1215145827853
 20
143.09767948468
 10
105.1197000574041
 20
143.0985674786776
  0
LWPOLYLINE
  5
DCC
330
1F
100
AcDbEntity
  8
9
100
AcDbPolyline
 90
        4
 70
   128
 43
0.0
 10
105.1256563301866
 20
143.1007416183887
 10
105.1266599650391
 20
143.0993848696144
 10
105.1275076237941
 20
143.0967961288935
 10
105.1276272424361
 20
143.0940902413253
  0
LWPOLYLINE
  5
DCD
330
1F
100
AcDbEntity
  8
SANINDUSA
100
AcDbPolyline
 90
       10
 70
   128
 43
0.0
 10
105.1743397363692
 20
143.1064711571767
 10
105.174393832055
 20
143.1065234521855
 10
105.1743199360358
 20
143.1065857492638
 10
105.1741070265223
 20
143.1066687804301
 10
105.1738304620985
 20
143.1067490477826
 10
105.1723873026033
 20
143.107070816087
 10
105.1687351861045
 20
143.1077452456768
 10
105.1640817906758
 20
143.1085628358887
 10
105.1593653630478
 20
143.1094002897545
 10
105.1537995393709
 20
143.1104285471259
  0
LWPOLYLINE
  5
DD0
330
1F
100
AcDbEntity
  8
9
100
AcDbPolyline
 90
        9
 70
   128
 43
0.0
 10
105.1224576271124
 20
143.0641643264599
 10
105.1230441576068
 20
143.0641427734955
 10
105.1236250628072
 20
143.0641194189576
 10
105.1241947713704
 20
143.0640944868348
 10
105.1247478193382
 20
143.0640682162458
 10
105.1252789025406
 20
143.0640408591467
 10
105.1257829274671
 20
143.0640126779137
 10
105.1262550601178
 20
143.0639839428272
 10
105.1266907723648
 20
143.0639549294797
  0
LINE
  5
DD1
330
1F
100
AcDbEntity
  8
9
100
AcDbLine
 10
105.072668020036
 20
143.0681460869608
 30
0.0
 11
105.1224576271124
 21
143.0641643264599
 31
0.0
  0
ARC
  5
DD2
330
1F
100
AcDbEntity
  8
SANINDUSA
100
AcDbCircle
 10
105.1853841196705
 20
143.0491345066903
 30
0.0
 40
0.0009999999999999
100
AcDbArc
 50
270.0
 51
0.0
  0
LWPOLYLINE
  5
DD3
330
1F
100
AcDbEntity
  8
9
100
AcDbPolyline
 90
        9
 70
   128
 43
0.0
 10
105.1144033089796
 20
143.059002328662
 10
105.1154212101905
 20
143.0588298117213
 10
105.1163858121571
 20
143.0584505533967
 10
105.117262759546
 20
143.0578780613803
 10
105.1180208189356
 20
143.0571327255889
 10
105.1186329912282
 20
143.0562410919559
 10
105.119077473251
 20
143.0552349169692
 10
105.1193384343003
 20
143.0541500366296
 10
105.1194065799685
 20
143.0530250901138
  0
LWPOLYLINE
  5
DD4
330
1F
100
AcDbEntity
  8
9
100
AcDbPolyline
 90
        5
 70
   128
 43
0.0
 10
105.1194065799685
 20
143.0530250901138
 10
105.1180635707733
 20
143.0532949005699
 10
105.1171059406196
 20
143.0535336322258
 10
105.1165447652733
 20
143.0537385239573
 10
105.1163841196705
 20
143.0538906118334
  0
LWPOLYLINE
  5
DD5
330
1F
100
AcDbEntity
  8
SANINDUSA
100
AcDbPolyline
 90
        8
 70
   128
 43
0.0
 10
105.1132765243864
 20
143.0590887961648
 10
105.1137083413732
 20
143.0588420850173
 10
105.1143162084818
 20
143.0583905235156
 10
105.1149949085154
 20
143.057707538349
 10
105.1156370022346
 20
143.0567756458449
 10
105.1161190390706
 20
143.0556464269393
 10
105.1163629916376
 20
143.0543915700259
 10
105.116350378681
 20
143.0538887500242
  0
LINE
  5
DD6
330
1F
100
AcDbEntity
  8
SANINDUSA
100
AcDbLine
 10
105.0721894270761
 20
143.0623782453928
 30
0.0
 11
105.1146079544651
 21
143.0589823194118
 31
0.0
  0
ARC
  5
DD7
330
1F
100
AcDbEntity
  8
SANINDUSA
100
AcDbCircle
 10
105.1173841196705
 20
143.0491345066903
 30
0.0
 40
0.0009999999999999
100
AcDbArc
 50
180.0
 51
270.0
  0
LINE
  5
DD8
330
1F
100
AcDbEntity
  8
SANINDUSA
100
AcDbLine
 10
105.1163841196705
 20
143.0538906118334
 30
0.0
 11
105.1163841196705
 21
143.0491345066903
 31
0.0
  0
LINE
  5
DD9
330
1F
100
AcDbEntity
  8
SANINDUSA
100
AcDbLine
 10
105.1853841196705
 20
143.0481345066903
 30
0.0
 11
105.1173841196717
 21
143.0481345066903
 31
0.0
  0
LINE
  5
DDA
330
1F
100
AcDbEntity
  8
9
100
AcDbLine
 10
105.1163841196705
 20
143.0491345066903
 30
0.0
 11
105.1863841196705
 21
143.0491345066903
 31
0.0
  0
LWPOLYLINE
  5
DDB
330
1F
100
AcDbEntity
  8
9
100
AcDbPolyline
 90
        9
 70
   128
 43
0.0
 10
105.0726680200361
 20
143.0681460869608
 10
105.0725746511814
 20
143.0669840090719
 10
105.0724848704395
 20
143.0658746361931
 10
105.0724021280338
 20
143.064860600902
 10
105.0723296037087
 20
143.0639808720061
 10
105.0722700845332
 20
143.0632692569936
 10
105.072225857796
 20
143.0627531028303
 10
105.0721986231057
 20
143.0624522450312
 10
105.0721894270761
 20
143.0623782453928
  0
LINE
  5
DDC
330
1F
100
AcDbEntity
  8
SANINDUSA
100
AcDbLine
 10
105.1863841196705
 20
143.0491345066903
 30
0.0
 11
105.1863841196705
 21
143.0763025730462
 31
0.0
  0
LWPOLYLINE
  5
DDD
330
1F
100
AcDbEntity
  8
SANINDUSA
100
AcDbPolyline
 90
        7
 70
   128
 43
0.0
 10
105.1144033089795
 20
143.059002328662
 10
105.116542187628
 20
143.0591360524991
 10
105.1188516329728
 20
143.0599217570295
 10
105.1209668705742
 20
143.0612869149687
 10
105.1220479308529
 20
143.0626001705194
 10
105.1223923839775
 20
143.0635130096124
 10
105.1224576271124
 20
143.0641643264599
  0
LWPOLYLINE
  5
DDE
330
1F
100
AcDbEntity
  8
9
100
AcDbPolyline
 90
        9
 70
   128
 43
0.0
 10
105.1266907723648
 20
143.0639549294797
 10
105.1262320585712
 20
143.0608040622089
 10
105.125212724502
 20
143.0581001350036
 10
105.1243059568052
 20
143.0565315669283
 10
105.1232996837363
 20
143.0552107166211
 10
105.1222769698009
 20
143.0541900830319
 10
105.1212581119003
 20
143.0534611837413
 10
105.1202899204672
 20
143.0530636331978
 10
105.1194065799685
 20
143.0530250901138
  0
LWPOLYLINE
  5
DDF
330
1F
100
AcDbEntity
  8
SANINDUSA
100
AcDbPolyline
 90
        4
 70
   128
 43
0.0
 10
105.1910929455876
 20
143.0847188628072
 10
105.2108929107585
 20
143.0828718203611
 10
105.2342000650517
 20
143.0815693208537
 10
105.2575575316779
 20
143.0811345066903
  0
LWPOLYLINE
  5
DE0
330
1F
100
AcDbEntity
  8
SANINDUSA
100
AcDbPolyline
 90
        3
 70
   128
 43
0.0
 10
105.1224576271124
 20
143.0641643264599
 10
105.1230012533676
 20
143.0793775874485
 10
105.1235546349101
 20
143.0942996383055
  0
LWPOLYLINE
  5
DE1
330
1F
100
AcDbEntity
  8
9
100
AcDbPolyline
 90
        3
 70
   128
 43
0.0
 10
105.1276272424361
 20
143.0940902413253
 10
105.1271548435583
 20
143.0791681904683
 10
105.1266907723648
 20
143.0639549294797
  0
LWPOLYLINE
  5
DE2
330
1F
100
AcDbEntity
  8
9
100
AcDbPolyline
 90
       16
 70
   128
 43
0.0
 10
105.1862603585044
 20
143.0762949305064
 10
105.1862419769732
 20
143.0764695158744
 10
105.1852379562027
 20
143.0769478552216
 10
105.1832800852239
 20
143.0775930579898
 10
105.1804475001794
 20
143.0784055201731
 10
105.1767885464037
 20
143.0793980533687
 10
105.1724495338637
 20
143.0805648847363
 10
105.1674810500414
 20
143.0819291730586
 10
105.1621036050168
 20
143.0834680133707
 10
105.1563518426428
 20
143.085199418525
 10
105.1504867693301
 20
143.087023872585
 10
105.1445081078657
 20
143.088917148023
 10
105.1387164497821
 20
143.0907564811347
 10
105.1332606545507
 20
143.0924530780175
 10
105.1283029504211
 20
143.0939043093678
 10
105.1276272424361
 20
143.0940902413253
  0
LWPOLYLINE
  5
DE3
330
1F
100
AcDbEntity
  8
9
100
AcDbPolyline
 90
       17
 70
   128
 43
0.0
 10
105.1336409477352
 20
143.101336210056
 10
105.1378324482396
 20
143.1003239346725
 10
105.1450940347302
 20
143.0985412295878
 10
105.1526161615267
 20
143.0966965726165
 10
105.159967230679
 20
143.0949227502615
 10
105.167162537193
 20
143.0932392198146
 10
105.1738898485619
 20
143.0917398974106
 10
105.1800713715622
 20
143.0904158646733
 10
105.1855182119192
 20
143.0892713790424
 10
105.1900849164697
 20
143.0883018556904
 10
105.1936387026368
 20
143.0875021448855
 10
105.1960789286776
 20
143.086868848854
 10
105.1973259128349
 20
143.0863967158649
 10
105.1973469682141
 20
143.086085723968
 10
105.196702022053
 20
143.0859714627093
 10
105.1955526155721
 20
143.0859252668491
 10
105.1943692434938
 20
143.0859540863893
  0
LWPOLYLINE
  5
DE4
330
1F
100
AcDbEntity
  8
SANINDUSA
100
AcDbPolyline
 90
       15
 70
   128
 43
0.0
 10
105.1864024461162
 20
143.0762947218163
 10
105.1864045628559
 20
143.0771358185499
 10
105.1867216537777
 20
143.078903690451
 10
105.1873057998085
 20
143.080488066342
 10
105.188093952878
 20
143.0818687535672
 10
105.1890283631075
 20
143.0830368348035
 10
105.1900492133797
 20
143.0839868797003
 10
105.1910876840994
 20
143.0847182311375
 10
105.1920630622144
 20
143.0852399250604
 10
105.1929043602013
 20
143.0855812935799
 10
105.1935848971653
 20
143.0857900289645
 10
105.1941111923923
 20
143.085910755846
 10
105.1944823191719
 20
143.0859730734447
 10
105.1946970156718
 20
143.0859985916281
 10
105.1947264256082
 20
143.0860012072845
  0
LINE
  5
DE6
330
1F
100
AcDbEntity
  8
9
100
AcDbLine
 10
105.0313106881553
 20
143.0937159678479
 30
0.0
 11
105.0478964794074
 21
143.0937159678479
 31
0.0
  0
LINE
  5
DE7
330
1F
100
AcDbEntity
  8
SANINDUSA
100
AcDbLine
 10
104.9720182239704
 20
143.0881345066903
 30
0.0
 11
104.95646358913
 21
143.0881345066903
 31
0.0
  0
LINE
  5
DE8
330
1F
100
AcDbEntity
  8
9
100
AcDbLine
 10
104.9720182239705
 20
143.0881345066903
 30
0.0
 11
104.9720182239705
 21
143.0892003376998
 31
0.0
  0
LWPOLYLINE
  5
DE9
330
1F
100
AcDbEntity
  8
9
100
AcDbPolyline
 90
        6
 70
   128
 43
0.0
 10
104.9565050850094
 20
143.0881431727694
 10
104.9592104554691
 20
143.0883398735174
 10
104.9621775390617
 20
143.0885600093531
 10
104.9655359432784
 20
143.0888120896393
 10
104.9689908485491
 20
143.0890723082089
 10
104.9726470622589
 20
143.0893462922447
  0
LWPOLYLINE
  5
DEA
330
1F
100
AcDbEntity
  8
9
100
AcDbPolyline
 90
        4
 70
   128
 43
0.0
 10
104.972720464549
 20
143.0895045393148
 10
104.972706006888
 20
143.0896178712795
 10
104.9726742069773
 20
143.0899401491938
 10
104.9726291858344
 20
143.0904269762172
  0
LWPOLYLINE
  5
DEB
330
1F
100
AcDbEntity
  8
9
100
AcDbPolyline
 90
        6
 70
   128
 43
0.0
 10
104.972720464549
 20
143.0895045393148
 10
104.9690918152497
 20
143.0892017059038
 10
104.9654587159928
 20
143.0888999808672
 10
104.9623090657464
 20
143.088637632261
 10
104.959353656546
 20
143.0883890030543
 10
104.9565313940831
 20
143.0881472885104
  0
LWPOLYLINE
  5
DEC
330
1F
100
AcDbEntity
  8
9
100
AcDbPolyline
 90
        6
 70
   128
 43
0.0
 10
104.9566329339393
 20
143.0881708560407
 10
104.9600496691425
 20
143.0886714504477
 10
104.9629436760494
 20
143.089096830889
 10
104.9661769472294
 20
143.0895727884826
 10
104.9695850268945
 20
143.0900746398548
 10
104.9731725555028
 20
143.0906024149644
  0
LWPOLYLINE
  5
DED
330
1F
100
AcDbEntity
  8
9
100
AcDbPolyline
 90
        7
 70
   128
 43
0.0
 10
104.9563840976788
 20
143.0881345066903
 10
104.9563449637081
 20
143.0884714845573
 10
104.9562598612542
 20
143.0894435967888
 10
104.9561382412466
 20
143.0909428606149
 10
104.9559934947164
 20
143.09280449689
 10
104.9559380029064
 20
143.0935346966584
 10
104.9559349993487
 20
143.0935744624382
  0
LINE
  5
DEE
330
1F
100
AcDbEntity
  8
SANINDUSA
100
AcDbLine
 10
104.9313841196705
 20
143.0901345066903
 30
0.0
 11
104.9313841196705
 21
143.0937611438555
 31
0.0
  0
ARC
  5
DEF
330
1F
100
AcDbEntity
  8
SANINDUSA
100
AcDbCircle
 10
104.9333841196705
 20
143.0901345066903
 30
0.0
 40
0.0020000000000002
100
AcDbArc
 50
180.0
 51
269.9999999999838
  0
LINE
  5
DF0
330
1F
100
AcDbEntity
  8
9
100
AcDbLine
 10
104.9333841196705
 20
143.0935744624382
 30
0.0
 11
104.9333841196705
 21
143.0881345066903
 31
0.0
  0
LWPOLYLINE
  5
DF1
330
1F
100
AcDbEntity
  8
9
100
AcDbPolyline
 90
        9
 70
   128
 43
0.0
 10
104.9333841196705
 20
143.0935744624382
 10
104.9329939390265
 20
143.0935780494692
 10
104.9326187528058
 20
143.0935886727149
 10
104.9322729792045
 20
143.0936059239298
 10
104.9319699061082
 20
143.0936291401594
 10
104.9317211804459
 20
143.093657429217
 10
104.9315363606055
 20
143.09368970397
 10
104.9314225491097
 20
143.0937247241177
 10
104.9313841196705
 20
143.0937611438555
  0
LINE
  5
DF2
330
1F
100
AcDbEntity
  8
SANINDUSA
100
AcDbLine
 10
104.9563840976788
 20
143.0881345066903
 30
0.0
 11
104.9333841196705
 21
143.0881345066903
 31
0.0
  0
LINE
  5
DF3
330
1F
100
AcDbEntity
  8
9
100
AcDbLine
 10
104.9333841196705
 20
143.0935744624382
 30
0.0
 11
104.9559349993487
 21
143.0935744624382
 31
0.0
  0
LINE
  5
DF4
330
1F
100
AcDbEntity
  8
SANINDUSA
100
AcDbLine
 10
105.048757177435
 20
143.0881345066903
 30
0.0
 11
104.9720182239704
 21
143.0881345066903
 31
0.0
  0
LWPOLYLINE
  5
DF5
330
1F
100
AcDbEntity
  8
9
100
AcDbPolyline
 90
        9
 70
   128
 43
0.0
 10
105.0554052548601
 20
143.0841817971034
 10
105.0542483707158
 20
143.0840076387478
 10
105.0531359449804
 20
143.0838482202087
 10
105.052110727551
 20
143.0837096678511
 10
105.0512121169586
 20
143.0835973061644
 10
105.0504746463041
 20
143.0835154531453
 10
105.0499266561714
 20
143.0834672543592
 10
105.0495892055138
 20
143.0834545620586
 10
105.0494752623709
 20
143.0834778640015
  0
LINE
  5
DF6
330
1F
100
AcDbEntity
  8
SANINDUSA
100
AcDbLine
 10
105.0494752623709
 20
143.0834778640015
 30
0.0
 11
105.0477081816841
 21
143.0949370423649
 31
0.0
  0
LINE
  5
DF7
330
1F
100
AcDbEntity
  8
9
100
AcDbLine
 10
105.0536781699813
 20
143.095381610345
 30
0.0
 11
105.0554052548601
 21
143.0841817971034
 31
0.0
  0
LWPOLYLINE
  5
DF8
330
1F
100
AcDbEntity
  8
SANINDUSA
100
AcDbPolyline
 90
        6
 70
   128
 43
0.0
 10
104.9726470622589
 20
143.0893462922447
 10
104.9846138647346
 20
143.0902380775123
 10
105.0324810051987
 20
143.0938061167189
 10
105.10218821207
 20
143.0990044100172
 10
105.1118783770092
 20
143.0997272248675
 10
105.1707536484575
 20
143.1041197245588
  0
LWPOLYLINE
  5
DF9
330
1F
100
AcDbEntity
  8
9
100
AcDbPolyline
 90
        6
 70
   128
 43
0.0
 10
105.1743397363692
 20
143.1064711571767
 10
105.1635840407741
 20
143.1055635497592
 10
105.1157547881735
 20
143.1015307454566
 10
105.0442381666486
 20
143.0955110188585
 10
105.0422838699571
 20
143.095346703106
 10
104.972720464549
 20
143.0895045393148
  0
LWPOLYLINE
  5
DFA
330
1F
100
AcDbEntity
  8
9
100
AcDbPolyline
 90
        3
 70
   128
 43
0.0
 10
105.0470506278174
 20
143.1014511892647
 10
105.1113456939908
 20
143.1068558710989
 10
105.1537995393709
 20
143.1104285471259
  0
LWPOLYLINE
  5
DFB
330
1F
100
AcDbEntity
  8
9
100
AcDbPolyline
 90
        4
 70
   128
 43
0.0
 10
104.9731725555028
 20
143.0906024149644
 10
104.9850445010973
 20
143.0923471254253
 10
105.032532826965
 20
143.099322240997
 10
105.1721306228731
 20
143.1197934190219
  0
LWPOLYLINE
  5
DFC
330
1F
100
AcDbEntity
  8
SANINDUSA
100
AcDbPolyline
 90
        5
 70
   128
 43
0.0
 10
105.1839378979359
 20
143.1224076679071
 10
105.1737763462142
 20
143.1208765999776
 10
105.1263170489357
 20
143.1137264479915
 10
105.0413508639294
 20
143.1009284704394
 10
104.9563841196705
 20
143.0881345066903
  0
LWPOLYLINE
  5
DFD
330
1F
100
AcDbEntity
  8
9
100
AcDbPolyline
 90
        3
 70
   128
 43
0.0
 10
104.9559349993487
 20
143.0935744624382
 10
105.0715640628272
 20
143.1109859514931
 10
105.1702987814296
 20
143.1258585584371
  0
LWPOLYLINE
  5
DFF
330
1F
100
AcDbEntity
  8
SANINDUSA
100
AcDbPolyline
 90
       12
 70
   128
 43
0.0
 10
105.0721894270761
 20
143.0623782453928
 10
105.0691803294097
 20
143.0628040903738
 10
105.0662451694208
 20
143.0635916900489
 10
105.063427322828
 20
143.0647294052905
 10
105.0607684316955
 20
143.0662004229722
 10
105.0583077890477
 20
143.0679830044326
 10
105.0560817581981
 20
143.070050806729
 10
105.0541232353731
 20
143.0723732719324
 10
105.0524611635724
 20
143.0749160787121
 10
105.0511201048502
 20
143.0776416495351
 10
105.0501198773376
 20
143.0805097059863
 10
105.0494752623709
 20
143.0834778640015
  0
LWPOLYLINE
  5
E00
330
1F
100
AcDbEntity
  8
9
100
AcDbPolyline
 90
       10
 70
   128
 43
0.0
 10
105.0554052548601
 20
143.0841817971034
 10
105.0560410672576
 20
143.0814338844877
 10
105.0570771448209
 20
143.0788104059764
 10
105.0584906292986
 20
143.0763692415323
 10
105.060250335976
 20
143.0741642488512
 10
105.0623174416813
 20
143.072244075137
 10
105.0646463413139
 20
143.0706510838332
 10
105.0671856539977
 20
143.0694204199874
 10
105.0698793566614
 20
143.0685792348712
 10
105.0726680200361
 20
143.0681460869608
  0
LINE
  5
E01
330
1F
100
AcDbEntity
  8
SANINDUSA
100
AcDbLine
 10
104.9313841196705
 20
143.0937611438555
 30
0.0
 11
104.9313841196705
 21
143.1628812323599
 31
0.0
  0
LINE
  5
E02
330
1F
100
AcDbEntity
  8
9
100
AcDbLine
 10
104.9333841196705
 20
143.1626945509425
 30
0.0
 11
104.9333841196705
 21
143.0935744624382
 31
0.0
  0
LWPOLYLINE
  5
E03
330
1F
100
AcDbEntity
  8
9
100
AcDbPolyline
 90
        6
 70
   128
 43
0.0
 10
105.1702987814296
 20
143.1258585584371
 10
105.1586654448848
 20
143.1323069001528
 10
105.1508359956859
 20
143.1375584457983
 10
105.1433988876273
 20
143.1434386542168
 10
105.1363453072235
 20
143.1500631681852
 10
105.129868939956
 20
143.157353042285
  0
LWPOLYLINE
  5
E04
330
1F
100
AcDbEntity
  8
SANINDUSA
100
AcDbPolyline
 90
        6
 70
   128
 43
0.0
 10
105.134256155767
 20
143.1605037800369
 10
105.1401748735907
 20
143.1538143257576
 10
105.1467178297003
 20
143.1476230586601
 10
105.1539329459569
 20
143.1418835398191
 10
105.1616428521475
 20
143.1367083730872
 10
105.1728236909396
 20
143.1305276494497
  0
LWPOLYLINE
  5
E06
330
1F
100
AcDbEntity
  8
9
100
AcDbPolyline
 90
        7
 70
   128
 43
0.0
 10
105.1609513331672
 20
143.1617302819888
 10
105.1612286037676
 20
143.160833323129
 10
105.1635308522336
 20
143.1539217598261
 10
105.1660107107038
 20
143.1473606673889
 10
105.1686586701339
 20
143.1411458370021
 10
105.171467476223
 20
143.1352711745043
 10
105.1744320293924
 20
143.1297296271569
  0
LWPOLYLINE
  5
E08
330
1F
100
AcDbEntity
  8
SANINDUSA
100
AcDbPolyline
 90
       24
 70
   128
 43
0.0
 10
105.2575575316779
 20
143.0811345066903
 10
105.2707659308553
 20
143.0812997381127
 10
105.2837189435589
 20
143.0818046228713
 10
105.2964716063869
 20
143.0826690828929
 10
105.3094548528241
 20
143.0839667062228
 10
105.3230596659685
 20
143.0858356826837
 10
105.3371478740773
 20
143.0883988765485
 10
105.3512712431783
 20
143.0917137481605
 10
105.3580951574364
 20
143.093621846527
 10
105.3647522629656
 20
143.0956994844105
 10
105.3712405384002
 20
143.0979495070488
 10
105.377557732986
 20
143.1003748189907
 10
105.3837013308766
 20
143.1029783538666
 10
105.3896685169136
 20
143.1057630343248
 10
105.3959582922177
 20
143.109002703631
 10
105.4020748125237
 20
143.1124901515779
 10
105.4086656604006
 20
143.1166725757567
 10
105.4156223085611
 20
143.1216426719036
 10
105.4228200315515
 20
143.1275026667825
 10
105.4286567007915
 20
143.1329050902136
 10
105.4344753476666
 20
143.1390060501172
 10
105.4401867993369
 20
143.1458651079758
 10
105.445694785591
 20
143.153541414468
 10
105.4486931383586
 20
143.1584699259583
  0
LINE
  5
E09
330
1F
100
AcDbEntity
  8
SANINDUSA
100
AcDbLine
 10
105.4273161770759
 20
143.1681345066903
 30
0.0
 11
105.3303370416817
 21
143.1681345066903
 31
0.0
  0
LINE
  5
E0A
330
1F
100
AcDbEntity
  8
9
100
AcDbLine
 10
105.334683074086
 20
143.1741345066903
 30
0.0
 11
105.4330345557358
 21
143.1741345066903
 31
0.0
  0
LWPOLYLINE
  5
E0B
330
1F
100
AcDbEntity
  8
9
100
AcDbPolyline
 90
        9
 70
   128
 43
0.0
 10
105.3878523357217
 20
143.1599503639036
 10
105.3878523185319
 20
143.1599503652923
 10
105.3838492854733
 20
143.160249781109
 10
105.3794067894588
 20
143.16053720274
 10
105.374511108717
 20
143.1608138198601
 10
105.3691829798199
 20
143.1610788552805
 10
105.3633918598221
 20
143.1613340894766
 10
105.3571757365737
 20
143.1615781882647
 10
105.3571757076423
 20
143.161578189339
  0
LINE
  5
E0C
330
1F
100
AcDbEntity
  8
9
100
AcDbLine
 10
104.44199728165
 20
143.1741345066903
 30
0.0
 11
104.4777111908566
 21
143.1741345066903
 31
0.0
  0
ARC
  5
E0D
330
1F
100
AcDbEntity
  8
SANINDUSA
100
AcDbCircle
 10
104.4717111908566
 20
143.1741345066903
 30
0.0
 40
0.0059999999999999
100
AcDbArc
 50
270.0
 51
0.0
  0
LWPOLYLINE
  5
E0E
330
1F
100
AcDbEntity
  8
9
100
AcDbPolyline
 90
       16
 70
   128
 43
0.0
 10
104.3624042985478
 20
143.1642914178376
 10
104.3620645252047
 20
143.1642815106489
 10
104.3608120131871
 20
143.1642426756896
 10
104.3587005328109
 20
143.1641750994613
 10
104.3557517112814
 20
143.1640780312293
 10
104.351759478494
 20
143.1639423225434
 10
104.3468827932714
 20
143.163768418389
 10
104.3411951445949
 20
143.1635534273446
 10
104.3347700214456
 20
143.1632944579886
 10
104.3278674158451
 20
143.162996226734
 10
104.3203561026351
 20
143.1626456671057
 10
104.3123294921577
 20
143.1622384824248
 10
104.3065747850008
 20
143.1619241894556
 10
104.3006265508855
 20
143.1615781925455
 10
104.3006264974921
 20
143.161578189339
 10
104.3006264974921
 20
143.161578189339
  0
LWPOLYLINE
  5
E0F
330
1F
100
AcDbEntity
  8
9
100
AcDbPolyline
 90
        9
 70
   128
 43
0.0
 10
104.3079777342172
 20
143.1681345066903
 10
104.3069449575087
 20
143.1680260177099
 10
104.3059233852894
 20
143.1677017277547
 10
104.3049241004921
 20
143.1671651550133
 10
104.3039579442557
 20
143.1664221207087
 10
104.3030353983108
 20
143.1654806859443
 10
104.3021664712642
 20
143.1643510642498
 10
104.3013605900168
 20
143.1630455107759
 10
104.3006264974921
 20
143.161578189339
  0
LWPOLYLINE
  5
E10
330
1F
100
AcDbEntity
  8
9
100
AcDbPolyline
 90
        9
 70
   128
 43
0.0
 10
104.3742258888624
 20
143.1681345066892
 10
104.372648571886
 20
143.1680721945176
 10
104.3710810821854
 20
143.1678856799283
 10
104.3695331844842
 20
143.1675761248193
 10
104.368014521457
 20
143.1671454575734
 10
104.3665345536604
 20
143.1665963610451
 10
104.3651025005974
 20
143.1659322558474
 10
104.3637272832852
 20
143.1651572790433
 10
104.3624174686809
 20
143.1642762583739
  0
LWPOLYLINE
  5
E11
330
1F
100
AcDbEntity
  8
9
100
AcDbPolyline
 90
        9
 70
   128
 43
0.0
 10
104.2739114515663
 20
143.1681345066903
 10
104.2742658585487
 20
143.1682497950079
 10
104.2746066458696
 20
143.1685912294953
 10
104.2749207172633
 20
143.1691456890165
 10
104.2751960031422
 20
143.1698918660032
 10
104.2754219244244
 20
143.1708010852922
 10
104.2755897990818
 20
143.1718384060961
 10
104.2756931757855
 20
143.1729639647582
 10
104.2757280818265
 20
143.1741345066903
  0
LWPOLYLINE
  5
E12
330
1F
100
AcDbEntity
  8
9
100
AcDbPolyline
 90
        9
 70
   128
 43
0.0
 10
104.232296468585
 20
143.1681345066903
 10
104.2315875269376
 20
143.1679969675559
 10
104.2308883360123
 20
143.167586241854
 10
104.2302085124205
 20
143.1669079786704
 10
104.2295574063971
 20
143.1659715067782
 10
104.2289439731979
 20
143.1647897063307
 10
104.2283766499301
 20
143.1633788317089
 10
104.2278632395088
 20
143.1617582879605
 10
104.2274108033364
 20
143.1599503639036
  0
LINE
  5
E13
330
1F
100
AcDbEntity
  8
SANINDUSA
100
AcDbLine
 10
104.4378606160433
 20
143.1681345066903
 30
0.0
 11
104.2739114515662
 21
143.1681345066903
 31
0.0
  0
LWPOLYLINE
  5
E14
330
1F
100
AcDbEntity
  8
9
100
AcDbPolyline
 90
        9
 70
   128
 43
0.0
 10
104.3006264974921
 20
143.161578189339
 10
104.3006264449391
 20
143.1615781882647
 10
104.2888407377232
 20
143.1613340894766
 10
104.2768407087048
 20
143.1610788552805
 10
104.2647160766211
 20
143.1608138198601
 10
104.2524107142131
 20
143.16053720274
 10
104.2399848820284
 20
143.160249781109
 10
104.2274108608045
 20
143.1599503652923
 10
104.2274108033364
 20
143.1599503639036
  0
LINE
  5
E15
330
1F
100
AcDbEntity
  8
SANINDUSA
100
AcDbLine
 10
104.4717111908566
 20
143.1681345066903
 30
0.0
 11
104.4378606160433
 21
143.1681345066903
 31
0.0
  0
LWPOLYLINE
  5
E16
330
1F
100
AcDbEntity
  8
9
100
AcDbPolyline
 90
        9
 70
   128
 43
0.0
 10
104.4378606160433
 20
143.1681345066903
 10
104.4386676394686
 20
143.1682497950079
 10
104.4394436494362
 20
143.1685912294953
 10
104.4401588243183
 20
143.1691456890165
 10
104.4407856803453
 20
143.1698918660032
 10
104.4413001277915
 20
143.1708010852922
 10
104.4416823967301
 20
143.1718384060961
 10
104.4419177967803
 20
143.1729639647582
 10
104.44199728165
 20
143.1741345066903
  0
LINE
  5
E17
330
1F
100
AcDbEntity
  8
9
100
AcDbLine
 10
104.2757280818265
 20
143.1741345066903
 30
0.0
 11
104.44199728165
 21
143.1741345066903
 31
0.0
  0
LINE
  5
E18
330
1F
100
AcDbEntity
  8
9
100
AcDbLine
 10
104.2311760000141
 20
143.0881345066903
 30
0.0
 11
104.2311697317372
 21
143.0881345066903
 31
0.0
  0
LWPOLYLINE
  5
E19
330
1F
100
AcDbEntity
  8
SANINDUSA
100
AcDbPolyline
 90
        7
 70
   128
 43
0.0
 10
104.2371498053705
 20
143.0935744624382
 10
104.2371459437262
 20
143.0935346966584
 10
104.2370267327829
 20
143.09280449689
 10
104.2362566884842
 20
143.0909428606149
 10
104.2349170378776
 20
143.0894435967888
 10
104.2331584682536
 20
143.0884714845573
 10
104.2311760000141
 20
143.0881345066903
  0
LINE
  5
E1A
330
1F
100
AcDbEntity
  8
SANINDUSA
100
AcDbLine
 10
104.1952935324758
 20
143.0881345066903
 30
0.0
 11
104.1813545361052
 21
143.0881345066903
 31
0.0
  0
LINE
  5
E1B
330
1F
100
AcDbEntity
  8
9
100
AcDbLine
 10
104.1813545361052
 20
143.0881345066903
 30
0.0
 11
104.1813545361052
 21
143.0934361605022
 31
0.0
  0
LWPOLYLINE
  5
E1C
330
1F
100
AcDbEntity
  8
9
100
AcDbPolyline
 90
        6
 70
   128
 43
0.0
 10
104.1945789639253
 20
143.0881708560407
 10
104.1933025136454
 20
143.0887245447803
 10
104.1921942691642
 20
143.0898867298265
 10
104.1913780900917
 20
143.0915270330462
 10
104.1909657092634
 20
143.0932912702053
 10
104.1909603510964
 20
143.0933337132024
  0
LWPOLYLINE
  5
E1D
330
1F
100
AcDbEntity
  8
SANINDUSA
100
AcDbPolyline
 90
        5
 70
   128
 43
0.0
 10
104.1813545361052
 20
143.0934361605022
 10
104.1839557266618
 20
143.0933753094507
 10
104.1864734810321
 20
143.0933373090807
 10
104.1888320186411
 20
143.0933233031455
 10
104.1909603510964
 20
143.0933337132024
  0
LWPOLYLINE
  5
E1E
330
1F
100
AcDbEntity
  8
SANINDUSA
100
AcDbPolyline
 90
        6
 70
   128
 43
0.0
 10
104.1909603510964
 20
143.0933337132024
 10
104.1928032938309
 20
143.0937635616048
 10
104.1942366970936
 20
143.0942656050729
 10
104.1952947264055
 20
143.094847427768
 10
104.1959028051019
 20
143.0954620178649
 10
104.19608140439
 20
143.0961200720787
  0
LWPOLYLINE
  5
E1F
330
1F
100
AcDbEntity
  8
9
100
AcDbPolyline
 90
        9
 70
   128
 43
0.0
 10
104.2020788639718
 20
143.0906024149644
 10
104.2009575367154
 20
143.0907030843807
 10
104.199875286
 20
143.0910093267392
 10
104.1988702371709
 20
143.0915103537861
 10
104.1979777959183
 20
143.0921885154251
 10
104.1972294010118
 20
143.0930199214928
 10
104.1966514167805
 20
143.0939752833567
 10
104.1962642043553
 20
143.0950209456906
 10
104.19608140439
 20
143.0961200720787
  0
LWPOLYLINE
  5
E20
330
1F
100
AcDbEntity
  8
9
100
AcDbPolyline
 90
        6
 70
   128
 43
0.0
 10
104.2020788639718
 20
143.0906024149644
 10
104.2018145951916
 20
143.0900713730204
 10
104.2009221013173
 20
143.0895389725423
 10
104.199465028963
 20
143.0890499849168
 10
104.1973895342733
 20
143.0885921347047
 10
104.1945789639253
 20
143.0881708560407
  0
LWPOLYLINE
  5
E21
330
1F
100
AcDbEntity
  8
9
100
AcDbPolyline
 90
        4
 70
   128
 43
0.0
 10
104.1945789639253
 20
143.0881708560407
 10
104.1947450480042
 20
143.088151406879
 10
104.1950074272906
 20
143.0881381422532
 10
104.1952935324758
 20
143.0881345066903
  0
LINE
  5
E22
330
1F
100
AcDbEntity
  8
9
100
AcDbLine
 10
104.1418467456797
 20
143.0881345066903
 30
0.0
 11
104.1418467456797
 21
143.0934361605022
 31
0.0
  0
LWPOLYLINE
  5
E23
330
1F
100
AcDbEntity
  8
9
100
AcDbPolyline
 90
        6
 70
   128
 43
0.0
 10
104.1283351700718
 20
143.0881472885104
 10
104.1296318366532
 20
143.0886140853039
 10
104.1307677300733
 20
143.089702733896
 10
104.1316151188378
 20
143.0912906581455
 10
104.1320960361286
 20
143.0933475696607
 10
104.1321018242558
 20
143.0934024976494
  0
LWPOLYLINE
  5
E24
330
1F
100
AcDbEntity
  8
SANINDUSA
100
AcDbPolyline
 90
        5
 70
   128
 43
0.0
 10
104.1321018242558
 20
143.0934024976494
 10
104.1342523238752
 20
143.0933754410199
 10
104.136643963924
 20
143.0933720866899
 10
104.1392020639488
 20
143.0933925394002
 10
104.1418467456797
 20
143.0934361605022
  0
LINE
  5
E25
330
1F
100
AcDbEntity
  8
SANINDUSA
100
AcDbLine
 10
104.1813545361052
 20
143.0881345066903
 30
0.0
 11
104.1418467456797
 21
143.0881345066903
 31
0.0
  0
LINE
  5
E26
330
1F
100
AcDbEntity
  8
SANINDUSA
100
AcDbLine
 10
104.1418467456797
 20
143.0934361605022
 30
0.0
 11
104.1813545361052
 21
143.0934361605022
 31
0.0
  0
LINE
  5
E27
330
1F
100
AcDbEntity
  8
9
100
AcDbLine
 10
104.1420631027796
 20
143.0975644998999
 30
0.0
 11
104.1418467456797
 21
143.0934361605022
 31
0.0
  0
LINE
  5
E28
330
1F
100
AcDbEntity
  8
9
100
AcDbLine
 10
104.1813545361052
 20
143.0934361605022
 30
0.0
 11
104.1806750370788
 21
143.1031534493006
 31
0.0
  0
LINE
  5
E29
330
1F
100
AcDbEntity
  8
SANINDUSA
100
AcDbLine
 10
104.1960814043899
 20
143.0961200720786
 30
0.0
 11
104.1954087161917
 21
143.1057399614958
 31
0.0
  0
LINE
  5
E2A
330
1F
100
AcDbEntity
  8
9
100
AcDbLine
 10
104.2010258494979
 20
143.1067325690296
 30
0.0
 11
104.2020788639718
 21
143.0906024149644
 31
0.0
  0
LINE
  5
E2B
330
1F
100
AcDbEntity
  8
SANINDUSA
100
AcDbLine
 10
104.2311697317372
 20
143.0881345066903
 30
0.0
 11
104.1952935324758
 21
143.0881345066903
 31
0.0
  0
LWPOLYLINE
  5
E2C
330
1F
100
AcDbEntity
  8
9
100
AcDbPolyline
 90
        5
 70
   128
 43
0.0
 10
104.2311697317372
 20
143.0881345066903
 10
104.2313457444167
 20
143.0899208281229
 10
104.2320491591002
 20
143.0970669607114
 10
104.2333060468554
 20
143.1098637728922
 10
104.2336524318833
 20
143.1133995533658
  0
LINE
  5
E2D
330
1F
100
AcDbEntity
  8
SANINDUSA
100
AcDbLine
 10
104.2391247285378
 20
143.1146403095569
 30
0.0
 11
104.2371498053705
 21
143.0935744624382
 31
0.0
  0
LINE
  5
E2E
330
1F
100
AcDbEntity
  8
SANINDUSA
100
AcDbLine
 10
104.1279116559015
 20
143.0881345066903
 30
0.0
 11
104.0903679631367
 21
143.0881345066903
 31
0.0
  0
LWPOLYLINE
  5
E2F
330
1F
100
AcDbEntity
  8
9
100
AcDbPolyline
 90
        7
 70
   128
 43
0.0
 10
104.097309020393
 20
143.0893462922447
 10
104.0961715830735
 20
143.0894471437345
 10
104.0950739702124
 20
143.0897610827412
 10
104.0940559421526
 20
143.0902767370196
 10
104.0931543763271
 20
143.0909754273143
 10
104.0924019313969
 20
143.0918318440042
 10
104.0923529206515
 20
143.0919007276499
  0
LINE
  5
E30
330
1F
100
AcDbEntity
  8
9
100
AcDbLine
 10
104.0972424058193
 20
143.0924267402986
 30
0.0
 11
104.097309020393
 21
143.0893462922447
 31
0.0
  0
LWPOLYLINE
  5
E31
330
1F
100
AcDbEntity
  8
9
100
AcDbPolyline
 90
        6
 70
   128
 43
0.0
 10
104.097309020393
 20
143.0893462922447
 10
104.0970294517118
 20
143.0890840864563
 10
104.0961541036282
 20
143.0888204460388
 10
104.0947756872953
 20
143.0885823375312
 10
104.0928425838501
 20
143.088360731891
 10
104.0900190687344
 20
143.0881431727694
  0
LWPOLYLINE
  5
E32
330
1F
100
AcDbEntity
  8
9
100
AcDbPolyline
 90
        4
 70
   128
 43
0.0
 10
104.0900190687344
 20
143.0881431727694
 10
104.0901025877089
 20
143.0881384586234
 10
104.0902340340991
 20
143.0881352991419
 10
104.0903679631367
 20
143.0881345066903
  0
LINE
  5
E33
330
1F
100
AcDbEntity
  8
SANINDUSA
100
AcDbLine
 10
104.1270343392048
 20
143.0956625815503
 30
0.0
 11
104.1270084937173
 21
143.0951694202712
 31
0.0
  0
LWPOLYLINE
  5
E34
330
1F
100
AcDbEntity
  8
9
100
AcDbPolyline
 90
        4
 70
   128
 43
0.0
 10
104.1210554532487
 20
143.0895045393148
 10
104.1211361838212
 20
143.0905078417821
 10
104.1214576165773
 20
143.0945249649782
 10
104.1214981592075
 20
143.0950373796418
  0
LWPOLYLINE
  5
E35
330
1F
100
AcDbEntity
  8
9
100
AcDbPolyline
 90
        9
 70
   128
 43
0.0
 10
104.1270084937173
 20
143.0951694202712
 10
104.1268429771675
 20
143.0940531268884
 10
104.1264699147766
 20
143.0929877846605
 10
104.1259025959513
 20
143.0920113437174
 10
104.1251612299938
 20
143.0911585873051
 10
104.1242722261967
 20
143.0904598927197
 10
104.1232672530779
 20
143.0899401491938
 10
104.12218211027
 20
143.0896178712795
 10
104.1210554532487
 20
143.0895045393148
  0
LINE
  5
E36
330
1F
100
AcDbEntity
  8
9
100
AcDbLine
 10
104.0764328733586
 20
143.0881345066903
 30
0.0
 11
104.0764328733586
 21
143.0904017564017
 31
0.0
  0
LINE
  5
E37
330
1F
100
AcDbEntity
  8
SANINDUSA
100
AcDbLine
 10
104.0903679631367
 20
143.0881345066903
 30
0.0
 11
104.0764328733585
 21
143.0881345066903
 31
0.0
  0
LWPOLYLINE
  5
E38
330
1F
100
AcDbEntity
  8
9
100
AcDbPolyline
 90
        5
 70
   128
 43
0.0
 10
104.0900190687344
 20
143.0881431727694
 10
104.088716951105
 20
143.0885874277471
 10
104.0875736394787
 20
143.0896567045386
 10
104.0867178002221
 20
143.0912305492975
 10
104.0866758612194
 20
143.0914088483084
  0
LINE
  5
E39
330
1F
100
AcDbEntity
  8
SANINDUSA
100
AcDbLine
 10
104.0764328733585
 20
143.0881345066903
 30
0.0
 11
104.0475506941256
 21
143.0881345066903
 31
0.0
  0
ARC
  5
E3F
330
1F
100
AcDbEntity
  8
SANINDUSA
100
AcDbCircle
 10
103.9731398095191
 20
143.0491345066903
 30
0.0
 40
0.0009999999999999
100
AcDbArc
 50
270.0
 51
0.0
  0
LINE
  5
E40
330
1F
100
AcDbEntity
  8
SANINDUSA
100
AcDbLine
 10
103.9741398095191
 20
143.0491345066903
 30
0.0
 11
103.9741398095191
 21
143.0839641712187
 31
0.0
  0
LINE
  5
E41
330
1F
100
AcDbEntity
  8
9
100
AcDbLine
 10
103.9041174359821
 20
143.0818393696655
 30
0.0
 11
103.9041387581268
 21
143.0811774727276
 31
0.0
  0
ARC
  5
E42
330
1F
100
AcDbEntity
  8
SANINDUSA
100
AcDbCircle
 10
103.9051398095191
 20
143.0491345066903
 30
0.0
 40
0.0009999999999999
100
AcDbArc
 50
180.0
 51
270.0
  0
LINE
  5
E43
330
1F
100
AcDbEntity
  8
SANINDUSA
100
AcDbLine
 10
103.9391398095191
 20
143.0481345066903
 30
0.0
 11
103.9051398095191
 21
143.0481345066903
 31
0.0
  0
LINE
  5
E44
330
1F
100
AcDbEntity
  8
9
100
AcDbLine
 10
103.9041398095191
 20
143.0491345066903
 30
0.0
 11
103.9391398095191
 21
143.0491345066903
 31
0.0
  0
LINE
  5
E45
330
1F
100
AcDbEntity
  8
SANINDUSA
100
AcDbLine
 10
103.9041398095191
 20
143.0812147139366
 30
0.0
 11
103.9041398095191
 21
143.0491345066903
 31
0.0
  0
LWPOLYLINE
  5
E46
330
1F
100
AcDbEntity
  8
9
100
AcDbPolyline
 90
       20
 70
   128
 43
0.0
 10
103.9727593977945
 20
143.0839142666096
 10
103.9721663430395
 20
143.0832225791114
 10
103.9696448588692
 20
143.0816333318707
 10
103.9662510154373
 20
143.0802778519296
 10
103.9620324313132
 20
143.0791103027959
 10
103.9572209221614
 20
143.0781542153141
 10
103.9518683351465
 20
143.0773747836429
 10
103.9481648780301
 20
143.0769619967534
 10
103.9443429882327
 20
143.0766221822997
 10
103.9385114502796
 20
143.0762500273708
 10
103.9326894846896
 20
143.0760406697336
 10
103.9270477459014
 20
143.0759986431958
 10
103.9217429109974
 20
143.076128072172
 10
103.916936636361
 20
143.0764369788845
 10
103.9127524364708
 20
143.076929290807
 10
103.9093043526616
 20
143.0776135454559
 10
103.9066875508013
 20
143.0784847448909
 10
103.9049632225618
 20
143.0795522778667
 10
103.9041850374433
 20
143.0807888194764
 10
103.9042397808093
 20
143.0811773986819
  0
LINE
  5
E47
330
1F
100
AcDbEntity
  8
SANINDUSA
100
AcDbLine
 10
103.9731398095191
 20
143.0481345066903
 30
0.0
 11
103.9391398095191
 21
143.0481345066903
 31
0.0
  0
LINE
  5
E48
330
1F
100
AcDbEntity
  8
9
100
AcDbLine
 10
103.9391398095191
 20
143.0491345066903
 30
0.0
 11
103.9741398095191
 21
143.0491345066903
 31
0.0
  0
LWPOLYLINE
  5
E49
330
1F
100
AcDbEntity
  8
SANINDUSA
100
AcDbPolyline
 90
        7
 70
   128
 43
0.0
 10
104.0201299306504
 20
143.0863586452601
 10
104.0071985930878
 20
143.0855620033689
 10
103.974222062012
 20
143.0839671448087
 10
103.9399288004711
 20
143.0827273757005
 10
103.9043180016767
 20
143.0818422527677
 10
103.8673887263577
 20
143.0813113998981
 10
103.8291398095191
 20
143.0811345066903
  0
LINE
  5
E4A
330
1F
100
AcDbEntity
  8
9
100
AcDbLine
 10
103.5818467456797
 20
143.0881345066903
 30
0.0
 11
103.5818467456797
 21
143.0904020008325
 31
0.0
  0
LINE
  5
E4B
330
1F
100
AcDbEntity
  8
SANINDUSA
100
AcDbLine
 10
103.6106786993627
 20
143.0881345066903
 30
0.0
 11
103.5818467456796
 21
143.0881345066903
 31
0.0
  0
LWPOLYLINE
  5
E4C
330
1F
100
AcDbEntity
  8
9
100
AcDbPolyline
 90
        6
 70
   128
 43
0.0
 10
103.5682605503039
 20
143.0881431727694
 10
103.5656604236616
 20
143.0883398735174
 10
103.5636668075935
 20
143.0885600093531
 10
103.5621637619344
 20
143.0888120896393
 10
103.561276202209
 20
143.0890723082089
 10
103.5609705986452
 20
143.0893462922447
  0
LWPOLYLINE
  5
E4D
330
1F
100
AcDbEntity
  8
9
100
AcDbPolyline
 90
        5
 70
   128
 43
0.0
 10
103.5682605503039
 20
143.0881431727694
 10
103.5695626679333
 20
143.0885874277471
 10
103.5707059795595
 20
143.0896567045386
 10
103.5715618188161
 20
143.0912305492975
 10
103.5716052802444
 20
143.0914153207316
  0
LWPOLYLINE
  5
E4E
330
1F
100
AcDbEntity
  8
9
100
AcDbPolyline
 90
        4
 70
   128
 43
0.0
 10
103.5679116559015
 20
143.0881345066903
 10
103.568065166311
 20
143.0881355793439
 10
103.5682091398358
 20
143.0881398795463
 10
103.5682605503039
 20
143.0881431727694
  0
LWPOLYLINE
  5
E4F
330
1F
100
AcDbEntity
  8
9
100
AcDbPolyline
 90
        7
 70
   128
 43
0.0
 10
103.5659314527635
 20
143.0919075208296
 10
103.5658776876413
 20
143.0918318440042
 10
103.5651252427111
 20
143.0909754273143
 10
103.5642236768856
 20
143.0902767370196
 10
103.5632056488259
 20
143.0897610827412
 10
103.5621080359648
 20
143.0894471437345
 10
103.5609705986452
 20
143.0893462922447
  0
LWPOLYLINE
  5
E50
330
1F
100
AcDbEntity
  8
9
100
AcDbPolyline
 90
        3
 70
   128
 43
0.0
 10
103.5609705986452
 20
143.0893462922447
 10
103.5609895076937
 20
143.0902380775123
 10
103.5610371972281
 20
143.0924417780872
  0
LINE
  5
E51
330
1F
100
AcDbEntity
  8
9
100
AcDbLine
 10
103.5164328733586
 20
143.0881345066903
 30
0.0
 11
103.5164328733586
 21
143.0934361605022
 31
0.0
  0
LWPOLYLINE
  5
E52
330
1F
100
AcDbEntity
  8
9
100
AcDbPolyline
 90
        6
 70
   128
 43
0.0
 10
103.5299444489664
 20
143.0881472885104
 10
103.528647782385
 20
143.0886140853039
 10
103.5275118889649
 20
143.089702733896
 10
103.5266645002004
 20
143.0912906581455
 10
103.5261835829097
 20
143.0933475696607
 10
103.5261777947825
 20
143.0934024976494
  0
LWPOLYLINE
  5
E53
330
1F
100
AcDbEntity
  8
9
100
AcDbPolyline
 90
        6
 70
   128
 43
0.0
 10
103.5372241657896
 20
143.0895045393148
 10
103.5369422769215
 20
143.0892017059038
 10
103.5360156277373
 20
143.0888999808672
 10
103.5346121920455
 20
143.088637632261
 10
103.5326523775927
 20
143.0883890030543
 10
103.5299444489664
 20
143.0881472885104
  0
LINE
  5
E54
330
1F
100
AcDbEntity
  8
SANINDUSA
100
AcDbLine
 10
103.5303679631367
 20
143.0881345066903
 30
0.0
 11
103.5164328733585
 21
143.0881345066903
 31
0.0
  0
LWPOLYLINE
  5
E55
330
1F
100
AcDbEntity
  8
9
100
AcDbPolyline
 90
        4
 70
   128
 43
0.0
 10
103.5299444489664
 20
143.0881472885104
 10
103.5300453596764
 20
143.088140352297
 10
103.5302041895042
 20
143.0881356932295
 10
103.5303679631367
 20
143.0881345066903
  0
LWPOLYLINE
  5
E56
330
1F
100
AcDbEntity
  8
SANINDUSA
100
AcDbPolyline
 90
        6
 70
   128
 43
0.0
 10
103.5261777947825
 20
143.0934024976494
 10
103.5280189367481
 20
143.0936853991791
 10
103.5293849594571
 20
143.0939930769235
 10
103.5304161247003
 20
143.0943462617065
 10
103.5310619902431
 20
143.0947409789774
 10
103.5312711253209
 20
143.0951694202712
  0
LWPOLYLINE
  5
E57
330
1F
100
AcDbEntity
  8
SANINDUSA
100
AcDbPolyline
 90
        5
 70
   128
 43
0.0
 10
103.5164328733586
 20
143.0934361605022
 10
103.5190775550895
 20
143.0933925394002
 10
103.5216356551143
 20
143.0933720866899
 10
103.524027295163
 20
143.0933754410199
 10
103.5261777947825
 20
143.0934024976494
  0
LWPOLYLINE
  5
E58
330
1F
100
AcDbEntity
  8
9
100
AcDbPolyline
 90
        9
 70
   128
 43
0.0
 10
103.5372241657896
 20
143.0895045393148
 10
103.5360975087683
 20
143.0896178712795
 10
103.5350123659604
 20
143.0899401491938
 10
103.5340073928415
 20
143.0904598927197
 10
103.5331183890444
 20
143.0911585873051
 10
103.5323770230869
 20
143.0920113437174
 10
103.5318097042616
 20
143.0929877846605
 10
103.5314366418707
 20
143.0940531268884
 10
103.5312711253209
 20
143.0951694202712
  0
LINE
  5
E59
330
1F
100
AcDbEntity
  8
SANINDUSA
100
AcDbLine
 10
103.5312711253209
 20
143.0951694202712
 30
0.0
 11
103.5312436244733
 21
143.0956941677022
 31
0.0
  0
LINE
  5
E5A
330
1F
100
AcDbEntity
  8
9
100
AcDbLine
 10
103.5367800187057
 20
143.0950541597561
 30
0.0
 11
103.5372241657896
 21
143.0895045393148
 31
0.0
  0
LINE
  5
E5B
330
1F
100
AcDbEntity
  8
SANINDUSA
100
AcDbLine
 10
103.5303679631367
 20
143.0881345066903
 30
0.0
 11
103.5679116559015
 21
143.0881345066903
 31
0.0
  0
LINE
  5
E5C
330
1F
100
AcDbEntity
  8
9
100
AcDbLine
 10
103.5164328733586
 20
143.0934361605022
 30
0.0
 11
103.5162170827731
 21
143.0975536901587
 31
0.0
  0
LINE
  5
E5D
330
1F
100
AcDbEntity
  8
SANINDUSA
100
AcDbLine
 10
103.5818467456796
 20
143.0881345066903
 30
0.0
 11
103.5679116559015
 21
143.0881345066903
 31
0.0
  0
LWPOLYLINE
  5
E5E
330
1F
100
AcDbEntity
  8
9
100
AcDbPolyline
 90
        3
 70
   128
 43
0.0
 10
103.7541526633033
 20
143.0812532627998
 10
103.7541338941335
 20
143.0816950890379
 10
103.7541602085789
 20
143.0818673598706
  0
LWPOLYLINE
  5
E5F
330
1F
100
AcDbEntity
  8
9
100
AcDbPolyline
 90
       20
 70
   128
 43
0.0
 10
103.7540080160554
 20
143.0812484233549
 10
103.7540039297
 20
143.0805063238091
 10
103.752959674777
 20
143.0792551730712
 10
103.7509338410256
 20
143.078218410444
 10
103.7479739363604
 20
143.0773762028146
 10
103.7442304325046
 20
143.076747793711
 10
103.7397660230289
 20
143.0763105530782
 10
103.7347592787689
 20
143.0760640294273
 10
103.7293136318271
 20
143.0759937763435
 10
103.7256436999305
 20
143.0760395504221
 10
103.7218996311253
 20
143.0761545262241
 10
103.7160292344155
 20
143.0764695158744
 10
103.7102562431151
 20
143.0769478552216
 10
103.7047385280687
 20
143.0775930579898
 10
103.6996380169504
 20
143.0784055201731
 10
103.6950697512192
 20
143.0793980533687
 10
103.691188989766
 20
143.0805648847363
 10
103.6880649448401
 20
143.0819291730586
 10
103.6858217568463
 20
143.0834680133707
 10
103.685454227949
 20
143.0839483235959
  0
ARC
  5
E60
330
1F
100
AcDbEntity
  8
SANINDUSA
100
AcDbCircle
 10
103.7531398095191
 20
143.0491345066903
 30
0.0
 40
0.0009999999999999
100
AcDbArc
 50
270.0
 51
0.0
  0
ARC
  5
E61
330
1F
100
AcDbEntity
  8
SANINDUSA
100
AcDbCircle
 10
103.6851398095191
 20
143.0491345066903
 30
0.0
 40
0.0009999999999999
100
AcDbArc
 50
180.0
 51
270.0
  0
LINE
  5
E62
330
1F
100
AcDbEntity
  8
SANINDUSA
100
AcDbLine
 10
103.7191398095191
 20
143.0481345066903
 30
0.0
 11
103.6851398095191
 21
143.0481345066903
 31
0.0
  0
LINE
  5
E63
330
1F
100
AcDbEntity
  8
9
100
AcDbLine
 10
103.6841398095191
 20
143.0491345066903
 30
0.0
 11
103.7191398095191
 21
143.0491345066903
 31
0.0
  0
LINE
  5
E64
330
1F
100
AcDbEntity
  8
SANINDUSA
100
AcDbLine
 10
103.7531398095191
 20
143.0481345066903
 30
0.0
 11
103.7191398095191
 21
143.0481345066903
 31
0.0
  0
LINE
  5
E65
330
1F
100
AcDbEntity
  8
9
100
AcDbLine
 10
103.7191398095191
 20
143.0491345066903
 30
0.0
 11
103.7541398095191
 21
143.0491345066903
 31
0.0
  0
LINE
  5
E66
330
1F
100
AcDbEntity
  8
SANINDUSA
100
AcDbLine
 10
103.6841398095191
 20
143.0840030650378
 30
0.0
 11
103.6841398095191
 21
143.0491345066903
 31
0.0
  0
LINE
  5
E67
330
1F
100
AcDbEntity
  8
SANINDUSA
100
AcDbLine
 10
103.7541398095191
 20
143.0491345066903
 30
0.0
 11
103.7541398095191
 21
143.0812191667979
 31
0.0
  0
LWPOLYLINE
  5
E68
330
1F
100
AcDbEntity
  8
SANINDUSA
100
AcDbPolyline
 90
        8
 70
   128
 43
0.0
 10
103.6365654810412
 20
143.0864322677823
 10
103.6420928687175
 20
143.0860717222569
 10
103.6707160055132
 20
143.0845621247482
 10
103.7003586517735
 20
143.0833276006724
 10
103.73102162667
 20
143.0823678256359
 10
103.7627057258695
 20
143.0816825283686
 10
103.7954114266018
 20
143.0812714860379
 10
103.8291398095191
 20
143.0811345066903
  0
LWPOLYLINE
  5
E6B
330
1F
100
AcDbEntity
  8
SANINDUSA
100
AcDbPolyline
 90
       21
 70
   128
 43
0.0
 10
104.0201332973918
 20
143.0863095707616
 10
104.0487403222509
 20
143.0882136898137
 10
104.0783638235618
 20
143.0906081365455
 10
104.1049880955276
 20
143.0931728948658
 10
104.1310881607277
 20
143.0961203804214
 10
104.1565819371073
 20
143.0994749365435
 10
104.1813860380546
 20
143.1032620042878
 10
104.2054159424137
 20
143.1075083454026
 10
104.2155585782613
 20
143.1094964449025
 10
104.2267257354958
 20
143.1118362034473
 10
104.2388320244858
 20
143.1145685833363
 10
104.2517450521129
 20
143.1177328807286
 10
104.2653189774973
 20
143.1213733840009
 10
104.2793947881162
 20
143.1255398624153
 10
104.2917292869104
 20
143.1295720112719
 10
104.304190854736
 20
143.1340710822686
 10
104.3166571991427
 20
143.1390812400279
 10
104.3289992477545
 20
143.1446523828052
 10
104.3410807016564
 20
143.1508415665105
 10
104.3527568314157
 20
143.1577148153416
 10
104.3623811079787
 20
143.1643251855403
  0
LINE
  5
E6C
330
1F
100
AcDbEntity
  8
SANINDUSA
100
AcDbLine
 10
104.1418467456797
 20
143.0881345066903
 30
0.0
 11
104.1279116559015
 21
143.0881345066903
 31
0.0
  0
LWPOLYLINE
  5
E6D
330
1F
100
AcDbEntity
  8
SANINDUSA
100
AcDbPolyline
 90
        6
 70
   128
 43
0.0
 10
104.1270084937173
 20
143.0951694202712
 10
104.127197189249
 20
143.0947609050992
 10
104.1278284937971
 20
143.0943619278271
 10
104.1288506767502
 20
143.094005233781
 10
104.1303038125898
 20
143.0936773741165
 10
104.1321018242558
 20
143.0934024976494
  0
LWPOLYLINE
  5
E6E
330
1F
100
AcDbEntity
  8
9
100
AcDbPolyline
 90
        4
 70
   128
 43
0.0
 10
104.1279116559015
 20
143.0881345066903
 10
104.128097560805
 20
143.0881360786854
 10
104.1282719201964
 20
143.0881423740238
 10
104.1283351700718
 20
143.0881472885104
  0
LWPOLYLINE
  5
E6F
330
1F
100
AcDbEntity
  8
9
100
AcDbPolyline
 90
        6
 70
   128
 43
0.0
 10
104.1283351700718
 20
143.0881472885104
 10
104.1256876943554
 20
143.0883825709987
 10
104.1237040448518
 20
143.0886320630741
 10
104.1222147938741
 20
143.0889117512441
 10
104.1213424489926
 20
143.0891991210028
 10
104.1210554532487
 20
143.0895045393148
  0
LINE
  5
E70
330
1F
100
AcDbEntity
  8
9
100
AcDbLine
 10
104.2757280818265
 20
143.1741345066903
 30
0.0
 11
104.2757280818265
 21
143.2221345066903
 31
0.0
  0
LINE
  5
E71
330
1F
100
AcDbEntity
  8
9
100
AcDbLine
 10
104.44199728165
 20
143.1741345066903
 30
0.0
 11
104.44199728165
 21
143.2221345066903
 31
0.0
  0
LINE
  5
E72
330
1F
100
AcDbEntity
  8
SANINDUSA
100
AcDbLine
 10
104.4777111908566
 20
143.1741345066903
 30
0.0
 11
104.4777111908566
 21
143.2221345066903
 31
0.0
  0
LINE
  5
E73
330
1F
100
AcDbEntity
  8
SANINDUSA
100
AcDbLine
 10
104.9313841196705
 20
143.1741345066903
 30
0.0
 11
104.9313841196705
 21
143.2221345066903
 31
0.0
  0
LINE
  5
E74
330
1F
100
AcDbEntity
  8
9
100
AcDbLine
 10
104.9333841196705
 20
143.2221345066903
 30
0.0
 11
104.9333841196705
 21
143.1741345066903
 31
0.0
  0
LINE
  5
E75
330
1F
100
AcDbEntity
  8
SANINDUSA
100
AcDbLine
 10
105.1104691653516
 20
143.1741345066903
 30
0.0
 11
105.1104691653516
 21
143.2221345066903
 31
0.0
  0
LINE
  5
E76
330
1F
100
AcDbEntity
  8
SANINDUSA
100
AcDbLine
 10
105.1229101200329
 20
143.2221345066903
 30
0.0
 11
105.1229101200329
 21
143.1741345066903
 31
0.0
  0
LINE
  5
E77
330
1F
100
AcDbEntity
  8
9
100
AcDbLine
 10
105.168085165255
 20
143.1741345066903
 30
0.0
 11
105.168085165255
 21
143.2221345066903
 31
0.0
  0
LINE
  5
E78
330
1F
100
AcDbEntity
  8
9
100
AcDbLine
 10
105.334683074086
 20
143.1741345066903
 30
0.0
 11
105.334683074086
 21
143.2221345066903
 31
0.0
  0
LINE
  5
E79
330
1F
100
AcDbEntity
  8
9
100
AcDbLine
 10
105.4330345557358
 20
143.1741345066903
 30
0.0
 11
105.4330345557358
 21
143.2221345066903
 31
0.0
  0
LINE
  5
E7A
330
1F
100
AcDbEntity
  8
SANINDUSA
100
AcDbLine
 10
105.5022664685189
 20
143.1741345066903
 30
0.0
 11
105.5022664685189
 21
143.2221345066903
 31
0.0
  0
LINE
  5
E7B
330
1F
100
AcDbEntity
  8
SANINDUSA
100
AcDbLine
 10
102.694890476904
 20
143.5051188549544
 30
0.0
 11
102.698890476904
 21
143.5051188549544
 31
0.0
  0
LINE
  5
E7C
330
1F
100
AcDbEntity
  8
9
100
AcDbLine
 10
102.700890476904
 20
143.5031188549544
 30
0.0
 11
102.694890476904
 21
143.5031188549544
 31
0.0
  0
LINE
  5
E7D
330
1F
100
AcDbEntity
  8
9
100
AcDbLine
 10
102.694890476904
 20
143.5031188549544
 30
0.0
 11
102.694890476904
 21
143.5051188549544
 31
0.0
  0
ARC
  5
E7E
330
1F
100
AcDbEntity
  8
SANINDUSA
100
AcDbCircle
 10
102.698890476904
 20
143.5031188549544
 30
0.0
 40
0.0020000000000002
100
AcDbArc
 50
0.0
 51
90.0
  0
LINE
  5
E7F
330
1F
100
AcDbEntity
  8
9
100
AcDbLine
 10
102.2767658693418
 20
143.43062033323
 30
0.0
 11
102.2759077400208
 21
143.4311337668368
 31
0.0
  0
LWPOLYLINE
  5
E80
330
1F
100
AcDbEntity
  8
9
100
AcDbPolyline
 90
        9
 70
   128
 43
0.0
 10
103.3825515372117
 20
143.2221345066903
 10
103.3825864432528
 20
143.2233050486224
 10
103.3826898199564
 20
143.2244306072845
 10
103.3828576946138
 20
143.2254679280884
 10
103.383083615896
 20
143.2263771473774
 10
103.383358901775
 20
143.2271233243641
 10
103.3836729731687
 20
143.2276777838854
 10
103.3840137604895
 20
143.2280192183727
 10
103.384368167472
 20
143.2281345066903
  0
LWPOLYLINE
  5
E81
330
1F
100
AcDbEntity
  8
9
100
AcDbPolyline
 90
        9
 70
   128
 43
0.0
 10
103.2162823373883
 20
143.2221345066903
 10
103.216361822258
 20
143.2233050486224
 10
103.2165972223081
 20
143.2244306072845
 10
103.2169794912467
 20
143.2254679280884
 10
103.217493938693
 20
143.2263771473774
 10
103.2181207947199
 20
143.2271233243641
 10
103.218835969602
 20
143.2276777838854
 10
103.2196119795696
 20
143.2280192183727
 10
103.2204190029949
 20
143.2281345066903
  0
LINE
  5
E82
330
1F
100
AcDbEntity
  8
SANINDUSA
100
AcDbLine
 10
103.2204190029949
 20
143.2281345066903
 30
0.0
 11
103.384368167472
 21
143.2281345066903
 31
0.0
  0
LINE
  5
E83
330
1F
100
AcDbEntity
  8
9
100
AcDbLine
 10
103.3825515372117
 20
143.2221345066903
 30
0.0
 11
103.2162823373883
 21
143.2221345066903
 31
0.0
  0
ARC
  5
E84
330
1F
100
AcDbEntity
  8
SANINDUSA
100
AcDbCircle
 10
103.1865684281816
 20
143.2221345066903
 30
0.0
 40
0.0060000000000001
100
AcDbArc
 50
90.0
 51
180.0
  0
LINE
  5
E85
330
1F
100
AcDbEntity
  8
9
100
AcDbLine
 10
103.2162823373883
 20
143.2221345066903
 30
0.0
 11
103.1805684281816
 21
143.2221345066903
 31
0.0
  0
LINE
  5
E86
330
1F
100
AcDbEntity
  8
SANINDUSA
100
AcDbLine
 10
103.1865684281816
 20
143.2281345066903
 30
0.0
 11
103.2204190029949
 21
143.2281345066903
 31
0.0
  0
ARC
  5
E87
330
1F
100
AcDbEntity
  8
9
100
AcDbCircle
 10
102.7158904769041
 20
143.3260338092732
 30
0.0
 40
0.0210000000000002
100
AcDbArc
 50
180.0
 51
192.5758383537063
  0
LINE
  5
E88
330
1F
100
AcDbEntity
  8
9
100
AcDbLine
 10
102.700890476904
 20
143.3260338092732
 30
0.0
 11
102.694890476904
 21
143.3260338092732
 31
0.0
  0
ARC
  5
E89
330
1F
100
AcDbEntity
  8
SANINDUSA
100
AcDbCircle
 10
102.7158904769041
 20
143.3260338092732
 30
0.0
 40
0.015
100
AcDbArc
 50
180.0
 51
236.036842885186
  0
LWPOLYLINE
  5
E8A
330
1F
100
AcDbEntity
  8
9
100
AcDbPolyline
 90
        4
 70
   128
 43
0.0
 10
102.2737402742988
 20
143.3713368324903
 10
102.2742397468701
 20
143.3710684737897
 10
102.2744300667931
 20
143.3709157725518
 10
102.2744250802398
 20
143.370929882105
  0
LWPOLYLINE
  5
E8B
330
1F
100
AcDbEntity
  8
9
100
AcDbPolyline
 90
       11
 70
   128
 43
0.0
 10
102.2609814970738
 20
143.36953889039
 10
102.2631082922586
 20
143.3693520848919
 10
102.2651835573682
 20
143.3692536361494
 10
102.2672561824982
 20
143.369249139237
 10
102.2691538634779
 20
143.3693422253479
 10
102.2708251362475
 20
143.3695280771642
 10
102.2722174613587
 20
143.3697937927857
 10
102.2732897896256
 20
143.3701274551324
 10
102.2740114545825
 20
143.3705116975918
 10
102.2743574768188
 20
143.3709313666294
 10
102.2743430279592
 20
143.3711118846794
  0
LWPOLYLINE
  5
E8C
330
1F
100
AcDbEntity
  8
SANINDUSA
100
AcDbPolyline
 90
        4
 70
   128
 43
0.0
 10
102.5788581967526
 20
143.312021007346
 10
102.5788581395661
 20
143.3120210255036
 10
102.5635810170063
 20
143.3167768042578
 10
102.5208899682539
 20
143.3290728449747
  0
LWPOLYLINE
  5
E8D
330
1F
100
AcDbEntity
  8
9
100
AcDbPolyline
 90
        6
 70
   128
 43
0.0
 10
102.5229652014822
 20
143.3367241017684
 10
102.5376016275522
 20
143.3326702405585
 10
102.544903261316
 20
143.3305847696861
 10
102.5521939114515
 20
143.3284602513473
 10
102.5667403887273
 20
143.3240946176983
 10
102.5812559332125
 20
143.3195685888789
  0
LINE
  5
E8E
330
1F
100
AcDbEntity
  8
9
100
AcDbLine
 10
102.6595277589963
 20
143.2753907137529
 30
0.0
 11
102.6636104454128
 21
143.2821065877436
 31
0.0
  0
LINE
  5
E8F
330
1F
100
AcDbEntity
  8
9
100
AcDbLine
 10
102.7637479490349
 20
143.2684178093699
 30
0.0
 11
102.7596112834283
 21
143.2640717769656
 31
0.0
  0
ARC
  5
E90
330
1F
100
AcDbEntity
  8
9
100
AcDbCircle
 10
102.4672869138947
 20
142.9569521537293
 30
0.0
 40
0.4239999999999986
100
AcDbArc
 50
46.4138660679288
 51
56.036842885186
  0
ARC
  5
E91
330
1F
100
AcDbEntity
  8
SANINDUSA
100
AcDbCircle
 10
102.4672869138947
 20
142.9569521537293
 30
0.0
 40
0.4299999999999978
100
AcDbArc
 50
46.4138660679288
 51
56.036842885186
  0
LWPOLYLINE
  5
E92
330
1F
100
AcDbEntity
  8
9
100
AcDbPolyline
 90
       12
 70
   128
 43
0.0
 10
102.5812559332125
 20
143.3195685888789
 10
102.592097021158
 20
143.3159441889961
 10
102.5974754602071
 20
143.3140101243263
 10
102.6028362882412
 20
143.311990738788
 10
102.6098940992403
 20
143.3091899081769
 10
102.6151500090044
 20
143.3069970373724
 10
102.6238466614751
 20
143.303162699761
 10
102.6327337631691
 20
143.2989713288217
 10
102.6402630034741
 20
143.2951968198611
 10
102.6513957720831
 20
143.2892243776915
 10
102.6587476285379
 20
143.2850133562273
 10
102.6636104454128
 20
143.2821065877436
  0
LWPOLYLINE
  5
E93
330
1F
100
AcDbEntity
  8
SANINDUSA
100
AcDbPolyline
 90
        7
 70
   128
 43
0.0
 10
102.6595277589964
 20
143.2753907137529
 10
102.6595277077034
 20
143.2753907448813
 10
102.6403549218732
 20
143.2862627108755
 10
102.6205731154192
 20
143.2959825562936
 10
102.5999937418946
 20
143.3046137001949
 10
102.5788582539464
 20
143.312020989213
 10
102.5788581967526
 20
143.312021007346
  0
ARC
  5
E94
330
1F
100
AcDbEntity
  8
9
100
AcDbCircle
 10
102.7158904769041
 20
143.3260338092732
 30
0.0
 40
0.0209999999999999
100
AcDbArc
 50
192.5758383537014
 51
236.036842885186
  0
LINE
  5
E95
330
1F
100
AcDbEntity
  8
9
100
AcDbLine
 10
102.7075105815217
 20
143.313592854592
 30
0.0
 11
102.7041586233688
 21
143.3086164727195
 31
0.0
  0
LINE
  5
E96
330
1F
100
AcDbEntity
  8
9
100
AcDbLine
 10
102.694890476904
 20
143.3260338092732
 30
0.0
 11
102.694890476904
 21
143.5031188549544
 31
0.0
  0
LINE
  5
E97
330
1F
100
AcDbEntity
  8
SANINDUSA
100
AcDbLine
 10
102.700890476904
 20
143.5031188549544
 30
0.0
 11
102.700890476904
 21
143.3260338092732
 31
0.0
  0
LINE
  5
E98
330
1F
100
AcDbEntity
  8
9
100
AcDbLine
 10
102.2447093447296
 20
143.4334539497372
 30
0.0
 11
102.2437847086054
 21
143.4330730980106
 31
0.0
  0
LINE
  5
E99
330
1F
100
AcDbEntity
  8
9
100
AcDbLine
 10
102.0579962452028
 20
143.4330730980106
 30
0.0
 11
102.0570716090785
 21
143.4334539497372
 31
0.0
  0
LINE
  5
E9A
330
1F
100
AcDbEntity
  8
9
100
AcDbLine
 10
102.0258732137873
 20
143.4311337668368
 30
0.0
 11
102.0250150844663
 21
143.43062033323
 31
0.0
  0
ARC
  5
E9B
330
1F
100
AcDbEntity
  8
SANINDUSA
100
AcDbCircle
 10
102.0408904769041
 20
143.4401188549544
 30
0.0
 40
0.0174999999999999
100
AcDbArc
 50
210.892812441145
 51
337.613549452117
  0
ARC
  5
E9C
330
1F
100
AcDbEntity
  8
9
100
AcDbCircle
 10
102.0408904769041
 20
143.4401188549544
 30
0.0
 40
0.0185000000000001
100
AcDbArc
 50
210.8928124411454
 51
337.613549452117
  0
ARC
  5
E9D
330
1F
100
AcDbEntity
  8
9
100
AcDbCircle
 10
102.0408904769041
 20
143.4401188549544
 30
0.0
 40
0.0185000000000001
100
AcDbArc
 50
337.613549452117
 51
210.892812441145
  0
ARC
  5
E9E
330
1F
100
AcDbEntity
  8
SANINDUSA
100
AcDbCircle
 10
102.0408904769041
 20
143.4401188549544
 30
0.0
 40
0.0174999999999999
100
AcDbArc
 50
337.613549452117
 51
210.892812441145
  0
LINE
  5
E9F
330
1F
100
AcDbEntity
  8
9
100
AcDbLine
 10
101.606890476904
 20
143.5031188549544
 30
0.0
 11
101.6008904769041
 21
143.5031188549544
 31
0.0
  0
ARC
  5
EA0
330
1F
100
AcDbEntity
  8
SANINDUSA
100
AcDbCircle
 10
101.602890476904
 20
143.5031188549544
 30
0.0
 40
0.0020000000000002
100
AcDbArc
 50
90.0
 51
180.0
  0
LINE
  5
EA1
330
1F
100
AcDbEntity
  8
9
100
AcDbLine
 10
101.606890476904
 20
143.5031188549544
 30
0.0
 11
101.606890476904
 21
143.5051188549544
 31
0.0
  0
LINE
  5
EA2
330
1F
100
AcDbEntity
  8
SANINDUSA
100
AcDbLine
 10
101.602890476904
 20
143.5051188549544
 30
0.0
 11
101.606890476904
 21
143.5051188549544
 31
0.0
  0
LINE
  5
EA3
330
1F
100
AcDbEntity
  8
9
100
AcDbLine
 10
102.2127511254886
 20
143.3774135978336
 30
0.0
 11
102.2131232552055
 21
143.3853951099368
 31
0.0
  0
LWPOLYLINE
  5
EA4
330
1F
100
AcDbEntity
  8
9
100
AcDbPolyline
 90
        4
 70
   128
 43
0.0
 10
102.2472628737738
 20
143.373454632143
 10
102.2472510402282
 20
143.3734398281113
 10
102.2474251213164
 20
143.3735265252309
 10
102.2477580518279
 20
143.3736306058523
  0
LINE
  5
EA5
330
1F
100
AcDbEntity
  8
9
100
AcDbLine
 10
102.0886576986026
 20
143.3853951099368
 30
0.0
 11
102.0890298283195
 21
143.3774135978336
 31
0.0
  0
LWPOLYLINE
  5
EA6
330
1F
100
AcDbEntity
  8
9
100
AcDbPolyline
 90
       11
 70
   128
 43
0.0
 10
102.0274340714711
 20
143.3711111164852
 10
102.0274736587732
 20
143.3708232314561
 10
102.027913130366
 20
143.3704139125472
 10
102.028714831158
 20
143.3700425515986
 10
102.0298584477675
 20
143.3697262173894
 10
102.0313089559028
 20
143.3694784391791
 10
102.0330372065991
 20
143.3693132597155
 10
102.0349842571855
 20
143.3692409856611
 10
102.0371197036669
 20
143.3692705126834
 10
102.0393589195432
 20
143.3694028517136
 10
102.040805158682
 20
143.3695395050994
  0
LWPOLYLINE
  5
EA7
330
1F
100
AcDbEntity
  8
SANINDUSA
100
AcDbPolyline
 90
       38
 70
   128
 43
0.0
 10
102.0409005834761
 20
143.3684378993107
 10
102.0393484232443
 20
143.3683023863991
 10
102.0369449536518
 20
143.3681746128774
 10
102.0346526925313
 20
143.3681529241656
 10
102.0325628214169
 20
143.368235956974
 10
102.030706600024
 20
143.3684146864354
 10
102.0291492752786
 20
143.3686781965274
 10
102.0279201440897
 20
143.3690124249808
 10
102.0270585890229
 20
143.369403002927
 10
102.0265853160482
 20
143.3698327531467
 10
102.0265198864855
 20
143.3702874025459
 10
102.0268606809837
 20
143.3707506771005
 10
102.0276061862594
 20
143.3712105868955
 10
102.0287286266123
 20
143.3716554121703
 10
102.0302039930655
 20
143.3720770415882
 10
102.0319825548753
 20
143.3724686104853
 10
102.0340211299609
 20
143.3728255473
 10
102.0362544010877
 20
143.3731437782834
 10
102.0392801294179
 20
143.3734872565179
 10
102.041729336846
 20
143.373705506067
 10
102.0441566364388
 20
143.3738728669543
 10
102.0464922989375
 20
143.3739840627929
 10
102.048672938005
 20
143.3740341563558
 10
102.0506318677971
 20
143.3740168724503
 10
102.0523188818664
 20
143.3739278176495
 10
102.0536732550179
 20
143.3737631587737
 10
102.0546702434955
 20
143.3735218944531
 10
102.0552705085767
 20
143.3732071965564
 10
102.0554727256872
 20
143.3728232412252
 10
102.0552678701866
 20
143.3723801585984
 10
102.0546711406091
 20
143.3718892140878
 10
102.0536912164524
 20
143.3713627704335
 10
102.0523644649896
 20
143.3708213423479
 10
102.0507022925566
 20
143.3702774702794
 10
102.0487709621325
 20
143.369758642181
 10
102.0465936589071
 20
143.3692801773183
 10
102.0442559525412
 20
143.3688671531348
 10
102.0409005834761
 20
143.3684378993107
  0
LWPOLYLINE
  5
EA8
330
1F
100
AcDbEntity
  8
9
100
AcDbPolyline
 90
        5
 70
   128
 43
0.0
 10
102.0273538586236
 20
143.370928892178
 10
102.0273472825947
 20
143.370911960804
 10
102.0275175929584
 20
143.3710531787032
 10
102.0279532908009
 20
143.3712983856361
 10
102.0280965932139
 20
143.371357558846
  0
LWPOLYLINE
  5
EA9
330
1F
100
AcDbEntity
  8
9
100
AcDbPolyline
 90
        4
 70
   128
 43
0.0
 10
102.053975924391
 20
143.373640738745
 10
102.0543058927314
 20
143.3735467773088
 10
102.054518656455
 20
143.3734468565752
 10
102.0545088821965
 20
143.3734599070652
  0
LWPOLYLINE
  5
EAA
330
1F
100
AcDbEntity
  8
9
100
AcDbPolyline
 90
       10
 70
   128
 43
0.0
 10
102.040805158682
 20
143.3695395050994
 10
102.0439318717377
 20
143.3699664720501
 10
102.0461131786951
 20
143.3703743136034
 10
102.0481434069835
 20
143.3708441235855
 10
102.0499422636681
 20
143.3713507521669
 10
102.0514899562171
 20
143.3718793963069
 10
102.052727303099
 20
143.3724041098022
 10
102.0536413249335
 20
143.3729118788202
 10
102.0541984359153
 20
143.3733828548368
 10
102.0542767356325
 20
143.3735550800535
  0
LINE
  5
EAB
330
1F
100
AcDbEntity
  8
9
100
AcDbLine
 10
102.1708904769041
 20
143.3373710043343
 30
0.0
 11
102.1628904769041
 21
143.3373710043343
 31
0.0
  0
LINE
  5
EAC
330
1F
100
AcDbEntity
  8
9
100
AcDbLine
 10
102.1388904769041
 20
143.3373710043343
 30
0.0
 11
102.1308904769041
 21
143.3373710043343
 31
0.0
  0
LWPOLYLINE
  5
EAD
330
1F
100
AcDbEntity
  8
9
100
AcDbPolyline
 90
       18
 70
   128
 43
0.0
 10
102.0886576986026
 20
143.3853951099368
 10
102.0918185223324
 20
143.3854381487929
 10
102.0949753111504
 20
143.3852727907454
 10
102.0981143405397
 20
143.3848997588323
 10
102.101360550013
 20
143.384289885905
 10
102.1047248466588
 20
143.3834077409909
 10
102.1116685010155
 20
143.3807109573443
 10
102.116277428367
 20
143.3781748738366
 10
102.1215197006807
 20
143.3743902199446
 10
102.1248294512764
 20
143.3713718940331
 10
102.1283425709106
 20
143.3674453162318
 10
102.132038291114
 20
143.3621305112399
 10
102.1341630161651
 20
143.3581810184067
 10
102.1361785593382
 20
143.3533063215404
 10
102.1372124341484
 20
143.3499756992538
 10
102.13790477892
 20
143.3470672686763
 10
102.1386018850078
 20
143.3426370368244
 10
102.1388904769041
 20
143.3373710043343
  0
LWPOLYLINE
  5
EAE
330
1F
100
AcDbEntity
  8
SANINDUSA
100
AcDbPolyline
 90
       11
 70
   128
 43
0.0
 10
102.130890476904
 20
143.3373710043343
 10
102.1303177082318
 20
143.3441101876068
 10
102.1286305455992
 20
143.350659886024
 10
102.1258608983217
 20
143.3568287728841
 10
102.1221005552428
 20
143.3624489204867
 10
102.1174494985891
 20
143.3673443256538
 10
102.1120462697899
 20
143.3713943156984
 10
102.1060451628471
 20
143.3744657229815
 10
102.0996155378282
 20
143.3764922233774
 10
102.0943533260177
 20
143.3773049629856
 10
102.0890298283195
 20
143.3774135978336
  0
LWPOLYLINE
  5
EAF
330
1F
100
AcDbEntity
  8
9
100
AcDbPolyline
 90
       16
 70
   128
 43
0.0
 10
102.0885950956605
 20
143.3239401283857
 10
102.088595091971
 20
143.3239401861598
 10
102.0881885390545
 20
143.3307523729455
 10
102.0878693275422
 20
143.3371490735977
 10
102.0876919294621
 20
143.3417396869566
 10
102.0875805707782
 20
143.3459573398393
 10
102.0875395330351
 20
143.3497246470772
 10
102.0875872508947
 20
143.3537116726898
 10
102.0877043404282
 20
143.3570439761085
 10
102.0878349746273
 20
143.359998724919
 10
102.0880546664324
 20
143.364961958028
 10
102.0882690031778
 20
143.3691355863726
 10
102.0884780105936
 20
143.3724972586204
 10
102.0886817144098
 20
143.3750246234391
 10
102.0888551256607
 20
143.3765304753627
 10
102.0890298283195
 20
143.3774135978336
  0
LWPOLYLINE
  5
EB0
330
1F
100
AcDbEntity
  8
9
100
AcDbPolyline
 90
       18
 70
   128
 43
0.0
 10
102.1628904769041
 20
143.3373710043343
 10
102.1629968370123
 20
143.3405710366063
 10
102.1633154846807
 20
143.343756941286
 10
102.1638450719871
 20
143.3469146412088
 10
102.1646219466506
 20
143.3501711334221
 10
102.1667518101418
 20
143.3562677089377
 10
102.1686969284004
 20
143.3602967084385
 10
102.1714511065674
 20
143.3647784087484
 10
102.1735318298814
 20
143.367561688937
 10
102.1754717587568
 20
143.3698226295878
 10
102.178635807935
 20
143.3729785238718
 10
102.1827123924318
 20
143.3762940414629
 10
102.1855951499887
 20
143.3782319057084
 10
102.1922006185047
 20
143.3816542531365
 10
102.1971428351554
 20
143.3834337885565
 10
102.2005044086534
 20
143.3843086059107
 10
102.2078702458304
 20
143.385351902166
 10
102.2131232552055
 20
143.3853951099368
  0
LWPOLYLINE
  5
EB1
330
1F
100
AcDbEntity
  8
SANINDUSA
100
AcDbPolyline
 90
       11
 70
   128
 43
0.0
 10
102.2127511254886
 20
143.3774135978336
 10
102.2060239579494
 20
143.377155273322
 10
102.1994341087802
 20
143.375778530583
 10
102.1931716395066
 20
143.3733070527718
 10
102.1874087398438
 20
143.3698262831891
 10
102.1823140027958
 20
143.3654192848537
 10
102.1780243349569
 20
143.36022537251
 10
102.1746685734355
 20
143.3543738876387
 10
102.1723333683595
 20
143.348045566526
 10
102.1712543431232
 20
143.3427566007086
 10
102.1708904769041
 20
143.3373710043343
  0
LWPOLYLINE
  5
EB2
330
1F
100
AcDbEntity
  8
9
100
AcDbPolyline
 90
       16
 70
   128
 43
0.0
 10
102.2127511254886
 20
143.3774135978336
 10
102.2129258281474
 20
143.3765304753627
 10
102.2130992393983
 20
143.3750246234391
 10
102.2133029432145
 20
143.3724972586204
 10
102.2135119506303
 20
143.3691355863726
 10
102.2137262873757
 20
143.364961958028
 10
102.2139459791809
 20
143.359998724919
 10
102.21407661338
 20
143.3570439761085
 10
102.2141937029134
 20
143.3537116726898
 10
102.214241420773
 20
143.3497246470772
 10
102.2142003830299
 20
143.3459573398393
 10
102.2140890243461
 20
143.3417396869566
 10
102.2139116262659
 20
143.3371490735977
 10
102.2135924147536
 20
143.3307523729455
 10
102.2131858618371
 20
143.3239401861598
 10
102.2131858581477
 20
143.3239401283857
  0
LWPOLYLINE
  5
EB3
330
1F
100
AcDbEntity
  8
SANINDUSA
100
AcDbPolyline
 90
        4
 70
   128
 43
0.0
 10
101.7808909855542
 20
143.3290728449747
 10
101.7654720579166
 20
143.324799131273
 10
101.722922814242
 20
143.3120210255036
 10
101.7229227570555
 20
143.312021007346
  0
LWPOLYLINE
  5
EB4
330
1F
100
AcDbEntity
  8
9
100
AcDbPolyline
 90
        6
 70
   128
 43
0.0
 10
101.7205250205956
 20
143.3195685888789
 10
101.7350239771627
 20
143.3240895425459
 10
101.7422912296771
 20
143.3262918337819
 10
101.7495704013454
 20
143.3284553537379
 10
101.7641626340508
 20
143.3326655210509
 10
101.778815752326
 20
143.3367241017684
  0
LWPOLYLINE
  5
EB5
330
1F
100
AcDbEntity
  8
9
100
AcDbPolyline
 90
       15
 70
   128
 43
0.0
 10
101.7788155961849
 20
143.3367246976602
 10
101.8018167289005
 20
143.3425872036795
 10
101.8202747615139
 20
143.3470476957678
 10
101.8527187633567
 20
143.3543459274466
 10
101.8575182816467
 20
143.3553658824588
 10
101.8788638829144
 20
143.3597129616251
 10
101.9078644917633
 20
143.3651186907889
 10
101.9320333190871
 20
143.3691778274993
 10
101.9540729385802
 20
143.3725221513101
 10
101.9721129384767
 20
143.3750039294132
 10
101.9879715836313
 20
143.3769943295104
 10
102.0111190420066
 20
143.3795762760915
 10
102.0479609995412
 20
143.3828880880032
 10
102.0630265465989
 20
143.3839578625501
 10
102.0886576986026
 20
143.3853951099368
  0
LWPOLYLINE
  5
EB6
330
1F
100
AcDbEntity
  8
SANINDUSA
100
AcDbPolyline
 90
       10
 70
   128
 43
0.0
 10
102.0890298283195
 20
143.3774135978336
 10
102.0503142228148
 20
143.3750613937922
 10
102.0116722041839
 20
143.3716228004504
 10
101.9731465401681
 20
143.3671236456157
 10
101.9349842673268
 20
143.3616225921451
 10
101.8969725781691
 20
143.3551208682337
 10
101.8591461113671
 20
143.3476471508267
 10
101.8199029682356
 20
143.3388458988755
 10
101.7808905349259
 20
143.3290733293694
 10
101.7808904769041
 20
143.3290733140976
  0
LWPOLYLINE
  5
EB7
330
1F
100
AcDbEntity
  8
9
100
AcDbPolyline
 90
       38
 70
   128
 43
0.0
 10
102.0404455708135
 20
143.2610369606741
 10
102.0351546576863
 20
143.2617457257439
 10
102.0314958494768
 20
143.2629855509827
 10
102.0281003496497
 20
143.2647854486065
 10
102.0250176811314
 20
143.2671338670985
 10
102.0223737022569
 20
143.2699274187069
 10
102.0201911378312
 20
143.2731684332784
 10
102.0185825293737
 20
143.2766908333697
 10
102.0175543789525
 20
143.2805677849096
 10
102.0171954559036
 20
143.2845447214343
 10
102.0175509316012
 20
143.2887325656517
 10
102.0186433546134
 20
143.292808396164
 10
102.0205000127602
 20
143.2967187528542
 10
102.0230653963706
 20
143.300274068615
 10
102.0261197026458
 20
143.3031994604984
 10
102.0296790063126
 20
143.3055714549326
 10
102.033271246749
 20
143.3071538333944
 10
102.0370732110202
 20
143.3081342587663
 10
102.0412932850021
 20
143.3084755774206
 10
102.0453379632139
 20
143.30809350382
 10
102.0492193658942
 20
143.3070481414176
 10
102.0528017230608
 20
143.3053951938915
 10
102.056037632544
 20
143.3031934850745
 10
102.0589700290297
 20
143.3003645487441
 10
102.0613721045963
 20
143.2970845809257
 10
102.0632098603167
 20
143.2933456445851
 10
102.0643706960002
 20
143.2893285880029
 10
102.0648011526192
 20
143.2851947365761
 10
102.0645028039604
 20
143.281019131158
 10
102.0635066196248
 20
143.2770707779238
 10
102.0618392304975
 20
143.2733217183986
 10
102.0596288236885
 20
143.2700201918265
 10
102.0568878978101
 20
143.2671150456557
 10
102.0537730565519
 20
143.2647602988174
 10
102.0503098734806
 20
143.2629372515747
 10
102.0466351910303
 20
143.2617182727524
 10
102.0428143675661
 20
143.2611039798381
 10
102.0404455708135
 20
143.2610369606741
  0
LWPOLYLINE
  5
EB8
330
1F
100
AcDbEntity
  8
SANINDUSA
100
AcDbPolyline
 90
       39
 70
   128
 43
0.0
 10
102.0402589144935
 20
143.2626277205027
 10
102.0425362014396
 20
143.2626791225417
 10
102.0461944890046
 20
143.2632553295432
 10
102.0497120641981
 20
143.2644203140007
 10
102.0497513421278
 20
143.2644370980782
 10
102.0530809569286
 20
143.2662103797923
 10
102.0560627430523
 20
143.2685040320565
 10
102.0586731965285
 20
143.2713382006066
 10
102.0607545088763
 20
143.2745514411834
 10
102.062294554007
 20
143.2781909854049
 10
102.0631741056693
 20
143.2820059962921
 10
102.0633703869014
 20
143.2860079262631
 10
102.0628663148457
 20
143.2899471617759
 10
102.0616730224289
 20
143.2937351163762
 10
102.0598457945028
 20
143.2972409807883
 10
102.0575147914475
 20
143.3002781219033
 10
102.0546970353222
 20
143.3028848039763
 10
102.051639651634
 20
143.3048833406033
 10
102.0482667290963
 20
143.3063754046179
 10
102.0446655563928
 20
143.3072976388179
 10
102.0409125348376
 20
143.3076188441421
 10
102.0370306894885
 20
143.3072853170335
 10
102.0335439028429
 20
143.3063826077771
 10
102.030244277634
 20
143.3049407731537
 10
102.0269551517565
 20
143.3027796586398
 10
102.0241254646275
 20
143.3001249991416
 10
102.0216972076507
 20
143.2968560367436
 10
102.019916879851
 20
143.2932649108501
 10
102.018814248512
 20
143.2894563343552
 10
102.0183942771337
 20
143.2855323714499
 10
102.0186462906256
 20
143.2817464067479
 10
102.019534814274
 20
143.2780346702003
 10
102.0209960582989
 20
143.2746132668492
 10
102.0230231194529
 20
143.2714437850199
 10
102.025507253764
 20
143.2687021617052
 10
102.0284328551368
 20
143.2663823221933
 10
102.0316688793801
 20
143.2645978606627
 10
102.0351747051129
 20
143.2633569627381
 10
102.0402589144935
 20
143.2626277205027
  0
LINE
  5
EB9
330
1F
100
AcDbEntity
  8
9
100
AcDbLine
 10
101.6422531948118
 20
143.2753907137529
 30
0.0
 11
101.6381705083953
 21
143.2821065877436
 31
0.0
  0
LWPOLYLINE
  5
EBA
330
1F
100
AcDbEntity
  8
9
100
AcDbPolyline
 90
       39
 70
   128
 43
0.0
 10
102.0406788307245
 20
143.2427025038035
 10
102.0338985817361
 20
143.2433896450859
 10
102.0274337747339
 20
143.2451604596511
 10
102.0213605584066
 20
143.2479621278079
 10
102.0159157226145
 20
143.2516880264819
 10
102.0111827871667
 20
143.2562514434042
 10
102.0073104112648
 20
143.2615516119307
 10
102.0044264572823
 20
143.2674137848216
 10
102.002638724424
 20
143.2737624116465
 10
102.0020174151652
 20
143.2803124286253
 10
102.0025684325003
 20
143.2868594827128
 10
102.0042473352222
 20
143.2932240868994
 10
102.0069594999969
 20
143.2991467745618
 10
102.0106222212414
 20
143.3045776491102
 10
102.0150841308111
 20
143.3093253674008
 10
102.0202541278402
 20
143.3133485314942
 10
102.0260186756396
 20
143.3165395540701
 10
102.0322143848799
 20
143.3188100619002
 10
102.0376016221183
 20
143.3199392175286
 10
102.0430777279356
 20
143.3203454712046
 10
102.0486402493332
 20
143.3199931369899
 10
102.0540770601839
 20
143.3188762073284
 10
102.0603311974521
 20
143.316515381847
 10
102.0660614935085
 20
143.3131294558512
 10
102.0710926176374
 20
143.3088038285088
 10
102.0752899170802
 20
143.3036780333245
 10
102.0784902997424
 20
143.2979607916686
 10
102.0806695809816
 20
143.2917717650432
 10
102.0817411678401
 20
143.2853426272985
 10
102.0817116657214
 20
143.2788038277038
 10
102.0805652871652
 20
143.2723536046243
 10
102.0783471627202
 20
143.2661641247132
 10
102.0750933606594
 20
143.2603986791956
 10
102.0709204700325
 20
143.2552362145098
 10
102.0658866528104
 20
143.2507935561826
 10
102.060183484824
 20
143.247233807702
 10
102.0539327367584
 20
143.2446531668805
 10
102.0473443895586
 20
143.2431263906979
 10
102.0406788307245
 20
143.2427025038035
  0
LWPOLYLINE
  5
EBB
330
1F
100
AcDbEntity
  8
SANINDUSA
100
AcDbPolyline
 90
       39
 70
   128
 43
0.0
 10
102.0407266826422
 20
143.2507314519318
 10
102.0461290127499
 20
143.2510876578823
 10
102.0514620720685
 20
143.2523325376198
 10
102.0565224026773
 20
143.2544252545216
 10
102.06114059275
 20
143.2573029750705
 10
102.0652221819011
 20
143.2608875334102
 10
102.0686248326711
 20
143.2650581331915
 10
102.0712942319129
 20
143.2697116153025
 10
102.0731479261476
 20
143.274730831096
 10
102.074145626992
 20
143.2799642930502
 10
102.0742520732343
 20
143.2853175204255
 10
102.0734685208621
 20
143.2905937346488
 10
102.071771858206
 20
143.2957355932589
 10
102.0692333938115
 20
143.3005081638313
 10
102.0658462720283
 20
143.3048426769117
 10
102.0617528463985
 20
143.3085326146964
 10
102.0570349836042
 20
143.3114724187166
 10
102.0518532283174
 20
143.3135630914541
 10
102.0473135840435
 20
143.3145934753992
 10
102.0426504038744
 20
143.3149718362464
 10
102.0380407611116
 20
143.3146931583933
 10
102.0334997355349
 20
143.313783044843
 10
102.0282738764213
 20
143.311881418306
 10
102.0234312787718
 20
143.3091684761266
 10
102.0191214962604
 20
143.3057248584024
 10
102.0154467403859
 20
143.3016587201774
 10
102.0124912342242
 20
143.297031766499
 10
102.0103608252023
 20
143.2920099204139
 10
102.0091201979107
 20
143.2866790361063
 10
102.0088174567727
 20
143.2812253798498
 10
102.0094673509245
 20
143.275849075073
 10
102.0110506884835
 20
143.2706547328737
 10
102.0134834838004
 20
143.2659050347174
 10
102.0167014785125
 20
143.2616116941262
 10
102.0205884572846
 20
143.2579331784146
 10
102.0250455853289
 20
143.2549302797659
 10
102.0299804742563
 20
143.2526864539819
 10
102.0352290672684
 20
143.2512715407857
 10
102.0407266826422
 20
143.2507314519318
  0
LWPOLYLINE
  5
EBC
330
1F
100
AcDbEntity
  8
9
100
AcDbPolyline
 90
       12
 70
   128
 43
0.0
 10
101.6381705083953
 20
143.2821065877436
 10
101.6478517587042
 20
143.2877978059005
 10
101.6527537162215
 20
143.2905351537874
 10
101.6576969289887
 20
143.2932005083396
 10
101.6664386415035
 20
143.2976872254278
 10
101.677934292333
 20
143.303162699761
 10
101.6848744755888
 20
143.3062434797137
 10
101.6901192911374
 20
143.3084627543648
 10
101.6989446655669
 20
143.311990738788
 10
101.7060828335722
 20
143.3146593632933
 10
101.7114708353372
 20
143.3165666257936
 10
101.7205250205956
 20
143.3195685888789
  0
LWPOLYLINE
  5
EBD
330
1F
100
AcDbEntity
  8
SANINDUSA
100
AcDbPolyline
 90
        7
 70
   128
 43
0.0
 10
101.7229227570555
 20
143.312021007346
 10
101.7229226998617
 20
143.312020989213
 10
101.7017872119136
 20
143.3046137001949
 10
101.6812078383889
 20
143.2959825562936
 10
101.6614260319349
 20
143.2862627108755
 10
101.6422532461047
 20
143.2753907448813
 10
101.6422531948118
 20
143.2753907137529
  0
LINE
  5
EBE
330
1F
100
AcDbEntity
  8
9
100
AcDbLine
 10
101.6008904769041
 20
143.3260338092732
 30
0.0
 11
101.606890476904
 21
143.3260338092732
 31
0.0
  0
ARC
  5
EBF
330
1F
100
AcDbEntity
  8
9
100
AcDbCircle
 10
101.585890476904
 20
143.3260338092732
 30
0.0
 40
0.0210000000000001
100
AcDbArc
 50
347.4241616462986
 51
0.0
  0
ARC
  5
EC0
330
1F
100
AcDbEntity
  8
SANINDUSA
100
AcDbCircle
 10
101.585890476904
 20
143.3260338092732
 30
0.0
 40
0.0150000000000002
100
AcDbArc
 50
303.9631571148163
 51
0.0
  0
LINE
  5
EC1
330
1F
100
AcDbEntity
  8
9
100
AcDbLine
 10
101.5380330047732
 20
143.2684178093699
 30
0.0
 11
101.5421696703798
 21
143.2640717769656
 31
0.0
  0
ARC
  5
EC2
330
1F
100
AcDbEntity
  8
9
100
AcDbCircle
 10
101.585890476904
 20
143.3260338092732
 30
0.0
 40
0.0209999999999999
100
AcDbArc
 50
303.9631571148163
 51
347.4241616463004
  0
ARC
  5
EC3
330
1F
100
AcDbEntity
  8
9
100
AcDbCircle
 10
101.8344940399134
 20
142.9569521537293
 30
0.0
 40
0.4239999999999985
100
AcDbArc
 50
123.963157114814
 51
133.5861339320712
  0
ARC
  5
EC4
330
1F
100
AcDbEntity
  8
SANINDUSA
100
AcDbCircle
 10
101.8344940399134
 20
142.9569521537293
 30
0.0
 40
0.4299999999999978
100
AcDbArc
 50
123.963157114814
 51
133.5861339320712
  0
LINE
  5
EC5
330
1F
100
AcDbEntity
  8
9
100
AcDbLine
 10
101.5942703722864
 20
143.313592854592
 30
0.0
 11
101.5976223304393
 21
143.3086164727195
 31
0.0
  0
LINE
  5
EC6
330
1F
100
AcDbEntity
  8
SANINDUSA
100
AcDbLine
 10
101.6008904769041
 20
143.3260338092732
 30
0.0
 11
101.6008904769041
 21
143.5031188549544
 31
0.0
  0
LINE
  5
EC7
330
1F
100
AcDbEntity
  8
9
100
AcDbLine
 10
101.606890476904
 20
143.5031188549544
 30
0.0
 11
101.606890476904
 21
143.3260338092732
 31
0.0
  0
LWPOLYLINE
  5
EC8
330
1F
100
AcDbEntity
  8
SANINDUSA
100
AcDbPolyline
 90
       10
 70
   128
 43
0.0
 10
102.5208904769041
 20
143.3290733140976
 10
102.5208904188822
 20
143.3290733293694
 10
102.4818779855725
 20
143.3388458988755
 10
102.442634842441
 20
143.3476471508267
 10
102.404808375639
 20
143.3551208682337
 10
102.3667966864813
 20
143.3616225921451
 10
102.3286344136401
 20
143.3671236456157
 10
102.2901087496243
 20
143.3716228004504
 10
102.2514667309933
 20
143.3750613937922
 10
102.2127511254886
 20
143.3774135978336
  0
LWPOLYLINE
  5
EC9
330
1F
100
AcDbEntity
  8
9
100
AcDbPolyline
 90
       12
 70
   128
 43
0.0
 10
102.2131232552055
 20
143.3853951099368
 10
102.242302504795
 20
143.3837208647612
 10
102.2714395461298
 20
143.381427005975
 10
102.2968894221228
 20
143.3789194951599
 10
102.3296680153314
 20
143.3750039294132
 10
102.3476510403706
 20
143.3725303525823
 10
102.37635774398
 20
143.3681082215087
 10
102.4192573142093
 20
143.3604270704106
 10
102.4442626721614
 20
143.3553658824588
 10
102.4763320117036
 20
143.3482583022175
 10
102.5033527139298
 20
143.3417445365063
 10
102.5229653576232
 20
143.3367246976602
  0
LINE
  5
ECA
330
1F
100
AcDbEntity
  8
9
100
AcDbLine
 10
102.694890476904
 20
143.5031188549544
 30
0.0
 11
101.606890476904
 21
143.5031188549544
 31
0.0
  0
LINE
  5
ECB
330
1F
100
AcDbEntity
  8
SANINDUSA
100
AcDbLine
 10
101.606890476904
 20
143.5051188549544
 30
0.0
 11
102.694890476904
 21
143.5051188549544
 31
0.0
  0
ARC
  5
ECC
330
1F
100
AcDbEntity
  8
9
100
AcDbCircle
 10
102.260890476904
 20
143.4401188549544
 30
0.0
 40
0.0185000000000001
100
AcDbArc
 50
202.3864505478848
 51
329.1071875588587
  0
ARC
  5
ECD
330
1F
100
AcDbEntity
  8
9
100
AcDbCircle
 10
102.260890476904
 20
143.4401188549544
 30
0.0
 40
0.0185000000000001
100
AcDbArc
 50
329.1071875588587
 51
202.3864505478848
  0
ARC
  5
ECE
330
1F
100
AcDbEntity
  8
SANINDUSA
100
AcDbCircle
 10
102.260890476904
 20
143.4401188549544
 30
0.0
 40
0.0175000000000001
100
AcDbArc
 50
329.1071875588587
 51
202.386450547883
  0
ARC
  5
ECF
330
1F
100
AcDbEntity
  8
SANINDUSA
100
AcDbCircle
 10
102.260890476904
 20
143.4401188549544
 30
0.0
 40
0.0175000000000001
100
AcDbArc
 50
202.386450547883
 51
329.1071875588587
  0
LWPOLYLINE
  5
ED0
330
1F
100
AcDbEntity
  8
9
100
AcDbPolyline
 90
       11
 70
   128
 43
0.0
 10
102.2474248697184
 20
143.3738029564153
 10
102.2474015327157
 20
143.3737181673763
 10
102.2476766629609
 20
143.3732794699458
 10
102.248337973779
 20
143.372786783583
 10
102.2493575678256
 20
143.3722628242857
 10
102.2507163305109
 20
143.3717233949854
 10
102.2523653301818
 20
143.371191974702
 10
102.254248444936
 20
143.3706928370607
 10
102.2563199431005
 20
143.3702421667158
 10
102.2586138170953
 20
143.3698458373965
 10
102.2609814970738
 20
143.36953889039
  0
LWPOLYLINE
  5
ED1
330
1F
100
AcDbEntity
  8
SANINDUSA
100
AcDbPolyline
 90
       39
 70
   128
 43
0.0
 10
102.260886489686
 20
143.3684372863898
 10
102.2606389001775
 20
143.3684625786459
 10
102.2582246233823
 20
143.3687625842849
 10
102.2558842085568
 20
143.3691464750509
 10
102.2536623747096
 20
143.3696049756719
 10
102.251641453895
 20
143.3701153550312
 10
102.2498730230243
 20
143.3706606926895
 10
102.2484154848654
 20
143.3712167800026
 10
102.2473224289791
 20
143.3717592799492
 10
102.2466138640927
 20
143.3722720964392
 10
102.2463198132833
 20
143.3727317025657
 10
102.2464331389228
 20
143.3731323694777
 10
102.246950460313
 20
143.3734605257394
 10
102.247850010707
 20
143.3737159159132
 10
102.249111653599
 20
143.3738955601676
 10
102.2506931950694
 20
143.3740015040974
 10
102.2525702352113
 20
143.3740362052499
 10
102.2546741257454
 20
143.3740041851508
 10
102.2569681426721
 20
143.3739092855388
 10
102.2593696253783
 20
143.3737575588501
 10
102.2625008243902
 20
143.3734872565179
 10
102.2648964506192
 20
143.3732226233108
 10
102.2671779962636
 20
143.3729149381222
 10
102.2692756978504
 20
143.3725674986493
 10
102.2711348528653
 20
143.3721839331045
 10
102.2726943829077
 20
143.3717691666506
 10
102.2739178587996
 20
143.3713288364956
 10
102.2747632813751
 20
143.3708711013457
 10
102.2752135724771
 20
143.3704060049497
 10
102.2752498031413
 20
143.3699460716663
 10
102.2748770675934
 20
143.3695058314379
 10
102.274100831173
 20
143.3691017256559
 10
102.2729490273015
 20
143.3687498437939
 10
102.2714530235811
 20
143.3684676431179
 10
102.269658951999
 20
143.3682677624042
 10
102.2676212190779
 20
143.3681632733291
 10
102.2653966013197
 20
143.3681593149336
 10
102.2631693307857
 20
143.3682526372804
 10
102.260886489686
 20
143.3684372863898
  0
LWPOLYLINE
  5
ED2
330
1F
100
AcDbEntity
  8
9
100
AcDbPolyline
 90
       39
 70
   128
 43
0.0
 10
102.2611044703491
 20
143.2427053641309
 10
102.2540626869566
 20
143.2431855707589
 10
102.2474532780694
 20
143.2447849504838
 10
102.2411961952351
 20
143.2474464460607
 10
102.235616380455
 20
143.251006131514
 10
102.2306935711873
 20
143.2554167710152
 10
102.2265340480141
 20
143.2606336509822
 10
102.2233065359849
 20
143.2664526261574
 10
102.2211113986553
 20
143.2727659189284
 10
102.2200279890305
 20
143.2793371133943
 10
102.2201050306656
 20
143.2860286212628
 10
102.2213338256115
 20
143.2925849564295
 10
102.2236728069424
 20
143.2987668812679
 10
102.227037556698
 20
143.304446565447
 10
102.2312845108906
 20
143.3093947169632
 10
102.2363228757151
 20
143.3135509719403
 10
102.2419297277673
 20
143.3167400381233
 10
102.2480157306571
 20
143.3189601056553
 10
102.2533350173455
 20
143.3200173618901
 10
102.2587706597345
 20
143.320343472661
 10
102.2640712682783
 20
143.3199527878455
 10
102.2692903769594
 20
143.3188847336894
 10
102.2756426786545
 20
143.316591686455
 10
102.2815469158198
 20
143.3133334729611
 10
102.2869348055066
 20
143.3091041133094
 10
102.2915420358034
 20
143.3040886058003
 10
102.2952047770998
 20
143.298443304843
 10
102.2978512704907
 20
143.292296712308
 10
102.2993526146601
 20
143.2859765375799
 10
102.2997484706224
 20
143.2795021246369
 10
102.2990177208251
 20
143.273136970422
 10
102.2971817766818
 20
143.266981113403
 10
102.2942592982733
 20
143.2612126746825
 10
102.2903764835484
 20
143.2560039624895
 10
102.2855831957939
 20
143.251463971792
 10
102.2800802516663
 20
143.2477746955593
 10
102.2739737283948
 20
143.2450297407325
 10
102.2674854198157
 20
143.2433206276839
 10
102.2611044703491
 20
143.2427053641309
  0
LWPOLYLINE
  5
ED3
330
1F
100
AcDbEntity
  8
SANINDUSA
100
AcDbPolyline
 90
       39
 70
   128
 43
0.0
 10
102.2610529727212
 20
143.2507340235858
 10
102.2662286235384
 20
143.2512168372652
 10
102.2715009735192
 20
143.2525836109469
 10
102.276466711826
 20
143.2547849277941
 10
102.2809647650884
 20
143.2577555094932
 10
102.2848953676626
 20
143.2614109114784
 10
102.2881201452307
 20
143.2656298996788
 10
102.2905819222263
 20
143.2703029972852
 10
102.2921987582556
 20
143.2753353236429
 10
102.2929324376065
 20
143.2805542525041
 10
102.2927558777478
 20
143.2859408325285
 10
102.2916626014936
 20
143.2912272736574
 10
102.2895947882815
 20
143.2964338507644
 10
102.2866471239386
 20
143.3012400948299
 10
102.2828568245745
 20
143.3055350206409
 10
102.2783669388278
 20
143.3091553562278
 10
102.273406288908
 20
143.3119253776469
 10
102.2680475118666
 20
143.3138447037863
 10
102.2636476334026
 20
143.3147037394191
 10
102.2591850927526
 20
143.3149710568408
 10
102.2546288977135
 20
143.3146168287481
 10
102.2501875145
 20
143.3136389058061
 10
102.2451427535044
 20
143.3116693610131
 10
102.2405232965284
 20
143.3088963558099
 10
102.2364192380823
 20
143.3053447852409
 10
102.2329872581677
 20
143.3011541545538
 10
102.2303117548931
 20
143.2964069270675
 10
102.228483034463
 20
143.291265722058
 10
102.227573523375
 20
143.2858811696912
 10
102.2275957158287
 20
143.2803998296384
 10
102.228544054239
 20
143.2750676014006
 10
102.2303804888024
 20
143.2699478406891
 10
102.2330303310729
 20
143.2652494937892
 10
102.2364236971262
 20
143.2610333774257
 10
102.2404734439085
 20
143.257431463286
 10
102.245062382563
 20
143.2545302471566
 10
102.2500678387229
 20
143.2524170384471
 10
102.2553485919334
 20
143.2511366120399
 10
102.2610529727212
 20
143.2507340235858
  0
LWPOLYLINE
  5
ED4
330
1F
100
AcDbEntity
  8
9
100
AcDbPolyline
 90
       39
 70
   128
 43
0.0
 10
102.2613336465781
 20
143.2610367702079
 10
102.2568032984673
 20
143.2613722206247
 10
102.2530428264625
 20
143.2623358342344
 10
102.2494870648468
 20
143.2638906618849
 10
102.2462551662435
 20
143.2659871263877
 10
102.2434081129036
 20
143.2685647587729
 10
102.241015077348
 20
143.2715706203332
 10
102.2391426970083
 20
143.2749009033108
 10
102.2378201320549
 20
143.278535876386
 10
102.2371055648388
 20
143.2823086040649
 10
102.2370201768014
 20
143.2862510091176
 10
102.2375802353822
 20
143.2901281488955
 10
102.2388321258112
 20
143.293992588137
 10
102.240716210876
 20
143.2975770802494
 10
102.2432815206356
 20
143.3008872433381
 10
102.2463968285926
 20
143.3037041733462
 10
102.250023764261
 20
143.3059518305925
 10
102.2540318151152
 20
143.3075288332532
 10
102.2571114789875
 20
143.3082064757141
 10
102.2602801830878
 20
143.3084731480802
 10
102.2640677131164
 20
143.3082323843756
 10
102.2677906149621
 20
143.3073937852135
 10
102.2713452087051
 20
143.3059624568176
 10
102.2746150327166
 20
143.303997725628
 10
102.2774732182653
 20
143.3015905158098
 10
102.279899379648
 20
143.2988047965411
 10
102.2819242669702
 20
143.295560302442
 10
102.2833939438981
 20
143.2920725072734
 10
102.2843255035107
 20
143.2881462042013
 10
102.28458002336
 20
143.284131749625
 10
102.2841156847473
 20
143.2799822196101
 10
102.2829210210813
 20
143.2759582069191
 10
102.2810450464296
 20
143.2722465758353
 10
102.2785242395494
 20
143.2688889950942
 10
102.275561545451
 20
143.2661240795815
 10
102.2721481053931
 20
143.2638843851081
 10
102.2685029078778
 20
143.2623002192563
 10
102.26462741982
 20
143.2613354224396
 10
102.2613336465781
 20
143.2610367702079
  0
LWPOLYLINE
  5
ED5
330
1F
100
AcDbEntity
  8
SANINDUSA
100
AcDbPolyline
 90
       40
 70
   128
 43
0.0
 10
102.2615222525156
 20
143.2626277264905
 10
102.2646873390471
 20
143.2629415278416
 10
102.2683511098719
 20
143.2638943497387
 10
102.2717861584779
 20
143.2654329685623
 10
102.2718891296491
 20
143.2654903135467
 10
102.2751373877985
 20
143.2677075898058
 10
102.2779305056657
 20
143.270425747053
 10
102.2802828063546
 20
143.273714485926
 10
102.2819971822094
 20
143.2773241778505
 10
102.2830420182222
 20
143.2811853591131
 10
102.2833904646439
 20
143.285142343393
 10
102.2830674936398
 20
143.2889090219572
 10
102.2821165105203
 20
143.2925824664746
 10
102.2806953267182
 20
143.295794029626
 10
102.2787660287556
 20
143.2987832117267
 10
102.2765050098262
 20
143.3013163026122
 10
102.2738502449857
 20
143.3035116364534
 10
102.2708431488832
 20
143.3052950333071
 10
102.2675790388913
 20
143.3066017118068
 10
102.2641553662107
 20
143.3073783278769
 10
102.2606775813725
 20
143.3076178477205
 10
102.2577402658949
 20
143.3073963614402
 10
102.2548862398348
 20
143.3068029306141
 10
102.2511222109316
 20
143.3053853297062
 10
102.247705519117
 20
143.3033508841381
 10
102.2447189398533
 20
143.3007598450549
 10
102.2422365780105
 20
143.2976998746296
 10
102.2403704257674
 20
143.2943435131295
 10
102.2390950281198
 20
143.2907053039421
 10
102.2384726274821
 20
143.287016847297
 10
102.2384685803
 20
143.2832457418561
 10
102.2390780248945
 20
143.279607435564
 10
102.2402835239026
 20
143.27608539006
 10
102.242033423342
 20
143.2728484942976
 10
102.2443013579629
 20
143.2699184887497
 10
102.2470197589514
 20
143.2674059169159
 10
102.2501229770017
 20
143.2653625661872
 10
102.2535413131869
 20
143.2638554533629
 10
102.2571619620696
 20
143.262929934811
 10
102.2615222525156
 20
143.2626277264905
  0
LWPOLYLINE
  5
ED6
330
1F
100
AcDbEntity
  8
9
100
AcDbPolyline
 90
        9
 70
   128
 43
0.0
 10
103.4259831504533
 20
143.1681345066903
 10
103.4266920921006
 20
143.1679969675559
 10
103.4273912830259
 20
143.167586241854
 10
103.4280711066177
 20
143.1669079786704
 10
103.4287222126412
 20
143.1659715067782
 10
103.4293356458403
 20
143.1647897063307
 10
103.4299029691082
 20
143.1633788317089
 10
103.4304163795295
 20
143.1617582879605
 10
103.4308688157018
 20
143.1599503639036
  0
LWPOLYLINE
  5
ED7
330
1F
100
AcDbEntity
  8
9
100
AcDbPolyline
 90
        9
 70
   128
 43
0.0
 10
103.384368167472
 20
143.1681345066903
 10
103.3840137604895
 20
143.1682497950079
 10
103.3836729731687
 20
143.1685912294953
 10
103.383358901775
 20
143.1691456890165
 10
103.383083615896
 20
143.1698918660032
 10
103.3828576946138
 20
143.1708010852922
 10
103.3826898199564
 20
143.1718384060961
 10
103.3825864432528
 20
143.1729639647582
 10
103.3825515372117
 20
143.1741345066903
  0
LWPOLYLINE
  5
ED8
330
1F
100
AcDbEntity
  8
9
100
AcDbPolyline
 90
        9
 70
   128
 43
0.0
 10
103.350301884821
 20
143.1681345066903
 10
103.3513346615295
 20
143.1680260177099
 10
103.3523562337489
 20
143.1677017277547
 10
103.3533555185462
 20
143.1671651550133
 10
103.3543216747825
 20
143.1664221207087
 10
103.3552442207275
 20
143.1654806859443
 10
103.3561131477741
 20
143.1643510642498
 10
103.3569190290215
 20
143.1630455107759
 10
103.3576531215461
 20
143.161578189339
  0
LWPOLYLINE
  5
ED9
330
1F
100
AcDbEntity
  8
9
100
AcDbPolyline
 90
        9
 70
   128
 43
0.0
 10
103.4308688157018
 20
143.1599503639036
 10
103.4308687582337
 20
143.1599503652923
 10
103.4182947370098
 20
143.160249781109
 10
103.4058689048251
 20
143.16053720274
 10
103.3935635424172
 20
143.1608138198601
 10
103.3814389103334
 20
143.1610788552805
 10
103.369438881315
 20
143.1613340894766
 10
103.3576531740991
 20
143.1615781882647
 10
103.3576531215461
 20
143.161578189339
  0
LWPOLYLINE
  5
EDA
330
1F
100
AcDbEntity
  8
SANINDUSA
100
AcDbPolyline
 90
        9
 70
   128
 43
0.0
 10
103.295864349748
 20
143.164274649161
 10
103.2945543652842
 20
143.1651560271599
 10
103.293178937255
 20
143.1659313233572
 10
103.2917466376257
 20
143.1665957059391
 10
103.2902663927977
 20
143.1671450343294
 10
103.2887474279774
 20
143.1675758849948
 10
103.2871992096825
 20
143.1678855727804
 10
103.2856313867446
 20
143.1680721676451
 10
103.2840537301758
 20
143.1681345066892
  0
LWPOLYLINE
  5
EDB
330
1F
100
AcDbEntity
  8
9
100
AcDbPolyline
 90
        9
 70
   128
 43
0.0
 10
103.2204190029949
 20
143.1681345066903
 10
103.2196119795696
 20
143.1682497950079
 10
103.218835969602
 20
143.1685912294953
 10
103.2181207947199
 20
143.1691456890165
 10
103.217493938693
 20
143.1698918660032
 10
103.2169794912467
 20
143.1708010852922
 10
103.2165972223081
 20
143.1718384060961
 10
103.216361822258
 20
143.1729639647582
 10
103.2162823373883
 20
143.1741345066903
  0
LINE
  5
EDC
330
1F
100
AcDbEntity
  8
SANINDUSA
100
AcDbLine
 10
103.384368167472
 20
143.1681345066903
 30
0.0
 11
103.2204190029949
 21
143.1681345066903
 31
0.0
  0
LINE
  5
EDD
330
1F
100
AcDbEntity
  8
9
100
AcDbLine
 10
103.2162823373883
 20
143.1741345066903
 30
0.0
 11
103.3825515372117
 21
143.1741345066903
 31
0.0
  0
LWPOLYLINE
  5
EDE
330
1F
100
AcDbEntity
  8
9
100
AcDbPolyline
 90
       14
 70
   128
 43
0.0
 10
103.3576531215461
 20
143.161578189339
 10
103.3576530681528
 20
143.1615781925455
 10
103.3482606933738
 20
143.1621146815821
 10
103.339356412278
 20
143.1625756436925
 10
103.3310645914796
 20
143.1629669465902
 10
103.3235095975926
 20
143.1632944579886
 10
103.3170844744434
 20
143.1635534273446
 10
103.3113968257668
 20
143.163768418389
 10
103.3065201405442
 20
143.1639423225434
 10
103.3025279077569
 20
143.1640780312293
 10
103.2995790862273
 20
143.1641750994613
 10
103.2974676058511
 20
143.1642426756896
 10
103.2962150938335
 20
143.1642815106489
 10
103.2958753204905
 20
143.1642914178376
  0
ARC
  5
EDF
330
1F
100
AcDbEntity
  8
SANINDUSA
100
AcDbCircle
 10
103.1865684281816
 20
143.1741345066903
 30
0.0
 40
0.0060000000000001
100
AcDbArc
 50
180.0
 51
270.0
  0
LINE
  5
EE0
330
1F
100
AcDbEntity
  8
9
100
AcDbLine
 10
103.1805684281816
 20
143.1741345066903
 30
0.0
 11
103.2162823373883
 21
143.1741345066903
 31
0.0
  0
LINE
  5
EE1
330
1F
100
AcDbEntity
  8
SANINDUSA
100
AcDbLine
 10
103.2204190029949
 20
143.1681345066903
 30
0.0
 11
103.1865684281816
 21
143.1681345066903
 31
0.0
  0
LINE
  5
EE2
330
1F
100
AcDbEntity
  8
9
100
AcDbLine
 10
103.476925082933
 20
143.0881345066903
 30
0.0
 11
103.476925082933
 21
143.0934361605022
 31
0.0
  0
LWPOLYLINE
  5
EE3
330
1F
100
AcDbEntity
  8
SANINDUSA
100
AcDbPolyline
 90
        5
 70
   128
 43
0.0
 10
103.4673192679418
 20
143.0933337132024
 10
103.4694476003971
 20
143.0933233031455
 10
103.4718061380062
 20
143.0933373090807
 10
103.4743238923764
 20
143.0933753094507
 10
103.476925082933
 20
143.0934361605022
  0
LINE
  5
EE4
330
1F
100
AcDbEntity
  8
SANINDUSA
100
AcDbLine
 10
103.4629860865624
 20
143.0881345066903
 30
0.0
 11
103.427109887301
 21
143.0881345066903
 31
0.0
  0
LINE
  5
EE5
330
1F
100
AcDbEntity
  8
9
100
AcDbLine
 10
103.427109887301
 20
143.0881345066903
 30
0.0
 11
103.4271036190241
 21
143.0881345066903
 31
0.0
  0
LWPOLYLINE
  5
EE6
330
1F
100
AcDbEntity
  8
9
100
AcDbPolyline
 90
        6
 70
   128
 43
0.0
 10
103.463700655113
 20
143.0881708560407
 10
103.460470194043
 20
143.0886714504477
 10
103.4586446732768
 20
143.089096830889
 10
103.4572807120949
 20
143.0895727884826
 10
103.4564615454026
 20
143.0900746398548
 10
103.4562007550664
 20
143.0906024149644
  0
LWPOLYLINE
  5
EE7
330
1F
100
AcDbEntity
  8
9
100
AcDbPolyline
 90
        4
 70
   128
 43
0.0
 10
103.4629860865624
 20
143.0881345066903
 10
103.4632971226862
 20
143.0881388831707
 10
103.4635891882992
 20
143.088156331261
 10
103.463700655113
 20
143.0881708560407
  0
LWPOLYLINE
  5
EE8
330
1F
100
AcDbEntity
  8
9
100
AcDbPolyline
 90
        9
 70
   128
 43
0.0
 10
103.4621982146483
 20
143.0961200720787
 10
103.462015414683
 20
143.0950209456906
 10
103.4616282022577
 20
143.0939752833567
 10
103.4610502180265
 20
143.0930199214928
 10
103.4603018231199
 20
143.0921885154251
 10
103.4594093818673
 20
143.0915103537861
 10
103.4584043330382
 20
143.0910093267392
 10
103.4573220823229
 20
143.0907030843807
 10
103.4562007550664
 20
143.0906024149644
  0
LWPOLYLINE
  5
EE9
330
1F
100
AcDbEntity
  8
9
100
AcDbPolyline
 90
        6
 70
   128
 43
0.0
 10
103.463700655113
 20
143.0881708560407
 10
103.4649771053928
 20
143.0887245447803
 10
103.4660853498741
 20
143.0898867298265
 10
103.4669015289466
 20
143.0915270330462
 10
103.4673139097748
 20
143.0932912702052
 10
103.4673192679418
 20
143.0933337132024
  0
LINE
  5
EEA
330
1F
100
AcDbEntity
  8
SANINDUSA
100
AcDbLine
 10
103.476925082933
 20
143.0881345066903
 30
0.0
 11
103.4629860865624
 21
143.0881345066903
 31
0.0
  0
LWPOLYLINE
  5
EEB
330
1F
100
AcDbEntity
  8
SANINDUSA
100
AcDbPolyline
 90
        6
 70
   128
 43
0.0
 10
103.4621982146483
 20
143.0961200720787
 10
103.4623542493119
 20
143.0954993926019
 10
103.4629312350228
 20
143.0948871022861
 10
103.4638559874609
 20
143.0943494376068
 10
103.4651789027126
 20
143.0938519440358
 10
103.4673192679418
 20
143.0933337132024
  0
LWPOLYLINE
  5
EEC
330
1F
100
AcDbEntity
  8
9
100
AcDbPolyline
 90
        4
 70
   128
 43
0.0
 10
103.4562007550664
 20
143.0906024149644
 10
103.4563143035032
 20
143.0923471254253
 10
103.4567689222019
 20
143.099322240997
 10
103.4572549957794
 20
143.1067476459745
  0
LINE
  5
EED
330
1F
100
AcDbEntity
  8
SANINDUSA
100
AcDbLine
 10
103.462870083282
 20
143.1057282411776
 30
0.0
 11
103.4621982146483
 21
143.0961200720786
 31
0.0
  0
LINE
  5
EEE
330
1F
100
AcDbEntity
  8
9
100
AcDbLine
 10
103.4776074084204
 20
143.1031938695759
 30
0.0
 11
103.476925082933
 21
143.0934361605022
 31
0.0
  0
LWPOLYLINE
  5
EEF
330
1F
100
AcDbEntity
  8
SANINDUSA
100
AcDbPolyline
 90
        7
 70
   128
 43
0.0
 10
103.4271036190241
 20
143.0881345066903
 10
103.4251211507846
 20
143.0884714845573
 10
103.4233625811607
 20
143.0894435967888
 10
103.4220229305541
 20
143.0909428606149
 10
103.4212528862554
 20
143.09280449689
 10
103.421133675312
 20
143.0935346966584
 10
103.4211298136678
 20
143.0935744624382
  0
LWPOLYLINE
  5
EF0
330
1F
100
AcDbEntity
  8
9
100
AcDbPolyline
 90
        3
 70
   128
 43
0.0
 10
103.4246272608731
 20
143.1133960914337
 10
103.4258508257084
 20
143.1009284704394
 10
103.4271098873011
 20
143.0881345066903
  0
LINE
  5
EF1
330
1F
100
AcDbEntity
  8
SANINDUSA
100
AcDbLine
 10
103.4211298136678
 20
143.0935744624382
 30
0.0
 11
103.4191538219921
 21
143.1146517069786
 31
0.0
  0
LINE
  5
EF2
330
1F
100
AcDbEntity
  8
9
100
AcDbLine
 10
102.7637479490349
 20
143.1018199005389
 30
0.0
 11
102.7596112834283
 21
143.1061659329432
 31
0.0
  0
LINE
  5
EF3
330
1F
100
AcDbEntity
  8
9
100
AcDbLine
 10
102.6608044335214
 20
143.0725507026076
 30
0.0
 11
102.6568993688216
 21
143.0793789297625
 31
0.0
  0
LWPOLYLINE
  5
EF4
330
1F
100
AcDbEntity
  8
SANINDUSA
100
AcDbPolyline
 90
        7
 70
   128
 43
0.0
 10
102.5824801555796
 20
143.0467769867819
 10
102.5824802127733
 20
143.0467770049156
 10
102.6013136341971
 20
143.0532905125616
 10
102.6197844787057
 20
143.0607705818214
 10
102.638592964368
 20
143.0695731748101
 10
102.6568993167163
 20
143.079378900014
 10
102.6568993688216
 20
143.0793789297625
  0
ARC
  5
EF5
330
1F
100
AcDbEntity
  8
9
100
AcDbCircle
 10
102.4672869138947
 20
143.4132855561794
 30
0.0
 40
0.4240000000000038
100
AcDbArc
 50
287.6241547576547
 51
313.5861339320712
  0
ARC
  5
EF6
330
1F
100
AcDbEntity
  8
SANINDUSA
100
AcDbCircle
 10
102.4672869138947
 20
143.4132855561794
 30
0.0
 40
0.4300000000000039
100
AcDbArc
 50
287.6241547576547
 51
313.5861339320712
  0
LWPOLYLINE
  5
EF7
330
1F
100
AcDbEntity
  8
9
100
AcDbPolyline
 90
       12
 70
   128
 43
0.0
 10
102.6608044335214
 20
143.0725507026076
 10
102.651539194099
 20
143.0674167603127
 10
102.6468554025433
 20
143.0649441335894
 10
102.6421299841473
 20
143.0625306643347
 10
102.6357911171991
 20
143.0594182145174
 10
102.6310007051107
 20
143.0571590690398
 10
102.622941351367
 20
143.0535344093746
 10
102.6171053772101
 20
143.0510444110481
 10
102.6076852236014
 20
143.047257426428
 10
102.5969745401953
 20
143.0432903425307
 10
102.5897390445874
 20
143.0408088154722
 10
102.5848778507968
 20
143.0392295350726
  0
LWPOLYLINE
  5
EF8
330
1F
100
AcDbEntity
  8
9
100
AcDbPolyline
 90
        7
 70
   128
 43
0.0
 10
102.2114655815156
 20
143.1670261821428
 10
102.2114655816621
 20
143.167026122162
 10
102.2114673846443
 20
143.166027962802
 10
102.2114662835684
 20
143.1640053959228
 10
102.2114581947843
 20
143.1622254271424
 10
102.2114402211374
 20
143.1604029693003
 10
102.2114402203475
 20
143.1604029093612
  0
LWPOLYLINE
  5
EF9
330
1F
100
AcDbEntity
  8
9
100
AcDbPolyline
 90
        7
 70
   128
 43
0.0
 10
102.0903407334606
 20
143.1604029093612
 10
102.0903407326707
 20
143.1604029693003
 10
102.0903227590238
 20
143.1622254271424
 10
102.0903146702397
 20
143.1640053959228
 10
102.0903135691638
 20
143.166027962802
 10
102.0903153721461
 20
143.167026122162
 10
102.0903153722926
 20
143.1670261821428
  0
LWPOLYLINE
  5
EFA
330
1F
100
AcDbEntity
  8
9
100
AcDbPolyline
 90
        5
 70
   128
 43
0.0
 10
102.0903153722926
 20
143.1670261821428
 10
102.0903153708272
 20
143.1670262421065
 10
102.0902764228154
 20
143.170933557674
 10
102.0902724128785
 20
143.1773602482014
 10
102.0902723764462
 20
143.1789454429464
  0
LWPOLYLINE
  5
EFB
330
1F
100
AcDbEntity
  8
9
100
AcDbPolyline
 90
        5
 70
   128
 43
0.0
 10
102.2115085773619
 20
143.1789454429464
 10
102.2115085409296
 20
143.1773602482014
 10
102.2115045309927
 20
143.170933557674
 10
102.2114655829809
 20
143.1670262421065
 10
102.2114655815156
 20
143.1670261821428
  0
LINE
  5
EFC
330
1F
100
AcDbEntity
  8
9
100
AcDbLine
 10
101.6448815849865
 20
143.0793789297625
 30
0.0
 11
101.6409765202867
 21
143.0725507026076
 31
0.0
  0
LWPOLYLINE
  5
EFD
330
1F
100
AcDbEntity
  8
SANINDUSA
100
AcDbPolyline
 90
        7
 70
   128
 43
0.0
 10
101.6448815849865
 20
143.0793789297625
 10
101.6448816370919
 20
143.079378900014
 10
101.6631879894401
 20
143.0695731748101
 10
101.6819964751024
 20
143.0607705818214
 10
101.700467319611
 20
143.0532905125616
 10
101.7193007410348
 20
143.0467770049156
 10
101.7193007982285
 20
143.0467769867819
  0
LINE
  5
EFE
330
1F
100
AcDbEntity
  8
9
100
AcDbLine
 10
101.5380330047732
 20
143.1018199005389
 30
0.0
 11
101.5421696703798
 21
143.1061659329431
 31
0.0
  0
LINE
  5
EFF
330
1F
100
AcDbEntity
  8
9
100
AcDbLine
 10
102.1628904769041
 20
143.0216637297478
 30
0.0
 11
102.1708904769041
 21
143.0216637297478
 31
0.0
  0
LINE
  5
F00
330
1F
100
AcDbEntity
  8
9
100
AcDbLine
 10
102.1388904769041
 20
143.0216637297478
 30
0.0
 11
102.1308904769041
 21
143.0216637297478
 31
0.0
  0
LINE
  5
F01
330
1F
100
AcDbEntity
  8
9
100
AcDbLine
 10
102.2129559390978
 20
142.973291709885
 30
0.0
 11
102.2126116953988
 21
142.9812335704044
 31
0.0
  0
LINE
  5
F02
330
1F
100
AcDbEntity
  8
9
100
AcDbLine
 10
102.0891692584093
 20
142.9812335704044
 30
0.0
 11
102.0888250147103
 21
142.973291709885
 31
0.0
  0
LWPOLYLINE
  5
F03
330
1F
100
AcDbEntity
  8
SANINDUSA
100
AcDbPolyline
 90
       11
 70
   128
 43
0.0
 10
102.1708904769041
 20
143.0216637297478
 10
102.1714676218478
 20
143.0148126413929
 10
102.1731727072285
 20
143.0081518740047
 10
102.1759769215879
 20
143.001883518214
 10
102.1797934728561
 20
142.9961747215555
 10
102.1844881288042
 20
142.991242027293
 10
102.1899456329276
 20
142.9871693578969
 10
102.1959642918025
 20
142.9841143724773
 10
102.2024103385284
 20
142.9821130335649
 10
102.207482647705
 20
142.9813442581145
 10
102.2126116953989
 20
142.9812335704044
  0
LWPOLYLINE
  5
F04
330
1F
100
AcDbEntity
  8
9
100
AcDbPolyline
 90
       18
 70
   128
 43
0.0
 10
102.2129559390978
 20
142.9732917098851
 10
102.2068649660117
 20
142.9734171442779
 10
102.2038379184287
 20
142.9737712388378
 10
102.2007143108533
 20
142.9743450658798
 10
102.1945094937174
 20
142.976147328593
 10
102.1903816990119
 20
142.9778790544459
 10
102.1857566641323
 20
142.9804004881293
 10
102.1804638797586
 20
142.9841963278676
 10
102.1771227611153
 20
142.9872291815764
 10
102.1735740720465
 20
142.9911820063052
 10
102.171463995108
 20
142.9940172819216
 10
102.1698242713079
 20
142.9965651597571
 10
102.1676709549227
 20
143.0005677588727
 10
102.1656291532934
 20
143.00551308769
 10
102.1645840006583
 20
143.0088892580999
 10
102.1638847120281
 20
143.0118373188404
 10
102.1631813071651
 20
143.0163275358387
 10
102.1628904769041
 20
143.0216637297478
  0
LWPOLYLINE
  5
F05
330
1F
100
AcDbEntity
  8
SANINDUSA
100
AcDbPolyline
 90
       11
 70
   128
 43
0.0
 10
102.0891692584093
 20
142.9812335704044
 10
102.0958666382948
 20
142.9815136464012
 10
102.1024230403474
 20
142.9829090122144
 10
102.1086503099854
 20
142.9853950707823
 10
102.114376435745
 20
142.9888837892895
 10
102.1194465948278
 20
142.9933007781454
 10
102.1237140959428
 20
142.9984973925025
 10
102.1270720492998
 20
143.0043776311157
 10
102.1294128541811
 20
143.0107315847277
 10
102.1305184786448
 20
143.0161482022912
 10
102.130890476904
 20
143.0216637297478
  0
LWPOLYLINE
  5
F06
330
1F
100
AcDbEntity
  8
9
100
AcDbPolyline
 90
       18
 70
   128
 43
0.0
 10
102.1388904769041
 20
143.0216637297478
 10
102.1387817519554
 20
143.0183973492211
 10
102.1384557844972
 20
143.0151454492978
 10
102.1379136024786
 20
143.0119225324114
 10
102.1371173296365
 20
143.0085982076412
 10
102.1349797648632
 20
143.0024898954264
 10
102.1330320477729
 20
142.9984517265332
 10
102.1302788197506
 20
142.9939619958622
 10
102.1282075669333
 20
142.99118285984
 10
102.1262769497624
 20
142.9889240974069
 10
102.1231282954118
 20
142.9857691582733
 10
102.1190736275132
 20
142.9824534029062
 10
102.1162090488838
 20
142.9805154089657
 10
102.1096431496351
 20
142.9770865729555
 10
102.1047295530361
 20
142.9752984016748
 10
102.0984744595455
 20
142.9738537482442
 10
102.0940553003927
 20
142.9733520818015
 10
102.0888250147103
 20
142.9732917098851
  0
ARC
  5
F07
330
1F
100
AcDbEntity
  8
9
100
AcDbCircle
 10
102.1509087336625
 20
144.4053551388134
 30
0.0
 40
1.433408543518891
100
AcDbArc
 50
252.3754227045336
 51
267.5176315353249
  0
ARC
  5
F08
330
1F
100
AcDbEntity
  8
9
100
AcDbCircle
 10
101.8344940399134
 20
143.4132855561794
 30
0.0
 40
0.4240000000000041
100
AcDbArc
 50
226.4138660679311
 51
252.3758452423469
  0
ARC
  5
F09
330
1F
100
AcDbEntity
  8
SANINDUSA
100
AcDbCircle
 10
101.8344940399134
 20
143.4132855561794
 30
0.0
 40
0.4300000000000039
100
AcDbArc
 50
226.4138660679294
 51
252.3758452423469
  0
LWPOLYLINE
  5
F0A
330
1F
100
AcDbEntity
  8
SANINDUSA
100
AcDbPolyline
 90
       12
 70
   128
 43
0.0
 10
101.7193007982285
 20
143.0467769867819
 10
101.719300855415
 20
143.0467769686243
 10
101.7576916838349
 20
143.0351806079868
 10
101.7964164846435
 20
143.0246624857373
 10
101.8354290549934
 20
143.0152338640962
 10
101.8746831920367
 20
143.0069060052839
 10
101.914132692926
 20
142.9996901715207
 10
101.9514730796086
 20
142.9939106846501
 10
101.9857666913351
 20
142.989490989137
 10
102.0201675012447
 20
142.9859030240931
 10
102.0546451450364
 20
142.9831496107662
 10
102.0891692584093
 20
142.9812335704044
  0
LWPOLYLINE
  5
F0B
330
1F
100
AcDbEntity
  8
9
100
AcDbPolyline
 90
       12
 70
   128
 43
0.0
 10
101.7169031030113
 20
143.0392295350726
 10
101.7072674062812
 20
143.0424285799192
 10
101.7024819353848
 20
143.0441212351455
 10
101.6977177860364
 20
143.0458760851212
 10
101.689437890492
 20
143.0490944998489
 10
101.6788396024411
 20
143.0535344093746
 10
101.6723926691725
 20
143.0564163582294
 10
101.667592076123
 20
143.0586537881119
 10
101.6596509696608
 20
143.0625306643347
 10
101.6533691935925
 20
143.0657567869859
 10
101.6486965227131
 20
143.0682503653462
 10
101.6409765202867
 20
143.0725507026076
  0
LWPOLYLINE
  5
F0C
330
1F
100
AcDbEntity
  8
9
100
AcDbPolyline
 90
       24
 70
   128
 43
0.0
 10
102.2114402203475
 20
143.1604029093612
 10
102.2114402208541
 20
143.1604028494198
 10
102.2114487867594
 20
143.1593763287267
 10
102.2114810463085
 20
143.1552548997211
 10
102.2115854933757
 20
143.1385638091219
 10
102.2116727494285
 20
143.1213753700972
 10
102.2117563868969
 20
143.1043199195069
 10
102.2118186139198
 20
143.0925252875327
 10
102.2118854571251
 20
143.080841511724
 10
102.2119568711955
 20
143.069357674746
 10
102.2120328108135
 20
143.0581628592637
 10
102.2121132306619
 20
143.0473461479424
 10
102.2121841375562
 20
143.0385560583055
 10
102.2122556963491
 20
143.0301396127424
 10
102.2123253548919
 20
143.0222019743653
 10
102.2123905610359
 20
143.0148483062863
 10
102.2124517273039
 20
143.0077667119693
 10
102.2125030907947
 20
143.0014501578992
 10
102.2125439165569
 20
142.9959579493963
 10
102.2125734696395
 20
142.9913493917811
 10
102.2125920560423
 20
142.9877369096168
 10
102.212603372995
 20
142.9848753995374
 10
102.2126092947097
 20
142.9827219302357
 10
102.2126116953989
 20
142.9812335704044
  0
LWPOLYLINE
  5
F0D
330
1F
100
AcDbEntity
  8
9
100
AcDbPolyline
 90
       24
 70
   128
 43
0.0
 10
102.0891692584093
 20
142.9812335704044
 10
102.0891716590984
 20
142.9827219302357
 10
102.0891775808132
 20
142.9848753995374
 10
102.0891888977658
 20
142.9877369096168
 10
102.0892074841686
 20
142.9913493917811
 10
102.0892370372512
 20
142.9959579493963
 10
102.0892778630135
 20
143.0014501578992
 10
102.0893292265043
 20
143.0077667119693
 10
102.0893903927722
 20
143.0148483062863
 10
102.0894555989162
 20
143.0222019743653
 10
102.089525257459
 20
143.0301396127424
 10
102.089596816252
 20
143.0385560583055
 10
102.0896677231462
 20
143.0473461479424
 10
102.0897481429946
 20
143.0581628592637
 10
102.0898240826126
 20
143.069357674746
 10
102.089895496683
 20
143.080841511724
 10
102.0899623398883
 20
143.0925252875327
 10
102.0900245669112
 20
143.1043199195069
 10
102.0901082043796
 20
143.1213753700972
 10
102.0901954604324
 20
143.1385638091219
 10
102.0902999074996
 20
143.1552548997211
 10
102.0903321670487
 20
143.1593763287267
 10
102.090340732954
 20
143.1604028494198
 10
102.0903407334606
 20
143.1604029093612
  0
ARC
  5
F0E
330
1F
100
AcDbEntity
  8
9
100
AcDbCircle
 10
102.1508723241012
 20
144.4053545524528
 30
0.0
 40
1.43340795320607
100
AcDbArc
 50
272.4823653284333
 51
287.6245804317107
  0
LWPOLYLINE
  5
F0F
330
1F
100
AcDbEntity
  8
SANINDUSA
100
AcDbPolyline
 90
       11
 70
   128
 43
0.0
 10
102.2126116953989
 20
142.9812335704044
 10
102.2565531292195
 20
142.9838189615808
 10
102.3004147369803
 20
142.9877612963336
 10
102.3441339653212
 20
142.9930539184008
 10
102.3876482608821
 20
142.9996901715207
 10
102.4299335828245
 20
143.00746706092
 10
102.468455388739
 20
143.0157095214021
 10
102.50674948606
 20
143.0250162160838
 10
102.5447722606554
 20
143.0353758101096
 10
102.5824800983931
 20
143.0467769686243
 10
102.5824801555796
 20
143.0467769867819
  0
ARC
  5
F10
330
1F
100
AcDbEntity
  8
9
100
AcDbCircle
 10
102.150890476904
 20
144.409236506106
 30
0.0
 40
1.469
100
AcDbArc
 50
252.3758452423469
 51
287.6241547576547
  0
ARC
  5
F11
330
1F
100
AcDbEntity
  8
SANINDUSA
100
AcDbCircle
 10
102.150890476904
 20
144.409236506106
 30
0.0
 40
1.475
100
AcDbArc
 50
252.3758452423469
 51
287.6241547576547
  0
LWPOLYLINE
  5
F12
330
1F
100
AcDbEntity
  8
SANINDUSA
100
AcDbPolyline
 90
       28
 70
   128
 43
0.0
 10
101.6422531948118
 20
143.2753907137529
 10
101.6422531434694
 20
143.275390682715
 10
101.6373142624222
 20
143.2722289478237
 10
101.6296173141714
 20
143.2665243038589
 10
101.6224008860075
 20
143.2601707695451
 10
101.6157388601503
 20
143.2532381235132
 10
101.6097051188197
 20
143.2457961443937
 10
101.6043312285542
 20
143.2378674360291
 10
101.5996273197542
 20
143.2294842847826
 10
101.5956399960109
 20
143.2207375624038
 10
101.5924158609155
 20
143.2117181406427
 10
101.5899756096818
 20
143.2024514256746
 10
101.5883202960861
 20
143.1929777752002
 10
101.5874634544787
 20
143.183398844708
 10
101.5874186192097
 20
143.1738162896866
 10
101.5881972803075
 20
143.1642554581015
 10
101.5897868829369
 20
143.1547605101744
 10
101.5921660158421
 20
143.1454320244941
 10
101.5953132677672
 20
143.1363705796495
 10
101.5992320567478
 20
143.1276011647742
 10
101.6038946537652
 20
143.1191640306787
 10
101.6092471336333
 20
143.1111467933721
 10
101.6152355711657
 20
143.1036370688635
 10
101.6218430396389
 20
143.0966705177628
 10
101.629039527185
 20
143.0902625721988
 10
101.6367455271385
 20
143.0844773476058
 10
101.6448815328338
 20
143.0793789594182
 10
101.6448815849865
 20
143.0793789297625
  0
LWPOLYLINE
  5
F13
330
1F
100
AcDbEntity
  8
9
100
AcDbPolyline
 90
       31
 70
   128
 43
0.0
 10
101.6409765202867
 20
143.0725507026076
 10
101.6338239126366
 20
143.0769757588824
 10
101.626992972788
 20
143.0818828042299
 10
101.6217773339634
 20
143.0861450440141
 10
101.6168049944417
 20
143.0906887636239
 10
101.6093606047982
 20
143.0985482107338
 10
101.6040793405516
 20
143.1050886035567
 10
101.599720074786
 20
143.1112775878838
 10
101.5959619716247
 20
143.1173646692839
 10
101.5925678530433
 20
143.1236619567744
 10
101.5881502700003
 20
143.1335439091621
 10
101.5853409476958
 20
143.1414520596169
 10
101.5832835059443
 20
143.1487240018
 10
101.5817583191179
 20
143.1557009389097
 10
101.5806452356145
 20
143.1627553616651
 10
101.5797536720197
 20
143.1735238964266
 10
101.5797232914797
 20
143.1819074775788
 10
101.5801906950667
 20
143.1894425597095
 10
101.5810617917948
 20
143.196523465666
 10
101.582346554603
 20
143.2035411171499
 10
101.5850676392777
 20
143.2139854121253
 10
101.587813832642
 20
143.2219055256584
 10
101.5921929414922
 20
143.2318934785408
 10
101.597447463241
 20
143.2414499428909
 10
101.6034688137678
 20
143.2504041015225
 10
101.6086841377305
 20
143.2569758772375
 10
101.6137578308562
 20
143.2625737822232
 10
101.6188628016927
 20
143.2675648836073
 10
101.6242511334469
 20
143.2722486575601
 10
101.6329001036016
 20
143.2787141283213
 10
101.6381705083953
 20
143.2821065877436
  0
ARC
  5
F14
330
1F
100
AcDbEntity
  8
9
100
AcDbCircle
 10
101.6173190955665
 20
143.1851188549544
 30
0.0
 40
0.1090000000000003
100
AcDbArc
 50
133.5861339320712
 51
226.4138660679311
  0
ARC
  5
F15
330
1F
100
AcDbEntity
  8
SANINDUSA
100
AcDbCircle
 10
101.6173190955665
 20
143.1851188549544
 30
0.0
 40
0.1150000000000001
100
AcDbArc
 50
133.5861339320712
 51
226.4138660679294
  0
LINE
  5
F16
330
1F
100
AcDbEntity
  8
9
100
AcDbLine
 10
102.1388904769041
 20
143.3373710043343
 30
0.0
 11
102.1388904769041
 21
143.0216637297478
 31
0.0
  0
LINE
  5
F17
330
1F
100
AcDbEntity
  8
9
100
AcDbLine
 10
102.1628904769041
 20
143.0216637297478
 30
0.0
 11
102.1628904769041
 21
143.3373710043343
 31
0.0
  0
LINE
  5
F18
330
1F
100
AcDbEntity
  8
SANINDUSA
100
AcDbLine
 10
102.170890476904
 20
143.3373710043343
 30
0.0
 11
102.170890476904
 21
143.0216637297478
 31
0.0
  0
LINE
  5
F19
330
1F
100
AcDbEntity
  8
SANINDUSA
100
AcDbLine
 10
102.130890476904
 20
143.0216637297478
 30
0.0
 11
102.130890476904
 21
143.3373710043343
 31
0.0
  0
LWPOLYLINE
  5
F1A
330
1F
100
AcDbEntity
  8
9
100
AcDbPolyline
 90
       10
 70
   128
 43
0.0
 10
102.2131858581477
 20
143.3239401283857
 10
102.2131858564056
 20
143.3239400704664
 10
102.2131473066956
 20
143.3226458793168
 10
102.2125617302968
 20
143.2990742606576
 10
102.2121426663114
 20
143.2752651309617
 10
102.2118575327139
 20
143.2513486788894
 10
102.2116861814485
 20
143.2272790247248
 10
102.2115845499369
 20
143.2031225166748
 10
102.2115085756007
 20
143.1789455029464
 10
102.2115085754075
 20
143.1789454429469
  0
LWPOLYLINE
  5
F1B
330
1F
100
AcDbEntity
  8
9
100
AcDbPolyline
 90
        9
 70
   128
 43
0.0
 10
102.0902723784007
 20
143.1789454429469
 10
102.0902723782074
 20
143.1789455029464
 10
102.0901964038713
 20
143.2031225166748
 10
102.0900947723597
 20
143.2272790247248
 10
102.0899234210943
 20
143.2513486788894
 10
102.0896382874967
 20
143.2752651309617
 10
102.0892055980274
 20
143.2997290048513
 10
102.0885950974025
 20
143.3239400704664
 10
102.0885950956605
 20
143.3239401283857
  0
ARC
  5
F1C
330
1F
100
AcDbEntity
  8
SANINDUSA
100
AcDbCircle
 10
102.6844618582416
 20
143.1851188549544
 30
0.0
 40
0.1149999999999999
100
AcDbArc
 50
313.5861339320712
 51
46.4138660679288
  0
LWPOLYLINE
  5
F1D
330
1F
100
AcDbEntity
  8
SANINDUSA
100
AcDbPolyline
 90
       28
 70
   128
 43
0.0
 10
102.6568993688216
 20
143.0793789297625
 10
102.6568994209743
 20
143.0793789594182
 10
102.6650354266696
 20
143.0844773476058
 10
102.6727414266231
 20
143.0902625721988
 10
102.6799379141693
 20
143.0966705177628
 10
102.6865453826425
 20
143.1036370688635
 10
102.6925338201749
 20
143.1111467933721
 10
102.6978863000429
 20
143.1191640306787
 10
102.7025488970603
 20
143.1276011647742
 10
102.7064676860409
 20
143.1363705796495
 10
102.709614937966
 20
143.1454320244941
 10
102.7119940708712
 20
143.1547605101744
 10
102.7135836735006
 20
143.1642554581015
 10
102.7143623345985
 20
143.1738162896866
 10
102.7143174993294
 20
143.183398844708
 10
102.713460657722
 20
143.1929777752002
 10
102.7118053441263
 20
143.2024514256746
 10
102.7093650928926
 20
143.2117181406427
 10
102.7061409577972
 20
143.2207375624038
 10
102.7021536340539
 20
143.2294842847826
 10
102.697449725254
 20
143.2378674360291
 10
102.6920758349884
 20
143.2457961443937
 10
102.6860420936578
 20
143.2532381235132
 10
102.6793800678007
 20
143.2601707695451
 10
102.6721636396367
 20
143.2665243038589
 10
102.664466691386
 20
143.2722289478237
 10
102.6595278103387
 20
143.275390682715
 10
102.6595277589964
 20
143.2753907137529
  0
LWPOLYLINE
  5
F1E
330
1F
100
AcDbEntity
  8
9
100
AcDbPolyline
 90
       30
 70
   128
 43
0.0
 10
102.6636104454128
 20
143.2821065877436
 10
102.6688808502065
 20
143.2787141283213
 10
102.6756500154204
 20
143.2737574610242
 10
102.6814408672249
 20
143.2689049765451
 10
102.6866267117526
 20
143.2639977787561
 10
102.691516391907
 20
143.2587954172731
 10
102.6983121400403
 20
143.2504041015225
 10
102.703058608174
 20
143.2434945110115
 10
102.7085014367925
 20
143.2340438851602
 10
102.713077616555
 20
143.2241445381606
 10
102.7167133145305
 20
143.2139854121253
 10
102.7189073455846
 20
143.2058939302659
 10
102.7209170064309
 20
143.1951736355171
 10
102.7219593139711
 20
143.1843165189367
 10
102.7220272817884
 20
143.1735238964266
 10
102.7214179687754
 20
143.1651537645192
 10
102.7203760583099
 20
143.1576685738404
 10
102.7189654930499
 20
143.1506676045577
 10
102.717146506941
 20
143.1437614791451
 10
102.7136306838078
 20
143.1335439091621
 10
102.7102764777496
 20
143.125835735362
 10
102.7068067769087
 20
143.1191076921757
 10
102.7031491607967
 20
143.1129598194154
 10
102.6991368573225
 20
143.1070373244741
 10
102.6924203490099
 20
143.0985482107338
 10
102.6866986974317
 20
143.0923861433035
 10
102.6811935190606
 20
143.0871869042382
 10
102.6757037358638
 20
143.0825970618654
 10
102.669954269863
 20
143.0783370088558
 10
102.6608044335214
 20
143.0725507026076
  0
ARC
  5
F1F
330
1F
100
AcDbEntity
  8
9
100
AcDbCircle
 10
102.6844618582416
 20
143.1851188549544
 30
0.0
 40
0.1089999999999998
100
AcDbArc
 50
313.5861339320712
 51
46.4138660679288
  0
LINE
  5
F20
330
1F
100
AcDbEntity
  8
SANINDUSA
100
AcDbLine
 10
103.1805684281816
 20
143.2221345066903
 30
0.0
 11
103.1805684281816
 21
143.1741345066903
 31
0.0
  0
LINE
  5
F21
330
1F
100
AcDbEntity
  8
9
100
AcDbLine
 10
103.2162823373883
 20
143.1741345066903
 30
0.0
 11
103.2162823373883
 21
143.2221345066903
 31
0.0
  0
LINE
  5
F22
330
1F
100
AcDbEntity
  8
9
100
AcDbLine
 10
103.3825515372117
 20
143.1741345066903
 30
0.0
 11
103.3825515372117
 21
143.2221345066903
 31
0.0
  0
LWPOLYLINE
  5
F23
330
1F
100
AcDbEntity
  8
9
100
AcDbPolyline
 90
       25
 70
   128
 43
0.0
 10
104.2274108033364
 20
143.1599503639036
 10
104.2274107460674
 20
143.159950363511
 10
104.1918054279756
 20
143.1597130457133
 10
104.1558932230974
 20
143.1594886550161
 10
104.1197155067914
 20
143.1592796291432
 10
104.0833136544162
 20
143.1590884058187
 10
104.0467290413302
 20
143.1589174227665
 10
104.010003042892
 20
143.1587691177105
 10
103.9741825429374
 20
143.158649046214
 10
103.9382286062131
 20
143.1585539583972
 10
103.9021810638572
 20
143.1584846592274
 10
103.8660797470081
 20
143.1584419536719
 10
103.829964486804
 20
143.1584266466979
 10
103.7938751143831
 20
143.1584395432727
 10
103.7576495842021
 20
143.1584812510241
 10
103.7214507294663
 20
143.1585505982035
 10
103.6853185047661
 20
143.1586460890728
 10
103.6492928646915
 20
143.1587662278938
 10
103.6134137638328
 20
143.1589095189282
 10
103.5777211567801
 20
143.1590744664377
 10
103.5406390958773
 20
143.1592678725014
 10
103.503774144784
 20
143.1594800980844
 10
103.4671696287363
 20
143.1597084821124
 10
103.4308688729708
 20
143.159950363511
 10
103.4308688157018
 20
143.1599503639036
  0
LINE
  5
F24
330
1F
100
AcDbEntity
  8
SANINDUSA
100
AcDbLine
 10
103.384368167472
 20
143.2281345066903
 30
0.0
 11
104.2739114515662
 21
143.2281345066903
 31
0.0
  0
LINE
  5
F25
330
1F
100
AcDbEntity
  8
9
100
AcDbLine
 10
104.2757280818265
 20
143.2221345066903
 30
0.0
 11
103.3825515372117
 21
143.2221345066903
 31
0.0
  0
LINE
  5
F26
330
1F
100
AcDbEntity
  8
9
100
AcDbLine
 10
103.3825515372117
 20
143.1741345066903
 30
0.0
 11
104.2757280818265
 21
143.1741345066903
 31
0.0
  0
LINE
  5
F27
330
1F
100
AcDbEntity
  8
SANINDUSA
100
AcDbLine
 10
104.2739114515662
 20
143.1681345066903
 30
0.0
 11
103.384368167472
 21
143.1681345066903
 31
0.0
  0
LWPOLYLINE
  5
F28
330
1F
100
AcDbEntity
  8
SANINDUSA
100
AcDbPolyline
 90
       21
 70
   128
 43
0.0
 10
103.2958985110596
 20
143.1643251855403
 10
103.3055227876226
 20
143.1577148153416
 10
103.3171989173818
 20
143.1508415665105
 10
103.3292803712838
 20
143.1446523828052
 10
103.3416224198955
 20
143.1390812400279
 10
103.3540887643023
 20
143.1340710822686
 10
103.3665503321278
 20
143.1295720112719
 10
103.378884830922
 20
143.1255398624153
 10
103.3921397007425
 20
143.121604873292
 10
103.4049589324217
 20
143.1181381469111
 10
103.4172091497177
 20
143.1150978178771
 10
103.4287672679063
 20
143.1124463672658
 10
103.4395207023461
 20
143.1101502417689
 10
103.4493675441344
 20
143.1081795926784
 10
103.4714405783999
 20
143.1041722896755
 10
103.4941802102762
 20
143.100564453427
 10
103.5220415493641
 20
143.0967579288694
 10
103.5506565842329
 20
143.0934500268441
 10
103.5799157954764
 20
143.0906081365455
 10
103.6100747092171
 20
143.0881744929113
 10
103.6365643915929
 20
143.0864207850074
  0
LINE
  5
F2B
330
1F
100
AcDbEntity
  8
SANINDUSA
100
AcDbLine
 10
103.5164328733585
 20
143.0881345066903
 30
0.0
 11
103.476925082933
 21
143.0881345066903
 31
0.0
  0
LINE
  5
F2C
330
1F
100
AcDbEntity
  8
SANINDUSA
100
AcDbLine
 10
103.476925082933
 20
143.0934361605022
 30
0.0
 11
103.5164328733585
 21
143.0934361605022
 31
0.0
  0
LWPOLYLINE
  5
11BA
330
1F
100
AcDbEntity
  8
SANINDUSA
100
AcDbPolyline
 90
       20
 70
   128
 43
0.0
 10
106.1601575154787
 20
143.2210442230424
 10
106.158582344151
 20
143.210405023003
 10
106.1562766841581
 20
143.1998479588886
 10
106.153204820384
 20
143.1894842534814
 10
106.1493310377124
 20
143.1794251295642
 10
106.1446196210273
 20
143.1697818099195
 10
106.1394875511409
 20
143.1613061175276
 10
106.1336264920113
 20
143.1532720431174
 10
106.1271085748335
 20
143.1457596773087
 10
106.1200059308025
 20
143.138849110721
 10
106.1123924595881
 20
143.1325828615327
 10
106.1043018526677
 20
143.1269000957957
 10
106.0958255597402
 20
143.1217969937939
 10
106.0870550305042
 20
143.1172697358111
 10
106.0742840189853
 20
143.1117892458856
 10
106.0611110649299
 20
143.1072481562357
 10
106.0476424901313
 20
143.1035539661864
 10
106.033984616383
 20
143.1006141750628
 10
106.0202437654786
 20
143.0983362821903
 10
105.999044520275
 20
143.0959131858318
  0
LINE
  5
11BB
330
1F
100
AcDbEntity
  8
SANINDUSA
100
AcDbLine
 10
106.1999432191572
 20
143.2281345066903
 30
0.0
 11
106.1681292680489
 21
143.2281345066903
 31
0.0
  0
LINE
  5
11BC
330
1F
100
AcDbEntity
  8
SANINDUSA
100
AcDbLine
 10
106.20596004266
 20
143.1741345066903
 30
0.0
 11
106.20596004266
 21
143.2221345066903
 31
0.0
  0
LINE
  5
11BD
330
1F
100
AcDbEntity
  8
SANINDUSA
100
AcDbLine
 10
106.210067456507
 20
143.2221345066903
 30
0.0
 11
106.210067456507
 21
143.1741345066903
 31
0.0
  0
ARC
  5
11BE
330
1F
100
AcDbEntity
  8
SANINDUSA
100
AcDbCircle
 10
106.204067456507
 20
143.2221345066903
 30
0.0
 40
0.0060000000000001
100
AcDbArc
 50
359.9999999999992
 51
90.00000000000003
  0
ARC
  5
11BF
330
1F
100
AcDbEntity
  8
SANINDUSA
100
AcDbCircle
 10
106.1999530223897
 20
143.2221274903216
 30
0.0
 40
0.0060070243679389
100
AcDbArc
 50
0.0669230520645847
 51
90.0935045484398
  0
LINE
  5
11C0
330
1F
100
AcDbEntity
  8
SANINDUSA
100
AcDbLine
 10
106.204067456507
 20
143.2281345066903
 30
0.0
 11
106.1999432191572
 21
143.2281345066903
 31
0.0
  0
LINE
  5
11C2
330
1F
100
AcDbEntity
  8
SANINDUSA
100
AcDbLine
 10
106.1677792580489
 20
143.2281345066903
 30
0.0
 11
106.1226402328652
 21
143.2281345066903
 31
0.0
  0
LWPOLYLINE
  5
11C4
330
1F
100
AcDbEntity
  8
SANINDUSA
100
AcDbPolyline
 90
        6
 70
   128
 43
0.0
 10
106.1681292680489
 20
143.2281345066903
 10
106.1654674278479
 20
143.22768145447
 10
106.1631056597084
 20
143.2263724981451
 10
106.16131415462
 20
143.2243569611575
 10
106.160296127367
 20
143.2218680920259
 10
106.1601575154787
 20
143.2210442230424
  0
LINE
  5
11C6
330
1F
100
AcDbEntity
  8
SANINDUSA
100
AcDbLine
 10
106.1999432191572
 20
143.1681345066903
 30
0.0
 11
106.1691473937908
 21
143.1681345066903
 31
0.0
  0
LINE
  5
11C7
330
1F
100
AcDbEntity
  8
SANINDUSA
100
AcDbLine
 10
106.1999432191572
 20
143.1681345066903
 30
0.0
 11
106.204067456507
 21
143.1681345066903
 31
0.0
  0
LWPOLYLINE
  5
11C8
330
1F
100
AcDbEntity
  8
SANINDUSA
100
AcDbPolyline
 90
        6
 70
   128
 43
0.0
 10
106.1999432191572
 20
143.1681345066903
 10
106.2012911679034
 20
143.1682870104009
 10
106.2031616392149
 20
143.1690650169919
 10
106.2046665366325
 20
143.1704176577431
 10
106.2056348575026
 20
143.172188691723
 10
106.20596004266
 20
143.1741345066903
  0
ARC
  5
11C9
330
1F
100
AcDbEntity
  8
SANINDUSA
100
AcDbCircle
 10
106.204067456507
 20
143.1741345066903
 30
0.0
 40
0.0060000000000001
100
AcDbArc
 50
270.0
 51
359.9999999999992
  0
LWPOLYLINE
  5
11CB
330
1F
100
AcDbEntity
  8
SANINDUSA
100
AcDbPolyline
 90
       14
 70
   128
 43
0.0
 10
106.1520165263027
 20
143.1585549847389
 10
106.1456533125904
 20
143.1491662404627
 10
106.138449790498
 20
143.1403481355542
 10
106.1305075297326
 20
143.1321845581988
 10
106.1219281000016
 20
143.1247593965822
 10
106.110995230366
 20
143.1169142938371
 10
106.0993653622128
 20
143.11005024662
 10
106.0872080039487
 20
143.1041329315814
 10
106.0746926639803
 20
143.0991280253722
 10
106.0627044439468
 20
143.0951906403176
 10
106.0505118347819
 20
143.0919003804125
 10
106.0381818586859
 20
143.0891976686861
 10
106.0191546070424
 20
143.0860609581721
 10
105.9999832182372
 20
143.0839449220704
  0
LWPOLYLINE
  5
11CC
330
1F
100
AcDbEntity
  8
SANINDUSA
100
AcDbPolyline
 90
       23
 70
   128
 43
0.0
 10
106.1564935883275
 20
143.1584690415947
 10
106.1534957735792
 20
143.153541414468
 10
106.1479877873251
 20
143.1458651079757
 10
106.1422763356548
 20
143.1390060501171
 10
106.1364576887796
 20
143.1329050902136
 10
106.1306210195396
 20
143.1275026667825
 10
106.1234232965492
 20
143.1216426719036
 10
106.1164666483888
 20
143.1166725757567
 10
106.1098758005118
 20
143.112490151578
 10
106.1037592802058
 20
143.109002703631
 10
106.0964873539068
 20
143.1052862187765
 10
106.0894739086852
 20
143.102090525214
 10
106.0822216594004
 20
143.0991400687673
 10
106.0747348744158
 20
143.0964301956303
 10
106.0670172989524
 20
143.0939562699963
 10
106.0590722311665
 20
143.0917137481605
 10
106.0449488620655
 20
143.0883988765485
 10
106.0308606539567
 20
143.0858356826837
 10
106.0172558408122
 20
143.0839667062228
 10
106.0042725943751
 20
143.0826690828929
 10
105.9915199315471
 20
143.0818046228713
 10
105.9785669188434
 20
143.0812997381127
 10
105.9653585196661
 20
143.0811345066903
  0
ARC
  5
11CD
330
1F
100
AcDbEntity
  8
SANINDUSA
100
AcDbCircle
 10
106.1737270549794
 20
143.1481345066903
 30
0.0
 40
0.0199999999999999
100
AcDbArc
 50
90.00000000000003
 51
149.0442620443072
  0
ARC
  5
11CE
330
1F
100
AcDbEntity
  8
SANINDUSA
100
AcDbCircle
 10
106.1691358722944
 20
143.1480479555448
 30
0.0
 40
0.0200865544498695
100
AcDbArc
 50
89.96713557030259
 51
148.4604041054391
  0
LWPOLYLINE
  5
11D4
330
1F
100
AcDbEntity
  8
SANINDUSA
100
AcDbPolyline
 90
       12
 70
   128
 43
0.0
 10
105.7758670752544
 20
143.184774303189
 10
105.7801225623572
 20
143.170559456031
 10
105.7854304455338
 20
143.1567031767514
 10
105.7882148883981
 20
143.1503190468177
 10
105.7912380643044
 20
143.1440262458812
 10
105.794671757075
 20
143.1379806879032
 10
105.7986877505319
 20
143.1323382868449
 10
105.8026582153311
 20
143.1279589132182
 10
105.8070998902056
 20
143.1240309006283
 10
105.8119347567054
 20
143.1206311400713
 10
105.8178076453749
 20
143.1174881781699
 10
105.8240329090595
 20
143.1151179489098
  0
LWPOLYLINE
  5
11D5
330
1F
100
AcDbEntity
  8
SANINDUSA
100
AcDbPolyline
 90
       13
 70
   128
 43
0.0
 10
105.7682014304945
 20
143.1681345066903
 10
105.7720540300316
 20
143.1574872082228
 10
105.7764744779298
 20
143.1470629288853
 10
105.779750175351
 20
143.1401120323471
 10
105.7833695998843
 20
143.1333339351416
 10
105.7875663769054
 20
143.1269264590707
 10
105.7915465849252
 20
143.1220663220603
 10
105.7959747385116
 20
143.1176104541699
 10
105.801013106619
 20
143.1134521115036
 10
105.8064443587205
 20
143.1098223661419
 10
105.8121232473518
 20
143.1068655314664
 10
105.8180804083402
 20
143.1044629244792
 10
105.8241851076586
 20
143.1024762853145
  0
LINE
  5
11D7
330
1F
100
AcDbEntity
  8
SANINDUSA
100
AcDbLine
 10
106.1226402328652
 20
143.2281345066903
 30
0.0
 11
105.8069329582787
 21
143.2281345066903
 31
0.0
  0
LWPOLYLINE
  5
11DD
330
1F
100
AcDbEntity
  8
SANINDUSA
100
AcDbPolyline
 90
       17
 70
   128
 43
0.0
 10
105.7752196501082
 20
143.1854390284273
 10
105.7751574875621
 20
143.1855319438678
 10
105.7746989869411
 20
143.1864926054693
 10
105.7741886075818
 20
143.187805944403
 10
105.7736432699235
 20
143.1894510103397
 10
105.7730871826104
 20
143.1913736436336
 10
105.7725446826639
 20
143.1935124474687
 10
105.7720318661738
 20
143.1958141079234
 10
105.7715722600473
 20
143.1981837923853
 10
105.7711715931354
 20
143.2005795126588
 10
105.7708434368736
 20
143.202909751976
 10
105.7705880466998
 20
143.2051304131767
 10
105.7704084024454
 20
143.2071778832054
 10
105.7703024585156
 20
143.2089956658209
 10
105.7702677573631
 20
143.2105418053129
 10
105.7702997774622
 20
143.211761696333
 10
105.7703661523217
 20
143.2123640152484
  0
LINE
  5
11E0
330
1F
100
AcDbEntity
  8
SANINDUSA
100
AcDbLine
 10
105.8069329582787
 20
143.2281345066903
 30
0.0
 11
105.7623250725255
 21
143.2281345066903
 31
0.0
  0
LINE
  5
11E2
330
1F
100
AcDbEntity
  8
SANINDUSA
100
AcDbLine
 10
105.7747551883416
 20
143.1855135339345
 30
0.0
 11
105.7647389046694
 21
143.1841122921773
 31
0.0
  0
LWPOLYLINE
  5
11E3
330
1F
100
AcDbEntity
  8
SANINDUSA
100
AcDbPolyline
 90
        6
 70
   128
 43
0.0
 10
105.7758670752544
 20
143.184774303189
 10
105.775729948759
 20
143.1850795358918
 10
105.7754996050866
 20
143.1853222095907
 10
105.7752013168728
 20
143.1854758132453
 10
105.7748672435757
 20
143.1855228978895
 10
105.7747551883417
 20
143.1855135339345
  0
LINE
  5
11E7
330
1F
100
AcDbEntity
  8
SANINDUSA
100
AcDbLine
 10
105.8357648989014
 20
143.0665363235721
 30
0.0
 11
105.7806285390108
 21
143.0709510501163
 31
0.0
  0
LINE
  5
11E8
330
1F
100
AcDbEntity
  8
SANINDUSA
100
AcDbLine
 10
105.8186642319405
 20
143.0598750968432
 30
0.0
 11
105.7799904150643
 21
143.0629716800465
 31
0.0
  0
LWPOLYLINE
  5
11EC
330
1F
100
AcDbEntity
  8
SANINDUSA
100
AcDbPolyline
 90
        4
 70
   128
 43
0.0
 10
105.9990445202739
 20
143.0959131858317
 10
105.9930286370178
 20
143.0954565993511
 10
105.9900166137899
 20
143.0952720882262
 10
105.987003033479
 20
143.0951113017827
  0
LWPOLYLINE
  5
11ED
330
1F
100
AcDbEntity
  8
SANINDUSA
100
AcDbPolyline
 90
        5
 70
   128
 43
0.0
 10
105.9999832182372
 20
143.0839449220704
 10
105.996873955539
 20
143.0836928637954
 10
105.993761805154
 20
143.0834739913751
 10
105.9906469096519
 20
143.0832836226285
 10
105.9875304025591
 20
143.083117862084
  0
ARC
  5
11EF
330
1F
100
AcDbEntity
  8
SANINDUSA
100
AcDbCircle
 10
105.904185274325
 20
143.0762901211088
 30
0.0
 40
0.0100001700209746
100
AcDbArc
 50
83.63496567942304
 51
180.0469301397496
  0
LWPOLYLINE
  5
11F0
330
1F
100
AcDbEntity
  8
SANINDUSA
100
AcDbPolyline
 90
        4
 70
   128
 43
0.0
 10
105.9016018793561
 20
143.098752007549
 10
105.8982508137784
 20
143.098593112125
 10
105.8951412777932
 20
143.0973337604625
 10
105.8935720138829
 20
143.0961345040864
  0
LWPOLYLINE
  5
11F1
330
1F
100
AcDbEntity
  8
SANINDUSA
100
AcDbPolyline
 90
        4
 70
   128
 43
0.0
 10
105.8989104243936
 20
143.084717324459
 10
105.9186938987467
 20
143.0828718203611
 10
105.9420010530399
 20
143.0815693208537
 10
105.9653585196661
 20
143.0811345066903
  0
LWPOLYLINE
  5
11F2
330
1F
100
AcDbEntity
  8
SANINDUSA
100
AcDbPolyline
 90
        5
 70
   128
 43
0.0
 10
105.9016018793561
 20
143.098752007549
 10
105.9174650931744
 20
143.0970618791326
 10
105.9333711316904
 20
143.0958355585586
 10
105.9493570421393
 20
143.0950519251677
 10
105.9653585196661
 20
143.0947089554153
  0
LWPOLYLINE
  5
11F3
330
1F
100
AcDbEntity
  8
SANINDUSA
100
AcDbPolyline
 90
        5
 70
   128
 43
0.0
 10
105.9052939176588
 20
143.08622864768
 10
105.9202381545103
 20
143.0847630445434
 10
105.9352161478157
 20
143.0836942669178
 10
105.9502573008187
 20
143.0830084531629
 10
105.9653110346606
 20
143.0827034944516
  0
LWPOLYLINE
  5
11F4
330
1F
100
AcDbEntity
  8
SANINDUSA
100
AcDbPolyline
 90
        4
 70
   128
 43
0.0
 10
105.9870030334797
 20
143.0951113017829
 10
105.9791870898667
 20
143.0948475038604
 10
105.9713637343
 20
143.0947325833021
 10
105.9653585196671
 20
143.0947089554153
  0
LWPOLYLINE
  5
11F6
330
1F
100
AcDbEntity
  8
SANINDUSA
100
AcDbPolyline
 90
        3
 70
   128
 43
0.0
 10
105.9875304025591
 20
143.083117862084
 10
105.9748936038618
 20
143.0827645682177
 10
105.9653110031027
 20
143.0827034958028
  0
LINE
  5
11FA
330
1F
100
AcDbEntity
  8
SANINDUSA
100
AcDbLine
 10
105.8366851076586
 20
143.0655389043751
 30
0.0
 11
105.8366851076586
 21
143.0491345066903
 31
0.0
  0
LINE
  5
11FB
330
1F
100
AcDbEntity
  8
SANINDUSA
100
AcDbLine
 10
105.8816851076586
 20
143.0491345066903
 30
0.0
 11
105.8816851076586
 21
143.0828439564632
 31
0.0
  0
LINE
  5
11FC
330
1F
100
AcDbEntity
  8
SANINDUSA
100
AcDbLine
 10
105.8941851076586
 20
143.0762819301159
 30
0.0
 11
105.8941851076586
 21
143.0491345066903
 31
0.0
  0
LWPOLYLINE
  5
11FD
330
1F
100
AcDbEntity
  8
SANINDUSA
100
AcDbPolyline
 90
        7
 70
   128
 43
0.0
 10
105.8872176871567
 20
143.0994324911389
 10
105.8836703116308
 20
143.0998403958988
 10
105.8778513364556
 20
143.1006126357045
 10
105.8715380436846
 20
143.1015650509053
 10
105.8649668492188
 20
143.1026756566822
 10
105.8582753413502
 20
143.1039347258039
 10
105.8533320504036
 20
143.1049669112271
  0
LWPOLYLINE
  5
1201
330
1F
100
AcDbEntity
  8
SANINDUSA
100
AcDbPolyline
 90
        3
 70
   128
 43
0.0
 10
105.8935720138829
 20
143.0961345040864
 10
105.8899660273161
 20
143.0927644510806
 10
105.8832724795438
 20
143.0865055890889
  0
LWPOLYLINE
  5
1202
330
1F
100
AcDbEntity
  8
SANINDUSA
100
AcDbPolyline
 90
        8
 70
   128
 43
0.0
 10
105.8870018855178
 20
143.0994581906878
 10
105.8884957284313
 20
143.0992919372306
 10
105.8908357735027
 20
143.0990542192921
 10
105.8929559217169
 20
143.0988616330601
 10
105.8948177814856
 20
143.0987154840091
 10
105.8963813068979
 20
143.0986157729815
 10
105.8974973730478
 20
143.0985639957751
 10
105.8981381072931
 20
143.0985474663758
  0
LWPOLYLINE
  5
1203
330
1F
100
AcDbEntity
  8
SANINDUSA
100
AcDbPolyline
 90
        4
 70
   128
 43
0.0
 10
105.8832724795438
 20
143.0865055890889
 10
105.8821839339533
 20
143.0850254983121
 10
105.8817171696365
 20
143.0834104619112
 10
105.8816851076586
 20
143.0828439564632
  0
LINE
  5
1205
330
1F
100
AcDbEntity
  8
SANINDUSA
100
AcDbLine
 10
105.8241851076586
 20
143.0775015888929
 30
0.0
 11
105.8241851076586
 21
143.1024762853145
 31
0.0
  0
LINE
  5
1206
330
1F
100
AcDbEntity
  8
SANINDUSA
100
AcDbLine
 10
105.8366851076586
 20
143.0986719667631
 30
0.0
 11
105.8366851076586
 21
143.0775846006309
 31
0.0
  0
LWPOLYLINE
  5
1208
330
1F
100
AcDbEntity
  8
SANINDUSA
100
AcDbPolyline
 90
        3
 70
   128
 43
0.0
 10
105.8358283601451
 20
143.1015001115084
 10
105.8329502432205
 20
143.1057974642354
 10
105.829363358119
 20
143.1111484537323
  0
LWPOLYLINE
  5
1209
330
1F
100
AcDbEntity
  8
SANINDUSA
100
AcDbPolyline
 90
       13
 70
   128
 43
0.0
 10
105.8283907451404
 20
143.1121734096631
 10
105.8287240462686
 20
143.1120117664543
 10
105.8296316500076
 20
143.1116129248723
 10
105.8308615027068
 20
143.1111204338909
 10
105.8324069806891
 20
143.1105535396448
 10
105.8342460361033
 20
143.1099317126666
 10
105.8363307632637
 20
143.1092759365429
 10
105.8386998803483
 20
143.1085780243469
 10
105.8413233412427
 20
143.1078512900115
 10
105.8441680679437
 20
143.1071080839915
 10
105.8471968648388
 20
143.1063604201797
 10
105.8503694859659
 20
143.1056198499272
 10
105.8533935573768
 20
143.1049524732969
  0
LWPOLYLINE
  5
120A
330
1F
100
AcDbEntity
  8
SANINDUSA
100
AcDbPolyline
 90
        3
 70
   128
 43
0.0
 10
105.8366851076586
 20
143.098671966763
 10
105.8364808232732
 20
143.1001021318003
 10
105.8358283601451
 20
143.1015001115084
  0
LWPOLYLINE
  5
120B
330
1F
100
AcDbEntity
  8
SANINDUSA
100
AcDbPolyline
 90
        3
 70
   128
 43
0.0
 10
105.829363358119
 20
143.1111484537323
 10
105.8270607103292
 20
143.1135750227381
 10
105.8240329090595
 20
143.1151179489098
  0
LINE
  5
120D
330
1F
100
AcDbEntity
  8
SANINDUSA
100
AcDbLine
 10
105.8356053679148
 20
143.0765871773104
 30
0.0
 11
105.8241851076586
 21
143.0775015888929
 31
0.0
  0
ARC
  5
120E
330
1F
100
AcDbEntity
  8
SANINDUSA
100
AcDbCircle
 10
105.8356849467529
 20
143.0775841673974
 30
0.0
 40
0.0010001609994973
100
AcDbArc
 50
265.4363785402987
 51
0.0248184584946395
  0
LWPOLYLINE
  5
1214
330
1F
100
AcDbEntity
  8
SANINDUSA
100
AcDbPolyline
 90
        7
 70
   128
 43
0.0
 10
105.8405244976226
 20
143.0766969462282
 10
105.8410858333938
 20
143.0766022227617
 10
105.8417218008222
 20
143.0763434625298
 10
105.8421337925918
 20
143.0760409535642
 10
105.8423274676483
 20
143.0757873105844
 10
105.8423915962295
 20
143.0756132952589
 10
105.8424031891482
 20
143.0755088366781
  0
LINE
  5
1215
330
1F
100
AcDbEntity
  8
SANINDUSA
100
AcDbLine
 10
105.8424031891482
 20
143.0755088366781
 30
0.0
 11
105.8421332111245
 21
143.067490211049
 31
0.0
  0
LWPOLYLINE
  5
1218
330
1F
100
AcDbEntity
  8
SANINDUSA
100
AcDbPolyline
 90
        4
 70
   128
 43
0.0
 10
105.8369380132158
 20
143.0767445476254
 10
105.8364975029158
 20
143.0767321343816
 10
105.8361339863755
 20
143.0767022838063
 10
105.8360590445757
 20
143.0766904124779
  0
LWPOLYLINE
  5
1219
330
1F
100
AcDbEntity
  8
SANINDUSA
100
AcDbPolyline
 90
        5
 70
   128
 43
0.0
 10
105.8405693137028
 20
143.0766937635702
 10
105.8397356064984
 20
143.0767204614086
 10
105.8383591660642
 20
143.0767505892821
 10
105.8372706264217
 20
143.0767539204115
 10
105.8369380132158
 20
143.0767445476254
  0
LWPOLYLINE
  5
121A
330
1F
100
AcDbEntity
  8
SANINDUSA
100
AcDbPolyline
 90
        6
 70
   128
 43
0.0
 10
105.8405747801707
 20
143.0666474442986
 10
105.8388863287811
 20
143.0666938630214
 10
105.8375415529189
 20
143.0667058716089
 10
105.8365631316599
 20
143.0666832675414
 10
105.8359675656646
 20
143.0666264320268
 10
105.8357648989014
 20
143.0665363235721
  0
LWPOLYLINE
  5
121B
330
1F
100
AcDbEntity
  8
SANINDUSA
100
AcDbPolyline
 90
        6
 70
   128
 43
0.0
 10
105.8366851076586
 20
143.0655389043751
 10
105.8366286824873
 20
143.0658702738177
 10
105.8364657425412
 20
143.0661642848968
 10
105.8362147096545
 20
143.0663876780427
 10
105.8359040503277
 20
143.0665152404405
 10
105.8357648989014
 20
143.0665363235721
  0
LWPOLYLINE
  5
121C
330
1F
100
AcDbEntity
  8
SANINDUSA
100
AcDbPolyline
 90
        7
 70
   128
 43
0.0
 10
105.8421332111245
 20
143.067490211049
 10
105.842106806807
 20
143.0673182307314
 10
105.842009493891
 20
143.0671369123927
 10
105.8419660031732
 20
143.0670849725065
 10
105.8416771903276
 20
143.0668670412681
 10
105.8411911807182
 20
143.0666939833981
 10
105.8405747801707
 20
143.0666474442986
  0
LINE
  5
1220
330
1F
100
AcDbEntity
  8
SANINDUSA
100
AcDbLine
 10
105.8356851076586
 20
143.0481345066903
 30
0.0
 11
105.8826851076586
 21
143.0481345066903
 31
0.0
  0
LINE
  5
1222
330
1F
100
AcDbEntity
  8
SANINDUSA
100
AcDbLine
 10
105.8931851076586
 20
143.0481345066903
 30
0.0
 11
105.8826851076586
 21
143.0481345066903
 31
0.0
  0
ARC
  5
1223
330
1F
100
AcDbEntity
  8
SANINDUSA
100
AcDbCircle
 10
105.8931851076586
 20
143.0491345066903
 30
0.0
 40
0.0010000000000002
100
AcDbArc
 50
270.0
 51
359.9999999999992
  0
ARC
  5
1224
330
1F
100
AcDbEntity
  8
SANINDUSA
100
AcDbCircle
 10
105.8826851076586
 20
143.0491345066903
 30
0.0
 40
0.0010000000000001
100
AcDbArc
 50
180.0
 51
270.0
  0
LINE
  5
1225
330
1F
100
AcDbEntity
  8
SANINDUSA
100
AcDbLine
 10
105.8356851076586
 20
143.0481345066903
 30
0.0
 11
105.8251851076587
 21
143.0481345066903
 31
0.0
  0
ARC
  5
1226
330
1F
100
AcDbEntity
  8
SANINDUSA
100
AcDbCircle
 10
105.8356851076586
 20
143.0491345066903
 30
0.0
 40
0.0010000000000002
100
AcDbArc
 50
270.0
 51
359.9999999999992
  0
LWPOLYLINE
  5
1228
330
1F
100
AcDbEntity
  8
SANINDUSA
100
AcDbPolyline
 90
        6
 70
   128
 43
0.0
 10
105.8241851076586
 20
143.0538906118334
 10
105.8238465450645
 20
143.0558789999701
 10
105.8228688161758
 20
143.0576432211446
 10
105.8213625810688
 20
143.0589835029578
 10
105.8194988077056
 20
143.0597486718962
 10
105.8186642319405
 20
143.0598750968432
  0
LINE
  5
1229
330
1F
100
AcDbEntity
  8
SANINDUSA
100
AcDbLine
 10
105.8241851076586
 20
143.0491345066903
 30
0.0
 11
105.8241851076586
 21
143.0538906118334
 31
0.0
  0
ARC
  5
122A
330
1F
100
AcDbEntity
  8
SANINDUSA
100
AcDbCircle
 10
105.8251851076586
 20
143.0491345066903
 30
0.0
 40
0.0010000000000001
100
AcDbArc
 50
180.0
 51
270.0
  0
ARC
  5
122B
330
1F
100
AcDbEntity
  8
SANINDUSA
100
AcDbCircle
 10
105.7819925660221
 20
143.0878983220573
 30
0.0
 40
0.0250069208498557
100
AcDbArc
 50
188.7434066537519
 51
265.4077627816723
  0
ARC
  5
1230
330
1F
100
AcDbEntity
  8
SANINDUSA
100
AcDbCircle
 10
105.7819900970374
 20
143.0879012692319
 30
0.0
 40
0.0170048160333361
100
AcDbArc
 50
188.743699313988
 51
265.4074701214328
  0
LINE
  5
1237
330
1F
100
AcDbEntity
  8
SANINDUSA
100
AcDbLine
 10
105.6391851076586
 20
143.0901345066903
 30
0.0
 11
105.6391851076586
 21
143.2261345066903
 31
0.0
  0
LINE
  5
1238
330
1F
100
AcDbEntity
  8
SANINDUSA
100
AcDbLine
 10
105.6648063952147
 20
143.0934361605022
 30
0.0
 11
105.6786673680286
 21
143.2117164618471
 31
0.0
  0
LINE
  5
123A
330
1F
100
AcDbEntity
  8
SANINDUSA
100
AcDbLine
 10
105.7651829070113
 20
143.0853162872681
 30
0.0
 11
105.7450344472445
 21
143.2161345066903
 31
0.0
  0
LINE
  5
123B
330
1F
100
AcDbEntity
  8
SANINDUSA
100
AcDbLine
 10
105.757276250359
 20
143.0840970287991
 30
0.0
 11
105.7375928707384
 21
143.2118956150921
 31
0.0
  0
LINE
  5
123C
330
1F
100
AcDbEntity
  8
SANINDUSA
100
AcDbLine
 10
105.6856851076586
 20
143.2161345066903
 30
0.0
 11
105.7226851076586
 21
143.2161345066903
 31
0.0
  0
LINE
  5
123E
330
1F
100
AcDbEntity
  8
SANINDUSA
100
AcDbLine
 10
105.7226851076586
 20
143.2281345066903
 30
0.0
 11
105.7112308646024
 21
143.2281345066903
 31
0.0
  0
LWPOLYLINE
  5
1242
330
1F
100
AcDbEntity
  8
SANINDUSA
100
AcDbPolyline
 90
       20
 70
   128
 43
0.0
 10
105.7587281567076
 20
143.2115727297571
 10
105.7584977735245
 20
143.2111428086735
 10
105.7583929515429
 20
143.2103494711066
 10
105.758350290484
 20
143.2091805385342
 10
105.7583757965536
 20
143.2076635238921
 10
105.7584733312214
 20
143.2058476360933
 10
105.7586464497056
 20
143.2037887070546
 10
105.7588952098058
 20
143.2015440160112
 10
105.7592164621709
 20
143.1991930113068
 10
105.7596050800064
 20
143.1967897574111
 10
105.7600510633697
 20
143.1944138871151
 10
105.7605427949749
 20
143.1921198787375
 10
105.7610674474878
 20
143.1899661762635
 10
105.7616053192596
 20
143.1880158317921
 10
105.7621425712356
 20
143.1863086550831
 10
105.7626536995835
 20
143.1849070359702
 10
105.7631220934834
 20
143.1838455492961
 10
105.7635248879946
 20
143.183163045584
 10
105.7639013867215
 20
143.1828773811906
 10
105.7639025804179
 20
143.1828774548973
  0
LINE
  5
1245
330
1F
100
AcDbEntity
  8
SANINDUSA
100
AcDbLine
 10
105.7598642105127
 20
143.2106932683718
 30
0.0
 11
105.7698083889304
 21
143.2120844228654
 31
0.0
  0
LINE
  5
1246
330
1F
100
AcDbEntity
  8
SANINDUSA
100
AcDbLine
 10
105.7619750625255
 20
143.2281345066903
 30
0.0
 11
105.7226851076586
 21
143.2281345066903
 31
0.0
  0
LWPOLYLINE
  5
1247
330
1F
100
AcDbEntity
  8
SANINDUSA
100
AcDbPolyline
 90
        6
 70
   128
 43
0.0
 10
105.7699808716697
 20
143.2207124808274
 10
105.7693401056924
 20
143.2233152902681
 10
105.7678743990281
 20
143.2255593895584
 10
105.7657461879431
 20
143.2271965940229
 10
105.7631886067669
 20
143.2280425452978
 10
105.7619750625256
 20
143.2281345066903
  0
LINE
  5
1248
330
1F
100
AcDbEntity
  8
SANINDUSA
100
AcDbLine
 10
105.7699808716697
 20
143.2207124808274
 30
0.0
 11
105.7706675420273
 21
143.2131843394216
 31
0.0
  0
ARC
  5
124A
330
1F
100
AcDbEntity
  8
SANINDUSA
100
AcDbCircle
 10
105.7696712736346
 20
143.2130770284064
 30
0.0
 40
0.001002031119422
100
AcDbArc
 50
277.8648791216995
 51
6.147795250319718
  0
LINE
  5
124B
330
1F
100
AcDbEntity
  8
SANINDUSA
100
AcDbLine
 10
105.7216851076586
 20
143.2171345066903
 30
0.0
 11
105.7216851076586
 21
143.2271345066903
 31
0.0
  0
ARC
  5
124C
330
1F
100
AcDbEntity
  8
SANINDUSA
100
AcDbCircle
 10
105.7226851076586
 20
143.2271345066903
 30
0.0
 40
0.0010000000000001
100
AcDbArc
 50
90.00000000000003
 51
180.0
  0
ARC
  5
124D
330
1F
100
AcDbEntity
  8
SANINDUSA
100
AcDbCircle
 10
105.7326510959501
 20
143.2111344566706
 30
0.0
 40
0.005000050019805
100
AcDbArc
 50
8.756189859874245
 51
90.00000000000003
  0
LINE
  5
124E
330
1F
100
AcDbEntity
  8
SANINDUSA
100
AcDbLine
 10
105.7582719117286
 20
143.2161345066903
 30
0.0
 11
105.7450344472445
 21
143.2161345066903
 31
0.0
  0
LINE
  5
124F
330
1F
100
AcDbEntity
  8
SANINDUSA
100
AcDbLine
 10
105.7582719117286
 20
143.2161345066903
 30
0.0
 11
105.7587281567076
 21
143.2115727297571
 31
0.0
  0
ARC
  5
1250
330
1F
100
AcDbEntity
  8
SANINDUSA
100
AcDbCircle
 10
105.7597230466175
 20
143.2116844039946
 30
0.0
 40
0.0010011378866559
100
AcDbArc
 50
186.4045188557907
 51
278.1059156792536
  0
LINE
  5
1251
330
1F
100
AcDbEntity
  8
SANINDUSA
100
AcDbLine
 10
105.7326510673796
 20
143.2161345066903
 30
0.0
 11
105.7226851076586
 21
143.2161345066903
 31
0.0
  0
ARC
  5
1252
330
1F
100
AcDbEntity
  8
SANINDUSA
100
AcDbCircle
 10
105.7226851076586
 20
143.2171345066903
 30
0.0
 40
0.0010000000000001
100
AcDbArc
 50
180.0
 51
270.0
  0
LINE
  5
1253
330
1F
100
AcDbEntity
  8
SANINDUSA
100
AcDbLine
 10
105.7639025804179
 20
143.1828774548973
 30
0.0
 11
105.7682014304945
 21
143.1681345066903
 31
0.0
  0
ARC
  5
1254
330
1F
100
AcDbEntity
  8
SANINDUSA
100
AcDbCircle
 10
105.7648751591795
 20
143.1831193810853
 30
0.0
 40
0.0010022164077988
100
AcDbArc
 50
97.8137414105698
 51
193.9686626990778
  0
LINE
  5
1257
330
1F
100
AcDbEntity
  8
SANINDUSA
100
AcDbLine
 10
105.6856851076586
 20
143.2281345066903
 30
0.0
 11
105.6411851076586
 21
143.2281345066903
 31
0.0
  0
LINE
  5
1258
330
1F
100
AcDbEntity
  8
SANINDUSA
100
AcDbLine
 10
105.6866851076586
 20
143.2271345066903
 30
0.0
 11
105.6866851076586
 21
143.2171345066903
 31
0.0
  0
LINE
  5
1259
330
1F
100
AcDbEntity
  8
SANINDUSA
100
AcDbLine
 10
105.7112308646024
 20
143.2281345066903
 30
0.0
 11
105.6856851076586
 21
143.2281345066903
 31
0.0
  0
ARC
  5
125C
330
1F
100
AcDbEntity
  8
SANINDUSA
100
AcDbCircle
 10
105.6856851076586
 20
143.2271345066903
 30
0.0
 40
0.0010000000000008
100
AcDbArc
 50
359.9999999999992
 51
90.00000000000003
  0
ARC
  5
125F
330
1F
100
AcDbEntity
  8
SANINDUSA
100
AcDbCircle
 10
105.683633385366
 20
143.2111345066903
 30
0.0
 40
0.0050000000000001
100
AcDbArc
 50
90.00000000000003
 51
173.3161358919659
  0
ARC
  5
1260
330
1F
100
AcDbEntity
  8
SANINDUSA
100
AcDbCircle
 10
105.6856851076586
 20
143.2171345066903
 30
0.0
 40
0.0010000000000008
100
AcDbArc
 50
270.0
 51
359.9999999999992
  0
LINE
  5
1261
330
1F
100
AcDbEntity
  8
SANINDUSA
100
AcDbLine
 10
105.6856851076586
 20
143.2161345066903
 30
0.0
 11
105.683633385366
 21
143.2161345066903
 31
0.0
  0
ARC
  5
1262
330
1F
100
AcDbEntity
  8
SANINDUSA
100
AcDbCircle
 10
105.6411851076586
 20
143.2261345066903
 30
0.0
 40
0.0020000000000005
100
AcDbArc
 50
90.00000000000003
 51
180.0
  0
LINE
  5
1263
330
1F
100
AcDbEntity
  8
SANINDUSA
100
AcDbLine
 10
105.6798192119586
 20
143.0881345066903
 30
0.0
 11
105.7566544030261
 21
143.0881345066903
 31
0.0
  0
LINE
  5
126A
330
1F
100
AcDbEntity
  8
SANINDUSA
100
AcDbLine
 10
105.6588471744098
 20
143.0881345066903
 30
0.0
 11
105.6798192119586
 21
143.0881345066903
 31
0.0
  0
ARC
  5
126D
330
1F
100
AcDbEntity
  8
SANINDUSA
100
AcDbCircle
 10
105.6588471744098
 20
143.0941345066903
 30
0.0
 40
0.0060000000000002
100
AcDbArc
 50
270.0
 51
353.3161358919666
  0
LINE
  5
126F
330
1F
100
AcDbEntity
  8
SANINDUSA
100
AcDbLine
 10
105.6411851076586
 20
143.0881345066903
 30
0.0
 11
105.6588471744098
 21
143.0881345066903
 31
0.0
  0
ARC
  5
1270
330
1F
100
AcDbEntity
  8
SANINDUSA
100
AcDbCircle
 10
105.6411851076586
 20
143.0901345066903
 30
0.0
 40
0.0020000000000005
100
AcDbArc
 50
180.0
 51
270.0
  0
LINE
  5
1274
330
1F
100
AcDbEntity
  8
SANINDUSA
100
AcDbLine
 10
106.19596004266
 20
143.1781345066903
 30
0.0
 11
106.19596004266
 21
143.2181345066903
 31
0.0
  0
LINE
  5
1275
330
1F
100
AcDbEntity
  8
SANINDUSA
100
AcDbLine
 10
106.19596004266
 20
143.2181345066903
 30
0.0
 11
106.1698357268063
 21
143.2181345066903
 31
0.0
  0
LWPOLYLINE
  5
1276
330
1F
100
AcDbEntity
  8
SANINDUSA
100
AcDbPolyline
 90
        5
 70
   128
 43
0.0
 10
106.1698357268063
 20
143.2181345066903
 10
106.1684246722035
 20
143.208603802365
 10
106.1659683415064
 20
143.1973568532328
 10
106.1626795761754
 20
143.1862613758453
 10
106.1585067934521
 20
143.1754258329014
  0
LINE
  5
1277
330
1F
100
AcDbEntity
  8
SANINDUSA
100
AcDbLine
 10
106.19596004266
 20
143.1781345066903
 30
0.0
 11
106.1691473937908
 21
143.1781345066903
 31
0.0
  0
ARC
  5
1278
330
1F
100
AcDbEntity
  8
SANINDUSA
100
AcDbCircle
 10
106.1691358722944
 20
143.1480479555448
 30
0.0
 40
0.0300865544498695
100
AcDbArc
 50
89.96713557030259
 51
109.9870373821946
  0
LINE
  5
1279
330
1F
100
AcDbEntity
  8
SANINDUSA
100
AcDbLine
 10
105.6552885522439
 20
143.0981345066903
 30
0.0
 11
105.6687353333537
 21
143.2128803721605
 31
0.0
  0
LINE
  5
127A
330
1F
100
AcDbEntity
  8
SANINDUSA
100
AcDbLine
 10
105.6491851076586
 20
143.0981345066903
 30
0.0
 11
105.6491851076586
 21
143.2181345066903
 31
0.0
  0
LINE
  5
127B
330
1F
100
AcDbEntity
  8
SANINDUSA
100
AcDbLine
 10
105.6703668862045
 20
143.2181345066903
 30
0.0
 11
105.6491851076586
 21
143.2181345066903
 31
0.0
  0
ARC
  5
127C
330
1F
100
AcDbEntity
  8
SANINDUSA
100
AcDbCircle
 10
105.683633385366
 20
143.2111345066903
 30
0.0
 40
0.0150000000000001
100
AcDbArc
 50
152.1818607153638
 51
173.3161358919659
  0
LINE
  5
127D
330
1F
100
AcDbEntity
  8
SANINDUSA
100
AcDbLine
 10
105.6491851076586
 20
143.0981345066903
 30
0.0
 11
105.6552885522439
 21
143.0981345066903
 31
0.0
  0
ENDSEC
  0
SECTION
  2
OBJECTS
  0
DICTIONARY
  5
C
330
0
100
AcDbDictionary
281
     1
  3
ACAD_COLOR
350
12AF
  3
ACAD_GROUP
350
D
  3
ACAD_LAYOUT
350
1A
  3
ACAD_MATERIAL
350
1282
  3
ACAD_MLEADERSTYLE
350
12C4
  3
ACAD_MLINESTYLE
350
17
  3
ACAD_PLOTSETTINGS
350
19
  3
ACAD_PLOTSTYLENAME
350
E
  3
ACAD_SCALELIST
350
12B2
  3
ACAD_TABLESTYLE
350
12B0
  3
ACAD_VISUALSTYLE
350
129B
  3
ACDB_RECOMPOSE_DATA
350
12F2
  3
AcDbVariableDictionary
350
3D
  3
ASE_INDEX_DICTIONARY
350
FCE
  3
DWGPROPS
350
12F3
  0
DICTIONARY
  5
12CA
330
10
100
AcDbDictionary
280
     1
281
     1
  3
ADSK_XREC_LAYER_RECONCILED
360
12CB
  0
DICTIONARY
  5
12CC
330
2F
100
AcDbDictionary
280
     1
281
     1
  3
ADSK_XREC_LAYER_RECONCILED
360
12CD
  0
DICTIONARY
  5
12CE
330
30
100
AcDbDictionary
280
     1
281
     1
  3
ADSK_XREC_LAYER_RECONCILED
360
12CF
  0
DICTIONARY
  5
12D0
330
31
100
AcDbDictionary
280
     1
281
     1
  3
ADSK_XREC_LAYER_RECONCILED
360
12D1
  0
DICTIONARY
  5
12D2
330
32
100
AcDbDictionary
280
     1
281
     1
  3
ADSK_XREC_LAYER_RECONCILED
360
12D3
  0
DICTIONARY
  5
12D4
330
33
100
AcDbDictionary
280
     1
281
     1
  3
ADSK_XREC_LAYER_RECONCILED
360
12D5
  0
DICTIONARY
  5
12D6
330
34
100
AcDbDictionary
280
     1
281
     1
  3
ADSK_XREC_LAYER_RECONCILED
360
12D7
  0
DICTIONARY
  5
12D8
330
35
100
AcDbDictionary
280
     1
281
     1
  3
ADSK_XREC_LAYER_RECONCILED
360
12D9
  0
DICTIONARY
  5
12DA
330
36
100
AcDbDictionary
280
     1
281
     1
  3
ADSK_XREC_LAYER_RECONCILED
360
12DB
  0
DICTIONARY
  5
12DC
330
37
100
AcDbDictionary
280
     1
281
     1
  3
ADSK_XREC_LAYER_RECONCILED
360
12DD
  0
DICTIONARY
  5
12DE
330
5D6
100
AcDbDictionary
280
     1
281
     1
  3
ADSK_XREC_LAYER_RECONCILED
360
12DF
  0
DICTIONARY
  5
12E0
330
8AF
100
AcDbDictionary
280
     1
281
     1
  3
ADSK_XREC_LAYER_RECONCILED
360
12E1
  0
DICTIONARY
  5
12E2
330
8F8
100
AcDbDictionary
280
     1
281
     1
  3
ADSK_XREC_LAYER_RECONCILED
360
12E3
  0
DICTIONARY
  5
12E4
330
91D
100
AcDbDictionary
280
     1
281
     1
  3
ADSK_XREC_LAYER_RECONCILED
360
12E5
  0
DICTIONARY
  5
12E6
330
F2D
100
AcDbDictionary
280
     1
281
     1
  3
ADSK_XREC_LAYER_RECONCILED
360
12E7
  0
DICTIONARY
  5
12E8
330
FCD
100
AcDbDictionary
280
     1
281
     1
  3
ADSK_XREC_LAYER_RECONCILED
360
12E9
  0
DICTIONARY
  5
12AF
102
{ACAD_REACTORS
330
C
102
}
330
C
100
AcDbDictionary
281
     1
  0
DICTIONARY
  5
D
102
{ACAD_REACTORS
330
C
102
}
330
C
100
AcDbDictionary
281
     1
  0
DICTIONARY
  5
1A
102
{ACAD_REACTORS
330
C
102
}
330
C
100
AcDbDictionary
281
     1
  3
Layout1
350
1E
  3
Layout2
350
26
  3
Model
350
22
  0
DICTIONARY
  5
1282
102
{ACAD_REACTORS
330
C
102
}
330
C
100
AcDbDictionary
281
     1
  3
ByBlock
350
128B
  3
ByLayer
350
1283
  3
Global
350
1293
  0
DICTIONARY
  5
12C4
102
{ACAD_REACTORS
330
C
102
}
330
C
100
AcDbDictionary
281
     1
  3
Standard
350
12C5
  0
DICTIONARY
  5
17
102
{ACAD_REACTORS
330
C
102
}
330
C
100
AcDbDictionary
281
     1
  3
Standard
350
18
  0
DICTIONARY
  5
19
102
{ACAD_REACTORS
330
C
102
}
330
C
100
AcDbDictionary
281
     1
  0
ACDBDICTIONARYWDFLT
  5
E
102
{ACAD_REACTORS
330
C
102
}
330
C
100
AcDbDictionary
281
     1
  3
Normal
350
F
100
AcDbDictionaryWithDefault
340
F
  0
DICTIONARY
  5
12B2
102
{ACAD_REACTORS
330
C
102
}
330
C
100
AcDbDictionary
281
     1
  3
A0
350
12B3
  3
A1
350
12B4
  3
A2
350
12B5
  3
A3
350
12B6
  3
A4
350
12B7
  3
A5
350
12B8
  3
A6
350
12B9
  3
A7
350
12BA
  3
A8
350
12BB
  3
A9
350
12BC
  3
B0
350
12BD
  3
B1
350
12BE
  3
B2
350
12BF
  3
B3
350
12C0
  3
B4
350
12C1
  3
B5
350
12C2
  3
B6
350
12C3
  0
DICTIONARY
  5
12B0
102
{ACAD_REACTORS
330
C
102
}
330
C
100
AcDbDictionary
281
     1
  3
Standard
350
12B1
  0
DICTIONARY
  5
129B
102
{ACAD_REACTORS
330
C
102
}
330
C
100
AcDbDictionary
281
     1
  3
2dWireframe
350
12A1
  3
3D Hidden
350
12A3
  3
3dWireframe
350
12A2
  3
Basic
350
12A0
  3
Brighten
350
12A7
  3
ColorChange
350
12AB
  3
Conceptual
350
12A4
  3
Dim
350
12A6
  3
EdgeColorOff
350
12AE
  3
Facepattern
350
12AA
  3
Flat
350
129C
  3
FlatWithEdges
350
129D
  3
Gouraud
350
129E
  3
GouraudWithEdges
350
129F
  3
JitterOff
350
12AC
  3
Linepattern
350
12A9
  3
OverhangOff
350
12AD
  3
Realistic
350
12A5
  3
Thicken
350
12A8
  0
XRECORD
  5
12F2
102
{ACAD_REACTORS
330
C
102
}
330
C
100
AcDbXrecord
280
     1
 90
        1
330
12B1
  0
DICTIONARY
  5
3D
102
{ACAD_REACTORS
330
C
102
}
330
C
100
AcDbDictionary
281
     1
  3
CANNOSCALE
350
12EC
  3
CMLEADERSTYLE
350
12EB
  3
CTABLESTYLE
350
12EA
  3
DIMASSOC
350
3F
  3
HIDETEXT
350
3E
  3
INDEXCTL
350
12EE
  3
SORTENTS
350
12ED
  3
XCLIPFRAME
350
12EF
  0
DICTIONARY
  5
FCE
102
{ACAD_REACTORS
330
C
102
}
330
C
100
AcDbDictionary
281
     1
  3
ASEBlockHierarchyIndexRecord
350
FCF
1001
DCO15
1040
1757681058.89
  0
XRECORD
  5
12F3
102
{ACAD_REACTORS
330
C
102
}
330
C
100
AcDbXrecord
280
     1
  1
DWGPROPS COOKIE
  2

  3

  4

  6

  7

  8
Julio
  9

300
=
301
=
302
=
303
=
304
=
305
=
306
=
307
=
308
=
309
=
 40
0.0286172453703704
 41
2453480.737774885
 42
2456146.742626042
  1

 90
        0
  0
XRECORD
  5
12CB
102
{ACAD_REACTORS
330
12CA
102
}
330
12CA
100
AcDbXrecord
280
     1
290
     1
  0
XRECORD
  5
12CD
102
{ACAD_REACTORS
330
12CC
102
}
330
12CC
100
AcDbXrecord
280
     1
290
     1
  0
XRECORD
  5
12CF
102
{ACAD_REACTORS
330
12CE
102
}
330
12CE
100
AcDbXrecord
280
     1
290
     1
  0
XRECORD
  5
12D1
102
{ACAD_REACTORS
330
12D0
102
}
330
12D0
100
AcDbXrecord
280
     1
290
     1
  0
XRECORD
  5
12D3
102
{ACAD_REACTORS
330
12D2
102
}
330
12D2
100
AcDbXrecord
280
     1
290
     1
  0
XRECORD
  5
12D5
102
{ACAD_REACTORS
330
12D4
102
}
330
12D4
100
AcDbXrecord
280
     1
290
     1
  0
XRECORD
  5
12D7
102
{ACAD_REACTORS
330
12D6
102
}
330
12D6
100
AcDbXrecord
280
     1
290
     1
  0
XRECORD
  5
12D9
102
{ACAD_REACTORS
330
12D8
102
}
330
12D8
100
AcDbXrecord
280
     1
290
     1
  0
XRECORD
  5
12DB
102
{ACAD_REACTORS
330
12DA
102
}
330
12DA
100
AcDbXrecord
280
     1
290
     1
  0
XRECORD
  5
12DD
102
{ACAD_REACTORS
330
12DC
102
}
330
12DC
100
AcDbXrecord
280
     1
290
     1
  0
XRECORD
  5
12DF
102
{ACAD_REACTORS
330
12DE
102
}
330
12DE
100
AcDbXrecord
280
     1
290
     1
  0
XRECORD
  5
12E1
102
{ACAD_REACTORS
330
12E0
102
}
330
12E0
100
AcDbXrecord
280
     1
290
     1
  0
XRECORD
  5
12E3
102
{ACAD_REACTORS
330
12E2
102
}
330
12E2
100
AcDbXrecord
280
     1
290
     1
  0
XRECORD
  5
12E5
102
{ACAD_REACTORS
330
12E4
102
}
330
12E4
100
AcDbXrecord
280
     1
290
     1
  0
XRECORD
  5
12E7
102
{ACAD_REACTORS
330
12E6
102
}
330
12E6
100
AcDbXrecord
280
     1
290
     1
  0
XRECORD
  5
12E9
102
{ACAD_REACTORS
330
12E8
102
}
330
12E8
100
AcDbXrecord
280
     1
290
     1
  0
LAYOUT
  5
1E
102
{ACAD_XDICTIONARY
360
12F4
102
}
102
{ACAD_REACTORS
330
1A
102
}
330
1A
100
AcDbPlotSettings
  1

  2
Ploter HP500
  4

  6

 40
0.0
 41
0.0
 42
0.0
 43
0.0
 44
0.0
 45
0.0
 46
0.0
 47
0.0
 48
0.0
 49
0.0
140
0.0
141
0.0
142
1.0
143
1.0
 70
   688
 72
     0
 73
     0
 74
     5
  7
monochrome.ctb
 75
    16
147
1.0
148
0.0
149
0.0
100
AcDbLayout
  1
Layout1
 70
     1
 71
     1
 10
0.0
 20
0.0
 11
420.0
 21
297.0
 12
0.0
 22
0.0
 32
0.0
 14
1.000000000000000E+20
 24
1.000000000000000E+20
 34
1.000000000000000E+20
 15
-1.000000000000000E+20
 25
-1.000000000000000E+20
 35
-1.000000000000000E+20
146
0.0
 13
0.0
 23
0.0
 33
0.0
 16
1.0
 26
0.0
 36
0.0
 17
0.0
 27
1.0
 37
0.0
 76
     0
330
1B
  0
LAYOUT
  5
26
102
{ACAD_XDICTIONARY
360
12F8
102
}
102
{ACAD_REACTORS
330
1A
102
}
330
1A
100
AcDbPlotSettings
  1

  2
Ploter HP500
  4

  6

 40
0.0
 41
0.0
 42
0.0
 43
0.0
 44
0.0
 45
0.0
 46
0.0
 47
0.0
 48
0.0
 49
0.0
140
0.0
141
0.0
142
1.0
143
1.0
 70
   688
 72
     0
 73
     0
 74
     5
  7
monochrome.ctb
 75
    16
147
1.0
148
0.0
149
0.0
100
AcDbLayout
  1
Layout2
 70
     1
 71
     2
 10
0.0
 20
0.0
 11
12.0
 21
9.0
 12
0.0
 22
0.0
 32
0.0
 14
0.0
 24
0.0
 34
0.0
 15
0.0
 25
0.0
 35
0.0
146
0.0
 13
0.0
 23
0.0
 33
0.0
 16
1.0
 26
0.0
 36
0.0
 17
0.0
 27
1.0
 37
0.0
 76
     0
330
23
  0
LAYOUT
  5
22
102
{ACAD_XDICTIONARY
360
12F6
102
}
102
{ACAD_REACTORS
330
1A
102
}
330
1A
100
AcDbPlotSettings
  1

  2
Ploter HP500
  4
User268
  6

 40
4.995333194732666
 41
16.97565841674804
 42
4.995330810546875
 43
16.97567749023437
 44
209.9733276367187
 45
296.9259948730469
 46
0.0
 47
0.0
 48
0.0
 49
0.0
140
0.0
141
0.0
142
1.0
143
1.0
 70
 11952
 72
     1
 73
     1
 74
     0
  7

 75
     0
147
1.0
148
-427.5957866592534
149
7.362384574453926
100
AcDbLayout
  1
Model
 70
     1
 71
     0
 10
0.0
 20
0.0
 11
12.0
 21
9.0
 12
0.0
 22
0.0
 32
0.0
 14
0.0
 24
0.0
 34
0.0
 15
0.0
 25
0.0
 35
0.0
146
0.0
 13
0.0
 23
0.0
 33
0.0
 16
1.0
 26
0.0
 36
0.0
 17
0.0
 27
1.0
 37
0.0
 76
     0
330
1F
331
1280
  0
MATERIAL
  5
128B
102
{ACAD_XDICTIONARY
360
128C
102
}
102
{ACAD_REACTORS
330
1282
102
}
330
1282
100
AcDbMaterial
  1
ByBlock
 72
     0
 43
0.0008202099737533
 43
0.0
 43
0.0
 43
0.0
 43
0.0
 43
0.0008202099737533
 43
0.0
 43
0.0
 43
0.0
 43
0.0
 43
1.0
 43
0.0
 43
0.0
 43
0.0
 43
0.0
 43
1.0
 77
     0
 47
0.0008202099737533
 47
0.0
 47
0.0
 47
0.0
 47
0.0
 47
0.0008202099737533
 47
0.0
 47
0.0
 47
0.0
 47
0.0
 47
1.0
 47
0.0
 47
0.0
 47
0.0
 47
0.0
 47
1.0
171
     0
 49
0.0008202099737533
 49
0.0
 49
0.0
 49
0.0
 49
0.0
 49
0.0008202099737533
 49
0.0
 49
0.0
 49
0.0
 49
0.0
 49
1.0
 49
0.0
 49
0.0
 49
0.0
 49
0.0
 49
1.0
175
     0
142
0.0008202099737533
142
0.0
142
0.0
142
0.0
142
0.0
142
0.0008202099737533
142
0.0
142
0.0
142
0.0
142
0.0
142
1.0
142
0.0
142
0.0
142
0.0
142
0.0
142
1.0
179
     0
144
0.0008202099737533
144
0.0
144
0.0
144
0.0
144
0.0
144
0.0008202099737533
144
0.0
144
0.0
144
0.0
144
0.0
144
1.0
144
0.0
144
0.0
144
0.0
144
0.0
144
1.0
147
0.0008202099737533
147
0.0
147
0.0
147
0.0
147
0.0
147
0.0008202099737533
147
0.0
147
0.0
147
0.0
147
0.0
147
1.0
147
0.0
147
0.0
147
0.0
147
0.0
147
1.0
  0
MATERIAL
  5
1283
102
{ACAD_XDICTIONARY
360
1284
102
}
102
{ACAD_REACTORS
330
1282
102
}
330
1282
100
AcDbMaterial
  1
ByLayer
 72
     0
 43
0.0008202099737533
 43
0.0
 43
0.0
 43
0.0
 43
0.0
 43
0.0008202099737533
 43
0.0
 43
0.0
 43
0.0
 43
0.0
 43
1.0
 43
0.0
 43
0.0
 43
0.0
 43
0.0
 43
1.0
 77
     0
 47
0.0008202099737533
 47
0.0
 47
0.0
 47
0.0
 47
0.0
 47
0.0008202099737533
 47
0.0
 47
0.0
 47
0.0
 47
0.0
 47
1.0
 47
0.0
 47
0.0
 47
0.0
 47
0.0
 47
1.0
171
     0
 49
0.0008202099737533
 49
0.0
 49
0.0
 49
0.0
 49
0.0
 49
0.0008202099737533
 49
0.0
 49
0.0
 49
0.0
 49
0.0
 49
1.0
 49
0.0
 49
0.0
 49
0.0
 49
0.0
 49
1.0
175
     0
142
0.0008202099737533
142
0.0
142
0.0
142
0.0
142
0.0
142
0.0008202099737533
142
0.0
142
0.0
142
0.0
142
0.0
142
1.0
142
0.0
142
0.0
142
0.0
142
0.0
142
1.0
179
     0
144
0.0008202099737533
144
0.0
144
0.0
144
0.0
144
0.0
144
0.0008202099737533
144
0.0
144
0.0
144
0.0
144
0.0
144
1.0
144
0.0
144
0.0
144
0.0
144
0.0
144
1.0
147
0.0008202099737533
147
0.0
147
0.0
147
0.0
147
0.0
147
0.0008202099737533
147
0.0
147
0.0
147
0.0
147
0.0
147
1.0
147
0.0
147
0.0
147
0.0
147
0.0
147
1.0
  0
MATERIAL
  5
1293
102
{ACAD_XDICTIONARY
360
1294
102
}
102
{ACAD_REACTORS
330
1282
102
}
330
1282
100
AcDbMaterial
  1
Global
 72
     0
 43
0.0008202099737533
 43
0.0
 43
0.0
 43
0.0
 43
0.0
 43
0.0008202099737533
 43
0.0
 43
0.0
 43
0.0
 43
0.0
 43
1.0
 43
0.0
 43
0.0
 43
0.0
 43
0.0
 43
1.0
 77
     0
 47
0.0008202099737533
 47
0.0
 47
0.0
 47
0.0
 47
0.0
 47
0.0008202099737533
 47
0.0
 47
0.0
 47
0.0
 47
0.0
 47
1.0
 47
0.0
 47
0.0
 47
0.0
 47
0.0
 47
1.0
171
     0
 49
0.0008202099737533
 49
0.0
 49
0.0
 49
0.0
 49
0.0
 49
0.0008202099737533
 49
0.0
 49
0.0
 49
0.0
 49
0.0
 49
1.0
 49
0.0
 49
0.0
 49
0.0
 49
0.0
 49
1.0
175
     0
142
0.0008202099737533
142
0.0
142
0.0
142
0.0
142
0.0
142
0.0008202099737533
142
0.0
142
0.0
142
0.0
142
0.0
142
1.0
142
0.0
142
0.0
142
0.0
142
0.0
142
1.0
179
     0
144
0.0008202099737533
144
0.0
144
0.0
144
0.0
144
0.0
144
0.0008202099737533
144
0.0
144
0.0
144
0.0
144
0.0
144
1.0
144
0.0
144
0.0
144
0.0
144
0.0
144
1.0
147
0.0008202099737533
147
0.0
147
0.0
147
0.0
147
0.0
147
0.0008202099737533
147
0.0
147
0.0
147
0.0
147
0.0
147
1.0
147
0.0
147
0.0
147
0.0
147
0.0
147
1.0
  0
MLEADERSTYLE
  5
12C5
102
{ACAD_REACTORS
330
12C4
102
}
330
12C4
100
AcDbMLeaderStyle
170
     2
171
     1
172
     0
 90
        2
 40
0.0
 41
0.0
173
     1
 91
-1056964608
340
14
 92
       -2
290
     1
 42
2.0
291
     1
 43
0.36
  3
Standard
 44
4.0
300

342
11
174
     1
178
     6
175
     1
176
     0
 93
-1056964608
 45
4.0
292
     0
297
     0
 46
4.0
 94
-1056964608
 47
1.0
 49
1.0
140
1.0
293
     1
141
0.0
294
     1
177
     0
142
1.0
295
     0
296
     0
143
0.125
1001
ACAD_MLEADERVER
1070
     2
  0
MLINESTYLE
  5
18
102
{ACAD_REACTORS
330
17
102
}
330
17
100
AcDbMlineStyle
  2
STANDARD
 70
     0
  3

 62
   256
 51
90.0
 52
90.0
 71
     2
 49
0.5
 62
   256
  6
BYLAYER
 49
-0.5
 62
   256
  6
BYLAYER
  0
ACDBPLACEHOLDER
  5
F
102
{ACAD_REACTORS
330
E
102
}
330
E
  0
SCALE
  5
12B3
102
{ACAD_REACTORS
330
12B2
102
}
330
12B2
100
AcDbScale
 70
     0
300
1:1
140
1.0
141
1.0
290
     1
  0
SCALE
  5
12B4
102
{ACAD_REACTORS
330
12B2
102
}
330
12B2
100
AcDbScale
 70
     0
300
1:2
140
1.0
141
2.0
290
     0
  0
SCALE
  5
12B5
102
{ACAD_REACTORS
330
12B2
102
}
330
12B2
100
AcDbScale
 70
     0
300
1:4
140
1.0
141
4.0
290
     0
  0
SCALE
  5
12B6
102
{ACAD_REACTORS
330
12B2
102
}
330
12B2
100
AcDbScale
 70
     0
300
1:5
140
1.0
141
5.0
290
     0
  0
SCALE
  5
12B7
102
{ACAD_REACTORS
330
12B2
102
}
330
12B2
100
AcDbScale
 70
     0
300
1:8
140
1.0
141
8.0
290
     0
  0
SCALE
  5
12B8
102
{ACAD_REACTORS
330
12B2
102
}
330
12B2
100
AcDbScale
 70
     0
300
1:10
140
1.0
141
10.0
290
     0
  0
SCALE
  5
12B9
102
{ACAD_REACTORS
330
12B2
102
}
330
12B2
100
AcDbScale
 70
     0
300
1:16
140
1.0
141
16.0
290
     0
  0
SCALE
  5
12BA
102
{ACAD_REACTORS
330
12B2
102
}
330
12B2
100
AcDbScale
 70
     0
300
1:20
140
1.0
141
20.0
290
     0
  0
SCALE
  5
12BB
102
{ACAD_REACTORS
330
12B2
102
}
330
12B2
100
AcDbScale
 70
     0
300
1:30
140
1.0
141
30.0
290
     0
  0
SCALE
  5
12BC
102
{ACAD_REACTORS
330
12B2
102
}
330
12B2
100
AcDbScale
 70
     0
300
1:40
140
1.0
141
40.0
290
     0
  0
SCALE
  5
12BD
102
{ACAD_REACTORS
330
12B2
102
}
330
12B2
100
AcDbScale
 70
     0
300
1:50
140
1.0
141
50.0
290
     0
  0
SCALE
  5
12BE
102
{ACAD_REACTORS
330
12B2
102
}
330
12B2
100
AcDbScale
 70
     0
300
1:100
140
1.0
141
100.0
290
     0
  0
SCALE
  5
12BF
102
{ACAD_REACTORS
330
12B2
102
}
330
12B2
100
AcDbScale
 70
     0
300
2:1
140
2.0
141
1.0
290
     0
  0
SCALE
  5
12C0
102
{ACAD_REACTORS
330
12B2
102
}
330
12B2
100
AcDbScale
 70
     0
300
4:1
140
4.0
141
1.0
290
     0
  0
SCALE
  5
12C1
102
{ACAD_REACTORS
330
12B2
102
}
330
12B2
100
AcDbScale
 70
     0
300
8:1
140
8.0
141
1.0
290
     0
  0
SCALE
  5
12C2
102
{ACAD_REACTORS
330
12B2
102
}
330
12B2
100
AcDbScale
 70
     0
300
10:1
140
10.0
141
1.0
290
     0
  0
SCALE
  5
12C3
102
{ACAD_REACTORS
330
12B2
102
}
330
12B2
100
AcDbScale
 70
     0
300
100:1
140
100.0
141
1.0
290
     0
  0
TABLESTYLE
  5
12B1
102
{ACAD_XDICTIONARY
360
12F0
102
}
102
{ACAD_REACTORS
330
12B0
102
}
330
12B0
100
AcDbTableStyle
  3
Standard
 70
     0
 71
     0
 40
1.5
 41
1.5
280
     0
281
     0
  7
Standard
140
4.5
170
     2
 62
     0
 63
     7
283
     0
274
    -2
284
     1
 64
     0
275
    -2
285
     1
 65
     0
276
    -2
286
     1
 66
     0
277
    -2
287
     1
 67
     0
278
    -2
288
     1
 68
     0
279
    -2
289
     1
 69
     0
  7
Standard
140
6.0
170
     5
 62
     0
 63
     7
283
     0
274
    -2
284
     1
 64
     0
275
    -2
285
     1
 65
     0
276
    -2
286
     1
 66
     0
277
    -2
287
     1
 67
     0
278
    -2
288
     1
 68
     0
279
    -2
289
     1
 69
     0
  7
Standard
140
4.5
170
     5
 62
     0
 63
     7
283
     0
274
    -2
284
     1
 64
     0
275
    -2
285
     1
 65
     0
276
    -2
286
     1
 66
     0
277
    -2
287
     1
 67
     0
278
    -2
288
     1
 68
     0
279
    -2
289
     1
 69
     0
  0
VISUALSTYLE
  5
12A1
102
{ACAD_XDICTIONARY
360
1307
102
}
102
{ACAD_REACTORS
330
129B
102
}
330
129B
100
AcDbVisualStyle
  2
2dWireframe
 70
     4
 71
     0
 72
     2
 73
     0
 90
        0
 40
-0.6
 41
-30.0
 62
     5
 63
     7
 74
     1
 91
        4
 64
     7
 65
   257
 75
     1
175
     1
 42
1.0
 92
        0
 66
   257
 43
1.0
 76
     1
 77
     6
 78
     2
 67
     7
 79
     5
170
     0
171
     0
290
     0
174
     0
 93
        1
 44
0.0
173
     0
291
     0
 45
0.0
1001
ACAD
1000
AcDbSavedByObjectVersion
1070
     0
  0
VISUALSTYLE
  5
12A3
102
{ACAD_XDICTIONARY
360
130B
102
}
102
{ACAD_REACTORS
330
129B
102
}
330
129B
100
AcDbVisualStyle
  2
3D Hidden
 70
     6
 71
     1
 72
     2
 73
     2
 90
        0
 40
-0.6
 41
-30.0
 62
     5
 63
     7
 74
     2
 91
        2
 64
     7
 65
   257
 75
     2
175
     1
 42
179.0
 92
        0
 66
   257
 43
1.0
 76
     1
 77
     6
 78
     2
 67
     7
 79
     3
170
     0
171
     0
290
     0
174
     0
 93
        1
 44
0.0
173
     0
291
     0
 45
0.0
1001
ACAD
1000
AcDbSavedByObjectVersion
1070
     0
  0
VISUALSTYLE
  5
12A2
102
{ACAD_XDICTIONARY
360
1309
102
}
102
{ACAD_REACTORS
330
129B
102
}
330
129B
100
AcDbVisualStyle
  2
3dWireframe
 70
     5
 71
     0
 72
     2
 73
     0
 90
        0
 40
-0.6
 41
-30.0
 62
     5
 63
     7
 74
     1
 91
        4
 64
     7
 65
   257
 75
     1
175
     1
 42
1.0
 92
        0
 66
   257
 43
1.0
 76
     1
 77
     6
 78
     2
 67
     7
 79
     5
170
     0
171
     0
290
     0
174
     0
 93
        1
 44
0.0
173
     0
291
     0
 45
0.0
1001
ACAD
1000
AcDbSavedByObjectVersion
1070
     0
  0
VISUALSTYLE
  5
12A0
102
{ACAD_XDICTIONARY
360
1305
102
}
102
{ACAD_REACTORS
330
129B
102
}
330
129B
100
AcDbVisualStyle
  2
Basic
 70
     7
 71
     1
 72
     0
 73
     1
 90
        0
 40
-0.6
 41
-30.0
 62
     5
 63
     7
 74
     0
 91
        4
 64
     7
 65
   257
 75
     1
175
     1
 42
1.0
 92
        8
 66
     7
 43
1.0
 76
     1
 77
     6
 78
     2
 67
     7
 79
     5
170
     0
171
     0
290
     0
174
     0
 93
        1
 44
0.0
173
     0
291
     1
 45
0.0
1001
ACAD
1000
AcDbSavedByObjectVersion
1070
     0
  0
VISUALSTYLE
  5
12A7
102
{ACAD_XDICTIONARY
360
1313
102
}
102
{ACAD_REACTORS
330
129B
102
}
330
129B
100
AcDbVisualStyle
  2
Brighten
 70
    12
 71
     2
 72
     2
 73
     0
 90
        0
 40
-0.6
 41
-30.0
 62
     5
 63
     7
 74
     1
 91
        4
 64
     7
 65
   257
 75
     1
175
     1
 42
1.0
 92
        8
 66
     7
 43
1.0
 76
     1
 77
     6
 78
     2
 67
     7
 79
     5
170
     0
171
     0
290
     0
174
     0
 93
        1
 44
50.0
173
     0
291
     1
 45
0.0
1001
ACAD
1000
AcDbSavedByObjectVersion
1070
     0
  0
VISUALSTYLE
  5
12AB
102
{ACAD_XDICTIONARY
360
131B
102
}
102
{ACAD_REACTORS
330
129B
102
}
330
129B
100
AcDbVisualStyle
  2
ColorChange
 70
    16
 71
     2
 72
     2
 73
     3
 90
        0
 40
-0.6
 41
-30.0
 62
     5
 63
     8
 74
     1
 91
        4
 64
     7
 65
   257
 75
     1
175
     1
 42
1.0
 92
        8
 66
     8
 43
1.0
 76
     1
 77
     6
 78
     2
 67
     7
 79
     5
170
     0
171
     0
290
     0
174
     0
 93
        1
 44
0.0
173
     0
291
     1
 45
0.0
1001
ACAD
1000
AcDbSavedByObjectVersion
1070
     0
  0
VISUALSTYLE
  5
12A4
102
{ACAD_XDICTIONARY
360
130D
102
}
102
{ACAD_REACTORS
330
129B
102
}
330
129B
100
AcDbVisualStyle
  2
Conceptual
 70
     9
 71
     3
 72
     2
 73
     0
 90
        0
 40
-0.6
 41
-30.0
 62
     5
 63
     7
 74
     2
 91
        2
 64
     7
 65
   257
 75
     1
175
     1
 42
179.0
 92
        8
 66
     7
 43
1.0
 76
     1
 77
     6
 78
     2
 67
     7
 79
     3
170
     0
171
     0
290
     0
174
     0
 93
        1
 44
0.0
173
     0
291
     0
 45
0.0
1001
ACAD
1000
AcDbSavedByObjectVersion
1070
     0
  0
VISUALSTYLE
  5
12A6
102
{ACAD_XDICTIONARY
360
1311
102
}
102
{ACAD_REACTORS
330
129B
102
}
330
129B
100
AcDbVisualStyle
  2
Dim
 70
    11
 71
     2
 72
     2
 73
     0
 90
        0
 40
-0.6
 41
-30.0
 62
     5
 63
     7
 74
     1
 91
        4
 64
     7
 65
   257
 75
     1
175
     1
 42
1.0
 92
        8
 66
     7
 43
1.0
 76
     1
 77
     6
 78
     2
 67
     7
 79
     5
170
     0
171
     0
290
     0
174
     0
 93
        1
 44
-50.0
173
     0
291
     1
 45
0.0
1001
ACAD
1000
AcDbSavedByObjectVersion
1070
     0
  0
VISUALSTYLE
  5
12AE
102
{ACAD_XDICTIONARY
360
1321
102
}
102
{ACAD_REACTORS
330
129B
102
}
330
129B
100
AcDbVisualStyle
  2
EdgeColorOff
 70
    22
 71
     2
 72
     2
 73
     0
 90
        0
 40
-0.6
 41
-30.0
 62
     5
 63
     7
 74
     1
 91
        4
 64
     7
 65
   257
 75
     1
175
     1
 42
1.0
 92
        8
 66
     7
 43
1.0
 76
     1
 77
     6
 78
     2
 67
     7
 79
     5
170
     0
171
     0
290
     0
174
     0
 93
        1
 44
0.0
173
     0
291
     1
 45
0.0
1001
ACAD
1000
AcDbSavedByObjectVersion
1070
     0
  0
VISUALSTYLE
  5
12AA
102
{ACAD_XDICTIONARY
360
1319
102
}
102
{ACAD_REACTORS
330
129B
102
}
330
129B
100
AcDbVisualStyle
  2
Facepattern
 70
    15
 71
     2
 72
     2
 73
     0
 90
        0
 40
-0.6
 41
-30.0
 62
     5
 63
     7
 74
     1
 91
        4
 64
     7
 65
   257
 75
     1
175
     1
 42
1.0
 92
        8
 66
     7
 43
1.0
 76
     1
 77
     6
 78
     2
 67
     7
 79
     5
170
     0
171
     0
290
     0
174
     0
 93
        1
 44
0.0
173
     0
291
     1
 45
0.0
1001
ACAD
1000
AcDbSavedByObjectVersion
1070
     0
  0
VISUALSTYLE
  5
129C
102
{ACAD_XDICTIONARY
360
12FD
102
}
102
{ACAD_REACTORS
330
129B
102
}
330
129B
100
AcDbVisualStyle
  2
Flat
 70
     0
 71
     2
 72
     1
 73
     1
 90
        2
 40
-0.6
 41
30.0
 62
     5
 63
     7
 74
     0
 91
        4
 64
     7
 65
   257
 75
     1
175
     1
 42
1.0
 92
        8
 66
     7
 43
1.0
 76
     1
 77
     6
 78
     2
 67
     7
 79
     5
170
     0
171
     0
290
     0
174
     0
 93
       13
 44
0.0
173
     0
291
     1
 45
0.0
1001
ACAD
1000
AcDbSavedByObjectVersion
1070
     0
  0
VISUALSTYLE
  5
129D
102
{ACAD_XDICTIONARY
360
12FF
102
}
102
{ACAD_REACTORS
330
129B
102
}
330
129B
100
AcDbVisualStyle
  2
FlatWithEdges
 70
     1
 71
     2
 72
     1
 73
     1
 90
        2
 40
-0.6
 41
30.0
 62
     5
 63
     7
 74
     1
 91
        4
 64
     7
 65
   257
 75
     1
175
     1
 42
1.0
 92
        0
 66
   257
 43
1.0
 76
     1
 77
     6
 78
     2
 67
     7
 79
     5
170
     0
171
     0
290
     0
174
     0
 93
       13
 44
0.0
173
     0
291
     1
 45
0.0
1001
ACAD
1000
AcDbSavedByObjectVersion
1070
     0
  0
VISUALSTYLE
  5
129E
102
{ACAD_XDICTIONARY
360
1301
102
}
102
{ACAD_REACTORS
330
129B
102
}
330
129B
100
AcDbVisualStyle
  2
Gouraud
 70
     2
 71
     2
 72
     2
 73
     1
 90
        2
 40
-0.6
 41
30.0
 62
     5
 63
     7
 74
     0
 91
        4
 64
     7
 65
   257
 75
     1
175
     1
 42
1.0
 92
        0
 66
     7
 43
1.0
 76
     1
 77
     6
 78
     2
 67
     7
 79
     5
170
     0
171
     0
290
     0
174
     0
 93
       13
 44
0.0
173
     0
291
     1
 45
0.0
1001
ACAD
1000
AcDbSavedByObjectVersion
1070
     0
  0
VISUALSTYLE
  5
129F
102
{ACAD_XDICTIONARY
360
1303
102
}
102
{ACAD_REACTORS
330
129B
102
}
330
129B
100
AcDbVisualStyle
  2
GouraudWithEdges
 70
     3
 71
     2
 72
     2
 73
     1
 90
        2
 40
-0.6
 41
30.0
 62
     5
 63
     7
 74
     1
 91
        4
 64
     7
 65
   257
 75
     1
175
     1
 42
1.0
 92
        0
 66
   257
 43
1.0
 76
     1
 77
     6
 78
     2
 67
     7
 79
     5
170
     0
171
     0
290
     0
174
     0
 93
       13
 44
0.0
173
     0
291
     1
 45
0.0
1001
ACAD
1000
AcDbSavedByObjectVersion
1070
     0
  0
VISUALSTYLE
  5
12AC
102
{ACAD_XDICTIONARY
360
131D
102
}
102
{ACAD_REACTORS
330
129B
102
}
330
129B
100
AcDbVisualStyle
  2
JitterOff
 70
    20
 71
     2
 72
     2
 73
     0
 90
        0
 40
-0.6
 41
-30.0
 62
     5
 63
     7
 74
     1
 91
        4
 64
     7
 65
   257
 75
     1
175
     1
 42
1.0
 92
       10
 66
     7
 43
1.0
 76
     1
 77
     6
 78
     2
 67
     7
 79
     5
170
     0
171
     0
290
     0
174
     0
 93
        1
 44
0.0
173
     0
291
     1
 45
0.0
1001
ACAD
1000
AcDbSavedByObjectVersion
1070
     0
  0
VISUALSTYLE
  5
12A9
102
{ACAD_XDICTIONARY
360
1317
102
}
102
{ACAD_REACTORS
330
129B
102
}
330
129B
100
AcDbVisualStyle
  2
Linepattern
 70
    14
 71
     2
 72
     2
 73
     0
 90
        0
 40
-0.6
 41
-30.0
 62
     5
 63
     7
 74
     1
 91
        4
 64
     7
 65
   257
 75
     7
175
     7
 42
1.0
 92
        8
 66
     7
 43
1.0
 76
     1
 77
     6
 78
     2
 67
     7
 79
     5
170
     0
171
     0
290
     0
174
     0
 93
        1
 44
0.0
173
     0
291
     1
 45
0.0
1001
ACAD
1000
AcDbSavedByObjectVersion
1070
     0
  0
VISUALSTYLE
  5
12AD
102
{ACAD_XDICTIONARY
360
131F
102
}
102
{ACAD_REACTORS
330
129B
102
}
330
129B
100
AcDbVisualStyle
  2
OverhangOff
 70
    21
 71
     2
 72
     2
 73
     0
 90
        0
 40
-0.6
 41
-30.0
 62
     5
 63
     7
 74
     1
 91
        4
 64
     7
 65
   257
 75
     1
175
     1
 42
1.0
 92
        9
 66
     7
 43
1.0
 76
     1
 77
     6
 78
     2
 67
     7
 79
     5
170
     0
171
     0
290
     0
174
     0
 93
        1
 44
0.0
173
     0
291
     1
 45
0.0
1001
ACAD
1000
AcDbSavedByObjectVersion
1070
     0
  0
VISUALSTYLE
  5
12A5
102
{ACAD_XDICTIONARY
360
130F
102
}
102
{ACAD_REACTORS
330
129B
102
}
330
129B
100
AcDbVisualStyle
  2
Realistic
 70
     8
 71
     2
 72
     2
 73
     0
 90
        0
 40
-0.6
 41
-30.0
 62
     5
 63
     7
 74
     1
 91
        0
 64
     7
 65
   257
 75
     1
175
     1
 42
1.0
 92
        8
 66
     8
 43
1.0
 76
     1
 77
     6
 78
     2
 67
     7
 79
     5
170
     0
171
     0
290
     0
174
     0
 93
       13
 44
0.0
173
     0
291
     0
 45
0.0
1001
ACAD
1000
AcDbSavedByObjectVersion
1070
     0
  0
VISUALSTYLE
  5
12A8
102
{ACAD_XDICTIONARY
360
1315
102
}
102
{ACAD_REACTORS
330
129B
102
}
330
129B
100
AcDbVisualStyle
  2
Thicken
 70
    13
 71
     2
 72
     2
 73
     0
 90
        0
 40
-0.6
 41
-30.0
 62
     5
 63
     7
 74
     1
 91
        4
 64
     7
 65
   257
 75
     1
175
     1
 42
1.0
 92
       12
 66
     7
 43
1.0
 76
     1
 77
     6
 78
     2
 67
     7
 79
     5
170
     0
171
     0
290
     0
174
     0
 93
        1
 44
0.0
173
     0
291
     1
 45
0.0
1001
ACAD
1000
AcDbSavedByObjectVersion
1070
     0
  0
DICTIONARYVAR
  5
12EC
102
{ACAD_REACTORS
330
3D
102
}
330
3D
100
DictionaryVariables
280
     0
  1
1:1
  0
DICTIONARYVAR
  5
12EB
102
{ACAD_REACTORS
330
3D
102
}
330
3D
100
DictionaryVariables
280
     0
  1
STANDARD
  0
DICTIONARYVAR
  5
12EA
102
{ACAD_REACTORS
330
3D
102
}
330
3D
100
DictionaryVariables
280
     0
  1
STANDARD
  0
DICTIONARYVAR
  5
3F
102
{ACAD_REACTORS
330
3D
102
}
330
3D
100
DictionaryVariables
280
     0
  1
2
  0
DICTIONARYVAR
  5
3E
102
{ACAD_REACTORS
330
3D
102
}
330
3D
100
DictionaryVariables
280
     0
  1
1
  0
DICTIONARYVAR
  5
12EE
102
{ACAD_REACTORS
330
3D
102
}
330
3D
100
DictionaryVariables
280
     0
  1
0
  0
DICTIONARYVAR
  5
12ED
102
{ACAD_REACTORS
330
3D
102
}
330
3D
100
DictionaryVariables
280
     0
  1
127
  0
DICTIONARYVAR
  5
12EF
102
{ACAD_REACTORS
330
3D
102
}
330
3D
100
DictionaryVariables
280
     0
  1
2
  0
XRECORD
  5
FCF
102
{ACAD_REACTORS
330
FCE
102
}
330
FCE
100
AcDbXrecord
280
     1
330
0
330
0
  0
DICTIONARY
  5
12F4
330
1E
100
AcDbDictionary
280
     1
281
     1
  3
ACAD_XREC_ROUNDTRIP
360
12F5
  0
DICTIONARY
  5
12F8
330
26
100
AcDbDictionary
280
     1
281
     1
  3
ACAD_XREC_ROUNDTRIP
360
12F9
  0
DICTIONARY
  5
12F6
330
22
100
AcDbDictionary
280
     1
281
     1
  3
ACAD_XREC_ROUNDTRIP
360
12F7
  0
DICTIONARY
  5
128C
330
128B
100
AcDbDictionary
280
     1
281
     1
  3
ACAD_XREC_ROUNDTRIP
360
12FB
  3
BUMPTILE
360
128E
  3
DIFFUSETILE
360
128D
  3
OPACITYTILE
360
1291
  3
REFLECTIONTILE
360
1290
  3
REFRACTIONTILE
360
1292
  3
SPECULARTILE
360
128F
  0
DICTIONARY
  5
1284
330
1283
100
AcDbDictionary
280
     1
281
     1
  3
ACAD_XREC_ROUNDTRIP
360
12FA
  3
BUMPTILE
360
1286
  3
DIFFUSETILE
360
1285
  3
OPACITYTILE
360
1289
  3
REFLECTIONTILE
360
1288
  3
REFRACTIONTILE
360
128A
  3
SPECULARTILE
360
1287
  0
DICTIONARY
  5
1294
330
1293
100
AcDbDictionary
280
     1
281
     1
  3
ACAD_XREC_ROUNDTRIP
360
12FC
  3
BUMPTILE
360
1296
  3
DIFFUSETILE
360
1295
  3
OPACITYTILE
360
1299
  3
REFLECTIONTILE
360
1298
  3
REFRACTIONTILE
360
129A
  3
SPECULARTILE
360
1297
  0
DICTIONARY
  5
12F0
330
12B1
100
AcDbDictionary
280
     1
281
     1
  3
ACAD_ROUNDTRIP_2008_TABLESTYLE_CELLSTYLEMAP
360
12F1
  3
ACAD_XREC_ROUNDTRIP
360
1323
  0
DICTIONARY
  5
1307
330
12A1
100
AcDbDictionary
280
     1
281
     1
  3
ACAD_XREC_ROUNDTRIP
360
1308
  0
DICTIONARY
  5
130B
330
12A3
100
AcDbDictionary
280
     1
281
     1
  3
ACAD_XREC_ROUNDTRIP
360
130C
  0
DICTIONARY
  5
1309
330
12A2
100
AcDbDictionary
280
     1
281
     1
  3
ACAD_XREC_ROUNDTRIP
360
130A
  0
DICTIONARY
  5
1305
330
12A0
100
AcDbDictionary
280
     1
281
     1
  3
ACAD_XREC_ROUNDTRIP
360
1306
  0
DICTIONARY
  5
1313
330
12A7
100
AcDbDictionary
280
     1
281
     1
  3
ACAD_XREC_ROUNDTRIP
360
1314
  0
DICTIONARY
  5
131B
330
12AB
100
AcDbDictionary
280
     1
281
     1
  3
ACAD_XREC_ROUNDTRIP
360
131C
  0
DICTIONARY
  5
130D
330
12A4
100
AcDbDictionary
280
     1
281
     1
  3
ACAD_XREC_ROUNDTRIP
360
130E
  0
DICTIONARY
  5
1311
330
12A6
100
AcDbDictionary
280
     1
281
     1
  3
ACAD_XREC_ROUNDTRIP
360
1312
  0
DICTIONARY
  5
1321
330
12AE
100
AcDbDictionary
280
     1
281
     1
  3
ACAD_XREC_ROUNDTRIP
360
1322
  0
DICTIONARY
  5
1319
330
12AA
100
AcDbDictionary
280
     1
281
     1
  3
ACAD_XREC_ROUNDTRIP
360
131A
  0
DICTIONARY
  5
12FD
330
129C
100
AcDbDictionary
280
     1
281
     1
  3
ACAD_XREC_ROUNDTRIP
360
12FE
  0
DICTIONARY
  5
12FF
330
129D
100
AcDbDictionary
280
     1
281
     1
  3
ACAD_XREC_ROUNDTRIP
360
1300
  0
DICTIONARY
  5
1301
330
129E
100
AcDbDictionary
280
     1
281
     1
  3
ACAD_XREC_ROUNDTRIP
360
1302
  0
DICTIONARY
  5
1303
330
129F
100
AcDbDictionary
280
     1
281
     1
  3
ACAD_XREC_ROUNDTRIP
360
1304
  0
DICTIONARY
  5
131D
330
12AC
100
AcDbDictionary
280
     1
281
     1
  3
ACAD_XREC_ROUNDTRIP
360
131E
  0
DICTIONARY
  5
1317
330
12A9
100
AcDbDictionary
280
     1
281
     1
  3
ACAD_XREC_ROUNDTRIP
360
1318
  0
DICTIONARY
  5
131F
330
12AD
100
AcDbDictionary
280
     1
281
     1
  3
ACAD_XREC_ROUNDTRIP
360
1320
  0
DICTIONARY
  5
130F
330
12A5
100
AcDbDictionary
280
     1
281
     1
  3
ACAD_XREC_ROUNDTRIP
360
1310
  0
DICTIONARY
  5
1315
330
12A8
100
AcDbDictionary
280
     1
281
     1
  3
ACAD_XREC_ROUNDTRIP
360
1316
  0
XRECORD
  5
12F5
102
{ACAD_REACTORS
330
12F4
102
}
330
12F4
100
AcDbXrecord
280
     1
102
SHADEPLOT
 70
     0
102
SHADEPLOTRESLEVEL
 70
     2
102
SHADEPLOTCUSTOMDPI
 70
   300
  0
XRECORD
  5
12F9
102
{ACAD_REACTORS
330
12F8
102
}
330
12F8
100
AcDbXrecord
280
     1
102
SHADEPLOT
 70
     0
102
SHADEPLOTRESLEVEL
 70
     2
102
SHADEPLOTCUSTOMDPI
 70
   300
  0
XRECORD
  5
12F7
102
{ACAD_REACTORS
330
12F6
102
}
330
12F6
100
AcDbXrecord
280
     1
102
SHADEPLOT
 70
     0
102
SHADEPLOTRESLEVEL
 70
     2
102
SHADEPLOTCUSTOMDPI
 70
   300
  0
XRECORD
  5
12FB
102
{ACAD_REACTORS
330
128C
102
}
330
128C
100
AcDbXrecord
280
     1
102
MATERIAL
148
0.0
149
0.0
149
0.0
 93
        0
 94
      127
282
     0
 72
     0
 77
     0
171
     0
175
     0
179
     0
273
     0
  0
XRECORD
  5
128E
102
{ACAD_REACTORS
330
128C
102
}
330
128C
100
AcDbXrecord
280
     1
270
     1
271
     1
  0
XRECORD
  5
128D
102
{ACAD_REACTORS
330
128C
102
}
330
128C
100
AcDbXrecord
280
     1
270
     1
271
     1
  0
XRECORD
  5
1291
102
{ACAD_REACTORS
330
128C
102
}
330
128C
100
AcDbXrecord
280
     1
270
     1
271
     1
  0
XRECORD
  5
1290
102
{ACAD_REACTORS
330
128C
102
}
330
128C
100
AcDbXrecord
280
     1
270
     1
271
     1
  0
XRECORD
  5
1292
102
{ACAD_REACTORS
330
128C
102
}
330
128C
100
AcDbXrecord
280
     1
270
     1
271
     1
  0
XRECORD
  5
128F
102
{ACAD_REACTORS
330
128C
102
}
330
128C
100
AcDbXrecord
280
     1
270
     1
271
     1
  0
XRECORD
  5
12FA
102
{ACAD_REACTORS
330
1284
102
}
330
1284
100
AcDbXrecord
280
     1
102
MATERIAL
148
0.0
149
0.0
149
0.0
 93
        0
 94
      127
282
     0
 72
     0
 77
     0
171
     0
175
     0
179
     0
273
     0
  0
XRECORD
  5
1286
102
{ACAD_REACTORS
330
1284
102
}
330
1284
100
AcDbXrecord
280
     1
270
     1
271
     1
  0
XRECORD
  5
1285
102
{ACAD_REACTORS
330
1284
102
}
330
1284
100
AcDbXrecord
280
     1
270
     1
271
     1
  0
XRECORD
  5
1289
102
{ACAD_REACTORS
330
1284
102
}
330
1284
100
AcDbXrecord
280
     1
270
     1
271
     1
  0
XRECORD
  5
1288
102
{ACAD_REACTORS
330
1284
102
}
330
1284
100
AcDbXrecord
280
     1
270
     1
271
     1
  0
XRECORD
  5
128A
102
{ACAD_REACTORS
330
1284
102
}
330
1284
100
AcDbXrecord
280
     1
270
     1
271
     1
  0
XRECORD
  5
1287
102
{ACAD_REACTORS
330
1284
102
}
330
1284
100
AcDbXrecord
280
     1
270
     1
271
     1
  0
XRECORD
  5
12FC
102
{ACAD_REACTORS
330
1294
102
}
330
1294
100
AcDbXrecord
280
     1
102
MATERIAL
148
0.0
149
0.0
149
0.0
 93
        0
 94
      127
282
     0
 72
     0
 77
     0
171
     0
175
     0
179
     0
273
     0
  0
XRECORD
  5
1296
102
{ACAD_REACTORS
330
1294
102
}
330
1294
100
AcDbXrecord
280
     1
270
     1
271
     1
  0
XRECORD
  5
1295
102
{ACAD_REACTORS
330
1294
102
}
330
1294
100
AcDbXrecord
280
     1
270
     1
271
     1
  0
XRECORD
  5
1299
102
{ACAD_REACTORS
330
1294
102
}
330
1294
100
AcDbXrecord
280
     1
270
     1
271
     1
  0
XRECORD
  5
1298
102
{ACAD_REACTORS
330
1294
102
}
330
1294
100
AcDbXrecord
280
     1
270
     1
271
     1
  0
XRECORD
  5
129A
102
{ACAD_REACTORS
330
1294
102
}
330
1294
100
AcDbXrecord
280
     1
270
     1
271
     1
  0
XRECORD
  5
1297
102
{ACAD_REACTORS
330
1294
102
}
330
1294
100
AcDbXrecord
280
     1
270
     1
271
     1
  0
CELLSTYLEMAP
  5
12F1
102
{ACAD_REACTORS
330
12F0
102
}
330
12F0
100
AcDbCellStyleMap
 90
        3
300
CELLSTYLE
  1
TABLEFORMAT_BEGIN
 90
        5
170
     1
 91
        0
 92
    32768
 62
   257
 93
        1
300
CONTENTFORMAT
  1
CONTENTFORMAT_BEGIN
 90
        0
 91
        0
 92
      512
 93
        0
300

 40
0.0
140
1.0
 94
        5
 62
     0
340
11
144
6.0
309
CONTENTFORMAT_END
171
     1
301
MARGIN
  1
CELLMARGIN_BEGIN
 40
1.5
 40
1.5
 40
1.5
 40
1.5
 40
4.5
 40
4.5
309
CELLMARGIN_END
 94
        6
 95
        1
302
GRIDFORMAT
  1
GRIDFORMAT_BEGIN
 90
        0
 91
        1
 62
     0
 92
       -2
340
0
 93
        0
 40
1.125
309
GRIDFORMAT_END
 95
        2
302
GRIDFORMAT
  1
GRIDFORMAT_BEGIN
 90
        0
 91
        1
 62
     0
 92
       -2
340
0
 93
        0
 40
1.125
309
GRIDFORMAT_END
 95
        4
302
GRIDFORMAT
  1
GRIDFORMAT_BEGIN
 90
        0
 91
        1
 62
     0
 92
       -2
340
0
 93
        0
 40
1.125
309
GRIDFORMAT_END
 95
        8
302
GRIDFORMAT
  1
GRIDFORMAT_BEGIN
 90
        0
 91
        1
 62
     0
 92
       -2
340
0
 93
        0
 40
1.125
309
GRIDFORMAT_END
 95
       16
302
GRIDFORMAT
  1
GRIDFORMAT_BEGIN
 90
        0
 91
        1
 62
     0
 92
       -2
340
0
 93
        0
 40
1.125
309
GRIDFORMAT_END
 95
       32
302
GRIDFORMAT
  1
GRIDFORMAT_BEGIN
 90
        0
 91
        1
 62
     0
 92
       -2
340
0
 93
        0
 40
1.125
309
GRIDFORMAT_END
309
TABLEFORMAT_END
  1
CELLSTYLE_BEGIN
 90
        1
 91
        1
300
_TITLE
309
CELLSTYLE_END
300
CELLSTYLE
  1
TABLEFORMAT_BEGIN
 90
        5
170
     1
 91
        0
 92
        0
 62
   257
 93
        1
300
CONTENTFORMAT
  1
CONTENTFORMAT_BEGIN
 90
        0
 91
        0
 92
      512
 93
        0
300

 40
0.0
140
1.0
 94
        5
 62
     0
340
11
144
4.5
309
CONTENTFORMAT_END
171
     1
301
MARGIN
  1
CELLMARGIN_BEGIN
 40
1.5
 40
1.5
 40
1.5
 40
1.5
 40
4.5
 40
4.5
309
CELLMARGIN_END
 94
        6
 95
        1
302
GRIDFORMAT
  1
GRIDFORMAT_BEGIN
 90
        0
 91
        1
 62
     0
 92
       -2
340
0
 93
        0
 40
1.125
309
GRIDFORMAT_END
 95
        2
302
GRIDFORMAT
  1
GRIDFORMAT_BEGIN
 90
        0
 91
        1
 62
     0
 92
       -2
340
0
 93
        0
 40
1.125
309
GRIDFORMAT_END
 95
        4
302
GRIDFORMAT
  1
GRIDFORMAT_BEGIN
 90
        0
 91
        1
 62
     0
 92
       -2
340
0
 93
        0
 40
1.125
309
GRIDFORMAT_END
 95
        8
302
GRIDFORMAT
  1
GRIDFORMAT_BEGIN
 90
        0
 91
        1
 62
     0
 92
       -2
340
0
 93
        0
 40
1.125
309
GRIDFORMAT_END
 95
       16
302
GRIDFORMAT
  1
GRIDFORMAT_BEGIN
 90
        0
 91
        1
 62
     0
 92
       -2
340
0
 93
        0
 40
1.125
309
GRIDFORMAT_END
 95
       32
302
GRIDFORMAT
  1
GRIDFORMAT_BEGIN
 90
        0
 91
        1
 62
     0
 92
       -2
340
0
 93
        0
 40
1.125
309
GRIDFORMAT_END
309
TABLEFORMAT_END
  1
CELLSTYLE_BEGIN
 90
        2
 91
        1
300
_HEADER
309
CELLSTYLE_END
300
CELLSTYLE
  1
TABLEFORMAT_BEGIN
 90
        5
170
     1
 91
        0
 92
        0
 62
   257
 93
        1
300
CONTENTFORMAT
  1
CONTENTFORMAT_BEGIN
 90
        0
 91
        0
 92
      512
 93
        0
300

 40
0.0
140
1.0
 94
        2
 62
     0
340
11
144
4.5
309
CONTENTFORMAT_END
171
     1
301
MARGIN
  1
CELLMARGIN_BEGIN
 40
1.5
 40
1.5
 40
1.5
 40
1.5
 40
4.5
 40
4.5
309
CELLMARGIN_END
 94
        6
 95
        1
302
GRIDFORMAT
  1
GRIDFORMAT_BEGIN
 90
        0
 91
        1
 62
     0
 92
       -2
340
0
 93
        0
 40
1.125
309
GRIDFORMAT_END
 95
        2
302
GRIDFORMAT
  1
GRIDFORMAT_BEGIN
 90
        0
 91
        1
 62
     0
 92
       -2
340
0
 93
        0
 40
1.125
309
GRIDFORMAT_END
 95
        4
302
GRIDFORMAT
  1
GRIDFORMAT_BEGIN
 90
        0
 91
        1
 62
     0
 92
       -2
340
0
 93
        0
 40
1.125
309
GRIDFORMAT_END
 95
        8
302
GRIDFORMAT
  1
GRIDFORMAT_BEGIN
 90
        0
 91
        1
 62
     0
 92
       -2
340
0
 93
        0
 40
1.125
309
GRIDFORMAT_END
 95
       16
302
GRIDFORMAT
  1
GRIDFORMAT_BEGIN
 90
        0
 91
        1
 62
     0
 92
       -2
340
0
 93
        0
 40
1.125
309
GRIDFORMAT_END
 95
       32
302
GRIDFORMAT
  1
GRIDFORMAT_BEGIN
 90
        0
 91
        1
 62
     0
 92
       -2
340
0
 93
        0
 40
1.125
309
GRIDFORMAT_END
309
TABLEFORMAT_END
  1
CELLSTYLE_BEGIN
 90
        3
 91
        2
300
_DATA
309
CELLSTYLE_END
  0
XRECORD
  5
1323
102
{ACAD_REACTORS
330
12F0
102
}
330
12F0
100
AcDbXrecord
280
     1
102
ACAD_ROUNDTRIP_PRE2007_TABLESTYLE
 90
      512
 91
        0
  1

 92
      512
 93
        0
  2

 94
      512
 95
        0
  3

  0
XRECORD
  5
1308
102
{ACAD_REACTORS
330
1307
102
}
330
1307
100
AcDbXrecord
280
     1
102
RTVSPropertyOp0
 70
     1
102
RTVSPropertyOp1
 70
     1
102
RTVSPropertyOp2
 70
     1
102
RTVSPropertyOp3
 70
     1
102
RTVSPropertyOp4
 70
     1
102
RTVSPropertyOp5
 70
     1
102
RTVSPropertyOp6
 70
     1
102
RTVSPropertyOp7
 70
     1
102
RTVSPropertyOp8
 70
     1
102
RTVSPropertyOp9
 70
     1
102
RTVSPropertyOp10
 70
     1
102
RTVSPropertyOp11
 70
     1
102
RTVSPropertyOp12
 70
     1
102
RTVSPropertyOp13
 70
     1
102
RTVSPropertyOp14
 70
     1
102
RTVSPropertyOp15
 70
     1
102
RTVSPropertyOp16
 70
     1
102
RTVSPropertyOp17
 70
     1
102
RTVSPropertyOp18
 70
     1
102
RTVSPropertyOp19
 70
     1
102
RTVSPropertyOp20
 70
     1
102
RTVSPropertyOp21
 70
     1
102
RTVSPropertyOp22
 70
     1
102
RTVSPropertyOp23
 70
     1
102
RTVSPropertyOp24
 70
     1
102
RTVSPropertyOp25
 70
     1
102
RTVSPropertyOp26
 70
     1
102
RTVSPropertyOp27
 70
     1
  0
XRECORD
  5
130C
102
{ACAD_REACTORS
330
130B
102
}
330
130B
100
AcDbXrecord
280
     1
102
RTVSPropertyOp0
 70
     1
102
RTVSPropertyOp1
 70
     1
102
RTVSPropertyOp2
 70
     1
102
RTVSPropertyOp3
 70
     1
102
RTVSPropertyOp4
 70
     1
102
RTVSPropertyOp5
 70
     1
102
RTVSPropertyOp6
 70
     1
102
RTVSPropertyOp7
 70
     1
102
RTVSPropertyOp8
 70
     1
102
RTVSPropertyOp9
 70
     1
102
RTVSPropertyOp10
 70
     1
102
RTVSPropertyOp11
 70
     1
102
RTVSPropertyOp12
 70
     1
102
RTVSPropertyOp13
 70
     1
102
RTVSPropertyOp14
 70
     1
102
RTVSPropertyOp15
 70
     1
102
RTVSPropertyOp16
 70
     1
102
RTVSPropertyOp17
 70
     1
102
RTVSPropertyOp18
 70
     1
102
RTVSPropertyOp19
 70
     1
102
RTVSPropertyOp20
 70
     1
102
RTVSPropertyOp21
 70
     1
102
RTVSPropertyOp22
 70
     1
102
RTVSPropertyOp23
 70
     1
102
RTVSPropertyOp24
 70
     1
102
RTVSPropertyOp25
 70
     1
102
RTVSPropertyOp26
 70
     1
102
RTVSPropertyOp27
 70
     1
  0
XRECORD
  5
130A
102
{ACAD_REACTORS
330
1309
102
}
330
1309
100
AcDbXrecord
280
     1
102
RTVSPropertyOp0
 70
     1
102
RTVSPropertyOp1
 70
     1
102
RTVSPropertyOp2
 70
     1
102
RTVSPropertyOp3
 70
     1
102
RTVSPropertyOp4
 70
     1
102
RTVSPropertyOp5
 70
     1
102
RTVSPropertyOp6
 70
     1
102
RTVSPropertyOp7
 70
     1
102
RTVSPropertyOp8
 70
     1
102
RTVSPropertyOp9
 70
     1
102
RTVSPropertyOp10
 70
     1
102
RTVSPropertyOp11
 70
     1
102
RTVSPropertyOp12
 70
     1
102
RTVSPropertyOp13
 70
     1
102
RTVSPropertyOp14
 70
     1
102
RTVSPropertyOp15
 70
     1
102
RTVSPropertyOp16
 70
     1
102
RTVSPropertyOp17
 70
     1
102
RTVSPropertyOp18
 70
     1
102
RTVSPropertyOp19
 70
     1
102
RTVSPropertyOp20
 70
     1
102
RTVSPropertyOp21
 70
     1
102
RTVSPropertyOp22
 70
     1
102
RTVSPropertyOp23
 70
     1
102
RTVSPropertyOp24
 70
     1
102
RTVSPropertyOp25
 70
     1
102
RTVSPropertyOp26
 70
     1
102
RTVSPropertyOp27
 70
     1
  0
XRECORD
  5
1306
102
{ACAD_REACTORS
330
1305
102
}
330
1305
100
AcDbXrecord
280
     1
102
RTVSPropertyOp0
 70
     1
102
RTVSPropertyOp1
 70
     1
102
RTVSPropertyOp2
 70
     1
102
RTVSPropertyOp3
 70
     1
102
RTVSPropertyOp4
 70
     1
102
RTVSPropertyOp5
 70
     1
102
RTVSPropertyOp6
 70
     1
102
RTVSPropertyOp7
 70
     1
102
RTVSPropertyOp8
 70
     1
102
RTVSPropertyOp9
 70
     1
102
RTVSPropertyOp10
 70
     1
102
RTVSPropertyOp11
 70
     1
102
RTVSPropertyOp12
 70
     1
102
RTVSPropertyOp13
 70
     1
102
RTVSPropertyOp14
 70
     1
102
RTVSPropertyOp15
 70
     1
102
RTVSPropertyOp16
 70
     1
102
RTVSPropertyOp17
 70
     1
102
RTVSPropertyOp18
 70
     1
102
RTVSPropertyOp19
 70
     1
102
RTVSPropertyOp20
 70
     1
102
RTVSPropertyOp21
 70
     1
102
RTVSPropertyOp22
 70
     1
102
RTVSPropertyOp23
 70
     1
102
RTVSPropertyOp24
 70
     1
102
RTVSPropertyOp25
 70
     1
102
RTVSPropertyOp26
 70
     1
102
RTVSPropertyOp27
 70
     1
  0
XRECORD
  5
1314
102
{ACAD_REACTORS
330
1313
102
}
330
1313
100
AcDbXrecord
280
     1
102
RTVSPropertyOp0
 70
     1
102
RTVSPropertyOp1
 70
     1
102
RTVSPropertyOp2
 70
     1
102
RTVSPropertyOp3
 70
     1
102
RTVSPropertyOp4
 70
     1
102
RTVSPropertyOp5
 70
     1
102
RTVSPropertyOp6
 70
     1
102
RTVSPropertyOp7
 70
     1
102
RTVSPropertyOp8
 70
     1
102
RTVSPropertyOp9
 70
     1
102
RTVSPropertyOp10
 70
     1
102
RTVSPropertyOp11
 70
     1
102
RTVSPropertyOp12
 70
     1
102
RTVSPropertyOp13
 70
     1
102
RTVSPropertyOp14
 70
     1
102
RTVSPropertyOp15
 70
     1
102
RTVSPropertyOp16
 70
     1
102
RTVSPropertyOp17
 70
     1
102
RTVSPropertyOp18
 70
     1
102
RTVSPropertyOp19
 70
     1
102
RTVSPropertyOp20
 70
     1
102
RTVSPropertyOp21
 70
     1
102
RTVSPropertyOp22
 70
     1
102
RTVSPropertyOp23
 70
     1
102
RTVSPropertyOp24
 70
     1
102
RTVSPropertyOp25
 70
     1
102
RTVSPropertyOp26
 70
     1
102
RTVSPropertyOp27
 70
     1
  0
XRECORD
  5
131C
102
{ACAD_REACTORS
330
131B
102
}
330
131B
100
AcDbXrecord
280
     1
102
RTVSPropertyOp0
 70
     1
102
RTVSPropertyOp1
 70
     1
102
RTVSPropertyOp2
 70
     1
102
RTVSPropertyOp3
 70
     1
102
RTVSPropertyOp4
 70
     1
102
RTVSPropertyOp5
 70
     1
102
RTVSPropertyOp6
 70
     1
102
RTVSPropertyOp7
 70
     1
102
RTVSPropertyOp8
 70
     1
102
RTVSPropertyOp9
 70
     1
102
RTVSPropertyOp10
 70
     1
102
RTVSPropertyOp11
 70
     1
102
RTVSPropertyOp12
 70
     1
102
RTVSPropertyOp13
 70
     1
102
RTVSPropertyOp14
 70
     1
102
RTVSPropertyOp15
 70
     1
102
RTVSPropertyOp16
 70
     1
102
RTVSPropertyOp17
 70
     1
102
RTVSPropertyOp18
 70
     1
102
RTVSPropertyOp19
 70
     1
102
RTVSPropertyOp20
 70
     1
102
RTVSPropertyOp21
 70
     1
102
RTVSPropertyOp22
 70
     1
102
RTVSPropertyOp23
 70
     1
102
RTVSPropertyOp24
 70
     1
102
RTVSPropertyOp25
 70
     1
102
RTVSPropertyOp26
 70
     1
102
RTVSPropertyOp27
 70
     1
  0
XRECORD
  5
130E
102
{ACAD_REACTORS
330
130D
102
}
330
130D
100
AcDbXrecord
280
     1
102
RTVSPropertyOp0
 70
     1
102
RTVSPropertyOp1
 70
     1
102
RTVSPropertyOp2
 70
     1
102
RTVSPropertyOp3
 70
     1
102
RTVSPropertyOp4
 70
     1
102
RTVSPropertyOp5
 70
     1
102
RTVSPropertyOp6
 70
     1
102
RTVSPropertyOp7
 70
     1
102
RTVSPropertyOp8
 70
     1
102
RTVSPropertyOp9
 70
     1
102
RTVSPropertyOp10
 70
     1
102
RTVSPropertyOp11
 70
     1
102
RTVSPropertyOp12
 70
     1
102
RTVSPropertyOp13
 70
     1
102
RTVSPropertyOp14
 70
     1
102
RTVSPropertyOp15
 70
     1
102
RTVSPropertyOp16
 70
     1
102
RTVSPropertyOp17
 70
     1
102
RTVSPropertyOp18
 70
     1
102
RTVSPropertyOp19
 70
     1
102
RTVSPropertyOp20
 70
     1
102
RTVSPropertyOp21
 70
     1
102
RTVSPropertyOp22
 70
     1
102
RTVSPropertyOp23
 70
     1
102
RTVSPropertyOp24
 70
     1
102
RTVSPropertyOp25
 70
     1
102
RTVSPropertyOp26
 70
     1
102
RTVSPropertyOp27
 70
     1
  0
XRECORD
  5
1312
102
{ACAD_REACTORS
330
1311
102
}
330
1311
100
AcDbXrecord
280
     1
102
RTVSPropertyOp0
 70
     1
102
RTVSPropertyOp1
 70
     1
102
RTVSPropertyOp2
 70
     1
102
RTVSPropertyOp3
 70
     1
102
RTVSPropertyOp4
 70
     1
102
RTVSPropertyOp5
 70
     1
102
RTVSPropertyOp6
 70
     1
102
RTVSPropertyOp7
 70
     1
102
RTVSPropertyOp8
 70
     1
102
RTVSPropertyOp9
 70
     1
102
RTVSPropertyOp10
 70
     1
102
RTVSPropertyOp11
 70
     1
102
RTVSPropertyOp12
 70
     1
102
RTVSPropertyOp13
 70
     1
102
RTVSPropertyOp14
 70
     1
102
RTVSPropertyOp15
 70
     1
102
RTVSPropertyOp16
 70
     1
102
RTVSPropertyOp17
 70
     1
102
RTVSPropertyOp18
 70
     1
102
RTVSPropertyOp19
 70
     1
102
RTVSPropertyOp20
 70
     1
102
RTVSPropertyOp21
 70
     1
102
RTVSPropertyOp22
 70
     1
102
RTVSPropertyOp23
 70
     1
102
RTVSPropertyOp24
 70
     1
102
RTVSPropertyOp25
 70
     1
102
RTVSPropertyOp26
 70
     1
102
RTVSPropertyOp27
 70
     1
  0
XRECORD
  5
1322
102
{ACAD_REACTORS
330
1321
102
}
330
1321
100
AcDbXrecord
280
     1
102
RTVSPropertyOp0
 70
     0
102
RTVSPropertyOp1
 70
     0
102
RTVSPropertyOp2
 70
     0
102
RTVSPropertyOp3
 70
     0
102
RTVSPropertyOp4
 70
     0
102
RTVSPropertyOp5
 70
     0
102
RTVSPropertyOp6
 70
     0
102
RTVSPropertyOp7
 70
     0
102
RTVSPropertyOp8
 70
     0
102
RTVSPropertyOp9
 70
     0
102
RTVSPropertyOp10
 70
     0
102
RTVSPropertyOp11
 70
     0
102
RTVSPropertyOp12
 70
     0
102
RTVSPropertyOp13
 70
     0
102
RTVSPropertyOp14
 70
     2
102
RTVSPropertyOp15
 70
     0
102
RTVSPropertyOp16
 70
     0
102
RTVSPropertyOp17
 70
     0
102
RTVSPropertyOp18
 70
     0
102
RTVSPropertyOp19
 70
     0
102
RTVSPropertyOp20
 70
     0
102
RTVSPropertyOp21
 70
     0
102
RTVSPropertyOp22
 70
     0
102
RTVSPropertyOp23
 70
     0
102
RTVSPropertyOp24
 70
     0
102
RTVSPropertyOp25
 70
     0
102
RTVSPropertyOp26
 70
     0
102
RTVSPropertyOp27
 70
     0
  0
XRECORD
  5
131A
102
{ACAD_REACTORS
330
1319
102
}
330
1319
100
AcDbXrecord
280
     1
102
RTVSPropertyOp0
 70
     1
102
RTVSPropertyOp1
 70
     1
102
RTVSPropertyOp2
 70
     1
102
RTVSPropertyOp3
 70
     1
102
RTVSPropertyOp4
 70
     1
102
RTVSPropertyOp5
 70
     1
102
RTVSPropertyOp6
 70
     1
102
RTVSPropertyOp7
 70
     1
102
RTVSPropertyOp8
 70
     1
102
RTVSPropertyOp9
 70
     1
102
RTVSPropertyOp10
 70
     1
102
RTVSPropertyOp11
 70
     1
102
RTVSPropertyOp12
 70
     1
102
RTVSPropertyOp13
 70
     1
102
RTVSPropertyOp14
 70
     1
102
RTVSPropertyOp15
 70
     1
102
RTVSPropertyOp16
 70
     1
102
RTVSPropertyOp17
 70
     1
102
RTVSPropertyOp18
 70
     1
102
RTVSPropertyOp19
 70
     1
102
RTVSPropertyOp20
 70
     1
102
RTVSPropertyOp21
 70
     1
102
RTVSPropertyOp22
 70
     1
102
RTVSPropertyOp23
 70
     1
102
RTVSPropertyOp24
 70
     1
102
RTVSPropertyOp25
 70
     1
102
RTVSPropertyOp26
 70
     1
102
RTVSPropertyOp27
 70
     1
  0
XRECORD
  5
12FE
102
{ACAD_REACTORS
330
12FD
102
}
330
12FD
100
AcDbXrecord
280
     1
102
RTVSPropertyOp0
 70
     1
102
RTVSPropertyOp1
 70
     1
102
RTVSPropertyOp2
 70
     1
102
RTVSPropertyOp3
 70
     1
102
RTVSPropertyOp4
 70
     1
102
RTVSPropertyOp5
 70
     1
102
RTVSPropertyOp6
 70
     1
102
RTVSPropertyOp7
 70
     1
102
RTVSPropertyOp8
 70
     1
102
RTVSPropertyOp9
 70
     1
102
RTVSPropertyOp10
 70
     1
102
RTVSPropertyOp11
 70
     1
102
RTVSPropertyOp12
 70
     1
102
RTVSPropertyOp13
 70
     1
102
RTVSPropertyOp14
 70
     1
102
RTVSPropertyOp15
 70
     1
102
RTVSPropertyOp16
 70
     1
102
RTVSPropertyOp17
 70
     1
102
RTVSPropertyOp18
 70
     1
102
RTVSPropertyOp19
 70
     1
102
RTVSPropertyOp20
 70
     1
102
RTVSPropertyOp21
 70
     1
102
RTVSPropertyOp22
 70
     1
102
RTVSPropertyOp23
 70
     1
102
RTVSPropertyOp24
 70
     1
102
RTVSPropertyOp25
 70
     1
102
RTVSPropertyOp26
 70
     1
102
RTVSPropertyOp27
 70
     1
  0
XRECORD
  5
1300
102
{ACAD_REACTORS
330
12FF
102
}
330
12FF
100
AcDbXrecord
280
     1
102
RTVSPropertyOp0
 70
     1
102
RTVSPropertyOp1
 70
     1
102
RTVSPropertyOp2
 70
     1
102
RTVSPropertyOp3
 70
     1
102
RTVSPropertyOp4
 70
     1
102
RTVSPropertyOp5
 70
     1
102
RTVSPropertyOp6
 70
     1
102
RTVSPropertyOp7
 70
     1
102
RTVSPropertyOp8
 70
     1
102
RTVSPropertyOp9
 70
     1
102
RTVSPropertyOp10
 70
     1
102
RTVSPropertyOp11
 70
     1
102
RTVSPropertyOp12
 70
     1
102
RTVSPropertyOp13
 70
     1
102
RTVSPropertyOp14
 70
     1
102
RTVSPropertyOp15
 70
     1
102
RTVSPropertyOp16
 70
     1
102
RTVSPropertyOp17
 70
     1
102
RTVSPropertyOp18
 70
     1
102
RTVSPropertyOp19
 70
     1
102
RTVSPropertyOp20
 70
     1
102
RTVSPropertyOp21
 70
     1
102
RTVSPropertyOp22
 70
     1
102
RTVSPropertyOp23
 70
     1
102
RTVSPropertyOp24
 70
     1
102
RTVSPropertyOp25
 70
     1
102
RTVSPropertyOp26
 70
     1
102
RTVSPropertyOp27
 70
     1
  0
XRECORD
  5
1302
102
{ACAD_REACTORS
330
1301
102
}
330
1301
100
AcDbXrecord
280
     1
102
RTVSPropertyOp0
 70
     1
102
RTVSPropertyOp1
 70
     1
102
RTVSPropertyOp2
 70
     1
102
RTVSPropertyOp3
 70
     1
102
RTVSPropertyOp4
 70
     1
102
RTVSPropertyOp5
 70
     1
102
RTVSPropertyOp6
 70
     1
102
RTVSPropertyOp7
 70
     1
102
RTVSPropertyOp8
 70
     1
102
RTVSPropertyOp9
 70
     1
102
RTVSPropertyOp10
 70
     1
102
RTVSPropertyOp11
 70
     1
102
RTVSPropertyOp12
 70
     1
102
RTVSPropertyOp13
 70
     1
102
RTVSPropertyOp14
 70
     1
102
RTVSPropertyOp15
 70
     1
102
RTVSPropertyOp16
 70
     1
102
RTVSPropertyOp17
 70
     1
102
RTVSPropertyOp18
 70
     1
102
RTVSPropertyOp19
 70
     1
102
RTVSPropertyOp20
 70
     1
102
RTVSPropertyOp21
 70
     1
102
RTVSPropertyOp22
 70
     1
102
RTVSPropertyOp23
 70
     1
102
RTVSPropertyOp24
 70
     1
102
RTVSPropertyOp25
 70
     1
102
RTVSPropertyOp26
 70
     1
102
RTVSPropertyOp27
 70
     1
  0
XRECORD
  5
1304
102
{ACAD_REACTORS
330
1303
102
}
330
1303
100
AcDbXrecord
280
     1
102
RTVSPropertyOp0
 70
     1
102
RTVSPropertyOp1
 70
     1
102
RTVSPropertyOp2
 70
     1
102
RTVSPropertyOp3
 70
     1
102
RTVSPropertyOp4
 70
     1
102
RTVSPropertyOp5
 70
     1
102
RTVSPropertyOp6
 70
     1
102
RTVSPropertyOp7
 70
     1
102
RTVSPropertyOp8
 70
     1
102
RTVSPropertyOp9
 70
     1
102
RTVSPropertyOp10
 70
     1
102
RTVSPropertyOp11
 70
     1
102
RTVSPropertyOp12
 70
     1
102
RTVSPropertyOp13
 70
     1
102
RTVSPropertyOp14
 70
     1
102
RTVSPropertyOp15
 70
     1
102
RTVSPropertyOp16
 70
     1
102
RTVSPropertyOp17
 70
     1
102
RTVSPropertyOp18
 70
     1
102
RTVSPropertyOp19
 70
     1
102
RTVSPropertyOp20
 70
     1
102
RTVSPropertyOp21
 70
     1
102
RTVSPropertyOp22
 70
     1
102
RTVSPropertyOp23
 70
     1
102
RTVSPropertyOp24
 70
     1
102
RTVSPropertyOp25
 70
     1
102
RTVSPropertyOp26
 70
     1
102
RTVSPropertyOp27
 70
     1
  0
XRECORD
  5
131E
102
{ACAD_REACTORS
330
131D
102
}
330
131D
100
AcDbXrecord
280
     1
102
RTVSPropertyOp0
 70
     0
102
RTVSPropertyOp1
 70
     0
102
RTVSPropertyOp2
 70
     0
102
RTVSPropertyOp3
 70
     0
102
RTVSPropertyOp4
 70
     0
102
RTVSPropertyOp5
 70
     0
102
RTVSPropertyOp6
 70
     0
102
RTVSPropertyOp7
 70
     0
102
RTVSPropertyOp8
 70
     0
102
RTVSPropertyOp9
 70
     0
102
RTVSPropertyOp10
 70
     0
102
RTVSPropertyOp11
 70
     0
102
RTVSPropertyOp12
 70
     0
102
RTVSPropertyOp13
 70
     0
102
RTVSPropertyOp14
 70
     2
102
RTVSPropertyOp15
 70
     0
102
RTVSPropertyOp16
 70
     0
102
RTVSPropertyOp17
 70
     0
102
RTVSPropertyOp18
 70
     0
102
RTVSPropertyOp19
 70
     0
102
RTVSPropertyOp20
 70
     0
102
RTVSPropertyOp21
 70
     0
102
RTVSPropertyOp22
 70
     0
102
RTVSPropertyOp23
 70
     0
102
RTVSPropertyOp24
 70
     0
102
RTVSPropertyOp25
 70
     0
102
RTVSPropertyOp26
 70
     0
102
RTVSPropertyOp27
 70
     0
  0
XRECORD
  5
1318
102
{ACAD_REACTORS
330
1317
102
}
330
1317
100
AcDbXrecord
280
     1
102
RTVSPropertyOp0
 70
     1
102
RTVSPropertyOp1
 70
     1
102
RTVSPropertyOp2
 70
     1
102
RTVSPropertyOp3
 70
     1
102
RTVSPropertyOp4
 70
     1
102
RTVSPropertyOp5
 70
     1
102
RTVSPropertyOp6
 70
     1
102
RTVSPropertyOp7
 70
     1
102
RTVSPropertyOp8
 70
     1
102
RTVSPropertyOp9
 70
     1
102
RTVSPropertyOp10
 70
     1
102
RTVSPropertyOp11
 70
     1
102
RTVSPropertyOp12
 70
     1
102
RTVSPropertyOp13
 70
     1
102
RTVSPropertyOp14
 70
     1
102
RTVSPropertyOp15
 70
     1
102
RTVSPropertyOp16
 70
     1
102
RTVSPropertyOp17
 70
     1
102
RTVSPropertyOp18
 70
     1
102
RTVSPropertyOp19
 70
     1
102
RTVSPropertyOp20
 70
     1
102
RTVSPropertyOp21
 70
     1
102
RTVSPropertyOp22
 70
     1
102
RTVSPropertyOp23
 70
     1
102
RTVSPropertyOp24
 70
     1
102
RTVSPropertyOp25
 70
     1
102
RTVSPropertyOp26
 70
     1
102
RTVSPropertyOp27
 70
     1
  0
XRECORD
  5
1320
102
{ACAD_REACTORS
330
131F
102
}
330
131F
100
AcDbXrecord
280
     1
102
RTVSPropertyOp0
 70
     0
102
RTVSPropertyOp1
 70
     0
102
RTVSPropertyOp2
 70
     0
102
RTVSPropertyOp3
 70
     0
102
RTVSPropertyOp4
 70
     0
102
RTVSPropertyOp5
 70
     0
102
RTVSPropertyOp6
 70
     0
102
RTVSPropertyOp7
 70
     0
102
RTVSPropertyOp8
 70
     0
102
RTVSPropertyOp9
 70
     0
102
RTVSPropertyOp10
 70
     0
102
RTVSPropertyOp11
 70
     0
102
RTVSPropertyOp12
 70
     0
102
RTVSPropertyOp13
 70
     0
102
RTVSPropertyOp14
 70
     2
102
RTVSPropertyOp15
 70
     0
102
RTVSPropertyOp16
 70
     0
102
RTVSPropertyOp17
 70
     0
102
RTVSPropertyOp18
 70
     0
102
RTVSPropertyOp19
 70
     0
102
RTVSPropertyOp20
 70
     0
102
RTVSPropertyOp21
 70
     0
102
RTVSPropertyOp22
 70
     0
102
RTVSPropertyOp23
 70
     0
102
RTVSPropertyOp24
 70
     0
102
RTVSPropertyOp25
 70
     0
102
RTVSPropertyOp26
 70
     0
102
RTVSPropertyOp27
 70
     0
  0
XRECORD
  5
1310
102
{ACAD_REACTORS
330
130F
102
}
330
130F
100
AcDbXrecord
280
     1
102
RTVSPropertyOp0
 70
     1
102
RTVSPropertyOp1
 70
     1
102
RTVSPropertyOp2
 70
     1
102
RTVSPropertyOp3
 70
     1
102
RTVSPropertyOp4
 70
     1
102
RTVSPropertyOp5
 70
     1
102
RTVSPropertyOp6
 70
     1
102
RTVSPropertyOp7
 70
     1
102
RTVSPropertyOp8
 70
     1
102
RTVSPropertyOp9
 70
     1
102
RTVSPropertyOp10
 70
     1
102
RTVSPropertyOp11
 70
     1
102
RTVSPropertyOp12
 70
     1
102
RTVSPropertyOp13
 70
     1
102
RTVSPropertyOp14
 70
     1
102
RTVSPropertyOp15
 70
     1
102
RTVSPropertyOp16
 70
     1
102
RTVSPropertyOp17
 70
     1
102
RTVSPropertyOp18
 70
     1
102
RTVSPropertyOp19
 70
     1
102
RTVSPropertyOp20
 70
     1
102
RTVSPropertyOp21
 70
     1
102
RTVSPropertyOp22
 70
     1
102
RTVSPropertyOp23
 70
     1
102
RTVSPropertyOp24
 70
     1
102
RTVSPropertyOp25
 70
     1
102
RTVSPropertyOp26
 70
     1
102
RTVSPropertyOp27
 70
     1
  0
XRECORD
  5
1316
102
{ACAD_REACTORS
330
1315
102
}
330
1315
100
AcDbXrecord
280
     1
102
RTVSPropertyOp0
 70
     1
102
RTVSPropertyOp1
 70
     1
102
RTVSPropertyOp2
 70
     1
102
RTVSPropertyOp3
 70
     1
102
RTVSPropertyOp4
 70
     1
102
RTVSPropertyOp5
 70
     1
102
RTVSPropertyOp6
 70
     1
102
RTVSPropertyOp7
 70
     1
102
RTVSPropertyOp8
 70
     1
102
RTVSPropertyOp9
 70
     1
102
RTVSPropertyOp10
 70
     1
102
RTVSPropertyOp11
 70
     1
102
RTVSPropertyOp12
 70
     1
102
RTVSPropertyOp13
 70
     1
102
RTVSPropertyOp14
 70
     1
102
RTVSPropertyOp15
 70
     1
102
RTVSPropertyOp16
 70
     1
102
RTVSPropertyOp17
 70
     1
102
RTVSPropertyOp18
 70
     1
102
RTVSPropertyOp19
 70
     1
102
RTVSPropertyOp20
 70
     1
102
RTVSPropertyOp21
 70
     1
102
RTVSPropertyOp22
 70
     1
102
RTVSPropertyOp23
 70
     1
102
RTVSPropertyOp24
 70
     1
102
RTVSPropertyOp25
 70
     1
102
RTVSPropertyOp26
 70
     1
102
RTVSPropertyOp27
 70
     1
  0
ENDSEC
  0
EOF
