  0
SECTION
  2
HEADER
  9
$ACADVER
  1
AC1015
  9
$ACADMAINTVER
 70
    20
  9
$DWGCODEPAGE
  3
ANSI_1252
  9
$INSBASE
 10
0.0
 20
0.0
 30
0.0
  9
$EXTMIN
 10
91.59942735405582
 20
171.7031258913957
 30
-0.0000000349181948
  9
$EXTMAX
 10
94.9960333143781
 20
172.5641790134415
 30
0.0000000814935746
  9
$LIMMIN
 10
0.0
 20
0.0
  9
$LIMMAX
 10
420.0
 20
297.0
  9
$ORTHOMODE
 70
     1
  9
$REGENMODE
 70
     1
  9
$FILLMODE
 70
     1
  9
$QTEXTMODE
 70
     0
  9
$MIRRTEXT
 70
     1
  9
$LTSCALE
 40
1.0
  9
$ATTMODE
 70
     1
  9
$TEXTSIZE
 40
2.5
  9
$TRACEWID
 40
1.0
  9
$TEXTSTYLE
  7
SANINDUSA
  9
$CLAYER
  8
cotas
  9
$CELTYPE
  6
ByLayer
  9
$CECOLOR
 62
   256
  9
$CELTSCALE
 40
1.0
  9
$DISPSILH
 70
     0
  9
$DIMSCALE
 40
1.0
  9
$DIMASZ
 40
2.0
  9
$DIMEXO
 40
1.0
  9
$DIMDLI
 40
1.0
  9
$DIMRND
 40
0.0
  9
$DIMDLE
 40
0.0
  9
$DIMEXE
 40
1.0
  9
$DIMTP
 40
0.0
  9
$DIMTM
 40
0.0
  9
$DIMTXT
 40
2.0
  9
$DIMCEN
 40
0.0
  9
$DIMTSZ
 40
0.0
  9
$DIMTOL
 70
     0
  9
$DIMLIM
 70
     0
  9
$DIMTIH
 70
     0
  9
$DIMTOH
 70
     0
  9
$DIMSE1
 70
     0
  9
$DIMSE2
 70
     0
  9
$DIMTAD
 70
     1
  9
$DIMZIN
 70
     8
  9
$DIMBLK
  1

  9
$DIMASO
 70
     1
  9
$DIMSHO
 70
     1
  9
$DIMPOST
  1

  9
$DIMAPOST
  1

  9
$DIMALT
 70
     0
  9
$DIMALTD
 70
     3
  9
$DIMALTF
 40
0.03937007874016
  9
$DIMLFAC
 40
1.0
  9
$DIMTOFL
 70
     1
  9
$DIMTVP
 40
0.0
  9
$DIMTIX
 70
     0
  9
$DIMSOXD
 70
     0
  9
$DIMSAH
 70
     0
  9
$DIMBLK1
  1

  9
$DIMBLK2
  1

  9
$DIMSTYLE
  2
SANINDUSA
  9
$DIMCLRD
 70
   256
  9
$DIMCLRE
 70
   256
  9
$DIMCLRT
 70
   256
  9
$DIMTFAC
 40
1.0
  9
$DIMGAP
 40
1.0
  9
$DIMJUST
 70
     0
  9
$DIMSD1
 70
     0
  9
$DIMSD2
 70
     0
  9
$DIMTOLJ
 70
     0
  9
$DIMTZIN
 70
     8
  9
$DIMALTZ
 70
     0
  9
$DIMALTTZ
 70
     0
  9
$DIMUPT
 70
     0
  9
$DIMDEC
 70
     1
  9
$DIMTDEC
 70
     1
  9
$DIMALTU
 70
     2
  9
$DIMALTTD
 70
     3
  9
$DIMTXSTY
  7
SANINDUSA
  9
$DIMAUNIT
 70
     0
  9
$DIMADEC
 70
     1
  9
$DIMALTRND
 40
0.0
  9
$DIMAZIN
 70
     0
  9
$DIMDSEP
 70
    44
  9
$DIMATFIT
 70
     3
  9
$DIMFRAC
 70
     0
  9
$DIMLDRBLK
  1

  9
$DIMLUNIT
 70
     2
  9
$DIMLWD
 70
    -1
  9
$DIMLWE
 70
    -1
  9
$DIMTMOVE
 70
     0
  9
$LUNITS
 70
     2
  9
$LUPREC
 70
     4
  9
$SKETCHINC
 40
1.0
  9
$FILLETRAD
 40
0.0
  9
$AUNITS
 70
     0
  9
$AUPREC
 70
     0
  9
$MENU
  1
.
  9
$ELEVATION
 40
0.0
  9
$PELEVATION
 40
0.0
  9
$THICKNESS
 40
0.0
  9
$LIMCHECK
 70
     0
  9
$CHAMFERA
 40
10.0
  9
$CHAMFERB
 40
10.0
  9
$CHAMFERC
 40
20.0
  9
$CHAMFERD
 40
0.0
  9
$SKPOLY
 70
     0
  9
$TDCREATE
 40
2453480.580812535
  9
$TDUCREATE
 40
2453480.539145868
  9
$TDUPDATE
 40
2456146.740954491
  9
$TDUUPDATE
 40
2456146.699287824
  9
$TDINDWG
 40
0.0011801968
  9
$TDUSRTIMER
 40
0.0011801968
  9
$USRTIMER
 70
     1
  9
$ANGBASE
 50
0.0
  9
$ANGDIR
 70
     0
  9
$PDMODE
 70
     0
  9
$PDSIZE
 40
0.0
  9
$PLINEWID
 40
0.0
  9
$SPLFRAME
 70
     0
  9
$SPLINETYPE
 70
     6
  9
$SPLINESEGS
 70
     8
  9
$HANDSEED
  5
D14
  9
$SURFTAB1
 70
     6
  9
$SURFTAB2
 70
     6
  9
$SURFTYPE
 70
     6
  9
$SURFU
 70
     6
  9
$SURFV
 70
     6
  9
$UCSBASE
  2

  9
$UCSNAME
  2

  9
$UCSORG
 10
0.0
 20
0.0
 30
0.0
  9
$UCSXDIR
 10
1.0
 20
0.0
 30
0.0
  9
$UCSYDIR
 10
0.0
 20
1.0
 30
0.0
  9
$UCSORTHOREF
  2

  9
$UCSORTHOVIEW
 70
     0
  9
$UCSORGTOP
 10
0.0
 20
0.0
 30
0.0
  9
$UCSORGBOTTOM
 10
0.0
 20
0.0
 30
0.0
  9
$UCSORGLEFT
 10
0.0
 20
0.0
 30
0.0
  9
$UCSORGRIGHT
 10
0.0
 20
0.0
 30
0.0
  9
$UCSORGFRONT
 10
0.0
 20
0.0
 30
0.0
  9
$UCSORGBACK
 10
0.0
 20
0.0
 30
0.0
  9
$PUCSBASE
  2

  9
$PUCSNAME
  2

  9
$PUCSORG
 10
0.0
 20
0.0
 30
0.0
  9
$PUCSXDIR
 10
1.0
 20
0.0
 30
0.0
  9
$PUCSYDIR
 10
0.0
 20
1.0
 30
0.0
  9
$PUCSORTHOREF
  2

  9
$PUCSORTHOVIEW
 70
     0
  9
$PUCSORGTOP
 10
0.0
 20
0.0
 30
0.0
  9
$PUCSORGBOTTOM
 10
0.0
 20
0.0
 30
0.0
  9
$PUCSORGLEFT
 10
0.0
 20
0.0
 30
0.0
  9
$PUCSORGRIGHT
 10
0.0
 20
0.0
 30
0.0
  9
$PUCSORGFRONT
 10
0.0
 20
0.0
 30
0.0
  9
$PUCSORGBACK
 10
0.0
 20
0.0
 30
0.0
  9
$USERI1
 70
     0
  9
$USERI2
 70
     0
  9
$USERI3
 70
     0
  9
$USERI4
 70
     0
  9
$USERI5
 70
     0
  9
$USERR1
 40
0.0
  9
$USERR2
 40
0.0
  9
$USERR3
 40
0.0
  9
$USERR4
 40
0.0
  9
$USERR5
 40
0.0
  9
$WORLDVIEW
 70
     1
  9
$SHADEDGE
 70
     3
  9
$SHADEDIF
 70
    70
  9
$TILEMODE
 70
     1
  9
$MAXACTVP
 70
    64
  9
$PINSBASE
 10
0.0
 20
0.0
 30
0.0
  9
$PLIMCHECK
 70
     0
  9
$PEXTMIN
 10
1.000000000000000E+20
 20
1.000000000000000E+20
 30
1.000000000000000E+20
  9
$PEXTMAX
 10
-1.000000000000000E+20
 20
-1.000000000000000E+20
 30
-1.000000000000000E+20
  9
$PLIMMIN
 10
0.0
 20
0.0
  9
$PLIMMAX
 10
420.0
 20
297.0
  9
$UNITMODE
 70
     0
  9
$VISRETAIN
 70
     1
  9
$PLINEGEN
 70
     0
  9
$PSLTSCALE
 70
     1
  9
$TREEDEPTH
 70
  3020
  9
$CMLSTYLE
  2
Standard
  9
$CMLJUST
 70
     0
  9
$CMLSCALE
 40
20.0
  9
$PROXYGRAPHICS
 70
     1
  9
$MEASUREMENT
 70
     1
  9
$CELWEIGHT
370
    -1
  9
$ENDCAPS
280
     0
  9
$JOINSTYLE
280
     0
  9
$LWDISPLAY
290
     0
  9
$INSUNITS
 70
     4
  9
$HYPERLINKBASE
  1

  9
$STYLESHEET
  1
monochrome.ctb
  9
$XEDIT
290
     1
  9
$CEPSNTYPE
380
     0
  9
$PSTYLEMODE
290
     1
  9
$FINGERPRINTGUID
  2
{B98A73AA-52AA-4C10-B469-C0E7150AC31F}
  9
$VERSIONGUID
  2
{721966D2-BD92-45CC-A142-8C7AECCAD4B7}
  9
$EXTNAMES
290
     1
  9
$PSVPSCALE
 40
0.0
  9
$OLESTARTUP
290
     0
  0
ENDSEC
  0
SECTION
  2
CLASSES
  0
CLASS
  1
ACDBDICTIONARYWDFLT
  2
AcDbDictionaryWithDefault
  3
ObjectDBX Classes
 90
        0
280
     0
281
     0
  0
CLASS
  1
ACDBPLACEHOLDER
  2
AcDbPlaceHolder
  3
ObjectDBX Classes
 90
        0
280
     0
281
     0
  0
CLASS
  1
LAYOUT
  2
AcDbLayout
  3
ObjectDBX Classes
 90
        0
280
     0
281
     0
  0
CLASS
  1
DICTIONARYVAR
  2
AcDbDictionaryVar
  3
ObjectDBX Classes
 90
        0
280
     0
281
     0
  0
CLASS
  1
DIMASSOC
  2
AcDbDimAssoc
  3
"AcDbDimAssoc|Product Desc:     AcDim ARX App For Dimension|Company:          Autodesk, Inc.|WEB Address:      www.autodesk.com"
 90
    32768
280
     0
281
     0
  0
CLASS
  1
MATERIAL
  2
AcDbMaterial
  3
ObjectDBX Classes
 90
     1153
280
     0
281
     0
  0
CLASS
  1
VISUALSTYLE
  2
AcDbVisualStyle
  3
ObjectDBX Classes
 90
     4095
280
     0
281
     0
  0
CLASS
  1
TABLESTYLE
  2
AcDbTableStyle
  3
ObjectDBX Classes
 90
     4095
280
     0
281
     0
  0
CLASS
  1
SCALE
  2
AcDbScale
  3
ObjectDBX Classes
 90
     1153
280
     0
281
     0
  0
CLASS
  1
MLEADERSTYLE
  2
AcDbMLeaderStyle
  3
ACDB_MLEADERSTYLE_CLASS
 90
     4095
280
     0
281
     0
  0
CLASS
  1
CELLSTYLEMAP
  2
AcDbCellStyleMap
  3
ObjectDBX Classes
 90
     1152
280
     0
281
     0
  0
ENDSEC
  0
SECTION
  2
TABLES
  0
TABLE
  2
VPORT
  5
8
330
0
100
AcDbSymbolTable
 70
     1
  0
VPORT
  5
C71
330
8
100
AcDbSymbolTableRecord
100
AcDbViewportTableRecord
  2
*Active
 70
     0
 10
0.0
 20
0.0
 11
1.0
 21
1.0
 12
93.29773033421696
 22
172.1336524524186
 13
0.0
 23
0.0
 14
10.0
 24
10.0
 15
10.0
 25
10.0
 16
0.0
 26
0.0
 36
1.0
 17
0.0
 27
0.0
 37
0.0
 40
2.072064358172795
 41
1.645464025026068
 42
50.0
 43
0.0
 44
0.0
 50
0.0
 51
0.0
 71
     0
 72
   100
 73
     1
 74
     2
 75
     0
 76
     0
 77
     0
 78
     0
281
     0
 65
     1
110
0.0
120
0.0
130
0.0
111
1.0
121
0.0
131
0.0
112
0.0
122
1.0
132
0.0
 79
     0
146
0.0
  0
ENDTAB
  0
TABLE
  2
LTYPE
  5
5
330
0
100
AcDbSymbolTable
 70
     3
  0
LTYPE
  5
14
330
5
100
AcDbSymbolTableRecord
100
AcDbLinetypeTableRecord
  2
ByBlock
 70
     0
  3

 72
    65
 73
     0
 40
0.0
  0
LTYPE
  5
15
330
5
100
AcDbSymbolTableRecord
100
AcDbLinetypeTableRecord
  2
ByLayer
 70
     0
  3

 72
    65
 73
     0
 40
0.0
  0
LTYPE
  5
16
330
5
100
AcDbSymbolTableRecord
100
AcDbLinetypeTableRecord
  2
Continuous
 70
     0
  3
Solid line
 72
    65
 73
     0
 40
0.0
  0
LTYPE
  5
2D
330
5
100
AcDbSymbolTableRecord
100
AcDbLinetypeTableRecord
  2
DASHDOT
 70
     0
  3
Dash dot __ . __ . __ . __ . __ . __ . __ . __
 72
    65
 73
     4
 40
25.4
 49
12.7
 74
     0
 49
-6.349999999999999
 74
     0
 49
0.0
 74
     0
 49
-6.349999999999999
 74
     0
  0
LTYPE
  5
2E
330
5
100
AcDbSymbolTableRecord
100
AcDbLinetypeTableRecord
  2
HIDDEN
 70
     0
  3
Hidden __ __ __ __ __ __ __ __ __ __ __ __ __ _
 72
    65
 73
     2
 40
9.524999999999998
 49
6.349999999999999
 74
     0
 49
-3.174999999999999
 74
     0
  0
ENDTAB
  0
TABLE
  2
LAYER
  5
2
330
0
100
AcDbSymbolTable
 70
    16
  0
LAYER
  5
10
102
{ACAD_XDICTIONARY
360
CBB
102
}
330
2
100
AcDbSymbolTableRecord
100
AcDbLayerTableRecord
  2
0
 70
     0
 62
     7
  6
Continuous
370
    -3
390
F
  0
LAYER
  5
2F
102
{ACAD_XDICTIONARY
360
CBD
102
}
330
2
100
AcDbSymbolTableRecord
100
AcDbLayerTableRecord
  2
1
 70
     0
 62
     1
  6
Continuous
370
    -3
390
F
  0
LAYER
  5
30
102
{ACAD_XDICTIONARY
360
CBF
102
}
330
2
100
AcDbSymbolTableRecord
100
AcDbLayerTableRecord
  2
2
 70
     0
 62
     2
  6
Continuous
370
    -3
390
F
  0
LAYER
  5
31
102
{ACAD_XDICTIONARY
360
CC1
102
}
330
2
100
AcDbSymbolTableRecord
100
AcDbLayerTableRecord
  2
3
 70
     0
 62
     3
  6
Continuous
370
    -3
390
F
  0
LAYER
  5
32
102
{ACAD_XDICTIONARY
360
CC3
102
}
330
2
100
AcDbSymbolTableRecord
100
AcDbLayerTableRecord
  2
4
 70
     0
 62
     4
  6
Continuous
370
    -3
390
F
  0
LAYER
  5
33
102
{ACAD_XDICTIONARY
360
CC5
102
}
330
2
100
AcDbSymbolTableRecord
100
AcDbLayerTableRecord
  2
5
 70
     0
 62
     5
  6
Continuous
370
    -3
390
F
  0
LAYER
  5
34
102
{ACAD_XDICTIONARY
360
CC7
102
}
330
2
100
AcDbSymbolTableRecord
100
AcDbLayerTableRecord
  2
6
 70
     0
 62
     6
  6
Continuous
370
    -3
390
F
  0
LAYER
  5
35
102
{ACAD_XDICTIONARY
360
CC9
102
}
330
2
100
AcDbSymbolTableRecord
100
AcDbLayerTableRecord
  2
7
 70
     0
 62
     7
  6
Continuous
370
    -3
390
F
  0
LAYER
  5
36
102
{ACAD_XDICTIONARY
360
CCB
102
}
330
2
100
AcDbSymbolTableRecord
100
AcDbLayerTableRecord
  2
cen
 70
     0
 62
     7
  6
DASHDOT
370
    -3
390
F
  0
LAYER
  5
37
102
{ACAD_XDICTIONARY
360
CCD
102
}
330
2
100
AcDbSymbolTableRecord
100
AcDbLayerTableRecord
  2
hid
 70
     0
 62
     7
  6
HIDDEN
370
    -3
390
F
  0
LAYER
  5
5D6
102
{ACAD_XDICTIONARY
360
CCF
102
}
330
2
100
AcDbSymbolTableRecord
100
AcDbLayerTableRecord
  2
hatch
 70
     0
 62
     9
  6
Continuous
370
    -3
390
F
  0
LAYER
  5
8AF
102
{ACAD_XDICTIONARY
360
CD1
102
}
330
2
100
AcDbSymbolTableRecord
100
AcDbLayerTableRecord
  2
9
 70
     0
 62
     9
  6
Continuous
370
    -3
390
F
  0
LAYER
  5
8F8
102
{ACAD_XDICTIONARY
360
CD3
102
}
330
2
100
AcDbSymbolTableRecord
100
AcDbLayerTableRecord
  2
leg fin
 70
     0
 62
     9
  6
Continuous
370
    -3
390
F
  0
LAYER
  5
91D
102
{ACAD_XDICTIONARY
360
CD5
102
}
330
2
100
AcDbSymbolTableRecord
100
AcDbLayerTableRecord
  2
cotas
 70
     0
 62
     1
  6
Continuous
370
    -3
390
F
  0
LAYER
  5
92F
330
2
100
AcDbSymbolTableRecord
100
AcDbLayerTableRecord
  2
Defpoints
 70
     0
 62
     7
  6
Continuous
290
     0
370
    -3
390
F
  0
LAYER
  5
BA5
102
{ACAD_XDICTIONARY
360
CD7
102
}
330
2
100
AcDbSymbolTableRecord
100
AcDbLayerTableRecord
  2
BLOCKS
 70
     0
 62
     3
  6
Continuous
370
    -3
390
F
  0
ENDTAB
  0
TABLE
  2
STYLE
  5
3
330
0
100
AcDbSymbolTable
 70
     3
  0
STYLE
  5
11
330
3
100
AcDbSymbolTableRecord
100
AcDbTextStyleTableRecord
  2
Standard
 70
     0
 40
0.0
 41
1.0
 50
0.0
 71
     0
 42
2.5
  3
Avgardn.ttf
  4

1001
ACAD
1000
AvantGarde Bk BT
1071
       34
  0
STYLE
  5
2C
330
3
100
AcDbSymbolTableRecord
100
AcDbTextStyleTableRecord
  2

 70
     1
 40
0.0
 41
1.0
 50
0.0
 71
     0
 42
2.5
  3
ltypeshp.shx
  4

  0
STYLE
  5
91F
330
3
100
AcDbSymbolTableRecord
100
AcDbTextStyleTableRecord
  2
SANINDUSA
 70
     0
 40
0.0
 41
1.0
 50
0.0
 71
     0
 42
2.5
  3
verdana.TTF
  4

1001
ACAD
1000
Verdana
1071
       34
  0
ENDTAB
  0
TABLE
  2
VIEW
  5
6
330
0
100
AcDbSymbolTable
 70
     0
  0
ENDTAB
  0
TABLE
  2
UCS
  5
7
330
0
100
AcDbSymbolTable
 70
     0
  0
ENDTAB
  0
TABLE
  2
APPID
  5
9
330
0
100
AcDbSymbolTable
 70
     3
  0
APPID
  5
12
330
9
100
AcDbSymbolTableRecord
100
AcDbRegAppTableRecord
  2
ACAD
 70
     0
  0
APPID
  5
3A
330
9
100
AcDbSymbolTableRecord
100
AcDbRegAppTableRecord
  2
DCO15
 70
     0
  0
APPID
  5
D13
330
9
100
AcDbSymbolTableRecord
100
AcDbRegAppTableRecord
  2
ACAD_MLEADERVER
 70
     0
  0
ENDTAB
  0
TABLE
  2
DIMSTYLE
  5
A
330
0
100
AcDbSymbolTable
 70
     2
100
AcDbDimStyleTable
 71
     1
340
921
  0
DIMSTYLE
105
45
330
A
100
AcDbSymbolTableRecord
100
AcDbDimStyleTableRecord
  2
STANDARD
 70
     0
289
     0
340
11
  0
DIMSTYLE
105
921
330
A
100
AcDbSymbolTableRecord
100
AcDbDimStyleTableRecord
  2
SANINDUSA
 70
     0
 41
2.0
 42
1.0
 43
1.0
 44
1.0
 73
     0
 74
     0
 77
     1
 78
     8
140
2.0
141
0.0
143
0.03937007874016
147
1.0
171
     3
172
     1
176
   256
177
   256
178
   256
179
     1
271
     1
272
     1
274
     3
278
    44
283
     0
284
     8
340
91F
371
    -1
372
    -1
  0
ENDTAB
  0
TABLE
  2
BLOCK_RECORD
  5
1
330
0
100
AcDbSymbolTable
 70
     8
  0
BLOCK_RECORD
  5
1F
330
1
100
AcDbSymbolTableRecord
100
AcDbBlockTableRecord
  2
*Model_Space
340
22
  0
BLOCK_RECORD
  5
1B
330
1
100
AcDbSymbolTableRecord
100
AcDbBlockTableRecord
  2
*Paper_Space
340
1E
  0
BLOCK_RECORD
  5
23
330
1
100
AcDbSymbolTableRecord
100
AcDbBlockTableRecord
  2
*Paper_Space0
340
26
  0
BLOCK_RECORD
  5
919
330
1
100
AcDbSymbolTableRecord
100
AcDbBlockTableRecord
  2
_DotSmall
340
0
  0
BLOCK_RECORD
  5
922
330
1
100
AcDbSymbolTableRecord
100
AcDbBlockTableRecord
  2
base para cotas
340
0
310
2800000020000000200000000100080000000000000400000000000000000000000000000000000000000000000080000080000000808000800000008000800080800000C0C0C000C0DCC000F0CAA6000020400000206000002080000020A0000020C0000020E00000400000004020000040400000406000004080000040A0
310
000040C0000040E00000600000006020000060400000606000006080000060A0000060C0000060E00000800000008020000080400000806000008080000080A0000080C0000080E00000A0000000A0200000A0400000A0600000A0800000A0A00000A0C00000A0E00000C0000000C0200000C0400000C0600000C0800000C0
310
A00000C0C00000C0E00000E0000000E0200000E0400000E0600000E0800000E0A00000E0C00000E0E00040000000400020004000400040006000400080004000A0004000C0004000E00040200000402020004020400040206000402080004020A0004020C0004020E000404000004040200040404000404060004040800040
310
40A0004040C0004040E00040600000406020004060400040606000406080004060A0004060C0004060E00040800000408020004080400040806000408080004080A0004080C0004080E00040A0000040A0200040A0400040A0600040A0800040A0A00040A0C00040A0E00040C0000040C0200040C0400040C0600040C08000
310
40C0A00040C0C00040C0E00040E0000040E0200040E0400040E0600040E0800040E0A00040E0C00040E0E00080000000800020008000400080006000800080008000A0008000C0008000E00080200000802020008020400080206000802080008020A0008020C0008020E00080400000804020008040400080406000804080
310
008040A0008040C0008040E00080600000806020008060400080606000806080008060A0008060C0008060E00080800000808020008080400080806000808080008080A0008080C0008080E00080A0000080A0200080A0400080A0600080A0800080A0A00080A0C00080A0E00080C0000080C0200080C0400080C0600080C0
310
800080C0A00080C0C00080C0E00080E0000080E0200080E0400080E0600080E0800080E0A00080E0C00080E0E000C0000000C0002000C0004000C0006000C0008000C000A000C000C000C000E000C0200000C0202000C0204000C0206000C0208000C020A000C020C000C020E000C0400000C0402000C0404000C0406000C0
310
408000C040A000C040C000C040E000C0600000C0602000C0604000C0606000C0608000C060A000C060C000C060E000C0800000C0802000C0804000C0806000C0808000C080A000C080C000C080E000C0A00000C0A02000C0A04000C0A06000C0A08000C0A0A000C0A0C000C0A0E000C0C00000C0C02000C0C04000C0C06000
310
C0C08000C0C0A000F0FBFF00A4A0A000808080000000FF0000FF000000FFFF00FF000000FF00FF00FFFF0000FFFFFF00A4A4A4A4A4A4A4A4A4A4A4A4A4A4A4A4A4A4A4A4A4A4A4A4A4A4A4A4A4A4A4A4A4A4A4A4A4A4A4A4A4A4A4A4A4A4A4A4A4A4A4A4A4A4A4A4A4A4A4A4A4A4A4A4A4A4A4A4A4A4A4A4A4A4A4A4A4A4A4
310
A4A4A4A4A4A4A4A4A4A4A4A4A4A4A4A4A4A4A4A4A4A4A4A4A4A4A4A4A4A4A4A4A4A4A4A4A4A4A4A4A4A4A4A4A4A4A4A4A4A4A4A4A4A4A4A4A4A4A4A4A4A4A4A4A4A4A4A4A4A4A4A4A4A4A4A4A4A4A4A4A4A4A4A4A4A4A4A4A4A4A4A4A4A4A4A4A4A4A4A4A4A4A4A4A4A4A4A4A4A4A4A4A4A4A4A4A4A4A4A4A4A4A4A4A4A4A4
310
A4A4A4A4A4A4A4A4A4A4A4A4A4A4A4A4A4A4A4A4A4A4A4A4A4A4A4A4A4A4A4A4A4A4A4A4A4A4A4A4A4A4A4A4A4A4A4A4A4A4A4A4A4A4A4A4A4A4A4A4A4A4A4A4A4A4A4A4A4A4A4A4A4A4A4A4A4A4A4A4A4A4A4A4A4A4A4A4A4A4A4A4A4A4A4A4A4A4A4A4A4A4A4A4A4A4A4A4A4A4A4A4A4A4A4A4A4A4A4A4A4A4A4A4A4A4A4
310
A4A4A4A4A4A4A4A4A4A4A4A4A4A4A4A4A4A4A4A4A4A4A4A4A4A4A4A4A4A4A4A4A4A4A4A4A4A4A4A4A4A4A4A4A4A4A4A4A4A4A4A4A4A4A4A4A4A4A4A4A4A4A4A4A4A4A4A4A4A4A4A4A4A4A4A4A4A4A4A4A4A4A4A4A4A4A4A4A4A4A4A4A4A4A4A4A4A4A4A4A4A4A4A4A4A4A4A4A4A4A4A4A4A4A4A4F9F9F9F9F9F9F9F9F9F9F9
310
F9F9F9F9F9F9F9F9F9F9F9F9F9F9F9F9F9F9F9A4A4F9F9F9F9F9F9F9F9F9F9F9F9F9F9F9F9F9F9F9F9F9F9F9F9F9F9F9F9F9F9A4A4F9F9F9F9F9F9F9F9F9F9F9F9F9F9F9F9F9F9F9F9F9F9F9F9F9F9F9F9F9F9A4A4F9A4A4A4A4A4A4A4A4A4A4A4A4A4A4A4A4A4A4A4A4A4A4A4A4A4A4A4A4F9A4A4A4A4A4A4A4A4A4A4A4A4
310
A4A4A4A4A4A4A4A4A4A4A4A4A4A4A4A4A4A4A4A4A4A4A4A4A4A4A4A4A4A4A4A4A4A4A4A4A4A4A4A4A4A4A4A4A4A4A4A4A4A4A4A4A4A4A4A4A4A4A4A4A4A4A4A4A4A4A4A4A4A4A4A4A4A4A4A4A4A4A4A4A4A4A4A4A4A4A4A4A4A4A4A4A4A4A4A4A4A4A4A4A4A4A4A4A4A4A4A4A4A4A4A4A4A4A4A4A4A4A4A4A4A4A4A4A4A4A4
310
A4A4A4A4A4A4A4A4A4A4A4A4A4A4A4A4A4A4A4A4A4A4A4A4A4A4A4A4A4A4A4A4A4A4A4A4A4A4A4A4A4A4A4A4A4A4A4A4A4A4A4A4A4A4A4A4A4A4A4A4A4A4A4A4A4A4A4A4A4A4A4A4A4A4A4A4A4A4A4A4A4A4A4A4A4A4A4A4A4A4A4A4A4A4A4A4A4A4A4A4A4A4A4A4A4A4A4A4A4A4A4A4A4A4A4A4A4A4A4A4A4A4A4A4A4A4A4
310
A4A4A4A4A4A4A4A4A4A4A4A4A4A4A4A4A4A4A4A4A4A4A4A4A4A4A4A4A4A4A4A4A4A4A4A4A4A4A4A4A4A4A4A4A4A4A4A4A4A4A4A4A4A4A4A4A4A4A4A4A4A4A4A4A4A4A4A4A4A4A4A4A4A4A4A4A4A4A4A4A4A4A4A4A4A4A4A4A4A4A4A4A4A4A4A4A4A4A4A4A4A4A4A4A4A4A4A4A4A4A4A4A4A4A4A4A4A4A4A4A4A4A4A4A4A4A4
310
A4A4A4A4A4A4A4A4A4A4A4A4A4A4A4A4A4A4A4A4A4A4A4A4A4A4A4A4A4A4A4A4A4A4A4A4A4A4A4A4A4A4A4A4A4A4A4A4A4A4A4A4A4A4A4A4
1001
ACAD
1000
DesignCenter Data
1002
{
1070
     1
1070
     4
1002
}
  0
BLOCK_RECORD
  5
AA8
330
1
100
AcDbSymbolTableRecord
100
AcDbBlockTableRecord
  2
_CLOSED
340
0
  0
BLOCK_RECORD
  5
BA6
330
1
100
AcDbSymbolTableRecord
100
AcDbBlockTableRecord
  2
106200PL
340
0
102
{BLKREFS
331
BB7
102
}
  0
BLOCK_RECORD
  5
BB8
330
1
100
AcDbSymbolTableRecord
100
AcDbBlockTableRecord
  2
106200AL
340
0
102
{BLKREFS
331
BDD
102
}
  0
BLOCK_RECORD
  5
BDE
330
1
100
AcDbSymbolTableRecord
100
AcDbBlockTableRecord
  2
106200AF
340
0
102
{BLKREFS
331
BF5
102
}
  0
BLOCK_RECORD
  5
BF6
330
1
100
AcDbSymbolTableRecord
100
AcDbBlockTableRecord
  2
106200CT
340
0
102
{BLKREFS
331
C6E
102
}
  0
ENDTAB
  0
ENDSEC
  0
SECTION
  2
BLOCKS
  0
BLOCK
  5
20
330
1F
100
AcDbEntity
  8
0
100
AcDbBlockBegin
  2
*Model_Space
 70
     0
 10
0.0
 20
0.0
 30
0.0
  3
*Model_Space
  1

  0
ENDBLK
  5
21
330
1F
100
AcDbEntity
  8
0
100
AcDbBlockEnd
  0
BLOCK
  5
1C
330
1B
100
AcDbEntity
 67
     1
  8
0
100
AcDbBlockBegin
  2
*Paper_Space
 70
     0
 10
0.0
 20
0.0
 30
0.0
  3
*Paper_Space
  1

  0
ENDBLK
  5
1D
330
1B
100
AcDbEntity
 67
     1
  8
0
100
AcDbBlockEnd
  0
BLOCK
  5
24
330
23
100
AcDbEntity
 67
     1
  8
0
100
AcDbBlockBegin
  2
*Paper_Space0
 70
     0
 10
0.0
 20
0.0
 30
0.0
  3
*Paper_Space0
  1

  0
ENDBLK
  5
25
330
23
100
AcDbEntity
 67
     1
  8
0
100
AcDbBlockEnd
  0
BLOCK
  5
91B
330
919
100
AcDbEntity
  8
0
100
AcDbBlockBegin
  2
_DotSmall
 70
     0
 10
0.0
 20
0.0
 30
0.0
  3
_DotSmall
  1

  0
LWPOLYLINE
  5
91A
330
919
100
AcDbEntity
  8
0
  6
ByBlock
 62
     0
100
AcDbPolyline
 90
        2
 70
     1
 43
0.5
 10
-0.0625
 20
0.0
 42
1.0
 10
0.0625
 20
0.0
 42
1.0
  0
ENDBLK
  5
91C
330
919
100
AcDbEntity
  8
0
100
AcDbBlockEnd
  0
BLOCK
  5
92A
330
922
100
AcDbEntity
  8
0
100
AcDbBlockBegin
  2
base para cotas
 70
     0
 10
0.0
 20
0.0
 30
0.0
  3
base para cotas
  1

  0
LINE
  5
B36
330
922
100
AcDbEntity
  8
cotas
100
AcDbLine
 10
0.0
 20
-30.0
 30
0.0
 11
327.1260136525398
 21
-30.0
 31
0.0
  0
LINE
  5
B37
330
922
100
AcDbEntity
  8
cotas
100
AcDbLine
 10
0.0
 20
-25.0
 30
0.0
 11
327.1260136525398
 21
-25.0
 31
0.0
  0
LINE
  5
B38
330
922
100
AcDbEntity
  8
cotas
100
AcDbLine
 10
0.0
 20
-20.0
 30
0.0
 11
327.1260136525398
 21
-20.0
 31
0.0
  0
LINE
  5
B39
330
922
100
AcDbEntity
  8
cotas
100
AcDbLine
 10
0.0
 20
-15.0
 30
0.0
 11
327.1260136525398
 21
-15.0
 31
0.0
  0
LINE
  5
B3A
330
922
100
AcDbEntity
  8
cotas
100
AcDbLine
 10
0.0
 20
-10.0
 30
0.0
 11
327.1260136525398
 21
-10.0
 31
0.0
  0
LINE
  5
B3B
330
922
100
AcDbEntity
  8
cotas
100
AcDbLine
 10
0.0
 20
0.0
 30
0.0
 11
0.0
 21
-30.0
 31
0.0
  0
LINE
  5
B3C
330
922
100
AcDbEntity
  8
cotas
100
AcDbLine
 10
327.1260136525398
 20
-30.0
 30
0.0
 11
327.1260136525398
 21
0.0
 31
0.0
  0
ENDBLK
  5
92B
330
922
100
AcDbEntity
  8
0
100
AcDbBlockEnd
  0
BLOCK
  5
AAD
330
AA8
100
AcDbEntity
  8
0
100
AcDbBlockBegin
  2
_CLOSED
 70
     0
 10
0.0
 20
0.0
 30
0.0
  3
_CLOSED
  1

  0
LINE
  5
AA9
330
AA8
100
AcDbEntity
  8
0
100
AcDbLine
 10
-1.0
 20
0.166667
 30
0.0
 11
0.0
 21
0.0
 31
0.0
  0
LINE
  5
AAA
330
AA8
100
AcDbEntity
  8
0
100
AcDbLine
 10
0.0
 20
0.0
 30
0.0
 11
-1.0
 21
-0.166667
 31
0.0
  0
LINE
  5
AAB
330
AA8
100
AcDbEntity
  8
0
100
AcDbLine
 10
-1.0
 20
0.166667
 30
0.0
 11
-1.0
 21
-0.166667
 31
0.0
  0
LINE
  5
AAC
330
AA8
100
AcDbEntity
  8
0
100
AcDbLine
 10
0.0
 20
0.0
 30
0.0
 11
-1.0
 21
0.0
 31
0.0
  0
ENDBLK
  5
AAE
330
AA8
100
AcDbEntity
  8
0
100
AcDbBlockEnd
  0
BLOCK
  5
BB5
330
BA6
100
AcDbEntity
  8
0
100
AcDbBlockBegin
  2
106200PL
 70
     0
 10
0.0
 20
0.0
 30
0.0
  3
106200PL
  1

  0
ARC
  5
BA7
330
BA6
100
AcDbEntity
  8
BLOCKS
  6
Continuous
100
AcDbCircle
 10
0.2224565994048853
 20
-0.0057340483568843
 30
0.0
 40
0.005
100
AcDbArc
 50
0.0
 51
90.0
  0
ARC
  5
BA8
330
BA6
100
AcDbEntity
  8
BLOCKS
  6
Continuous
100
AcDbCircle
 10
-0.2175434005951147
 20
-0.0057340483568843
 30
0.0
 40
0.005
100
AcDbArc
 50
90.0
 51
180.0
  0
LINE
  5
BA9
330
BA6
100
AcDbEntity
  8
BLOCKS
  6
Continuous
100
AcDbLine
 10
-0.2175434005951147
 20
-0.0007340483568843
 30
0.0
 11
0.2224565994048853
 21
-0.0007340483568843
 31
0.0
  0
CIRCLE
  5
BAA
330
BA6
100
AcDbEntity
  8
BLOCKS
  6
Continuous
100
AcDbCircle
 10
0.0024565994048853
 20
-0.0607340483568843
 30
0.0
 40
0.0175
  0
CIRCLE
  5
BAB
330
BA6
100
AcDbEntity
  8
BLOCKS
  6
Continuous
100
AcDbCircle
 10
0.0024565994048853
 20
-0.2107340483568843
 30
0.0
 40
0.0236433762405854
  0
ARC
  5
BAC
330
BA6
100
AcDbEntity
  8
BLOCKS
  6
Continuous
100
AcDbCircle
 10
0.0024565994048853
 20
-0.2107340483568843
 30
0.0
 40
0.0375000000000002
100
AcDbArc
 50
270.0
 51
90.0
  0
ARC
  5
BAD
330
BA6
100
AcDbEntity
  8
BLOCKS
  6
Continuous
100
AcDbCircle
 10
0.0024565994048853
 20
-0.2107340483568843
 30
0.0
 40
0.0375000000000002
100
AcDbArc
 50
90.0
 51
270.0
  0
LINE
  5
BAE
330
BA6
100
AcDbEntity
  8
BLOCKS
  6
Continuous
100
AcDbLine
 10
-0.2225434005951147
 20
-0.1328055513163
 30
0.0
 11
-0.2225434005951147
 21
-0.0057340483568843
 31
0.0
  0
LINE
  5
BAF
330
BA6
100
AcDbEntity
  8
BLOCKS
  6
Continuous
100
AcDbLine
 10
0.2274565994048853
 20
-0.0057340483568843
 30
0.0
 11
0.2274565994048853
 21
-0.1328055513163
 31
0.0
  0
LWPOLYLINE
  5
BB0
330
BA6
100
AcDbEntity
  8
BLOCKS
  6
Continuous
100
AcDbPolyline
 90
       45
 70
   128
 43
0.0
 10
0.0024565994048853
 20
-0.4514844927142092
 10
-0.0174286192418013
 20
-0.4509639153274604
 10
-0.0372090754275096
 20
-0.4494022878558296
 10
-0.0568153814267053
 20
-0.446808631208227
 10
-0.0759866354436427
 20
-0.4432165114609976
 10
-0.0947052579386182
 20
-0.4386280963973392
 10
-0.1128471650712218
 20
-0.4330763418532926
 10
-0.1302545928428672
 20
-0.426603467854565
 10
-0.1469072803519621
 20
-0.4192179836816232
 10
-0.1626147330935155
 20
-0.411001513172768
 10
-0.1773337138008001
 20
-0.4019727549936412
 10
-0.1887913154954286
 20
-0.3938614666887512
 10
-0.1994117299756963
 20
-0.3852819427363366
 10
-0.2091949572416034
 20
-0.3762341831364044
 10
-0.2181032733239418
 20
-0.366752291471552
 10
-0.2260539689518064
 20
-0.3569149590863223
 10
-0.2330470441252064
 20
-0.3467221859807129
 10
-0.2390580029087878
 20
-0.3362073667578003
 10
-0.2440243846675739
 20
-0.3254643345617175
 10
-0.2479461894015694
 20
-0.3144930893924667
 10
-0.2508093075137194
 20
-0.3033279471650318
 10
-0.2525776383804996
 20
-0.2920749334865051
 10
-0.2532511820019236
 20
-0.2807340483568843
 10
-0.2528261868552827
 20
-0.2693460702074495
 10
-0.2512981383875477
 20
-0.2580206396488704
 10
-0.2486670365987138
 20
-0.2467577566811443
 10
-0.24494516991827
 20
-0.2356095782680601
 10
-0.2401582260882069
 20
-0.2246755480245035
 10
-0.2343062051085244
 20
-0.2139556659504743
 10
-0.2274257501483326
 20
-0.2035127240430317
 10
-0.2195628322540106
 20
-0.1934250196711461
 10
-0.210717451425563
 20
-0.1836925528348198
 10
-0.2009559153281462
 20
-0.1743826311292188
 10
-0.190333388342643
 20
-0.1655511583999525
 10
-0.1788498704690446
 20
-0.1571981346470231
 10
-0.1640648104058855
 20
-0.1478937384366433
 10
-0.148262450516123
 20
-0.139425874078551
 10
-0.1314889872967351
 20
-0.131815013464981
 10
-0.1139408114434637
 20
-0.1251473330893115
 10
-0.0956371900245913
 20
-0.1194310865570871
 10
-0.0767470768799385
 20
-0.1147123317563902
 10
-0.0573929609874777
 20
-0.1110240921554092
 10
-0.0376833295727475
 20
-0.108380788934766
 10
-0.0177544929290034
 20
-0.1067999365886968
 10
0.0024565994048853
 20
-0.106272952101314
  0
LWPOLYLINE
  5
BB1
330
BA6
100
AcDbEntity
  8
BLOCKS
  6
Continuous
100
AcDbPolyline
 90
       45
 70
   128
 43
0.0
 10
0.0024565994048853
 20
-0.1162518085315848
 10
-0.0171277553371019
 20
-0.1167552519341249
 10
-0.0365763124555779
 20
-0.1182968969215509
 10
-0.0557777490943509
 20
-0.1208685379092473
 10
-0.0746081352424208
 20
-0.1244514642605001
 10
-0.0929474301440369
 20
-0.1290196000910547
 10
-0.1106771310401255
 20
-0.134543296860442
 10
-0.1276857582377179
 20
-0.1409813778855838
 10
-0.1438642740889791
 20
-0.1482894717082687
 10
-0.1591108989024915
 20
-0.1564154243571094
 10
-0.173332400469104
 20
-0.1652998546786504
 10
-0.1843355124051377
 20
-0.1732384494443651
 10
-0.194520948946757
 20
-0.1816205842897413
 10
-0.2038479113354388
 20
-0.1904052480001375
 10
-0.2122780186636019
 20
-0.1995505975836787
 10
-0.2197824088330399
 20
-0.2090135827850614
 10
-0.2263345612992962
 20
-0.2187513814944979
 10
-0.2319103345634003
 20
-0.2287213329177113
 10
-0.2364935850468701
 20
-0.238882346352954
 10
-0.2400697890859747
 20
-0.249193954829224
 10
-0.2426260681815311
 20
-0.2596163019549673
 10
-0.244155413827576
 20
-0.2701107846316782
 10
-0.2446521073501763
 20
-0.280638815827928
 10
-0.2441117290510611
 20
-0.2911618426382885
 10
-0.2425361054264486
 20
-0.3016403910840101
 10
-0.2399288870940982
 20
-0.3120344925236501
 10
-0.2362955102162742
 20
-0.3223037024125248
 10
-0.2316496619947302
 20
-0.3324062630173117
 10
-0.2260073696064738
 20
-0.3423002359136391
 10
-0.2193869576842699
 20
-0.351943454787103
 10
-0.2118160082895392
 20
-0.3612942369804128
 10
-0.2033244347422724
 20
-0.3703113695548533
 10
-0.1939444932982051
 20
-0.378954017792095
 10
-0.1837170959417117
 20
-0.3871840440527663
 10
-0.1726851395857293
 20
-0.394964281016593
 10
-0.1584486373869513
 20
-0.4036561004208026
 10
-0.1432088151112621
 20
-0.4115930876586792
 10
-0.1270588168746153
 20
-0.4187224128371046
 10
-0.1100990433127445
 20
-0.4249976057889255
 10
-0.0924361942806363
 20
-0.4303789584700864
 10
-0.0741791428347379
 20
-0.434829527783492
 10
-0.0554430954300697
 20
-0.4383225045961892
 10
-0.0363443887535605
 20
-0.440834176894745
 10
-0.0170026464999555
 20
-0.4423485290569413
 10
0.0024565994048853
 20
-0.442855517344796
  0
LWPOLYLINE
  5
BB2
330
BA6
100
AcDbEntity
  8
BLOCKS
  6
Continuous
100
AcDbPolyline
 90
       45
 70
   128
 43
0.0
 10
0.0024565994048853
 20
-0.106272952101314
 10
0.0226672064085496
 20
-0.1067999365871507
 10
0.0425962048290366
 20
-0.1083807889337383
 10
0.0623055427761747
 20
-0.1110239656463151
 10
0.0816593501580965
 20
-0.1147121419927513
 10
0.1005503888343573
 20
-0.1194310865570871
 10
0.1188531564401674
 20
-0.125147023631586
 10
0.1364016168977959
 20
-0.1318148071598322
 10
0.1531751503132991
 20
-0.1394255956405861
 10
0.1689772606967599
 20
-0.1478933207796982
 10
0.1837630692788152
 20
-0.1571981346470231
 10
0.1952460188343721
 20
-0.1655506859659764
 10
0.2058685458198752
 20
-0.1743821586952428
 10
0.2156306502353336
 20
-0.1836925528348198
 10
0.2244756103117506
 20
-0.1934244798685146
 10
0.2323385282060726
 20
-0.2035121842404002
 10
0.239219403918295
 20
-0.2139556659504743
 10
0.24507116876482
 20
-0.2246749628087483
 10
0.2498581125948831
 20
-0.235608993052305
 10
0.2535802354084799
 20
-0.2467577566811443
 10
0.2562112555538524
 20
-0.2580200335588794
 10
0.2577393040215874
 20
-0.2693454641174586
 10
0.2581643808116896
 20
-0.280734048356882
 10
0.2574909319390181
 20
-0.2920743315400561
 10
0.2557226010722334
 20
-0.3033273452185851
 10
0.25285938821134
 20
-0.3144930893924667
 10
0.2489378491753759
 20
-0.325463760150141
 10
0.2439714674165852
 20
-0.3362067923462238
 10
0.2379602429349725
 20
-0.3467221859807129
 10
0.2309675929211143
 20
-0.3569144332116245
 10
0.2230168972932451
 20
-0.3667517655968542
 10
0.214108156051374
 20
-0.3762341831364044
 10
0.2043254966373606
 20
-0.3852814841080605
 10
0.1937050821570929
 20
-0.3938610080604727
 10
0.1822469126105661
 20
-0.4019727549936435
 10
0.1675286758820484
 20
-0.4110011080770816
 10
0.1518209751475742
 20
-0.4192177136178308
 10
0.1351683560177289
 20
-0.4266032676050137
 10
0.1177612104286245
 20
-0.4330760414789636
 10
0.0996184567483842
 20
-0.4386280963973392
 10
0.0809007500610132
 20
-0.4432163270031939
 10
0.0617291907748759
 20
-0.4468085082363579
 10
0.0421225941537332
 20
-0.4494022878546541
 10
0.0223422979262514
 20
-0.4509639153256983
 10
0.0024565994048853
 20
-0.4514844927142092
  0
LWPOLYLINE
  5
BB3
330
BA6
100
AcDbEntity
  8
BLOCKS
  6
Continuous
100
AcDbPolyline
 90
       45
 70
   128
 43
0.0
 10
0.0024565994048853
 20
-0.442855517344796
 10
0.021915845309717
 20
-0.4423485290570231
 10
0.0412575875634084
 20
-0.4408341768947564
 10
0.0603562942397448
 20
-0.4383225045961801
 10
0.0790923416444448
 20
-0.4348295277834283
 10
0.0973493930904069
 20
-0.4303789584700864
 10
0.1150122421225787
 20
-0.4249976057890118
 10
0.1319720156844814
 20
-0.418722412837141
 10
0.1481220139209327
 20
-0.4115930876586337
 10
0.1633618361966264
 20
-0.4036561004206776
 10
0.1775983383954999
 20
-0.394964281016593
 10
0.1886302947514641
 20
-0.3871840440529279
 10
0.1988576921079211
 20
-0.3789540177922451
 10
0.208237633552043
 20
-0.3703113695548533
 10
0.2167292070994235
 20
-0.36129423698014
 10
0.2243001564941678
 20
-0.3519434547867005
 10
0.2309205684162398
 20
-0.3423002359136391
 10
0.2365628608043917
 20
-0.332406263017671
 10
0.241208709025972
 20
-0.3223037024127044
 10
0.2448420859038642
 20
-0.3120344925236524
 10
0.2474493042362874
 20
-0.3016403910841078
 10
0.2490249278609408
 20
-0.2911618426384886
 10
0.2495653061599423
 20
-0.2806388158279257
 10
0.2490686126371693
 20
-0.270110784631485
 10
0.247539266991097
 20
-0.2596163019548786
 10
0.2449829878957453
 20
-0.249193954829224
 10
0.2414067838567316
 20
-0.2388823463528494
 10
0.2368235333731163
 20
-0.2287213329175203
 10
0.2312477601090622
 20
-0.2187513814944979
 10
0.2246956076427787
 20
-0.2090135827851319
 10
0.2171912174731178
 20
-0.1995505975835378
 10
0.2087611101452094
 20
-0.1904052480001398
 10
0.1994341477568141
 20
-0.1816205842899823
 10
0.1892487112149992
 20
-0.1732384494444947
 10
0.1782455992788746
 20
-0.1652998546786504
 10
0.1640240977122485
 20
-0.1564154243570707
 10
0.1487774728986633
 20
-0.1482894717082301
 10
0.1325989570475658
 20
-0.1409813778856066
 10
0.1155903298498688
 20
-0.1345432968604101
 10
0.0978606289538075
 20
-0.1290196000910547
 10
0.0795213340523369
 20
-0.1244514642605865
 10
0.0606909479042033
 20
-0.120868537909295
 10
0.0414895112653076
 20
-0.1182968969215282
 10
0.0220409541468771
 20
-0.1167552519341158
 10
0.0024565994048853
 20
-0.1162518085315848
  0
LWPOLYLINE
  5
BB4
330
BA6
100
AcDbEntity
  8
BLOCKS
  6
Continuous
100
AcDbPolyline
 90
       81
 70
   128
 43
0.0
 10
0.2274565994048853
 20
-0.1328055513162978
 10
0.2359269048937213
 20
-0.138123532913684
 10
0.2469649246661119
 20
-0.1456834880495982
 10
0.2576285554699089
 20
-0.1537747955323213
 10
0.2678484287817164
 20
-0.1624044021304273
 10
0.2782040752394905
 20
-0.1722443938364169
 10
0.28793741866465
 20
-0.1827859416209745
 10
0.2969062755111636
 20
-0.1939900624219664
 10
0.3049684622329996
 20
-0.2058177731772518
 10
0.3119817952841267
 20
-0.2182300908246967
 10
0.3168453616376828
 20
-0.2288037465093127
 10
0.3208803167931491
 20
-0.2397613647296263
 10
0.3240103237313033
 20
-0.2510042838271207
 10
0.326159045432918
 20
-0.2624338421432814
 10
0.3272692575418741
 20
-0.2740608368164923
 10
0.3273309527850906
 20
-0.2857878459665691
 10
0.3263558958551439
 20
-0.297475463395612
 10
0.3243558514446013
 20
-0.3089842829057208
 10
0.3215589624240047
 20
-0.3195874947602935
 10
0.3179311407271771
 20
-0.3299696227875635
 10
0.3135426567520553
 20
-0.3400597646435782
 10
0.3084637808965672
 20
-0.349787017984385
 10
0.3017933596448429
 20
-0.3605697892632398
 10
0.2943403980933808
 20
-0.3708750755254293
 10
0.2862024452009282
 20
-0.3806796736323501
 10
0.277477049926214
 20
-0.3899603804454015
 10
0.2682617612279809
 20
-0.3986939928259827
 10
0.2562130871022727
 20
-0.4088208799434135
 10
0.2435405298064406
 20
-0.4182204286647941
 10
0.2303322781258102
 20
-0.4269092689278038
 10
0.2166765208457254
 20
-0.4349040306701265
 10
0.2026614467515164
 20
-0.4422213438294413
 10
0.1883752446285179
 20
-0.4488778383434321
 10
0.171953161457508
 20
-0.4556482953638116
 10
0.155226057498925
 20
-0.4616760811500528
 10
0.1382530197392898
 20
-0.4669822201576464
 10
0.1210931351651279
 20
-0.4715877368420767
 10
0.0973185152782426
 20
-0.4768081119262198
 10
0.0732911455215381
 20
-0.4808066103470666
 10
0.0491096338608659
 20
-0.4836109422944644
 10
0.0242873500297437
 20
-0.4852754729735254
 10
-0.000648521358381
 20
-0.4857363410992814
 10
-0.0256060866840117
 20
-0.4849836670315418
 10
-0.0504934523276607
 20
-0.4830075711301076
 10
-0.0752187246698177
 20
-0.4797981737547836
 10
-0.0996900100909907
 20
-0.4753455952653773
 10
-0.1192460778070618
 20
-0.4708220700101257
 10
-0.1386363251241264
 20
-0.4654198616687328
 10
-0.1577679065582206
 20
-0.4591071890781397
 10
-0.1765479766253757
 20
-0.4518522710752875
 10
-0.1948836898416321
 20
-0.4436233264971171
 10
-0.2126822007230166
 20
-0.4343885741805722
 10
-0.2261354088663766
 20
-0.4264553388583514
 10
-0.2391969591341704
 20
-0.4178151820226337
 10
-0.2517578149128585
 20
-0.4084575194059304
 10
-0.2637089395889107
 20
-0.3983717667407578
 10
-0.2749412965487873
 20
-0.3875473397596344
 10
-0.2845884717597355
 20
-0.3768629805566653
 10
-0.2934635225563543
 20
-0.3654742963366167
 10
-0.3014113530627274
 20
-0.3534366440109435
 10
-0.308276867402934
 20
-0.3408053804911053
 10
-0.3129513717507607
 20
-0.3301429378885283
 10
-0.3167793823950033
 20
-0.3191066553637794
 10
-0.31968746018195
 20
-0.3077995400818751
 10
-0.3216021659578847
 20
-0.2963245992078365
 10
-0.3224682721541522
 20
-0.2846778033553998
 10
-0.3222825372690305
 20
-0.2729530966911663
 10
-0.3210629899263913
 20
-0.2612888959131775
 10
-0.3188276587501341
 20
-0.2498236177194796
 10
-0.315816962315972
 20
-0.2392628534301335
 10
-0.3119863287388771
 20
-0.2289377904406403
 10
-0.3074076581349127
 20
-0.2189158801227669
 10
-0.3021528506201421
 20
-0.2092645738482785
 10
-0.2951760366237805
 20
-0.1984019003947666
 10
-0.2874105735242811
 20
-0.1880391366522387
 10
-0.2789568053781304
 20
-0.1781974063438762
 10
-0.2699150762418148
 20
-0.1688978331928653
 10
-0.2603857301718254
 20
-0.1601615409223874
 10
-0.2483080299504545
 20
-0.1503274047389702
 10
-0.2356597988896747
 20
-0.141213108934891
 10
-0.2225434005951147
 20
-0.1328055513162978
  0
ENDBLK
  5
BB6
330
BA6
100
AcDbEntity
  8
0
100
AcDbBlockEnd
  0
BLOCK
  5
BDB
330
BB8
100
AcDbEntity
  8
0
100
AcDbBlockBegin
  2
106200AL
 70
     0
 10
0.0
 20
0.0
 30
0.0
  3
106200AL
  1

  0
LINE
  5
BB9
330
BB8
100
AcDbEntity
  8
BLOCKS
  6
Continuous
100
AcDbLine
 10
0.3325306147434048
 20
0.7000000000000455
 30
0.0
 11
0.33299999999997
 21
0.7000000000000455
 31
0.0
  0
LINE
  5
BBA
330
BB8
100
AcDbEntity
  8
BLOCKS
  6
Continuous
100
AcDbLine
 10
0.4799999999999045
 20
0.8350000000000363
 30
0.0
 11
0.4507504443572543
 21
0.8350000000000363
 31
0.0
  0
ARC
  5
BBB
330
BB8
100
AcDbEntity
  8
BLOCKS
  6
Continuous
100
AcDbCircle
 10
0.4799999999999045
 20
0.8300000000000409
 30
0.0
 40
0.005
100
AcDbArc
 50
0.0
 51
90.0
  0
ARC
  5
BBC
330
BB8
100
AcDbEntity
  8
BLOCKS
  6
Continuous
100
AcDbCircle
 10
0.1340924031138684
 20
1.007452305928836
 30
0.0
 40
0.3700335915512612
100
AcDbArc
 50
303.8110935237973
 51
320.9357675971388
  0
LINE
  5
BBD
330
BB8
100
AcDbEntity
  8
BLOCKS
  6
Continuous
100
AcDbLine
 10
0.3399999999999181
 20
0.7000000000000455
 30
0.0
 11
0.33299999999997
 21
0.7000000000000455
 31
0.0
  0
LINE
  5
BBE
330
BB8
100
AcDbEntity
  8
BLOCKS
  6
Continuous
100
AcDbLine
 10
0.4799999999999045
 20
0.775000000000091
 30
0.0
 11
0.4229541511650723
 21
0.775000000000091
 31
0.0
  0
LINE
  5
BBF
330
BB8
100
AcDbEntity
  8
BLOCKS
  6
Continuous
100
AcDbLine
 10
0.4832953881460753
 20
0.7762396254221358
 30
0.0
 11
0.4837603745779689
 21
0.7767046118539156
 31
0.0
  0
ARC
  5
BC0
330
BB8
100
AcDbEntity
  8
BLOCKS
  6
Continuous
100
AcDbCircle
 10
0.4799999999999045
 20
0.7800000000000864
 30
0.0
 40
0.005
100
AcDbArc
 50
270.0
 51
0.0
  0
ARC
  5
BC1
330
BB8
100
AcDbEntity
  8
BLOCKS
100
AcDbCircle
 10
0.4229541511650723
 20
0.7730000000000246
 30
0.0
 40
0.002
100
AcDbArc
 50
90.0
 51
140.9357675971388
  0
LINE
  5
BC2
330
BB8
100
AcDbEntity
  8
BLOCKS
  6
Continuous
100
AcDbLine
 10
0.4849999999999
 20
0.8300000000000409
 30
0.0
 11
0.4849999999999
 21
0.7800000000000864
 31
0.0
  0
LINE
  5
BC3
330
BB8
100
AcDbEntity
  8
BLOCKS
  6
Continuous
100
AcDbLine
 10
0.3327542494625959
 20
0.7040000000000646
 30
0.0
 11
0.3227386327542945
 21
0.7040000000000646
 31
0.0
  0
LINE
  5
BC4
330
BB8
100
AcDbEntity
  8
BLOCKS
  6
Continuous
100
AcDbLine
 10
0.3325306147434048
 20
0.7000000000000455
 30
0.0
 11
0.33299999999997
 21
0.7000000000000455
 31
0.0
  0
LINE
  5
BC5
330
BB8
100
AcDbEntity
  8
BLOCKS
  6
Continuous
100
AcDbLine
 10
0.0414999999999282
 20
0.8350000000000363
 30
0.0
 11
0.0049999999999955
 21
0.8350000000000363
 31
0.0
  0
ARC
  5
BC6
330
BB8
100
AcDbEntity
  8
BLOCKS
  6
Continuous
100
AcDbCircle
 10
0.0049999999999955
 20
0.8300000000000409
 30
0.0
 40
0.005
100
AcDbArc
 50
90.0
 51
180.0
  0
LINE
  5
BC7
330
BB8
100
AcDbEntity
  8
BLOCKS
  6
Continuous
100
AcDbLine
 10
0.0784999999999627
 20
0.8350000000000363
 30
0.0
 11
0.0414999999999282
 21
0.8350000000000363
 31
0.0
  0
LINE
  5
BC8
330
BB8
100
AcDbEntity
  8
BLOCKS
  6
Continuous
100
AcDbLine
 10
0.1055389037444456
 20
0.8350000000000363
 30
0.0
 11
0.0784999999999627
 21
0.8350000000000363
 31
0.0
  0
LINE
  5
BC9
330
BB8
100
AcDbEntity
  8
BLOCKS
  6
Continuous
100
AcDbLine
 10
0.0019999999999527
 20
0.705000000000041
 30
0.0
 11
0.0279999999999063
 21
0.705000000000041
 31
0.0
  0
LINE
  5
BCA
330
BB8
100
AcDbEntity
  8
BLOCKS
  6
Continuous
100
AcDbLine
 10
0.0279999999999063
 20
0.705000000000041
 30
0.0
 11
0.128166344690726
 21
0.712861541313373
 31
0.0
  0
LINE
  5
BCB
330
BB8
100
AcDbEntity
  8
BLOCKS
100
AcDbLine
 10
0.0
 20
0.747000000000071
 30
0.0
 11
0.0
 21
0.7069999999999937
 31
0.0
  0
ARC
  5
BCC
330
BB8
100
AcDbEntity
  8
BLOCKS
100
AcDbCircle
 10
0.0019999999999527
 20
0.7069999999999937
 30
0.0
 40
0.002
100
AcDbArc
 50
180.0
 51
270.0
  0
LINE
  5
BCD
330
BB8
100
AcDbEntity
  8
BLOCKS
  6
Continuous
100
AcDbLine
 10
0.0
 20
0.8300000000000409
 30
0.0
 11
0.0
 21
0.747000000000071
 31
0.0
  0
LWPOLYLINE
  5
BCE
330
BB8
100
AcDbEntity
  8
BLOCKS
  6
Continuous
100
AcDbPolyline
 90
        3
 70
   128
 43
0.0
 10
0.094087017378115
 20
0.7766109380974058
 10
0.0902552708221265
 20
0.7908737312658332
 10
0.0822053103247527
 20
0.8350000000000363
  0
LWPOLYLINE
  5
BCF
330
BB8
100
AcDbEntity
  8
BLOCKS
  6
Continuous
100
AcDbPolyline
 90
        8
 70
   128
 43
0.0
 10
0.1356298306191093
 20
0.7039999999999509
 10
0.1263618320556361
 20
0.7150040740949635
 10
0.118100945619517
 20
0.7253151320487632
 10
0.1108612783988292
 20
0.7364505396346886
 10
0.1049050261075308
 20
0.7479427400090799
 10
0.0999834712813481
 20
0.7594213366388658
 10
0.0945531172403662
 20
0.7748759888170298
 10
0.094087017378115
 20
0.7766109380974058
  0
LINE
  5
BD0
330
BB8
100
AcDbEntity
  8
BLOCKS
  6
Continuous
100
AcDbLine
 10
0.1055389037444456
 20
0.8350000000000363
 30
0.0
 11
0.4507504443572543
 21
0.8350000000000363
 31
0.0
  0
LINE
  5
BD1
330
BB8
100
AcDbEntity
  8
BLOCKS
100
AcDbLine
 10
0.4214012712391196
 20
0.7742603824560775
 30
0.0
 11
0.094769424954734
 21
0.7742603824560775
 31
0.0
  0
LINE
  5
BD2
330
BB8
100
AcDbEntity
  8
BLOCKS
  6
Continuous
100
AcDbLine
 10
0.1354959315043516
 20
0.7040000000000646
 30
0.0
 11
0.3311347693672815
 21
0.7040000000000646
 31
0.0
  0
ARC
  5
BD3
330
BB8
100
AcDbEntity
  8
BLOCKS
  6
Continuous
100
AcDbCircle
 10
0.2915543470089687
 20
0.00100000000009
 30
0.0
 40
0.001
100
AcDbArc
 50
270.0
 51
356.8000000000003
  0
LINE
  5
BD4
330
BB8
100
AcDbEntity
  8
BLOCKS
  6
Continuous
100
AcDbLine
 10
0.2915543470089687
 20
0.0
 30
0.0
 11
0.2835418536423049
 21
0.0
 31
0.0
  0
ARC
  5
BD5
330
BB8
100
AcDbEntity
  8
BLOCKS
  6
Continuous
100
AcDbCircle
 10
0.158445652990963
 20
0.00100000000009
 30
0.0
 40
0.001
100
AcDbArc
 50
183.2000000000004
 51
269.9999999999854
  0
LINE
  5
BD6
330
BB8
100
AcDbEntity
  8
BLOCKS
  6
Continuous
100
AcDbLine
 10
0.1664581463576269
 20
0.0
 30
0.0
 11
0.158445652990963
 21
0.0
 31
0.0
  0
LINE
  5
BD7
330
BB8
100
AcDbEntity
  8
BLOCKS
  6
Continuous
100
AcDbLine
 10
0.2835418536423049
 20
0.0
 30
0.0
 11
0.1664581463576269
 21
0.0
 31
0.0
  0
LWPOLYLINE
  5
BD8
330
BB8
100
AcDbEntity
  8
BLOCKS
  6
Continuous
100
AcDbPolyline
 90
       15
 70
   128
 43
0.0
 10
0.1404096277889266
 20
0.5539999999999737
 10
0.140414317787986
 20
0.5486709663591683
 10
0.1400945777145353
 20
0.5434163177104665
 10
0.1394834437614918
 20
0.5383413153463153
 10
0.1381154497366879
 20
0.5311906796868016
 10
0.1363846825253177
 20
0.5246736526612495
 10
0.1350193823381005
 20
0.5204285258442951
 10
0.1336340395010893
 20
0.5165957708396718
 10
0.1323034236744434
 20
0.5132309565187825
 10
0.1310108292765335
 20
0.5101813632134054
 10
0.1299145656062137
 20
0.507734565110809
 10
0.1290836382886482
 20
0.5059533807118442
 10
0.1285736079239541
 20
0.5048839532969396
 10
0.1284859523951809
 20
0.5047030240640425
 10
0.1574472122268844
 20
0.0009441784950468
  0
LINE
  5
BD9
330
BB8
100
AcDbEntity
  8
BLOCKS
  6
Continuous
100
AcDbLine
 10
0.3327542494625959
 20
0.7040000000000646
 30
0.0
 11
0.2925527877731611
 21
0.0009441784950468
 31
0.0
  0
LINE
  5
BDA
330
BB8
100
AcDbEntity
  8
BLOCKS
  6
Continuous
100
AcDbLine
 10
0.1404096277888129
 20
0.5540000000000874
 30
0.0
 11
0.1354959315043516
 21
0.7040000000000646
 31
0.0
  0
ENDBLK
  5
BDC
330
BB8
100
AcDbEntity
  8
0
100
AcDbBlockEnd
  0
BLOCK
  5
BF3
330
BDE
100
AcDbEntity
  8
0
100
AcDbBlockBegin
  2
106200AF
 70
     0
 10
0.0
 20
0.0
 30
0.0
  3
106200AF
  1

  0
LINE
  5
BDF
330
BDE
100
AcDbEntity
  8
BLOCKS
  6
Continuous
100
AcDbLine
 10
0.325
 20
0.7800000000000022
 30
0.0
 11
0.325
 21
0.8300000000000022
 31
0.0
  0
LWPOLYLINE
  5
BE0
330
BDE
100
AcDbEntity
  8
BLOCKS
  6
Continuous
100
AcDbPolyline
 90
        9
 70
   128
 43
0.0
 10
0.3249997440460857
 20
0.7800215374517211
 10
0.3249069189223564
 20
0.7790407860195047
 10
0.3246236013670432
 20
0.7780972708866126
 10
0.3241607896532196
 20
0.7772276189294553
 10
0.3235364499447087
 20
0.7764655896857812
 10
0.3227748188568512
 20
0.7758407648230741
 10
0.3219054626008619
 20
0.775377399790159
 10
0.3209621292355087
 20
0.7750934822304726
 10
0.319999395607897
 20
0.775000000016239
  0
LINE
  5
BE1
330
BDE
100
AcDbEntity
  8
BLOCKS
  6
Continuous
100
AcDbLine
 10
0.3248661104287339
 20
0.7800000000000022
 30
0.0
 11
0.3248624317780332
 21
0.7800000000000022
 31
0.0
  0
ARC
  5
BE2
330
BDE
100
AcDbEntity
  8
BLOCKS
  6
Continuous
100
AcDbCircle
 10
0.3199999999795955
 20
0.8300000000000022
 30
0.0
 40
0.005
100
AcDbArc
 50
0.276059886460129
 51
90.00000046761094
  0
LINE
  5
BE3
330
BDE
100
AcDbEntity
  8
BLOCKS
  6
Continuous
100
AcDbLine
 10
0.0
 20
0.7000000000000023
 30
0.0
 11
0.114998507735836
 21
0.7000000000000023
 31
0.0
  0
LWPOLYLINE
  5
BE4
330
BDE
100
AcDbEntity
  8
BLOCKS
  6
Continuous
100
AcDbPolyline
 90
       30
 70
   128
 43
0.0
 10
0.1149977618026787
 20
0.7000000000000023
 10
0.1190932783860717
 20
0.7021377034374109
 10
0.1226737788731543
 20
0.7039972595385848
 10
0.1256701081769097
 20
0.70555405244133
 10
0.1280326683446856
 20
0.7067852499959122
 10
0.1301631158198097
 20
0.7079003263354935
 10
0.1324165688647918
 20
0.7090867058178038
 10
0.136207991280603
 20
0.7111045692183211
 10
0.140069227469221
 20
0.7131965674979302
 10
0.1436648521173584
 20
0.7151852950349463
 10
0.1480310290042098
 20
0.7176623174118005
 10
0.1518567708300498
 20
0.7198961790655108
 10
0.1553319622208119
 20
0.7219828563326292
 10
0.159357464834502
 20
0.7244858742083671
 10
0.1628371387474544
 20
0.7267304504429058
 10
0.1666951222707894
 20
0.729284455778934
 10
0.1709337305481267
 20
0.7321671494777775
 10
0.1755235617334574
 20
0.7353992475391692
 10
0.1798272002147996
 20
0.7385775285448358
 10
0.1833297641547006
 20
0.7412853028024893
 10
0.1850629636518215
 20
0.7426648477615982
 10
0.1865276714116544
 20
0.7438508701208707
 10
0.1879468098354846
 20
0.7450173180302386
 10
0.190130443824869
 20
0.746844338635915
 10
0.1931382736776322
 20
0.7494235833400808
 10
0.1969493929791588
 20
0.7527918065354561
 10
0.2015440708633241
 20
0.7569914002176484
 10
0.2069095129669949
 20
0.7620666423379566
 10
0.2130473599906281
 20
0.7680588259308389
 10
0.2199828271830984
 20
0.7750000000000023
  0
LINE
  5
BE5
330
BDE
100
AcDbEntity
  8
BLOCKS
  6
Continuous
100
AcDbLine
 10
-0.325
 20
0.8300000000000022
 30
0.0
 11
-0.325
 21
0.7800000000000022
 31
0.0
  0
ARC
  5
BE6
330
BDE
100
AcDbEntity
  8
BLOCKS
  6
Continuous
100
AcDbCircle
 10
-0.3199999999795955
 20
0.7800000000000022
 30
0.0
 40
0.005
100
AcDbArc
 50
180.2760598864601
 51
270.0000004676109
  0
LINE
  5
BE7
330
BDE
100
AcDbEntity
  8
BLOCKS
  6
Continuous
100
AcDbLine
 10
-0.3248661104287339
 20
0.8300000000000022
 30
0.0
 11
-0.3248624317780332
 21
0.8300000000000022
 31
0.0
  0
LWPOLYLINE
  5
BE8
330
BDE
100
AcDbEntity
  8
BLOCKS
  6
Continuous
100
AcDbPolyline
 90
        9
 70
   128
 43
0.0
 10
-0.3249997440460811
 20
0.8299784625482834
 10
-0.3249069189223474
 20
0.8309592139804999
 10
-0.3246236013670341
 20
0.831902729113392
 10
-0.324160789653215
 20
0.8327723810705492
 10
-0.3235364499447087
 20
0.8335344103142233
 10
-0.3227748188568421
 20
0.8341592351769303
 10
-0.3219054626008574
 20
0.8346226002098456
 10
-0.3209621292354996
 20
0.8349065177695321
 10
-0.3199993956078924
 20
0.8349999999837677
  0
LWPOLYLINE
  5
BE9
330
BDE
100
AcDbEntity
  8
BLOCKS
  6
Continuous
100
AcDbPolyline
 90
       31
 70
   128
 43
0.0
 10
-0.2199828271815659
 20
0.7750000000000023
 10
-0.2130473600108098
 20
0.7680588260472178
 10
-0.2069095131447466
 20
0.7620666424779757
 10
-0.2015440712364125
 20
0.7569914003257578
 10
-0.196949393507075
 20
0.7527918065871791
 10
-0.1931382742589312
 20
0.7494235833302083
 10
-0.1901304443356275
 20
0.7468443385687375
 10
-0.1879468101161456
 20
0.7450173179141167
 10
-0.1865276715591972
 20
0.7438508700237799
 10
-0.1850629638676128
 20
0.7426648478272341
 10
-0.1833297645377979
 20
0.7412853030803786
 10
-0.179827201144758
 20
0.7385775292769268
 10
-0.1755235634869086
 20
0.7353992488341556
 10
-0.170934044415676
 20
0.7321674306872183
 10
-0.1677235080859691
 20
0.7299743707160519
 10
-0.1647283046253642
 20
0.7279692537309234
 10
-0.161948265638257
 20
0.7261434109945617
 10
-0.1593808358819115
 20
0.7244896539918092
 10
-0.1553034682057887
 20
0.7219481245393946
 10
-0.1517796574181602
 20
0.7198281618281908
 10
-0.1478555176960754
 20
0.7175419188955448
 10
-0.1433595088172206
 20
0.7150033047831858
 10
-0.1383334424291797
 20
0.7122473565822384
 10
-0.1357010536659209
 20
0.710831659380217
 10
-0.1331512231822307
 20
0.7094750653174788
 10
-0.1307409250560795
 20
0.7082037170674949
 10
-0.1284682611700464
 20
0.7070127971345528
 10
-0.1260836788728193
 20
0.7057692648446278
 10
-0.123015541966638
 20
0.7041746866547079
 10
-0.1192939862407684
 20
0.7022420584368274
 10
-0.1149977617615787
 20
0.7000000000000023
  0
LINE
  5
BEA
330
BDE
100
AcDbEntity
  8
BLOCKS
  6
Continuous
100
AcDbLine
 10
0.0
 20
0.7000000000000023
 30
0.0
 11
-0.1149985077358315
 21
0.7000000000000023
 31
0.0
  0
LINE
  5
BEB
330
BDE
100
AcDbEntity
  8
BLOCKS
  6
Continuous
100
AcDbLine
 10
0.0
 20
0.0
 30
0.0
 11
0.0665543470089779
 21
0.0
 31
0.0
  0
ARC
  5
BEC
330
BDE
100
AcDbEntity
  8
BLOCKS
  6
Continuous
100
AcDbCircle
 10
0.0665543470089779
 20
0.0009999999999991
 30
0.0
 40
0.001
100
AcDbArc
 50
270.0
 51
356.7999999999999
  0
ARC
  5
BED
330
BDE
100
AcDbEntity
  8
BLOCKS
  6
Continuous
100
AcDbCircle
 10
-0.0665543470089779
 20
0.0009999999999991
 30
0.0
 40
0.001
100
AcDbArc
 50
183.2000000000001
 51
270.0
  0
LINE
  5
BEE
330
BDE
100
AcDbEntity
  8
BLOCKS
  6
Continuous
100
AcDbLine
 10
-0.0665543470089779
 20
0.0
 30
0.0
 11
0.0
 21
0.0
 31
0.0
  0
LINE
  5
BEF
330
BDE
100
AcDbEntity
  8
BLOCKS
  6
Continuous
100
AcDbLine
 10
0.0675527877731611
 20
0.0009441784950059
 30
0.0
 11
0.1075306147434321
 21
0.7000000000000023
 31
0.0
  0
LINE
  5
BF0
330
BDE
100
AcDbEntity
  8
BLOCKS
  6
Continuous
100
AcDbLine
 10
-0.1075306147434321
 20
0.7000000000000023
 30
0.0
 11
-0.0675527877731611
 21
0.0009441784950059
 31
0.0
  0
LINE
  5
BF1
330
BDE
100
AcDbEntity
  8
BLOCKS
  6
Continuous
100
AcDbLine
 10
-0.3199142055847233
 20
0.8350000000000022
 30
0.0
 11
0.3199862222069805
 21
0.8350000000000022
 31
0.0
  0
LINE
  5
BF2
330
BDE
100
AcDbEntity
  8
BLOCKS
  6
Continuous
100
AcDbLine
 10
0.3199142055847233
 20
0.7750000000000023
 30
0.0
 11
-0.319986222206976
 21
0.7750000000000023
 31
0.0
  0
ENDBLK
  5
BF4
330
BDE
100
AcDbEntity
  8
0
100
AcDbBlockEnd
  0
BLOCK
  5
C6C
330
BF6
100
AcDbEntity
  8
0
100
AcDbBlockBegin
  2
106200CT
 70
     0
 10
0.0
 20
0.0
 30
0.0
  3
106200CT
  1

  0
LINE
  5
BF7
330
BF6
100
AcDbEntity
  8
BLOCKS
  6
Continuous
100
AcDbLine
 10
0.3325306147434048
 20
0.7000000000000455
 30
0.0
 11
0.33299999999997
 21
0.7000000000000455
 31
0.0
  0
LINE
  5
BF8
330
BF6
100
AcDbEntity
  8
BLOCKS
  6
Continuous
100
AcDbLine
 10
0.3327542494627096
 20
0.7039999999999509
 30
0.0
 11
0.3227386327544082
 21
0.7039999999999509
 31
0.0
  0
LINE
  5
BF9
330
BF6
100
AcDbEntity
  8
BLOCKS
  6
Continuous
100
AcDbLine
 10
0.4850000000000137
 20
0.8300000000000409
 30
0.0
 11
0.4850000000000137
 21
0.7799999999999728
 31
0.0
  0
LWPOLYLINE
  5
BFA
330
BF6
100
AcDbEntity
  8
BLOCKS
  6
Continuous
100
AcDbPolyline
 90
       17
 70
   128
 43
0.0
 10
0.4421214689879207
 20
0.8300537890809209
 10
0.4342356061888495
 20
0.8172069529769032
 10
0.425537523841399
 20
0.8050387601911097
 10
0.4161170544318793
 20
0.7935359219317207
 10
0.4060196540802963
 20
0.7827181914212816
 10
0.395288050094905
 20
0.7726073537176035
 10
0.3841681132886379
 20
0.7633891898832417
 10
0.372511143272618
 20
0.7548997415902932
 10
0.3603546948750136
 20
0.7471618248353025
 10
0.347736324569496
 20
0.7401982543867689
 10
0.3344232498367319
 20
0.7339144756219867
 10
0.3207082139628028
 20
0.7284849370948905
 10
0.3066312277185261
 20
0.7239331984550291
 10
0.2922318778341832
 20
0.7202854270270791
 10
0.2775520050655587
 20
0.7175539287920856
 10
0.2626163921771649
 20
0.7158559094808652
 10
0.2474999999999454
 20
0.7150000000000319
  0
ARC
  5
BFB
330
BF6
100
AcDbEntity
  8
BLOCKS
100
AcDbCircle
 10
0.422954151165186
 20
0.7730000000000246
 30
0.0
 40
0.002
100
AcDbArc
 50
90.0
 51
140.9357675971388
  0
ARC
  5
BFC
330
BF6
100
AcDbEntity
  8
BLOCKS
  6
Continuous
100
AcDbCircle
 10
0.240844400373021
 20
0.6689999999999828
 30
0.0
 40
0.001
100
AcDbArc
 50
270.0
 51
353.0000000000073
  0
ARC
  5
BFD
330
BF6
100
AcDbEntity
  8
BLOCKS
  6
Continuous
100
AcDbCircle
 10
0.2346971563658826
 20
0.6689999999999828
 30
0.0
 40
0.001
100
AcDbArc
 50
176.9999999999939
 51
270.0
  0
LWPOLYLINE
  5
BFE
330
BF6
100
AcDbEntity
  8
BLOCKS
  6
Continuous
100
AcDbPolyline
 90
       13
 70
   128
 43
0.0
 10
0.3833616427270954
 20
0.7504310047186209
 10
0.3781450319842179
 20
0.7466318916468709
 10
0.3654604033499709
 20
0.7385577735140032
 10
0.3522909351614771
 20
0.731290074335675
 10
0.3384019792312074
 20
0.7247344793215689
 10
0.3240904502127933
 20
0.7190687997782561
 10
0.3144496839737485
 20
0.7159514955878877
 42
0.8546965523829813
 10
0.3147573463638764
 20
0.7140000000000555
 10
0.3304976991065587
 20
0.7140000000000555
 42
-0.2914734195861366
 10
0.3314040068936492
 20
0.7134226182616886
 10
0.3327307624737159
 20
0.7105773817382897
 42
0.2914734195861055
 10
0.3336370702608065
 20
0.7100000000000364
 10
0.3369379422390466
 20
0.7100000000000364
  0
ARC
  5
BFF
330
BF6
100
AcDbEntity
  8
BLOCKS
100
AcDbCircle
 10
0.3839503427756199
 20
0.7496226531535513
 30
0.0
 40
0.001
100
AcDbArc
 50
314.100415310674
 51
126.064813872643
  0
ARC
  5
C00
330
BF6
100
AcDbEntity
  8
BLOCKS
  6
Continuous
100
AcDbCircle
 10
0.4800000000000182
 20
0.7799999999999728
 30
0.0
 40
0.005
100
AcDbArc
 50
270.0
 51
0.0
  0
LINE
  5
C01
330
BF6
100
AcDbEntity
  8
BLOCKS
  6
Continuous
100
AcDbLine
 10
0.4832953881460753
 20
0.7762396254220221
 30
0.0
 11
0.4837603745779689
 21
0.7767046118539156
 31
0.0
  0
LINE
  5
C02
330
BF6
100
AcDbEntity
  8
BLOCKS
  6
Continuous
100
AcDbLine
 10
0.4800000000000182
 20
0.7749999999999773
 30
0.0
 11
0.422954151165186
 21
0.7749999999999773
 31
0.0
  0
LINE
  5
C03
330
BF6
100
AcDbEntity
  8
BLOCKS
  6
Continuous
100
AcDbLine
 10
0.3325808673075699
 20
0.7008988329595241
 30
0.0
 11
0.33299999999997
 21
0.7000000000000455
 31
0.0
  0
LINE
  5
C04
330
BF6
100
AcDbEntity
  8
BLOCKS
  6
Continuous
100
AcDbLine
 10
0.3400000000000318
 20
0.7000000000000455
 30
0.0
 11
0.33299999999997
 21
0.7000000000000455
 31
0.0
  0
LINE
  5
C05
330
BF6
100
AcDbEntity
  8
BLOCKS
  6
Continuous
100
AcDbLine
 10
0.2355824640740138
 20
0.705000000000041
 30
0.0
 11
0.2474999999999454
 21
0.7150000000000319
 31
0.0
  0
ARC
  5
C06
330
BF6
100
AcDbEntity
  8
BLOCKS
  6
Continuous
100
AcDbCircle
 10
0.2505729961528686
 20
0.6989999999999555
 30
0.0
 40
0.005
100
AcDbArc
 50
90.0
 51
173.0000000000073
  0
LINE
  5
C07
330
BF6
100
AcDbEntity
  8
BLOCKS
  6
Continuous
100
AcDbLine
 10
0.240844400373021
 20
0.6680000000000064
 30
0.0
 11
0.2346971563658826
 21
0.6680000000000064
 31
0.0
  0
LINE
  5
C08
330
BF6
100
AcDbEntity
  8
BLOCKS
  6
Continuous
100
AcDbLine
 10
0.2336985268310627
 20
0.6690523359562804
 30
0.0
 11
0.2355824640740138
 21
0.705000000000041
 31
0.0
  0
LINE
  5
C09
330
BF6
100
AcDbEntity
  8
BLOCKS
  6
Continuous
100
AcDbLine
 10
0.2418369465246997
 20
0.6688781306565943
 30
0.0
 11
0.2456102653945891
 21
0.6996093467170113
 31
0.0
  0
LINE
  5
C0A
330
BF6
100
AcDbEntity
  8
BLOCKS
  6
Continuous
100
AcDbLine
 10
0.2505729961528686
 20
0.7039999999999509
 30
0.0
 11
0.3311347693673952
 21
0.7039999999999509
 31
0.0
  0
ARC
  5
C0B
330
BF6
100
AcDbEntity
  8
BLOCKS
  6
Continuous
100
AcDbCircle
 10
0.1340924031138684
 20
1.007452305928836
 30
0.0
 40
0.3700335915512612
100
AcDbArc
 50
303.8110935237973
 51
320.9357675971388
  0
ARC
  5
C0C
330
BF6
100
AcDbEntity
  8
BLOCKS
  6
Continuous
100
AcDbCircle
 10
0.1340924031138684
 20
1.007452305928836
 30
0.0
 40
0.3600335915512613
100
AcDbArc
 50
304.2917615098915
 51
314.100415310665
  0
ARC
  5
C0D
330
BF6
100
AcDbEntity
  8
BLOCKS
100
AcDbCircle
 10
0.4740000000000464
 20
0.7860000000000582
 30
0.0
 40
0.001
100
AcDbArc
 50
270.0
 51
0.0
  0
ARC
  5
C0E
330
BF6
100
AcDbEntity
  8
BLOCKS
  6
Continuous
100
AcDbCircle
 10
0.4800000000000182
 20
0.8300000000000409
 30
0.0
 40
0.005
100
AcDbArc
 50
0.0
 51
90.0
  0
LINE
  5
C0F
330
BF6
100
AcDbEntity
  8
BLOCKS
  6
Continuous
100
AcDbLine
 10
0.4800000000000182
 20
0.8350000000000363
 30
0.0
 11
0.450750444357368
 21
0.8350000000000363
 31
0.0
  0
LWPOLYLINE
  5
C10
330
BF6
100
AcDbEntity
  8
BLOCKS
  6
Continuous
100
AcDbPolyline
 90
        5
 70
   128
 43
0.0
 10
0.450750444357368
 20
0.8350000000000363
 10
0.4481758084239118
 20
0.8346688087904112
 10
0.4457774116210658
 20
0.8336757677126342
 10
0.4437086904093804
 20
0.8321085210361616
 10
0.4421214689879207
 20
0.8300537890809209
  0
LWPOLYLINE
  5
C11
330
BF6
100
AcDbEntity
  8
BLOCKS
  6
Continuous
100
AcDbPolyline
 90
       11
 70
   128
 43
0.0
 10
0.4750000000000228
 20
0.7860000000000582
 10
0.4750000000000228
 20
0.8239999999999554
 42
0.4142135623730922
 10
0.4740000000000464
 20
0.8250000000000454
 10
0.4513124932053643
 20
0.8250000000000454
 42
0.2607454363429309
 10
0.4504602466943198
 20
0.8245231404060859
 10
0.4425747079370695
 20
0.8116768321976906
 10
0.4334819972744981
 20
0.7989565736546638
 10
0.4236483766959509
 20
0.7869492582967724
 10
0.4233992403485445
 20
0.786682349015905
 42
0.6558001702623026
 10
0.424130266901102
 20
0.7849999999999682
 10
0.4740000000000464
 20
0.7849999999999682
  0
LINE
  5
C12
330
BF6
100
AcDbEntity
  8
BLOCKS
  6
Continuous
100
AcDbLine
 10
0.3325306147434048
 20
0.7000000000000455
 30
0.0
 11
0.33299999999997
 21
0.7000000000000455
 31
0.0
  0
LWPOLYLINE
  5
C13
330
BF6
100
AcDbEntity
  8
BLOCKS
  6
Continuous
100
AcDbPolyline
 90
       10
 70
   128
 43
0.0
 10
0.1761019077115407
 20
0.6856648157953487
 10
0.1635049049825739
 20
0.6936026042208141
 10
0.1444243781220393
 20
0.7090813597342276
 10
0.1340894280339171
 20
0.7213522460274362
 10
0.1262148539105965
 20
0.731181117393021
 10
0.1195132939964196
 20
0.7414888565241427
 10
0.1139517185480372
 20
0.7522195536677146
 10
0.1093066586771556
 20
0.7630532780623298
 10
0.1041127590362976
 20
0.7778349869145132
 10
0.103744573550216
 20
0.7792054725034632
  0
LWPOLYLINE
  5
C14
330
BF6
100
AcDbEntity
  8
BLOCKS
  6
Continuous
100
AcDbPolyline
 90
       10
 70
   128
 43
0.0
 10
0.177674894989309
 20
0.6728538624788598
 10
0.157668582899305
 20
0.685460502007345
 10
0.1373872255095421
 20
0.7019134110287269
 10
0.1263618320556361
 20
0.7150040740949635
 10
0.118100945619517
 20
0.7253151320487632
 10
0.1108612783988292
 20
0.7364505396346886
 10
0.1049050261075308
 20
0.7479427400090799
 10
0.0999834712813481
 20
0.7594213366388658
 10
0.0945531172403662
 20
0.7748759888170298
 10
0.094087017378115
 20
0.7766109380974058
  0
LWPOLYLINE
  5
C15
330
BF6
100
AcDbEntity
  8
BLOCKS
  6
Continuous
100
AcDbPolyline
 90
        9
 70
   128
 43
0.0
 10
0.1725000000000136
 20
0.7150000000000319
 10
0.1639681062684986
 20
0.7208836099853216
 10
0.1560530650326655
 20
0.7274953594512681
 10
0.1488781078402326
 20
0.7348805157953393
 10
0.1424426704927555
 20
0.7429130880816502
 10
0.1368173251914868
 20
0.7515654903029372
 10
0.1320451034292773
 20
0.7607731809848702
 10
0.1279530334687706
 20
0.7703171609091442
 10
0.1237106196356308
 20
0.782390964880733
  0
LWPOLYLINE
  5
C16
330
BF6
100
AcDbEntity
  8
BLOCKS
  6
Continuous
100
AcDbPolyline
 90
       10
 70
   128
 43
0.0
 10
0.1664340365738326
 20
0.7070358747802175
 10
0.1579112610967286
 20
0.712913196800173
 10
0.1492430329185481
 20
0.7201541133439378
 10
0.1413726825786625
 20
0.7282550352285853
 10
0.134328762201676
 20
0.7370471027373924
 10
0.1281653095938964
 20
0.7465271734135968
 10
0.1229984109886573
 20
0.7564963673263492
 10
0.1186298460729631
 20
0.7666852194856802
 10
0.113672400832229
 20
0.7807939850118828
 10
0.1134021297222034
 20
0.7818000069096343
  0
LWPOLYLINE
  5
C17
330
BF6
100
AcDbEntity
  8
BLOCKS
  6
Continuous
100
AcDbPolyline
 90
        3
 70
   128
 43
0.0
 10
0.103744573550216
 20
0.7792054725034632
 10
0.1000192761017615
 20
0.7930720334099988
 10
0.0942858683874874
 20
0.8244999999999436
  0
LWPOLYLINE
  5
C18
330
BF6
100
AcDbEntity
  8
BLOCKS
  6
Continuous
100
AcDbPolyline
 90
        3
 70
   128
 43
0.0
 10
0.094087017378115
 20
0.7766109380974058
 10
0.0902552708221265
 20
0.7908737312658332
 10
0.0841208265840123
 20
0.8244999999999436
  0
LINE
  5
C19
330
BF6
100
AcDbEntity
  8
BLOCKS
  6
Continuous
100
AcDbLine
 10
0.0299999999999727
 20
0.7469999999999573
 30
0.0
 11
0.0299999999999727
 21
0.8224999999999909
 31
0.0
  0
LINE
  5
C1A
330
BF6
100
AcDbEntity
  8
BLOCKS
  6
Continuous
100
AcDbLine
 10
0.0199999999999818
 20
0.7559999999999718
 30
0.0
 11
0.0199999999999818
 21
0.8234999999999672
 31
0.0
  0
LINE
  5
C1B
330
BF6
100
AcDbEntity
  8
BLOCKS
  6
Continuous
100
AcDbLine
 10
0.0099999999999909
 20
0.8234999999999672
 30
0.0
 11
0.0099999999999909
 21
0.7559999999999718
 31
0.0
  0
LINE
  5
C1C
330
BF6
100
AcDbEntity
  8
BLOCKS
  6
Continuous
100
AcDbLine
 10
0.0
 20
0.8300000000000409
 30
0.0
 11
0.0
 21
0.7469999999999573
 31
0.0
  0
ARC
  5
C1D
330
BF6
100
AcDbEntity
  8
BLOCKS
  6
Continuous
100
AcDbCircle
 10
0.0190000000000055
 20
0.7559999999999718
 30
0.0
 40
0.001
100
AcDbArc
 50
270.0
 51
0.0
  0
ARC
  5
C1E
330
BF6
100
AcDbEntity
  8
BLOCKS
  6
Continuous
100
AcDbCircle
 10
0.0109999999999673
 20
0.7559999999999718
 30
0.0
 40
0.001
100
AcDbArc
 50
180.0
 51
270.0
  0
ARC
  5
C1F
330
BF6
100
AcDbEntity
  8
BLOCKS
  6
Continuous
100
AcDbCircle
 10
0.02800000000002
 20
0.7469999999999573
 30
0.0
 40
0.002
100
AcDbArc
 50
270.0
 51
0.0
  0
ARC
  5
C20
330
BF6
100
AcDbEntity
  8
BLOCKS
  6
Continuous
100
AcDbCircle
 10
0.0019999999999527
 20
0.7469999999999573
 30
0.0
 40
0.002
100
AcDbArc
 50
180.0
 51
270.0
  0
ARC
  5
C21
330
BF6
100
AcDbEntity
  8
BLOCKS
100
AcDbCircle
 10
0.02800000000002
 20
0.7069999999999937
 30
0.0
 40
0.002
100
AcDbArc
 50
270.0
 51
0.0
  0
ARC
  5
C22
330
BF6
100
AcDbEntity
  8
BLOCKS
100
AcDbCircle
 10
0.0019999999999527
 20
0.7069999999999937
 30
0.0
 40
0.002
100
AcDbArc
 50
180.0
 51
270.0
  0
LINE
  5
C23
330
BF6
100
AcDbEntity
  8
BLOCKS
100
AcDbLine
 10
0.0
 20
0.7469999999999573
 30
0.0
 11
0.0
 21
0.7069999999999937
 31
0.0
  0
LINE
  5
C24
330
BF6
100
AcDbEntity
  8
BLOCKS
100
AcDbLine
 10
0.0299999999999727
 20
0.7469999999999573
 30
0.0
 11
0.0299999999999727
 21
0.7069999999999937
 31
0.0
  0
LINE
  5
C25
330
BF6
100
AcDbEntity
  8
BLOCKS
  6
Continuous
100
AcDbLine
 10
0.02800000000002
 20
0.705000000000041
 30
0.0
 11
0.1281663446908396
 21
0.7128615413132593
 31
0.0
  0
LINE
  5
C26
330
BF6
100
AcDbEntity
  8
BLOCKS
  6
Continuous
100
AcDbLine
 10
0.0109999999999673
 20
0.7549999999999955
 30
0.0
 11
0.0190000000000055
 21
0.7549999999999955
 31
0.0
  0
LINE
  5
C27
330
BF6
100
AcDbEntity
  8
BLOCKS
  6
Continuous
100
AcDbLine
 10
0.0019999999999527
 20
0.705000000000041
 30
0.0
 11
0.02800000000002
 21
0.705000000000041
 31
0.0
  0
LINE
  5
C28
330
BF6
100
AcDbEntity
  8
BLOCKS
  6
Continuous
100
AcDbLine
 10
0.02800000000002
 20
0.7450000000000046
 30
0.0
 11
0.0019999999999527
 21
0.7450000000000046
 31
0.0
  0
LWPOLYLINE
  5
C29
330
BF6
100
AcDbEntity
  8
BLOCKS
  6
Continuous
100
AcDbPolyline
 90
        2
 70
   128
 43
0.0
 10
0.0841208265840123
 20
0.8244999999999436
 10
0.0784999999999627
 20
0.8244999999999436
  0
LWPOLYLINE
  5
C2A
330
BF6
100
AcDbEntity
  8
BLOCKS
  6
Continuous
100
AcDbPolyline
 90
        4
 70
   128
 43
0.0
 10
0.1237106196356308
 20
0.782390964880733
 10
0.1232320426281603
 20
0.7837529831092525
 10
0.1195408837671721
 20
0.7974924709947118
 10
0.1169792809366754
 20
0.8110594603501795
  0
LWPOLYLINE
  5
C2B
330
BF6
100
AcDbEntity
  8
BLOCKS
  6
Continuous
100
AcDbPolyline
 90
        3
 70
   128
 43
0.0
 10
0.1134021297222034
 20
0.7818000069096343
 10
0.1097832813813966
 20
0.7952703355541644
 10
0.1069208125633168
 20
0.8109611042664255
  0
LWPOLYLINE
  5
C2C
330
BF6
100
AcDbEntity
  8
BLOCKS
  6
Continuous
100
AcDbPolyline
 90
        3
 70
   128
 43
0.0
 10
0.1169621483844594
 20
0.811243774159152
 10
0.1169186975826051
 20
0.8114754788749678
 10
0.1155177601747255
 20
0.8256499418005205
  0
LWPOLYLINE
  5
C2D
330
BF6
100
AcDbEntity
  8
BLOCKS
  6
Continuous
100
AcDbPolyline
 90
        4
 70
   128
 43
0.0
 10
0.1069208125633168
 20
0.8109611042664255
 10
0.1057609201428704
 20
0.8226967121673851
 42
0.3856447525189537
 10
0.1037706175720814
 20
0.8244999999999436
 10
0.0942858683874874
 20
0.8244999999999436
  0
ARC
  5
C2E
330
BF6
100
AcDbEntity
  8
BLOCKS
  6
Continuous
100
AcDbCircle
 10
0.1227671660087708
 20
0.7820594603501832
 30
0.0
 40
0.001
100
AcDbArc
 50
19.36011983357906
 51
90.0
  0
ARC
  5
C2F
330
BF6
100
AcDbEntity
  8
BLOCKS
  6
Continuous
100
AcDbCircle
 10
0.1143678853394476
 20
0.7820594603501832
 30
0.0
 40
0.001
100
AcDbArc
 50
90.0
 51
195.0376337244965
  0
ARC
  5
C30
330
BF6
100
AcDbEntity
  8
BLOCKS
  6
Continuous
100
AcDbCircle
 10
0.1079159638487681
 20
0.8110594603501795
 30
0.0
 40
0.001
100
AcDbArc
 50
185.6445143185086
 51
270.0
  0
ARC
  5
C31
330
BF6
100
AcDbEntity
  8
BLOCKS
  6
Continuous
100
AcDbCircle
 10
0.1159792809366991
 20
0.8110594603501795
 30
0.0
 40
0.001
100
AcDbArc
 50
270.0
 51
10.62112860131357
  0
ARC
  5
C32
330
BF6
100
AcDbEntity
  8
BLOCKS
  6
Continuous
100
AcDbCircle
 10
0.0784999999999627
 20
0.8339999999999463
 30
0.0
 40
0.001
100
AcDbArc
 50
90.0
 51
180.0
  0
ARC
  5
C33
330
BF6
100
AcDbEntity
  8
BLOCKS
  6
Continuous
100
AcDbCircle
 10
0.0784999999999627
 20
0.8255000000000336
 30
0.0
 40
0.001
100
AcDbArc
 50
180.0
 51
270.0
  0
ARC
  5
C34
330
BF6
100
AcDbEntity
  8
BLOCKS
  6
Continuous
100
AcDbCircle
 10
0.0415000000000418
 20
0.8255000000000336
 30
0.0
 40
0.001
100
AcDbArc
 50
270.0
 51
0.0
  0
ARC
  5
C35
330
BF6
100
AcDbEntity
  8
BLOCKS
  6
Continuous
100
AcDbCircle
 10
0.0415000000000418
 20
0.8339999999999463
 30
0.0
 40
0.001
100
AcDbArc
 50
0.0
 51
90.0
  0
ARC
  5
C36
330
BF6
100
AcDbEntity
  8
BLOCKS
  6
Continuous
100
AcDbCircle
 10
0.0190000000000055
 20
0.8234999999999672
 30
0.0
 40
0.001
100
AcDbArc
 50
0.0
 51
90.0
  0
ARC
  5
C37
330
BF6
100
AcDbEntity
  8
BLOCKS
  6
Continuous
100
AcDbCircle
 10
0.0109999999999673
 20
0.8234999999999672
 30
0.0
 40
0.001
100
AcDbArc
 50
90.0
 51
180.0
  0
ARC
  5
C38
330
BF6
100
AcDbEntity
  8
BLOCKS
100
AcDbCircle
 10
0.0320000000000391
 20
0.8224999999999909
 30
0.0
 40
0.002
100
AcDbArc
 50
90.0
 51
180.0
  0
LINE
  5
C39
330
BF6
100
AcDbEntity
  8
BLOCKS
  6
Continuous
100
AcDbLine
 10
0.1079159638487681
 20
0.8100594603502031
 30
0.0
 11
0.1159792809366991
 21
0.8100594603502031
 31
0.0
  0
LINE
  5
C3A
330
BF6
100
AcDbEntity
  8
BLOCKS
  6
Continuous
100
AcDbLine
 10
0.1055389037444456
 20
0.8350000000000363
 30
0.0
 11
0.0784999999999627
 21
0.8350000000000363
 31
0.0
  0
LINE
  5
C3B
330
BF6
100
AcDbEntity
  8
BLOCKS
  6
Continuous
100
AcDbLine
 10
0.0774999999999864
 20
0.8255000000000336
 30
0.0
 11
0.0774999999999864
 21
0.8339999999999463
 31
0.0
  0
LINE
  5
C3C
330
BF6
100
AcDbEntity
  8
BLOCKS
  6
Continuous
100
AcDbLine
 10
0.0415000000000418
 20
0.8244999999999436
 30
0.0
 11
0.0320000000000391
 21
0.8244999999999436
 31
0.0
  0
LINE
  5
C3D
330
BF6
100
AcDbEntity
  8
BLOCKS
  6
Continuous
100
AcDbLine
 10
0.0425000000000182
 20
0.8339999999999463
 30
0.0
 11
0.0425000000000182
 21
0.8255000000000336
 31
0.0
  0
LINE
  5
C3E
330
BF6
100
AcDbEntity
  8
BLOCKS
  6
Continuous
100
AcDbLine
 10
0.0784999999999627
 20
0.8350000000000363
 30
0.0
 11
0.0415000000000418
 21
0.8350000000000363
 31
0.0
  0
LINE
  5
C3F
330
BF6
100
AcDbEntity
  8
BLOCKS
  6
Continuous
100
AcDbLine
 10
0.0415000000000418
 20
0.8244999999999436
 30
0.0
 11
0.0784999999999627
 21
0.8244999999999436
 31
0.0
  0
LWPOLYLINE
  5
C40
330
BF6
100
AcDbEntity
  8
BLOCKS
  6
Continuous
100
AcDbPolyline
 90
        9
 70
   128
 43
0.0
 10
0.1155177601747255
 20
0.8256499418005205
 10
0.1152213553214096
 20
0.8275059822088906
 10
0.1145801104070188
 20
0.8292727721778874
 10
0.1136225367287125
 20
0.830889535774304
 10
0.1123763221897889
 20
0.8322972398208321
 10
0.1108914577991982
 20
0.8334487820986851
 10
0.1092150159429366
 20
0.8342997956484623
 10
0.1074108025416081
 20
0.8348248536250366
 10
0.1055389037444456
 20
0.8350000000000363
  0
LINE
  5
C41
330
BF6
100
AcDbEntity
  8
BLOCKS
  6
Continuous
100
AcDbLine
 10
0.1227671660087708
 20
0.7830594603501595
 30
0.0
 11
0.1143678853394476
 21
0.7830594603501595
 31
0.0
  0
ARC
  5
C42
330
BF6
100
AcDbEntity
  8
BLOCKS
  6
Continuous
100
AcDbCircle
 10
0.0049999999999955
 20
0.8300000000000409
 30
0.0
 40
0.005
100
AcDbArc
 50
90.0
 51
180.0
  0
LINE
  5
C43
330
BF6
100
AcDbEntity
  8
BLOCKS
  6
Continuous
100
AcDbLine
 10
0.0190000000000055
 20
0.8244999999999436
 30
0.0
 11
0.0109999999999673
 21
0.8244999999999436
 31
0.0
  0
LINE
  5
C44
330
BF6
100
AcDbEntity
  8
BLOCKS
  6
Continuous
100
AcDbLine
 10
0.0415000000000418
 20
0.8350000000000363
 30
0.0
 11
0.0049999999999955
 21
0.8350000000000363
 31
0.0
  0
ARC
  5
C45
330
BF6
100
AcDbEntity
  8
BLOCKS
100
AcDbCircle
 10
0.1759056132442538
 20
0.6954690149868839
 30
0.0
 40
0.001
100
AcDbArc
 50
187.0000000000056
 51
251.8532889174807
  0
ARC
  5
C46
330
BF6
100
AcDbEntity
  8
BLOCKS
100
AcDbCircle
 10
0.1840556529890591
 20
0.6927978151737762
 30
0.0
 40
0.001
100
AcDbArc
 50
251.8532889174807
 51
3.000000000006105
  0
ARC
  5
C47
330
BF6
100
AcDbEntity
  8
BLOCKS
100
AcDbCircle
 10
0.1846226325429825
 20
0.6819792008072909
 30
0.0
 40
0.001
100
AcDbArc
 50
2.999999999993096
 51
72.79291484729357
  0
LINE
  5
C48
330
BF6
100
AcDbEntity
  8
BLOCKS
  6
Continuous
100
AcDbLine
 10
0.1856212620776887
 20
0.6820315367635886
 30
0.0
 11
0.1858603597210049
 21
0.6774692819496977
 31
0.0
  0
LINE
  5
C49
330
BF6
100
AcDbEntity
  8
BLOCKS
100
AcDbLine
 10
0.1837442017432522
 20
0.6918475530408159
 30
0.0
 11
0.1755941619984469
 21
0.69451875285381
 31
0.0
  0
LINE
  5
C4A
330
BF6
100
AcDbEntity
  8
BLOCKS
100
AcDbLine
 10
0.1761019077115407
 20
0.6856648157953487
 30
0.0
 11
0.1849184587197214
 21
0.6829344425950695
 31
0.0
  0
LINE
  5
C4B
330
BF6
100
AcDbEntity
  8
BLOCKS
  6
Continuous
100
AcDbLine
 10
0.1858603597210049
 20
0.6774692819496977
 30
0.0
 11
0.1863014731688963
 21
0.6690523359562804
 31
0.0
  0
LINE
  5
C4C
330
BF6
100
AcDbEntity
  8
BLOCKS
  6
Continuous
100
AcDbLine
 10
0.177674894989309
 20
0.6728538624788598
 30
0.0
 11
0.1781630534753731
 21
0.6688781306565943
 31
0.0
  0
ARC
  5
C4D
330
BF6
100
AcDbEntity
  8
BLOCKS
  6
Continuous
100
AcDbCircle
 10
0.1853028436340764
 20
0.6689999999999828
 30
0.0
 40
0.001
100
AcDbArc
 50
270.0
 51
3.000000000006105
  0
ARC
  5
C4E
330
BF6
100
AcDbEntity
  8
BLOCKS
  6
Continuous
100
AcDbCircle
 10
0.1791555996269381
 20
0.6689999999999828
 30
0.0
 40
0.001
100
AcDbArc
 50
187.0000000000056
 51
270.0
  0
LINE
  5
C4F
330
BF6
100
AcDbEntity
  8
BLOCKS
  6
Continuous
100
AcDbLine
 10
0.1725000000000136
 20
0.7150000000000319
 30
0.0
 11
0.1844175359259452
 21
0.705000000000041
 31
0.0
  0
ARC
  5
C50
330
BF6
100
AcDbEntity
  8
BLOCKS
  6
Continuous
100
AcDbCircle
 10
0.1695642421129833
 20
0.6978822840202384
 30
0.0
 40
0.005
100
AcDbArc
 50
6.999999999992674
 51
49.99999999998743
  0
LINE
  5
C51
330
BF6
100
AcDbEntity
  8
BLOCKS
  6
Continuous
100
AcDbLine
 10
0.1664340365739463
 20
0.7070358747802175
 30
0.0
 11
0.1727781801613446
 21
0.7017125062358219
 31
0.0
  0
LINE
  5
C52
330
BF6
100
AcDbEntity
  8
BLOCKS
  6
Continuous
100
AcDbLine
 10
0.1853028436340764
 20
0.6680000000000064
 30
0.0
 11
0.1791555996269381
 21
0.6680000000000064
 31
0.0
  0
LINE
  5
C53
330
BF6
100
AcDbEntity
  8
BLOCKS
  6
Continuous
100
AcDbLine
 10
0.1844175359259452
 20
0.705000000000041
 30
0.0
 11
0.185054282523879
 21
0.6928501511300738
 31
0.0
  0
LINE
  5
C54
330
BF6
100
AcDbEntity
  8
BLOCKS
  6
Continuous
100
AcDbLine
 10
0.1745269728711491
 20
0.6984916307372942
 30
0.0
 11
0.1749130670926888
 21
0.6953471456434955
 31
0.0
  0
LINE
  5
C55
330
BF6
100
AcDbEntity
  8
BLOCKS
  6
Continuous
100
AcDbLine
 10
0.2336433762405932
 20
0.6680000000000064
 30
0.0
 11
0.1863566237593659
 21
0.6680000000000064
 31
0.0
  0
LINE
  5
C56
330
BF6
100
AcDbEntity
  8
BLOCKS
  6
Continuous
100
AcDbLine
 10
0.2355824640740138
 20
0.705000000000041
 30
0.0
 11
0.1844175359259452
 21
0.705000000000041
 31
0.0
  0
LWPOLYLINE
  5
C57
330
BF6
100
AcDbEntity
  8
BLOCKS
  6
Continuous
100
AcDbPolyline
 90
       45
 70
   128
 43
0.0
 10
0.4421214689879207
 20
0.8300537890809209
 10
0.441614480700082
 20
0.8300633332282814
 10
0.4401001285378925
 20
0.8300853003103156
 10
0.4375884562392685
 20
0.8301109432802604
 10
0.4340954794265599
 20
0.8301413943363513
 10
0.4296449101132112
 20
0.8301771684899676
 10
0.4242635574321412
 20
0.8302178589880213
 10
0.4179883644802658
 20
0.8302626696425932
 10
0.4108590393017267
 20
0.8303106730043054
 10
0.4029220520637864
 20
0.8303605256564878
 10
0.3942302326596518
 20
0.8304103650782508
 10
0.3864499956960117
 20
0.8304504070972598
 10
0.3782199694353494
 20
0.8304872132994205
 10
0.369577321197994
 20
0.830518808282818
 10
0.3605601886232534
 20
0.8305430344249771
 10
0.3512094064298026
 20
0.8305570421089214
 10
0.3415661875567366
 20
0.8305578179418944
 10
0.3316722146607844
 20
0.8305421501647742
 10
0.3215696540557928
 20
0.8305065896578298
 10
0.3113004441668181
 20
0.8304477669872767
 10
0.3009063427272167
 20
0.8303623368974513
 10
0.2904277942816407
 20
0.8302481456449868
 10
0.2799047674710664
 20
0.8301036110646009
 10
0.2693767362745802
 20
0.8299277005568228
 10
0.2588822535980171
 20
0.8297220607676081
 10
0.2484599064723625
 20
0.8294891283995866
 10
0.2381482979959628
 20
0.8292321515755247
 10
0.2279872845606405
 20
0.8289565394945839
 10
0.2180173331375954
 20
0.8286679704741573
 10
0.2082795344282431
 20
0.8283724405052907
 10
0.1988165492266489
 20
0.8280758487265984
 10
0.1896711996432714
 20
0.8277837281777919
 10
0.1808865359330411
 20
0.8275013055393856
 10
0.1725044010876218
 20
0.8272322620191516
 10
0.1645658063217752
 20
0.8269798124479166
 10
0.1556813760001887
 20
0.8267025582866835
 10
0.1475554233513776
 20
0.8264554639331436
 10
0.1402473295287336
 20
0.8262403651092427
 10
0.1338092485035531
 20
0.826058048329969
 10
0.1282855517341659
 20
0.8259086253319765
 10
0.123717415903684
 20
0.8257920585415376
 10
0.1201344895523562
 20
0.825708070822543
 10
0.117562848564603
 20
0.8256564215721482
 10
0.1160212035772474
 20
0.8256381731783903
 10
0.1155177601747255
 20
0.8256499418005205
  0
LINE
  5
C58
330
BF6
100
AcDbEntity
  8
BLOCKS
  6
Continuous
100
AcDbLine
 10
0.1055389037444456
 20
0.8350000000000363
 30
0.0
 11
0.450750444357368
 21
0.8350000000000363
 31
0.0
  0
LINE
  5
C59
330
BF6
100
AcDbEntity
  8
BLOCKS
  6
Continuous
100
AcDbLine
 10
0.2474999999999454
 20
0.7150000000000319
 30
0.0
 11
0.1725000000000136
 21
0.7150000000000319
 31
0.0
  0
LINE
  5
C5A
330
BF6
100
AcDbEntity
  8
BLOCKS
  6
Continuous
100
AcDbLine
 10
0.2355824640740138
 20
0.705000000000041
 30
0.0
 11
0.1844175359259452
 21
0.705000000000041
 31
0.0
  0
LINE
  5
C5B
330
BF6
100
AcDbEntity
  8
BLOCKS
  6
Continuous
100
AcDbLine
 10
0.2346971563658826
 20
0.6680000000000064
 30
0.0
 11
0.1853028436340764
 21
0.6680000000000064
 31
0.0
  0
LINE
  5
C5C
330
BF6
100
AcDbEntity
  8
BLOCKS
  6
Continuous
100
AcDbLine
 10
0.1384139135747091
 20
0.5045220948310316
 30
0.0
 11
0.1283982968664077
 21
0.5045220948310316
 31
0.0
  0
LWPOLYLINE
  5
C5D
330
BF6
100
AcDbEntity
  8
BLOCKS
  6
Continuous
100
AcDbPolyline
 90
       14
 70
   128
 43
0.0
 10
0.1404096277889266
 20
0.5539999999999737
 10
0.140414317787986
 20
0.5486709663591683
 10
0.1400945777145353
 20
0.5434163177104665
 10
0.1394834437614918
 20
0.5383413153463153
 10
0.1381154497366879
 20
0.5311906796868016
 10
0.1363846825253177
 20
0.5246736526612495
 10
0.1350193823381005
 20
0.5204285258442951
 10
0.1336340395010893
 20
0.5165957708396718
 10
0.1323034236744434
 20
0.5132309565187825
 10
0.1310108292765335
 20
0.5101813632134054
 10
0.1299145656062137
 20
0.507734565110809
 10
0.1290836382886482
 20
0.5059533807118442
 10
0.1285736079239541
 20
0.5048839532969396
 10
0.1283982968664077
 20
0.5045220948310316
  0
LWPOLYLINE
  5
C5E
330
BF6
100
AcDbEntity
  8
BLOCKS
  6
Continuous
100
AcDbPolyline
 90
       13
 70
   128
 43
0.0
 10
0.1524370542319957
 20
0.5539999999999737
 10
0.152406168397647
 20
0.5487853167336425
 10
0.1520145717192918
 20
0.5436444456084928
 10
0.151301930271984
 20
0.5386826922459705
 10
0.1497447239084977
 20
0.5317034659518641
 10
0.1477977623973175
 20
0.525329399905445
 10
0.1454394692871119
 20
0.5190885344004528
 10
0.1431187906113109
 20
0.5137998366660668
 10
0.1415932875728458
 20
0.5106179364315722
 10
0.1402889605060409
 20
0.5080408373025876
 10
0.1392878965723412
 20
0.5061392661901892
 10
0.1386381552058538
 20
0.5049320720602282
 10
0.1384139135747091
 20
0.5045220948310316
  0
LINE
  5
C5F
330
BF6
100
AcDbEntity
  8
BLOCKS
  6
Continuous
100
AcDbLine
 10
0.2915543470089687
 20
0.0
 30
0.0
 11
0.2835418536423049
 21
0.0
 31
0.0
  0
ARC
  5
C60
330
BF6
100
AcDbEntity
  8
BLOCKS
  6
Continuous
100
AcDbCircle
 10
0.2915543470089687
 20
0.0009999999999764
 30
0.0
 40
0.001
100
AcDbArc
 50
270.0
 51
356.8000000000003
  0
ARC
  5
C61
330
BF6
100
AcDbEntity
  8
BLOCKS
  6
Continuous
100
AcDbCircle
 10
0.2835418536423049
 20
0.0009999999999764
 30
0.0
 40
0.001
100
AcDbArc
 50
176.7999999999999
 51
270.0
  0
LINE
  5
C62
330
BF6
100
AcDbEntity
  8
BLOCKS
  6
Continuous
100
AcDbLine
 10
0.1664581463576269
 20
0.0
 30
0.0
 11
0.1584456529910767
 21
0.0
 31
0.0
  0
ARC
  5
C63
330
BF6
100
AcDbEntity
  8
BLOCKS
  6
Continuous
100
AcDbCircle
 10
0.1664581463576269
 20
0.0009999999999764
 30
0.0
 40
0.001
100
AcDbArc
 50
270.0
 51
3.19999999999994
  0
ARC
  5
C64
330
BF6
100
AcDbEntity
  8
BLOCKS
  6
Continuous
100
AcDbCircle
 10
0.1584456529910767
 20
0.0009999999999764
 30
0.0
 40
0.001
100
AcDbArc
 50
183.2000000000004
 51
269.9999999999854
  0
LINE
  5
C65
330
BF6
100
AcDbEntity
  8
BLOCKS
  6
Continuous
100
AcDbLine
 10
0.2835418536423049
 20
0.0
 30
0.0
 11
0.1664581463576269
 21
0.0
 31
0.0
  0
LINE
  5
C66
330
BF6
100
AcDbEntity
  8
BLOCKS
  6
Continuous
100
AcDbLine
 10
0.1574472122268844
 20
0.0009441784950468
 30
0.0
 11
0.1284859523951809
 21
0.5047030240639288
 31
0.0
  0
LINE
  5
C67
330
BF6
100
AcDbEntity
  8
BLOCKS
  6
Continuous
100
AcDbLine
 10
0.1674565871218192
 20
0.0010558215050196
 30
0.0
 11
0.1384139135747091
 21
0.5045220948310316
 31
0.0
  0
LINE
  5
C68
330
BF6
100
AcDbEntity
  8
BLOCKS
  6
Continuous
100
AcDbLine
 10
0.3327542494627096
 20
0.7039999999999509
 30
0.0
 11
0.2925527877731611
 21
0.0009441784950468
 31
0.0
  0
LINE
  5
C69
330
BF6
100
AcDbEntity
  8
BLOCKS
  6
Continuous
100
AcDbLine
 10
0.3227386327544082
 20
0.7039999999999509
 30
0.0
 11
0.2825434128781126
 21
0.0010558215050196
 31
0.0
  0
LINE
  5
C6A
330
BF6
100
AcDbEntity
  8
BLOCKS
  6
Continuous
100
AcDbLine
 10
0.1404096277889266
 20
0.5539999999999737
 30
0.0
 11
0.1354959315044653
 21
0.7039999999999509
 31
0.0
  0
LINE
  5
C6B
330
BF6
100
AcDbEntity
  8
BLOCKS
  6
Continuous
100
AcDbLine
 10
0.1524370542319957
 20
0.5539999999999737
 30
0.0
 11
0.1481771675264554
 21
0.693160252601615
 31
0.0
  0
ENDBLK
  5
C6D
330
BF6
100
AcDbEntity
  8
0
100
AcDbBlockEnd
  0
ENDSEC
  0
SECTION
  2
ENTITIES
  0
INSERT
  5
BB7
330
1F
100
AcDbEntity
  8
cotas
100
AcDbBlockReference
  2
106200PL
 10
91.93779079624311
 20
172.3430659874185
 30
0.0
  0
INSERT
  5
BDD
330
1F
100
AcDbEntity
  8
cotas
100
AcDbBlockReference
  2
106200AL
 10
92.6090021319359
 20
171.7202057362554
 30
0.0
  0
INSERT
  5
BF5
330
1F
100
AcDbEntity
  8
cotas
100
AcDbBlockReference
  2
106200AF
 10
93.74215104372149
 20
171.7192615577603
 30
0.0
  0
INSERT
  5
C6E
330
1F
100
AcDbEntity
  8
cotas
100
AcDbBlockReference
  2
106200CT
 10
94.48279064605129
 20
171.7202057362491
 30
0.0
  0
ENDSEC
  0
SECTION
  2
OBJECTS
  0
DICTIONARY
  5
C
330
0
100
AcDbDictionary
281
     1
  3
ACAD_COLOR
350
CA0
  3
ACAD_GROUP
350
D
  3
ACAD_LAYOUT
350
1A
  3
ACAD_MATERIAL
350
C73
  3
ACAD_MLEADERSTYLE
350
CB5
  3
ACAD_MLINESTYLE
350
17
  3
ACAD_PLOTSETTINGS
350
19
  3
ACAD_PLOTSTYLENAME
350
E
  3
ACAD_SCALELIST
350
CA3
  3
ACAD_TABLESTYLE
350
CA1
  3
ACAD_VISUALSTYLE
350
C8C
  3
ACDB_RECOMPOSE_DATA
350
CE1
  3
AcDbVariableDictionary
350
3D
  3
ASE_INDEX_DICTIONARY
350
C6F
  3
DWGPROPS
350
CE2
  0
DICTIONARY
  5
CBB
330
10
100
AcDbDictionary
280
     1
281
     1
  3
ADSK_XREC_LAYER_RECONCILED
360
CBC
  0
DICTIONARY
  5
CBD
330
2F
100
AcDbDictionary
280
     1
281
     1
  3
ADSK_XREC_LAYER_RECONCILED
360
CBE
  0
DICTIONARY
  5
CBF
330
30
100
AcDbDictionary
280
     1
281
     1
  3
ADSK_XREC_LAYER_RECONCILED
360
CC0
  0
DICTIONARY
  5
CC1
330
31
100
AcDbDictionary
280
     1
281
     1
  3
ADSK_XREC_LAYER_RECONCILED
360
CC2
  0
DICTIONARY
  5
CC3
330
32
100
AcDbDictionary
280
     1
281
     1
  3
ADSK_XREC_LAYER_RECONCILED
360
CC4
  0
DICTIONARY
  5
CC5
330
33
100
AcDbDictionary
280
     1
281
     1
  3
ADSK_XREC_LAYER_RECONCILED
360
CC6
  0
DICTIONARY
  5
CC7
330
34
100
AcDbDictionary
280
     1
281
     1
  3
ADSK_XREC_LAYER_RECONCILED
360
CC8
  0
DICTIONARY
  5
CC9
330
35
100
AcDbDictionary
280
     1
281
     1
  3
ADSK_XREC_LAYER_RECONCILED
360
CCA
  0
DICTIONARY
  5
CCB
330
36
100
AcDbDictionary
280
     1
281
     1
  3
ADSK_XREC_LAYER_RECONCILED
360
CCC
  0
DICTIONARY
  5
CCD
330
37
100
AcDbDictionary
280
     1
281
     1
  3
ADSK_XREC_LAYER_RECONCILED
360
CCE
  0
DICTIONARY
  5
CCF
330
5D6
100
AcDbDictionary
280
     1
281
     1
  3
ADSK_XREC_LAYER_RECONCILED
360
CD0
  0
DICTIONARY
  5
CD1
330
8AF
100
AcDbDictionary
280
     1
281
     1
  3
ADSK_XREC_LAYER_RECONCILED
360
CD2
  0
DICTIONARY
  5
CD3
330
8F8
100
AcDbDictionary
280
     1
281
     1
  3
ADSK_XREC_LAYER_RECONCILED
360
CD4
  0
DICTIONARY
  5
CD5
330
91D
100
AcDbDictionary
280
     1
281
     1
  3
ADSK_XREC_LAYER_RECONCILED
360
CD6
  0
DICTIONARY
  5
CD7
330
BA5
100
AcDbDictionary
280
     1
281
     1
  3
ADSK_XREC_LAYER_RECONCILED
360
CD8
  0
DICTIONARY
  5
CA0
102
{ACAD_REACTORS
330
C
102
}
330
C
100
AcDbDictionary
281
     1
  0
DICTIONARY
  5
D
102
{ACAD_REACTORS
330
C
102
}
330
C
100
AcDbDictionary
281
     1
  0
DICTIONARY
  5
1A
102
{ACAD_REACTORS
330
C
102
}
330
C
100
AcDbDictionary
281
     1
  3
Layout1
350
1E
  3
Layout2
350
26
  3
Model
350
22
  0
DICTIONARY
  5
C73
102
{ACAD_REACTORS
330
C
102
}
330
C
100
AcDbDictionary
281
     1
  3
ByBlock
350
C7C
  3
ByLayer
350
C74
  3
Global
350
C84
  0
DICTIONARY
  5
CB5
102
{ACAD_REACTORS
330
C
102
}
330
C
100
AcDbDictionary
281
     1
  3
Standard
350
CB6
  0
DICTIONARY
  5
17
102
{ACAD_REACTORS
330
C
102
}
330
C
100
AcDbDictionary
281
     1
  3
Standard
350
18
  0
DICTIONARY
  5
19
102
{ACAD_REACTORS
330
C
102
}
330
C
100
AcDbDictionary
281
     1
  0
ACDBDICTIONARYWDFLT
  5
E
102
{ACAD_REACTORS
330
C
102
}
330
C
100
AcDbDictionary
281
     1
  3
Normal
350
F
100
AcDbDictionaryWithDefault
340
F
  0
DICTIONARY
  5
CA3
102
{ACAD_REACTORS
330
C
102
}
330
C
100
AcDbDictionary
281
     1
  3
A0
350
CA4
  3
A1
350
CA5
  3
A2
350
CA6
  3
A3
350
CA7
  3
A4
350
CA8
  3
A5
350
CA9
  3
A6
350
CAA
  3
A7
350
CAB
  3
A8
350
CAC
  3
A9
350
CAD
  3
B0
350
CAE
  3
B1
350
CAF
  3
B2
350
CB0
  3
B3
350
CB1
  3
B4
350
CB2
  3
B5
350
CB3
  3
B6
350
CB4
  0
DICTIONARY
  5
CA1
102
{ACAD_REACTORS
330
C
102
}
330
C
100
AcDbDictionary
281
     1
  3
Standard
350
CA2
  0
DICTIONARY
  5
C8C
102
{ACAD_REACTORS
330
C
102
}
330
C
100
AcDbDictionary
281
     1
  3
2dWireframe
350
C92
  3
3D Hidden
350
C94
  3
3dWireframe
350
C93
  3
Basic
350
C91
  3
Brighten
350
C98
  3
ColorChange
350
C9C
  3
Conceptual
350
C95
  3
Dim
350
C97
  3
EdgeColorOff
350
C9F
  3
Facepattern
350
C9B
  3
Flat
350
C8D
  3
FlatWithEdges
350
C8E
  3
Gouraud
350
C8F
  3
GouraudWithEdges
350
C90
  3
JitterOff
350
C9D
  3
Linepattern
350
C9A
  3
OverhangOff
350
C9E
  3
Realistic
350
C96
  3
Thicken
350
C99
  0
XRECORD
  5
CE1
102
{ACAD_REACTORS
330
C
102
}
330
C
100
AcDbXrecord
280
     1
 90
        1
330
CA2
  0
DICTIONARY
  5
3D
102
{ACAD_REACTORS
330
C
102
}
330
C
100
AcDbDictionary
281
     1
  3
CANNOSCALE
350
CDB
  3
CMLEADERSTYLE
350
CDA
  3
CTABLESTYLE
350
CD9
  3
DIMASSOC
350
3F
  3
HIDETEXT
350
3E
  3
INDEXCTL
350
CDD
  3
SORTENTS
350
CDC
  3
XCLIPFRAME
350
CDE
  0
DICTIONARY
  5
C6F
102
{ACAD_REACTORS
330
C
102
}
330
C
100
AcDbDictionary
281
     1
  3
ASEBlockHierarchyIndexRecord
350
C70
1001
DCO15
1040
1757680914.468
  0
XRECORD
  5
CE2
102
{ACAD_REACTORS
330
C
102
}
330
C
100
AcDbXrecord
280
     1
  1
DWGPROPS COOKIE
  2

  3

  4

  6

  7

  8
Julio
  9

300
=
301
=
302
=
303
=
304
=
305
=
306
=
307
=
308
=
309
=
 40
0.0011800115740741
 41
2453480.580812535
 42
2456146.740954491
  1

 90
        0
  0
XRECORD
  5
CBC
102
{ACAD_REACTORS
330
CBB
102
}
330
CBB
100
AcDbXrecord
280
     1
290
     1
  0
XRECORD
  5
CBE
102
{ACAD_REACTORS
330
CBD
102
}
330
CBD
100
AcDbXrecord
280
     1
290
     1
  0
XRECORD
  5
CC0
102
{ACAD_REACTORS
330
CBF
102
}
330
CBF
100
AcDbXrecord
280
     1
290
     1
  0
XRECORD
  5
CC2
102
{ACAD_REACTORS
330
CC1
102
}
330
CC1
100
AcDbXrecord
280
     1
290
     1
  0
XRECORD
  5
CC4
102
{ACAD_REACTORS
330
CC3
102
}
330
CC3
100
AcDbXrecord
280
     1
290
     1
  0
XRECORD
  5
CC6
102
{ACAD_REACTORS
330
CC5
102
}
330
CC5
100
AcDbXrecord
280
     1
290
     1
  0
XRECORD
  5
CC8
102
{ACAD_REACTORS
330
CC7
102
}
330
CC7
100
AcDbXrecord
280
     1
290
     1
  0
XRECORD
  5
CCA
102
{ACAD_REACTORS
330
CC9
102
}
330
CC9
100
AcDbXrecord
280
     1
290
     1
  0
XRECORD
  5
CCC
102
{ACAD_REACTORS
330
CCB
102
}
330
CCB
100
AcDbXrecord
280
     1
290
     1
  0
XRECORD
  5
CCE
102
{ACAD_REACTORS
330
CCD
102
}
330
CCD
100
AcDbXrecord
280
     1
290
     1
  0
XRECORD
  5
CD0
102
{ACAD_REACTORS
330
CCF
102
}
330
CCF
100
AcDbXrecord
280
     1
290
     1
  0
XRECORD
  5
CD2
102
{ACAD_REACTORS
330
CD1
102
}
330
CD1
100
AcDbXrecord
280
     1
290
     1
  0
XRECORD
  5
CD4
102
{ACAD_REACTORS
330
CD3
102
}
330
CD3
100
AcDbXrecord
280
     1
290
     1
  0
XRECORD
  5
CD6
102
{ACAD_REACTORS
330
CD5
102
}
330
CD5
100
AcDbXrecord
280
     1
290
     1
  0
XRECORD
  5
CD8
102
{ACAD_REACTORS
330
CD7
102
}
330
CD7
100
AcDbXrecord
280
     1
290
     1
  0
LAYOUT
  5
1E
102
{ACAD_XDICTIONARY
360
CE3
102
}
102
{ACAD_REACTORS
330
1A
102
}
330
1A
100
AcDbPlotSettings
  1

  2
Ploter HP500
  4

  6

 40
0.0
 41
0.0
 42
0.0
 43
0.0
 44
0.0
 45
0.0
 46
0.0
 47
0.0
 48
0.0
 49
0.0
140
0.0
141
0.0
142
1.0
143
1.0
 70
   688
 72
     0
 73
     0
 74
     5
  7
monochrome.ctb
 75
    16
147
1.0
148
0.0
149
0.0
100
AcDbLayout
  1
Layout1
 70
     1
 71
     1
 10
0.0
 20
0.0
 11
420.0
 21
297.0
 12
0.0
 22
0.0
 32
0.0
 14
1.000000000000000E+20
 24
1.000000000000000E+20
 34
1.000000000000000E+20
 15
-1.000000000000000E+20
 25
-1.000000000000000E+20
 35
-1.000000000000000E+20
146
0.0
 13
0.0
 23
0.0
 33
0.0
 16
1.0
 26
0.0
 36
0.0
 17
0.0
 27
1.0
 37
0.0
 76
     0
330
1B
  0
LAYOUT
  5
26
102
{ACAD_XDICTIONARY
360
CE7
102
}
102
{ACAD_REACTORS
330
1A
102
}
330
1A
100
AcDbPlotSettings
  1

  2
Ploter HP500
  4

  6

 40
0.0
 41
0.0
 42
0.0
 43
0.0
 44
0.0
 45
0.0
 46
0.0
 47
0.0
 48
0.0
 49
0.0
140
0.0
141
0.0
142
1.0
143
1.0
 70
   688
 72
     0
 73
     0
 74
     5
  7
monochrome.ctb
 75
    16
147
1.0
148
0.0
149
0.0
100
AcDbLayout
  1
Layout2
 70
     1
 71
     2
 10
0.0
 20
0.0
 11
12.0
 21
9.0
 12
0.0
 22
0.0
 32
0.0
 14
0.0
 24
0.0
 34
0.0
 15
0.0
 25
0.0
 35
0.0
146
0.0
 13
0.0
 23
0.0
 33
0.0
 16
1.0
 26
0.0
 36
0.0
 17
0.0
 27
1.0
 37
0.0
 76
     0
330
23
  0
LAYOUT
  5
22
102
{ACAD_XDICTIONARY
360
CE5
102
}
102
{ACAD_REACTORS
330
1A
102
}
330
1A
100
AcDbPlotSettings
  1

  2
Ploter HP500
  4
User268
  6

 40
4.995333194732666
 41
16.97565841674804
 42
4.995330810546875
 43
16.97567749023437
 44
209.9733276367187
 45
296.9259948730469
 46
0.0
 47
0.0
 48
0.0
 49
0.0
140
0.0
141
0.0
142
1.0
143
1.0
 70
 11952
 72
     1
 73
     1
 74
     0
  7

 75
     0
147
1.0
148
-427.5957866592534
149
7.362384574453926
100
AcDbLayout
  1
Model
 70
     1
 71
     0
 10
0.0
 20
0.0
 11
12.0
 21
9.0
 12
0.0
 22
0.0
 32
0.0
 14
0.0
 24
0.0
 34
0.0
 15
0.0
 25
0.0
 35
0.0
146
0.0
 13
0.0
 23
0.0
 33
0.0
 16
1.0
 26
0.0
 36
0.0
 17
0.0
 27
1.0
 37
0.0
 76
     0
330
1F
331
C71
  0
MATERIAL
  5
C7C
102
{ACAD_XDICTIONARY
360
C7D
102
}
102
{ACAD_REACTORS
330
C73
102
}
330
C73
100
AcDbMaterial
  1
ByBlock
 72
     0
 43
0.0008202099737533
 43
0.0
 43
0.0
 43
0.0
 43
0.0
 43
0.0008202099737533
 43
0.0
 43
0.0
 43
0.0
 43
0.0
 43
1.0
 43
0.0
 43
0.0
 43
0.0
 43
0.0
 43
1.0
 77
     0
 47
0.0008202099737533
 47
0.0
 47
0.0
 47
0.0
 47
0.0
 47
0.0008202099737533
 47
0.0
 47
0.0
 47
0.0
 47
0.0
 47
1.0
 47
0.0
 47
0.0
 47
0.0
 47
0.0
 47
1.0
171
     0
 49
0.0008202099737533
 49
0.0
 49
0.0
 49
0.0
 49
0.0
 49
0.0008202099737533
 49
0.0
 49
0.0
 49
0.0
 49
0.0
 49
1.0
 49
0.0
 49
0.0
 49
0.0
 49
0.0
 49
1.0
175
     0
142
0.0008202099737533
142
0.0
142
0.0
142
0.0
142
0.0
142
0.0008202099737533
142
0.0
142
0.0
142
0.0
142
0.0
142
1.0
142
0.0
142
0.0
142
0.0
142
0.0
142
1.0
179
     0
144
0.0008202099737533
144
0.0
144
0.0
144
0.0
144
0.0
144
0.0008202099737533
144
0.0
144
0.0
144
0.0
144
0.0
144
1.0
144
0.0
144
0.0
144
0.0
144
0.0
144
1.0
147
0.0008202099737533
147
0.0
147
0.0
147
0.0
147
0.0
147
0.0008202099737533
147
0.0
147
0.0
147
0.0
147
0.0
147
1.0
147
0.0
147
0.0
147
0.0
147
0.0
147
1.0
  0
MATERIAL
  5
C74
102
{ACAD_XDICTIONARY
360
C75
102
}
102
{ACAD_REACTORS
330
C73
102
}
330
C73
100
AcDbMaterial
  1
ByLayer
 72
     0
 43
0.0008202099737533
 43
0.0
 43
0.0
 43
0.0
 43
0.0
 43
0.0008202099737533
 43
0.0
 43
0.0
 43
0.0
 43
0.0
 43
1.0
 43
0.0
 43
0.0
 43
0.0
 43
0.0
 43
1.0
 77
     0
 47
0.0008202099737533
 47
0.0
 47
0.0
 47
0.0
 47
0.0
 47
0.0008202099737533
 47
0.0
 47
0.0
 47
0.0
 47
0.0
 47
1.0
 47
0.0
 47
0.0
 47
0.0
 47
0.0
 47
1.0
171
     0
 49
0.0008202099737533
 49
0.0
 49
0.0
 49
0.0
 49
0.0
 49
0.0008202099737533
 49
0.0
 49
0.0
 49
0.0
 49
0.0
 49
1.0
 49
0.0
 49
0.0
 49
0.0
 49
0.0
 49
1.0
175
     0
142
0.0008202099737533
142
0.0
142
0.0
142
0.0
142
0.0
142
0.0008202099737533
142
0.0
142
0.0
142
0.0
142
0.0
142
1.0
142
0.0
142
0.0
142
0.0
142
0.0
142
1.0
179
     0
144
0.0008202099737533
144
0.0
144
0.0
144
0.0
144
0.0
144
0.0008202099737533
144
0.0
144
0.0
144
0.0
144
0.0
144
1.0
144
0.0
144
0.0
144
0.0
144
0.0
144
1.0
147
0.0008202099737533
147
0.0
147
0.0
147
0.0
147
0.0
147
0.0008202099737533
147
0.0
147
0.0
147
0.0
147
0.0
147
1.0
147
0.0
147
0.0
147
0.0
147
0.0
147
1.0
  0
MATERIAL
  5
C84
102
{ACAD_XDICTIONARY
360
C85
102
}
102
{ACAD_REACTORS
330
C73
102
}
330
C73
100
AcDbMaterial
  1
Global
 72
     0
 43
0.0008202099737533
 43
0.0
 43
0.0
 43
0.0
 43
0.0
 43
0.0008202099737533
 43
0.0
 43
0.0
 43
0.0
 43
0.0
 43
1.0
 43
0.0
 43
0.0
 43
0.0
 43
0.0
 43
1.0
 77
     0
 47
0.0008202099737533
 47
0.0
 47
0.0
 47
0.0
 47
0.0
 47
0.0008202099737533
 47
0.0
 47
0.0
 47
0.0
 47
0.0
 47
1.0
 47
0.0
 47
0.0
 47
0.0
 47
0.0
 47
1.0
171
     0
 49
0.0008202099737533
 49
0.0
 49
0.0
 49
0.0
 49
0.0
 49
0.0008202099737533
 49
0.0
 49
0.0
 49
0.0
 49
0.0
 49
1.0
 49
0.0
 49
0.0
 49
0.0
 49
0.0
 49
1.0
175
     0
142
0.0008202099737533
142
0.0
142
0.0
142
0.0
142
0.0
142
0.0008202099737533
142
0.0
142
0.0
142
0.0
142
0.0
142
1.0
142
0.0
142
0.0
142
0.0
142
0.0
142
1.0
179
     0
144
0.0008202099737533
144
0.0
144
0.0
144
0.0
144
0.0
144
0.0008202099737533
144
0.0
144
0.0
144
0.0
144
0.0
144
1.0
144
0.0
144
0.0
144
0.0
144
0.0
144
1.0
147
0.0008202099737533
147
0.0
147
0.0
147
0.0
147
0.0
147
0.0008202099737533
147
0.0
147
0.0
147
0.0
147
0.0
147
1.0
147
0.0
147
0.0
147
0.0
147
0.0
147
1.0
  0
MLEADERSTYLE
  5
CB6
102
{ACAD_REACTORS
330
CB5
102
}
330
CB5
100
AcDbMLeaderStyle
170
     2
171
     1
172
     0
 90
        2
 40
0.0
 41
0.0
173
     1
 91
-1056964608
340
14
 92
       -2
290
     1
 42
2.0
291
     1
 43
0.36
  3
Standard
 44
4.0
300

342
11
174
     1
178
     6
175
     1
176
     0
 93
-1056964608
 45
4.0
292
     0
297
     0
 46
4.0
 94
-1056964608
 47
1.0
 49
1.0
140
1.0
293
     1
141
0.0
294
     1
177
     0
142
1.0
295
     0
296
     0
143
0.125
1001
ACAD_MLEADERVER
1070
     2
  0
MLINESTYLE
  5
18
102
{ACAD_REACTORS
330
17
102
}
330
17
100
AcDbMlineStyle
  2
STANDARD
 70
     0
  3

 62
   256
 51
90.0
 52
90.0
 71
     2
 49
0.5
 62
   256
  6
BYLAYER
 49
-0.5
 62
   256
  6
BYLAYER
  0
ACDBPLACEHOLDER
  5
F
102
{ACAD_REACTORS
330
E
102
}
330
E
  0
SCALE
  5
CA4
102
{ACAD_REACTORS
330
CA3
102
}
330
CA3
100
AcDbScale
 70
     0
300
1:1
140
1.0
141
1.0
290
     1
  0
SCALE
  5
CA5
102
{ACAD_REACTORS
330
CA3
102
}
330
CA3
100
AcDbScale
 70
     0
300
1:2
140
1.0
141
2.0
290
     0
  0
SCALE
  5
CA6
102
{ACAD_REACTORS
330
CA3
102
}
330
CA3
100
AcDbScale
 70
     0
300
1:4
140
1.0
141
4.0
290
     0
  0
SCALE
  5
CA7
102
{ACAD_REACTORS
330
CA3
102
}
330
CA3
100
AcDbScale
 70
     0
300
1:5
140
1.0
141
5.0
290
     0
  0
SCALE
  5
CA8
102
{ACAD_REACTORS
330
CA3
102
}
330
CA3
100
AcDbScale
 70
     0
300
1:8
140
1.0
141
8.0
290
     0
  0
SCALE
  5
CA9
102
{ACAD_REACTORS
330
CA3
102
}
330
CA3
100
AcDbScale
 70
     0
300
1:10
140
1.0
141
10.0
290
     0
  0
SCALE
  5
CAA
102
{ACAD_REACTORS
330
CA3
102
}
330
CA3
100
AcDbScale
 70
     0
300
1:16
140
1.0
141
16.0
290
     0
  0
SCALE
  5
CAB
102
{ACAD_REACTORS
330
CA3
102
}
330
CA3
100
AcDbScale
 70
     0
300
1:20
140
1.0
141
20.0
290
     0
  0
SCALE
  5
CAC
102
{ACAD_REACTORS
330
CA3
102
}
330
CA3
100
AcDbScale
 70
     0
300
1:30
140
1.0
141
30.0
290
     0
  0
SCALE
  5
CAD
102
{ACAD_REACTORS
330
CA3
102
}
330
CA3
100
AcDbScale
 70
     0
300
1:40
140
1.0
141
40.0
290
     0
  0
SCALE
  5
CAE
102
{ACAD_REACTORS
330
CA3
102
}
330
CA3
100
AcDbScale
 70
     0
300
1:50
140
1.0
141
50.0
290
     0
  0
SCALE
  5
CAF
102
{ACAD_REACTORS
330
CA3
102
}
330
CA3
100
AcDbScale
 70
     0
300
1:100
140
1.0
141
100.0
290
     0
  0
SCALE
  5
CB0
102
{ACAD_REACTORS
330
CA3
102
}
330
CA3
100
AcDbScale
 70
     0
300
2:1
140
2.0
141
1.0
290
     0
  0
SCALE
  5
CB1
102
{ACAD_REACTORS
330
CA3
102
}
330
CA3
100
AcDbScale
 70
     0
300
4:1
140
4.0
141
1.0
290
     0
  0
SCALE
  5
CB2
102
{ACAD_REACTORS
330
CA3
102
}
330
CA3
100
AcDbScale
 70
     0
300
8:1
140
8.0
141
1.0
290
     0
  0
SCALE
  5
CB3
102
{ACAD_REACTORS
330
CA3
102
}
330
CA3
100
AcDbScale
 70
     0
300
10:1
140
10.0
141
1.0
290
     0
  0
SCALE
  5
CB4
102
{ACAD_REACTORS
330
CA3
102
}
330
CA3
100
AcDbScale
 70
     0
300
100:1
140
100.0
141
1.0
290
     0
  0
TABLESTYLE
  5
CA2
102
{ACAD_XDICTIONARY
360
CDF
102
}
102
{ACAD_REACTORS
330
CA1
102
}
330
CA1
100
AcDbTableStyle
  3
Standard
 70
     0
 71
     0
 40
1.5
 41
1.5
280
     0
281
     0
  7
Standard
140
4.5
170
     2
 62
     0
 63
     7
283
     0
274
    -2
284
     1
 64
     0
275
    -2
285
     1
 65
     0
276
    -2
286
     1
 66
     0
277
    -2
287
     1
 67
     0
278
    -2
288
     1
 68
     0
279
    -2
289
     1
 69
     0
  7
Standard
140
6.0
170
     5
 62
     0
 63
     7
283
     0
274
    -2
284
     1
 64
     0
275
    -2
285
     1
 65
     0
276
    -2
286
     1
 66
     0
277
    -2
287
     1
 67
     0
278
    -2
288
     1
 68
     0
279
    -2
289
     1
 69
     0
  7
Standard
140
4.5
170
     5
 62
     0
 63
     7
283
     0
274
    -2
284
     1
 64
     0
275
    -2
285
     1
 65
     0
276
    -2
286
     1
 66
     0
277
    -2
287
     1
 67
     0
278
    -2
288
     1
 68
     0
279
    -2
289
     1
 69
     0
  0
VISUALSTYLE
  5
C92
102
{ACAD_XDICTIONARY
360
CF6
102
}
102
{ACAD_REACTORS
330
C8C
102
}
330
C8C
100
AcDbVisualStyle
  2
2dWireframe
 70
     4
 71
     0
 72
     2
 73
     0
 90
        0
 40
-0.6
 41
-30.0
 62
     5
 63
     7
 74
     1
 91
        4
 64
     7
 65
   257
 75
     1
175
     1
 42
1.0
 92
        0
 66
   257
 43
1.0
 76
     1
 77
     6
 78
     2
 67
     7
 79
     5
170
     0
171
     0
290
     0
174
     0
 93
        1
 44
0.0
173
     0
291
     0
 45
0.0
1001
ACAD
1000
AcDbSavedByObjectVersion
1070
     0
  0
VISUALSTYLE
  5
C94
102
{ACAD_XDICTIONARY
360
CFA
102
}
102
{ACAD_REACTORS
330
C8C
102
}
330
C8C
100
AcDbVisualStyle
  2
3D Hidden
 70
     6
 71
     1
 72
     2
 73
     2
 90
        0
 40
-0.6
 41
-30.0
 62
     5
 63
     7
 74
     2
 91
        2
 64
     7
 65
   257
 75
     2
175
     1
 42
179.0
 92
        0
 66
   257
 43
1.0
 76
     1
 77
     6
 78
     2
 67
     7
 79
     3
170
     0
171
     0
290
     0
174
     0
 93
        1
 44
0.0
173
     0
291
     0
 45
0.0
1001
ACAD
1000
AcDbSavedByObjectVersion
1070
     0
  0
VISUALSTYLE
  5
C93
102
{ACAD_XDICTIONARY
360
CF8
102
}
102
{ACAD_REACTORS
330
C8C
102
}
330
C8C
100
AcDbVisualStyle
  2
3dWireframe
 70
     5
 71
     0
 72
     2
 73
     0
 90
        0
 40
-0.6
 41
-30.0
 62
     5
 63
     7
 74
     1
 91
        4
 64
     7
 65
   257
 75
     1
175
     1
 42
1.0
 92
        0
 66
   257
 43
1.0
 76
     1
 77
     6
 78
     2
 67
     7
 79
     5
170
     0
171
     0
290
     0
174
     0
 93
        1
 44
0.0
173
     0
291
     0
 45
0.0
1001
ACAD
1000
AcDbSavedByObjectVersion
1070
     0
  0
VISUALSTYLE
  5
C91
102
{ACAD_XDICTIONARY
360
CF4
102
}
102
{ACAD_REACTORS
330
C8C
102
}
330
C8C
100
AcDbVisualStyle
  2
Basic
 70
     7
 71
     1
 72
     0
 73
     1
 90
        0
 40
-0.6
 41
-30.0
 62
     5
 63
     7
 74
     0
 91
        4
 64
     7
 65
   257
 75
     1
175
     1
 42
1.0
 92
        8
 66
     7
 43
1.0
 76
     1
 77
     6
 78
     2
 67
     7
 79
     5
170
     0
171
     0
290
     0
174
     0
 93
        1
 44
0.0
173
     0
291
     1
 45
0.0
1001
ACAD
1000
AcDbSavedByObjectVersion
1070
     0
  0
VISUALSTYLE
  5
C98
102
{ACAD_XDICTIONARY
360
D02
102
}
102
{ACAD_REACTORS
330
C8C
102
}
330
C8C
100
AcDbVisualStyle
  2
Brighten
 70
    12
 71
     2
 72
     2
 73
     0
 90
        0
 40
-0.6
 41
-30.0
 62
     5
 63
     7
 74
     1
 91
        4
 64
     7
 65
   257
 75
     1
175
     1
 42
1.0
 92
        8
 66
     7
 43
1.0
 76
     1
 77
     6
 78
     2
 67
     7
 79
     5
170
     0
171
     0
290
     0
174
     0
 93
        1
 44
50.0
173
     0
291
     1
 45
0.0
1001
ACAD
1000
AcDbSavedByObjectVersion
1070
     0
  0
VISUALSTYLE
  5
C9C
102
{ACAD_XDICTIONARY
360
D0A
102
}
102
{ACAD_REACTORS
330
C8C
102
}
330
C8C
100
AcDbVisualStyle
  2
ColorChange
 70
    16
 71
     2
 72
     2
 73
     3
 90
        0
 40
-0.6
 41
-30.0
 62
     5
 63
     8
 74
     1
 91
        4
 64
     7
 65
   257
 75
     1
175
     1
 42
1.0
 92
        8
 66
     8
 43
1.0
 76
     1
 77
     6
 78
     2
 67
     7
 79
     5
170
     0
171
     0
290
     0
174
     0
 93
        1
 44
0.0
173
     0
291
     1
 45
0.0
1001
ACAD
1000
AcDbSavedByObjectVersion
1070
     0
  0
VISUALSTYLE
  5
C95
102
{ACAD_XDICTIONARY
360
CFC
102
}
102
{ACAD_REACTORS
330
C8C
102
}
330
C8C
100
AcDbVisualStyle
  2
Conceptual
 70
     9
 71
     3
 72
     2
 73
     0
 90
        0
 40
-0.6
 41
-30.0
 62
     5
 63
     7
 74
     2
 91
        2
 64
     7
 65
   257
 75
     1
175
     1
 42
179.0
 92
        8
 66
     7
 43
1.0
 76
     1
 77
     6
 78
     2
 67
     7
 79
     3
170
     0
171
     0
290
     0
174
     0
 93
        1
 44
0.0
173
     0
291
     0
 45
0.0
1001
ACAD
1000
AcDbSavedByObjectVersion
1070
     0
  0
VISUALSTYLE
  5
C97
102
{ACAD_XDICTIONARY
360
D00
102
}
102
{ACAD_REACTORS
330
C8C
102
}
330
C8C
100
AcDbVisualStyle
  2
Dim
 70
    11
 71
     2
 72
     2
 73
     0
 90
        0
 40
-0.6
 41
-30.0
 62
     5
 63
     7
 74
     1
 91
        4
 64
     7
 65
   257
 75
     1
175
     1
 42
1.0
 92
        8
 66
     7
 43
1.0
 76
     1
 77
     6
 78
     2
 67
     7
 79
     5
170
     0
171
     0
290
     0
174
     0
 93
        1
 44
-50.0
173
     0
291
     1
 45
0.0
1001
ACAD
1000
AcDbSavedByObjectVersion
1070
     0
  0
VISUALSTYLE
  5
C9F
102
{ACAD_XDICTIONARY
360
D10
102
}
102
{ACAD_REACTORS
330
C8C
102
}
330
C8C
100
AcDbVisualStyle
  2
EdgeColorOff
 70
    22
 71
     2
 72
     2
 73
     0
 90
        0
 40
-0.6
 41
-30.0
 62
     5
 63
     7
 74
     1
 91
        4
 64
     7
 65
   257
 75
     1
175
     1
 42
1.0
 92
        8
 66
     7
 43
1.0
 76
     1
 77
     6
 78
     2
 67
     7
 79
     5
170
     0
171
     0
290
     0
174
     0
 93
        1
 44
0.0
173
     0
291
     1
 45
0.0
1001
ACAD
1000
AcDbSavedByObjectVersion
1070
     0
  0
VISUALSTYLE
  5
C9B
102
{ACAD_XDICTIONARY
360
D08
102
}
102
{ACAD_REACTORS
330
C8C
102
}
330
C8C
100
AcDbVisualStyle
  2
Facepattern
 70
    15
 71
     2
 72
     2
 73
     0
 90
        0
 40
-0.6
 41
-30.0
 62
     5
 63
     7
 74
     1
 91
        4
 64
     7
 65
   257
 75
     1
175
     1
 42
1.0
 92
        8
 66
     7
 43
1.0
 76
     1
 77
     6
 78
     2
 67
     7
 79
     5
170
     0
171
     0
290
     0
174
     0
 93
        1
 44
0.0
173
     0
291
     1
 45
0.0
1001
ACAD
1000
AcDbSavedByObjectVersion
1070
     0
  0
VISUALSTYLE
  5
C8D
102
{ACAD_XDICTIONARY
360
CEC
102
}
102
{ACAD_REACTORS
330
C8C
102
}
330
C8C
100
AcDbVisualStyle
  2
Flat
 70
     0
 71
     2
 72
     1
 73
     1
 90
        2
 40
-0.6
 41
30.0
 62
     5
 63
     7
 74
     0
 91
        4
 64
     7
 65
   257
 75
     1
175
     1
 42
1.0
 92
        8
 66
     7
 43
1.0
 76
     1
 77
     6
 78
     2
 67
     7
 79
     5
170
     0
171
     0
290
     0
174
     0
 93
       13
 44
0.0
173
     0
291
     1
 45
0.0
1001
ACAD
1000
AcDbSavedByObjectVersion
1070
     0
  0
VISUALSTYLE
  5
C8E
102
{ACAD_XDICTIONARY
360
CEE
102
}
102
{ACAD_REACTORS
330
C8C
102
}
330
C8C
100
AcDbVisualStyle
  2
FlatWithEdges
 70
     1
 71
     2
 72
     1
 73
     1
 90
        2
 40
-0.6
 41
30.0
 62
     5
 63
     7
 74
     1
 91
        4
 64
     7
 65
   257
 75
     1
175
     1
 42
1.0
 92
        0
 66
   257
 43
1.0
 76
     1
 77
     6
 78
     2
 67
     7
 79
     5
170
     0
171
     0
290
     0
174
     0
 93
       13
 44
0.0
173
     0
291
     1
 45
0.0
1001
ACAD
1000
AcDbSavedByObjectVersion
1070
     0
  0
VISUALSTYLE
  5
C8F
102
{ACAD_XDICTIONARY
360
CF0
102
}
102
{ACAD_REACTORS
330
C8C
102
}
330
C8C
100
AcDbVisualStyle
  2
Gouraud
 70
     2
 71
     2
 72
     2
 73
     1
 90
        2
 40
-0.6
 41
30.0
 62
     5
 63
     7
 74
     0
 91
        4
 64
     7
 65
   257
 75
     1
175
     1
 42
1.0
 92
        0
 66
     7
 43
1.0
 76
     1
 77
     6
 78
     2
 67
     7
 79
     5
170
     0
171
     0
290
     0
174
     0
 93
       13
 44
0.0
173
     0
291
     1
 45
0.0
1001
ACAD
1000
AcDbSavedByObjectVersion
1070
     0
  0
VISUALSTYLE
  5
C90
102
{ACAD_XDICTIONARY
360
CF2
102
}
102
{ACAD_REACTORS
330
C8C
102
}
330
C8C
100
AcDbVisualStyle
  2
GouraudWithEdges
 70
     3
 71
     2
 72
     2
 73
     1
 90
        2
 40
-0.6
 41
30.0
 62
     5
 63
     7
 74
     1
 91
        4
 64
     7
 65
   257
 75
     1
175
     1
 42
1.0
 92
        0
 66
   257
 43
1.0
 76
     1
 77
     6
 78
     2
 67
     7
 79
     5
170
     0
171
     0
290
     0
174
     0
 93
       13
 44
0.0
173
     0
291
     1
 45
0.0
1001
ACAD
1000
AcDbSavedByObjectVersion
1070
     0
  0
VISUALSTYLE
  5
C9D
102
{ACAD_XDICTIONARY
360
D0C
102
}
102
{ACAD_REACTORS
330
C8C
102
}
330
C8C
100
AcDbVisualStyle
  2
JitterOff
 70
    20
 71
     2
 72
     2
 73
     0
 90
        0
 40
-0.6
 41
-30.0
 62
     5
 63
     7
 74
     1
 91
        4
 64
     7
 65
   257
 75
     1
175
     1
 42
1.0
 92
       10
 66
     7
 43
1.0
 76
     1
 77
     6
 78
     2
 67
     7
 79
     5
170
     0
171
     0
290
     0
174
     0
 93
        1
 44
0.0
173
     0
291
     1
 45
0.0
1001
ACAD
1000
AcDbSavedByObjectVersion
1070
     0
  0
VISUALSTYLE
  5
C9A
102
{ACAD_XDICTIONARY
360
D06
102
}
102
{ACAD_REACTORS
330
C8C
102
}
330
C8C
100
AcDbVisualStyle
  2
Linepattern
 70
    14
 71
     2
 72
     2
 73
     0
 90
        0
 40
-0.6
 41
-30.0
 62
     5
 63
     7
 74
     1
 91
        4
 64
     7
 65
   257
 75
     7
175
     7
 42
1.0
 92
        8
 66
     7
 43
1.0
 76
     1
 77
     6
 78
     2
 67
     7
 79
     5
170
     0
171
     0
290
     0
174
     0
 93
        1
 44
0.0
173
     0
291
     1
 45
0.0
1001
ACAD
1000
AcDbSavedByObjectVersion
1070
     0
  0
VISUALSTYLE
  5
C9E
102
{ACAD_XDICTIONARY
360
D0E
102
}
102
{ACAD_REACTORS
330
C8C
102
}
330
C8C
100
AcDbVisualStyle
  2
OverhangOff
 70
    21
 71
     2
 72
     2
 73
     0
 90
        0
 40
-0.6
 41
-30.0
 62
     5
 63
     7
 74
     1
 91
        4
 64
     7
 65
   257
 75
     1
175
     1
 42
1.0
 92
        9
 66
     7
 43
1.0
 76
     1
 77
     6
 78
     2
 67
     7
 79
     5
170
     0
171
     0
290
     0
174
     0
 93
        1
 44
0.0
173
     0
291
     1
 45
0.0
1001
ACAD
1000
AcDbSavedByObjectVersion
1070
     0
  0
VISUALSTYLE
  5
C96
102
{ACAD_XDICTIONARY
360
CFE
102
}
102
{ACAD_REACTORS
330
C8C
102
}
330
C8C
100
AcDbVisualStyle
  2
Realistic
 70
     8
 71
     2
 72
     2
 73
     0
 90
        0
 40
-0.6
 41
-30.0
 62
     5
 63
     7
 74
     1
 91
        0
 64
     7
 65
   257
 75
     1
175
     1
 42
1.0
 92
        8
 66
     8
 43
1.0
 76
     1
 77
     6
 78
     2
 67
     7
 79
     5
170
     0
171
     0
290
     0
174
     0
 93
       13
 44
0.0
173
     0
291
     0
 45
0.0
1001
ACAD
1000
AcDbSavedByObjectVersion
1070
     0
  0
VISUALSTYLE
  5
C99
102
{ACAD_XDICTIONARY
360
D04
102
}
102
{ACAD_REACTORS
330
C8C
102
}
330
C8C
100
AcDbVisualStyle
  2
Thicken
 70
    13
 71
     2
 72
     2
 73
     0
 90
        0
 40
-0.6
 41
-30.0
 62
     5
 63
     7
 74
     1
 91
        4
 64
     7
 65
   257
 75
     1
175
     1
 42
1.0
 92
       12
 66
     7
 43
1.0
 76
     1
 77
     6
 78
     2
 67
     7
 79
     5
170
     0
171
     0
290
     0
174
     0
 93
        1
 44
0.0
173
     0
291
     1
 45
0.0
1001
ACAD
1000
AcDbSavedByObjectVersion
1070
     0
  0
DICTIONARYVAR
  5
CDB
102
{ACAD_REACTORS
330
3D
102
}
330
3D
100
DictionaryVariables
280
     0
  1
1:1
  0
DICTIONARYVAR
  5
CDA
102
{ACAD_REACTORS
330
3D
102
}
330
3D
100
DictionaryVariables
280
     0
  1
STANDARD
  0
DICTIONARYVAR
  5
CD9
102
{ACAD_REACTORS
330
3D
102
}
330
3D
100
DictionaryVariables
280
     0
  1
STANDARD
  0
DICTIONARYVAR
  5
3F
102
{ACAD_REACTORS
330
3D
102
}
330
3D
100
DictionaryVariables
280
     0
  1
2
  0
DICTIONARYVAR
  5
3E
102
{ACAD_REACTORS
330
3D
102
}
330
3D
100
DictionaryVariables
280
     0
  1
1
  0
DICTIONARYVAR
  5
CDD
102
{ACAD_REACTORS
330
3D
102
}
330
3D
100
DictionaryVariables
280
     0
  1
0
  0
DICTIONARYVAR
  5
CDC
102
{ACAD_REACTORS
330
3D
102
}
330
3D
100
DictionaryVariables
280
     0
  1
127
  0
DICTIONARYVAR
  5
CDE
102
{ACAD_REACTORS
330
3D
102
}
330
3D
100
DictionaryVariables
280
     0
  1
2
  0
XRECORD
  5
C70
102
{ACAD_REACTORS
330
C6F
102
}
330
C6F
100
AcDbXrecord
280
     1
330
BB7
330
BDD
330
BF5
330
C6E
  0
DICTIONARY
  5
CE3
330
1E
100
AcDbDictionary
280
     1
281
     1
  3
ACAD_XREC_ROUNDTRIP
360
CE4
  0
DICTIONARY
  5
CE7
330
26
100
AcDbDictionary
280
     1
281
     1
  3
ACAD_XREC_ROUNDTRIP
360
CE8
  0
DICTIONARY
  5
CE5
330
22
100
AcDbDictionary
280
     1
281
     1
  3
ACAD_XREC_ROUNDTRIP
360
CE6
  0
DICTIONARY
  5
C7D
330
C7C
100
AcDbDictionary
280
     1
281
     1
  3
ACAD_XREC_ROUNDTRIP
360
CEA
  3
BUMPTILE
360
C7F
  3
DIFFUSETILE
360
C7E
  3
OPACITYTILE
360
C82
  3
REFLECTIONTILE
360
C81
  3
REFRACTIONTILE
360
C83
  3
SPECULARTILE
360
C80
  0
DICTIONARY
  5
C75
330
C74
100
AcDbDictionary
280
     1
281
     1
  3
ACAD_XREC_ROUNDTRIP
360
CE9
  3
BUMPTILE
360
C77
  3
DIFFUSETILE
360
C76
  3
OPACITYTILE
360
C7A
  3
REFLECTIONTILE
360
C79
  3
REFRACTIONTILE
360
C7B
  3
SPECULARTILE
360
C78
  0
DICTIONARY
  5
C85
330
C84
100
AcDbDictionary
280
     1
281
     1
  3
ACAD_XREC_ROUNDTRIP
360
CEB
  3
BUMPTILE
360
C87
  3
DIFFUSETILE
360
C86
  3
OPACITYTILE
360
C8A
  3
REFLECTIONTILE
360
C89
  3
REFRACTIONTILE
360
C8B
  3
SPECULARTILE
360
C88
  0
DICTIONARY
  5
CDF
330
CA2
100
AcDbDictionary
280
     1
281
     1
  3
ACAD_ROUNDTRIP_2008_TABLESTYLE_CELLSTYLEMAP
360
CE0
  3
ACAD_XREC_ROUNDTRIP
360
D12
  0
DICTIONARY
  5
CF6
330
C92
100
AcDbDictionary
280
     1
281
     1
  3
ACAD_XREC_ROUNDTRIP
360
CF7
  0
DICTIONARY
  5
CFA
330
C94
100
AcDbDictionary
280
     1
281
     1
  3
ACAD_XREC_ROUNDTRIP
360
CFB
  0
DICTIONARY
  5
CF8
330
C93
100
AcDbDictionary
280
     1
281
     1
  3
ACAD_XREC_ROUNDTRIP
360
CF9
  0
DICTIONARY
  5
CF4
330
C91
100
AcDbDictionary
280
     1
281
     1
  3
ACAD_XREC_ROUNDTRIP
360
CF5
  0
DICTIONARY
  5
D02
330
C98
100
AcDbDictionary
280
     1
281
     1
  3
ACAD_XREC_ROUNDTRIP
360
D03
  0
DICTIONARY
  5
D0A
330
C9C
100
AcDbDictionary
280
     1
281
     1
  3
ACAD_XREC_ROUNDTRIP
360
D0B
  0
DICTIONARY
  5
CFC
330
C95
100
AcDbDictionary
280
     1
281
     1
  3
ACAD_XREC_ROUNDTRIP
360
CFD
  0
DICTIONARY
  5
D00
330
C97
100
AcDbDictionary
280
     1
281
     1
  3
ACAD_XREC_ROUNDTRIP
360
D01
  0
DICTIONARY
  5
D10
330
C9F
100
AcDbDictionary
280
     1
281
     1
  3
ACAD_XREC_ROUNDTRIP
360
D11
  0
DICTIONARY
  5
D08
330
C9B
100
AcDbDictionary
280
     1
281
     1
  3
ACAD_XREC_ROUNDTRIP
360
D09
  0
DICTIONARY
  5
CEC
330
C8D
100
AcDbDictionary
280
     1
281
     1
  3
ACAD_XREC_ROUNDTRIP
360
CED
  0
DICTIONARY
  5
CEE
330
C8E
100
AcDbDictionary
280
     1
281
     1
  3
ACAD_XREC_ROUNDTRIP
360
CEF
  0
DICTIONARY
  5
CF0
330
C8F
100
AcDbDictionary
280
     1
281
     1
  3
ACAD_XREC_ROUNDTRIP
360
CF1
  0
DICTIONARY
  5
CF2
330
C90
100
AcDbDictionary
280
     1
281
     1
  3
ACAD_XREC_ROUNDTRIP
360
CF3
  0
DICTIONARY
  5
D0C
330
C9D
100
AcDbDictionary
280
     1
281
     1
  3
ACAD_XREC_ROUNDTRIP
360
D0D
  0
DICTIONARY
  5
D06
330
C9A
100
AcDbDictionary
280
     1
281
     1
  3
ACAD_XREC_ROUNDTRIP
360
D07
  0
DICTIONARY
  5
D0E
330
C9E
100
AcDbDictionary
280
     1
281
     1
  3
ACAD_XREC_ROUNDTRIP
360
D0F
  0
DICTIONARY
  5
CFE
330
C96
100
AcDbDictionary
280
     1
281
     1
  3
ACAD_XREC_ROUNDTRIP
360
CFF
  0
DICTIONARY
  5
D04
330
C99
100
AcDbDictionary
280
     1
281
     1
  3
ACAD_XREC_ROUNDTRIP
360
D05
  0
XRECORD
  5
CE4
102
{ACAD_REACTORS
330
CE3
102
}
330
CE3
100
AcDbXrecord
280
     1
102
SHADEPLOT
 70
     0
102
SHADEPLOTRESLEVEL
 70
     2
102
SHADEPLOTCUSTOMDPI
 70
   300
  0
XRECORD
  5
CE8
102
{ACAD_REACTORS
330
CE7
102
}
330
CE7
100
AcDbXrecord
280
     1
102
SHADEPLOT
 70
     0
102
SHADEPLOTRESLEVEL
 70
     2
102
SHADEPLOTCUSTOMDPI
 70
   300
  0
XRECORD
  5
CE6
102
{ACAD_REACTORS
330
CE5
102
}
330
CE5
100
AcDbXrecord
280
     1
102
SHADEPLOT
 70
     0
102
SHADEPLOTRESLEVEL
 70
     2
102
SHADEPLOTCUSTOMDPI
 70
   300
  0
XRECORD
  5
CEA
102
{ACAD_REACTORS
330
C7D
102
}
330
C7D
100
AcDbXrecord
280
     1
102
MATERIAL
148
0.0
149
0.0
149
0.0
 93
        0
 94
      127
282
     0
 72
     0
 77
     0
171
     0
175
     0
179
     0
273
     0
  0
XRECORD
  5
C7F
102
{ACAD_REACTORS
330
C7D
102
}
330
C7D
100
AcDbXrecord
280
     1
270
     1
271
     1
  0
XRECORD
  5
C7E
102
{ACAD_REACTORS
330
C7D
102
}
330
C7D
100
AcDbXrecord
280
     1
270
     1
271
     1
  0
XRECORD
  5
C82
102
{ACAD_REACTORS
330
C7D
102
}
330
C7D
100
AcDbXrecord
280
     1
270
     1
271
     1
  0
XRECORD
  5
C81
102
{ACAD_REACTORS
330
C7D
102
}
330
C7D
100
AcDbXrecord
280
     1
270
     1
271
     1
  0
XRECORD
  5
C83
102
{ACAD_REACTORS
330
C7D
102
}
330
C7D
100
AcDbXrecord
280
     1
270
     1
271
     1
  0
XRECORD
  5
C80
102
{ACAD_REACTORS
330
C7D
102
}
330
C7D
100
AcDbXrecord
280
     1
270
     1
271
     1
  0
XRECORD
  5
CE9
102
{ACAD_REACTORS
330
C75
102
}
330
C75
100
AcDbXrecord
280
     1
102
MATERIAL
148
0.0
149
0.0
149
0.0
 93
        0
 94
      127
282
     0
 72
     0
 77
     0
171
     0
175
     0
179
     0
273
     0
  0
XRECORD
  5
C77
102
{ACAD_REACTORS
330
C75
102
}
330
C75
100
AcDbXrecord
280
     1
270
     1
271
     1
  0
XRECORD
  5
C76
102
{ACAD_REACTORS
330
C75
102
}
330
C75
100
AcDbXrecord
280
     1
270
     1
271
     1
  0
XRECORD
  5
C7A
102
{ACAD_REACTORS
330
C75
102
}
330
C75
100
AcDbXrecord
280
     1
270
     1
271
     1
  0
XRECORD
  5
C79
102
{ACAD_REACTORS
330
C75
102
}
330
C75
100
AcDbXrecord
280
     1
270
     1
271
     1
  0
XRECORD
  5
C7B
102
{ACAD_REACTORS
330
C75
102
}
330
C75
100
AcDbXrecord
280
     1
270
     1
271
     1
  0
XRECORD
  5
C78
102
{ACAD_REACTORS
330
C75
102
}
330
C75
100
AcDbXrecord
280
     1
270
     1
271
     1
  0
XRECORD
  5
CEB
102
{ACAD_REACTORS
330
C85
102
}
330
C85
100
AcDbXrecord
280
     1
102
MATERIAL
148
0.0
149
0.0
149
0.0
 93
        0
 94
      127
282
     0
 72
     0
 77
     0
171
     0
175
     0
179
     0
273
     0
  0
XRECORD
  5
C87
102
{ACAD_REACTORS
330
C85
102
}
330
C85
100
AcDbXrecord
280
     1
270
     1
271
     1
  0
XRECORD
  5
C86
102
{ACAD_REACTORS
330
C85
102
}
330
C85
100
AcDbXrecord
280
     1
270
     1
271
     1
  0
XRECORD
  5
C8A
102
{ACAD_REACTORS
330
C85
102
}
330
C85
100
AcDbXrecord
280
     1
270
     1
271
     1
  0
XRECORD
  5
C89
102
{ACAD_REACTORS
330
C85
102
}
330
C85
100
AcDbXrecord
280
     1
270
     1
271
     1
  0
XRECORD
  5
C8B
102
{ACAD_REACTORS
330
C85
102
}
330
C85
100
AcDbXrecord
280
     1
270
     1
271
     1
  0
XRECORD
  5
C88
102
{ACAD_REACTORS
330
C85
102
}
330
C85
100
AcDbXrecord
280
     1
270
     1
271
     1
  0
CELLSTYLEMAP
  5
CE0
102
{ACAD_REACTORS
330
CDF
102
}
330
CDF
100
AcDbCellStyleMap
 90
        3
300
CELLSTYLE
  1
TABLEFORMAT_BEGIN
 90
        5
170
     1
 91
        0
 92
    32768
 62
   257
 93
        1
300
CONTENTFORMAT
  1
CONTENTFORMAT_BEGIN
 90
        0
 91
        0
 92
      512
 93
        0
300

 40
0.0
140
1.0
 94
        5
 62
     0
340
11
144
6.0
309
CONTENTFORMAT_END
171
     1
301
MARGIN
  1
CELLMARGIN_BEGIN
 40
1.5
 40
1.5
 40
1.5
 40
1.5
 40
4.5
 40
4.5
309
CELLMARGIN_END
 94
        6
 95
        1
302
GRIDFORMAT
  1
GRIDFORMAT_BEGIN
 90
        0
 91
        1
 62
     0
 92
       -2
340
0
 93
        0
 40
1.125
309
GRIDFORMAT_END
 95
        2
302
GRIDFORMAT
  1
GRIDFORMAT_BEGIN
 90
        0
 91
        1
 62
     0
 92
       -2
340
0
 93
        0
 40
1.125
309
GRIDFORMAT_END
 95
        4
302
GRIDFORMAT
  1
GRIDFORMAT_BEGIN
 90
        0
 91
        1
 62
     0
 92
       -2
340
0
 93
        0
 40
1.125
309
GRIDFORMAT_END
 95
        8
302
GRIDFORMAT
  1
GRIDFORMAT_BEGIN
 90
        0
 91
        1
 62
     0
 92
       -2
340
0
 93
        0
 40
1.125
309
GRIDFORMAT_END
 95
       16
302
GRIDFORMAT
  1
GRIDFORMAT_BEGIN
 90
        0
 91
        1
 62
     0
 92
       -2
340
0
 93
        0
 40
1.125
309
GRIDFORMAT_END
 95
       32
302
GRIDFORMAT
  1
GRIDFORMAT_BEGIN
 90
        0
 91
        1
 62
     0
 92
       -2
340
0
 93
        0
 40
1.125
309
GRIDFORMAT_END
309
TABLEFORMAT_END
  1
CELLSTYLE_BEGIN
 90
        1
 91
        1
300
_TITLE
309
CELLSTYLE_END
300
CELLSTYLE
  1
TABLEFORMAT_BEGIN
 90
        5
170
     1
 91
        0
 92
        0
 62
   257
 93
        1
300
CONTENTFORMAT
  1
CONTENTFORMAT_BEGIN
 90
        0
 91
        0
 92
      512
 93
        0
300

 40
0.0
140
1.0
 94
        5
 62
     0
340
11
144
4.5
309
CONTENTFORMAT_END
171
     1
301
MARGIN
  1
CELLMARGIN_BEGIN
 40
1.5
 40
1.5
 40
1.5
 40
1.5
 40
4.5
 40
4.5
309
CELLMARGIN_END
 94
        6
 95
        1
302
GRIDFORMAT
  1
GRIDFORMAT_BEGIN
 90
        0
 91
        1
 62
     0
 92
       -2
340
0
 93
        0
 40
1.125
309
GRIDFORMAT_END
 95
        2
302
GRIDFORMAT
  1
GRIDFORMAT_BEGIN
 90
        0
 91
        1
 62
     0
 92
       -2
340
0
 93
        0
 40
1.125
309
GRIDFORMAT_END
 95
        4
302
GRIDFORMAT
  1
GRIDFORMAT_BEGIN
 90
        0
 91
        1
 62
     0
 92
       -2
340
0
 93
        0
 40
1.125
309
GRIDFORMAT_END
 95
        8
302
GRIDFORMAT
  1
GRIDFORMAT_BEGIN
 90
        0
 91
        1
 62
     0
 92
       -2
340
0
 93
        0
 40
1.125
309
GRIDFORMAT_END
 95
       16
302
GRIDFORMAT
  1
GRIDFORMAT_BEGIN
 90
        0
 91
        1
 62
     0
 92
       -2
340
0
 93
        0
 40
1.125
309
GRIDFORMAT_END
 95
       32
302
GRIDFORMAT
  1
GRIDFORMAT_BEGIN
 90
        0
 91
        1
 62
     0
 92
       -2
340
0
 93
        0
 40
1.125
309
GRIDFORMAT_END
309
TABLEFORMAT_END
  1
CELLSTYLE_BEGIN
 90
        2
 91
        1
300
_HEADER
309
CELLSTYLE_END
300
CELLSTYLE
  1
TABLEFORMAT_BEGIN
 90
        5
170
     1
 91
        0
 92
        0
 62
   257
 93
        1
300
CONTENTFORMAT
  1
CONTENTFORMAT_BEGIN
 90
        0
 91
        0
 92
      512
 93
        0
300

 40
0.0
140
1.0
 94
        2
 62
     0
340
11
144
4.5
309
CONTENTFORMAT_END
171
     1
301
MARGIN
  1
CELLMARGIN_BEGIN
 40
1.5
 40
1.5
 40
1.5
 40
1.5
 40
4.5
 40
4.5
309
CELLMARGIN_END
 94
        6
 95
        1
302
GRIDFORMAT
  1
GRIDFORMAT_BEGIN
 90
        0
 91
        1
 62
     0
 92
       -2
340
0
 93
        0
 40
1.125
309
GRIDFORMAT_END
 95
        2
302
GRIDFORMAT
  1
GRIDFORMAT_BEGIN
 90
        0
 91
        1
 62
     0
 92
       -2
340
0
 93
        0
 40
1.125
309
GRIDFORMAT_END
 95
        4
302
GRIDFORMAT
  1
GRIDFORMAT_BEGIN
 90
        0
 91
        1
 62
     0
 92
       -2
340
0
 93
        0
 40
1.125
309
GRIDFORMAT_END
 95
        8
302
GRIDFORMAT
  1
GRIDFORMAT_BEGIN
 90
        0
 91
        1
 62
     0
 92
       -2
340
0
 93
        0
 40
1.125
309
GRIDFORMAT_END
 95
       16
302
GRIDFORMAT
  1
GRIDFORMAT_BEGIN
 90
        0
 91
        1
 62
     0
 92
       -2
340
0
 93
        0
 40
1.125
309
GRIDFORMAT_END
 95
       32
302
GRIDFORMAT
  1
GRIDFORMAT_BEGIN
 90
        0
 91
        1
 62
     0
 92
       -2
340
0
 93
        0
 40
1.125
309
GRIDFORMAT_END
309
TABLEFORMAT_END
  1
CELLSTYLE_BEGIN
 90
        3
 91
        2
300
_DATA
309
CELLSTYLE_END
  0
XRECORD
  5
D12
102
{ACAD_REACTORS
330
CDF
102
}
330
CDF
100
AcDbXrecord
280
     1
102
ACAD_ROUNDTRIP_PRE2007_TABLESTYLE
 90
      512
 91
        0
  1

 92
      512
 93
        0
  2

 94
      512
 95
        0
  3

  0
XRECORD
  5
CF7
102
{ACAD_REACTORS
330
CF6
102
}
330
CF6
100
AcDbXrecord
280
     1
102
RTVSPropertyOp0
 70
     1
102
RTVSPropertyOp1
 70
     1
102
RTVSPropertyOp2
 70
     1
102
RTVSPropertyOp3
 70
     1
102
RTVSPropertyOp4
 70
     1
102
RTVSPropertyOp5
 70
     1
102
RTVSPropertyOp6
 70
     1
102
RTVSPropertyOp7
 70
     1
102
RTVSPropertyOp8
 70
     1
102
RTVSPropertyOp9
 70
     1
102
RTVSPropertyOp10
 70
     1
102
RTVSPropertyOp11
 70
     1
102
RTVSPropertyOp12
 70
     1
102
RTVSPropertyOp13
 70
     1
102
RTVSPropertyOp14
 70
     1
102
RTVSPropertyOp15
 70
     1
102
RTVSPropertyOp16
 70
     1
102
RTVSPropertyOp17
 70
     1
102
RTVSPropertyOp18
 70
     1
102
RTVSPropertyOp19
 70
     1
102
RTVSPropertyOp20
 70
     1
102
RTVSPropertyOp21
 70
     1
102
RTVSPropertyOp22
 70
     1
102
RTVSPropertyOp23
 70
     1
102
RTVSPropertyOp24
 70
     1
102
RTVSPropertyOp25
 70
     1
102
RTVSPropertyOp26
 70
     1
102
RTVSPropertyOp27
 70
     1
  0
XRECORD
  5
CFB
102
{ACAD_REACTORS
330
CFA
102
}
330
CFA
100
AcDbXrecord
280
     1
102
RTVSPropertyOp0
 70
     1
102
RTVSPropertyOp1
 70
     1
102
RTVSPropertyOp2
 70
     1
102
RTVSPropertyOp3
 70
     1
102
RTVSPropertyOp4
 70
     1
102
RTVSPropertyOp5
 70
     1
102
RTVSPropertyOp6
 70
     1
102
RTVSPropertyOp7
 70
     1
102
RTVSPropertyOp8
 70
     1
102
RTVSPropertyOp9
 70
     1
102
RTVSPropertyOp10
 70
     1
102
RTVSPropertyOp11
 70
     1
102
RTVSPropertyOp12
 70
     1
102
RTVSPropertyOp13
 70
     1
102
RTVSPropertyOp14
 70
     1
102
RTVSPropertyOp15
 70
     1
102
RTVSPropertyOp16
 70
     1
102
RTVSPropertyOp17
 70
     1
102
RTVSPropertyOp18
 70
     1
102
RTVSPropertyOp19
 70
     1
102
RTVSPropertyOp20
 70
     1
102
RTVSPropertyOp21
 70
     1
102
RTVSPropertyOp22
 70
     1
102
RTVSPropertyOp23
 70
     1
102
RTVSPropertyOp24
 70
     1
102
RTVSPropertyOp25
 70
     1
102
RTVSPropertyOp26
 70
     1
102
RTVSPropertyOp27
 70
     1
  0
XRECORD
  5
CF9
102
{ACAD_REACTORS
330
CF8
102
}
330
CF8
100
AcDbXrecord
280
     1
102
RTVSPropertyOp0
 70
     1
102
RTVSPropertyOp1
 70
     1
102
RTVSPropertyOp2
 70
     1
102
RTVSPropertyOp3
 70
     1
102
RTVSPropertyOp4
 70
     1
102
RTVSPropertyOp5
 70
     1
102
RTVSPropertyOp6
 70
     1
102
RTVSPropertyOp7
 70
     1
102
RTVSPropertyOp8
 70
     1
102
RTVSPropertyOp9
 70
     1
102
RTVSPropertyOp10
 70
     1
102
RTVSPropertyOp11
 70
     1
102
RTVSPropertyOp12
 70
     1
102
RTVSPropertyOp13
 70
     1
102
RTVSPropertyOp14
 70
     1
102
RTVSPropertyOp15
 70
     1
102
RTVSPropertyOp16
 70
     1
102
RTVSPropertyOp17
 70
     1
102
RTVSPropertyOp18
 70
     1
102
RTVSPropertyOp19
 70
     1
102
RTVSPropertyOp20
 70
     1
102
RTVSPropertyOp21
 70
     1
102
RTVSPropertyOp22
 70
     1
102
RTVSPropertyOp23
 70
     1
102
RTVSPropertyOp24
 70
     1
102
RTVSPropertyOp25
 70
     1
102
RTVSPropertyOp26
 70
     1
102
RTVSPropertyOp27
 70
     1
  0
XRECORD
  5
CF5
102
{ACAD_REACTORS
330
CF4
102
}
330
CF4
100
AcDbXrecord
280
     1
102
RTVSPropertyOp0
 70
     1
102
RTVSPropertyOp1
 70
     1
102
RTVSPropertyOp2
 70
     1
102
RTVSPropertyOp3
 70
     1
102
RTVSPropertyOp4
 70
     1
102
RTVSPropertyOp5
 70
     1
102
RTVSPropertyOp6
 70
     1
102
RTVSPropertyOp7
 70
     1
102
RTVSPropertyOp8
 70
     1
102
RTVSPropertyOp9
 70
     1
102
RTVSPropertyOp10
 70
     1
102
RTVSPropertyOp11
 70
     1
102
RTVSPropertyOp12
 70
     1
102
RTVSPropertyOp13
 70
     1
102
RTVSPropertyOp14
 70
     1
102
RTVSPropertyOp15
 70
     1
102
RTVSPropertyOp16
 70
     1
102
RTVSPropertyOp17
 70
     1
102
RTVSPropertyOp18
 70
     1
102
RTVSPropertyOp19
 70
     1
102
RTVSPropertyOp20
 70
     1
102
RTVSPropertyOp21
 70
     1
102
RTVSPropertyOp22
 70
     1
102
RTVSPropertyOp23
 70
     1
102
RTVSPropertyOp24
 70
     1
102
RTVSPropertyOp25
 70
     1
102
RTVSPropertyOp26
 70
     1
102
RTVSPropertyOp27
 70
     1
  0
XRECORD
  5
D03
102
{ACAD_REACTORS
330
D02
102
}
330
D02
100
AcDbXrecord
280
     1
102
RTVSPropertyOp0
 70
     1
102
RTVSPropertyOp1
 70
     1
102
RTVSPropertyOp2
 70
     1
102
RTVSPropertyOp3
 70
     1
102
RTVSPropertyOp4
 70
     1
102
RTVSPropertyOp5
 70
     1
102
RTVSPropertyOp6
 70
     1
102
RTVSPropertyOp7
 70
     1
102
RTVSPropertyOp8
 70
     1
102
RTVSPropertyOp9
 70
     1
102
RTVSPropertyOp10
 70
     1
102
RTVSPropertyOp11
 70
     1
102
RTVSPropertyOp12
 70
     1
102
RTVSPropertyOp13
 70
     1
102
RTVSPropertyOp14
 70
     1
102
RTVSPropertyOp15
 70
     1
102
RTVSPropertyOp16
 70
     1
102
RTVSPropertyOp17
 70
     1
102
RTVSPropertyOp18
 70
     1
102
RTVSPropertyOp19
 70
     1
102
RTVSPropertyOp20
 70
     1
102
RTVSPropertyOp21
 70
     1
102
RTVSPropertyOp22
 70
     1
102
RTVSPropertyOp23
 70
     1
102
RTVSPropertyOp24
 70
     1
102
RTVSPropertyOp25
 70
     1
102
RTVSPropertyOp26
 70
     1
102
RTVSPropertyOp27
 70
     1
  0
XRECORD
  5
D0B
102
{ACAD_REACTORS
330
D0A
102
}
330
D0A
100
AcDbXrecord
280
     1
102
RTVSPropertyOp0
 70
     1
102
RTVSPropertyOp1
 70
     1
102
RTVSPropertyOp2
 70
     1
102
RTVSPropertyOp3
 70
     1
102
RTVSPropertyOp4
 70
     1
102
RTVSPropertyOp5
 70
     1
102
RTVSPropertyOp6
 70
     1
102
RTVSPropertyOp7
 70
     1
102
RTVSPropertyOp8
 70
     1
102
RTVSPropertyOp9
 70
     1
102
RTVSPropertyOp10
 70
     1
102
RTVSPropertyOp11
 70
     1
102
RTVSPropertyOp12
 70
     1
102
RTVSPropertyOp13
 70
     1
102
RTVSPropertyOp14
 70
     1
102
RTVSPropertyOp15
 70
     1
102
RTVSPropertyOp16
 70
     1
102
RTVSPropertyOp17
 70
     1
102
RTVSPropertyOp18
 70
     1
102
RTVSPropertyOp19
 70
     1
102
RTVSPropertyOp20
 70
     1
102
RTVSPropertyOp21
 70
     1
102
RTVSPropertyOp22
 70
     1
102
RTVSPropertyOp23
 70
     1
102
RTVSPropertyOp24
 70
     1
102
RTVSPropertyOp25
 70
     1
102
RTVSPropertyOp26
 70
     1
102
RTVSPropertyOp27
 70
     1
  0
XRECORD
  5
CFD
102
{ACAD_REACTORS
330
CFC
102
}
330
CFC
100
AcDbXrecord
280
     1
102
RTVSPropertyOp0
 70
     1
102
RTVSPropertyOp1
 70
     1
102
RTVSPropertyOp2
 70
     1
102
RTVSPropertyOp3
 70
     1
102
RTVSPropertyOp4
 70
     1
102
RTVSPropertyOp5
 70
     1
102
RTVSPropertyOp6
 70
     1
102
RTVSPropertyOp7
 70
     1
102
RTVSPropertyOp8
 70
     1
102
RTVSPropertyOp9
 70
     1
102
RTVSPropertyOp10
 70
     1
102
RTVSPropertyOp11
 70
     1
102
RTVSPropertyOp12
 70
     1
102
RTVSPropertyOp13
 70
     1
102
RTVSPropertyOp14
 70
     1
102
RTVSPropertyOp15
 70
     1
102
RTVSPropertyOp16
 70
     1
102
RTVSPropertyOp17
 70
     1
102
RTVSPropertyOp18
 70
     1
102
RTVSPropertyOp19
 70
     1
102
RTVSPropertyOp20
 70
     1
102
RTVSPropertyOp21
 70
     1
102
RTVSPropertyOp22
 70
     1
102
RTVSPropertyOp23
 70
     1
102
RTVSPropertyOp24
 70
     1
102
RTVSPropertyOp25
 70
     1
102
RTVSPropertyOp26
 70
     1
102
RTVSPropertyOp27
 70
     1
  0
XRECORD
  5
D01
102
{ACAD_REACTORS
330
D00
102
}
330
D00
100
AcDbXrecord
280
     1
102
RTVSPropertyOp0
 70
     1
102
RTVSPropertyOp1
 70
     1
102
RTVSPropertyOp2
 70
     1
102
RTVSPropertyOp3
 70
     1
102
RTVSPropertyOp4
 70
     1
102
RTVSPropertyOp5
 70
     1
102
RTVSPropertyOp6
 70
     1
102
RTVSPropertyOp7
 70
     1
102
RTVSPropertyOp8
 70
     1
102
RTVSPropertyOp9
 70
     1
102
RTVSPropertyOp10
 70
     1
102
RTVSPropertyOp11
 70
     1
102
RTVSPropertyOp12
 70
     1
102
RTVSPropertyOp13
 70
     1
102
RTVSPropertyOp14
 70
     1
102
RTVSPropertyOp15
 70
     1
102
RTVSPropertyOp16
 70
     1
102
RTVSPropertyOp17
 70
     1
102
RTVSPropertyOp18
 70
     1
102
RTVSPropertyOp19
 70
     1
102
RTVSPropertyOp20
 70
     1
102
RTVSPropertyOp21
 70
     1
102
RTVSPropertyOp22
 70
     1
102
RTVSPropertyOp23
 70
     1
102
RTVSPropertyOp24
 70
     1
102
RTVSPropertyOp25
 70
     1
102
RTVSPropertyOp26
 70
     1
102
RTVSPropertyOp27
 70
     1
  0
XRECORD
  5
D11
102
{ACAD_REACTORS
330
D10
102
}
330
D10
100
AcDbXrecord
280
     1
102
RTVSPropertyOp0
 70
     0
102
RTVSPropertyOp1
 70
     0
102
RTVSPropertyOp2
 70
     0
102
RTVSPropertyOp3
 70
     0
102
RTVSPropertyOp4
 70
     0
102
RTVSPropertyOp5
 70
     0
102
RTVSPropertyOp6
 70
     0
102
RTVSPropertyOp7
 70
     0
102
RTVSPropertyOp8
 70
     0
102
RTVSPropertyOp9
 70
     0
102
RTVSPropertyOp10
 70
     0
102
RTVSPropertyOp11
 70
     0
102
RTVSPropertyOp12
 70
     0
102
RTVSPropertyOp13
 70
     0
102
RTVSPropertyOp14
 70
     2
102
RTVSPropertyOp15
 70
     0
102
RTVSPropertyOp16
 70
     0
102
RTVSPropertyOp17
 70
     0
102
RTVSPropertyOp18
 70
     0
102
RTVSPropertyOp19
 70
     0
102
RTVSPropertyOp20
 70
     0
102
RTVSPropertyOp21
 70
     0
102
RTVSPropertyOp22
 70
     0
102
RTVSPropertyOp23
 70
     0
102
RTVSPropertyOp24
 70
     0
102
RTVSPropertyOp25
 70
     0
102
RTVSPropertyOp26
 70
     0
102
RTVSPropertyOp27
 70
     0
  0
XRECORD
  5
D09
102
{ACAD_REACTORS
330
D08
102
}
330
D08
100
AcDbXrecord
280
     1
102
RTVSPropertyOp0
 70
     1
102
RTVSPropertyOp1
 70
     1
102
RTVSPropertyOp2
 70
     1
102
RTVSPropertyOp3
 70
     1
102
RTVSPropertyOp4
 70
     1
102
RTVSPropertyOp5
 70
     1
102
RTVSPropertyOp6
 70
     1
102
RTVSPropertyOp7
 70
     1
102
RTVSPropertyOp8
 70
     1
102
RTVSPropertyOp9
 70
     1
102
RTVSPropertyOp10
 70
     1
102
RTVSPropertyOp11
 70
     1
102
RTVSPropertyOp12
 70
     1
102
RTVSPropertyOp13
 70
     1
102
RTVSPropertyOp14
 70
     1
102
RTVSPropertyOp15
 70
     1
102
RTVSPropertyOp16
 70
     1
102
RTVSPropertyOp17
 70
     1
102
RTVSPropertyOp18
 70
     1
102
RTVSPropertyOp19
 70
     1
102
RTVSPropertyOp20
 70
     1
102
RTVSPropertyOp21
 70
     1
102
RTVSPropertyOp22
 70
     1
102
RTVSPropertyOp23
 70
     1
102
RTVSPropertyOp24
 70
     1
102
RTVSPropertyOp25
 70
     1
102
RTVSPropertyOp26
 70
     1
102
RTVSPropertyOp27
 70
     1
  0
XRECORD
  5
CED
102
{ACAD_REACTORS
330
CEC
102
}
330
CEC
100
AcDbXrecord
280
     1
102
RTVSPropertyOp0
 70
     1
102
RTVSPropertyOp1
 70
     1
102
RTVSPropertyOp2
 70
     1
102
RTVSPropertyOp3
 70
     1
102
RTVSPropertyOp4
 70
     1
102
RTVSPropertyOp5
 70
     1
102
RTVSPropertyOp6
 70
     1
102
RTVSPropertyOp7
 70
     1
102
RTVSPropertyOp8
 70
     1
102
RTVSPropertyOp9
 70
     1
102
RTVSPropertyOp10
 70
     1
102
RTVSPropertyOp11
 70
     1
102
RTVSPropertyOp12
 70
     1
102
RTVSPropertyOp13
 70
     1
102
RTVSPropertyOp14
 70
     1
102
RTVSPropertyOp15
 70
     1
102
RTVSPropertyOp16
 70
     1
102
RTVSPropertyOp17
 70
     1
102
RTVSPropertyOp18
 70
     1
102
RTVSPropertyOp19
 70
     1
102
RTVSPropertyOp20
 70
     1
102
RTVSPropertyOp21
 70
     1
102
RTVSPropertyOp22
 70
     1
102
RTVSPropertyOp23
 70
     1
102
RTVSPropertyOp24
 70
     1
102
RTVSPropertyOp25
 70
     1
102
RTVSPropertyOp26
 70
     1
102
RTVSPropertyOp27
 70
     1
  0
XRECORD
  5
CEF
102
{ACAD_REACTORS
330
CEE
102
}
330
CEE
100
AcDbXrecord
280
     1
102
RTVSPropertyOp0
 70
     1
102
RTVSPropertyOp1
 70
     1
102
RTVSPropertyOp2
 70
     1
102
RTVSPropertyOp3
 70
     1
102
RTVSPropertyOp4
 70
     1
102
RTVSPropertyOp5
 70
     1
102
RTVSPropertyOp6
 70
     1
102
RTVSPropertyOp7
 70
     1
102
RTVSPropertyOp8
 70
     1
102
RTVSPropertyOp9
 70
     1
102
RTVSPropertyOp10
 70
     1
102
RTVSPropertyOp11
 70
     1
102
RTVSPropertyOp12
 70
     1
102
RTVSPropertyOp13
 70
     1
102
RTVSPropertyOp14
 70
     1
102
RTVSPropertyOp15
 70
     1
102
RTVSPropertyOp16
 70
     1
102
RTVSPropertyOp17
 70
     1
102
RTVSPropertyOp18
 70
     1
102
RTVSPropertyOp19
 70
     1
102
RTVSPropertyOp20
 70
     1
102
RTVSPropertyOp21
 70
     1
102
RTVSPropertyOp22
 70
     1
102
RTVSPropertyOp23
 70
     1
102
RTVSPropertyOp24
 70
     1
102
RTVSPropertyOp25
 70
     1
102
RTVSPropertyOp26
 70
     1
102
RTVSPropertyOp27
 70
     1
  0
XRECORD
  5
CF1
102
{ACAD_REACTORS
330
CF0
102
}
330
CF0
100
AcDbXrecord
280
     1
102
RTVSPropertyOp0
 70
     1
102
RTVSPropertyOp1
 70
     1
102
RTVSPropertyOp2
 70
     1
102
RTVSPropertyOp3
 70
     1
102
RTVSPropertyOp4
 70
     1
102
RTVSPropertyOp5
 70
     1
102
RTVSPropertyOp6
 70
     1
102
RTVSPropertyOp7
 70
     1
102
RTVSPropertyOp8
 70
     1
102
RTVSPropertyOp9
 70
     1
102
RTVSPropertyOp10
 70
     1
102
RTVSPropertyOp11
 70
     1
102
RTVSPropertyOp12
 70
     1
102
RTVSPropertyOp13
 70
     1
102
RTVSPropertyOp14
 70
     1
102
RTVSPropertyOp15
 70
     1
102
RTVSPropertyOp16
 70
     1
102
RTVSPropertyOp17
 70
     1
102
RTVSPropertyOp18
 70
     1
102
RTVSPropertyOp19
 70
     1
102
RTVSPropertyOp20
 70
     1
102
RTVSPropertyOp21
 70
     1
102
RTVSPropertyOp22
 70
     1
102
RTVSPropertyOp23
 70
     1
102
RTVSPropertyOp24
 70
     1
102
RTVSPropertyOp25
 70
     1
102
RTVSPropertyOp26
 70
     1
102
RTVSPropertyOp27
 70
     1
  0
XRECORD
  5
CF3
102
{ACAD_REACTORS
330
CF2
102
}
330
CF2
100
AcDbXrecord
280
     1
102
RTVSPropertyOp0
 70
     1
102
RTVSPropertyOp1
 70
     1
102
RTVSPropertyOp2
 70
     1
102
RTVSPropertyOp3
 70
     1
102
RTVSPropertyOp4
 70
     1
102
RTVSPropertyOp5
 70
     1
102
RTVSPropertyOp6
 70
     1
102
RTVSPropertyOp7
 70
     1
102
RTVSPropertyOp8
 70
     1
102
RTVSPropertyOp9
 70
     1
102
RTVSPropertyOp10
 70
     1
102
RTVSPropertyOp11
 70
     1
102
RTVSPropertyOp12
 70
     1
102
RTVSPropertyOp13
 70
     1
102
RTVSPropertyOp14
 70
     1
102
RTVSPropertyOp15
 70
     1
102
RTVSPropertyOp16
 70
     1
102
RTVSPropertyOp17
 70
     1
102
RTVSPropertyOp18
 70
     1
102
RTVSPropertyOp19
 70
     1
102
RTVSPropertyOp20
 70
     1
102
RTVSPropertyOp21
 70
     1
102
RTVSPropertyOp22
 70
     1
102
RTVSPropertyOp23
 70
     1
102
RTVSPropertyOp24
 70
     1
102
RTVSPropertyOp25
 70
     1
102
RTVSPropertyOp26
 70
     1
102
RTVSPropertyOp27
 70
     1
  0
XRECORD
  5
D0D
102
{ACAD_REACTORS
330
D0C
102
}
330
D0C
100
AcDbXrecord
280
     1
102
RTVSPropertyOp0
 70
     0
102
RTVSPropertyOp1
 70
     0
102
RTVSPropertyOp2
 70
     0
102
RTVSPropertyOp3
 70
     0
102
RTVSPropertyOp4
 70
     0
102
RTVSPropertyOp5
 70
     0
102
RTVSPropertyOp6
 70
     0
102
RTVSPropertyOp7
 70
     0
102
RTVSPropertyOp8
 70
     0
102
RTVSPropertyOp9
 70
     0
102
RTVSPropertyOp10
 70
     0
102
RTVSPropertyOp11
 70
     0
102
RTVSPropertyOp12
 70
     0
102
RTVSPropertyOp13
 70
     0
102
RTVSPropertyOp14
 70
     2
102
RTVSPropertyOp15
 70
     0
102
RTVSPropertyOp16
 70
     0
102
RTVSPropertyOp17
 70
     0
102
RTVSPropertyOp18
 70
     0
102
RTVSPropertyOp19
 70
     0
102
RTVSPropertyOp20
 70
     0
102
RTVSPropertyOp21
 70
     0
102
RTVSPropertyOp22
 70
     0
102
RTVSPropertyOp23
 70
     0
102
RTVSPropertyOp24
 70
     0
102
RTVSPropertyOp25
 70
     0
102
RTVSPropertyOp26
 70
     0
102
RTVSPropertyOp27
 70
     0
  0
XRECORD
  5
D07
102
{ACAD_REACTORS
330
D06
102
}
330
D06
100
AcDbXrecord
280
     1
102
RTVSPropertyOp0
 70
     1
102
RTVSPropertyOp1
 70
     1
102
RTVSPropertyOp2
 70
     1
102
RTVSPropertyOp3
 70
     1
102
RTVSPropertyOp4
 70
     1
102
RTVSPropertyOp5
 70
     1
102
RTVSPropertyOp6
 70
     1
102
RTVSPropertyOp7
 70
     1
102
RTVSPropertyOp8
 70
     1
102
RTVSPropertyOp9
 70
     1
102
RTVSPropertyOp10
 70
     1
102
RTVSPropertyOp11
 70
     1
102
RTVSPropertyOp12
 70
     1
102
RTVSPropertyOp13
 70
     1
102
RTVSPropertyOp14
 70
     1
102
RTVSPropertyOp15
 70
     1
102
RTVSPropertyOp16
 70
     1
102
RTVSPropertyOp17
 70
     1
102
RTVSPropertyOp18
 70
     1
102
RTVSPropertyOp19
 70
     1
102
RTVSPropertyOp20
 70
     1
102
RTVSPropertyOp21
 70
     1
102
RTVSPropertyOp22
 70
     1
102
RTVSPropertyOp23
 70
     1
102
RTVSPropertyOp24
 70
     1
102
RTVSPropertyOp25
 70
     1
102
RTVSPropertyOp26
 70
     1
102
RTVSPropertyOp27
 70
     1
  0
XRECORD
  5
D0F
102
{ACAD_REACTORS
330
D0E
102
}
330
D0E
100
AcDbXrecord
280
     1
102
RTVSPropertyOp0
 70
     0
102
RTVSPropertyOp1
 70
     0
102
RTVSPropertyOp2
 70
     0
102
RTVSPropertyOp3
 70
     0
102
RTVSPropertyOp4
 70
     0
102
RTVSPropertyOp5
 70
     0
102
RTVSPropertyOp6
 70
     0
102
RTVSPropertyOp7
 70
     0
102
RTVSPropertyOp8
 70
     0
102
RTVSPropertyOp9
 70
     0
102
RTVSPropertyOp10
 70
     0
102
RTVSPropertyOp11
 70
     0
102
RTVSPropertyOp12
 70
     0
102
RTVSPropertyOp13
 70
     0
102
RTVSPropertyOp14
 70
     2
102
RTVSPropertyOp15
 70
     0
102
RTVSPropertyOp16
 70
     0
102
RTVSPropertyOp17
 70
     0
102
RTVSPropertyOp18
 70
     0
102
RTVSPropertyOp19
 70
     0
102
RTVSPropertyOp20
 70
     0
102
RTVSPropertyOp21
 70
     0
102
RTVSPropertyOp22
 70
     0
102
RTVSPropertyOp23
 70
     0
102
RTVSPropertyOp24
 70
     0
102
RTVSPropertyOp25
 70
     0
102
RTVSPropertyOp26
 70
     0
102
RTVSPropertyOp27
 70
     0
  0
XRECORD
  5
CFF
102
{ACAD_REACTORS
330
CFE
102
}
330
CFE
100
AcDbXrecord
280
     1
102
RTVSPropertyOp0
 70
     1
102
RTVSPropertyOp1
 70
     1
102
RTVSPropertyOp2
 70
     1
102
RTVSPropertyOp3
 70
     1
102
RTVSPropertyOp4
 70
     1
102
RTVSPropertyOp5
 70
     1
102
RTVSPropertyOp6
 70
     1
102
RTVSPropertyOp7
 70
     1
102
RTVSPropertyOp8
 70
     1
102
RTVSPropertyOp9
 70
     1
102
RTVSPropertyOp10
 70
     1
102
RTVSPropertyOp11
 70
     1
102
RTVSPropertyOp12
 70
     1
102
RTVSPropertyOp13
 70
     1
102
RTVSPropertyOp14
 70
     1
102
RTVSPropertyOp15
 70
     1
102
RTVSPropertyOp16
 70
     1
102
RTVSPropertyOp17
 70
     1
102
RTVSPropertyOp18
 70
     1
102
RTVSPropertyOp19
 70
     1
102
RTVSPropertyOp20
 70
     1
102
RTVSPropertyOp21
 70
     1
102
RTVSPropertyOp22
 70
     1
102
RTVSPropertyOp23
 70
     1
102
RTVSPropertyOp24
 70
     1
102
RTVSPropertyOp25
 70
     1
102
RTVSPropertyOp26
 70
     1
102
RTVSPropertyOp27
 70
     1
  0
XRECORD
  5
D05
102
{ACAD_REACTORS
330
D04
102
}
330
D04
100
AcDbXrecord
280
     1
102
RTVSPropertyOp0
 70
     1
102
RTVSPropertyOp1
 70
     1
102
RTVSPropertyOp2
 70
     1
102
RTVSPropertyOp3
 70
     1
102
RTVSPropertyOp4
 70
     1
102
RTVSPropertyOp5
 70
     1
102
RTVSPropertyOp6
 70
     1
102
RTVSPropertyOp7
 70
     1
102
RTVSPropertyOp8
 70
     1
102
RTVSPropertyOp9
 70
     1
102
RTVSPropertyOp10
 70
     1
102
RTVSPropertyOp11
 70
     1
102
RTVSPropertyOp12
 70
     1
102
RTVSPropertyOp13
 70
     1
102
RTVSPropertyOp14
 70
     1
102
RTVSPropertyOp15
 70
     1
102
RTVSPropertyOp16
 70
     1
102
RTVSPropertyOp17
 70
     1
102
RTVSPropertyOp18
 70
     1
102
RTVSPropertyOp19
 70
     1
102
RTVSPropertyOp20
 70
     1
102
RTVSPropertyOp21
 70
     1
102
RTVSPropertyOp22
 70
     1
102
RTVSPropertyOp23
 70
     1
102
RTVSPropertyOp24
 70
     1
102
RTVSPropertyOp25
 70
     1
102
RTVSPropertyOp26
 70
     1
102
RTVSPropertyOp27
 70
     1
  0
ENDSEC
  0
EOF
