  0
SECTION
  2
HEADER
  9
$ACADVER
  1
AC1015
  9
$ACADMAINTVER
 70
    20
  9
$DWGCODEPAGE
  3
ANSI_1252
  9
$INSBASE
 10
0.0
 20
0.0
 30
0.0
  9
$EXTMIN
 10
927.0837516621105
 20
962.3723959985031
 30
0.0
  9
$EXTMAX
 10
929.5879124086456
 20
962.9274394559978
 30
0.0
  9
$LIMMIN
 10
0.0
 20
0.0
  9
$LIMMAX
 10
420.0
 20
297.0
  9
$ORTHOMODE
 70
     1
  9
$REGENMODE
 70
     1
  9
$FILLMODE
 70
     1
  9
$QTEXTMODE
 70
     0
  9
$MIRRTEXT
 70
     1
  9
$LTSCALE
 40
1.0
  9
$ATTMODE
 70
     1
  9
$TEXTSIZE
 40
2.5
  9
$TRACEWID
 40
1.0
  9
$TEXTSTYLE
  7
SANINDUSA
  9
$CLAYER
  8
SANINDUSA
  9
$CELTYPE
  6
ByLayer
  9
$CECOLOR
 62
   256
  9
$CELTSCALE
 40
1.0
  9
$DISPSILH
 70
     0
  9
$DIMSCALE
 40
1.0
  9
$DIMASZ
 40
2.0
  9
$DIMEXO
 40
1.0
  9
$DIMDLI
 40
1.0
  9
$DIMRND
 40
0.0
  9
$DIMDLE
 40
0.0
  9
$DIMEXE
 40
1.0
  9
$DIMTP
 40
0.0
  9
$DIMTM
 40
0.0
  9
$DIMTXT
 40
2.0
  9
$DIMCEN
 40
0.0
  9
$DIMTSZ
 40
0.0
  9
$DIMTOL
 70
     0
  9
$DIMLIM
 70
     0
  9
$DIMTIH
 70
     0
  9
$DIMTOH
 70
     0
  9
$DIMSE1
 70
     0
  9
$DIMSE2
 70
     0
  9
$DIMTAD
 70
     1
  9
$DIMZIN
 70
     8
  9
$DIMBLK
  1

  9
$DIMASO
 70
     1
  9
$DIMSHO
 70
     1
  9
$DIMPOST
  1

  9
$DIMAPOST
  1

  9
$DIMALT
 70
     0
  9
$DIMALTD
 70
     3
  9
$DIMALTF
 40
0.03937007874016
  9
$DIMLFAC
 40
1.0
  9
$DIMTOFL
 70
     1
  9
$DIMTVP
 40
0.0
  9
$DIMTIX
 70
     0
  9
$DIMSOXD
 70
     0
  9
$DIMSAH
 70
     0
  9
$DIMBLK1
  1

  9
$DIMBLK2
  1

  9
$DIMSTYLE
  2
SANINDUSA
  9
$DIMCLRD
 70
   256
  9
$DIMCLRE
 70
   256
  9
$DIMCLRT
 70
   256
  9
$DIMTFAC
 40
1.0
  9
$DIMGAP
 40
1.0
  9
$DIMJUST
 70
     0
  9
$DIMSD1
 70
     0
  9
$DIMSD2
 70
     0
  9
$DIMTOLJ
 70
     0
  9
$DIMTZIN
 70
     8
  9
$DIMALTZ
 70
     0
  9
$DIMALTTZ
 70
     0
  9
$DIMUPT
 70
     0
  9
$DIMDEC
 70
     1
  9
$DIMTDEC
 70
     1
  9
$DIMALTU
 70
     2
  9
$DIMALTTD
 70
     3
  9
$DIMTXSTY
  7
SANINDUSA
  9
$DIMAUNIT
 70
     0
  9
$DIMADEC
 70
     1
  9
$DIMALTRND
 40
0.0
  9
$DIMAZIN
 70
     0
  9
$DIMDSEP
 70
    44
  9
$DIMATFIT
 70
     3
  9
$DIMFRAC
 70
     0
  9
$DIMLDRBLK
  1

  9
$DIMLUNIT
 70
     2
  9
$DIMLWD
 70
    -1
  9
$DIMLWE
 70
    -1
  9
$DIMTMOVE
 70
     0
  9
$LUNITS
 70
     2
  9
$LUPREC
 70
     4
  9
$SKETCHINC
 40
1.0
  9
$FILLETRAD
 40
0.0
  9
$AUNITS
 70
     0
  9
$AUPREC
 70
     0
  9
$MENU
  1
.
  9
$ELEVATION
 40
0.0
  9
$PELEVATION
 40
0.0
  9
$THICKNESS
 40
0.0
  9
$LIMCHECK
 70
     0
  9
$CHAMFERA
 40
10.0
  9
$CHAMFERB
 40
10.0
  9
$CHAMFERC
 40
20.0
  9
$CHAMFERD
 40
0.0
  9
$SKPOLY
 70
     0
  9
$TDCREATE
 40
2453480.605194769
  9
$TDUCREATE
 40
2453480.563528102
  9
$TDUPDATE
 40
2456146.753624850
  9
$TDUUPDATE
 40
2456146.711958183
  9
$TDINDWG
 40
0.0023746759
  9
$TDUSRTIMER
 40
0.0023746759
  9
$USRTIMER
 70
     1
  9
$ANGBASE
 50
0.0
  9
$ANGDIR
 70
     0
  9
$PDMODE
 70
     0
  9
$PDSIZE
 40
0.0
  9
$PLINEWID
 40
0.0
  9
$SPLFRAME
 70
     0
  9
$SPLINETYPE
 70
     6
  9
$SPLINESEGS
 70
     8
  9
$HANDSEED
  5
547C
  9
$SURFTAB1
 70
     6
  9
$SURFTAB2
 70
     6
  9
$SURFTYPE
 70
     6
  9
$SURFU
 70
     6
  9
$SURFV
 70
     6
  9
$UCSBASE
  2

  9
$UCSNAME
  2

  9
$UCSORG
 10
0.0
 20
0.0
 30
0.0
  9
$UCSXDIR
 10
1.0
 20
0.0
 30
0.0
  9
$UCSYDIR
 10
0.0
 20
1.0
 30
0.0
  9
$UCSORTHOREF
  2

  9
$UCSORTHOVIEW
 70
     0
  9
$UCSORGTOP
 10
0.0
 20
0.0
 30
0.0
  9
$UCSORGBOTTOM
 10
0.0
 20
0.0
 30
0.0
  9
$UCSORGLEFT
 10
0.0
 20
0.0
 30
0.0
  9
$UCSORGRIGHT
 10
0.0
 20
0.0
 30
0.0
  9
$UCSORGFRONT
 10
0.0
 20
0.0
 30
0.0
  9
$UCSORGBACK
 10
0.0
 20
0.0
 30
0.0
  9
$PUCSBASE
  2

  9
$PUCSNAME
  2

  9
$PUCSORG
 10
0.0
 20
0.0
 30
0.0
  9
$PUCSXDIR
 10
1.0
 20
0.0
 30
0.0
  9
$PUCSYDIR
 10
0.0
 20
1.0
 30
0.0
  9
$PUCSORTHOREF
  2

  9
$PUCSORTHOVIEW
 70
     0
  9
$PUCSORGTOP
 10
0.0
 20
0.0
 30
0.0
  9
$PUCSORGBOTTOM
 10
0.0
 20
0.0
 30
0.0
  9
$PUCSORGLEFT
 10
0.0
 20
0.0
 30
0.0
  9
$PUCSORGRIGHT
 10
0.0
 20
0.0
 30
0.0
  9
$PUCSORGFRONT
 10
0.0
 20
0.0
 30
0.0
  9
$PUCSORGBACK
 10
0.0
 20
0.0
 30
0.0
  9
$USERI1
 70
     0
  9
$USERI2
 70
     0
  9
$USERI3
 70
     0
  9
$USERI4
 70
     0
  9
$USERI5
 70
     0
  9
$USERR1
 40
0.0
  9
$USERR2
 40
0.0
  9
$USERR3
 40
0.0
  9
$USERR4
 40
0.0
  9
$USERR5
 40
0.0
  9
$WORLDVIEW
 70
     1
  9
$SHADEDGE
 70
     3
  9
$SHADEDIF
 70
    70
  9
$TILEMODE
 70
     1
  9
$MAXACTVP
 70
    64
  9
$PINSBASE
 10
0.0
 20
0.0
 30
0.0
  9
$PLIMCHECK
 70
     0
  9
$PEXTMIN
 10
1.000000000000000E+20
 20
1.000000000000000E+20
 30
1.000000000000000E+20
  9
$PEXTMAX
 10
-1.000000000000000E+20
 20
-1.000000000000000E+20
 30
-1.000000000000000E+20
  9
$PLIMMIN
 10
0.0
 20
0.0
  9
$PLIMMAX
 10
420.0
 20
297.0
  9
$UNITMODE
 70
     0
  9
$VISRETAIN
 70
     1
  9
$PLINEGEN
 70
     0
  9
$PSLTSCALE
 70
     1
  9
$TREEDEPTH
 70
  3020
  9
$CMLSTYLE
  2
Standard
  9
$CMLJUST
 70
     0
  9
$CMLSCALE
 40
20.0
  9
$PROXYGRAPHICS
 70
     1
  9
$MEASUREMENT
 70
     1
  9
$CELWEIGHT
370
    -1
  9
$ENDCAPS
280
     0
  9
$JOINSTYLE
280
     0
  9
$LWDISPLAY
290
     0
  9
$INSUNITS
 70
     4
  9
$HYPERLINKBASE
  1

  9
$STYLESHEET
  1
monochrome.ctb
  9
$XEDIT
290
     1
  9
$CEPSNTYPE
380
     0
  9
$PSTYLEMODE
290
     1
  9
$FINGERPRINTGUID
  2
{B98A73AA-52AA-4C10-B469-C0E7150AC31F}
  9
$VERSIONGUID
  2
{F8D84014-D9E4-4992-86CD-3302C1645E18}
  9
$EXTNAMES
290
     1
  9
$PSVPSCALE
 40
0.0
  9
$OLESTARTUP
290
     0
  0
ENDSEC
  0
SECTION
  2
CLASSES
  0
CLASS
  1
ACDBDICTIONARYWDFLT
  2
AcDbDictionaryWithDefault
  3
ObjectDBX Classes
 90
        0
280
     0
281
     0
  0
CLASS
  1
ACDBPLACEHOLDER
  2
AcDbPlaceHolder
  3
ObjectDBX Classes
 90
        0
280
     0
281
     0
  0
CLASS
  1
LAYOUT
  2
AcDbLayout
  3
ObjectDBX Classes
 90
        0
280
     0
281
     0
  0
CLASS
  1
DICTIONARYVAR
  2
AcDbDictionaryVar
  3
ObjectDBX Classes
 90
        0
280
     0
281
     0
  0
CLASS
  1
DIMASSOC
  2
AcDbDimAssoc
  3
"AcDbDimAssoc|Product Desc:     AcDim ARX App For Dimension|Company:          Autodesk, Inc.|WEB Address:      www.autodesk.com"
 90
    32768
280
     0
281
     0
  0
CLASS
  1
MATERIAL
  2
AcDbMaterial
  3
ObjectDBX Classes
 90
     1153
280
     0
281
     0
  0
CLASS
  1
VISUALSTYLE
  2
AcDbVisualStyle
  3
ObjectDBX Classes
 90
     4095
280
     0
281
     0
  0
CLASS
  1
TABLESTYLE
  2
AcDbTableStyle
  3
ObjectDBX Classes
 90
     4095
280
     0
281
     0
  0
CLASS
  1
SCALE
  2
AcDbScale
  3
ObjectDBX Classes
 90
     1153
280
     0
281
     0
  0
CLASS
  1
MLEADERSTYLE
  2
AcDbMLeaderStyle
  3
ACDB_MLEADERSTYLE_CLASS
 90
     4095
280
     0
281
     0
  0
CLASS
  1
CELLSTYLEMAP
  2
AcDbCellStyleMap
  3
ObjectDBX Classes
 90
     1152
280
     0
281
     0
  0
ENDSEC
  0
SECTION
  2
TABLES
  0
TABLE
  2
VPORT
  5
8
330
0
100
AcDbSymbolTable
 70
     1
  0
VPORT
  5
53D2
330
8
100
AcDbSymbolTableRecord
100
AcDbViewportTableRecord
  2
*Active
 70
     0
 10
0.0
 20
0.0
 11
1.0
 21
1.0
 12
928.335832035378
 22
962.6499177272505
 13
0.0
 23
0.0
 14
10.0
 24
10.0
 15
10.0
 25
10.0
 16
0.0
 26
0.0
 36
1.0
 17
0.0
 27
0.0
 37
0.0
 40
1.527637379974037
 41
1.645464025026068
 42
50.0
 43
0.0
 44
0.0
 50
0.0
 51
0.0
 71
     0
 72
   100
 73
     1
 74
     2
 75
     0
 76
     0
 77
     0
 78
     0
281
     0
 65
     1
110
0.0
120
0.0
130
0.0
111
1.0
121
0.0
131
0.0
112
0.0
122
1.0
132
0.0
 79
     0
146
0.0
  0
ENDTAB
  0
TABLE
  2
LTYPE
  5
5
330
0
100
AcDbSymbolTable
 70
     3
  0
LTYPE
  5
14
330
5
100
AcDbSymbolTableRecord
100
AcDbLinetypeTableRecord
  2
ByBlock
 70
     0
  3

 72
    65
 73
     0
 40
0.0
  0
LTYPE
  5
15
330
5
100
AcDbSymbolTableRecord
100
AcDbLinetypeTableRecord
  2
ByLayer
 70
     0
  3

 72
    65
 73
     0
 40
0.0
  0
LTYPE
  5
16
330
5
100
AcDbSymbolTableRecord
100
AcDbLinetypeTableRecord
  2
Continuous
 70
     0
  3
Solid line
 72
    65
 73
     0
 40
0.0
  0
LTYPE
  5
2D
330
5
100
AcDbSymbolTableRecord
100
AcDbLinetypeTableRecord
  2
DASHDOT
 70
     0
  3
Dash dot __ . __ . __ . __ . __ . __ . __ . __
 72
    65
 73
     4
 40
25.4
 49
12.7
 74
     0
 49
-6.349999999999999
 74
     0
 49
0.0
 74
     0
 49
-6.349999999999999
 74
     0
  0
LTYPE
  5
2E
330
5
100
AcDbSymbolTableRecord
100
AcDbLinetypeTableRecord
  2
HIDDEN
 70
     0
  3
Hidden __ __ __ __ __ __ __ __ __ __ __ __ __ _
 72
    65
 73
     2
 40
9.524999999999998
 49
6.349999999999999
 74
     0
 49
-3.174999999999999
 74
     0
  0
ENDTAB
  0
TABLE
  2
LAYER
  5
2
330
0
100
AcDbSymbolTable
 70
    17
  0
LAYER
  5
10
102
{ACAD_XDICTIONARY
360
541D
102
}
330
2
100
AcDbSymbolTableRecord
100
AcDbLayerTableRecord
  2
0
 70
     0
 62
    -7
  6
Continuous
370
    -3
390
F
  0
LAYER
  5
2F
102
{ACAD_XDICTIONARY
360
541F
102
}
330
2
100
AcDbSymbolTableRecord
100
AcDbLayerTableRecord
  2
1
 70
     0
 62
    -1
  6
Continuous
370
    -3
390
F
  0
LAYER
  5
30
102
{ACAD_XDICTIONARY
360
5421
102
}
330
2
100
AcDbSymbolTableRecord
100
AcDbLayerTableRecord
  2
2
 70
     0
 62
    -2
  6
Continuous
370
    -3
390
F
  0
LAYER
  5
31
102
{ACAD_XDICTIONARY
360
5423
102
}
330
2
100
AcDbSymbolTableRecord
100
AcDbLayerTableRecord
  2
3
 70
     0
 62
    -3
  6
Continuous
370
    -3
390
F
  0
LAYER
  5
32
102
{ACAD_XDICTIONARY
360
5425
102
}
330
2
100
AcDbSymbolTableRecord
100
AcDbLayerTableRecord
  2
4
 70
     0
 62
    -4
  6
Continuous
370
    -3
390
F
  0
LAYER
  5
33
102
{ACAD_XDICTIONARY
360
5427
102
}
330
2
100
AcDbSymbolTableRecord
100
AcDbLayerTableRecord
  2
5
 70
     0
 62
    -5
  6
Continuous
370
    -3
390
F
  0
LAYER
  5
34
102
{ACAD_XDICTIONARY
360
5429
102
}
330
2
100
AcDbSymbolTableRecord
100
AcDbLayerTableRecord
  2
6
 70
     0
 62
    -6
  6
Continuous
370
    -3
390
F
  0
LAYER
  5
35
102
{ACAD_XDICTIONARY
360
542B
102
}
330
2
100
AcDbSymbolTableRecord
100
AcDbLayerTableRecord
  2
7
 70
     0
 62
    -7
  6
Continuous
370
    -3
390
F
  0
LAYER
  5
36
102
{ACAD_XDICTIONARY
360
542D
102
}
330
2
100
AcDbSymbolTableRecord
100
AcDbLayerTableRecord
  2
cen
 70
     0
 62
    -7
  6
DASHDOT
370
    -3
390
F
  0
LAYER
  5
37
102
{ACAD_XDICTIONARY
360
542F
102
}
330
2
100
AcDbSymbolTableRecord
100
AcDbLayerTableRecord
  2
hid
 70
     0
 62
    -7
  6
HIDDEN
370
    -3
390
F
  0
LAYER
  5
5D6
102
{ACAD_XDICTIONARY
360
5431
102
}
330
2
100
AcDbSymbolTableRecord
100
AcDbLayerTableRecord
  2
hatch
 70
     0
 62
    -9
  6
Continuous
370
    -3
390
F
  0
LAYER
  5
8AF
102
{ACAD_XDICTIONARY
360
5433
102
}
330
2
100
AcDbSymbolTableRecord
100
AcDbLayerTableRecord
  2
9
 70
     0
 62
    -9
  6
Continuous
370
    -3
390
F
  0
LAYER
  5
8F8
102
{ACAD_XDICTIONARY
360
5435
102
}
330
2
100
AcDbSymbolTableRecord
100
AcDbLayerTableRecord
  2
leg fin
 70
     0
 62
    -9
  6
Continuous
370
    -3
390
F
  0
LAYER
  5
91D
102
{ACAD_XDICTIONARY
360
5437
102
}
330
2
100
AcDbSymbolTableRecord
100
AcDbLayerTableRecord
  2
cotas
 70
     0
 62
    -1
  6
Continuous
370
    -3
390
F
  0
LAYER
  5
92F
330
2
100
AcDbSymbolTableRecord
100
AcDbLayerTableRecord
  2
Defpoints
 70
     0
 62
    -7
  6
Continuous
290
     0
370
    -3
390
F
  0
LAYER
  5
DE3
102
{ACAD_XDICTIONARY
360
5439
102
}
330
2
100
AcDbSymbolTableRecord
100
AcDbLayerTableRecord
  2
indusa
 70
     0
 62
    -3
  6
Continuous
370
    -3
390
F
  0
LAYER
  5
186C
102
{ACAD_XDICTIONARY
360
543B
102
}
330
2
100
AcDbSymbolTableRecord
100
AcDbLayerTableRecord
  2
SANINDUSA
 70
     0
 62
     3
  6
Continuous
370
    -3
390
F
  0
ENDTAB
  0
TABLE
  2
STYLE
  5
3
330
0
100
AcDbSymbolTable
 70
     3
  0
STYLE
  5
11
330
3
100
AcDbSymbolTableRecord
100
AcDbTextStyleTableRecord
  2
Standard
 70
     0
 40
0.0
 41
1.0
 50
0.0
 71
     0
 42
2.5
  3
Avgardn.ttf
  4

1001
ACAD
1000
AvantGarde Bk BT
1071
       34
  0
STYLE
  5
2C
330
3
100
AcDbSymbolTableRecord
100
AcDbTextStyleTableRecord
  2

 70
     1
 40
0.0
 41
1.0
 50
0.0
 71
     0
 42
2.5
  3
ltypeshp.shx
  4

  0
STYLE
  5
91F
330
3
100
AcDbSymbolTableRecord
100
AcDbTextStyleTableRecord
  2
SANINDUSA
 70
     0
 40
0.0
 41
1.0
 50
0.0
 71
     0
 42
2.5
  3
verdana.TTF
  4

1001
ACAD
1000
Verdana
1071
       34
  0
ENDTAB
  0
TABLE
  2
VIEW
  5
6
330
0
100
AcDbSymbolTable
 70
     0
  0
ENDTAB
  0
TABLE
  2
UCS
  5
7
330
0
100
AcDbSymbolTable
 70
     0
  0
ENDTAB
  0
TABLE
  2
APPID
  5
9
330
0
100
AcDbSymbolTable
 70
     3
  0
APPID
  5
12
330
9
100
AcDbSymbolTableRecord
100
AcDbRegAppTableRecord
  2
ACAD
 70
     0
  0
APPID
  5
3A
330
9
100
AcDbSymbolTableRecord
100
AcDbRegAppTableRecord
  2
DCO15
 70
     0
  0
APPID
  5
547B
330
9
100
AcDbSymbolTableRecord
100
AcDbRegAppTableRecord
  2
ACAD_MLEADERVER
 70
     0
  0
ENDTAB
  0
TABLE
  2
DIMSTYLE
  5
A
330
0
100
AcDbSymbolTable
 70
     2
100
AcDbDimStyleTable
 71
     1
340
921
  0
DIMSTYLE
105
45
330
A
100
AcDbSymbolTableRecord
100
AcDbDimStyleTableRecord
  2
STANDARD
 70
     0
289
     0
340
11
  0
DIMSTYLE
105
921
330
A
100
AcDbSymbolTableRecord
100
AcDbDimStyleTableRecord
  2
SANINDUSA
 70
     0
 41
2.0
 42
1.0
 43
1.0
 44
1.0
 73
     0
 74
     0
 77
     1
 78
     8
140
2.0
141
0.0
143
0.03937007874016
147
1.0
171
     3
172
     1
176
   256
177
   256
178
   256
179
     1
271
     1
272
     1
274
     3
278
    44
283
     0
284
     8
340
91F
371
    -1
372
    -1
  0
ENDTAB
  0
TABLE
  2
BLOCK_RECORD
  5
1
330
0
100
AcDbSymbolTable
 70
   104
  0
BLOCK_RECORD
  5
1F
330
1
100
AcDbSymbolTableRecord
100
AcDbBlockTableRecord
  2
*Model_Space
340
22
  0
BLOCK_RECORD
  5
1B
330
1
100
AcDbSymbolTableRecord
100
AcDbBlockTableRecord
  2
*Paper_Space
340
1E
  0
BLOCK_RECORD
  5
23
330
1
100
AcDbSymbolTableRecord
100
AcDbBlockTableRecord
  2
*Paper_Space0
340
26
  0
BLOCK_RECORD
  5
919
330
1
100
AcDbSymbolTableRecord
100
AcDbBlockTableRecord
  2
_DotSmall
340
0
102
{BLKREFS
331
D0D
331
D01
331
528A
331
52AE
102
}
  0
BLOCK_RECORD
  5
922
330
1
100
AcDbSymbolTableRecord
100
AcDbBlockTableRecord
  2
base para cotas
340
0
310
2800000020000000200000000100080000000000000400000000000000000000000000000000000000000000000080000080000000808000800000008000800080800000C0C0C000C0DCC000F0CAA6000020400000206000002080000020A0000020C0000020E00000400000004020000040400000406000004080000040A0
310
000040C0000040E00000600000006020000060400000606000006080000060A0000060C0000060E00000800000008020000080400000806000008080000080A0000080C0000080E00000A0000000A0200000A0400000A0600000A0800000A0A00000A0C00000A0E00000C0000000C0200000C0400000C0600000C0800000C0
310
A00000C0C00000C0E00000E0000000E0200000E0400000E0600000E0800000E0A00000E0C00000E0E00040000000400020004000400040006000400080004000A0004000C0004000E00040200000402020004020400040206000402080004020A0004020C0004020E000404000004040200040404000404060004040800040
310
40A0004040C0004040E00040600000406020004060400040606000406080004060A0004060C0004060E00040800000408020004080400040806000408080004080A0004080C0004080E00040A0000040A0200040A0400040A0600040A0800040A0A00040A0C00040A0E00040C0000040C0200040C0400040C0600040C08000
310
40C0A00040C0C00040C0E00040E0000040E0200040E0400040E0600040E0800040E0A00040E0C00040E0E00080000000800020008000400080006000800080008000A0008000C0008000E00080200000802020008020400080206000802080008020A0008020C0008020E00080400000804020008040400080406000804080
310
008040A0008040C0008040E00080600000806020008060400080606000806080008060A0008060C0008060E00080800000808020008080400080806000808080008080A0008080C0008080E00080A0000080A0200080A0400080A0600080A0800080A0A00080A0C00080A0E00080C0000080C0200080C0400080C0600080C0
310
800080C0A00080C0C00080C0E00080E0000080E0200080E0400080E0600080E0800080E0A00080E0C00080E0E000C0000000C0002000C0004000C0006000C0008000C000A000C000C000C000E000C0200000C0202000C0204000C0206000C0208000C020A000C020C000C020E000C0400000C0402000C0404000C0406000C0
310
408000C040A000C040C000C040E000C0600000C0602000C0604000C0606000C0608000C060A000C060C000C060E000C0800000C0802000C0804000C0806000C0808000C080A000C080C000C080E000C0A00000C0A02000C0A04000C0A06000C0A08000C0A0A000C0A0C000C0A0E000C0C00000C0C02000C0C04000C0C06000
310
C0C08000C0C0A000F0FBFF00A4A0A000808080000000FF0000FF000000FFFF00FF000000FF00FF00FFFF0000FFFFFF00A4A4A4A4A4A4A4A4A4A4A4A4A4A4A4A4A4A4A4A4A4A4A4A4A4A4A4A4A4A4A4A4A4A4A4A4A4A4A4A4A4A4A4A4A4A4A4A4A4A4A4A4A4A4A4A4A4A4A4A4A4A4A4A4A4A4A4A4A4A4A4A4A4A4A4A4A4A4A4
310
A4A4A4A4A4A4A4A4A4A4A4A4A4A4A4A4A4A4A4A4A4A4A4A4A4A4A4A4A4A4A4A4A4A4A4A4A4A4A4A4A4A4A4A4A4A4A4A4A4A4A4A4A4A4A4A4A4A4A4A4A4A4A4A4A4A4A4A4A4A4A4A4A4A4A4A4A4A4A4A4A4A4A4A4A4A4A4A4A4A4A4A4A4A4A4A4A4A4A4A4A4A4A4A4A4A4A4A4A4A4A4A4A4A4A4A4A4A4A4A4A4A4A4A4A4A4A4
310
A4A4A4A4A4A4A4A4A4A4A4A4A4A4A4A4A4A4A4A4A4A4A4A4A4A4A4A4A4A4A4A4A4A4A4A4A4A4A4A4A4A4A4A4A4A4A4A4A4A4A4A4A4A4A4A4A4A4A4A4A4A4A4A4A4A4A4A4A4A4A4A4A4A4A4A4A4A4A4A4A4A4A4A4A4A4A4A4A4A4A4A4A4A4A4A4A4A4A4A4A4A4A4A4A4A4A4A4A4A4A4A4A4A4A4A4A4A4A4A4A4A4A4A4A4A4A4
310
A4A4A4A4A4A4A4A4A4A4A4A4A4A4A4A4A4A4A4A4A4A4A4A4A4A4A4A4A4A4A4A4A4A4A4A4A4A4A4A4A4A4A4A4A4A4A4A4A4A4A4A4A4A4A4A4A4A4A4A4A4A4A4A4A4A4A4A4A4A4A4A4A4A4A4A4A4A4A4A4A4A4A4A4A4A4A4A4A4A4A4A4A4A4A4A4A4A4A4A4A4A4A4A4A4A4A4A4A4A4A4A4A4A4A4A4F9F9F9F9F9F9F9F9F9F9F9
310
F9F9F9F9F9F9F9F9F9F9F9F9F9F9F9F9F9F9F9A4A4F9F9F9F9F9F9F9F9F9F9F9F9F9F9F9F9F9F9F9F9F9F9F9F9F9F9F9F9F9F9A4A4F9F9F9F9F9F9F9F9F9F9F9F9F9F9F9F9F9F9F9F9F9F9F9F9F9F9F9F9F9F9A4A4F9A4A4A4A4A4A4A4A4A4A4A4A4A4A4A4A4A4A4A4A4A4A4A4A4A4A4A4A4F9A4A4A4A4A4A4A4A4A4A4A4A4
310
A4A4A4A4A4A4A4A4A4A4A4A4A4A4A4A4A4A4A4A4A4A4A4A4A4A4A4A4A4A4A4A4A4A4A4A4A4A4A4A4A4A4A4A4A4A4A4A4A4A4A4A4A4A4A4A4A4A4A4A4A4A4A4A4A4A4A4A4A4A4A4A4A4A4A4A4A4A4A4A4A4A4A4A4A4A4A4A4A4A4A4A4A4A4A4A4A4A4A4A4A4A4A4A4A4A4A4A4A4A4A4A4A4A4A4A4A4A4A4A4A4A4A4A4A4A4A4
310
A4A4A4A4A4A4A4A4A4A4A4A4A4A4A4A4A4A4A4A4A4A4A4A4A4A4A4A4A4A4A4A4A4A4A4A4A4A4A4A4A4A4A4A4A4A4A4A4A4A4A4A4A4A4A4A4A4A4A4A4A4A4A4A4A4A4A4A4A4A4A4A4A4A4A4A4A4A4A4A4A4A4A4A4A4A4A4A4A4A4A4A4A4A4A4A4A4A4A4A4A4A4A4A4A4A4A4A4A4A4A4A4A4A4A4A4A4A4A4A4A4A4A4A4A4A4A4
310
A4A4A4A4A4A4A4A4A4A4A4A4A4A4A4A4A4A4A4A4A4A4A4A4A4A4A4A4A4A4A4A4A4A4A4A4A4A4A4A4A4A4A4A4A4A4A4A4A4A4A4A4A4A4A4A4A4A4A4A4A4A4A4A4A4A4A4A4A4A4A4A4A4A4A4A4A4A4A4A4A4A4A4A4A4A4A4A4A4A4A4A4A4A4A4A4A4A4A4A4A4A4A4A4A4A4A4A4A4A4A4A4A4A4A4A4A4A4A4A4A4A4A4A4A4A4A4
310
A4A4A4A4A4A4A4A4A4A4A4A4A4A4A4A4A4A4A4A4A4A4A4A4A4A4A4A4A4A4A4A4A4A4A4A4A4A4A4A4A4A4A4A4A4A4A4A4A4A4A4A4A4A4A4A4
1001
ACAD
1000
DesignCenter Data
1002
{
1070
     1
1070
     4
1002
}
  0
BLOCK_RECORD
  5
AA8
330
1
100
AcDbSymbolTableRecord
100
AcDbBlockTableRecord
  2
_CLOSED
340
0
  0
ENDTAB
  0
ENDSEC
  0
SECTION
  2
BLOCKS
  0
BLOCK
  5
20
330
1F
100
AcDbEntity
  8
0
100
AcDbBlockBegin
  2
*Model_Space
 70
     0
 10
0.0
 20
0.0
 30
0.0
  3
*Model_Space
  1

  0
ENDBLK
  5
21
330
1F
100
AcDbEntity
  8
0
100
AcDbBlockEnd
  0
BLOCK
  5
1C
330
1B
100
AcDbEntity
 67
     1
  8
0
100
AcDbBlockBegin
  2
*Paper_Space
 70
     0
 10
0.0
 20
0.0
 30
0.0
  3
*Paper_Space
  1

  0
ENDBLK
  5
1D
330
1B
100
AcDbEntity
 67
     1
  8
0
100
AcDbBlockEnd
  0
BLOCK
  5
24
330
23
100
AcDbEntity
 67
     1
  8
0
100
AcDbBlockBegin
  2
*Paper_Space0
 70
     0
 10
0.0
 20
0.0
 30
0.0
  3
*Paper_Space0
  1

  0
ENDBLK
  5
25
330
23
100
AcDbEntity
 67
     1
  8
0
100
AcDbBlockEnd
  0
BLOCK
  5
91B
330
919
100
AcDbEntity
  8
0
100
AcDbBlockBegin
  2
_DotSmall
 70
     0
 10
0.0
 20
0.0
 30
0.0
  3
_DotSmall
  1

  0
LWPOLYLINE
  5
91A
330
919
100
AcDbEntity
  8
0
  6
ByBlock
 62
     0
100
AcDbPolyline
 90
        2
 70
     1
 43
0.5
 10
-0.0625
 20
0.0
 42
1.0
 10
0.0625
 20
0.0
 42
1.0
  0
ENDBLK
  5
91C
330
919
100
AcDbEntity
  8
0
100
AcDbBlockEnd
  0
BLOCK
  5
92A
330
922
100
AcDbEntity
  8
0
100
AcDbBlockBegin
  2
base para cotas
 70
     0
 10
0.0
 20
0.0
 30
0.0
  3
base para cotas
  1

  0
LINE
  5
B36
330
922
100
AcDbEntity
  8
cotas
100
AcDbLine
 10
0.0
 20
-30.0
 30
0.0
 11
327.1260136525398
 21
-30.0
 31
0.0
  0
LINE
  5
B37
330
922
100
AcDbEntity
  8
cotas
100
AcDbLine
 10
0.0
 20
-25.0
 30
0.0
 11
327.1260136525398
 21
-25.0
 31
0.0
  0
LINE
  5
B38
330
922
100
AcDbEntity
  8
cotas
100
AcDbLine
 10
0.0
 20
-20.0
 30
0.0
 11
327.1260136525398
 21
-20.0
 31
0.0
  0
LINE
  5
B39
330
922
100
AcDbEntity
  8
cotas
100
AcDbLine
 10
0.0
 20
-15.0
 30
0.0
 11
327.1260136525398
 21
-15.0
 31
0.0
  0
LINE
  5
B3A
330
922
100
AcDbEntity
  8
cotas
100
AcDbLine
 10
0.0
 20
-10.0
 30
0.0
 11
327.1260136525398
 21
-10.0
 31
0.0
  0
LINE
  5
B3B
330
922
100
AcDbEntity
  8
cotas
100
AcDbLine
 10
0.0
 20
0.0
 30
0.0
 11
0.0
 21
-30.0
 31
0.0
  0
LINE
  5
B3C
330
922
100
AcDbEntity
  8
cotas
100
AcDbLine
 10
327.1260136525398
 20
-30.0
 30
0.0
 11
327.1260136525398
 21
0.0
 31
0.0
  0
ENDBLK
  5
92B
330
922
100
AcDbEntity
  8
0
100
AcDbBlockEnd
  0
BLOCK
  5
AAD
330
AA8
100
AcDbEntity
  8
0
100
AcDbBlockBegin
  2
_CLOSED
 70
     0
 10
0.0
 20
0.0
 30
0.0
  3
_CLOSED
  1

  0
LINE
  5
AA9
330
AA8
100
AcDbEntity
  8
0
100
AcDbLine
 10
-1.0
 20
0.166667
 30
0.0
 11
0.0
 21
0.0
 31
0.0
  0
LINE
  5
AAA
330
AA8
100
AcDbEntity
  8
0
100
AcDbLine
 10
0.0
 20
0.0
 30
0.0
 11
-1.0
 21
-0.166667
 31
0.0
  0
LINE
  5
AAB
330
AA8
100
AcDbEntity
  8
0
100
AcDbLine
 10
-1.0
 20
0.166667
 30
0.0
 11
-1.0
 21
-0.166667
 31
0.0
  0
LINE
  5
AAC
330
AA8
100
AcDbEntity
  8
0
100
AcDbLine
 10
0.0
 20
0.0
 30
0.0
 11
-1.0
 21
0.0
 31
0.0
  0
ENDBLK
  5
AAE
330
AA8
100
AcDbEntity
  8
0
100
AcDbBlockEnd
  0
ENDSEC
  0
SECTION
  2
ENTITIES
  0
ARC
  5
11D9
330
1F
100
AcDbEntity
  8
SANINDUSA
100
AcDbCircle
 10
928.3290341556108
 20
962.7640814975288
 30
0.0
 40
0.5785460609442981
100
AcDbArc
 50
331.287974223242
 51
359.0376479903763
  0
ARC
  5
11DA
330
1F
100
AcDbEntity
  8
SANINDUSA
100
AcDbCircle
 10
929.1330751346819
 20
962.7640814975288
 30
0.0
 40
0.5785460609442981
100
AcDbArc
 50
180.9623520096237
 51
208.712025776758
  0
LINE
  5
11DE
330
1F
100
AcDbEntity
  8
SANINDUSA
100
AcDbLine
 10
928.7743666637231
 20
962.4840813334889
 30
0.0
 11
928.8352145583154
 21
962.4840813334889
 31
0.0
  0
LINE
  5
11E0
330
1F
100
AcDbEntity
  8
SANINDUSA
100
AcDbLine
 10
928.6028048171782
 20
962.5322656023003
 30
0.0
 11
928.601351890782
 21
962.4861435783708
 31
0.0
  0
LWPOLYLINE
  5
11E1
330
1F
100
AcDbEntity
  8
SANINDUSA
100
AcDbPolyline
 90
       17
 70
   128
 43
0.0
 10
928.7295176108836
 20
962.4440813334889
 10
928.7253059014927
 20
962.4442665796673
 10
928.7211267005632
 20
962.4448208883629
 10
928.7170122656364
 20
962.4457399810939
 10
928.7129943543522
 20
962.4470167637596
 10
928.7091039793232
 20
962.448641381397
 10
928.7053711687622
 20
962.4506012942477
 10
928.7018247347063
 20
962.4528813745461
 10
928.698492050629
 20
962.4554640232856
 10
928.6953988401544
 20
962.4583293060576
 10
928.6925689785086
 20
962.4614551069168
 10
928.6900243082353
 20
962.4648172990857
 10
928.6877844706033
 20
962.4683899311786
 10
928.6858667540023
 20
962.4721454275107
 10
928.6842859605023
 20
962.4760548009426
 10
928.6830542916012
 20
962.4800878766206
 10
928.6822054035949
 20
962.4840694968323
  0
LINE
  5
11E2
330
1F
100
AcDbEntity
  8
SANINDUSA
100
AcDbLine
 10
928.6877426265697
 20
962.4840813334889
 30
0.0
 11
928.6268947319774
 21
962.4840813334889
 31
0.0
  0
LINE
  5
11E4
330
1F
100
AcDbEntity
  8
SANINDUSA
100
AcDbLine
 10
928.6268947319886
 20
962.4840813334889
 30
0.0
 11
928.6033508923956
 21
962.4840813334889
 31
0.0
  0
LWPOLYLINE
  5
11E5
330
1F
100
AcDbEntity
  8
SANINDUSA
100
AcDbPolyline
 90
        8
 70
   128
 43
0.0
 10
928.601351890782
 20
962.4861435783708
 10
928.6013518889143
 20
962.4861435184
 10
928.6014434571795
 20
962.4854799856789
 10
928.6017487631514
 20
962.4848841931244
 10
928.6022337562286
 20
962.484422420418
 10
928.6028452593217
 20
962.4841463056704
 10
928.6033508324415
 20
962.4840813334898
 10
928.6033508923958
 20
962.4840813334889
  0
LWPOLYLINE
  5
11E6
330
1F
100
AcDbEntity
  8
SANINDUSA
100
AcDbPolyline
 90
        3
 70
   128
 43
0.0
 10
928.6256640018436
 20
962.4861435783707
 10
928.6263336574227
 20
962.4848951287217
 10
928.6268947319713
 20
962.4840813334996
  0
LINE
  5
11EA
330
1F
100
AcDbEntity
  8
SANINDUSA
100
AcDbLine
 10
928.7310546451463
 20
962.4840813334889
 30
0.0
 11
928.7743666637231
 21
962.4840813334889
 31
0.0
  0
LWPOLYLINE
  5
11EB
330
1F
100
AcDbEntity
  8
SANINDUSA
100
AcDbPolyline
 90
       17
 70
   128
 43
0.0
 10
928.7325916794092
 20
962.4440813334889
 10
928.7368033888
 20
962.4442665796673
 10
928.7409825897295
 20
962.4448208883629
 10
928.7450970246563
 20
962.4457399810939
 10
928.7491149359405
 20
962.4470167637596
 10
928.7530053109696
 20
962.448641381397
 10
928.7567381215305
 20
962.4506012942477
 10
928.7602845555865
 20
962.4528813745461
 10
928.7636172396638
 20
962.4554640232856
 10
928.7667104501384
 20
962.4583293060576
 10
928.7695403117842
 20
962.4614551069168
 10
928.7720849820574
 20
962.4648172990857
 10
928.7743248196894
 20
962.4683899311786
 10
928.7762425362904
 20
962.4721454275107
 10
928.7778233297904
 20
962.4760548009426
 10
928.7790549986915
 20
962.4800878766206
 10
928.7799038866976
 20
962.4840694968323
  0
LINE
  5
11EE
330
1F
100
AcDbEntity
  8
SANINDUSA
100
AcDbLine
 10
928.7299990545808
 20
962.4440813334889
 30
0.0
 11
928.7321102357118
 21
962.4440813334889
 31
0.0
  0
LINE
  5
11F1
330
1F
100
AcDbEntity
  8
SANINDUSA
100
AcDbLine
 10
928.7310546451463
 20
962.4840813334889
 30
0.0
 11
928.6877426265697
 21
962.4840813334889
 31
0.0
  0
LINE
  5
11F2
330
1F
100
AcDbEntity
  8
SANINDUSA
100
AcDbLine
 10
928.8593044731143
 20
962.5322656023003
 30
0.0
 11
928.8607573995106
 21
962.4861435783708
 31
0.0
  0
LWPOLYLINE
  5
11F3
330
1F
100
AcDbEntity
  8
SANINDUSA
100
AcDbPolyline
 90
        3
 70
   128
 43
0.0
 10
928.8364452884492
 20
962.4861435783707
 10
928.83577563287
 20
962.4848951287217
 10
928.8352145583214
 20
962.4840813334996
  0
LWPOLYLINE
  5
11F4
330
1F
100
AcDbEntity
  8
SANINDUSA
100
AcDbPolyline
 90
        8
 70
   128
 43
0.0
 10
928.8607573995108
 20
962.4861435783708
 10
928.8607574013784
 20
962.4861435184
 10
928.8606658331133
 20
962.4854799856789
 10
928.8603605271413
 20
962.4848841931244
 10
928.8598755340641
 20
962.484422420418
 10
928.859264030971
 20
962.4841463056704
 10
928.8587584578513
 20
962.4840813334898
 10
928.8587583978969
 20
962.4840813334889
  0
LINE
  5
11F5
330
1F
100
AcDbEntity
  8
SANINDUSA
100
AcDbLine
 10
928.835214558304
 20
962.4840813334889
 30
0.0
 11
928.8587583978969
 21
962.4840813334889
 31
0.0
  0
LINE
  5
11F9
330
1F
100
AcDbEntity
  8
SANINDUSA
100
AcDbLine
 10
928.6161556383902
 20
962.8040813334889
 30
0.0
 11
928.8459536519024
 21
962.8040813334889
 31
0.0
  0
LINE
  5
11FC
330
1F
100
AcDbEntity
  8
SANINDUSA
100
AcDbLine
 10
928.8437508470327
 20
962.7590813334888
 30
0.0
 11
928.6183584432599
 21
962.7590813334888
 31
0.0
  0
LINE
  5
1200
330
1F
100
AcDbEntity
  8
SANINDUSA
100
AcDbLine
 10
928.5485356186368
 20
962.8040813334889
 30
0.0
 11
928.6161556383902
 21
962.8040813334889
 31
0.0
  0
LINE
  5
1202
330
1F
100
AcDbEntity
  8
SANINDUSA
100
AcDbLine
 10
928.6183584432599
 20
962.7590813334888
 30
0.0
 11
928.5510088520387
 21
962.7590813334888
 31
0.0
  0
ARC
  5
1207
330
1F
100
AcDbEntity
  8
SANINDUSA
100
AcDbCircle
 10
928.5496113846823
 20
962.7542805955261
 30
0.0
 40
0.005
100
AcDbArc
 50
0.9623520096237168
 51
78.54292606567542
  0
ARC
  5
1208
330
1F
100
AcDbEntity
  8
SANINDUSA
100
AcDbCircle
 10
928.5515977218603
 20
962.7640813334888
 30
0.0
 40
0.0050000000000001
100
AcDbArc
 50
184.9999999999998
 51
258.5429260656754
  0
ARC
  5
1209
330
1F
100
AcDbEntity
  8
SANINDUSA
100
AcDbCircle
 10
928.5485356186368
 20
962.7990813334887
 30
0.0
 40
0.005
100
AcDbArc
 50
90.0
 51
184.9999999999998
  0
LINE
  5
120A
330
1F
100
AcDbEntity
  8
SANINDUSA
100
AcDbLine
 10
928.5435546451465
 20
962.7986455547752
 30
0.0
 11
928.5466167483697
 21
962.7636455547751
 31
0.0
  0
ARC
  5
1211
330
1F
100
AcDbEntity
  8
SANINDUSA
100
AcDbCircle
 10
928.9124979056104
 20
962.7542805955261
 30
0.0
 40
0.005
100
AcDbArc
 50
101.4570739343246
 51
179.0376479903763
  0
LINE
  5
1213
330
1F
100
AcDbEntity
  8
SANINDUSA
100
AcDbLine
 10
928.9135736716557
 20
962.8040813334889
 30
0.0
 11
928.8459536519024
 21
962.8040813334889
 31
0.0
  0
LINE
  5
1215
330
1F
100
AcDbEntity
  8
SANINDUSA
100
AcDbLine
 10
928.8437508470327
 20
962.7590813334888
 30
0.0
 11
928.9111004382538
 21
962.7590813334888
 31
0.0
  0
ARC
  5
121A
330
1F
100
AcDbEntity
  8
SANINDUSA
100
AcDbCircle
 10
928.9105115684325
 20
962.7640813334888
 30
0.0
 40
0.0050000000000001
100
AcDbArc
 50
281.4570739343245
 51
355.0000000000002
  0
ARC
  5
121B
330
1F
100
AcDbEntity
  8
SANINDUSA
100
AcDbCircle
 10
928.9135736716557
 20
962.7990813334887
 30
0.0
 40
0.005
100
AcDbArc
 50
355.0000000000002
 51
90.0
  0
LINE
  5
121C
330
1F
100
AcDbEntity
  8
SANINDUSA
100
AcDbLine
 10
928.9154925419229
 20
962.7636455547751
 30
0.0
 11
928.9185546451463
 21
962.7986455547752
 31
0.0
  0
ARC
  5
1229
330
1F
100
AcDbEntity
  8
SANINDUSA
100
AcDbCircle
 10
927.3309232205209
 20
962.5945232539239
 30
0.0
 40
0.2471758713226295
100
AcDbArc
 50
180.3384702771833
 51
223.8784007527172
  0
ARC
  5
122B
330
1F
100
AcDbEntity
  8
SANINDUSA
100
AcDbCircle
 10
927.2151745342368
 20
962.5930630905438
 30
0.0
 40
0.2435771278736087
100
AcDbArc
 50
315.7831289701036
 51
44.21687102989634
  0
LWPOLYLINE
  5
122E
330
1F
100
AcDbEntity
  8
SANINDUSA
100
AcDbPolyline
 90
       81
 70
   128
 43
0.0
 10
927.2712516621105
 20
962.7480630905438
 10
927.2583757207215
 20
962.7473792873903
 10
927.2465446185119
 20
962.7455300188755
 10
927.2348919777353
 20
962.7425432142283
 10
927.2235663649436
 20
962.738480934254
 10
927.212716346688
 20
962.733405239758
 10
927.2031510975191
 20
962.7278412144946
 10
927.1940296384935
 20
962.7214882027946
 10
927.1854152347732
 20
962.7144280565689
 10
927.1773711515198
 20
962.706742627728
 10
927.1699606538955
 20
962.6985137681828
 10
927.1625746345536
 20
962.6889121864481
 10
927.1559234147582
 20
962.6787290303267
 10
927.1500341168193
 20
962.668062413838
 10
927.1449338630468
 20
962.6570104510006
 10
927.1406497757503
 20
962.645671255834
 10
927.1365549434786
 20
962.6316293394429
 10
927.1336161615833
 20
962.6172507478706
 10
927.1318446583617
 20
962.6026803689574
 10
927.1312516621105
 20
962.5880630905438
 10
927.131788798348
 20
962.5741082135387
 10
927.1333951320366
 20
962.560215027582
 10
927.1360630506411
 20
962.5465076424758
 10
927.1394865106582
 20
962.5340405843074
 10
927.1438300316756
 20
962.5218248517843
 10
927.1490732836644
 20
962.5099707644633
 10
927.1551959365961
 20
962.4985886419004
 10
927.1614185120084
 20
962.4888638239735
 10
927.1683513685839
 20
962.4795917108263
 10
927.175953826303
 20
962.4708651166052
 10
927.184185205145
 20
962.4627768554567
 10
927.1923153826472
 20
962.455937620005
 10
927.2009611296393
 20
962.4497089688148
 10
927.2100568058336
 20
962.4441649534052
 10
927.219536770943
 20
962.4393796252945
 10
927.2291618001858
 20
962.4354771661744
 10
927.2391058237811
 20
962.4323594849947
 10
927.2492695476321
 20
962.4300638680763
 10
927.2595536776417
 20
962.42862760174
 10
927.2712516621105
 20
962.4280630905438
 10
927.2811986312374
 20
962.4284733905231
 10
927.2910964110286
 20
962.4296896017911
 10
927.3008498496306
 20
962.4316896913434
 10
927.3075113357142
 20
962.4335312106447
 10
927.3140627895587
 20
962.4357325540414
 10
927.3222843340263
 20
962.4390755424885
 10
927.3302674128157
 20
962.4429782638143
 10
927.3379623644185
 20
962.4474025913583
 10
927.3473302374098
 20
962.4537725582724
 10
927.3561896873967
 20
962.4609140100705
 10
927.3644821736501
 20
962.4687393933344
 10
927.3721491554411
 20
962.4771611546453
 10
927.3791320920413
 20
962.4860917405845
 10
927.3858870266849
 20
962.4962409395768
 10
927.3918811485199
 20
962.5069120996387
 10
927.3970922709475
 20
962.5180092989976
 10
927.4014982073689
 20
962.529436615881
 10
927.405076771185
 20
962.5410981285163
 10
927.4083537463356
 20
962.5557441564271
 10
927.4104071069542
 20
962.5706638253772
 10
927.4112291861197
 20
962.5857027712966
 10
927.410812316911
 20
962.6007066301159
 10
927.4093364011038
 20
962.6143738493706
 10
927.4068202750401
 20
962.6279297109064
 10
927.4032761246051
 20
962.6412515717298
 10
927.3987161356842
 20
962.6542167888455
 10
927.393792700955
 20
962.6654113783096
 10
927.3880524334147
 20
962.6762482668258
 10
927.3815250775324
 20
962.6866260074987
 10
927.3742403777777
 20
962.6964431534331
 10
927.3669351802137
 20
962.7048526127222
 10
927.3589993465128
 20
962.7127159125416
 10
927.3504907342942
 20
962.7199508715316
 10
927.341467201178
 20
962.7264753083322
 10
927.3319368133313
 20
962.7322338691204
 10
927.3219212319249
 20
962.7371921102305
 10
927.3115242972581
 20
962.7412822457445
 10
927.3008498496304
 20
962.7444364897442
 10
927.2910964110284
 20
962.7464365792963
 10
927.2811986312373
 20
962.7476527905646
 10
927.2712516621105
 20
962.7480630905438
  0
ARC
  5
122F
330
1F
100
AcDbEntity
  8
SANINDUSA
100
AcDbCircle
 10
927.2712516621105
 20
962.5359926295947
 30
0.0
 40
0.1635966310915144
100
AcDbArc
 50
223.5879056352127
 51
316.4120943647873
  0
LINE
  5
123C
330
1F
100
AcDbEntity
  8
SANINDUSA
100
AcDbLine
 10
927.1629598649564
 20
962.7780424082216
 30
0.0
 11
927.1514175918495
 21
962.9252832304173
 31
0.0
  0
LWPOLYLINE
  5
123D
330
1F
100
AcDbEntity
  8
SANINDUSA
100
AcDbPolyline
 90
        3
 70
   128
 43
0.0
 10
927.1415489077462
 20
962.9263613432074
 10
927.1487118987284
 20
962.8348964599146
 10
927.1542377265966
 20
962.7642300591078
  0
LINE
  5
1240
330
1F
100
AcDbEntity
  8
SANINDUSA
100
AcDbLine
 10
927.3795434592644
 20
962.7780424082216
 30
0.0
 11
927.3910857323713
 21
962.9252832304173
 31
0.0
  0
LWPOLYLINE
  5
1241
330
1F
100
AcDbEntity
  8
SANINDUSA
100
AcDbPolyline
 90
        3
 70
   128
 43
0.0
 10
927.4009544164748
 20
962.9263613432074
 10
927.3937914254926
 20
962.8348964599146
 10
927.3882630765539
 20
962.7641978186941
  0
LINE
  5
1243
330
1F
100
AcDbEntity
  8
SANINDUSA
100
AcDbLine
 10
927.2712516621105
 20
962.6552653846909
 30
0.0
 11
927.2399896888693
 21
962.6552653846909
 31
0.0
  0
LWPOLYLINE
  5
1246
330
1F
100
AcDbEntity
  8
SANINDUSA
100
AcDbPolyline
 90
       17
 70
   128
 43
0.0
 10
927.2681908897181
 20
962.5679277850823
 10
927.2645567477866
 20
962.5681352931463
 10
927.2609560993071
 20
962.5686882660867
 10
927.2574221290447
 20
962.5695816075216
 10
927.2539874072364
 20
962.570807084122
 10
927.2506835894121
 20
962.5723534014905
 10
927.2475411246482
 20
962.574206308256
 10
927.2445889749372
 20
962.5763487274177
 10
927.2418543482656
 20
962.5787609137333
 10
927.2393624478556
 20
962.5814206356976
 10
927.2371362398844
 20
962.5843033804342
 10
927.2351962418197
 20
962.5873825796162
 10
927.2335603333241
 20
962.5906298543272
 10
927.2322435914704
 20
962.594015276611
 10
927.2312581517864
 20
962.5975076452986
 10
927.2306130964095
 20
962.6010747735666
 10
927.230314370383
 20
962.6046837855833
  0
LWPOLYLINE
  5
124B
330
1F
100
AcDbEntity
  8
SANINDUSA
100
AcDbPolyline
 90
       17
 70
   128
 43
0.0
 10
927.2743124345028
 20
962.5679277850823
 10
927.2779465764344
 20
962.5681352931463
 10
927.2815472249138
 20
962.5686882660867
 10
927.2850811951762
 20
962.5695816075216
 10
927.2885159169845
 20
962.570807084122
 10
927.2918197348088
 20
962.5723534014905
 10
927.2949621995728
 20
962.574206308256
 10
927.2979143492838
 20
962.5763487274177
 10
927.3006489759554
 20
962.5787609137333
 10
927.3031408763653
 20
962.5814206356976
 10
927.3053670843365
 20
962.5843033804342
 10
927.3073070824013
 20
962.5873825796162
 10
927.3089429908969
 20
962.5906298543272
 10
927.3102597327506
 20
962.594015276611
 10
927.3112451724346
 20
962.5975076452986
 10
927.3118902278115
 20
962.6010747735666
 10
927.312188953838
 20
962.6046837855833
  0
LINE
  5
1259
330
1F
100
AcDbEntity
  8
SANINDUSA
100
AcDbLine
 10
927.2743124345028
 20
962.5679277850823
 30
0.0
 11
927.2681908897181
 21
962.5679277850823
 31
0.0
  0
LWPOLYLINE
  5
125A
330
1F
100
AcDbEntity
  8
SANINDUSA
100
AcDbPolyline
 90
        6
 70
   128
 43
0.0
 10
927.3025136353515
 20
962.6552653846907
 10
927.3057414901975
 20
962.6547213358866
 10
927.3086034961313
 20
962.6531247089861
 10
927.3107192097127
 20
962.6507027110307
 10
927.3119197108156
 20
962.647733036599
 10
927.312167856537
 20
962.6452004033723
  0
LWPOLYLINE
  5
125B
330
1F
100
AcDbEntity
  8
SANINDUSA
100
AcDbPolyline
 90
       17
 70
   128
 43
0.0
 10
927.312188953838
 20
962.6046837855833
 10
927.3118856631709
 20
962.6054117265059
 10
927.3115979410457
 20
962.606512826111
 10
927.3113281270754
 20
962.6079781308046
 10
927.3110784152533
 20
962.6097957254579
 10
927.3108508361113
 20
962.6119508302963
 10
927.3106472402098
 20
962.6144259210798
 10
927.3104692830893
 20
962.6172008716022
 10
927.3103184118085
 20
962.6202531173468
 10
927.3101958531778
 20
962.6235578389708
 10
927.3101026037828
 20
962.6270881641227
 10
927.3100394218809
 20
962.6308153859556
 10
927.3100068212364
 20
962.6347091965568
 10
927.3100050669413
 20
962.6387379333966
 10
927.3100341732604
 20
962.6428688367921
 10
927.310093903516
 20
962.6470683162935
 10
927.310183772011
 20
962.6513022238235
  0
LINE
  5
125E
330
1F
100
AcDbEntity
  8
SANINDUSA
100
AcDbLine
 10
927.2712516621105
 20
962.6552653846909
 30
0.0
 11
927.3025136353515
 21
962.6552653846909
 31
0.0
  0
LWPOLYLINE
  5
125F
330
1F
100
AcDbEntity
  8
SANINDUSA
100
AcDbPolyline
 90
        6
 70
   128
 43
0.0
 10
927.3828346701193
 20
962.7697221651059
 10
927.3819237606826
 20
962.7706300608696
 10
927.3808933773377
 20
962.7720958679471
 10
927.3801380935514
 20
962.7737160186713
 10
927.3796711963067
 20
962.7754509075085
 10
927.3796575143521
 20
962.7756079658192
  0
LWPOLYLINE
  5
1262
330
1F
100
AcDbEntity
  8
SANINDUSA
100
AcDbPolyline
 90
        3
 70
   128
 43
0.0
 10
927.3796551437078
 20
962.7756077593032
 10
927.3796351399084
 20
962.7756682317244
 10
927.3795434592646
 20
962.7780424082216
  0
ARC
  5
1265
330
1F
100
AcDbEntity
  8
SANINDUSA
100
AcDbCircle
 10
927.2712516621105
 20
962.6485098987782
 30
0.0
 40
0.1647202838061211
100
AcDbArc
 50
43.99697910096124
 51
47.36997680761824
  0
CIRCLE
  5
126F
330
1F
100
AcDbEntity
  8
SANINDUSA
100
AcDbCircle
 10
927.3537516621104
 20
962.8074394559979
 30
0.0
 40
0.0075
  0
ARC
  5
1275
330
1F
100
AcDbEntity
  8
SANINDUSA
100
AcDbCircle
 10
927.3309232205209
 20
962.5916029271635
 30
0.0
 40
0.2471758713226315
100
AcDbArc
 50
136.1215992472827
 51
179.6615297228166
  0
LWPOLYLINE
  5
127C
330
1F
100
AcDbEntity
  8
SANINDUSA
100
AcDbPolyline
 90
       17
 70
   128
 43
0.0
 10
927.230314370383
 20
962.6046837855833
 10
927.23061766105
 20
962.6054117265059
 10
927.2309053831753
 20
962.606512826111
 10
927.2311751971455
 20
962.6079781308046
 10
927.2314249089676
 20
962.6097957254579
 10
927.2316524881096
 20
962.6119508302963
 10
927.2318560840112
 20
962.6144259210798
 10
927.2320340411317
 20
962.6172008716022
 10
927.2321849124123
 20
962.6202531173468
 10
927.2323074710431
 20
962.6235578389708
 10
927.2324007204382
 20
962.6270881641227
 10
927.23246390234
 20
962.6308153859556
 10
927.2324965029845
 20
962.6347091965568
 10
927.2324982572797
 20
962.6387379333966
 10
927.2324691509604
 20
962.6428688367921
 10
927.232409420705
 20
962.6470683162935
 10
927.2323195522098
 20
962.6513022238235
  0
LWPOLYLINE
  5
1280
330
1F
100
AcDbEntity
  8
SANINDUSA
100
AcDbPolyline
 90
        6
 70
   128
 43
0.0
 10
927.2399896888694
 20
962.6552653846907
 10
927.2367618340235
 20
962.6547213358866
 10
927.2338998280897
 20
962.6531247089861
 10
927.2317841145083
 20
962.6507027110307
 10
927.2305836134053
 20
962.647733036599
 10
927.2303354676839
 20
962.6452004033723
  0
LWPOLYLINE
  5
1287
330
1F
100
AcDbEntity
  8
SANINDUSA
100
AcDbPolyline
 90
        6
 70
   128
 43
0.0
 10
927.1628354154998
 20
962.7755788590947
 10
927.1628120478416
 20
962.7753411789688
 10
927.1623268217151
 20
962.7736122132208
 10
927.1615540952522
 20
962.7720007111914
 10
927.1605048275819
 20
962.7705422007316
 10
927.1596664503848
 20
962.7697261058612
  0
LWPOLYLINE
  5
1289
330
1F
100
AcDbEntity
  8
SANINDUSA
100
AcDbPolyline
 90
        3
 70
   128
 43
0.0
 10
927.1628385196008
 20
962.7755785539132
 10
927.1628681843125
 20
962.7756682317244
 10
927.1629598649564
 20
962.7780424082216
  0
ARC
  5
128B
330
1F
100
AcDbEntity
  8
SANINDUSA
100
AcDbCircle
 10
927.2712516621105
 20
962.6485098987782
 30
0.0
 40
0.1647202838061211
100
AcDbArc
 50
132.6300231923817
 51
136.0030208990387
  0
CIRCLE
  5
1290
330
1F
100
AcDbEntity
  8
SANINDUSA
100
AcDbCircle
 10
927.1887516621104
 20
962.8074394559979
 30
0.0
 40
0.0075
  0
LINE
  5
1297
330
1F
100
AcDbEntity
  8
SANINDUSA
100
AcDbLine
 10
927.1564182522128
 20
962.9274394559978
 30
0.0
 11
927.386085072008
 21
962.9274394559978
 31
0.0
  0
LINE
  5
1299
330
1F
100
AcDbEntity
  8
SANINDUSA
100
AcDbLine
 10
927.3895173921019
 20
962.8922832304171
 30
0.0
 11
927.3867891954861
 21
962.8574805612117
 31
0.0
  0
LINE
  5
129A
330
1F
100
AcDbEntity
  8
SANINDUSA
100
AcDbLine
 10
927.3892546813398
 20
962.8574389216161
 30
0.0
 11
927.3919861421019
 21
962.8922832304171
 31
0.0
  0
LINE
  5
129F
330
1F
100
AcDbEntity
  8
SANINDUSA
100
AcDbLine
 10
927.3862175959251
 20
962.8473900188481
 30
0.0
 11
927.3882488459253
 21
962.8473900188481
 31
0.0
  0
LWPOLYLINE
  5
12A3
330
1F
100
AcDbEntity
  8
SANINDUSA
100
AcDbPolyline
 90
       10
 70
   128
 43
0.0
 10
927.3867891954861
 20
962.8574805612117
 10
927.3864550883033
 20
962.8531759153821
 10
927.3863726355894
 20
962.8519977272711
 10
927.3863021219135
 20
962.8508918834416
 10
927.3862456979223
 20
962.8498921118078
 10
927.3862050845309
 20
962.8490289051136
 10
927.3861815204361
 20
962.8483285909112
 10
927.3861757243356
 20
962.84781252858
 10
927.3861878730089
 20
962.8474964578709
 10
927.3862175959253
 20
962.8473900188481
  0
LWPOLYLINE
  5
12A4
330
1F
100
AcDbEntity
  8
SANINDUSA
100
AcDbPolyline
 90
        9
 70
   128
 43
0.0
 10
927.3882488459253
 20
962.8473900188481
 10
927.388301902628
 20
962.8475236240985
 10
927.3883738498712
 20
962.8479193248942
 10
927.3884619332205
 20
962.8485619721899
 10
927.3885627804846
 20
962.8494269628184
 10
927.388672530818
 20
962.8504811813998
 10
927.3887869825291
 20
962.8516842681346
 10
927.3889017539376
 20
962.8529901639407
 10
927.3892546813399
 20
962.8574389216161
  0
LWPOLYLINE
  5
12AA
330
1F
100
AcDbEntity
  8
SANINDUSA
100
AcDbPolyline
 90
        9
 70
   128
 43
0.0
 10
927.3902848751946
 20
962.8992832304172
 10
927.3902316554343
 20
962.8991487273799
 10
927.3901593933741
 20
962.8987503871448
 10
927.3900708660052
 20
962.8981035177032
 10
927.3899694753843
 20
962.8972329778854
 10
927.3898591178964
 20
962.8961722220482
 10
927.3897440345175
 20
962.8949620144437
 10
927.3896286478375
 20
962.8936488626713
 10
927.3895173921019
 20
962.8922832304171
  0
LINE
  5
12AB
330
1F
100
AcDbEntity
  8
SANINDUSA
100
AcDbLine
 10
927.3923161251946
 20
962.8992832304172
 30
0.0
 11
927.3902848751946
 21
962.8992832304172
 31
0.0
  0
LWPOLYLINE
  5
12AC
330
1F
100
AcDbEntity
  8
SANINDUSA
100
AcDbPolyline
 90
        9
 70
   128
 43
0.0
 10
927.3919861421019
 20
962.8922832304171
 10
927.3920889913979
 20
962.8936488626713
 10
927.392179481813
 20
962.8949620144437
 10
927.3922541358519
 20
962.8961722220482
 10
927.3923100846012
 20
962.8972329778854
 10
927.3923451779822
 20
962.8981035177032
 10
927.3923580673759
 20
962.8987503871448
 10
927.3923482574501
 20
962.8991487273799
 10
927.3923161251946
 20
962.8992832304172
  0
LINE
  5
12B6
330
1F
100
AcDbEntity
  8
SANINDUSA
100
AcDbLine
 10
927.3890928161813
 20
962.9274394559978
 30
0.0
 11
927.386085072008
 21
962.9274394559978
 31
0.0
  0
ARC
  5
12B8
330
1F
100
AcDbEntity
  8
SANINDUSA
100
AcDbCircle
 10
927.399957609602
 20
962.9264395833372
 30
0.0
 40
0.0009998727214963
100
AcDbArc
 50
355.5120121217802
 51
89.9800139681462
  0
LINE
  5
12BA
330
1F
100
AcDbEntity
  8
SANINDUSA
100
AcDbLine
 10
927.3999579583797
 20
962.9274394559978
 30
0.0
 11
927.3890928161813
 21
962.9274394559978
 31
0.0
  0
LINE
  5
12BC
330
1F
100
AcDbEntity
  8
SANINDUSA
100
AcDbLine
 10
927.1529859321191
 20
962.8922832304171
 30
0.0
 11
927.1557141287349
 21
962.8574805612117
 31
0.0
  0
LINE
  5
12BD
330
1F
100
AcDbEntity
  8
SANINDUSA
100
AcDbLine
 10
927.153248642881
 20
962.8574389216161
 30
0.0
 11
927.1505171821191
 21
962.8922832304171
 31
0.0
  0
LWPOLYLINE
  5
12C0
330
1F
100
AcDbEntity
  8
SANINDUSA
100
AcDbPolyline
 90
        9
 70
   128
 43
0.0
 10
927.1542544782956
 20
962.8473900188481
 10
927.1542014215929
 20
962.8475236240985
 10
927.1541294743498
 20
962.8479193248942
 10
927.1540413910004
 20
962.8485619721899
 10
927.1539405437364
 20
962.8494269628184
 10
927.1538307934028
 20
962.8504811813998
 10
927.1537163416919
 20
962.8516842681346
 10
927.1536015702833
 20
962.8529901639407
 10
927.153248642881
 20
962.8574389216161
  0
LINE
  5
12C1
330
1F
100
AcDbEntity
  8
SANINDUSA
100
AcDbLine
 10
927.1562857282956
 20
962.8473900188481
 30
0.0
 11
927.1542544782956
 21
962.8473900188481
 31
0.0
  0
LWPOLYLINE
  5
12C2
330
1F
100
AcDbEntity
  8
SANINDUSA
100
AcDbPolyline
 90
       10
 70
   128
 43
0.0
 10
927.1557141287349
 20
962.8574805612117
 10
927.1560482359177
 20
962.8531759153821
 10
927.1561306886315
 20
962.8519977272711
 10
927.1562012023073
 20
962.8508918834416
 10
927.1562576262986
 20
962.8498921118078
 10
927.1562982396901
 20
962.8490289051136
 10
927.1563218037849
 20
962.8483285909112
 10
927.1563275998854
 20
962.84781252858
 10
927.156315451212
 20
962.8474964578709
 10
927.1562857282956
 20
962.8473900188481
  0
LWPOLYLINE
  5
12CD
330
1F
100
AcDbEntity
  8
SANINDUSA
100
AcDbPolyline
 90
        9
 70
   128
 43
0.0
 10
927.1522184490263
 20
962.8992832304172
 10
927.1522716687867
 20
962.8991487273799
 10
927.1523439308467
 20
962.8987503871448
 10
927.1524324582157
 20
962.8981035177032
 10
927.1525338488366
 20
962.8972329778854
 10
927.1526442063246
 20
962.8961722220482
 10
927.1527592897035
 20
962.8949620144437
 10
927.1528746763834
 20
962.8936488626713
 10
927.1529859321191
 20
962.8922832304171
  0
LINE
  5
12CE
330
1F
100
AcDbEntity
  8
SANINDUSA
100
AcDbLine
 10
927.1501871990263
 20
962.8992832304172
 30
0.0
 11
927.1522184490262
 21
962.8992832304172
 31
0.0
  0
LWPOLYLINE
  5
12CF
330
1F
100
AcDbEntity
  8
SANINDUSA
100
AcDbPolyline
 90
        9
 70
   128
 43
0.0
 10
927.1505171821191
 20
962.8922832304171
 10
927.1504143328231
 20
962.8936488626713
 10
927.1503238424079
 20
962.8949620144437
 10
927.1502491883691
 20
962.8961722220482
 10
927.1501932396198
 20
962.8972329778854
 10
927.1501581462386
 20
962.8981035177032
 10
927.150145256845
 20
962.8987503871448
 10
927.1501550667707
 20
962.8991487273799
 10
927.1501871990263
 20
962.8992832304172
  0
LWPOLYLINE
  5
12D8
330
1F
100
AcDbEntity
  8
SANINDUSA
100
AcDbPolyline
 90
        9
 70
   128
 43
0.0
 10
927.1514175918497
 20
962.9252832304173
 10
927.1514278199829
 20
962.9256946209487
 10
927.1515219886284
 20
962.9260952086328
 10
927.1516961109945
 20
962.9264680339
 10
927.1519428153109
 20
962.9267973125511
 10
927.1522516569257
 20
962.9270691040074
 10
927.1526095604974
 20
962.9272719015094
 10
927.1530013735624
 20
962.9273971192763
 10
927.1534105080396
 20
962.9274394559978
  0
LINE
  5
12D9
330
1F
100
AcDbEntity
  8
SANINDUSA
100
AcDbLine
 10
927.1534105080394
 20
962.9274394559978
 30
0.0
 11
927.1564182522128
 21
962.9274394559978
 31
0.0
  0
ARC
  5
12DC
330
1F
100
AcDbEntity
  8
SANINDUSA
100
AcDbCircle
 10
927.1425457146188
 20
962.9264395833372
 30
0.0
 40
0.0009998727214963
100
AcDbArc
 50
90.0199860318929
 51
184.4879878782198
  0
LINE
  5
12DD
330
1F
100
AcDbEntity
  8
SANINDUSA
100
AcDbLine
 10
927.1425453658412
 20
962.9274394559978
 30
0.0
 11
927.1534105080394
 21
962.9274394559978
 31
0.0
  0
LINE
  5
12F5
330
1F
100
AcDbEntity
  8
SANINDUSA
100
AcDbLine
 10
929.0355879776605
 20
962.7920813334888
 30
0.0
 11
929.0597145804881
 21
962.7920813334888
 31
0.0
  0
LINE
  5
12FB
330
1F
100
AcDbEntity
  8
SANINDUSA
100
AcDbLine
 10
929.2079643431145
 20
962.8040813334889
 30
0.0
 11
929.0355879776605
 21
962.8040813334889
 31
0.0
  0
LINE
  5
12FD
330
1F
100
AcDbEntity
  8
SANINDUSA
100
AcDbLine
 10
929.0415878601766
 20
962.4910810468355
 30
0.0
 11
929.0725742127065
 21
962.4910745255704
 31
0.0
  0
LINE
  5
12FE
330
1F
100
AcDbEntity
  8
SANINDUSA
100
AcDbLine
 10
929.0761032683237
 20
962.5288052546736
 30
0.0
 11
929.0423660357845
 21
962.5250566732804
 31
0.0
  0
LINE
  5
1300
330
1F
100
AcDbEntity
  8
SANINDUSA
100
AcDbLine
 10
929.0345880194811
 20
962.4840813334889
 30
0.0
 11
929.1307894586397
 21
962.4840813334889
 31
0.0
  0
LINE
  5
1302
330
1F
100
AcDbEntity
  8
SANINDUSA
100
AcDbLine
 10
929.0335879776604
 20
962.7649982091515
 30
0.0
 11
929.0335879776604
 21
962.7526499559392
 31
0.0
  0
LWPOLYLINE
  5
1304
330
1F
100
AcDbEntity
  8
SANINDUSA
100
AcDbPolyline
 90
        6
 70
   128
 43
0.0
 10
929.0405868956945
 20
962.5230687941046
 10
929.0406996013146
 20
962.5237308109459
 10
929.041025084795
 20
962.5243182029185
 10
929.0415266506625
 20
962.5247647466633
 10
929.0421477519732
 20
962.5250200978026
 10
929.0423660357845
 20
962.5250566732804
  0
LINE
  5
1308
330
1F
100
AcDbEntity
  8
SANINDUSA
100
AcDbLine
 10
929.0335879776604
 20
962.5787614492779
 30
0.0
 11
929.0335879776604
 21
962.4850813334889
 31
0.0
  0
ARC
  5
130A
330
1F
100
AcDbEntity
  8
SANINDUSA
100
AcDbCircle
 10
929.0415879319215
 20
962.4920810466466
 30
0.0
 40
0.0009999998136321
100
AcDbArc
 50
180.0
 51
269.9958893156884
  0
LINE
  5
130B
330
1F
100
AcDbEntity
  8
SANINDUSA
100
AcDbLine
 10
929.0405879321081
 20
962.4920810355289
 30
0.0
 11
929.0405868956943
 21
962.5230687941046
 31
0.0
  0
LWPOLYLINE
  5
1315
330
1F
100
AcDbEntity
  8
SANINDUSA
100
AcDbPolyline
 90
        9
 70
   128
 43
0.0
 10
929.0345880194811
 20
962.4840813334889
 10
929.0343929376225
 20
962.4841005466103
 10
929.0342053520269
 20
962.4841574476867
 10
929.0340324709037
 20
962.4842498502234
 10
929.0338809374253
 20
962.484374203538
 10
929.0337565744536
 20
962.4845257291999
 10
929.0336641607906
 20
962.4846986046472
 10
929.0336072475462
 20
962.4848861869262
 10
929.0335880216822
 20
962.4850812679541
  0
LINE
  5
1317
330
1F
100
AcDbEntity
  8
SANINDUSA
100
AcDbLine
 10
929.0335879776604
 20
962.6909636408052
 30
0.0
 11
929.0335879776604
 21
962.586065317191
 31
0.0
  0
LINE
  5
1319
330
1F
100
AcDbEntity
  8
SANINDUSA
100
AcDbLine
 10
929.0335879776604
 20
962.586065317191
 30
0.0
 11
929.0335879776604
 21
962.5787614492779
 31
0.0
  0
LINE
  5
1322
330
1F
100
AcDbEntity
  8
SANINDUSA
100
AcDbLine
 10
929.0335879776604
 20
962.7022350196154
 30
0.0
 11
929.0335879776604
 21
962.6909636408052
 31
0.0
  0
LINE
  5
1326
330
1F
100
AcDbEntity
  8
SANINDUSA
100
AcDbLine
 10
929.0335879776604
 20
962.7526499559392
 30
0.0
 11
929.0335879776604
 21
962.7022350196154
 31
0.0
  0
ARC
  5
132A
330
1F
100
AcDbEntity
  8
SANINDUSA
100
AcDbCircle
 10
929.0355879776605
 20
962.7940813334888
 30
0.0
 40
0.002
100
AcDbArc
 50
180.0
 51
270.0
  0
LINE
  5
132B
330
1F
100
AcDbEntity
  8
SANINDUSA
100
AcDbLine
 10
929.0335879776604
 20
962.7940813334888
 30
0.0
 11
929.0335879776604
 21
962.8020813334888
 31
0.0
  0
ARC
  5
132C
330
1F
100
AcDbEntity
  8
SANINDUSA
100
AcDbCircle
 10
929.0355879776605
 20
962.8020813334888
 30
0.0
 40
0.002
100
AcDbArc
 50
90.0
 51
180.0
  0
LINE
  5
132F
330
1F
100
AcDbEntity
  8
SANINDUSA
100
AcDbLine
 10
929.0335879776604
 20
962.7940813334888
 30
0.0
 11
929.0335879776604
 21
962.7872993086972
 31
0.0
  0
LINE
  5
1333
330
1F
100
AcDbEntity
  8
SANINDUSA
100
AcDbLine
 10
929.0335879776604
 20
962.7872993086972
 30
0.0
 11
929.0335879776604
 21
962.7649982091515
 31
0.0
  0
ARC
  5
133B
330
1F
100
AcDbEntity
  8
SANINDUSA
100
AcDbCircle
 10
929.424892677679
 20
962.7692330820753
 30
0.0
 40
0.1401517612126121
100
AcDbArc
 50
270.0243206979113
 51
355.4362023479744
  0
ARC
  5
1342
330
1F
100
AcDbEntity
  8
SANINDUSA
100
AcDbCircle
 10
929.3535473760954
 20
962.7725081429895
 30
0.0
 40
0.1778833729756311
100
AcDbArc
 50
184.7734115755226
 51
192.284772226789
  0
ARC
  5
1343
330
1F
100
AcDbEntity
  8
SANINDUSA
100
AcDbCircle
 10
929.3532961303281
 20
962.7723084545658
 30
0.0
 40
0.1675650468954031
100
AcDbArc
 50
184.9199416892656
 51
237.3141063692247
  0
LINE
  5
1347
330
1F
100
AcDbEntity
  8
SANINDUSA
100
AcDbLine
 10
929.0635879776605
 20
962.7335813334889
 30
0.0
 11
929.0635879776605
 21
962.7870813334888
 31
0.0
  0
LINE
  5
1348
330
1F
100
AcDbEntity
  8
SANINDUSA
100
AcDbLine
 10
929.0935879776604
 20
962.7435813334889
 30
0.0
 11
929.0935879776604
 21
962.7805813334889
 31
0.0
  0
LWPOLYLINE
  5
134B
330
1F
100
AcDbEntity
  8
SANINDUSA
100
AcDbPolyline
 90
       16
 70
   128
 43
0.0
 10
929.4702505464773
 20
962.4847956902886
 10
929.4819148018932
 20
962.49918186185
 10
929.4930047912581
 20
962.5140127488529
 10
929.5035081824027
 20
962.5294168658705
 10
929.5133479885484
 20
962.5452530987935
 10
929.5223109956015
 20
962.5611266207508
 10
929.5306093842606
 20
962.5773574617946
 10
929.5382782872753
 20
962.5940345327276
 10
929.5452452872725
 20
962.6110168091528
 10
929.5533122825457
 20
962.6337544502584
 10
929.560127377808
 20
962.6569171304735
 10
929.5656605957148
 20
962.6804003692621
 10
929.5690354720587
 20
962.698699357079
 10
929.5716300213063
 20
962.7171420378708
 10
929.5734468726259
 20
962.7356781627568
 10
929.5744886551851
 20
962.7542574828563
  0
LWPOLYLINE
  5
1353
330
1F
100
AcDbEntity
  8
SANINDUSA
100
AcDbPolyline
 90
        5
 70
   128
 43
0.0
 10
929.3674109645943
 20
962.6307371675048
 10
929.3474132403808
 20
962.6310990095293
 10
929.3274123093945
 20
962.6321391779962
 10
929.310247721963
 20
962.6338276571864
 10
929.2931604911306
 20
962.6365620511155
  0
ARC
  5
1355
330
1F
100
AcDbEntity
  8
SANINDUSA
100
AcDbCircle
 10
929.3087897070776
 20
962.5390813334888
 30
0.0
 40
0.095
100
AcDbArc
 50
270.0
 51
352.6942404666939
  0
ARC
  5
1356
330
1F
100
AcDbEntity
  8
SANINDUSA
100
AcDbCircle
 10
929.3087897070776
 20
962.5390813334888
 30
0.0
 40
0.0850000000000002
100
AcDbArc
 50
270.0
 51
352.6942404666939
  0
LINE
  5
135E
330
1F
100
AcDbEntity
  8
SANINDUSA
100
AcDbLine
 10
929.2815187695472
 20
962.6059923705293
 30
0.0
 11
929.3057620489674
 21
962.5140813334889
 31
0.0
  0
LINE
  5
135F
330
1F
100
AcDbEntity
  8
SANINDUSA
100
AcDbLine
 10
929.2954200275563
 20
962.5140813334889
 30
0.0
 11
929.2711942811408
 21
962.6059258994631
 31
0.0
  0
LINE
  5
1361
330
1F
100
AcDbEntity
  8
SANINDUSA
100
AcDbLine
 10
929.1761642344974
 20
962.5626714189229
 30
0.0
 11
929.2018051856588
 21
962.5020655343593
 31
0.0
  0
LINE
  5
1362
330
1F
100
AcDbEntity
  8
SANINDUSA
100
AcDbLine
 10
929.1853739070081
 20
962.5665678188314
 30
0.0
 11
929.2110148581697
 21
962.5059619342676
 31
0.0
  0
LINE
  5
1364
330
1F
100
AcDbEntity
  8
SANINDUSA
100
AcDbLine
 10
929.0745626830712
 20
962.4928536821862
 30
0.0
 11
929.0783118988453
 21
962.5265966241521
 31
0.0
  0
LINE
  5
1367
330
1F
100
AcDbEntity
  8
SANINDUSA
100
AcDbLine
 10
929.1388079118528
 20
962.4840813334889
 30
0.0
 11
929.2118374075862
 21
962.4840813334889
 31
0.0
  0
ARC
  5
1368
330
1F
100
AcDbEntity
  8
SANINDUSA
100
AcDbCircle
 10
929.2892970745104
 20
962.5390813334888
 30
0.0
 40
0.0950000000000003
100
AcDbArc
 50
202.9321004375908
 51
270.0
  0
ARC
  5
136D
330
1F
100
AcDbEntity
  8
SANINDUSA
100
AcDbCircle
 10
929.0515872976456
 20
962.5150135649851
 30
0.0
 40
0.001
100
AcDbArc
 50
96.34019174590587
 51
180.0019626640454
  0
ARC
  5
136E
330
1F
100
AcDbEntity
  8
SANINDUSA
100
AcDbCircle
 10
929.0515877406896
 20
962.502079842266
 30
0.0
 40
0.001
100
AcDbArc
 50
180.0019626640454
 51
269.9876505604876
  0
ARC
  5
136F
330
1F
100
AcDbEntity
  8
SANINDUSA
100
AcDbCircle
 10
929.0645198094157
 20
962.5020770549088
 30
0.0
 40
0.001
100
AcDbArc
 50
269.9876505604876
 51
353.6598086111755
  0
ARC
  5
1370
330
1F
100
AcDbEntity
  8
SANINDUSA
100
AcDbCircle
 10
929.0661368231035
 20
962.5166301789247
 30
0.0
 40
0.001
100
AcDbArc
 50
353.6598086111755
 51
96.34019174590587
  0
LINE
  5
1371
330
1F
100
AcDbEntity
  8
SANINDUSA
100
AcDbLine
 10
929.065513693151
 20
962.5019666233889
 30
0.0
 11
929.0671307068388
 21
962.5165197474048
 31
0.0
  0
LWPOLYLINE
  5
1372
330
1F
100
AcDbEntity
  8
SANINDUSA
100
AcDbPolyline
 90
        6
 70
   128
 43
0.0
 10
929.0745626830712
 20
962.4928536821862
 10
929.0743775202988
 20
962.4922081590252
 10
929.0739891233089
 20
962.4916603147759
 10
929.0734412827317
 20
962.4912719178245
 10
929.0727957685604
 20
962.4910867574623
 10
929.0725742127065
 20
962.4910745255704
  0
LINE
  5
1376
330
1F
100
AcDbEntity
  8
SANINDUSA
100
AcDbLine
 10
929.0505872976464
 20
962.5150135307301
 30
0.0
 11
929.0505877406902
 21
962.5020798080109
 31
0.0
  0
LINE
  5
1377
330
1F
100
AcDbEntity
  8
SANINDUSA
100
AcDbLine
 10
929.0660263915775
 20
962.5176240626595
 30
0.0
 11
929.0514768661196
 21
962.5160074487197
 31
0.0
  0
LINE
  5
1378
330
1F
100
AcDbEntity
  8
SANINDUSA
100
AcDbLine
 10
929.0645195938774
 20
962.5010770549319
 30
0.0
 11
929.0515875251513
 21
962.5010798422891
 31
0.0
  0
LINE
  5
137B
330
1F
100
AcDbEntity
  8
SANINDUSA
100
AcDbLine
 10
929.1307894586397
 20
962.4840813334889
 30
0.0
 11
929.1388079118528
 21
962.4840813334889
 31
0.0
  0
ARC
  5
137D
330
1F
100
AcDbEntity
  8
SANINDUSA
100
AcDbCircle
 10
929.2892970745104
 20
962.5390813334888
 30
0.0
 40
0.085
100
AcDbArc
 50
202.9321004375908
 51
270.0
  0
LINE
  5
1384
330
1F
100
AcDbEntity
  8
SANINDUSA
100
AcDbLine
 10
929.3087897070776
 20
962.4440813334889
 30
0.0
 11
929.2892970745104
 21
962.4440813334889
 31
0.0
  0
LINE
  5
1385
330
1F
100
AcDbEntity
  8
SANINDUSA
100
AcDbLine
 10
929.3087897070776
 20
962.4540813334888
 30
0.0
 11
929.2892970745104
 21
962.4540813334888
 31
0.0
  0
LINE
  5
1387
330
1F
100
AcDbEntity
  8
SANINDUSA
100
AcDbLine
 10
929.3057620489674
 20
962.5140813334889
 30
0.0
 11
929.2954200275563
 21
962.5140813334889
 31
0.0
  0
LINE
  5
138A
330
1F
100
AcDbEntity
  8
SANINDUSA
100
AcDbLine
 10
929.1085876943341
 20
962.6681051362668
 30
0.0
 11
929.2051867595983
 21
962.6704051140112
 31
0.0
  0
LINE
  5
138D
330
1F
100
AcDbEntity
  8
SANINDUSA
100
AcDbLine
 10
929.1073737526589
 20
962.6770787835525
 30
0.0
 11
929.1073737526589
 21
962.5770838834252
 31
0.0
  0
LINE
  5
1390
330
1F
100
AcDbEntity
  8
SANINDUSA
100
AcDbLine
 10
929.158220945035
 20
962.5748729525811
 30
0.0
 11
929.1083496665548
 21
962.5760603639735
 31
0.0
  0
LINE
  5
1391
330
1F
100
AcDbEntity
  8
SANINDUSA
100
AcDbLine
 10
929.1584589728143
 20
962.5848701193186
 30
0.0
 11
929.1085876943341
 21
962.5860575307109
 31
0.0
  0
LINE
  5
1394
330
1F
100
AcDbEntity
  8
SANINDUSA
100
AcDbLine
 10
929.1075641748825
 20
962.5850816168151
 30
0.0
 11
929.1073737526589
 21
962.5770838834252
 31
0.0
  0
ARC
  5
1395
330
1F
100
AcDbEntity
  8
SANINDUSA
100
AcDbCircle
 10
929.076324131376
 20
962.5268174872044
 30
0.0
 40
0.002
100
AcDbArc
 50
353.6598082540818
 51
96.34019174591816
  0
ARC
  5
1398
330
1F
100
AcDbEntity
  8
SANINDUSA
100
AcDbCircle
 10
929.1083734693327
 20
962.5770600806472
 30
0.0
 40
0.0009999999999999
100
AcDbArc
 50
178.6360724683874
 51
268.6360724683875
  0
ARC
  5
1399
330
1F
100
AcDbEntity
  8
SANINDUSA
100
AcDbCircle
 10
929.1085638915562
 20
962.5850578140372
 30
0.0
 40
0.0010000000000002
100
AcDbArc
 50
88.63607246841347
 51
178.6360724684135
  0
ARC
  5
139B
330
1F
100
AcDbEntity
  8
SANINDUSA
100
AcDbCircle
 10
929.1577448894759
 20
962.5548786191062
 30
0.0
 40
0.0300000000000001
100
AcDbArc
 50
22.93210043759085
 51
88.63607246838745
  0
ARC
  5
139F
330
1F
100
AcDbEntity
  8
SANINDUSA
100
AcDbCircle
 10
929.1577448894759
 20
962.5548786191062
 30
0.0
 40
0.0200000000000003
100
AcDbArc
 50
22.93210043759085
 51
88.63607246838745
  0
LINE
  5
13A9
330
1F
100
AcDbEntity
  8
SANINDUSA
100
AcDbLine
 10
929.1083496665548
 20
962.6781023030043
 30
0.0
 11
929.1850246354925
 21
962.6799278975028
 31
0.0
  0
LINE
  5
13AA
330
1F
100
AcDbEntity
  8
SANINDUSA
100
AcDbLine
 10
929.1797356392871
 20
962.7346594437327
 30
0.0
 11
929.1045879776604
 21
962.7345813334889
 31
0.0
  0
LINE
  5
13AB
330
1F
100
AcDbEntity
  8
SANINDUSA
100
AcDbLine
 10
929.0655530728475
 20
962.7245470326249
 30
0.0
 11
929.1790818319592
 21
962.7228936011203
 31
0.0
  0
ARC
  5
13BB
330
1F
100
AcDbEntity
  8
SANINDUSA
100
AcDbCircle
 10
929.1085638915562
 20
962.6691048529405
 30
0.0
 40
0.0010000000000002
100
AcDbArc
 50
181.3639275315865
 51
271.3639275315865
  0
LINE
  5
13BC
330
1F
100
AcDbEntity
  8
SANINDUSA
100
AcDbLine
 10
929.1073737526589
 20
962.6770787835525
 30
0.0
 11
929.1075641748825
 21
962.6690810501626
 31
0.0
  0
ARC
  5
13BD
330
1F
100
AcDbEntity
  8
SANINDUSA
100
AcDbCircle
 10
929.1083734693327
 20
962.6771025863305
 30
0.0
 40
0.001
100
AcDbArc
 50
91.36392753161258
 51
181.3639275317559
  0
LINE
  5
13BE
330
1F
100
AcDbEntity
  8
SANINDUSA
100
AcDbLine
 10
929.0645879776604
 20
962.7345813334889
 30
0.0
 11
929.0925879776605
 21
962.7345813334889
 31
0.0
  0
ARC
  5
13BF
330
1F
100
AcDbEntity
  8
SANINDUSA
100
AcDbCircle
 10
929.0645879776604
 20
962.7335813334889
 30
0.0
 40
0.0009999999999999
100
AcDbArc
 50
90.0
 51
180.0
  0
ARC
  5
13C0
330
1F
100
AcDbEntity
  8
SANINDUSA
100
AcDbCircle
 10
929.0655879776604
 20
962.7265467280151
 30
0.0
 40
0.0019999999999999
100
AcDbArc
 50
180.0
 51
268.9999999999983
  0
LINE
  5
13C2
330
1F
100
AcDbEntity
  8
SANINDUSA
100
AcDbLine
 10
929.0635879776605
 20
962.7335813334889
 30
0.0
 11
929.0635879776605
 21
962.7265467280151
 31
0.0
  0
ARC
  5
13C3
330
1F
100
AcDbEntity
  8
SANINDUSA
100
AcDbCircle
 10
929.1045879776604
 20
962.7355813334888
 30
0.0
 40
0.001
100
AcDbArc
 50
180.0
 51
270.0
  0
ARC
  5
13C4
330
1F
100
AcDbEntity
  8
SANINDUSA
100
AcDbCircle
 10
929.0925879776605
 20
962.7355813334888
 30
0.0
 40
0.0010000000000002
100
AcDbArc
 50
270.0
 51
0.0
  0
LINE
  5
13C5
330
1F
100
AcDbEntity
  8
SANINDUSA
100
AcDbLine
 10
929.0935879776604
 20
962.7435813334889
 30
0.0
 11
929.0935879776604
 21
962.7355813334888
 31
0.0
  0
ARC
  5
13C6
330
1F
100
AcDbEntity
  8
SANINDUSA
100
AcDbCircle
 10
929.0945879776604
 20
962.7435813334889
 30
0.0
 40
0.0009999999999999
100
AcDbArc
 50
90.0
 51
180.0
  0
LINE
  5
13C7
330
1F
100
AcDbEntity
  8
SANINDUSA
100
AcDbLine
 10
929.1025879776604
 20
962.7445813334889
 30
0.0
 11
929.0945879776604
 21
962.7445813334889
 31
0.0
  0
ARC
  5
13C8
330
1F
100
AcDbEntity
  8
SANINDUSA
100
AcDbCircle
 10
929.1025879776604
 20
962.7435813334889
 30
0.0
 40
0.0010000000000002
100
AcDbArc
 50
0.0
 51
90.0
  0
LINE
  5
13C9
330
1F
100
AcDbEntity
  8
SANINDUSA
100
AcDbLine
 10
929.1035879776604
 20
962.7435813334889
 30
0.0
 11
929.1035879776604
 21
962.7355813334888
 31
0.0
  0
ARC
  5
13CA
330
1F
100
AcDbEntity
  8
SANINDUSA
100
AcDbCircle
 10
929.3535473760954
 20
962.7725081429895
 30
0.0
 40
0.1778833729756311
100
AcDbArc
 50
197.3751886031092
 51
206.0748137480779
  0
ARC
  5
13D1
330
1F
100
AcDbEntity
  8
SANINDUSA
100
AcDbCircle
 10
929.1847866077132
 20
962.6899250642402
 30
0.0
 40
0.01
100
AcDbArc
 50
271.3639275315995
 51
26.07481374807784
  0
ARC
  5
13D3
330
1F
100
AcDbEntity
  8
SANINDUSA
100
AcDbCircle
 10
929.17900901974
 20
962.7178941313102
 30
0.0
 40
0.005
100
AcDbArc
 50
17.37518860310922
 51
89.16560393621038
  0
ARC
  5
13D7
330
1F
100
AcDbEntity
  8
SANINDUSA
100
AcDbCircle
 10
929.3535473760954
 20
962.7725081429895
 30
0.0
 40
0.1778833729756311
100
AcDbArc
 50
215.8473632458024
 51
239.3348118923744
  0
LINE
  5
13D8
330
1F
100
AcDbEntity
  8
SANINDUSA
100
AcDbLine
 10
929.2555127307817
 20
962.6412755235477
 30
0.0
 11
929.2530618134243
 21
962.6380120299222
 31
0.0
  0
LWPOLYLINE
  5
13DA
330
1F
100
AcDbEntity
  8
SANINDUSA
100
AcDbPolyline
 90
        5
 70
   128
 43
0.0
 10
929.2931604911306
 20
962.6365620511155
 10
929.2863167383323
 20
962.6378437977466
 10
929.279450860834
 20
962.6389725440194
 10
929.2741215552528
 20
962.6397272572113
 10
929.2689735541925
 20
962.6403397486607
  0
ARC
  5
13DE
330
1F
100
AcDbEntity
  8
SANINDUSA
100
AcDbCircle
 10
929.2398944248876
 20
962.59501316008
 30
0.0
 40
0.0430479863689707
100
AcDbArc
 50
14.77630223552182
 51
40.20233047632266
  0
ARC
  5
13E1
330
1F
100
AcDbEntity
  8
SANINDUSA
100
AcDbCircle
 10
929.2576922940343
 20
962.6109162424157
 30
0.0
 40
0.0100000000000048
100
AcDbArc
 50
39.10863431232257
 51
59.12989787146749
  0
ARC
  5
13E2
330
1F
100
AcDbEntity
  8
SANINDUSA
100
AcDbCircle
 10
929.2422223180423
 20
962.5969805377932
 30
0.0
 40
0.0400000917504214
100
AcDbArc
 50
40.202337953827
 51
59.03079858620343
  0
ARC
  5
13E3
330
1F
100
AcDbEntity
  8
SANINDUSA
100
AcDbCircle
 10
929.242119856196
 20
962.59825696839
 30
0.0
 40
0.030068832529183
100
AcDbArc
 50
14.77630223552182
 51
39.10863431232257
  0
ARC
  5
13E6
330
1F
100
AcDbEntity
  8
SANINDUSA
100
AcDbCircle
 10
929.205305773488
 20
962.6654065306425
 30
0.0
 40
0.005
100
AcDbArc
 50
35.84736324580243
 51
91.36392753161258
  0
LWPOLYLINE
  5
13E7
330
1F
100
AcDbEntity
  8
SANINDUSA
100
AcDbPolyline
 90
        7
 70
   128
 43
0.0
 10
929.2689735541925
 20
962.6403397486607
 10
929.2642500148858
 20
962.6407823023528
 10
929.259732597648
 20
962.6410849878016
 10
929.2575811138361
 20
962.6412004523864
 10
929.2565429030503
 20
962.6412427248263
 10
929.2555350113509
 20
962.6412748981296
 10
929.2555127307817
 20
962.6412755235477
  0
LWPOLYLINE
  5
13E8
330
1F
100
AcDbEntity
  8
SANINDUSA
100
AcDbPolyline
 90
        4
 70
   128
 43
0.0
 10
929.4365944255455
 20
962.4940813334889
 10
929.4365621478871
 20
962.5477328857469
 10
929.4365176999898
 20
962.5814114218526
 10
929.4364544848615
 20
962.6150899384029
  0
LWPOLYLINE
  5
13E9
330
1F
100
AcDbEntity
  8
SANINDUSA
100
AcDbPolyline
 90
       18
 70
   128
 43
0.0
 10
929.4464663442393
 20
962.6197749932332
 10
929.4465584563308
 20
962.5565920946014
 10
929.4465939649779
 20
962.4950807562218
 42
0.4140444939994919
 10
929.447593964811
 20
962.4940813334916
 10
929.464503455323
 20
962.4940813334889
 42
0.2275036372196589
 10
929.4652835296712
 20
962.4944556466573
 10
929.4754882902378
 20
962.5071784203269
 10
929.4854731214266
 20
962.5206762267326
 10
929.4949778994405
 20
962.5346423753171
 10
929.5039249452994
 20
962.5489722266911
 10
929.5127421678657
 20
962.5644527671049
 10
929.5209112544482
 20
962.5802848792083
 10
929.5284667227816
 20
962.5965553944395
 10
929.5353372992206
 20
962.6131267556687
 10
929.5415696603184
 20
962.6301431638896
 10
929.5470798541019
 20
962.6474069492337
 10
929.5518888576664
 20
962.665014218026
 10
929.5594946518617
 20
962.6983660083414
  0
LINE
  5
13EB
330
1F
100
AcDbEntity
  8
SANINDUSA
100
AcDbLine
 10
929.3861377259268
 20
962.4840813334889
 30
0.0
 11
929.4385952076794
 21
962.4840813334889
 31
0.0
  0
LINE
  5
13EC
330
1F
100
AcDbEntity
  8
SANINDUSA
100
AcDbLine
 10
929.4687185146363
 20
962.4840813334889
 30
0.0
 11
929.4385952076794
 21
962.4840813334889
 31
0.0
  0
LINE
  5
13ED
330
1F
100
AcDbEntity
  8
SANINDUSA
100
AcDbLine
 10
929.4365944255455
 20
962.4940813334889
 30
0.0
 11
929.4365952066321
 21
962.486081268514
 31
0.0
  0
ARC
  5
13EE
330
1F
100
AcDbEntity
  8
SANINDUSA
100
AcDbCircle
 10
929.4385952072495
 20
962.4860813341074
 30
0.0
 40
0.0020000006185412
100
AcDbArc
 50
180.0
 51
270.0000123144499
  0
ARC
  5
13EF
330
1F
100
AcDbEntity
  8
SANINDUSA
100
AcDbCircle
 10
929.4687185146363
 20
962.4860813334889
 30
0.0
 40
0.0020000000000004
100
AcDbArc
 50
270.000000000026
 51
319.9974576575886
  0
ARC
  5
13F0
330
1F
100
AcDbEntity
  8
SANINDUSA
100
AcDbCircle
 10
929.424892677679
 20
962.7692330820753
 30
0.0
 40
0.1501517612126121
100
AcDbArc
 50
278.5889341250694
 51
332.1358862575594
  0
LINE
  5
13F4
330
1F
100
AcDbEntity
  8
SANINDUSA
100
AcDbLine
 10
929.4324442910321
 20
962.6190813334888
 30
0.0
 11
929.4236234681747
 21
962.6190813334888
 31
0.0
  0
LINE
  5
13F6
330
1F
100
AcDbEntity
  8
SANINDUSA
100
AcDbLine
 10
929.4137046515277
 20
962.6103529766487
 30
0.0
 11
929.4030184652228
 21
962.5270007234702
 31
0.0
  0
LINE
  5
13F7
330
1F
100
AcDbEntity
  8
SANINDUSA
100
AcDbLine
 10
929.403785834881
 20
962.6116246198085
 30
0.0
 11
929.3930996485761
 21
962.52827236663
 31
0.0
  0
LWPOLYLINE
  5
13FB
330
1F
100
AcDbEntity
  8
SANINDUSA
100
AcDbPolyline
 90
       12
 70
   128
 43
0.0
 10
929.4203280407765
 20
962.6290813334888
 10
929.4175389196171
 20
962.6291267363079
 10
929.4141741482516
 20
962.6292481906064
 10
929.4102904423551
 20
962.6294235651464
 10
929.4058690393953
 20
962.6296347176923
 10
929.40098939841
 20
962.6298620886027
 10
929.3957342353506
 20
962.6300871559982
 10
929.3901412779501
 20
962.6302942749573
 10
929.3842651424123
 20
962.6304726432772
 10
929.3782047516552
 20
962.6306113700866
 10
929.3728355598828
 20
962.6306932860384
 10
929.3674109645943
 20
962.6307371675048
  0
ARC
  5
13FF
330
1F
100
AcDbEntity
  8
SANINDUSA
100
AcDbCircle
 10
929.4236234681747
 20
962.6090813334888
 30
0.0
 40
0.01
100
AcDbArc
 50
90.0
 51
172.6942404666792
  0
LINE
  5
1401
330
1F
100
AcDbEntity
  8
SANINDUSA
100
AcDbLine
 10
929.4249521687721
 20
962.6290813334888
 30
0.0
 11
929.4236234681747
 21
962.6290813334888
 31
0.0
  0
ARC
  5
1403
330
1F
100
AcDbEntity
  8
SANINDUSA
100
AcDbCircle
 10
929.4236234681747
 20
962.6090813334888
 30
0.0
 40
0.02
100
AcDbArc
 50
90.0
 51
172.6942404666792
  0
ARC
  5
1404
330
1F
100
AcDbEntity
  8
SANINDUSA
100
AcDbCircle
 10
929.4474663431767
 20
962.619776451096
 30
0.0
 40
0.001
100
AcDbArc
 50
98.58893412508198
 51
180.0835294116434
  0
LWPOLYLINE
  5
1405
330
1F
100
AcDbEntity
  8
SANINDUSA
100
AcDbPolyline
 90
        6
 70
   128
 43
0.0
 10
929.4364544848615
 20
962.6150899384029
 10
929.4362264524139
 20
962.6164110829678
 10
929.4355741038335
 20
962.6175822940719
 10
929.4345703266658
 20
962.6184730434392
 10
929.4333258716902
 20
962.618983510433
 10
929.4324442910321
 20
962.6190813334888
  0
ARC
  5
1406
330
1F
100
AcDbEntity
  8
SANINDUSA
100
AcDbCircle
 10
929.5585196825269
 20
962.6985883477132
 30
0.0
 40
0.001
100
AcDbArc
 50
347.1535271874591
 51
152.1358862575594
  0
LINE
  5
140C
330
1F
100
AcDbEntity
  8
SANINDUSA
100
AcDbLine
 10
929.537353415842
 20
962.7590813334888
 30
0.0
 11
929.2085752703869
 21
962.7590813334888
 31
0.0
  0
LINE
  5
140E
330
1F
100
AcDbEntity
  8
SANINDUSA
100
AcDbLine
 10
929.2079643431145
 20
962.8040813334889
 30
0.0
 11
929.5379643431145
 21
962.8040813334889
 31
0.0
  0
LINE
  5
140F
330
1F
100
AcDbEntity
  8
SANINDUSA
100
AcDbLine
 10
929.2024445480597
 20
962.7690813334888
 30
0.0
 11
929.186185879552
 21
962.7690813334888
 31
0.0
  0
LINE
  5
1410
330
1F
100
AcDbEntity
  8
SANINDUSA
100
AcDbLine
 10
929.2020430815663
 20
962.7940813334888
 30
0.0
 11
929.1735783488995
 21
962.7940813334888
 31
0.0
  0
LINE
  5
1411
330
1F
100
AcDbEntity
  8
SANINDUSA
100
AcDbLine
 10
929.2085752703869
 20
962.7590813334888
 30
0.0
 11
929.1873380714086
 21
962.7590813334888
 31
0.0
  0
LINE
  5
1414
330
1F
100
AcDbEntity
  8
SANINDUSA
100
AcDbLine
 10
929.1045879776604
 20
962.7920813334888
 30
0.0
 11
929.1672537935792
 21
962.7920813334888
 31
0.0
  0
LINE
  5
1415
330
1F
100
AcDbEntity
  8
SANINDUSA
100
AcDbLine
 10
929.0925879776605
 20
962.7895813334887
 30
0.0
 11
929.0645879776604
 21
962.7895813334887
 31
0.0
  0
ARC
  5
1416
330
1F
100
AcDbEntity
  8
SANINDUSA
100
AcDbCircle
 10
929.0645879776604
 20
962.7905813334889
 30
0.0
 40
0.0009999999999999
100
AcDbArc
 50
215.6853347126745
 51
270.0
  0
ARC
  5
1417
330
1F
100
AcDbEntity
  8
SANINDUSA
100
AcDbCircle
 10
929.0597145804881
 20
962.7870813334888
 30
0.0
 40
0.0050000000000002
100
AcDbArc
 50
35.68533471264516
 51
90.0
  0
LWPOLYLINE
  5
1422
330
1F
100
AcDbEntity
  8
SANINDUSA
100
AcDbPolyline
 90
        9
 70
   128
 43
0.0
 10
929.0635881159154
 20
962.7871312675702
 10
929.0634811805023
 20
962.7881110800121
 10
929.0631841200516
 20
962.7890508778214
 10
929.0627084779528
 20
962.7899141416579
 10
929.0620727370489
 20
962.7906673261929
 10
929.0613016014184
 20
962.7912811636392
 10
929.0604250364051
 20
962.791731801059
 10
929.0594771042043
 20
962.7920017272586
 10
929.0585894195794
 20
962.7920813333959
  0
ARC
  5
1423
330
1F
100
AcDbEntity
  8
SANINDUSA
100
AcDbCircle
 10
929.1045879776604
 20
962.7910813334889
 30
0.0
 40
0.001
100
AcDbArc
 50
90.0
 51
180.0
  0
LINE
  5
1424
330
1F
100
AcDbEntity
  8
SANINDUSA
100
AcDbLine
 10
929.1035879776604
 20
962.7910813334889
 30
0.0
 11
929.1035879776604
 21
962.7805813334889
 31
0.0
  0
ARC
  5
1425
330
1F
100
AcDbEntity
  8
SANINDUSA
100
AcDbCircle
 10
929.1025879776604
 20
962.7805813334889
 30
0.0
 40
0.0010000000000002
100
AcDbArc
 50
270.0
 51
0.0
  0
LINE
  5
1426
330
1F
100
AcDbEntity
  8
SANINDUSA
100
AcDbLine
 10
929.0945879776604
 20
962.7795813334888
 30
0.0
 11
929.1025879776604
 21
962.7795813334888
 31
0.0
  0
ARC
  5
1427
330
1F
100
AcDbEntity
  8
SANINDUSA
100
AcDbCircle
 10
929.0945879776604
 20
962.7805813334889
 30
0.0
 40
0.0010000000000001
100
AcDbArc
 50
180.0
 51
270.0
  0
LINE
  5
1428
330
1F
100
AcDbEntity
  8
SANINDUSA
100
AcDbLine
 10
929.0935879776604
 20
962.7885813334888
 30
0.0
 11
929.0935879776604
 21
962.7805813334889
 31
0.0
  0
ARC
  5
1429
330
1F
100
AcDbEntity
  8
SANINDUSA
100
AcDbCircle
 10
929.0925879776605
 20
962.7885813334888
 30
0.0
 40
0.0010000000000002
100
AcDbArc
 50
0.0
 51
90.0
  0
ARC
  5
142A
330
1F
100
AcDbEntity
  8
SANINDUSA
100
AcDbCircle
 10
929.186185879552
 20
962.7590813334888
 30
0.0
 40
0.01
100
AcDbArc
 50
90.0
 51
187.9079953487806
  0
ARC
  5
142B
330
1F
100
AcDbEntity
  8
SANINDUSA
100
AcDbCircle
 10
929.1873380714086
 20
962.7580813334889
 30
0.0
 40
0.001
100
AcDbArc
 50
90.0
 51
188.2722161471145
  0
ARC
  5
142C
330
1F
100
AcDbEntity
  8
SANINDUSA
100
AcDbCircle
 10
929.1735783488995
 20
962.7930813334888
 30
0.0
 40
0.001
100
AcDbArc
 50
90.0
 51
125.0968012275855
  0
ARC
  5
142D
330
1F
100
AcDbEntity
  8
SANINDUSA
100
AcDbCircle
 10
929.1672537935792
 20
962.8020813334888
 30
0.0
 40
0.0100000000000001
100
AcDbArc
 50
270.0
 51
305.0968012275773
  0
LINE
  5
1436
330
1F
100
AcDbEntity
  8
SANINDUSA
100
AcDbLine
 10
929.2129643431145
 20
962.7990813334887
 30
0.0
 11
929.2135752703869
 21
962.7640813334888
 31
0.0
  0
ARC
  5
1437
330
1F
100
AcDbEntity
  8
SANINDUSA
100
AcDbCircle
 10
929.2020430815663
 20
962.7930813334888
 30
0.0
 40
0.0009999999999999
100
AcDbArc
 50
0.9999999999887505
 51
90.0
  0
ARC
  5
1438
330
1F
100
AcDbEntity
  8
SANINDUSA
100
AcDbCircle
 10
929.2079643431145
 20
962.7990813334887
 30
0.0
 40
0.005
100
AcDbArc
 50
0.0
 51
90.0
  0
ARC
  5
1439
330
1F
100
AcDbEntity
  8
SANINDUSA
100
AcDbCircle
 10
929.2024445480597
 20
962.7700813334888
 30
0.0
 40
0.0009999999999999
100
AcDbArc
 50
269.9999999999739
 51
1.000000000145099
  0
ARC
  5
143A
330
1F
100
AcDbEntity
  8
SANINDUSA
100
AcDbCircle
 10
929.2085752703869
 20
962.7640813334888
 30
0.0
 40
0.005
100
AcDbArc
 50
270.0
 51
0.0
  0
LINE
  5
143B
330
1F
100
AcDbEntity
  8
SANINDUSA
100
AcDbLine
 10
929.2030429292616
 20
962.7930987858954
 30
0.0
 11
929.2034443957549
 21
962.7700987858954
 31
0.0
  0
LINE
  5
1442
330
1F
100
AcDbEntity
  8
SANINDUSA
100
AcDbLine
 10
929.5800693319316
 20
962.7590813334888
 30
0.0
 11
929.5794855513618
 21
962.7590813334888
 31
0.0
  0
LINE
  5
1443
330
1F
100
AcDbEntity
  8
SANINDUSA
100
AcDbLine
 10
929.583131435155
 20
962.8040813334889
 30
0.0
 11
929.5379643431145
 21
962.8040813334889
 31
0.0
  0
LINE
  5
1444
330
1F
100
AcDbEntity
  8
SANINDUSA
100
AcDbLine
 10
929.563600067156
 20
962.7590813334888
 30
0.0
 11
929.537353415842
 21
962.7590813334888
 31
0.0
  0
LINE
  5
1445
330
1F
100
AcDbEntity
  8
SANINDUSA
100
AcDbLine
 10
929.5329643431145
 20
962.7990813334887
 30
0.0
 11
929.532353415842
 21
962.7640813334888
 31
0.0
  0
ARC
  5
1446
330
1F
100
AcDbEntity
  8
SANINDUSA
100
AcDbCircle
 10
929.5379643431145
 20
962.7990813334887
 30
0.0
 40
0.005
100
AcDbArc
 50
90.0
 51
180.0
  0
ARC
  5
1447
330
1F
100
AcDbEntity
  8
SANINDUSA
100
AcDbCircle
 10
929.537353415842
 20
962.7640813334888
 30
0.0
 40
0.005
100
AcDbArc
 50
180.0
 51
270.0
  0
ARC
  5
1448
330
1F
100
AcDbEntity
  8
SANINDUSA
100
AcDbCircle
 10
929.563600067156
 20
962.7580813334889
 30
0.0
 40
0.001
100
AcDbArc
 50
357.4501089936639
 51
90.0
  0
ARC
  5
1449
330
1F
100
AcDbEntity
  8
SANINDUSA
100
AcDbCircle
 10
929.5766748926498
 20
962.7930813334888
 30
0.0
 40
0.001
100
AcDbArc
 50
0.0
 51
90.0
  0
LINE
  5
144A
330
1F
100
AcDbEntity
  8
SANINDUSA
100
AcDbLine
 10
929.5776748926497
 20
962.7840813334888
 30
0.0
 11
929.5768000060146
 21
962.7840813334888
 31
0.0
  0
LINE
  5
144B
330
1F
100
AcDbEntity
  8
SANINDUSA
100
AcDbLine
 10
929.5776748926497
 20
962.7840813334888
 30
0.0
 11
929.5776748926497
 21
962.7930813334888
 31
0.0
  0
ARC
  5
144C
330
1F
100
AcDbEntity
  8
SANINDUSA
100
AcDbCircle
 10
929.5438856046628
 20
962.7930813334888
 30
0.0
 40
0.0010000000000005
100
AcDbArc
 50
90.0
 51
178.9999999999852
  0
LINE
  5
144D
330
1F
100
AcDbEntity
  8
SANINDUSA
100
AcDbLine
 10
929.5766748926498
 20
962.7940813334888
 30
0.0
 11
929.5438856046628
 21
962.7940813334888
 31
0.0
  0
ARC
  5
144F
330
1F
100
AcDbEntity
  8
SANINDUSA
100
AcDbCircle
 10
929.5794855513618
 20
962.7540813334888
 30
0.0
 40
0.0050000000000007
100
AcDbArc
 50
90.0
 51
177.9810591572274
  0
ARC
  5
1450
330
1F
100
AcDbEntity
  8
SANINDUSA
100
AcDbCircle
 10
929.5745713448877
 20
962.7700813334888
 30
0.0
 40
0.0009999999999999
100
AcDbArc
 50
270.0
 51
355.0000000000002
  0
LINE
  5
1451
330
1F
100
AcDbEntity
  8
SANINDUSA
100
AcDbLine
 10
929.5745713448877
 20
962.7690813334888
 30
0.0
 11
929.5649741157866
 21
962.7690813334888
 31
0.0
  0
ARC
  5
1452
330
1F
100
AcDbEntity
  8
SANINDUSA
100
AcDbCircle
 10
929.5434841381693
 20
962.7700813334888
 30
0.0
 40
0.0010000000000005
100
AcDbArc
 50
178.9999999999982
 51
270.0
  0
LINE
  5
1453
330
1F
100
AcDbEntity
  8
SANINDUSA
100
AcDbLine
 10
929.5649741157866
 20
962.7690813334888
 30
0.0
 11
929.5434841381693
 21
962.7690813334888
 31
0.0
  0
LINE
  5
1455
330
1F
100
AcDbEntity
  8
SANINDUSA
100
AcDbLine
 10
929.5755675395856
 20
962.7699941777462
 30
0.0
 11
929.5768000060146
 21
962.7840813334888
 31
0.0
  0
LINE
  5
1456
330
1F
100
AcDbEntity
  8
SANINDUSA
100
AcDbLine
 10
929.5424842904742
 20
962.7700987858954
 30
0.0
 11
929.5428857569675
 21
962.7930987858954
 31
0.0
  0
ARC
  5
1457
330
1F
100
AcDbEntity
  8
SANINDUSA
100
AcDbCircle
 10
929.5829314351552
 20
962.7990813334887
 30
0.0
 40
0.0050000000000003
100
AcDbArc
 50
355.0000000000002
 51
90.0
  0
LINE
  5
1458
330
1F
100
AcDbEntity
  8
SANINDUSA
100
AcDbLine
 10
929.5850503054222
 20
962.7636455547751
 30
0.0
 11
929.5879124086456
 21
962.7986455547752
 31
0.0
  0
ARC
  5
1459
330
1F
100
AcDbEntity
  8
SANINDUSA
100
AcDbCircle
 10
929.5800693319316
 20
962.7640813334888
 30
0.0
 40
0.005
100
AcDbArc
 50
270.0
 51
354.9999999999609
  0
LINE
  5
539E
330
1F
100
AcDbEntity
  8
SANINDUSA
100
AcDbLine
 10
927.7539032298861
 20
962.7991747514354
 30
0.0
 11
927.7539032298861
 21
962.8020813334888
 31
0.0
  0
ARC
  5
539F
330
1F
100
AcDbEntity
  8
SANINDUSA
100
AcDbCircle
 10
927.7559032298862
 20
962.8020813334888
 30
0.0
 40
0.002
100
AcDbArc
 50
90.0
 51
180.0
  0
ARC
  5
53A0
330
1F
100
AcDbEntity
  8
SANINDUSA
100
AcDbCircle
 10
927.788903229886
 20
962.7595813334888
 30
0.0
 40
0.0050000000000001
100
AcDbArc
 50
90.0
 51
180.0
  0
LWPOLYLINE
  5
53A1
330
1F
100
AcDbEntity
  8
SANINDUSA
100
AcDbPolyline
 90
       10
 70
   128
 43
0.0
 10
927.8286312525535
 20
962.7645813334888
 10
927.8294981549059
 20
962.7645050842174
 10
927.8303388891313
 20
962.7642786619833
 10
927.8311278130804
 20
962.763908972599
 10
927.8318408648027
 20
962.7634072914828
 10
927.8324562964288
 20
962.7627889197626
 10
927.832955337473
 20
962.7620727175958
 10
927.8333227673291
 20
962.7612805289398
 10
927.8335473794935
 20
962.7604365153175
 10
927.8336223233607
 20
962.7595664188985
  0
LINE
  5
53A2
330
1F
100
AcDbEntity
  8
SANINDUSA
100
AcDbLine
 10
927.8336223233607
 20
962.7595664188985
 30
0.0
 11
927.8336223233607
 21
962.7566999249147
 31
0.0
  0
LWPOLYLINE
  5
53A3
330
1F
100
AcDbEntity
  8
SANINDUSA
100
AcDbPolyline
 90
       10
 70
   128
 43
0.0
 10
927.8339155347591
 20
962.7595664188985
 10
927.8338384228794
 20
962.7604365153175
 10
927.8336115054591
 20
962.7612805289398
 10
927.8332417034137
 20
962.7620727175958
 10
927.8327402955975
 20
962.7627889197626
 10
927.832122574803
 20
962.7634072914828
 10
927.8314073813344
 20
962.763908972599
 10
927.830616528384
 20
962.7642786619833
 10
927.8297741367364
 20
962.7645050842174
 10
927.8289058990916
 20
962.7645813334888
  0
LINE
  5
53A4
330
1F
100
AcDbEntity
  8
SANINDUSA
100
AcDbLine
 10
927.8312375093813
 20
962.7545813334888
 30
0.0
 11
927.7859032298861
 21
962.7545813334888
 31
0.0
  0
LINE
  5
53A5
330
1F
100
AcDbEntity
  8
SANINDUSA
100
AcDbLine
 10
927.8286312525533
 20
962.7645813334888
 30
0.0
 11
927.788903229886
 21
962.7645813334888
 31
0.0
  0
LWPOLYLINE
  5
53A6
330
1F
100
AcDbEntity
  8
SANINDUSA
100
AcDbPolyline
 90
        3
 70
   128
 43
0.0
 10
927.9116551051407
 20
962.7986455547752
 10
927.9138745607502
 20
962.7821064381318
 10
927.916540062902
 20
962.7624561300017
  0
LWPOLYLINE
  5
53A7
330
1F
100
AcDbEntity
  8
SANINDUSA
100
AcDbPolyline
 90
        9
 70
   128
 43
0.0
 10
927.9203108070079
 20
962.7584866211021
 10
927.9197265027958
 20
962.7587295161834
 10
927.9191509470354
 20
962.7590635673016
 10
927.9185967443483
 20
962.7594814587659
 10
927.9180760317256
 20
962.7599740387895
 10
927.9176002127282
 20
962.7605305199123
 10
927.9171797077518
 20
962.7611387152457
 10
927.9168237258184
 20
962.7617853053649
 10
927.916540062902
 20
962.7624561300017
  0
LWPOLYLINE
  5
53A8
330
1F
100
AcDbEntity
  8
SANINDUSA
100
AcDbPolyline
 90
        9
 70
   128
 43
0.0
 10
927.9236312449478
 20
962.7539256369116
 10
927.9236366287976
 20
962.7549228010593
 10
927.9236574057117
 20
962.7558863373945
 10
927.923692745376
 20
962.7567777398345
 10
927.9237412355016
 20
962.7575613850053
 10
927.923800938263
 20
962.7582059558672
 10
927.923869467742
 20
962.7586856932479
 10
927.9239440852748
 20
962.7589814252633
 10
927.924005632763
 20
962.7590770473112
  0
LWPOLYLINE
  5
53A9
330
1F
100
AcDbEntity
  8
SANINDUSA
100
AcDbPolyline
 90
        3
 70
   128
 43
0.0
 10
927.924005081042
 20
962.7590767498107
 10
927.9222118794491
 20
962.7589297054974
 10
927.9203108070079
 20
962.7584866211021
  0
LINE
  5
53AA
330
1F
100
AcDbEntity
  8
SANINDUSA
100
AcDbLine
 10
927.9153198180361
 20
962.8040813334889
 30
0.0
 11
927.9218878128816
 21
962.8040813334889
 31
0.0
  0
LINE
  5
53AB
330
1F
100
AcDbEntity
  8
SANINDUSA
100
AcDbLine
 10
927.9029097137106
 20
962.8040813334889
 30
0.0
 11
927.9153198180361
 21
962.8040813334889
 31
0.0
  0
LWPOLYLINE
  5
53AC
330
1F
100
AcDbEntity
  8
SANINDUSA
100
AcDbPolyline
 90
        9
 70
   128
 43
0.0
 10
927.9116551051407
 20
962.7986455547752
 10
927.9116675576934
 20
962.7996798517655
 10
927.9118363352759
 20
962.8006885308153
 10
927.9121542138245
 20
962.8016284181731
 10
927.912607587416
 20
962.8024592845269
 10
927.9131770506321
 20
962.8031455669118
 10
927.9138382291552
 20
962.8036578908846
 10
927.9145628230439
 20
962.8039743278163
 10
927.9153198180361
 20
962.8040813334889
  0
LINE
  5
53AD
330
1F
100
AcDbEntity
  8
SANINDUSA
100
AcDbLine
 10
927.7559032298862
 20
962.8040813334889
 30
0.0
 11
927.9029097137106
 21
962.8040813334889
 31
0.0
  0
ARC
  5
53AE
330
1F
100
AcDbEntity
  8
SANINDUSA
100
AcDbCircle
 10
927.7859032298861
 20
962.7015813334889
 30
0.0
 40
0.0019999999999999
100
AcDbArc
 50
180.0
 51
270.0
  0
LWPOLYLINE
  5
53AF
330
1F
100
AcDbEntity
  8
SANINDUSA
100
AcDbPolyline
 90
        9
 70
   128
 43
0.0
 10
927.831261303436
 20
962.699581333489
 10
927.8316489743719
 20
962.6996196175795
 10
927.8320218036787
 20
962.6997330041801
 10
927.8323655179253
 20
962.6999171523877
 10
927.8326669583242
 20
962.7001650122554
 10
927.8329145845034
 20
962.7004670946938
 10
927.8330989163206
 20
962.7008118347514
 10
927.8332128967994
 20
962.7011860343683
 10
927.8332521623008
 20
962.7015753676529
  0
LWPOLYLINE
  5
53B0
330
1F
100
AcDbEntity
  8
SANINDUSA
100
AcDbPolyline
 90
        9
 70
   128
 43
0.0
 10
927.8332521623008
 20
962.7015753676529
 10
927.8333249836965
 20
962.7015015170183
 10
927.8333946768377
 20
962.7012826920728
 10
927.8334586682827
 20
962.7009269729969
 10
927.8335145951272
 20
962.7004474948304
 10
927.8335603922553
 20
962.6998619624565
 10
927.8335943685926
 20
962.6991919968441
 10
927.8336152695526
 20
962.6984623366858
 10
927.8336223233607
 20
962.6976999249146
  0
LINE
  5
53B1
330
1F
100
AcDbEntity
  8
SANINDUSA
100
AcDbLine
 10
927.7859032298861
 20
962.699581333489
 30
0.0
 11
927.831261303436
 21
962.699581333489
 31
0.0
  0
ARC
  5
53B2
330
1F
100
AcDbEntity
  8
SANINDUSA
100
AcDbCircle
 10
927.788903229886
 20
962.694581333489
 30
0.0
 40
0.0049999999999994
100
AcDbArc
 50
180.0
 51
270.0
  0
LWPOLYLINE
  5
53B3
330
1F
100
AcDbEntity
  8
SANINDUSA
100
AcDbPolyline
 90
        9
 70
   128
 43
0.0
 10
927.8336223233607
 20
962.6945664188985
 10
927.8335257984663
 20
962.6935930856877
 10
927.8332422319323
 20
962.6926575866452
 10
927.8327824798456
 20
962.6917957365014
 10
927.8321641433967
 20
962.6910405304053
 10
927.8314108950343
 20
962.690420880736
 10
927.8305515721873
 20
962.689960510217
 10
927.8296190732493
 20
962.6896770437157
 10
927.8286490980944
 20
962.689581333489
  0
LWPOLYLINE
  5
53B4
330
1F
100
AcDbEntity
  8
SANINDUSA
100
AcDbPolyline
 90
        9
 70
   128
 43
0.0
 10
927.828947538687
 20
962.689581333489
 10
927.8299185775951
 20
962.6896770437157
 10
927.8308516440946
 20
962.689960510217
 10
927.8317110165827
 20
962.690420880736
 10
927.8324637947655
 20
962.6910405304053
 10
927.8330811592145
 20
962.6917957365014
 10
927.833539474693
 20
962.6926575866452
 10
927.8338211950099
 20
962.6935930856877
 10
927.8339155347591
 20
962.6945664188985
  0
LINE
  5
53B5
330
1F
100
AcDbEntity
  8
SANINDUSA
100
AcDbLine
 10
927.788903229886
 20
962.689581333489
 30
0.0
 11
927.8286490980944
 21
962.689581333489
 31
0.0
  0
LINE
  5
53B6
330
1F
100
AcDbEntity
  8
SANINDUSA
100
AcDbLine
 10
927.8336223233607
 20
962.6976999249146
 30
0.0
 11
927.8336223233607
 21
962.6945664188985
 31
0.0
  0
LINE
  5
53B7
330
1F
100
AcDbEntity
  8
SANINDUSA
100
AcDbLine
 10
927.7539032298861
 20
962.4861124390553
 30
0.0
 11
927.7539032298861
 21
962.7991747514354
 31
0.0
  0
LINE
  5
53B8
330
1F
100
AcDbEntity
  8
SANINDUSA
100
AcDbLine
 10
927.8339155347591
 20
962.6945664188985
 30
0.0
 11
927.8339155347591
 21
962.7595664188985
 31
0.0
  0
LINE
  5
53B9
330
1F
100
AcDbEntity
  8
SANINDUSA
100
AcDbLine
 10
927.783903229886
 20
962.7595813334888
 30
0.0
 11
927.783903229886
 21
962.694581333489
 31
0.0
  0
LWPOLYLINE
  5
53BA
330
1F
100
AcDbEntity
  8
SANINDUSA
100
AcDbPolyline
 90
        9
 70
   128
 43
0.0
 10
927.8312375093813
 20
962.7545813334888
 10
927.8316266364413
 20
962.7545427584285
 10
927.8320007529012
 20
962.7544285212826
 10
927.8323454271966
 20
962.7542430287562
 10
927.8326473634951
 20
962.7539934362344
 10
927.8328949145862
 20
962.7536893717641
 10
927.8330785311714
 20
962.7533425646502
 10
927.8331911302299
 20
962.7529663929983
 10
927.8332283682461
 20
962.7525753676527
  0
LWPOLYLINE
  5
53BB
330
1F
100
AcDbEntity
  8
SANINDUSA
100
AcDbPolyline
 90
       10
 70
   128
 43
0.0
 10
927.8336223233607
 20
962.7566999249147
 10
927.8336162872063
 20
962.755990080309
 10
927.833598369474
 20
962.7552987296702
 10
927.8335691363302
 20
962.7546477183631
 10
927.8335295114866
 20
962.7540576171071
 10
927.8334807470129
 20
962.753547071979
 10
927.8334243837736
 20
962.7531322152339
 10
927.8333622027398
 20
962.7528261555559
 10
927.8332961687143
 20
962.7526385638484
 10
927.8332283682461
 20
962.7525753676527
  0
ARC
  5
53BC
330
1F
100
AcDbEntity
  8
SANINDUSA
100
AcDbCircle
 10
927.7859032298861
 20
962.7525813334889
 30
0.0
 40
0.002
100
AcDbArc
 50
90.0
 51
180.0
  0
LWPOLYLINE
  5
53BD
330
1F
100
AcDbEntity
  8
SANINDUSA
100
AcDbPolyline
 90
       31
 70
   128
 43
0.0
 10
928.0696483161005
 20
962.4851698616609
 10
928.0659309691229
 20
962.485879266487
 10
928.0606769097859
 20
962.4872822055518
 10
928.0557665504442
 20
962.4889543435749
 10
928.0508590860916
 20
962.4909743180447
 10
928.0459545167277
 20
962.4933421289615
 10
928.0410528423528
 20
962.4960577763253
 10
928.0339895334698
 20
962.5005841591427
 10
928.0270080712897
 20
962.5057848608459
 10
928.020402231467
 20
962.5113971472806
 10
928.014244382078
 20
962.5172838914323
 10
928.0082648701604
 20
962.5236621184518
 10
927.9992995312911
 20
962.5344177175829
 10
927.9907670040413
 20
962.5459418083439
 10
927.9828094387976
 20
962.5579195484894
 10
927.9756635450286
 20
962.5698117889886
 10
927.9688941774365
 20
962.5822272543667
 10
927.9625013360213
 20
962.5951659446236
 10
927.9551049030221
 20
962.6119232923722
 10
927.9484260134539
 20
962.6291967838021
 10
927.9425322047146
 20
962.6467689424851
 10
927.9374110549445
 20
962.6646139707828
 10
927.9330627579581
 20
962.6826923158644
 10
927.9291938635346
 20
962.702709446029
 10
927.9262470289021
 20
962.7230119638333
 10
927.9256315317752
 20
962.7283317061381
 10
927.9250852792664
 20
962.7336158394768
 10
927.9246087425253
 20
962.7388613127608
 10
927.9242013317267
 20
962.7441634223204
 10
927.9238825415056
 20
962.7492028937854
 10
927.9236312433489
 20
962.7539256682805
  0
LINE
  5
53BE
330
1F
100
AcDbEntity
  8
SANINDUSA
100
AcDbLine
 10
928.3089276608711
 20
962.7986455547752
 30
0.0
 11
928.3058655576478
 21
962.7636455547751
 31
0.0
  0
ARC
  5
53BF
330
1F
100
AcDbEntity
  8
SANINDUSA
100
AcDbCircle
 10
928.3008845841573
 20
962.7640813334888
 30
0.0
 40
0.0050000000000001
100
AcDbArc
 50
281.5041199972764
 51
355.0000000000002
  0
ARC
  5
53C0
330
1F
100
AcDbEntity
  8
SANINDUSA
100
AcDbCircle
 10
928.3039466873807
 20
962.7990813334887
 30
0.0
 40
0.005
100
AcDbArc
 50
355.0000000000002
 51
90.0
  0
ARC
  5
53C1
330
1F
100
AcDbEntity
  8
SANINDUSA
100
AcDbCircle
 10
928.302878968136
 20
962.7542822298286
 30
0.0
 40
0.005
100
AcDbArc
 50
101.504119997264
 51
176.1035784330877
  0
LINE
  5
53C2
330
1F
100
AcDbEntity
  8
SANINDUSA
100
AcDbLine
 10
928.2525443783024
 20
962.7590813334888
 30
0.0
 11
928.3014758986233
 21
962.7590813334888
 31
0.0
  0
LINE
  5
53C3
330
1F
100
AcDbEntity
  8
SANINDUSA
100
AcDbLine
 10
928.3034466873807
 20
962.8040813334889
 30
0.0
 11
928.2546713777987
 21
962.8040813334889
 31
0.0
  0
ARC
  5
53C4
330
1F
100
AcDbEntity
  8
SANINDUSA
100
AcDbCircle
 10
927.8238718787704
 20
962.7869076015965
 30
0.0
 40
0.4751168675909446
100
AcDbArc
 50
320.5155611162506
 51
356.1035784330877
  0
LINE
  5
53C5
330
1F
100
AcDbEntity
  8
SANINDUSA
100
AcDbLine
 10
928.2525443783024
 20
962.7590813334888
 30
0.0
 11
927.9244143590526
 21
962.7590813334888
 31
0.0
  0
LINE
  5
53C6
330
1F
100
AcDbEntity
  8
SANINDUSA
100
AcDbLine
 10
927.9218878128816
 20
962.8040813334889
 30
0.0
 11
928.2546713777987
 21
962.8040813334889
 31
0.0
  0
LWPOLYLINE
  5
53C7
330
1F
100
AcDbEntity
  8
SANINDUSA
100
AcDbPolyline
 90
       17
 70
   128
 43
0.0
 10
927.9321526598119
 20
962.4840813334889
 10
927.9337935311369
 20
962.4818405243237
 10
927.9374616457863
 20
962.4772810160262
 10
927.9414035267491
 20
962.4729560009425
 10
927.9456042170739
 20
962.4688818897768
 10
927.9500477777913
 20
962.4650741412098
 10
927.9547173483917
 20
962.4615472032456
 10
927.959595210801
 20
962.4583144583882
 10
927.9646628566087
 20
962.4553881728646
 10
927.9699010572963
 20
962.4527794500824
 10
927.9752899371969
 20
962.4504981884989
 10
927.9808090489114
 20
962.4485530440621
 10
927.9864374508928
 20
962.4469513973679
 10
927.9921537869066
 20
962.4456993256552
 10
927.9979363670644
 20
962.4448015797463
 10
928.0037632501224
 20
962.4442615660203
 10
928.0096123267361
 20
962.4440813334889
  0
LINE
  5
53C8
330
1F
100
AcDbEntity
  8
SANINDUSA
100
AcDbLine
 10
928.0816447184999
 20
962.4840813334889
 30
0.0
 11
927.754903229886
 21
962.4840813334889
 31
0.0
  0
LINE
  5
53C9
330
1F
100
AcDbEntity
  8
SANINDUSA
100
AcDbLine
 10
928.1777189699743
 20
962.4840813334889
 30
0.0
 11
928.0816447182754
 21
962.4840813334889
 31
0.0
  0
LINE
  5
53CA
330
1F
100
AcDbEntity
  8
SANINDUSA
100
AcDbLine
 10
928.1890337668619
 20
962.4840813334889
 30
0.0
 11
928.1777189699743
 21
962.4840813334889
 31
0.0
  0
ARC
  5
53CB
330
1F
100
AcDbEntity
  8
SANINDUSA
100
AcDbCircle
 10
928.1890337668619
 20
962.4860813334889
 30
0.0
 40
0.0020000000000002
100
AcDbArc
 50
270.0
 51
319.9974576575627
  0
LWPOLYLINE
  5
53CC
330
1F
100
AcDbEntity
  8
SANINDUSA
100
AcDbPolyline
 90
       17
 70
   128
 43
0.0
 10
928.0291049593033
 20
962.4440813334889
 10
928.0350624495124
 20
962.4442683158678
 10
928.0409964882332
 20
962.4448285269538
 10
928.0468837162935
 20
962.4457597614924
 10
928.0527009587903
 20
962.4470583537053
 10
928.058425316316
 20
962.4487191917223
 10
928.0640342551027
 20
962.4507357377018
 10
928.0695056957247
 20
962.4531000535693
 10
928.074818100014
 20
962.4558028322633
 10
928.0799505558443
 20
962.4588334343737
 10
928.0848828594512
 20
962.4621799300225
 10
928.0895955949645
 20
962.4658291458265
 10
928.0940702108363
 20
962.4697667167529
 10
928.0982890928708
 20
962.4739771426673
 10
928.1022356335602
 20
962.4784438493497
 10
928.1058942974615
 20
962.4831492537381
 10
928.1065263639698
 20
962.4840274862165
  0
LINE
  5
53CD
330
1F
100
AcDbEntity
  8
SANINDUSA
100
AcDbLine
 10
928.0096123267361
 20
962.4440813334889
 30
0.0
 11
928.0291049593033
 21
962.4440813334889
 31
0.0
  0
ARC
  5
53CE
330
1F
100
AcDbEntity
  8
SANINDUSA
100
AcDbCircle
 10
927.754903229886
 20
962.4850813334889
 30
0.0
 40
0.0009999999999999
100
AcDbArc
 50
180.0
 51
270.0
  0
LINE
  5
53CF
330
1F
100
AcDbEntity
  8
SANINDUSA
100
AcDbLine
 10
927.7539032298861
 20
962.4850813334889
 30
0.0
 11
927.7539032298861
 21
962.4861124390553
 31
0.0
  0
ENDSEC
  0
SECTION
  2
OBJECTS
  0
DICTIONARY
  5
C
330
0
100
AcDbDictionary
281
     1
  3
ACAD_COLOR
350
5401
  3
ACAD_GROUP
350
D
  3
ACAD_LAYOUT
350
1A
  3
ACAD_MATERIAL
350
53D4
  3
ACAD_MLEADERSTYLE
350
5416
  3
ACAD_MLINESTYLE
350
17
  3
ACAD_PLOTSETTINGS
350
19
  3
ACAD_PLOTSTYLENAME
350
E
  3
ACAD_SCALELIST
350
5404
  3
ACAD_TABLESTYLE
350
5402
  3
ACAD_VISUALSTYLE
350
53ED
  3
ACDB_RECOMPOSE_DATA
350
5445
  3
AcDbVariableDictionary
350
3D
  3
ASE_INDEX_DICTIONARY
350
53D0
  3
DWGPROPS
350
5446
  0
DICTIONARY
  5
541D
330
10
100
AcDbDictionary
280
     1
281
     1
  3
ADSK_XREC_LAYER_RECONCILED
360
541E
  0
DICTIONARY
  5
541F
330
2F
100
AcDbDictionary
280
     1
281
     1
  3
ADSK_XREC_LAYER_RECONCILED
360
5420
  0
DICTIONARY
  5
5421
330
30
100
AcDbDictionary
280
     1
281
     1
  3
ADSK_XREC_LAYER_RECONCILED
360
5422
  0
DICTIONARY
  5
5423
330
31
100
AcDbDictionary
280
     1
281
     1
  3
ADSK_XREC_LAYER_RECONCILED
360
5424
  0
DICTIONARY
  5
5425
330
32
100
AcDbDictionary
280
     1
281
     1
  3
ADSK_XREC_LAYER_RECONCILED
360
5426
  0
DICTIONARY
  5
5427
330
33
100
AcDbDictionary
280
     1
281
     1
  3
ADSK_XREC_LAYER_RECONCILED
360
5428
  0
DICTIONARY
  5
5429
330
34
100
AcDbDictionary
280
     1
281
     1
  3
ADSK_XREC_LAYER_RECONCILED
360
542A
  0
DICTIONARY
  5
542B
330
35
100
AcDbDictionary
280
     1
281
     1
  3
ADSK_XREC_LAYER_RECONCILED
360
542C
  0
DICTIONARY
  5
542D
330
36
100
AcDbDictionary
280
     1
281
     1
  3
ADSK_XREC_LAYER_RECONCILED
360
542E
  0
DICTIONARY
  5
542F
330
37
100
AcDbDictionary
280
     1
281
     1
  3
ADSK_XREC_LAYER_RECONCILED
360
5430
  0
DICTIONARY
  5
5431
330
5D6
100
AcDbDictionary
280
     1
281
     1
  3
ADSK_XREC_LAYER_RECONCILED
360
5432
  0
DICTIONARY
  5
5433
330
8AF
100
AcDbDictionary
280
     1
281
     1
  3
ADSK_XREC_LAYER_RECONCILED
360
5434
  0
DICTIONARY
  5
5435
330
8F8
100
AcDbDictionary
280
     1
281
     1
  3
ADSK_XREC_LAYER_RECONCILED
360
5436
  0
DICTIONARY
  5
5437
330
91D
100
AcDbDictionary
280
     1
281
     1
  3
ADSK_XREC_LAYER_RECONCILED
360
5438
  0
DICTIONARY
  5
5439
330
DE3
100
AcDbDictionary
280
     1
281
     1
  3
ADSK_XREC_LAYER_RECONCILED
360
543A
  0
DICTIONARY
  5
543B
330
186C
100
AcDbDictionary
280
     1
281
     1
  3
ADSK_XREC_LAYER_RECONCILED
360
543C
  0
DICTIONARY
  5
5401
102
{ACAD_REACTORS
330
C
102
}
330
C
100
AcDbDictionary
281
     1
  0
DICTIONARY
  5
D
102
{ACAD_REACTORS
330
C
102
}
330
C
100
AcDbDictionary
281
     1
  0
DICTIONARY
  5
1A
102
{ACAD_REACTORS
330
C
102
}
330
C
100
AcDbDictionary
281
     1
  3
Layout1
350
1E
  3
Layout2
350
26
  3
Model
350
22
  0
DICTIONARY
  5
53D4
102
{ACAD_REACTORS
330
C
102
}
330
C
100
AcDbDictionary
281
     1
  3
ByBlock
350
53DD
  3
ByLayer
350
53D5
  3
Global
350
53E5
  0
DICTIONARY
  5
5416
102
{ACAD_REACTORS
330
C
102
}
330
C
100
AcDbDictionary
281
     1
  3
Standard
350
5417
  0
DICTIONARY
  5
17
102
{ACAD_REACTORS
330
C
102
}
330
C
100
AcDbDictionary
281
     1
  3
Standard
350
18
  0
DICTIONARY
  5
19
102
{ACAD_REACTORS
330
C
102
}
330
C
100
AcDbDictionary
281
     1
  0
ACDBDICTIONARYWDFLT
  5
E
102
{ACAD_REACTORS
330
C
102
}
330
C
100
AcDbDictionary
281
     1
  3
Normal
350
F
100
AcDbDictionaryWithDefault
340
F
  0
DICTIONARY
  5
5404
102
{ACAD_REACTORS
330
C
102
}
330
C
100
AcDbDictionary
281
     1
  3
A0
350
5405
  3
A1
350
5406
  3
A2
350
5407
  3
A3
350
5408
  3
A4
350
5409
  3
A5
350
540A
  3
A6
350
540B
  3
A7
350
540C
  3
A8
350
540D
  3
A9
350
540E
  3
B0
350
540F
  3
B1
350
5410
  3
B2
350
5411
  3
B3
350
5412
  3
B4
350
5413
  3
B5
350
5414
  3
B6
350
5415
  0
DICTIONARY
  5
5402
102
{ACAD_REACTORS
330
C
102
}
330
C
100
AcDbDictionary
281
     1
  3
Standard
350
5403
  0
DICTIONARY
  5
53ED
102
{ACAD_REACTORS
330
C
102
}
330
C
100
AcDbDictionary
281
     1
  3
2dWireframe
350
53F3
  3
3D Hidden
350
53F5
  3
3dWireframe
350
53F4
  3
Basic
350
53F2
  3
Brighten
350
53F9
  3
ColorChange
350
53FD
  3
Conceptual
350
53F6
  3
Dim
350
53F8
  3
EdgeColorOff
350
5400
  3
Facepattern
350
53FC
  3
Flat
350
53EE
  3
FlatWithEdges
350
53EF
  3
Gouraud
350
53F0
  3
GouraudWithEdges
350
53F1
  3
JitterOff
350
53FE
  3
Linepattern
350
53FB
  3
OverhangOff
350
53FF
  3
Realistic
350
53F7
  3
Thicken
350
53FA
  0
XRECORD
  5
5445
102
{ACAD_REACTORS
330
C
102
}
330
C
100
AcDbXrecord
280
     1
 90
        1
330
5403
  0
DICTIONARY
  5
3D
102
{ACAD_REACTORS
330
C
102
}
330
C
100
AcDbDictionary
281
     1
  3
CANNOSCALE
350
543F
  3
CMLEADERSTYLE
350
543E
  3
CTABLESTYLE
350
543D
  3
DIMASSOC
350
3F
  3
HIDETEXT
350
3E
  3
INDEXCTL
350
5441
  3
SORTENTS
350
5440
  3
XCLIPFRAME
350
5442
  0
DICTIONARY
  5
53D0
102
{ACAD_REACTORS
330
C
102
}
330
C
100
AcDbDictionary
281
     1
  3
ASEBlockHierarchyIndexRecord
350
53D1
1001
DCO15
1040
1757682009.187
  0
XRECORD
  5
5446
102
{ACAD_REACTORS
330
C
102
}
330
C
100
AcDbXrecord
280
     1
  1
DWGPROPS COOKIE
  2

  3

  4

  6

  7

  8
Julio
  9

300
=
301
=
302
=
303
=
304
=
305
=
306
=
307
=
308
=
309
=
 40
0.0023743171296296
 41
2453480.605194769
 42
2456146.75362485
  1

 90
        0
  0
XRECORD
  5
541E
102
{ACAD_REACTORS
330
541D
102
}
330
541D
100
AcDbXrecord
280
     1
290
     1
  0
XRECORD
  5
5420
102
{ACAD_REACTORS
330
541F
102
}
330
541F
100
AcDbXrecord
280
     1
290
     1
  0
XRECORD
  5
5422
102
{ACAD_REACTORS
330
5421
102
}
330
5421
100
AcDbXrecord
280
     1
290
     1
  0
XRECORD
  5
5424
102
{ACAD_REACTORS
330
5423
102
}
330
5423
100
AcDbXrecord
280
     1
290
     1
  0
XRECORD
  5
5426
102
{ACAD_REACTORS
330
5425
102
}
330
5425
100
AcDbXrecord
280
     1
290
     1
  0
XRECORD
  5
5428
102
{ACAD_REACTORS
330
5427
102
}
330
5427
100
AcDbXrecord
280
     1
290
     1
  0
XRECORD
  5
542A
102
{ACAD_REACTORS
330
5429
102
}
330
5429
100
AcDbXrecord
280
     1
290
     1
  0
XRECORD
  5
542C
102
{ACAD_REACTORS
330
542B
102
}
330
542B
100
AcDbXrecord
280
     1
290
     1
  0
XRECORD
  5
542E
102
{ACAD_REACTORS
330
542D
102
}
330
542D
100
AcDbXrecord
280
     1
290
     1
  0
XRECORD
  5
5430
102
{ACAD_REACTORS
330
542F
102
}
330
542F
100
AcDbXrecord
280
     1
290
     1
  0
XRECORD
  5
5432
102
{ACAD_REACTORS
330
5431
102
}
330
5431
100
AcDbXrecord
280
     1
290
     1
  0
XRECORD
  5
5434
102
{ACAD_REACTORS
330
5433
102
}
330
5433
100
AcDbXrecord
280
     1
290
     1
  0
XRECORD
  5
5436
102
{ACAD_REACTORS
330
5435
102
}
330
5435
100
AcDbXrecord
280
     1
290
     1
  0
XRECORD
  5
5438
102
{ACAD_REACTORS
330
5437
102
}
330
5437
100
AcDbXrecord
280
     1
290
     1
  0
XRECORD
  5
543A
102
{ACAD_REACTORS
330
5439
102
}
330
5439
100
AcDbXrecord
280
     1
290
     1
  0
XRECORD
  5
543C
102
{ACAD_REACTORS
330
543B
102
}
330
543B
100
AcDbXrecord
280
     1
290
     1
  0
LAYOUT
  5
1E
102
{ACAD_XDICTIONARY
360
5447
102
}
102
{ACAD_REACTORS
330
1A
102
}
330
1A
100
AcDbPlotSettings
  1

  2
Ploter HP500
  4

  6

 40
0.0
 41
0.0
 42
0.0
 43
0.0
 44
0.0
 45
0.0
 46
0.0
 47
0.0
 48
0.0
 49
0.0
140
0.0
141
0.0
142
1.0
143
1.0
 70
   688
 72
     0
 73
     0
 74
     5
  7
monochrome.ctb
 75
    16
147
1.0
148
0.0
149
0.0
100
AcDbLayout
  1
Layout1
 70
     1
 71
     1
 10
0.0
 20
0.0
 11
420.0
 21
297.0
 12
0.0
 22
0.0
 32
0.0
 14
1.000000000000000E+20
 24
1.000000000000000E+20
 34
1.000000000000000E+20
 15
-1.000000000000000E+20
 25
-1.000000000000000E+20
 35
-1.000000000000000E+20
146
0.0
 13
0.0
 23
0.0
 33
0.0
 16
1.0
 26
0.0
 36
0.0
 17
0.0
 27
1.0
 37
0.0
 76
     0
330
1B
  0
LAYOUT
  5
26
102
{ACAD_XDICTIONARY
360
544B
102
}
102
{ACAD_REACTORS
330
1A
102
}
330
1A
100
AcDbPlotSettings
  1

  2
Ploter HP500
  4

  6

 40
0.0
 41
0.0
 42
0.0
 43
0.0
 44
0.0
 45
0.0
 46
0.0
 47
0.0
 48
0.0
 49
0.0
140
0.0
141
0.0
142
1.0
143
1.0
 70
   688
 72
     0
 73
     0
 74
     5
  7
monochrome.ctb
 75
    16
147
1.0
148
0.0
149
0.0
100
AcDbLayout
  1
Layout2
 70
     1
 71
     2
 10
0.0
 20
0.0
 11
12.0
 21
9.0
 12
0.0
 22
0.0
 32
0.0
 14
0.0
 24
0.0
 34
0.0
 15
0.0
 25
0.0
 35
0.0
146
0.0
 13
0.0
 23
0.0
 33
0.0
 16
1.0
 26
0.0
 36
0.0
 17
0.0
 27
1.0
 37
0.0
 76
     0
330
23
  0
LAYOUT
  5
22
102
{ACAD_XDICTIONARY
360
5449
102
}
102
{ACAD_REACTORS
330
1A
102
}
330
1A
100
AcDbPlotSettings
  1

  2
Ploter HP500
  4
User268
  6

 40
4.995333194732666
 41
16.97565841674804
 42
4.995330810546875
 43
16.97567749023437
 44
209.9733276367187
 45
296.9259948730469
 46
0.0
 47
0.0
 48
0.0
 49
0.0
140
0.0
141
0.0
142
1.0
143
1.0
 70
 11952
 72
     1
 73
     1
 74
     0
  7

 75
     0
147
1.0
148
-427.5957866592534
149
7.362384574453926
100
AcDbLayout
  1
Model
 70
     1
 71
     0
 10
0.0
 20
0.0
 11
12.0
 21
9.0
 12
0.0
 22
0.0
 32
0.0
 14
0.0
 24
0.0
 34
0.0
 15
0.0
 25
0.0
 35
0.0
146
0.0
 13
0.0
 23
0.0
 33
0.0
 16
1.0
 26
0.0
 36
0.0
 17
0.0
 27
1.0
 37
0.0
 76
     0
330
1F
331
53D2
  0
MATERIAL
  5
53DD
102
{ACAD_XDICTIONARY
360
53DE
102
}
102
{ACAD_REACTORS
330
53D4
102
}
330
53D4
100
AcDbMaterial
  1
ByBlock
 72
     0
 43
0.0008202099737533
 43
0.0
 43
0.0
 43
0.0
 43
0.0
 43
0.0008202099737533
 43
0.0
 43
0.0
 43
0.0
 43
0.0
 43
1.0
 43
0.0
 43
0.0
 43
0.0
 43
0.0
 43
1.0
 77
     0
 47
0.0008202099737533
 47
0.0
 47
0.0
 47
0.0
 47
0.0
 47
0.0008202099737533
 47
0.0
 47
0.0
 47
0.0
 47
0.0
 47
1.0
 47
0.0
 47
0.0
 47
0.0
 47
0.0
 47
1.0
171
     0
 49
0.0008202099737533
 49
0.0
 49
0.0
 49
0.0
 49
0.0
 49
0.0008202099737533
 49
0.0
 49
0.0
 49
0.0
 49
0.0
 49
1.0
 49
0.0
 49
0.0
 49
0.0
 49
0.0
 49
1.0
175
     0
142
0.0008202099737533
142
0.0
142
0.0
142
0.0
142
0.0
142
0.0008202099737533
142
0.0
142
0.0
142
0.0
142
0.0
142
1.0
142
0.0
142
0.0
142
0.0
142
0.0
142
1.0
179
     0
144
0.0008202099737533
144
0.0
144
0.0
144
0.0
144
0.0
144
0.0008202099737533
144
0.0
144
0.0
144
0.0
144
0.0
144
1.0
144
0.0
144
0.0
144
0.0
144
0.0
144
1.0
147
0.0008202099737533
147
0.0
147
0.0
147
0.0
147
0.0
147
0.0008202099737533
147
0.0
147
0.0
147
0.0
147
0.0
147
1.0
147
0.0
147
0.0
147
0.0
147
0.0
147
1.0
  0
MATERIAL
  5
53D5
102
{ACAD_XDICTIONARY
360
53D6
102
}
102
{ACAD_REACTORS
330
53D4
102
}
330
53D4
100
AcDbMaterial
  1
ByLayer
 72
     0
 43
0.0008202099737533
 43
0.0
 43
0.0
 43
0.0
 43
0.0
 43
0.0008202099737533
 43
0.0
 43
0.0
 43
0.0
 43
0.0
 43
1.0
 43
0.0
 43
0.0
 43
0.0
 43
0.0
 43
1.0
 77
     0
 47
0.0008202099737533
 47
0.0
 47
0.0
 47
0.0
 47
0.0
 47
0.0008202099737533
 47
0.0
 47
0.0
 47
0.0
 47
0.0
 47
1.0
 47
0.0
 47
0.0
 47
0.0
 47
0.0
 47
1.0
171
     0
 49
0.0008202099737533
 49
0.0
 49
0.0
 49
0.0
 49
0.0
 49
0.0008202099737533
 49
0.0
 49
0.0
 49
0.0
 49
0.0
 49
1.0
 49
0.0
 49
0.0
 49
0.0
 49
0.0
 49
1.0
175
     0
142
0.0008202099737533
142
0.0
142
0.0
142
0.0
142
0.0
142
0.0008202099737533
142
0.0
142
0.0
142
0.0
142
0.0
142
1.0
142
0.0
142
0.0
142
0.0
142
0.0
142
1.0
179
     0
144
0.0008202099737533
144
0.0
144
0.0
144
0.0
144
0.0
144
0.0008202099737533
144
0.0
144
0.0
144
0.0
144
0.0
144
1.0
144
0.0
144
0.0
144
0.0
144
0.0
144
1.0
147
0.0008202099737533
147
0.0
147
0.0
147
0.0
147
0.0
147
0.0008202099737533
147
0.0
147
0.0
147
0.0
147
0.0
147
1.0
147
0.0
147
0.0
147
0.0
147
0.0
147
1.0
  0
MATERIAL
  5
53E5
102
{ACAD_XDICTIONARY
360
53E6
102
}
102
{ACAD_REACTORS
330
53D4
102
}
330
53D4
100
AcDbMaterial
  1
Global
 72
     0
 43
0.0008202099737533
 43
0.0
 43
0.0
 43
0.0
 43
0.0
 43
0.0008202099737533
 43
0.0
 43
0.0
 43
0.0
 43
0.0
 43
1.0
 43
0.0
 43
0.0
 43
0.0
 43
0.0
 43
1.0
 77
     0
 47
0.0008202099737533
 47
0.0
 47
0.0
 47
0.0
 47
0.0
 47
0.0008202099737533
 47
0.0
 47
0.0
 47
0.0
 47
0.0
 47
1.0
 47
0.0
 47
0.0
 47
0.0
 47
0.0
 47
1.0
171
     0
 49
0.0008202099737533
 49
0.0
 49
0.0
 49
0.0
 49
0.0
 49
0.0008202099737533
 49
0.0
 49
0.0
 49
0.0
 49
0.0
 49
1.0
 49
0.0
 49
0.0
 49
0.0
 49
0.0
 49
1.0
175
     0
142
0.0008202099737533
142
0.0
142
0.0
142
0.0
142
0.0
142
0.0008202099737533
142
0.0
142
0.0
142
0.0
142
0.0
142
1.0
142
0.0
142
0.0
142
0.0
142
0.0
142
1.0
179
     0
144
0.0008202099737533
144
0.0
144
0.0
144
0.0
144
0.0
144
0.0008202099737533
144
0.0
144
0.0
144
0.0
144
0.0
144
1.0
144
0.0
144
0.0
144
0.0
144
0.0
144
1.0
147
0.0008202099737533
147
0.0
147
0.0
147
0.0
147
0.0
147
0.0008202099737533
147
0.0
147
0.0
147
0.0
147
0.0
147
1.0
147
0.0
147
0.0
147
0.0
147
0.0
147
1.0
  0
MLEADERSTYLE
  5
5417
102
{ACAD_REACTORS
330
5416
102
}
330
5416
100
AcDbMLeaderStyle
170
     2
171
     1
172
     0
 90
        2
 40
0.0
 41
0.0
173
     1
 91
-1056964608
340
14
 92
       -2
290
     1
 42
2.0
291
     1
 43
0.36
  3
Standard
 44
4.0
300

342
11
174
     1
178
     6
175
     1
176
     0
 93
-1056964608
 45
4.0
292
     0
297
     0
 46
4.0
 94
-1056964608
 47
1.0
 49
1.0
140
1.0
293
     1
141
0.0
294
     1
177
     0
142
1.0
295
     0
296
     0
143
0.125
1001
ACAD_MLEADERVER
1070
     2
  0
MLINESTYLE
  5
18
102
{ACAD_REACTORS
330
17
102
}
330
17
100
AcDbMlineStyle
  2
STANDARD
 70
     0
  3

 62
   256
 51
90.0
 52
90.0
 71
     2
 49
0.5
 62
   256
  6
BYLAYER
 49
-0.5
 62
   256
  6
BYLAYER
  0
ACDBPLACEHOLDER
  5
F
102
{ACAD_REACTORS
330
E
102
}
330
E
  0
SCALE
  5
5405
102
{ACAD_REACTORS
330
5404
102
}
330
5404
100
AcDbScale
 70
     0
300
1:1
140
1.0
141
1.0
290
     1
  0
SCALE
  5
5406
102
{ACAD_REACTORS
330
5404
102
}
330
5404
100
AcDbScale
 70
     0
300
1:2
140
1.0
141
2.0
290
     0
  0
SCALE
  5
5407
102
{ACAD_REACTORS
330
5404
102
}
330
5404
100
AcDbScale
 70
     0
300
1:4
140
1.0
141
4.0
290
     0
  0
SCALE
  5
5408
102
{ACAD_REACTORS
330
5404
102
}
330
5404
100
AcDbScale
 70
     0
300
1:5
140
1.0
141
5.0
290
     0
  0
SCALE
  5
5409
102
{ACAD_REACTORS
330
5404
102
}
330
5404
100
AcDbScale
 70
     0
300
1:8
140
1.0
141
8.0
290
     0
  0
SCALE
  5
540A
102
{ACAD_REACTORS
330
5404
102
}
330
5404
100
AcDbScale
 70
     0
300
1:10
140
1.0
141
10.0
290
     0
  0
SCALE
  5
540B
102
{ACAD_REACTORS
330
5404
102
}
330
5404
100
AcDbScale
 70
     0
300
1:16
140
1.0
141
16.0
290
     0
  0
SCALE
  5
540C
102
{ACAD_REACTORS
330
5404
102
}
330
5404
100
AcDbScale
 70
     0
300
1:20
140
1.0
141
20.0
290
     0
  0
SCALE
  5
540D
102
{ACAD_REACTORS
330
5404
102
}
330
5404
100
AcDbScale
 70
     0
300
1:30
140
1.0
141
30.0
290
     0
  0
SCALE
  5
540E
102
{ACAD_REACTORS
330
5404
102
}
330
5404
100
AcDbScale
 70
     0
300
1:40
140
1.0
141
40.0
290
     0
  0
SCALE
  5
540F
102
{ACAD_REACTORS
330
5404
102
}
330
5404
100
AcDbScale
 70
     0
300
1:50
140
1.0
141
50.0
290
     0
  0
SCALE
  5
5410
102
{ACAD_REACTORS
330
5404
102
}
330
5404
100
AcDbScale
 70
     0
300
1:100
140
1.0
141
100.0
290
     0
  0
SCALE
  5
5411
102
{ACAD_REACTORS
330
5404
102
}
330
5404
100
AcDbScale
 70
     0
300
2:1
140
2.0
141
1.0
290
     0
  0
SCALE
  5
5412
102
{ACAD_REACTORS
330
5404
102
}
330
5404
100
AcDbScale
 70
     0
300
4:1
140
4.0
141
1.0
290
     0
  0
SCALE
  5
5413
102
{ACAD_REACTORS
330
5404
102
}
330
5404
100
AcDbScale
 70
     0
300
8:1
140
8.0
141
1.0
290
     0
  0
SCALE
  5
5414
102
{ACAD_REACTORS
330
5404
102
}
330
5404
100
AcDbScale
 70
     0
300
10:1
140
10.0
141
1.0
290
     0
  0
SCALE
  5
5415
102
{ACAD_REACTORS
330
5404
102
}
330
5404
100
AcDbScale
 70
     0
300
100:1
140
100.0
141
1.0
290
     0
  0
TABLESTYLE
  5
5403
102
{ACAD_XDICTIONARY
360
5443
102
}
102
{ACAD_REACTORS
330
5402
102
}
330
5402
100
AcDbTableStyle
  3
Standard
 70
     0
 71
     0
 40
1.5
 41
1.5
280
     0
281
     0
  7
Standard
140
4.5
170
     2
 62
     0
 63
     7
283
     0
274
    -2
284
     1
 64
     0
275
    -2
285
     1
 65
     0
276
    -2
286
     1
 66
     0
277
    -2
287
     1
 67
     0
278
    -2
288
     1
 68
     0
279
    -2
289
     1
 69
     0
  7
Standard
140
6.0
170
     5
 62
     0
 63
     7
283
     0
274
    -2
284
     1
 64
     0
275
    -2
285
     1
 65
     0
276
    -2
286
     1
 66
     0
277
    -2
287
     1
 67
     0
278
    -2
288
     1
 68
     0
279
    -2
289
     1
 69
     0
  7
Standard
140
4.5
170
     5
 62
     0
 63
     7
283
     0
274
    -2
284
     1
 64
     0
275
    -2
285
     1
 65
     0
276
    -2
286
     1
 66
     0
277
    -2
287
     1
 67
     0
278
    -2
288
     1
 68
     0
279
    -2
289
     1
 69
     0
  0
VISUALSTYLE
  5
53F3
102
{ACAD_XDICTIONARY
360
545E
102
}
102
{ACAD_REACTORS
330
53ED
102
}
330
53ED
100
AcDbVisualStyle
  2
2dWireframe
 70
     4
 71
     0
 72
     2
 73
     0
 90
        0
 40
-0.6
 41
-30.0
 62
     5
 63
     7
 74
     1
 91
        4
 64
     7
 65
   257
 75
     1
175
     1
 42
1.0
 92
        0
 66
   257
 43
1.0
 76
     1
 77
     6
 78
     2
 67
     7
 79
     5
170
     0
171
     0
290
     0
174
     0
 93
        1
 44
0.0
173
     0
291
     0
 45
0.0
1001
ACAD
1000
AcDbSavedByObjectVersion
1070
     0
  0
VISUALSTYLE
  5
53F5
102
{ACAD_XDICTIONARY
360
5462
102
}
102
{ACAD_REACTORS
330
53ED
102
}
330
53ED
100
AcDbVisualStyle
  2
3D Hidden
 70
     6
 71
     1
 72
     2
 73
     2
 90
        0
 40
-0.6
 41
-30.0
 62
     5
 63
     7
 74
     2
 91
        2
 64
     7
 65
   257
 75
     2
175
     1
 42
179.0
 92
        0
 66
   257
 43
1.0
 76
     1
 77
     6
 78
     2
 67
     7
 79
     3
170
     0
171
     0
290
     0
174
     0
 93
        1
 44
0.0
173
     0
291
     0
 45
0.0
1001
ACAD
1000
AcDbSavedByObjectVersion
1070
     0
  0
VISUALSTYLE
  5
53F4
102
{ACAD_XDICTIONARY
360
5460
102
}
102
{ACAD_REACTORS
330
53ED
102
}
330
53ED
100
AcDbVisualStyle
  2
3dWireframe
 70
     5
 71
     0
 72
     2
 73
     0
 90
        0
 40
-0.6
 41
-30.0
 62
     5
 63
     7
 74
     1
 91
        4
 64
     7
 65
   257
 75
     1
175
     1
 42
1.0
 92
        0
 66
   257
 43
1.0
 76
     1
 77
     6
 78
     2
 67
     7
 79
     5
170
     0
171
     0
290
     0
174
     0
 93
        1
 44
0.0
173
     0
291
     0
 45
0.0
1001
ACAD
1000
AcDbSavedByObjectVersion
1070
     0
  0
VISUALSTYLE
  5
53F2
102
{ACAD_XDICTIONARY
360
545C
102
}
102
{ACAD_REACTORS
330
53ED
102
}
330
53ED
100
AcDbVisualStyle
  2
Basic
 70
     7
 71
     1
 72
     0
 73
     1
 90
        0
 40
-0.6
 41
-30.0
 62
     5
 63
     7
 74
     0
 91
        4
 64
     7
 65
   257
 75
     1
175
     1
 42
1.0
 92
        8
 66
     7
 43
1.0
 76
     1
 77
     6
 78
     2
 67
     7
 79
     5
170
     0
171
     0
290
     0
174
     0
 93
        1
 44
0.0
173
     0
291
     1
 45
0.0
1001
ACAD
1000
AcDbSavedByObjectVersion
1070
     0
  0
VISUALSTYLE
  5
53F9
102
{ACAD_XDICTIONARY
360
546A
102
}
102
{ACAD_REACTORS
330
53ED
102
}
330
53ED
100
AcDbVisualStyle
  2
Brighten
 70
    12
 71
     2
 72
     2
 73
     0
 90
        0
 40
-0.6
 41
-30.0
 62
     5
 63
     7
 74
     1
 91
        4
 64
     7
 65
   257
 75
     1
175
     1
 42
1.0
 92
        8
 66
     7
 43
1.0
 76
     1
 77
     6
 78
     2
 67
     7
 79
     5
170
     0
171
     0
290
     0
174
     0
 93
        1
 44
50.0
173
     0
291
     1
 45
0.0
1001
ACAD
1000
AcDbSavedByObjectVersion
1070
     0
  0
VISUALSTYLE
  5
53FD
102
{ACAD_XDICTIONARY
360
5472
102
}
102
{ACAD_REACTORS
330
53ED
102
}
330
53ED
100
AcDbVisualStyle
  2
ColorChange
 70
    16
 71
     2
 72
     2
 73
     3
 90
        0
 40
-0.6
 41
-30.0
 62
     5
 63
     8
 74
     1
 91
        4
 64
     7
 65
   257
 75
     1
175
     1
 42
1.0
 92
        8
 66
     8
 43
1.0
 76
     1
 77
     6
 78
     2
 67
     7
 79
     5
170
     0
171
     0
290
     0
174
     0
 93
        1
 44
0.0
173
     0
291
     1
 45
0.0
1001
ACAD
1000
AcDbSavedByObjectVersion
1070
     0
  0
VISUALSTYLE
  5
53F6
102
{ACAD_XDICTIONARY
360
5464
102
}
102
{ACAD_REACTORS
330
53ED
102
}
330
53ED
100
AcDbVisualStyle
  2
Conceptual
 70
     9
 71
     3
 72
     2
 73
     0
 90
        0
 40
-0.6
 41
-30.0
 62
     5
 63
     7
 74
     2
 91
        2
 64
     7
 65
   257
 75
     1
175
     1
 42
179.0
 92
        8
 66
     7
 43
1.0
 76
     1
 77
     6
 78
     2
 67
     7
 79
     3
170
     0
171
     0
290
     0
174
     0
 93
        1
 44
0.0
173
     0
291
     0
 45
0.0
1001
ACAD
1000
AcDbSavedByObjectVersion
1070
     0
  0
VISUALSTYLE
  5
53F8
102
{ACAD_XDICTIONARY
360
5468
102
}
102
{ACAD_REACTORS
330
53ED
102
}
330
53ED
100
AcDbVisualStyle
  2
Dim
 70
    11
 71
     2
 72
     2
 73
     0
 90
        0
 40
-0.6
 41
-30.0
 62
     5
 63
     7
 74
     1
 91
        4
 64
     7
 65
   257
 75
     1
175
     1
 42
1.0
 92
        8
 66
     7
 43
1.0
 76
     1
 77
     6
 78
     2
 67
     7
 79
     5
170
     0
171
     0
290
     0
174
     0
 93
        1
 44
-50.0
173
     0
291
     1
 45
0.0
1001
ACAD
1000
AcDbSavedByObjectVersion
1070
     0
  0
VISUALSTYLE
  5
5400
102
{ACAD_XDICTIONARY
360
5478
102
}
102
{ACAD_REACTORS
330
53ED
102
}
330
53ED
100
AcDbVisualStyle
  2
EdgeColorOff
 70
    22
 71
     2
 72
     2
 73
     0
 90
        0
 40
-0.6
 41
-30.0
 62
     5
 63
     7
 74
     1
 91
        4
 64
     7
 65
   257
 75
     1
175
     1
 42
1.0
 92
        8
 66
     7
 43
1.0
 76
     1
 77
     6
 78
     2
 67
     7
 79
     5
170
     0
171
     0
290
     0
174
     0
 93
        1
 44
0.0
173
     0
291
     1
 45
0.0
1001
ACAD
1000
AcDbSavedByObjectVersion
1070
     0
  0
VISUALSTYLE
  5
53FC
102
{ACAD_XDICTIONARY
360
5470
102
}
102
{ACAD_REACTORS
330
53ED
102
}
330
53ED
100
AcDbVisualStyle
  2
Facepattern
 70
    15
 71
     2
 72
     2
 73
     0
 90
        0
 40
-0.6
 41
-30.0
 62
     5
 63
     7
 74
     1
 91
        4
 64
     7
 65
   257
 75
     1
175
     1
 42
1.0
 92
        8
 66
     7
 43
1.0
 76
     1
 77
     6
 78
     2
 67
     7
 79
     5
170
     0
171
     0
290
     0
174
     0
 93
        1
 44
0.0
173
     0
291
     1
 45
0.0
1001
ACAD
1000
AcDbSavedByObjectVersion
1070
     0
  0
VISUALSTYLE
  5
53EE
102
{ACAD_XDICTIONARY
360
5454
102
}
102
{ACAD_REACTORS
330
53ED
102
}
330
53ED
100
AcDbVisualStyle
  2
Flat
 70
     0
 71
     2
 72
     1
 73
     1
 90
        2
 40
-0.6
 41
30.0
 62
     5
 63
     7
 74
     0
 91
        4
 64
     7
 65
   257
 75
     1
175
     1
 42
1.0
 92
        8
 66
     7
 43
1.0
 76
     1
 77
     6
 78
     2
 67
     7
 79
     5
170
     0
171
     0
290
     0
174
     0
 93
       13
 44
0.0
173
     0
291
     1
 45
0.0
1001
ACAD
1000
AcDbSavedByObjectVersion
1070
     0
  0
VISUALSTYLE
  5
53EF
102
{ACAD_XDICTIONARY
360
5456
102
}
102
{ACAD_REACTORS
330
53ED
102
}
330
53ED
100
AcDbVisualStyle
  2
FlatWithEdges
 70
     1
 71
     2
 72
     1
 73
     1
 90
        2
 40
-0.6
 41
30.0
 62
     5
 63
     7
 74
     1
 91
        4
 64
     7
 65
   257
 75
     1
175
     1
 42
1.0
 92
        0
 66
   257
 43
1.0
 76
     1
 77
     6
 78
     2
 67
     7
 79
     5
170
     0
171
     0
290
     0
174
     0
 93
       13
 44
0.0
173
     0
291
     1
 45
0.0
1001
ACAD
1000
AcDbSavedByObjectVersion
1070
     0
  0
VISUALSTYLE
  5
53F0
102
{ACAD_XDICTIONARY
360
5458
102
}
102
{ACAD_REACTORS
330
53ED
102
}
330
53ED
100
AcDbVisualStyle
  2
Gouraud
 70
     2
 71
     2
 72
     2
 73
     1
 90
        2
 40
-0.6
 41
30.0
 62
     5
 63
     7
 74
     0
 91
        4
 64
     7
 65
   257
 75
     1
175
     1
 42
1.0
 92
        0
 66
     7
 43
1.0
 76
     1
 77
     6
 78
     2
 67
     7
 79
     5
170
     0
171
     0
290
     0
174
     0
 93
       13
 44
0.0
173
     0
291
     1
 45
0.0
1001
ACAD
1000
AcDbSavedByObjectVersion
1070
     0
  0
VISUALSTYLE
  5
53F1
102
{ACAD_XDICTIONARY
360
545A
102
}
102
{ACAD_REACTORS
330
53ED
102
}
330
53ED
100
AcDbVisualStyle
  2
GouraudWithEdges
 70
     3
 71
     2
 72
     2
 73
     1
 90
        2
 40
-0.6
 41
30.0
 62
     5
 63
     7
 74
     1
 91
        4
 64
     7
 65
   257
 75
     1
175
     1
 42
1.0
 92
        0
 66
   257
 43
1.0
 76
     1
 77
     6
 78
     2
 67
     7
 79
     5
170
     0
171
     0
290
     0
174
     0
 93
       13
 44
0.0
173
     0
291
     1
 45
0.0
1001
ACAD
1000
AcDbSavedByObjectVersion
1070
     0
  0
VISUALSTYLE
  5
53FE
102
{ACAD_XDICTIONARY
360
5474
102
}
102
{ACAD_REACTORS
330
53ED
102
}
330
53ED
100
AcDbVisualStyle
  2
JitterOff
 70
    20
 71
     2
 72
     2
 73
     0
 90
        0
 40
-0.6
 41
-30.0
 62
     5
 63
     7
 74
     1
 91
        4
 64
     7
 65
   257
 75
     1
175
     1
 42
1.0
 92
       10
 66
     7
 43
1.0
 76
     1
 77
     6
 78
     2
 67
     7
 79
     5
170
     0
171
     0
290
     0
174
     0
 93
        1
 44
0.0
173
     0
291
     1
 45
0.0
1001
ACAD
1000
AcDbSavedByObjectVersion
1070
     0
  0
VISUALSTYLE
  5
53FB
102
{ACAD_XDICTIONARY
360
546E
102
}
102
{ACAD_REACTORS
330
53ED
102
}
330
53ED
100
AcDbVisualStyle
  2
Linepattern
 70
    14
 71
     2
 72
     2
 73
     0
 90
        0
 40
-0.6
 41
-30.0
 62
     5
 63
     7
 74
     1
 91
        4
 64
     7
 65
   257
 75
     7
175
     7
 42
1.0
 92
        8
 66
     7
 43
1.0
 76
     1
 77
     6
 78
     2
 67
     7
 79
     5
170
     0
171
     0
290
     0
174
     0
 93
        1
 44
0.0
173
     0
291
     1
 45
0.0
1001
ACAD
1000
AcDbSavedByObjectVersion
1070
     0
  0
VISUALSTYLE
  5
53FF
102
{ACAD_XDICTIONARY
360
5476
102
}
102
{ACAD_REACTORS
330
53ED
102
}
330
53ED
100
AcDbVisualStyle
  2
OverhangOff
 70
    21
 71
     2
 72
     2
 73
     0
 90
        0
 40
-0.6
 41
-30.0
 62
     5
 63
     7
 74
     1
 91
        4
 64
     7
 65
   257
 75
     1
175
     1
 42
1.0
 92
        9
 66
     7
 43
1.0
 76
     1
 77
     6
 78
     2
 67
     7
 79
     5
170
     0
171
     0
290
     0
174
     0
 93
        1
 44
0.0
173
     0
291
     1
 45
0.0
1001
ACAD
1000
AcDbSavedByObjectVersion
1070
     0
  0
VISUALSTYLE
  5
53F7
102
{ACAD_XDICTIONARY
360
5466
102
}
102
{ACAD_REACTORS
330
53ED
102
}
330
53ED
100
AcDbVisualStyle
  2
Realistic
 70
     8
 71
     2
 72
     2
 73
     0
 90
        0
 40
-0.6
 41
-30.0
 62
     5
 63
     7
 74
     1
 91
        0
 64
     7
 65
   257
 75
     1
175
     1
 42
1.0
 92
        8
 66
     8
 43
1.0
 76
     1
 77
     6
 78
     2
 67
     7
 79
     5
170
     0
171
     0
290
     0
174
     0
 93
       13
 44
0.0
173
     0
291
     0
 45
0.0
1001
ACAD
1000
AcDbSavedByObjectVersion
1070
     0
  0
VISUALSTYLE
  5
53FA
102
{ACAD_XDICTIONARY
360
546C
102
}
102
{ACAD_REACTORS
330
53ED
102
}
330
53ED
100
AcDbVisualStyle
  2
Thicken
 70
    13
 71
     2
 72
     2
 73
     0
 90
        0
 40
-0.6
 41
-30.0
 62
     5
 63
     7
 74
     1
 91
        4
 64
     7
 65
   257
 75
     1
175
     1
 42
1.0
 92
       12
 66
     7
 43
1.0
 76
     1
 77
     6
 78
     2
 67
     7
 79
     5
170
     0
171
     0
290
     0
174
     0
 93
        1
 44
0.0
173
     0
291
     1
 45
0.0
1001
ACAD
1000
AcDbSavedByObjectVersion
1070
     0
  0
DICTIONARYVAR
  5
543F
102
{ACAD_REACTORS
330
3D
102
}
330
3D
100
DictionaryVariables
280
     0
  1
1:1
  0
DICTIONARYVAR
  5
543E
102
{ACAD_REACTORS
330
3D
102
}
330
3D
100
DictionaryVariables
280
     0
  1
STANDARD
  0
DICTIONARYVAR
  5
543D
102
{ACAD_REACTORS
330
3D
102
}
330
3D
100
DictionaryVariables
280
     0
  1
STANDARD
  0
DICTIONARYVAR
  5
3F
102
{ACAD_REACTORS
330
3D
102
}
330
3D
100
DictionaryVariables
280
     0
  1
2
  0
DICTIONARYVAR
  5
3E
102
{ACAD_REACTORS
330
3D
102
}
330
3D
100
DictionaryVariables
280
     0
  1
1
  0
DICTIONARYVAR
  5
5441
102
{ACAD_REACTORS
330
3D
102
}
330
3D
100
DictionaryVariables
280
     0
  1
0
  0
DICTIONARYVAR
  5
5440
102
{ACAD_REACTORS
330
3D
102
}
330
3D
100
DictionaryVariables
280
     0
  1
127
  0
DICTIONARYVAR
  5
5442
102
{ACAD_REACTORS
330
3D
102
}
330
3D
100
DictionaryVariables
280
     0
  1
2
  0
XRECORD
  5
53D1
102
{ACAD_REACTORS
330
53D0
102
}
330
53D0
100
AcDbXrecord
280
     1
330
D0D
330
D01
330
52AE
330
528A
  0
DICTIONARY
  5
5447
330
1E
100
AcDbDictionary
280
     1
281
     1
  3
ACAD_XREC_ROUNDTRIP
360
5448
  0
DICTIONARY
  5
544B
330
26
100
AcDbDictionary
280
     1
281
     1
  3
ACAD_XREC_ROUNDTRIP
360
544C
  0
DICTIONARY
  5
5449
330
22
100
AcDbDictionary
280
     1
281
     1
  3
ACAD_XREC_ROUNDTRIP
360
544A
  0
DICTIONARY
  5
53DE
330
53DD
100
AcDbDictionary
280
     1
281
     1
  3
ACAD_XREC_ROUNDTRIP
360
5452
  3
BUMPTILE
360
53E0
  3
DIFFUSETILE
360
53DF
  3
OPACITYTILE
360
53E3
  3
REFLECTIONTILE
360
53E2
  3
REFRACTIONTILE
360
53E4
  3
SPECULARTILE
360
53E1
  0
DICTIONARY
  5
53D6
330
53D5
100
AcDbDictionary
280
     1
281
     1
  3
ACAD_XREC_ROUNDTRIP
360
5451
  3
BUMPTILE
360
53D8
  3
DIFFUSETILE
360
53D7
  3
OPACITYTILE
360
53DB
  3
REFLECTIONTILE
360
53DA
  3
REFRACTIONTILE
360
53DC
  3
SPECULARTILE
360
53D9
  0
DICTIONARY
  5
53E6
330
53E5
100
AcDbDictionary
280
     1
281
     1
  3
ACAD_XREC_ROUNDTRIP
360
5453
  3
BUMPTILE
360
53E8
  3
DIFFUSETILE
360
53E7
  3
OPACITYTILE
360
53EB
  3
REFLECTIONTILE
360
53EA
  3
REFRACTIONTILE
360
53EC
  3
SPECULARTILE
360
53E9
  0
DICTIONARY
  5
5443
330
5403
100
AcDbDictionary
280
     1
281
     1
  3
ACAD_ROUNDTRIP_2008_TABLESTYLE_CELLSTYLEMAP
360
5444
  3
ACAD_XREC_ROUNDTRIP
360
547A
  0
DICTIONARY
  5
545E
330
53F3
100
AcDbDictionary
280
     1
281
     1
  3
ACAD_XREC_ROUNDTRIP
360
545F
  0
DICTIONARY
  5
5462
330
53F5
100
AcDbDictionary
280
     1
281
     1
  3
ACAD_XREC_ROUNDTRIP
360
5463
  0
DICTIONARY
  5
5460
330
53F4
100
AcDbDictionary
280
     1
281
     1
  3
ACAD_XREC_ROUNDTRIP
360
5461
  0
DICTIONARY
  5
545C
330
53F2
100
AcDbDictionary
280
     1
281
     1
  3
ACAD_XREC_ROUNDTRIP
360
545D
  0
DICTIONARY
  5
546A
330
53F9
100
AcDbDictionary
280
     1
281
     1
  3
ACAD_XREC_ROUNDTRIP
360
546B
  0
DICTIONARY
  5
5472
330
53FD
100
AcDbDictionary
280
     1
281
     1
  3
ACAD_XREC_ROUNDTRIP
360
5473
  0
DICTIONARY
  5
5464
330
53F6
100
AcDbDictionary
280
     1
281
     1
  3
ACAD_XREC_ROUNDTRIP
360
5465
  0
DICTIONARY
  5
5468
330
53F8
100
AcDbDictionary
280
     1
281
     1
  3
ACAD_XREC_ROUNDTRIP
360
5469
  0
DICTIONARY
  5
5478
330
5400
100
AcDbDictionary
280
     1
281
     1
  3
ACAD_XREC_ROUNDTRIP
360
5479
  0
DICTIONARY
  5
5470
330
53FC
100
AcDbDictionary
280
     1
281
     1
  3
ACAD_XREC_ROUNDTRIP
360
5471
  0
DICTIONARY
  5
5454
330
53EE
100
AcDbDictionary
280
     1
281
     1
  3
ACAD_XREC_ROUNDTRIP
360
5455
  0
DICTIONARY
  5
5456
330
53EF
100
AcDbDictionary
280
     1
281
     1
  3
ACAD_XREC_ROUNDTRIP
360
5457
  0
DICTIONARY
  5
5458
330
53F0
100
AcDbDictionary
280
     1
281
     1
  3
ACAD_XREC_ROUNDTRIP
360
5459
  0
DICTIONARY
  5
545A
330
53F1
100
AcDbDictionary
280
     1
281
     1
  3
ACAD_XREC_ROUNDTRIP
360
545B
  0
DICTIONARY
  5
5474
330
53FE
100
AcDbDictionary
280
     1
281
     1
  3
ACAD_XREC_ROUNDTRIP
360
5475
  0
DICTIONARY
  5
546E
330
53FB
100
AcDbDictionary
280
     1
281
     1
  3
ACAD_XREC_ROUNDTRIP
360
546F
  0
DICTIONARY
  5
5476
330
53FF
100
AcDbDictionary
280
     1
281
     1
  3
ACAD_XREC_ROUNDTRIP
360
5477
  0
DICTIONARY
  5
5466
330
53F7
100
AcDbDictionary
280
     1
281
     1
  3
ACAD_XREC_ROUNDTRIP
360
5467
  0
DICTIONARY
  5
546C
330
53FA
100
AcDbDictionary
280
     1
281
     1
  3
ACAD_XREC_ROUNDTRIP
360
546D
  0
XRECORD
  5
5448
102
{ACAD_REACTORS
330
5447
102
}
330
5447
100
AcDbXrecord
280
     1
102
SHADEPLOT
 70
     0
102
SHADEPLOTRESLEVEL
 70
     2
102
SHADEPLOTCUSTOMDPI
 70
   300
  0
XRECORD
  5
544C
102
{ACAD_REACTORS
330
544B
102
}
330
544B
100
AcDbXrecord
280
     1
102
SHADEPLOT
 70
     0
102
SHADEPLOTRESLEVEL
 70
     2
102
SHADEPLOTCUSTOMDPI
 70
   300
  0
XRECORD
  5
544A
102
{ACAD_REACTORS
330
5449
102
}
330
5449
100
AcDbXrecord
280
     1
102
SHADEPLOT
 70
     0
102
SHADEPLOTRESLEVEL
 70
     2
102
SHADEPLOTCUSTOMDPI
 70
   300
  0
XRECORD
  5
5452
102
{ACAD_REACTORS
330
53DE
102
}
330
53DE
100
AcDbXrecord
280
     1
102
MATERIAL
148
0.0
149
0.0
149
0.0
 93
        0
 94
      127
282
     0
 72
     0
 77
     0
171
     0
175
     0
179
     0
273
     0
  0
XRECORD
  5
53E0
102
{ACAD_REACTORS
330
53DE
102
}
330
53DE
100
AcDbXrecord
280
     1
270
     1
271
     1
  0
XRECORD
  5
53DF
102
{ACAD_REACTORS
330
53DE
102
}
330
53DE
100
AcDbXrecord
280
     1
270
     1
271
     1
  0
XRECORD
  5
53E3
102
{ACAD_REACTORS
330
53DE
102
}
330
53DE
100
AcDbXrecord
280
     1
270
     1
271
     1
  0
XRECORD
  5
53E2
102
{ACAD_REACTORS
330
53DE
102
}
330
53DE
100
AcDbXrecord
280
     1
270
     1
271
     1
  0
XRECORD
  5
53E4
102
{ACAD_REACTORS
330
53DE
102
}
330
53DE
100
AcDbXrecord
280
     1
270
     1
271
     1
  0
XRECORD
  5
53E1
102
{ACAD_REACTORS
330
53DE
102
}
330
53DE
100
AcDbXrecord
280
     1
270
     1
271
     1
  0
XRECORD
  5
5451
102
{ACAD_REACTORS
330
53D6
102
}
330
53D6
100
AcDbXrecord
280
     1
102
MATERIAL
148
0.0
149
0.0
149
0.0
 93
        0
 94
      127
282
     0
 72
     0
 77
     0
171
     0
175
     0
179
     0
273
     0
  0
XRECORD
  5
53D8
102
{ACAD_REACTORS
330
53D6
102
}
330
53D6
100
AcDbXrecord
280
     1
270
     1
271
     1
  0
XRECORD
  5
53D7
102
{ACAD_REACTORS
330
53D6
102
}
330
53D6
100
AcDbXrecord
280
     1
270
     1
271
     1
  0
XRECORD
  5
53DB
102
{ACAD_REACTORS
330
53D6
102
}
330
53D6
100
AcDbXrecord
280
     1
270
     1
271
     1
  0
XRECORD
  5
53DA
102
{ACAD_REACTORS
330
53D6
102
}
330
53D6
100
AcDbXrecord
280
     1
270
     1
271
     1
  0
XRECORD
  5
53DC
102
{ACAD_REACTORS
330
53D6
102
}
330
53D6
100
AcDbXrecord
280
     1
270
     1
271
     1
  0
XRECORD
  5
53D9
102
{ACAD_REACTORS
330
53D6
102
}
330
53D6
100
AcDbXrecord
280
     1
270
     1
271
     1
  0
XRECORD
  5
5453
102
{ACAD_REACTORS
330
53E6
102
}
330
53E6
100
AcDbXrecord
280
     1
102
MATERIAL
148
0.0
149
0.0
149
0.0
 93
        0
 94
      127
282
     0
 72
     0
 77
     0
171
     0
175
     0
179
     0
273
     0
  0
XRECORD
  5
53E8
102
{ACAD_REACTORS
330
53E6
102
}
330
53E6
100
AcDbXrecord
280
     1
270
     1
271
     1
  0
XRECORD
  5
53E7
102
{ACAD_REACTORS
330
53E6
102
}
330
53E6
100
AcDbXrecord
280
     1
270
     1
271
     1
  0
XRECORD
  5
53EB
102
{ACAD_REACTORS
330
53E6
102
}
330
53E6
100
AcDbXrecord
280
     1
270
     1
271
     1
  0
XRECORD
  5
53EA
102
{ACAD_REACTORS
330
53E6
102
}
330
53E6
100
AcDbXrecord
280
     1
270
     1
271
     1
  0
XRECORD
  5
53EC
102
{ACAD_REACTORS
330
53E6
102
}
330
53E6
100
AcDbXrecord
280
     1
270
     1
271
     1
  0
XRECORD
  5
53E9
102
{ACAD_REACTORS
330
53E6
102
}
330
53E6
100
AcDbXrecord
280
     1
270
     1
271
     1
  0
CELLSTYLEMAP
  5
5444
102
{ACAD_REACTORS
330
5443
102
}
330
5443
100
AcDbCellStyleMap
 90
        3
300
CELLSTYLE
  1
TABLEFORMAT_BEGIN
 90
        5
170
     1
 91
        0
 92
    32768
 62
   257
 93
        1
300
CONTENTFORMAT
  1
CONTENTFORMAT_BEGIN
 90
        0
 91
        0
 92
      512
 93
        0
300

 40
0.0
140
1.0
 94
        5
 62
     0
340
11
144
6.0
309
CONTENTFORMAT_END
171
     1
301
MARGIN
  1
CELLMARGIN_BEGIN
 40
1.5
 40
1.5
 40
1.5
 40
1.5
 40
4.5
 40
4.5
309
CELLMARGIN_END
 94
        6
 95
        1
302
GRIDFORMAT
  1
GRIDFORMAT_BEGIN
 90
        0
 91
        1
 62
     0
 92
       -2
340
0
 93
        0
 40
1.125
309
GRIDFORMAT_END
 95
        2
302
GRIDFORMAT
  1
GRIDFORMAT_BEGIN
 90
        0
 91
        1
 62
     0
 92
       -2
340
0
 93
        0
 40
1.125
309
GRIDFORMAT_END
 95
        4
302
GRIDFORMAT
  1
GRIDFORMAT_BEGIN
 90
        0
 91
        1
 62
     0
 92
       -2
340
0
 93
        0
 40
1.125
309
GRIDFORMAT_END
 95
        8
302
GRIDFORMAT
  1
GRIDFORMAT_BEGIN
 90
        0
 91
        1
 62
     0
 92
       -2
340
0
 93
        0
 40
1.125
309
GRIDFORMAT_END
 95
       16
302
GRIDFORMAT
  1
GRIDFORMAT_BEGIN
 90
        0
 91
        1
 62
     0
 92
       -2
340
0
 93
        0
 40
1.125
309
GRIDFORMAT_END
 95
       32
302
GRIDFORMAT
  1
GRIDFORMAT_BEGIN
 90
        0
 91
        1
 62
     0
 92
       -2
340
0
 93
        0
 40
1.125
309
GRIDFORMAT_END
309
TABLEFORMAT_END
  1
CELLSTYLE_BEGIN
 90
        1
 91
        1
300
_TITLE
309
CELLSTYLE_END
300
CELLSTYLE
  1
TABLEFORMAT_BEGIN
 90
        5
170
     1
 91
        0
 92
        0
 62
   257
 93
        1
300
CONTENTFORMAT
  1
CONTENTFORMAT_BEGIN
 90
        0
 91
        0
 92
      512
 93
        0
300

 40
0.0
140
1.0
 94
        5
 62
     0
340
11
144
4.5
309
CONTENTFORMAT_END
171
     1
301
MARGIN
  1
CELLMARGIN_BEGIN
 40
1.5
 40
1.5
 40
1.5
 40
1.5
 40
4.5
 40
4.5
309
CELLMARGIN_END
 94
        6
 95
        1
302
GRIDFORMAT
  1
GRIDFORMAT_BEGIN
 90
        0
 91
        1
 62
     0
 92
       -2
340
0
 93
        0
 40
1.125
309
GRIDFORMAT_END
 95
        2
302
GRIDFORMAT
  1
GRIDFORMAT_BEGIN
 90
        0
 91
        1
 62
     0
 92
       -2
340
0
 93
        0
 40
1.125
309
GRIDFORMAT_END
 95
        4
302
GRIDFORMAT
  1
GRIDFORMAT_BEGIN
 90
        0
 91
        1
 62
     0
 92
       -2
340
0
 93
        0
 40
1.125
309
GRIDFORMAT_END
 95
        8
302
GRIDFORMAT
  1
GRIDFORMAT_BEGIN
 90
        0
 91
        1
 62
     0
 92
       -2
340
0
 93
        0
 40
1.125
309
GRIDFORMAT_END
 95
       16
302
GRIDFORMAT
  1
GRIDFORMAT_BEGIN
 90
        0
 91
        1
 62
     0
 92
       -2
340
0
 93
        0
 40
1.125
309
GRIDFORMAT_END
 95
       32
302
GRIDFORMAT
  1
GRIDFORMAT_BEGIN
 90
        0
 91
        1
 62
     0
 92
       -2
340
0
 93
        0
 40
1.125
309
GRIDFORMAT_END
309
TABLEFORMAT_END
  1
CELLSTYLE_BEGIN
 90
        2
 91
        1
300
_HEADER
309
CELLSTYLE_END
300
CELLSTYLE
  1
TABLEFORMAT_BEGIN
 90
        5
170
     1
 91
        0
 92
        0
 62
   257
 93
        1
300
CONTENTFORMAT
  1
CONTENTFORMAT_BEGIN
 90
        0
 91
        0
 92
      512
 93
        0
300

 40
0.0
140
1.0
 94
        2
 62
     0
340
11
144
4.5
309
CONTENTFORMAT_END
171
     1
301
MARGIN
  1
CELLMARGIN_BEGIN
 40
1.5
 40
1.5
 40
1.5
 40
1.5
 40
4.5
 40
4.5
309
CELLMARGIN_END
 94
        6
 95
        1
302
GRIDFORMAT
  1
GRIDFORMAT_BEGIN
 90
        0
 91
        1
 62
     0
 92
       -2
340
0
 93
        0
 40
1.125
309
GRIDFORMAT_END
 95
        2
302
GRIDFORMAT
  1
GRIDFORMAT_BEGIN
 90
        0
 91
        1
 62
     0
 92
       -2
340
0
 93
        0
 40
1.125
309
GRIDFORMAT_END
 95
        4
302
GRIDFORMAT
  1
GRIDFORMAT_BEGIN
 90
        0
 91
        1
 62
     0
 92
       -2
340
0
 93
        0
 40
1.125
309
GRIDFORMAT_END
 95
        8
302
GRIDFORMAT
  1
GRIDFORMAT_BEGIN
 90
        0
 91
        1
 62
     0
 92
       -2
340
0
 93
        0
 40
1.125
309
GRIDFORMAT_END
 95
       16
302
GRIDFORMAT
  1
GRIDFORMAT_BEGIN
 90
        0
 91
        1
 62
     0
 92
       -2
340
0
 93
        0
 40
1.125
309
GRIDFORMAT_END
 95
       32
302
GRIDFORMAT
  1
GRIDFORMAT_BEGIN
 90
        0
 91
        1
 62
     0
 92
       -2
340
0
 93
        0
 40
1.125
309
GRIDFORMAT_END
309
TABLEFORMAT_END
  1
CELLSTYLE_BEGIN
 90
        3
 91
        2
300
_DATA
309
CELLSTYLE_END
  0
XRECORD
  5
547A
102
{ACAD_REACTORS
330
5443
102
}
330
5443
100
AcDbXrecord
280
     1
102
ACAD_ROUNDTRIP_PRE2007_TABLESTYLE
 90
      512
 91
        0
  1

 92
      512
 93
        0
  2

 94
      512
 95
        0
  3

  0
XRECORD
  5
545F
102
{ACAD_REACTORS
330
545E
102
}
330
545E
100
AcDbXrecord
280
     1
102
RTVSPropertyOp0
 70
     1
102
RTVSPropertyOp1
 70
     1
102
RTVSPropertyOp2
 70
     1
102
RTVSPropertyOp3
 70
     1
102
RTVSPropertyOp4
 70
     1
102
RTVSPropertyOp5
 70
     1
102
RTVSPropertyOp6
 70
     1
102
RTVSPropertyOp7
 70
     1
102
RTVSPropertyOp8
 70
     1
102
RTVSPropertyOp9
 70
     1
102
RTVSPropertyOp10
 70
     1
102
RTVSPropertyOp11
 70
     1
102
RTVSPropertyOp12
 70
     1
102
RTVSPropertyOp13
 70
     1
102
RTVSPropertyOp14
 70
     1
102
RTVSPropertyOp15
 70
     1
102
RTVSPropertyOp16
 70
     1
102
RTVSPropertyOp17
 70
     1
102
RTVSPropertyOp18
 70
     1
102
RTVSPropertyOp19
 70
     1
102
RTVSPropertyOp20
 70
     1
102
RTVSPropertyOp21
 70
     1
102
RTVSPropertyOp22
 70
     1
102
RTVSPropertyOp23
 70
     1
102
RTVSPropertyOp24
 70
     1
102
RTVSPropertyOp25
 70
     1
102
RTVSPropertyOp26
 70
     1
102
RTVSPropertyOp27
 70
     1
  0
XRECORD
  5
5463
102
{ACAD_REACTORS
330
5462
102
}
330
5462
100
AcDbXrecord
280
     1
102
RTVSPropertyOp0
 70
     1
102
RTVSPropertyOp1
 70
     1
102
RTVSPropertyOp2
 70
     1
102
RTVSPropertyOp3
 70
     1
102
RTVSPropertyOp4
 70
     1
102
RTVSPropertyOp5
 70
     1
102
RTVSPropertyOp6
 70
     1
102
RTVSPropertyOp7
 70
     1
102
RTVSPropertyOp8
 70
     1
102
RTVSPropertyOp9
 70
     1
102
RTVSPropertyOp10
 70
     1
102
RTVSPropertyOp11
 70
     1
102
RTVSPropertyOp12
 70
     1
102
RTVSPropertyOp13
 70
     1
102
RTVSPropertyOp14
 70
     1
102
RTVSPropertyOp15
 70
     1
102
RTVSPropertyOp16
 70
     1
102
RTVSPropertyOp17
 70
     1
102
RTVSPropertyOp18
 70
     1
102
RTVSPropertyOp19
 70
     1
102
RTVSPropertyOp20
 70
     1
102
RTVSPropertyOp21
 70
     1
102
RTVSPropertyOp22
 70
     1
102
RTVSPropertyOp23
 70
     1
102
RTVSPropertyOp24
 70
     1
102
RTVSPropertyOp25
 70
     1
102
RTVSPropertyOp26
 70
     1
102
RTVSPropertyOp27
 70
     1
  0
XRECORD
  5
5461
102
{ACAD_REACTORS
330
5460
102
}
330
5460
100
AcDbXrecord
280
     1
102
RTVSPropertyOp0
 70
     1
102
RTVSPropertyOp1
 70
     1
102
RTVSPropertyOp2
 70
     1
102
RTVSPropertyOp3
 70
     1
102
RTVSPropertyOp4
 70
     1
102
RTVSPropertyOp5
 70
     1
102
RTVSPropertyOp6
 70
     1
102
RTVSPropertyOp7
 70
     1
102
RTVSPropertyOp8
 70
     1
102
RTVSPropertyOp9
 70
     1
102
RTVSPropertyOp10
 70
     1
102
RTVSPropertyOp11
 70
     1
102
RTVSPropertyOp12
 70
     1
102
RTVSPropertyOp13
 70
     1
102
RTVSPropertyOp14
 70
     1
102
RTVSPropertyOp15
 70
     1
102
RTVSPropertyOp16
 70
     1
102
RTVSPropertyOp17
 70
     1
102
RTVSPropertyOp18
 70
     1
102
RTVSPropertyOp19
 70
     1
102
RTVSPropertyOp20
 70
     1
102
RTVSPropertyOp21
 70
     1
102
RTVSPropertyOp22
 70
     1
102
RTVSPropertyOp23
 70
     1
102
RTVSPropertyOp24
 70
     1
102
RTVSPropertyOp25
 70
     1
102
RTVSPropertyOp26
 70
     1
102
RTVSPropertyOp27
 70
     1
  0
XRECORD
  5
545D
102
{ACAD_REACTORS
330
545C
102
}
330
545C
100
AcDbXrecord
280
     1
102
RTVSPropertyOp0
 70
     1
102
RTVSPropertyOp1
 70
     1
102
RTVSPropertyOp2
 70
     1
102
RTVSPropertyOp3
 70
     1
102
RTVSPropertyOp4
 70
     1
102
RTVSPropertyOp5
 70
     1
102
RTVSPropertyOp6
 70
     1
102
RTVSPropertyOp7
 70
     1
102
RTVSPropertyOp8
 70
     1
102
RTVSPropertyOp9
 70
     1
102
RTVSPropertyOp10
 70
     1
102
RTVSPropertyOp11
 70
     1
102
RTVSPropertyOp12
 70
     1
102
RTVSPropertyOp13
 70
     1
102
RTVSPropertyOp14
 70
     1
102
RTVSPropertyOp15
 70
     1
102
RTVSPropertyOp16
 70
     1
102
RTVSPropertyOp17
 70
     1
102
RTVSPropertyOp18
 70
     1
102
RTVSPropertyOp19
 70
     1
102
RTVSPropertyOp20
 70
     1
102
RTVSPropertyOp21
 70
     1
102
RTVSPropertyOp22
 70
     1
102
RTVSPropertyOp23
 70
     1
102
RTVSPropertyOp24
 70
     1
102
RTVSPropertyOp25
 70
     1
102
RTVSPropertyOp26
 70
     1
102
RTVSPropertyOp27
 70
     1
  0
XRECORD
  5
546B
102
{ACAD_REACTORS
330
546A
102
}
330
546A
100
AcDbXrecord
280
     1
102
RTVSPropertyOp0
 70
     1
102
RTVSPropertyOp1
 70
     1
102
RTVSPropertyOp2
 70
     1
102
RTVSPropertyOp3
 70
     1
102
RTVSPropertyOp4
 70
     1
102
RTVSPropertyOp5
 70
     1
102
RTVSPropertyOp6
 70
     1
102
RTVSPropertyOp7
 70
     1
102
RTVSPropertyOp8
 70
     1
102
RTVSPropertyOp9
 70
     1
102
RTVSPropertyOp10
 70
     1
102
RTVSPropertyOp11
 70
     1
102
RTVSPropertyOp12
 70
     1
102
RTVSPropertyOp13
 70
     1
102
RTVSPropertyOp14
 70
     1
102
RTVSPropertyOp15
 70
     1
102
RTVSPropertyOp16
 70
     1
102
RTVSPropertyOp17
 70
     1
102
RTVSPropertyOp18
 70
     1
102
RTVSPropertyOp19
 70
     1
102
RTVSPropertyOp20
 70
     1
102
RTVSPropertyOp21
 70
     1
102
RTVSPropertyOp22
 70
     1
102
RTVSPropertyOp23
 70
     1
102
RTVSPropertyOp24
 70
     1
102
RTVSPropertyOp25
 70
     1
102
RTVSPropertyOp26
 70
     1
102
RTVSPropertyOp27
 70
     1
  0
XRECORD
  5
5473
102
{ACAD_REACTORS
330
5472
102
}
330
5472
100
AcDbXrecord
280
     1
102
RTVSPropertyOp0
 70
     1
102
RTVSPropertyOp1
 70
     1
102
RTVSPropertyOp2
 70
     1
102
RTVSPropertyOp3
 70
     1
102
RTVSPropertyOp4
 70
     1
102
RTVSPropertyOp5
 70
     1
102
RTVSPropertyOp6
 70
     1
102
RTVSPropertyOp7
 70
     1
102
RTVSPropertyOp8
 70
     1
102
RTVSPropertyOp9
 70
     1
102
RTVSPropertyOp10
 70
     1
102
RTVSPropertyOp11
 70
     1
102
RTVSPropertyOp12
 70
     1
102
RTVSPropertyOp13
 70
     1
102
RTVSPropertyOp14
 70
     1
102
RTVSPropertyOp15
 70
     1
102
RTVSPropertyOp16
 70
     1
102
RTVSPropertyOp17
 70
     1
102
RTVSPropertyOp18
 70
     1
102
RTVSPropertyOp19
 70
     1
102
RTVSPropertyOp20
 70
     1
102
RTVSPropertyOp21
 70
     1
102
RTVSPropertyOp22
 70
     1
102
RTVSPropertyOp23
 70
     1
102
RTVSPropertyOp24
 70
     1
102
RTVSPropertyOp25
 70
     1
102
RTVSPropertyOp26
 70
     1
102
RTVSPropertyOp27
 70
     1
  0
XRECORD
  5
5465
102
{ACAD_REACTORS
330
5464
102
}
330
5464
100
AcDbXrecord
280
     1
102
RTVSPropertyOp0
 70
     1
102
RTVSPropertyOp1
 70
     1
102
RTVSPropertyOp2
 70
     1
102
RTVSPropertyOp3
 70
     1
102
RTVSPropertyOp4
 70
     1
102
RTVSPropertyOp5
 70
     1
102
RTVSPropertyOp6
 70
     1
102
RTVSPropertyOp7
 70
     1
102
RTVSPropertyOp8
 70
     1
102
RTVSPropertyOp9
 70
     1
102
RTVSPropertyOp10
 70
     1
102
RTVSPropertyOp11
 70
     1
102
RTVSPropertyOp12
 70
     1
102
RTVSPropertyOp13
 70
     1
102
RTVSPropertyOp14
 70
     1
102
RTVSPropertyOp15
 70
     1
102
RTVSPropertyOp16
 70
     1
102
RTVSPropertyOp17
 70
     1
102
RTVSPropertyOp18
 70
     1
102
RTVSPropertyOp19
 70
     1
102
RTVSPropertyOp20
 70
     1
102
RTVSPropertyOp21
 70
     1
102
RTVSPropertyOp22
 70
     1
102
RTVSPropertyOp23
 70
     1
102
RTVSPropertyOp24
 70
     1
102
RTVSPropertyOp25
 70
     1
102
RTVSPropertyOp26
 70
     1
102
RTVSPropertyOp27
 70
     1
  0
XRECORD
  5
5469
102
{ACAD_REACTORS
330
5468
102
}
330
5468
100
AcDbXrecord
280
     1
102
RTVSPropertyOp0
 70
     1
102
RTVSPropertyOp1
 70
     1
102
RTVSPropertyOp2
 70
     1
102
RTVSPropertyOp3
 70
     1
102
RTVSPropertyOp4
 70
     1
102
RTVSPropertyOp5
 70
     1
102
RTVSPropertyOp6
 70
     1
102
RTVSPropertyOp7
 70
     1
102
RTVSPropertyOp8
 70
     1
102
RTVSPropertyOp9
 70
     1
102
RTVSPropertyOp10
 70
     1
102
RTVSPropertyOp11
 70
     1
102
RTVSPropertyOp12
 70
     1
102
RTVSPropertyOp13
 70
     1
102
RTVSPropertyOp14
 70
     1
102
RTVSPropertyOp15
 70
     1
102
RTVSPropertyOp16
 70
     1
102
RTVSPropertyOp17
 70
     1
102
RTVSPropertyOp18
 70
     1
102
RTVSPropertyOp19
 70
     1
102
RTVSPropertyOp20
 70
     1
102
RTVSPropertyOp21
 70
     1
102
RTVSPropertyOp22
 70
     1
102
RTVSPropertyOp23
 70
     1
102
RTVSPropertyOp24
 70
     1
102
RTVSPropertyOp25
 70
     1
102
RTVSPropertyOp26
 70
     1
102
RTVSPropertyOp27
 70
     1
  0
XRECORD
  5
5479
102
{ACAD_REACTORS
330
5478
102
}
330
5478
100
AcDbXrecord
280
     1
102
RTVSPropertyOp0
 70
     0
102
RTVSPropertyOp1
 70
     0
102
RTVSPropertyOp2
 70
     0
102
RTVSPropertyOp3
 70
     0
102
RTVSPropertyOp4
 70
     0
102
RTVSPropertyOp5
 70
     0
102
RTVSPropertyOp6
 70
     0
102
RTVSPropertyOp7
 70
     0
102
RTVSPropertyOp8
 70
     0
102
RTVSPropertyOp9
 70
     0
102
RTVSPropertyOp10
 70
     0
102
RTVSPropertyOp11
 70
     0
102
RTVSPropertyOp12
 70
     0
102
RTVSPropertyOp13
 70
     0
102
RTVSPropertyOp14
 70
     2
102
RTVSPropertyOp15
 70
     0
102
RTVSPropertyOp16
 70
     0
102
RTVSPropertyOp17
 70
     0
102
RTVSPropertyOp18
 70
     0
102
RTVSPropertyOp19
 70
     0
102
RTVSPropertyOp20
 70
     0
102
RTVSPropertyOp21
 70
     0
102
RTVSPropertyOp22
 70
     0
102
RTVSPropertyOp23
 70
     0
102
RTVSPropertyOp24
 70
     0
102
RTVSPropertyOp25
 70
     0
102
RTVSPropertyOp26
 70
     0
102
RTVSPropertyOp27
 70
     0
  0
XRECORD
  5
5471
102
{ACAD_REACTORS
330
5470
102
}
330
5470
100
AcDbXrecord
280
     1
102
RTVSPropertyOp0
 70
     1
102
RTVSPropertyOp1
 70
     1
102
RTVSPropertyOp2
 70
     1
102
RTVSPropertyOp3
 70
     1
102
RTVSPropertyOp4
 70
     1
102
RTVSPropertyOp5
 70
     1
102
RTVSPropertyOp6
 70
     1
102
RTVSPropertyOp7
 70
     1
102
RTVSPropertyOp8
 70
     1
102
RTVSPropertyOp9
 70
     1
102
RTVSPropertyOp10
 70
     1
102
RTVSPropertyOp11
 70
     1
102
RTVSPropertyOp12
 70
     1
102
RTVSPropertyOp13
 70
     1
102
RTVSPropertyOp14
 70
     1
102
RTVSPropertyOp15
 70
     1
102
RTVSPropertyOp16
 70
     1
102
RTVSPropertyOp17
 70
     1
102
RTVSPropertyOp18
 70
     1
102
RTVSPropertyOp19
 70
     1
102
RTVSPropertyOp20
 70
     1
102
RTVSPropertyOp21
 70
     1
102
RTVSPropertyOp22
 70
     1
102
RTVSPropertyOp23
 70
     1
102
RTVSPropertyOp24
 70
     1
102
RTVSPropertyOp25
 70
     1
102
RTVSPropertyOp26
 70
     1
102
RTVSPropertyOp27
 70
     1
  0
XRECORD
  5
5455
102
{ACAD_REACTORS
330
5454
102
}
330
5454
100
AcDbXrecord
280
     1
102
RTVSPropertyOp0
 70
     1
102
RTVSPropertyOp1
 70
     1
102
RTVSPropertyOp2
 70
     1
102
RTVSPropertyOp3
 70
     1
102
RTVSPropertyOp4
 70
     1
102
RTVSPropertyOp5
 70
     1
102
RTVSPropertyOp6
 70
     1
102
RTVSPropertyOp7
 70
     1
102
RTVSPropertyOp8
 70
     1
102
RTVSPropertyOp9
 70
     1
102
RTVSPropertyOp10
 70
     1
102
RTVSPropertyOp11
 70
     1
102
RTVSPropertyOp12
 70
     1
102
RTVSPropertyOp13
 70
     1
102
RTVSPropertyOp14
 70
     1
102
RTVSPropertyOp15
 70
     1
102
RTVSPropertyOp16
 70
     1
102
RTVSPropertyOp17
 70
     1
102
RTVSPropertyOp18
 70
     1
102
RTVSPropertyOp19
 70
     1
102
RTVSPropertyOp20
 70
     1
102
RTVSPropertyOp21
 70
     1
102
RTVSPropertyOp22
 70
     1
102
RTVSPropertyOp23
 70
     1
102
RTVSPropertyOp24
 70
     1
102
RTVSPropertyOp25
 70
     1
102
RTVSPropertyOp26
 70
     1
102
RTVSPropertyOp27
 70
     1
  0
XRECORD
  5
5457
102
{ACAD_REACTORS
330
5456
102
}
330
5456
100
AcDbXrecord
280
     1
102
RTVSPropertyOp0
 70
     1
102
RTVSPropertyOp1
 70
     1
102
RTVSPropertyOp2
 70
     1
102
RTVSPropertyOp3
 70
     1
102
RTVSPropertyOp4
 70
     1
102
RTVSPropertyOp5
 70
     1
102
RTVSPropertyOp6
 70
     1
102
RTVSPropertyOp7
 70
     1
102
RTVSPropertyOp8
 70
     1
102
RTVSPropertyOp9
 70
     1
102
RTVSPropertyOp10
 70
     1
102
RTVSPropertyOp11
 70
     1
102
RTVSPropertyOp12
 70
     1
102
RTVSPropertyOp13
 70
     1
102
RTVSPropertyOp14
 70
     1
102
RTVSPropertyOp15
 70
     1
102
RTVSPropertyOp16
 70
     1
102
RTVSPropertyOp17
 70
     1
102
RTVSPropertyOp18
 70
     1
102
RTVSPropertyOp19
 70
     1
102
RTVSPropertyOp20
 70
     1
102
RTVSPropertyOp21
 70
     1
102
RTVSPropertyOp22
 70
     1
102
RTVSPropertyOp23
 70
     1
102
RTVSPropertyOp24
 70
     1
102
RTVSPropertyOp25
 70
     1
102
RTVSPropertyOp26
 70
     1
102
RTVSPropertyOp27
 70
     1
  0
XRECORD
  5
5459
102
{ACAD_REACTORS
330
5458
102
}
330
5458
100
AcDbXrecord
280
     1
102
RTVSPropertyOp0
 70
     1
102
RTVSPropertyOp1
 70
     1
102
RTVSPropertyOp2
 70
     1
102
RTVSPropertyOp3
 70
     1
102
RTVSPropertyOp4
 70
     1
102
RTVSPropertyOp5
 70
     1
102
RTVSPropertyOp6
 70
     1
102
RTVSPropertyOp7
 70
     1
102
RTVSPropertyOp8
 70
     1
102
RTVSPropertyOp9
 70
     1
102
RTVSPropertyOp10
 70
     1
102
RTVSPropertyOp11
 70
     1
102
RTVSPropertyOp12
 70
     1
102
RTVSPropertyOp13
 70
     1
102
RTVSPropertyOp14
 70
     1
102
RTVSPropertyOp15
 70
     1
102
RTVSPropertyOp16
 70
     1
102
RTVSPropertyOp17
 70
     1
102
RTVSPropertyOp18
 70
     1
102
RTVSPropertyOp19
 70
     1
102
RTVSPropertyOp20
 70
     1
102
RTVSPropertyOp21
 70
     1
102
RTVSPropertyOp22
 70
     1
102
RTVSPropertyOp23
 70
     1
102
RTVSPropertyOp24
 70
     1
102
RTVSPropertyOp25
 70
     1
102
RTVSPropertyOp26
 70
     1
102
RTVSPropertyOp27
 70
     1
  0
XRECORD
  5
545B
102
{ACAD_REACTORS
330
545A
102
}
330
545A
100
AcDbXrecord
280
     1
102
RTVSPropertyOp0
 70
     1
102
RTVSPropertyOp1
 70
     1
102
RTVSPropertyOp2
 70
     1
102
RTVSPropertyOp3
 70
     1
102
RTVSPropertyOp4
 70
     1
102
RTVSPropertyOp5
 70
     1
102
RTVSPropertyOp6
 70
     1
102
RTVSPropertyOp7
 70
     1
102
RTVSPropertyOp8
 70
     1
102
RTVSPropertyOp9
 70
     1
102
RTVSPropertyOp10
 70
     1
102
RTVSPropertyOp11
 70
     1
102
RTVSPropertyOp12
 70
     1
102
RTVSPropertyOp13
 70
     1
102
RTVSPropertyOp14
 70
     1
102
RTVSPropertyOp15
 70
     1
102
RTVSPropertyOp16
 70
     1
102
RTVSPropertyOp17
 70
     1
102
RTVSPropertyOp18
 70
     1
102
RTVSPropertyOp19
 70
     1
102
RTVSPropertyOp20
 70
     1
102
RTVSPropertyOp21
 70
     1
102
RTVSPropertyOp22
 70
     1
102
RTVSPropertyOp23
 70
     1
102
RTVSPropertyOp24
 70
     1
102
RTVSPropertyOp25
 70
     1
102
RTVSPropertyOp26
 70
     1
102
RTVSPropertyOp27
 70
     1
  0
XRECORD
  5
5475
102
{ACAD_REACTORS
330
5474
102
}
330
5474
100
AcDbXrecord
280
     1
102
RTVSPropertyOp0
 70
     0
102
RTVSPropertyOp1
 70
     0
102
RTVSPropertyOp2
 70
     0
102
RTVSPropertyOp3
 70
     0
102
RTVSPropertyOp4
 70
     0
102
RTVSPropertyOp5
 70
     0
102
RTVSPropertyOp6
 70
     0
102
RTVSPropertyOp7
 70
     0
102
RTVSPropertyOp8
 70
     0
102
RTVSPropertyOp9
 70
     0
102
RTVSPropertyOp10
 70
     0
102
RTVSPropertyOp11
 70
     0
102
RTVSPropertyOp12
 70
     0
102
RTVSPropertyOp13
 70
     0
102
RTVSPropertyOp14
 70
     2
102
RTVSPropertyOp15
 70
     0
102
RTVSPropertyOp16
 70
     0
102
RTVSPropertyOp17
 70
     0
102
RTVSPropertyOp18
 70
     0
102
RTVSPropertyOp19
 70
     0
102
RTVSPropertyOp20
 70
     0
102
RTVSPropertyOp21
 70
     0
102
RTVSPropertyOp22
 70
     0
102
RTVSPropertyOp23
 70
     0
102
RTVSPropertyOp24
 70
     0
102
RTVSPropertyOp25
 70
     0
102
RTVSPropertyOp26
 70
     0
102
RTVSPropertyOp27
 70
     0
  0
XRECORD
  5
546F
102
{ACAD_REACTORS
330
546E
102
}
330
546E
100
AcDbXrecord
280
     1
102
RTVSPropertyOp0
 70
     1
102
RTVSPropertyOp1
 70
     1
102
RTVSPropertyOp2
 70
     1
102
RTVSPropertyOp3
 70
     1
102
RTVSPropertyOp4
 70
     1
102
RTVSPropertyOp5
 70
     1
102
RTVSPropertyOp6
 70
     1
102
RTVSPropertyOp7
 70
     1
102
RTVSPropertyOp8
 70
     1
102
RTVSPropertyOp9
 70
     1
102
RTVSPropertyOp10
 70
     1
102
RTVSPropertyOp11
 70
     1
102
RTVSPropertyOp12
 70
     1
102
RTVSPropertyOp13
 70
     1
102
RTVSPropertyOp14
 70
     1
102
RTVSPropertyOp15
 70
     1
102
RTVSPropertyOp16
 70
     1
102
RTVSPropertyOp17
 70
     1
102
RTVSPropertyOp18
 70
     1
102
RTVSPropertyOp19
 70
     1
102
RTVSPropertyOp20
 70
     1
102
RTVSPropertyOp21
 70
     1
102
RTVSPropertyOp22
 70
     1
102
RTVSPropertyOp23
 70
     1
102
RTVSPropertyOp24
 70
     1
102
RTVSPropertyOp25
 70
     1
102
RTVSPropertyOp26
 70
     1
102
RTVSPropertyOp27
 70
     1
  0
XRECORD
  5
5477
102
{ACAD_REACTORS
330
5476
102
}
330
5476
100
AcDbXrecord
280
     1
102
RTVSPropertyOp0
 70
     0
102
RTVSPropertyOp1
 70
     0
102
RTVSPropertyOp2
 70
     0
102
RTVSPropertyOp3
 70
     0
102
RTVSPropertyOp4
 70
     0
102
RTVSPropertyOp5
 70
     0
102
RTVSPropertyOp6
 70
     0
102
RTVSPropertyOp7
 70
     0
102
RTVSPropertyOp8
 70
     0
102
RTVSPropertyOp9
 70
     0
102
RTVSPropertyOp10
 70
     0
102
RTVSPropertyOp11
 70
     0
102
RTVSPropertyOp12
 70
     0
102
RTVSPropertyOp13
 70
     0
102
RTVSPropertyOp14
 70
     2
102
RTVSPropertyOp15
 70
     0
102
RTVSPropertyOp16
 70
     0
102
RTVSPropertyOp17
 70
     0
102
RTVSPropertyOp18
 70
     0
102
RTVSPropertyOp19
 70
     0
102
RTVSPropertyOp20
 70
     0
102
RTVSPropertyOp21
 70
     0
102
RTVSPropertyOp22
 70
     0
102
RTVSPropertyOp23
 70
     0
102
RTVSPropertyOp24
 70
     0
102
RTVSPropertyOp25
 70
     0
102
RTVSPropertyOp26
 70
     0
102
RTVSPropertyOp27
 70
     0
  0
XRECORD
  5
5467
102
{ACAD_REACTORS
330
5466
102
}
330
5466
100
AcDbXrecord
280
     1
102
RTVSPropertyOp0
 70
     1
102
RTVSPropertyOp1
 70
     1
102
RTVSPropertyOp2
 70
     1
102
RTVSPropertyOp3
 70
     1
102
RTVSPropertyOp4
 70
     1
102
RTVSPropertyOp5
 70
     1
102
RTVSPropertyOp6
 70
     1
102
RTVSPropertyOp7
 70
     1
102
RTVSPropertyOp8
 70
     1
102
RTVSPropertyOp9
 70
     1
102
RTVSPropertyOp10
 70
     1
102
RTVSPropertyOp11
 70
     1
102
RTVSPropertyOp12
 70
     1
102
RTVSPropertyOp13
 70
     1
102
RTVSPropertyOp14
 70
     1
102
RTVSPropertyOp15
 70
     1
102
RTVSPropertyOp16
 70
     1
102
RTVSPropertyOp17
 70
     1
102
RTVSPropertyOp18
 70
     1
102
RTVSPropertyOp19
 70
     1
102
RTVSPropertyOp20
 70
     1
102
RTVSPropertyOp21
 70
     1
102
RTVSPropertyOp22
 70
     1
102
RTVSPropertyOp23
 70
     1
102
RTVSPropertyOp24
 70
     1
102
RTVSPropertyOp25
 70
     1
102
RTVSPropertyOp26
 70
     1
102
RTVSPropertyOp27
 70
     1
  0
XRECORD
  5
546D
102
{ACAD_REACTORS
330
546C
102
}
330
546C
100
AcDbXrecord
280
     1
102
RTVSPropertyOp0
 70
     1
102
RTVSPropertyOp1
 70
     1
102
RTVSPropertyOp2
 70
     1
102
RTVSPropertyOp3
 70
     1
102
RTVSPropertyOp4
 70
     1
102
RTVSPropertyOp5
 70
     1
102
RTVSPropertyOp6
 70
     1
102
RTVSPropertyOp7
 70
     1
102
RTVSPropertyOp8
 70
     1
102
RTVSPropertyOp9
 70
     1
102
RTVSPropertyOp10
 70
     1
102
RTVSPropertyOp11
 70
     1
102
RTVSPropertyOp12
 70
     1
102
RTVSPropertyOp13
 70
     1
102
RTVSPropertyOp14
 70
     1
102
RTVSPropertyOp15
 70
     1
102
RTVSPropertyOp16
 70
     1
102
RTVSPropertyOp17
 70
     1
102
RTVSPropertyOp18
 70
     1
102
RTVSPropertyOp19
 70
     1
102
RTVSPropertyOp20
 70
     1
102
RTVSPropertyOp21
 70
     1
102
RTVSPropertyOp22
 70
     1
102
RTVSPropertyOp23
 70
     1
102
RTVSPropertyOp24
 70
     1
102
RTVSPropertyOp25
 70
     1
102
RTVSPropertyOp26
 70
     1
102
RTVSPropertyOp27
 70
     1
  0
ENDSEC
  0
EOF
