  0
SECTION
  2
HEADER
  9
$ACADVER
  1
AC1015
  9
$ACADMAINTVER
 70
    20
  9
$DWGCODEPAGE
  3
ANSI_1252
  9
$INSBASE
 10
0.0
 20
0.0
 30
0.0
  9
$EXTMIN
 10
772.8077071569867
 20
1020.580633725814
 30
0.0
  9
$EXTMAX
 10
775.5081670399105
 20
1021.134094822016
 30
0.0
  9
$LIMMIN
 10
0.0
 20
0.0
  9
$LIMMAX
 10
420.0
 20
297.0
  9
$ORTHOMODE
 70
     0
  9
$REGENMODE
 70
     1
  9
$FILLMODE
 70
     1
  9
$QTEXTMODE
 70
     0
  9
$MIRRTEXT
 70
     1
  9
$LTSCALE
 40
1.0
  9
$ATTMODE
 70
     1
  9
$TEXTSIZE
 40
2.5
  9
$TRACEWID
 40
1.0
  9
$TEXTSTYLE
  7
SANINDUSA
  9
$CLAYER
  8
0
  9
$CELTYPE
  6
ByLayer
  9
$CECOLOR
 62
   256
  9
$CELTSCALE
 40
1.0
  9
$DISPSILH
 70
     0
  9
$DIMSCALE
 40
1.0
  9
$DIMASZ
 40
2.0
  9
$DIMEXO
 40
1.0
  9
$DIMDLI
 40
1.0
  9
$DIMRND
 40
0.0
  9
$DIMDLE
 40
0.0
  9
$DIMEXE
 40
1.0
  9
$DIMTP
 40
0.0
  9
$DIMTM
 40
0.0
  9
$DIMTXT
 40
2.0
  9
$DIMCEN
 40
0.0
  9
$DIMTSZ
 40
0.0
  9
$DIMTOL
 70
     0
  9
$DIMLIM
 70
     0
  9
$DIMTIH
 70
     0
  9
$DIMTOH
 70
     0
  9
$DIMSE1
 70
     0
  9
$DIMSE2
 70
     0
  9
$DIMTAD
 70
     1
  9
$DIMZIN
 70
     8
  9
$DIMBLK
  1

  9
$DIMASO
 70
     1
  9
$DIMSHO
 70
     1
  9
$DIMPOST
  1

  9
$DIMAPOST
  1

  9
$DIMALT
 70
     0
  9
$DIMALTD
 70
     3
  9
$DIMALTF
 40
0.03937007874016
  9
$DIMLFAC
 40
1.0
  9
$DIMTOFL
 70
     1
  9
$DIMTVP
 40
0.0
  9
$DIMTIX
 70
     0
  9
$DIMSOXD
 70
     0
  9
$DIMSAH
 70
     0
  9
$DIMBLK1
  1

  9
$DIMBLK2
  1

  9
$DIMSTYLE
  2
SANINDUSA
  9
$DIMCLRD
 70
   256
  9
$DIMCLRE
 70
   256
  9
$DIMCLRT
 70
   256
  9
$DIMTFAC
 40
1.0
  9
$DIMGAP
 40
1.0
  9
$DIMJUST
 70
     0
  9
$DIMSD1
 70
     0
  9
$DIMSD2
 70
     0
  9
$DIMTOLJ
 70
     0
  9
$DIMTZIN
 70
     8
  9
$DIMALTZ
 70
     0
  9
$DIMALTTZ
 70
     0
  9
$DIMUPT
 70
     0
  9
$DIMDEC
 70
     1
  9
$DIMTDEC
 70
     1
  9
$DIMALTU
 70
     2
  9
$DIMALTTD
 70
     3
  9
$DIMTXSTY
  7
SANINDUSA
  9
$DIMAUNIT
 70
     0
  9
$DIMADEC
 70
     1
  9
$DIMALTRND
 40
0.0
  9
$DIMAZIN
 70
     0
  9
$DIMDSEP
 70
    44
  9
$DIMATFIT
 70
     3
  9
$DIMFRAC
 70
     0
  9
$DIMLDRBLK
  1

  9
$DIMLUNIT
 70
     2
  9
$DIMLWD
 70
    -1
  9
$DIMLWE
 70
    -1
  9
$DIMTMOVE
 70
     0
  9
$LUNITS
 70
     2
  9
$LUPREC
 70
     4
  9
$SKETCHINC
 40
1.0
  9
$FILLETRAD
 40
0.0
  9
$AUNITS
 70
     0
  9
$AUPREC
 70
     0
  9
$MENU
  1
.
  9
$ELEVATION
 40
0.0
  9
$PELEVATION
 40
0.0
  9
$THICKNESS
 40
0.0
  9
$LIMCHECK
 70
     0
  9
$CHAMFERA
 40
10.0
  9
$CHAMFERB
 40
10.0
  9
$CHAMFERC
 40
20.0
  9
$CHAMFERD
 40
0.0
  9
$SKPOLY
 70
     0
  9
$TDCREATE
 40
2453480.582445197
  9
$TDUCREATE
 40
2453480.540778531
  9
$TDUPDATE
 40
2456146.737180625
  9
$TDUUPDATE
 40
2456146.695513958
  9
$TDINDWG
 40
0.0049453935
  9
$TDUSRTIMER
 40
0.0049453935
  9
$USRTIMER
 70
     1
  9
$ANGBASE
 50
0.0
  9
$ANGDIR
 70
     0
  9
$PDMODE
 70
     0
  9
$PDSIZE
 40
0.0
  9
$PLINEWID
 40
0.0
  9
$SPLFRAME
 70
     0
  9
$SPLINETYPE
 70
     6
  9
$SPLINESEGS
 70
     8
  9
$HANDSEED
  5
81B6
  9
$SURFTAB1
 70
     6
  9
$SURFTAB2
 70
     6
  9
$SURFTYPE
 70
     6
  9
$SURFU
 70
     6
  9
$SURFV
 70
     6
  9
$UCSBASE
  2

  9
$UCSNAME
  2

  9
$UCSORG
 10
0.0
 20
0.0
 30
0.0
  9
$UCSXDIR
 10
1.0
 20
0.0
 30
0.0
  9
$UCSYDIR
 10
0.0
 20
1.0
 30
0.0
  9
$UCSORTHOREF
  2

  9
$UCSORTHOVIEW
 70
     0
  9
$UCSORGTOP
 10
0.0
 20
0.0
 30
0.0
  9
$UCSORGBOTTOM
 10
0.0
 20
0.0
 30
0.0
  9
$UCSORGLEFT
 10
0.0
 20
0.0
 30
0.0
  9
$UCSORGRIGHT
 10
0.0
 20
0.0
 30
0.0
  9
$UCSORGFRONT
 10
0.0
 20
0.0
 30
0.0
  9
$UCSORGBACK
 10
0.0
 20
0.0
 30
0.0
  9
$PUCSBASE
  2

  9
$PUCSNAME
  2

  9
$PUCSORG
 10
0.0
 20
0.0
 30
0.0
  9
$PUCSXDIR
 10
1.0
 20
0.0
 30
0.0
  9
$PUCSYDIR
 10
0.0
 20
1.0
 30
0.0
  9
$PUCSORTHOREF
  2

  9
$PUCSORTHOVIEW
 70
     0
  9
$PUCSORGTOP
 10
0.0
 20
0.0
 30
0.0
  9
$PUCSORGBOTTOM
 10
0.0
 20
0.0
 30
0.0
  9
$PUCSORGLEFT
 10
0.0
 20
0.0
 30
0.0
  9
$PUCSORGRIGHT
 10
0.0
 20
0.0
 30
0.0
  9
$PUCSORGFRONT
 10
0.0
 20
0.0
 30
0.0
  9
$PUCSORGBACK
 10
0.0
 20
0.0
 30
0.0
  9
$USERI1
 70
     0
  9
$USERI2
 70
     0
  9
$USERI3
 70
     0
  9
$USERI4
 70
     0
  9
$USERI5
 70
     0
  9
$USERR1
 40
0.0
  9
$USERR2
 40
0.0
  9
$USERR3
 40
0.0
  9
$USERR4
 40
0.0
  9
$USERR5
 40
0.0
  9
$WORLDVIEW
 70
     1
  9
$SHADEDGE
 70
     3
  9
$SHADEDIF
 70
    70
  9
$TILEMODE
 70
     1
  9
$MAXACTVP
 70
    64
  9
$PINSBASE
 10
0.0
 20
0.0
 30
0.0
  9
$PLIMCHECK
 70
     0
  9
$PEXTMIN
 10
1.000000000000000E+20
 20
1.000000000000000E+20
 30
1.000000000000000E+20
  9
$PEXTMAX
 10
-1.000000000000000E+20
 20
-1.000000000000000E+20
 30
-1.000000000000000E+20
  9
$PLIMMIN
 10
0.0
 20
0.0
  9
$PLIMMAX
 10
420.0
 20
297.0
  9
$UNITMODE
 70
     0
  9
$VISRETAIN
 70
     1
  9
$PLINEGEN
 70
     0
  9
$PSLTSCALE
 70
     1
  9
$TREEDEPTH
 70
  3020
  9
$CMLSTYLE
  2
Standard
  9
$CMLJUST
 70
     0
  9
$CMLSCALE
 40
20.0
  9
$PROXYGRAPHICS
 70
     1
  9
$MEASUREMENT
 70
     1
  9
$CELWEIGHT
370
    -1
  9
$ENDCAPS
280
     0
  9
$JOINSTYLE
280
     0
  9
$LWDISPLAY
290
     0
  9
$INSUNITS
 70
     4
  9
$HYPERLINKBASE
  1

  9
$STYLESHEET
  1
monochrome.ctb
  9
$XEDIT
290
     1
  9
$CEPSNTYPE
380
     0
  9
$PSTYLEMODE
290
     1
  9
$FINGERPRINTGUID
  2
{B98A73AA-52AA-4C10-B469-C0E7150AC31F}
  9
$VERSIONGUID
  2
{ED408523-1646-433F-9593-6963E191BB78}
  9
$EXTNAMES
290
     1
  9
$PSVPSCALE
 40
0.0
  9
$OLESTARTUP
290
     0
  0
ENDSEC
  0
SECTION
  2
CLASSES
  0
CLASS
  1
ACDBDICTIONARYWDFLT
  2
AcDbDictionaryWithDefault
  3
ObjectDBX Classes
 90
        0
280
     0
281
     0
  0
CLASS
  1
ACDBPLACEHOLDER
  2
AcDbPlaceHolder
  3
ObjectDBX Classes
 90
        0
280
     0
281
     0
  0
CLASS
  1
LAYOUT
  2
AcDbLayout
  3
ObjectDBX Classes
 90
        0
280
     0
281
     0
  0
CLASS
  1
DICTIONARYVAR
  2
AcDbDictionaryVar
  3
ObjectDBX Classes
 90
        0
280
     0
281
     0
  0
CLASS
  1
DIMASSOC
  2
AcDbDimAssoc
  3
"AcDbDimAssoc|Product Desc:     AcDim ARX App For Dimension|Company:          Autodesk, Inc.|WEB Address:      www.autodesk.com"
 90
    32768
280
     0
281
     0
  0
CLASS
  1
MATERIAL
  2
AcDbMaterial
  3
ObjectDBX Classes
 90
     1153
280
     0
281
     0
  0
CLASS
  1
VISUALSTYLE
  2
AcDbVisualStyle
  3
ObjectDBX Classes
 90
     4095
280
     0
281
     0
  0
CLASS
  1
TABLESTYLE
  2
AcDbTableStyle
  3
ObjectDBX Classes
 90
     4095
280
     0
281
     0
  0
CLASS
  1
SCALE
  2
AcDbScale
  3
ObjectDBX Classes
 90
     1153
280
     0
281
     0
  0
CLASS
  1
MLEADERSTYLE
  2
AcDbMLeaderStyle
  3
ACDB_MLEADERSTYLE_CLASS
 90
     4095
280
     0
281
     0
  0
CLASS
  1
AEC_REFEDIT_STATUS_TRACKER
  2
AecDbRefEditStatusTracker
  3
AecArchBase60|Product Desc: Autodesk Architectural Desktop 2007 |Company: Autodesk,Inc. |WEB Address: www.autodesk.com
 90
      129
280
     0
281
     0
  0
CLASS
  1
NPOCOLLECTION
  2
AcDbImpNonPersistentObjectsCollection
  3
ObjectDBX Classes
 90
     1153
280
     0
281
     0
  0
CLASS
  1
SORTENTSTABLE
  2
AcDbSortentsTable
  3
ObjectDBX Classes
 90
        0
280
     0
281
     0
  0
CLASS
  1
CELLSTYLEMAP
  2
AcDbCellStyleMap
  3
ObjectDBX Classes
 90
     1152
280
     0
281
     0
  0
ENDSEC
  0
SECTION
  2
TABLES
  0
TABLE
  2
VPORT
  5
8
330
0
100
AcDbSymbolTable
 70
     1
  0
VPORT
  5
7F08
330
8
100
AcDbSymbolTableRecord
100
AcDbViewportTableRecord
  2
*Active
 70
     0
 10
0.0
 20
0.0
 11
1.0
 21
1.0
 12
774.1579370984486
 22
1020.857364273915
 13
0.0
 23
0.0
 14
10.0
 24
10.0
 15
10.0
 25
10.0
 16
0.0
 26
0.0
 36
1.0
 17
0.0
 27
0.0
 37
0.0
 40
1.647387639145212
 41
1.645464025026068
 42
50.0
 43
0.0
 44
0.0
 50
0.0
 51
0.0
 71
     0
 72
   100
 73
     1
 74
     2
 75
     0
 76
     0
 77
     0
 78
     0
281
     0
 65
     1
110
0.0
120
0.0
130
0.0
111
1.0
121
0.0
131
0.0
112
0.0
122
1.0
132
0.0
 79
     0
146
0.0
  0
ENDTAB
  0
TABLE
  2
LTYPE
  5
5
330
0
100
AcDbSymbolTable
 70
     3
  0
LTYPE
  5
14
330
5
100
AcDbSymbolTableRecord
100
AcDbLinetypeTableRecord
  2
ByBlock
 70
     0
  3

 72
    65
 73
     0
 40
0.0
  0
LTYPE
  5
15
330
5
100
AcDbSymbolTableRecord
100
AcDbLinetypeTableRecord
  2
ByLayer
 70
     0
  3

 72
    65
 73
     0
 40
0.0
  0
LTYPE
  5
16
330
5
100
AcDbSymbolTableRecord
100
AcDbLinetypeTableRecord
  2
Continuous
 70
     0
  3
Solid line
 72
    65
 73
     0
 40
0.0
  0
LTYPE
  5
2D
330
5
100
AcDbSymbolTableRecord
100
AcDbLinetypeTableRecord
  2
DASHDOT
 70
     0
  3
Dash dot __ . __ . __ . __ . __ . __ . __ . __
 72
    65
 73
     4
 40
25.4
 49
12.7
 74
     0
 49
-6.349999999999999
 74
     0
 49
0.0
 74
     0
 49
-6.349999999999999
 74
     0
  0
LTYPE
  5
2E
330
5
100
AcDbSymbolTableRecord
100
AcDbLinetypeTableRecord
  2
HIDDEN
 70
     0
  3
Hidden __ __ __ __ __ __ __ __ __ __ __ __ __ _
 72
    65
 73
     2
 40
9.524999999999998
 49
6.349999999999999
 74
     0
 49
-3.174999999999999
 74
     0
  0
ENDTAB
  0
TABLE
  2
LAYER
  5
2
330
0
100
AcDbSymbolTable
 70
    17
  0
LAYER
  5
10
102
{ACAD_XDICTIONARY
360
8106
102
}
330
2
100
AcDbSymbolTableRecord
100
AcDbLayerTableRecord
  2
0
 70
     0
 62
     7
  6
Continuous
370
    -3
390
F
  0
LAYER
  5
2F
102
{ACAD_XDICTIONARY
360
8108
102
}
330
2
100
AcDbSymbolTableRecord
100
AcDbLayerTableRecord
  2
1
 70
     0
 62
     1
  6
Continuous
370
    -3
390
F
  0
LAYER
  5
30
102
{ACAD_XDICTIONARY
360
810A
102
}
330
2
100
AcDbSymbolTableRecord
100
AcDbLayerTableRecord
  2
2
 70
     0
 62
     2
  6
Continuous
370
    -3
390
F
  0
LAYER
  5
31
102
{ACAD_XDICTIONARY
360
810C
102
}
330
2
100
AcDbSymbolTableRecord
100
AcDbLayerTableRecord
  2
3
 70
     0
 62
     3
  6
Continuous
370
    -3
390
F
  0
LAYER
  5
32
102
{ACAD_XDICTIONARY
360
810E
102
}
330
2
100
AcDbSymbolTableRecord
100
AcDbLayerTableRecord
  2
4
 70
     0
 62
     4
  6
Continuous
370
    -3
390
F
  0
LAYER
  5
33
102
{ACAD_XDICTIONARY
360
8110
102
}
330
2
100
AcDbSymbolTableRecord
100
AcDbLayerTableRecord
  2
5
 70
     0
 62
     5
  6
Continuous
370
    -3
390
F
  0
LAYER
  5
34
102
{ACAD_XDICTIONARY
360
8112
102
}
330
2
100
AcDbSymbolTableRecord
100
AcDbLayerTableRecord
  2
6
 70
     0
 62
     6
  6
Continuous
370
    -3
390
F
  0
LAYER
  5
35
102
{ACAD_XDICTIONARY
360
8114
102
}
330
2
100
AcDbSymbolTableRecord
100
AcDbLayerTableRecord
  2
7
 70
     0
 62
     7
  6
Continuous
370
    -3
390
F
  0
LAYER
  5
36
102
{ACAD_XDICTIONARY
360
8116
102
}
330
2
100
AcDbSymbolTableRecord
100
AcDbLayerTableRecord
  2
cen
 70
     0
 62
     7
  6
DASHDOT
370
    -3
390
F
  0
LAYER
  5
37
102
{ACAD_XDICTIONARY
360
8118
102
}
330
2
100
AcDbSymbolTableRecord
100
AcDbLayerTableRecord
  2
hid
 70
     0
 62
     7
  6
HIDDEN
370
    -3
390
F
  0
LAYER
  5
5D6
102
{ACAD_XDICTIONARY
360
811A
102
}
330
2
100
AcDbSymbolTableRecord
100
AcDbLayerTableRecord
  2
hatch
 70
     0
 62
     9
  6
Continuous
370
    -3
390
F
  0
LAYER
  5
8AF
102
{ACAD_XDICTIONARY
360
811C
102
}
330
2
100
AcDbSymbolTableRecord
100
AcDbLayerTableRecord
  2
9
 70
     0
 62
     9
  6
Continuous
370
    -3
390
F
  0
LAYER
  5
8F8
102
{ACAD_XDICTIONARY
360
811E
102
}
330
2
100
AcDbSymbolTableRecord
100
AcDbLayerTableRecord
  2
leg fin
 70
     0
 62
     9
  6
Continuous
370
    -3
390
F
  0
LAYER
  5
91D
102
{ACAD_XDICTIONARY
360
8120
102
}
330
2
100
AcDbSymbolTableRecord
100
AcDbLayerTableRecord
  2
cotas
 70
     0
 62
     1
  6
Continuous
370
    -3
390
F
  0
LAYER
  5
92F
330
2
100
AcDbSymbolTableRecord
100
AcDbLayerTableRecord
  2
Defpoints
 70
     0
 62
     7
  6
Continuous
290
     0
370
    -3
390
F
  0
LAYER
  5
E0B
102
{ACAD_XDICTIONARY
360
8122
102
}
330
2
100
AcDbSymbolTableRecord
100
AcDbLayerTableRecord
  2
indusa
 70
     0
 62
     3
  6
Continuous
370
    -3
390
F
  0
LAYER
  5
E0C
102
{ACAD_XDICTIONARY
360
8124
102
}
330
2
100
AcDbSymbolTableRecord
100
AcDbLayerTableRecord
  2
SANINDUSA
 70
     0
 62
     3
  6
Continuous
370
    -3
390
F
  0
ENDTAB
  0
TABLE
  2
STYLE
  5
3
330
0
100
AcDbSymbolTable
 70
     3
  0
STYLE
  5
11
330
3
100
AcDbSymbolTableRecord
100
AcDbTextStyleTableRecord
  2
Standard
 70
     0
 40
0.0
 41
1.0
 50
0.0
 71
     0
 42
2.5
  3
Avgardn.ttf
  4

1001
ACAD
1000
AvantGarde Bk BT
1071
       34
  0
STYLE
  5
2C
330
3
100
AcDbSymbolTableRecord
100
AcDbTextStyleTableRecord
  2

 70
     1
 40
0.0
 41
1.0
 50
0.0
 71
     0
 42
2.5
  3
ltypeshp.shx
  4

  0
STYLE
  5
91F
330
3
100
AcDbSymbolTableRecord
100
AcDbTextStyleTableRecord
  2
SANINDUSA
 70
     0
 40
0.0
 41
1.0
 50
0.0
 71
     0
 42
2.5
  3
verdana.TTF
  4

1001
ACAD
1000
Verdana
1071
       34
  0
ENDTAB
  0
TABLE
  2
VIEW
  5
6
330
0
100
AcDbSymbolTable
 70
     0
  0
ENDTAB
  0
TABLE
  2
UCS
  5
7
330
0
100
AcDbSymbolTable
 70
     0
  0
ENDTAB
  0
TABLE
  2
APPID
  5
9
330
0
100
AcDbSymbolTable
 70
     4
  0
APPID
  5
12
330
9
100
AcDbSymbolTableRecord
100
AcDbRegAppTableRecord
  2
ACAD
 70
     0
  0
APPID
  5
3A
330
9
100
AcDbSymbolTableRecord
100
AcDbRegAppTableRecord
  2
DCO15
 70
     0
  0
APPID
  5
7F54
330
9
100
AcDbSymbolTableRecord
100
AcDbRegAppTableRecord
  2
ACAD_DSTYLE_DIMJOGGED_JOGANGLE_SYMBOL
 70
     0
  0
APPID
  5
81B5
330
9
100
AcDbSymbolTableRecord
100
AcDbRegAppTableRecord
  2
ACAD_MLEADERVER
 70
     0
  0
ENDTAB
  0
TABLE
  2
DIMSTYLE
  5
A
330
0
100
AcDbSymbolTable
 70
     2
100
AcDbDimStyleTable
 71
     1
340
921
  0
DIMSTYLE
105
45
330
A
100
AcDbSymbolTableRecord
100
AcDbDimStyleTableRecord
  2
STANDARD
 70
     0
289
     0
340
11
  0
DIMSTYLE
105
921
330
A
100
AcDbSymbolTableRecord
100
AcDbDimStyleTableRecord
  2
SANINDUSA
 70
     0
 41
2.0
 42
1.0
 43
1.0
 44
1.0
 73
     0
 74
     0
 77
     1
 78
     8
140
2.0
141
0.0
143
0.03937007874016
147
1.0
171
     3
172
     1
176
   256
177
   256
178
   256
179
     1
271
     1
272
     1
274
     3
278
    44
283
     0
284
     8
340
91F
371
    -1
372
    -1
  0
ENDTAB
  0
TABLE
  2
BLOCK_RECORD
  5
1
330
0
100
AcDbSymbolTable
 70
   111
  0
BLOCK_RECORD
  5
1F
102
{ACAD_XDICTIONARY
360
8102
102
}
330
1
100
AcDbSymbolTableRecord
100
AcDbBlockTableRecord
  2
*Model_Space
340
22
  0
BLOCK_RECORD
  5
1B
330
1
100
AcDbSymbolTableRecord
100
AcDbBlockTableRecord
  2
*Paper_Space
340
1E
  0
BLOCK_RECORD
  5
23
330
1
100
AcDbSymbolTableRecord
100
AcDbBlockTableRecord
  2
*Paper_Space0
340
26
  0
BLOCK_RECORD
  5
919
330
1
100
AcDbSymbolTableRecord
100
AcDbBlockTableRecord
  2
_DotSmall
340
0
102
{BLKREFS
331
C8E
331
7DC5
102
}
  0
BLOCK_RECORD
  5
922
330
1
100
AcDbSymbolTableRecord
100
AcDbBlockTableRecord
  2
base para cotas
340
0
310
2800000020000000200000000100080000000000000400000000000000000000000000000000000000000000000080000080000000808000800000008000800080800000C0C0C000C0DCC000F0CAA6000020400000206000002080000020A0000020C0000020E00000400000004020000040400000406000004080000040A0
310
000040C0000040E00000600000006020000060400000606000006080000060A0000060C0000060E00000800000008020000080400000806000008080000080A0000080C0000080E00000A0000000A0200000A0400000A0600000A0800000A0A00000A0C00000A0E00000C0000000C0200000C0400000C0600000C0800000C0
310
A00000C0C00000C0E00000E0000000E0200000E0400000E0600000E0800000E0A00000E0C00000E0E00040000000400020004000400040006000400080004000A0004000C0004000E00040200000402020004020400040206000402080004020A0004020C0004020E000404000004040200040404000404060004040800040
310
40A0004040C0004040E00040600000406020004060400040606000406080004060A0004060C0004060E00040800000408020004080400040806000408080004080A0004080C0004080E00040A0000040A0200040A0400040A0600040A0800040A0A00040A0C00040A0E00040C0000040C0200040C0400040C0600040C08000
310
40C0A00040C0C00040C0E00040E0000040E0200040E0400040E0600040E0800040E0A00040E0C00040E0E00080000000800020008000400080006000800080008000A0008000C0008000E00080200000802020008020400080206000802080008020A0008020C0008020E00080400000804020008040400080406000804080
310
008040A0008040C0008040E00080600000806020008060400080606000806080008060A0008060C0008060E00080800000808020008080400080806000808080008080A0008080C0008080E00080A0000080A0200080A0400080A0600080A0800080A0A00080A0C00080A0E00080C0000080C0200080C0400080C0600080C0
310
800080C0A00080C0C00080C0E00080E0000080E0200080E0400080E0600080E0800080E0A00080E0C00080E0E000C0000000C0002000C0004000C0006000C0008000C000A000C000C000C000E000C0200000C0202000C0204000C0206000C0208000C020A000C020C000C020E000C0400000C0402000C0404000C0406000C0
310
408000C040A000C040C000C040E000C0600000C0602000C0604000C0606000C0608000C060A000C060C000C060E000C0800000C0802000C0804000C0806000C0808000C080A000C080C000C080E000C0A00000C0A02000C0A04000C0A06000C0A08000C0A0A000C0A0C000C0A0E000C0C00000C0C02000C0C04000C0C06000
310
C0C08000C0C0A000F0FBFF00A4A0A000808080000000FF0000FF000000FFFF00FF000000FF00FF00FFFF0000FFFFFF00A4A4A4A4A4A4A4A4A4A4A4A4A4A4A4A4A4A4A4A4A4A4A4A4A4A4A4A4A4A4A4A4A4A4A4A4A4A4A4A4A4A4A4A4A4A4A4A4A4A4A4A4A4A4A4A4A4A4A4A4A4A4A4A4A4A4A4A4A4A4A4A4A4A4A4A4A4A4A4
310
A4A4A4A4A4A4A4A4A4A4A4A4A4A4A4A4A4A4A4A4A4A4A4A4A4A4A4A4A4A4A4A4A4A4A4A4A4A4A4A4A4A4A4A4A4A4A4A4A4A4A4A4A4A4A4A4A4A4A4A4A4A4A4A4A4A4A4A4A4A4A4A4A4A4A4A4A4A4A4A4A4A4A4A4A4A4A4A4A4A4A4A4A4A4A4A4A4A4A4A4A4A4A4A4A4A4A4A4A4A4A4A4A4A4A4A4A4A4A4A4A4A4A4A4A4A4A4
310
A4A4A4A4A4A4A4A4A4A4A4A4A4A4A4A4A4A4A4A4A4A4A4A4A4A4A4A4A4A4A4A4A4A4A4A4A4A4A4A4A4A4A4A4A4A4A4A4A4A4A4A4A4A4A4A4A4A4A4A4A4A4A4A4A4A4A4A4A4A4A4A4A4A4A4A4A4A4A4A4A4A4A4A4A4A4A4A4A4A4A4A4A4A4A4A4A4A4A4A4A4A4A4A4A4A4A4A4A4A4A4A4A4A4A4A4A4A4A4A4A4A4A4A4A4A4A4
310
A4A4A4A4A4A4A4A4A4A4A4A4A4A4A4A4A4A4A4A4A4A4A4A4A4A4A4A4A4A4A4A4A4A4A4A4A4A4A4A4A4A4A4A4A4A4A4A4A4A4A4A4A4A4A4A4A4A4A4A4A4A4A4A4A4A4A4A4A4A4A4A4A4A4A4A4A4A4A4A4A4A4A4A4A4A4A4A4A4A4A4A4A4A4A4A4A4A4A4A4A4A4A4A4A4A4A4A4A4A4A4A4A4A4A4A4F9F9F9F9F9F9F9F9F9F9F9
310
F9F9F9F9F9F9F9F9F9F9F9F9F9F9F9F9F9F9F9A4A4F9F9F9F9F9F9F9F9F9F9F9F9F9F9F9F9F9F9F9F9F9F9F9F9F9F9F9F9F9F9A4A4F9F9F9F9F9F9F9F9F9F9F9F9F9F9F9F9F9F9F9F9F9F9F9F9F9F9F9F9F9F9A4A4F9A4A4A4A4A4A4A4A4A4A4A4A4A4A4A4A4A4A4A4A4A4A4A4A4A4A4A4A4F9A4A4A4A4A4A4A4A4A4A4A4A4
310
A4A4A4A4A4A4A4A4A4A4A4A4A4A4A4A4A4A4A4A4A4A4A4A4A4A4A4A4A4A4A4A4A4A4A4A4A4A4A4A4A4A4A4A4A4A4A4A4A4A4A4A4A4A4A4A4A4A4A4A4A4A4A4A4A4A4A4A4A4A4A4A4A4A4A4A4A4A4A4A4A4A4A4A4A4A4A4A4A4A4A4A4A4A4A4A4A4A4A4A4A4A4A4A4A4A4A4A4A4A4A4A4A4A4A4A4A4A4A4A4A4A4A4A4A4A4A4
310
A4A4A4A4A4A4A4A4A4A4A4A4A4A4A4A4A4A4A4A4A4A4A4A4A4A4A4A4A4A4A4A4A4A4A4A4A4A4A4A4A4A4A4A4A4A4A4A4A4A4A4A4A4A4A4A4A4A4A4A4A4A4A4A4A4A4A4A4A4A4A4A4A4A4A4A4A4A4A4A4A4A4A4A4A4A4A4A4A4A4A4A4A4A4A4A4A4A4A4A4A4A4A4A4A4A4A4A4A4A4A4A4A4A4A4A4A4A4A4A4A4A4A4A4A4A4A4
310
A4A4A4A4A4A4A4A4A4A4A4A4A4A4A4A4A4A4A4A4A4A4A4A4A4A4A4A4A4A4A4A4A4A4A4A4A4A4A4A4A4A4A4A4A4A4A4A4A4A4A4A4A4A4A4A4A4A4A4A4A4A4A4A4A4A4A4A4A4A4A4A4A4A4A4A4A4A4A4A4A4A4A4A4A4A4A4A4A4A4A4A4A4A4A4A4A4A4A4A4A4A4A4A4A4A4A4A4A4A4A4A4A4A4A4A4A4A4A4A4A4A4A4A4A4A4A4
310
A4A4A4A4A4A4A4A4A4A4A4A4A4A4A4A4A4A4A4A4A4A4A4A4A4A4A4A4A4A4A4A4A4A4A4A4A4A4A4A4A4A4A4A4A4A4A4A4A4A4A4A4A4A4A4A4
1001
ACAD
1000
DesignCenter Data
1002
{
1070
     1
1070
     4
1002
}
  0
BLOCK_RECORD
  5
AA8
330
1
100
AcDbSymbolTableRecord
100
AcDbBlockTableRecord
  2
_CLOSED
340
0
  0
BLOCK_RECORD
  5
7F55
330
1
100
AcDbSymbolTableRecord
100
AcDbBlockTableRecord
  2
b sifões
340
0
1001
ACAD
1000
DesignCenter Data
1002
{
1070
     1
1070
     4
1002
}
  0
ENDTAB
  0
ENDSEC
  0
SECTION
  2
BLOCKS
  0
BLOCK
  5
20
330
1F
100
AcDbEntity
  8
0
100
AcDbBlockBegin
  2
*Model_Space
 70
     0
 10
0.0
 20
0.0
 30
0.0
  3
*Model_Space
  1

  0
ENDBLK
  5
21
330
1F
100
AcDbEntity
  8
0
100
AcDbBlockEnd
  0
BLOCK
  5
1C
330
1B
100
AcDbEntity
 67
     1
  8
0
100
AcDbBlockBegin
  2
*Paper_Space
 70
     0
 10
0.0
 20
0.0
 30
0.0
  3
*Paper_Space
  1

  0
ENDBLK
  5
1D
330
1B
100
AcDbEntity
 67
     1
  8
0
100
AcDbBlockEnd
  0
BLOCK
  5
24
330
23
100
AcDbEntity
 67
     1
  8
0
100
AcDbBlockBegin
  2
*Paper_Space0
 70
     0
 10
0.0
 20
0.0
 30
0.0
  3
*Paper_Space0
  1

  0
ENDBLK
  5
25
330
23
100
AcDbEntity
 67
     1
  8
0
100
AcDbBlockEnd
  0
BLOCK
  5
91B
330
919
100
AcDbEntity
  8
0
100
AcDbBlockBegin
  2
_DotSmall
 70
     0
 10
0.0
 20
0.0
 30
0.0
  3
_DotSmall
  1

  0
LWPOLYLINE
  5
91A
330
919
100
AcDbEntity
  8
0
  6
ByBlock
 62
     0
100
AcDbPolyline
 90
        2
 70
     1
 43
0.5
 10
-0.0625
 20
0.0
 42
1.0
 10
0.0625
 20
0.0
 42
1.0
  0
ENDBLK
  5
91C
330
919
100
AcDbEntity
  8
0
100
AcDbBlockEnd
  0
BLOCK
  5
92A
330
922
100
AcDbEntity
  8
0
100
AcDbBlockBegin
  2
base para cotas
 70
     0
 10
0.0
 20
0.0
 30
0.0
  3
base para cotas
  1

  0
LINE
  5
B36
330
922
100
AcDbEntity
  8
cotas
100
AcDbLine
 10
0.0
 20
-30.0
 30
0.0
 11
327.1260136525398
 21
-30.0
 31
0.0
  0
LINE
  5
B37
330
922
100
AcDbEntity
  8
cotas
100
AcDbLine
 10
0.0
 20
-25.0
 30
0.0
 11
327.1260136525398
 21
-25.0
 31
0.0
  0
LINE
  5
B38
330
922
100
AcDbEntity
  8
cotas
100
AcDbLine
 10
0.0
 20
-20.0
 30
0.0
 11
327.1260136525398
 21
-20.0
 31
0.0
  0
LINE
  5
B39
330
922
100
AcDbEntity
  8
cotas
100
AcDbLine
 10
0.0
 20
-15.0
 30
0.0
 11
327.1260136525398
 21
-15.0
 31
0.0
  0
LINE
  5
B3A
330
922
100
AcDbEntity
  8
cotas
100
AcDbLine
 10
0.0
 20
-10.0
 30
0.0
 11
327.1260136525398
 21
-10.0
 31
0.0
  0
LINE
  5
B3B
330
922
100
AcDbEntity
  8
cotas
100
AcDbLine
 10
0.0
 20
0.0
 30
0.0
 11
0.0
 21
-30.0
 31
0.0
  0
LINE
  5
B3C
330
922
100
AcDbEntity
  8
cotas
100
AcDbLine
 10
327.1260136525398
 20
-30.0
 30
0.0
 11
327.1260136525398
 21
0.0
 31
0.0
  0
ENDBLK
  5
92B
330
922
100
AcDbEntity
  8
0
100
AcDbBlockEnd
  0
BLOCK
  5
AAD
330
AA8
100
AcDbEntity
  8
0
100
AcDbBlockBegin
  2
_CLOSED
 70
     0
 10
0.0
 20
0.0
 30
0.0
  3
_CLOSED
  1

  0
LINE
  5
AA9
330
AA8
100
AcDbEntity
  8
0
100
AcDbLine
 10
-1.0
 20
0.166667
 30
0.0
 11
0.0
 21
0.0
 31
0.0
  0
LINE
  5
AAA
330
AA8
100
AcDbEntity
  8
0
100
AcDbLine
 10
0.0
 20
0.0
 30
0.0
 11
-1.0
 21
-0.166667
 31
0.0
  0
LINE
  5
AAB
330
AA8
100
AcDbEntity
  8
0
100
AcDbLine
 10
-1.0
 20
0.166667
 30
0.0
 11
-1.0
 21
-0.166667
 31
0.0
  0
LINE
  5
AAC
330
AA8
100
AcDbEntity
  8
0
100
AcDbLine
 10
0.0
 20
0.0
 30
0.0
 11
-1.0
 21
0.0
 31
0.0
  0
ENDBLK
  5
AAE
330
AA8
100
AcDbEntity
  8
0
100
AcDbBlockEnd
  0
BLOCK
  5
8029
330
7F55
100
AcDbEntity
  8
0
100
AcDbBlockBegin
  2
b sifões
 70
     0
 10
0.0
 20
0.0
 30
0.0
  3
b sifões
  1

  0
LINE
  5
7F56
330
7F55
100
AcDbEntity
  8
SANINDUSA
  6
Continuous
100
AcDbLine
 10
-0.272276037755546
 20
0.095369895654585
 30
0.0
 11
-0.272276037755546
 21
-0.0046273022317109
 31
0.0
  0
LINE
  5
7F57
330
7F55
100
AcDbEntity
  8
SANINDUSA
  6
HIDDEN
100
AcDbLine
 10
-0.3160306080881128
 20
-0.1048813674701705
 30
0.0
 11
-0.3160306080881128
 21
-0.1931287032887212
 31
0.0
  0
LINE
  5
7F58
330
7F55
100
AcDbEntity
  8
SANINDUSA
  6
HIDDEN
100
AcDbLine
 10
-0.2300306080878727
 20
-0.1931287032887212
 30
0.0
 11
-0.2300306080878727
 21
-0.0817076545074542
 31
0.0
  0
LINE
  5
7F59
330
7F55
100
AcDbEntity
  8
SANINDUSA
  6
HIDDEN
100
AcDbLine
 10
-0.2280306080883747
 20
-0.1893966524810366
 30
0.0
 11
-0.2280306080883747
 21
-0.0817076515572808
 31
0.0
  0
LINE
  5
7F5A
330
7F55
100
AcDbEntity
  8
SANINDUSA
  6
HIDDEN
100
AcDbLine
 10
-0.3160306080881128
 20
-0.1931287032887212
 30
0.0
 11
-0.2300306080878727
 21
-0.1931287032887212
 31
0.0
  0
LINE
  5
7F5B
330
7F55
100
AcDbEntity
  8
SANINDUSA
  6
HIDDEN
100
AcDbLine
 10
-0.3180306080885202
 20
-0.1893966524810366
 30
0.0
 11
-0.3170306080883165
 21
-0.1931287032887212
 31
0.0
  0
LINE
  5
7F5C
330
7F55
100
AcDbEntity
  8
SANINDUSA
  6
HIDDEN
100
AcDbLine
 10
-0.3170306080883165
 20
-0.1931287032887212
 30
0.0
 11
-0.3160306080881128
 21
-0.1931287032887212
 31
0.0
  0
LINE
  5
7F5D
330
7F55
100
AcDbEntity
  8
SANINDUSA
  6
HIDDEN
100
AcDbLine
 10
-0.2300306080878727
 20
-0.1931287032887212
 30
0.0
 11
-0.2290306080885784
 21
-0.1931287032887212
 31
0.0
  0
LINE
  5
7F5E
330
7F55
100
AcDbEntity
  8
SANINDUSA
  6
HIDDEN
100
AcDbLine
 10
-0.2290306080885784
 20
-0.1931287032887212
 30
0.0
 11
-0.2280306080883747
 21
-0.1893966524810366
 31
0.0
  0
ARC
  5
7F5F
330
7F55
100
AcDbEntity
  8
SANINDUSA
  6
HIDDEN
100
AcDbCircle
 10
-0.3020306080879891
 20
0.036871296711297
 30
0.0
 40
0.056
100
AcDbArc
 50
100.2865606110578
 51
180.0
  0
ARC
  5
7F60
330
7F55
100
AcDbEntity
  8
SANINDUSA
  6
HIDDEN
100
AcDbCircle
 10
-0.3020306080879891
 20
0.036871296711297
 30
0.0
 40
0.0539999999999999
100
AcDbArc
 50
90.0
 51
180.0
  0
LINE
  5
7F61
330
7F55
100
AcDbEntity
  8
SANINDUSA
  6
HIDDEN
100
AcDbLine
 10
-0.3560306080880764
 20
-0.0388518804618343
 30
0.0
 11
-0.3560306080880764
 21
-0.0055992813397552
 31
0.0
  0
LINE
  5
7F62
330
7F55
100
AcDbEntity
  8
SANINDUSA
  6
HIDDEN
100
AcDbLine
 10
-0.3580306080884839
 20
-0.0388518804618343
 30
0.0
 11
-0.3580306080884839
 21
-0.0055992813381636
 31
0.0
  0
LINE
  5
7F63
330
7F55
100
AcDbEntity
  8
SANINDUSA
  6
HIDDEN
100
AcDbLine
 10
-0.3560306080880764
 20
0.036871296711297
 30
0.0
 11
-0.3560306080880764
 21
-0.0055992813397552
 31
0.0
  0
LINE
  5
7F64
330
7F55
100
AcDbEntity
  8
SANINDUSA
  6
HIDDEN
100
AcDbLine
 10
-0.3580306080884839
 20
0.036871296711297
 30
0.0
 11
-0.3580306080884839
 21
-0.0055992813397552
 31
0.0
  0
LINE
  5
7F65
330
7F55
100
AcDbEntity
  8
SANINDUSA
  6
HIDDEN
100
AcDbLine
 10
-0.3560306080880764
 20
-0.0055992813397552
 30
0.0
 11
-0.3560306080844384
 21
-0.0055992813397552
 31
0.0
  0
LINE
  5
7F66
330
7F55
100
AcDbEntity
  8
SANINDUSA
  6
HIDDEN
100
AcDbLine
 10
-0.2320306080882801
 20
-0.020128703288492
 30
0.0
 11
-0.2320306080882801
 21
-0.0221287032886721
 31
0.0
  0
LINE
  5
7F67
330
7F55
100
AcDbEntity
  8
SANINDUSA
  6
HIDDEN
100
AcDbLine
 10
-0.2620306080880255
 20
-0.0215172419257215
 30
0.0
 11
-0.2620306080880255
 21
-0.020128703288492
 31
0.0
  0
LINE
  5
7F68
330
7F55
100
AcDbEntity
  8
SANINDUSA
  6
HIDDEN
100
AcDbLine
 10
-0.2633468093381452
 20
-0.0237518592800825
 30
0.0
 11
-0.2348175302549862
 21
-0.0660503336177953
 31
0.0
  0
LINE
  5
7F69
330
7F55
100
AcDbEntity
  8
SANINDUSA
  6
HIDDEN
100
AcDbLine
 10
-0.2616886832329328
 20
-0.0226356277325977
 30
0.0
 11
-0.2331594560246231
 21
-0.0649319464539531
 31
0.0
  0
ARC
  5
7F6A
330
7F55
100
AcDbEntity
  8
SANINDUSA
  6
HIDDEN
100
AcDbCircle
 10
-0.2600306080885275
 20
-0.0215172419257215
 30
0.0
 40
0.0020000000000001
100
AcDbArc
 50
180.0
 51
214.0000000001436
  0
ARC
  5
7F6B
330
7F55
100
AcDbEntity
  8
SANINDUSA
  6
HIDDEN
100
AcDbCircle
 10
-0.2580304322136726
 20
-0.0817076310549965
 30
0.0
 40
0.0299998176965208
100
AcDbArc
 50
0.0
 51
33.99999865963669
  0
ARC
  5
7F6C
330
7F55
100
AcDbEntity
  8
SANINDUSA
  6
HIDDEN
100
AcDbCircle
 10
-0.2580304028260798
 20
-0.0817076110581638
 30
0.0
 40
0.0279997830701829
100
AcDbArc
 50
0.0
 51
33.99999523654892
  0
LINE
  5
7F6D
330
7F55
100
AcDbEntity
  8
SANINDUSA
  6
HIDDEN
100
AcDbLine
 10
-0.2320306080882801
 20
-0.0221287032886721
 30
0.0
 11
-0.2280306080883747
 21
-0.0221287032886721
 31
0.0
  0
LINE
  5
7F6E
330
7F55
100
AcDbEntity
  8
SANINDUSA
  6
HIDDEN
100
AcDbLine
 10
-0.2280306080883747
 20
-0.0181287032885393
 30
0.0
 11
-0.2640306080884329
 21
-0.0181287032885393
 31
0.0
  0
LINE
  5
7F6F
330
7F55
100
AcDbEntity
  8
SANINDUSA
  6
HIDDEN
100
AcDbLine
 10
-0.2320306080882801
 20
-0.020128703288492
 30
0.0
 11
-0.2620306080880255
 21
-0.020128703288492
 31
0.0
  0
LINE
  5
7F70
330
7F55
100
AcDbEntity
  8
SANINDUSA
  6
HIDDEN
100
AcDbLine
 10
-0.2640306080884329
 20
-0.0181542044297203
 30
0.0
 11
-0.2640306080884329
 21
-0.0181287032885393
 31
0.0
  0
LINE
  5
7F71
330
7F55
100
AcDbEntity
  8
SANINDUSA
  6
HIDDEN
100
AcDbLine
 10
-0.27103060808804
 20
0.1088712967114134
 30
0.0
 11
-0.2280306080883747
 21
0.1088712967114134
 31
0.0
  0
LINE
  5
7F72
330
7F55
100
AcDbEntity
  8
SANINDUSA
  6
HIDDEN
100
AcDbLine
 10
-0.27103060808804
 20
0.1108712967113661
 30
0.0
 11
-0.2320306080882801
 21
0.1108712967113661
 31
0.0
  0
LINE
  5
7F73
330
7F55
100
AcDbEntity
  8
SANINDUSA
  6
HIDDEN
100
AcDbLine
 10
-0.2730306080884475
 20
0.1068712967114607
 30
0.0
 11
-0.2730306080884475
 21
0.0958712967114934
 31
0.0
  0
LINE
  5
7F74
330
7F55
100
AcDbEntity
  8
SANINDUSA
  6
HIDDEN
100
AcDbLine
 10
-0.2750306080879454
 20
0.1068712967114607
 30
0.0
 11
-0.2750306080879454
 21
0.0958712967114934
 31
0.0
  0
LINE
  5
7F75
330
7F55
100
AcDbEntity
  8
SANINDUSA
  6
HIDDEN
100
AcDbLine
 10
-0.2970306080878799
 20
0.1098712967113897
 30
0.0
 11
-0.2970306080878799
 21
0.1058712967114843
 31
0.0
  0
LINE
  5
7F76
330
7F55
100
AcDbEntity
  8
SANINDUSA
  6
HIDDEN
100
AcDbLine
 10
-0.3120306080882074
 20
0.1098712967113897
 30
0.0
 11
-0.3120306080882074
 21
0.1058712967114843
 31
0.0
  0
LINE
  5
7F77
330
7F55
100
AcDbEntity
  8
SANINDUSA
  6
HIDDEN
100
AcDbLine
 10
-0.2970306080878799
 20
0.092871296711337
 30
0.0
 11
-0.2780306080885566
 21
0.092871296711337
 31
0.0
  0
LINE
  5
7F78
330
7F55
100
AcDbEntity
  8
SANINDUSA
  6
HIDDEN
100
AcDbLine
 10
-0.3020306080879891
 20
0.0908712967113843
 30
0.0
 11
-0.2780306080885566
 21
0.0908712967113843
 31
0.0
  0
LINE
  5
7F79
330
7F55
100
AcDbEntity
  8
SANINDUSA
  6
HIDDEN
100
AcDbLine
 10
-0.2970306080878799
 20
0.1058712967114843
 30
0.0
 11
-0.3120306080882074
 21
0.1058712967114843
 31
0.0
  0
LINE
  5
7F7A
330
7F55
100
AcDbEntity
  8
SANINDUSA
  6
HIDDEN
100
AcDbLine
 10
-0.3120306080882074
 20
0.0978712967114461
 30
0.0
 11
-0.2970306080878799
 21
0.0978712967114461
 31
0.0
  0
LINE
  5
7F7B
330
7F55
100
AcDbEntity
  8
SANINDUSA
  6
HIDDEN
100
AcDbLine
 10
-0.2970306080878799
 20
0.0978719059307878
 30
0.0
 11
-0.3120306080882074
 21
0.0978719059307878
 31
0.0
  0
LINE
  5
7F7C
330
7F55
100
AcDbEntity
  8
SANINDUSA
  6
HIDDEN
100
AcDbLine
 10
-0.3120306080882074
 20
0.1057606146293892
 30
0.0
 11
-0.3120306080882074
 21
0.0979928728536379
 31
0.0
  0
LINE
  5
7F7D
330
7F55
100
AcDbEntity
  8
SANINDUSA
  6
HIDDEN
100
AcDbLine
 10
-0.3120306080882074
 20
0.1058706874921427
 30
0.0
 11
-0.3120306080882074
 21
0.1058712967114843
 31
0.0
  0
LINE
  5
7F7E
330
7F55
100
AcDbEntity
  8
SANINDUSA
  6
HIDDEN
100
AcDbLine
 10
-0.3120306080882074
 20
0.1057606146293892
 30
0.0
 11
-0.3120306080882074
 21
0.1058706874921427
 31
0.0
  0
LINE
  5
7F7F
330
7F55
100
AcDbEntity
  8
SANINDUSA
  6
HIDDEN
100
AcDbLine
 10
-0.3120306080882074
 20
0.0978712967114461
 30
0.0
 11
-0.3120306080882074
 21
0.0978719059307878
 31
0.0
  0
LINE
  5
7F80
330
7F55
100
AcDbEntity
  8
SANINDUSA
  6
HIDDEN
100
AcDbLine
 10
-0.3120306080882074
 20
0.0978719059307878
 30
0.0
 11
-0.3120306080882074
 21
0.0979928728536379
 31
0.0
  0
LINE
  5
7F81
330
7F55
100
AcDbEntity
  8
SANINDUSA
  6
HIDDEN
100
AcDbLine
 10
-0.3120306080882074
 20
0.0978712967114461
 30
0.0
 11
-0.3120306080882074
 21
0.0919712059671838
 31
0.0
  0
LINE
  5
7F82
330
7F55
100
AcDbEntity
  8
SANINDUSA
  6
HIDDEN
100
AcDbLine
 10
-0.2970306080878799
 20
0.1057606146293892
 30
0.0
 11
-0.2970306080878799
 21
0.0979928728536379
 31
0.0
  0
LINE
  5
7F83
330
7F55
100
AcDbEntity
  8
SANINDUSA
  6
HIDDEN
100
AcDbLine
 10
-0.2970306080878799
 20
0.1058706874921427
 30
0.0
 11
-0.2970306080878799
 21
0.1058712967114843
 31
0.0
  0
LINE
  5
7F84
330
7F55
100
AcDbEntity
  8
SANINDUSA
  6
HIDDEN
100
AcDbLine
 10
-0.2970306080878799
 20
0.1057606146293892
 30
0.0
 11
-0.2970306080878799
 21
0.1058706874921427
 31
0.0
  0
LINE
  5
7F85
330
7F55
100
AcDbEntity
  8
SANINDUSA
  6
HIDDEN
100
AcDbLine
 10
-0.2970306080878799
 20
0.0978712967114461
 30
0.0
 11
-0.2970306080878799
 21
0.0978719059307878
 31
0.0
  0
LINE
  5
7F86
330
7F55
100
AcDbEntity
  8
SANINDUSA
  6
HIDDEN
100
AcDbLine
 10
-0.2970306080878799
 20
0.0978719059307878
 30
0.0
 11
-0.2970306080878799
 21
0.0979928728536379
 31
0.0
  0
LINE
  5
7F87
330
7F55
100
AcDbEntity
  8
SANINDUSA
  6
HIDDEN
100
AcDbLine
 10
-0.2970306080878799
 20
0.0978712967114461
 30
0.0
 11
-0.2970306080878799
 21
0.092871296711337
 31
0.0
  0
ARC
  5
7F88
330
7F55
100
AcDbEntity
  8
SANINDUSA
  6
HIDDEN
100
AcDbCircle
 10
-0.2780306080885566
 20
0.0958712967114934
 30
0.0
 40
0.003
100
AcDbArc
 50
270.0
 51
0.0
  0
ARC
  5
7F89
330
7F55
100
AcDbEntity
  8
SANINDUSA
  6
HIDDEN
100
AcDbCircle
 10
-0.2780306080885566
 20
0.0958712967114934
 30
0.0
 40
0.005
100
AcDbArc
 50
270.0
 51
0.0
  0
LINE
  5
7F8A
330
7F55
100
AcDbEntity
  8
SANINDUSA
  6
HIDDEN
100
AcDbLine
 10
-0.3120306080882074
 20
0.1098712967113897
 30
0.0
 11
-0.2970306080878799
 21
0.1098712967113897
 31
0.0
  0
ARC
  5
7F8B
330
7F55
100
AcDbEntity
  8
SANINDUSA
  6
HIDDEN
100
AcDbCircle
 10
-0.27103060808804
 20
0.1068712967114607
 30
0.0
 40
0.002
100
AcDbArc
 50
90.0
 51
180.0
  0
ARC
  5
7F8C
330
7F55
100
AcDbEntity
  8
SANINDUSA
  6
HIDDEN
100
AcDbCircle
 10
-0.27103060808804
 20
0.1068712967114607
 30
0.0
 40
0.0040000000000001
100
AcDbArc
 50
90.0
 51
180.0
  0
LINE
  5
7F8D
330
7F55
100
AcDbEntity
  8
SANINDUSA
  6
HIDDEN
100
AcDbLine
 10
-0.2280306080883747
 20
0.1128712967113188
 30
0.0
 11
-0.2320306080882801
 21
0.1128712967113188
 31
0.0
  0
LINE
  5
7F8E
330
7F55
100
AcDbEntity
  8
SANINDUSA
  6
HIDDEN
100
AcDbLine
 10
-0.2320306080882801
 20
0.1128712967113188
 30
0.0
 11
-0.2320306080882801
 21
0.1108712967113661
 31
0.0
  0
LINE
  5
7F8F
330
7F55
100
AcDbEntity
  8
SANINDUSA
  6
HIDDEN
100
AcDbLine
 10
-0.2280306080883747
 20
0.1128712967113188
 30
0.0
 11
-0.2280306080883747
 21
0.1088712967114134
 31
0.0
  0
LINE
  5
7F90
330
7F55
100
AcDbEntity
  8
SANINDUSA
  6
HIDDEN
100
AcDbLine
 10
-0.2280306080883747
 20
-0.0181287032885393
 30
0.0
 11
-0.2280306080883747
 21
-0.0221287032886721
 31
0.0
  0
LINE
  5
7F91
330
7F55
100
AcDbEntity
  8
SANINDUSA
  6
HIDDEN
100
AcDbLine
 10
-0.2640306080884329
 20
-0.0181542044297203
 30
0.0
 11
-0.2640306080884329
 21
-0.0215151632185098
 31
0.0
  0
ARC
  5
7F92
330
7F55
100
AcDbEntity
  8
SANINDUSA
  6
HIDDEN
100
AcDbCircle
 10
-0.2600306080885275
 20
-0.0215151632185098
 30
0.0
 40
0.004
100
AcDbArc
 50
180.0
 51
213.9986946280409
  0
LINE
  5
7F93
330
7F55
100
AcDbEntity
  8
SANINDUSA
  6
HIDDEN
100
AcDbLine
 10
-0.3180306080885202
 20
-0.1048813674701705
 30
0.0
 11
-0.3180306080885202
 21
-0.1893966524810366
 31
0.0
  0
ARC
  5
7F94
330
7F55
100
AcDbEntity
  8
SANINDUSA
  6
HIDDEN
100
AcDbCircle
 10
-0.3380306080880473
 20
-0.1048813674701705
 30
0.0
 40
0.02
100
AcDbArc
 50
0.0
 51
37.28570792801806
  0
LINE
  5
7F95
330
7F55
100
AcDbEntity
  8
SANINDUSA
  6
HIDDEN
100
AcDbLine
 10
-0.3539431004101061
 20
-0.0509676795729774
 30
0.0
 11
-0.3221181157659885
 21
-0.0927655683592548
 31
0.0
  0
ARC
  5
7F96
330
7F55
100
AcDbEntity
  8
SANINDUSA
  6
HIDDEN
100
AcDbCircle
 10
-0.3380306080880473
 20
-0.0388518804618343
 30
0.0
 40
0.02
100
AcDbArc
 50
180.0
 51
217.2857079280181
  0
ARC
  5
7F97
330
7F55
100
AcDbEntity
  8
SANINDUSA
  6
HIDDEN
100
AcDbCircle
 10
-0.3380306080880473
 20
-0.1048813674701705
 30
0.0
 40
0.022
100
AcDbArc
 50
0.0
 51
37.28570792801806
  0
LINE
  5
7F98
330
7F55
100
AcDbEntity
  8
SANINDUSA
  6
HIDDEN
100
AcDbLine
 10
-0.352351851178355
 20
-0.0497560996618631
 30
0.0
 11
-0.3205268665342373
 21
-0.0915539884479131
 31
0.0
  0
ARC
  5
7F99
330
7F55
100
AcDbEntity
  8
SANINDUSA
  6
HIDDEN
100
AcDbCircle
 10
-0.3380306080880473
 20
-0.0388518804618343
 30
0.0
 40
0.018
100
AcDbArc
 50
180.0
 51
217.2857079280181
  0
LINE
  5
7F9A
330
7F55
100
AcDbEntity
  8
SANINDUSA
100
AcDbLine
 10
-0.2480306080879018
 20
-0.0246287032884993
 30
0.0
 11
-0.2279851652774596
 21
-0.0241731250428075
 31
0.0
  0
LINE
  5
7F9B
330
7F55
100
AcDbEntity
  8
SANINDUSA
100
AcDbLine
 10
-0.2279851652774596
 20
0.1149157184656815
 30
0.0
 11
-0.2480306080879018
 21
0.1153712967113734
 31
0.0
  0
LINE
  5
7F9C
330
7F55
100
AcDbEntity
  8
SANINDUSA
100
AcDbLine
 10
-0.2480306080879018
 20
-0.020128703288492
 30
0.0
 11
-0.2480306080879018
 21
-0.0246287032884993
 31
0.0
  0
LINE
  5
7F9D
330
7F55
100
AcDbEntity
  8
SANINDUSA
100
AcDbLine
 10
-0.2480306080879018
 20
0.1153712967113734
 30
0.0
 11
-0.2480306080879018
 21
0.1108712967113661
 31
0.0
  0
LINE
  5
7F9E
330
7F55
100
AcDbEntity
  8
SANINDUSA
100
AcDbLine
 10
-0.2260306080879673
 20
0.1038712967113042
 30
0.0
 11
-0.2260306080879673
 21
0.0971861471693956
 31
0.0
  0
LINE
  5
7F9F
330
7F55
100
AcDbEntity
  8
SANINDUSA
100
AcDbLine
 10
-0.2260306080879673
 20
-0.0064435537465215
 30
0.0
 11
-0.2260306080879673
 21
-0.0131287032886576
 31
0.0
  0
LINE
  5
7FA0
330
7F55
100
AcDbEntity
  8
SANINDUSA
100
AcDbLine
 10
-0.2260306080879673
 20
-0.0221736413718645
 30
0.0
 11
-0.2260306080879673
 21
-0.0131287032886576
 31
0.0
  0
LINE
  5
7FA1
330
7F55
100
AcDbEntity
  8
SANINDUSA
100
AcDbLine
 10
-0.2280306080883747
 20
-0.0141287032886339
 30
0.0
 11
-0.2280306080883747
 21
-0.0221736413718645
 31
0.0
  0
LINE
  5
7FA2
330
7F55
100
AcDbEntity
  8
SANINDUSA
100
AcDbLine
 10
-0.2280306080883747
 20
-0.0221736413718645
 30
0.0
 11
-0.2330078866825715
 21
-0.0222867613399558
 31
0.0
  0
LINE
  5
7FA3
330
7F55
100
AcDbEntity
  8
SANINDUSA
100
AcDbLine
 10
-0.2460306080884038
 20
-0.0215597467770294
 30
0.0
 11
-0.2460306080884038
 21
-0.020128703288492
 31
0.0
  0
LINE
  5
7FA4
330
7F55
100
AcDbEntity
  8
SANINDUSA
100
AcDbLine
 10
-0.2340306080877781
 20
-0.0212870195043706
 30
0.0
 11
-0.2340306080877781
 21
-0.020128703288492
 31
0.0
  0
LINE
  5
7FA5
330
7F55
100
AcDbEntity
  8
SANINDUSA
100
AcDbLine
 10
-0.2360306080881855
 20
-0.020128703288492
 30
0.0
 11
-0.2360306080881855
 21
-0.0213779285952569
 31
0.0
  0
LINE
  5
7FA6
330
7F55
100
AcDbEntity
  8
SANINDUSA
100
AcDbLine
 10
-0.238030608088593
 20
-0.0213779285952569
 30
0.0
 11
-0.238030608088593
 21
-0.020128703288492
 31
0.0
  0
LINE
  5
7FA7
330
7F55
100
AcDbEntity
  8
SANINDUSA
100
AcDbLine
 10
-0.240030608088091
 20
-0.020128703288492
 30
0.0
 11
-0.240030608088091
 21
-0.0214688376861432
 31
0.0
  0
LINE
  5
7FA8
330
7F55
100
AcDbEntity
  8
SANINDUSA
100
AcDbLine
 10
-0.2420306080884984
 20
-0.0214688376861432
 30
0.0
 11
-0.2420306080884984
 21
-0.020128703288492
 31
0.0
  0
LINE
  5
7FA9
330
7F55
100
AcDbEntity
  8
SANINDUSA
100
AcDbLine
 10
-0.2440306080879964
 20
-0.020128703288492
 30
0.0
 11
-0.2440306080879964
 21
-0.0215597467770294
 31
0.0
  0
LINE
  5
7FAA
330
7F55
100
AcDbEntity
  8
SANINDUSA
100
AcDbLine
 10
-0.2327124466928581
 20
-0.0063256389478283
 30
0.0
 11
-0.2280306080883747
 21
-0.0141287032886339
 31
0.0
  0
LINE
  5
7FAB
330
7F55
100
AcDbEntity
  8
SANINDUSA
100
AcDbLine
 10
-0.2260306080879673
 20
-0.0131287032886576
 30
0.0
 11
-0.2290252732318549
 21
-0.0063907067146829
 31
0.0
  0
LINE
  5
7FAC
330
7F55
100
AcDbEntity
  8
SANINDUSA
100
AcDbLine
 10
-0.2280306080883747
 20
0.1129162347945112
 30
0.0
 11
-0.2280306080883747
 21
0.104871296711508
 31
0.0
  0
LINE
  5
7FAD
330
7F55
100
AcDbEntity
  8
SANINDUSA
100
AcDbLine
 10
-0.2260306080879673
 20
0.1038712967113042
 30
0.0
 11
-0.2260306080879673
 21
0.1129162347945112
 31
0.0
  0
LINE
  5
7FAE
330
7F55
100
AcDbEntity
  8
SANINDUSA
100
AcDbLine
 10
-0.2280306080883747
 20
0.104871296711508
 30
0.0
 11
-0.2327124466928581
 21
0.097068232370475
 31
0.0
  0
LINE
  5
7FAF
330
7F55
100
AcDbEntity
  8
SANINDUSA
100
AcDbLine
 10
-0.2290252732318549
 20
0.097133300137557
 30
0.0
 11
-0.2260306080879673
 21
0.1038712967113042
 31
0.0
  0
LINE
  5
7FB0
330
7F55
100
AcDbEntity
  8
SANINDUSA
100
AcDbLine
 10
-0.2330078866825715
 20
0.1130293547626024
 30
0.0
 11
-0.2280306080883747
 21
0.1129162347945112
 31
0.0
  0
LINE
  5
7FB1
330
7F55
100
AcDbEntity
  8
SANINDUSA
100
AcDbLine
 10
-0.2460306080884038
 20
0.1108712967113661
 30
0.0
 11
-0.2460306080884038
 21
0.1123023401999035
 31
0.0
  0
LINE
  5
7FB2
330
7F55
100
AcDbEntity
  8
SANINDUSA
100
AcDbLine
 10
-0.2440306080879964
 20
0.1123023401999035
 30
0.0
 11
-0.2440306080879964
 21
0.1108712967113661
 31
0.0
  0
LINE
  5
7FB3
330
7F55
100
AcDbEntity
  8
SANINDUSA
100
AcDbLine
 10
-0.2420306080884984
 20
0.1108712967113661
 30
0.0
 11
-0.2420306080884984
 21
0.1122114311090172
 31
0.0
  0
LINE
  5
7FB4
330
7F55
100
AcDbEntity
  8
SANINDUSA
100
AcDbLine
 10
-0.240030608088091
 20
0.1122114311090172
 30
0.0
 11
-0.240030608088091
 21
0.1108712967113661
 31
0.0
  0
LINE
  5
7FB5
330
7F55
100
AcDbEntity
  8
SANINDUSA
100
AcDbLine
 10
-0.238030608088593
 20
0.1108712967113661
 30
0.0
 11
-0.238030608088593
 21
0.1121205220181309
 31
0.0
  0
LINE
  5
7FB6
330
7F55
100
AcDbEntity
  8
SANINDUSA
100
AcDbLine
 10
-0.2360306080881855
 20
0.1121205220181309
 30
0.0
 11
-0.2360306080881855
 21
0.1108712967113661
 31
0.0
  0
LINE
  5
7FB7
330
7F55
100
AcDbEntity
  8
SANINDUSA
100
AcDbLine
 10
-0.2340306080877781
 20
0.1108712967113661
 30
0.0
 11
-0.2340306080877781
 21
0.1120296129272447
 31
0.0
  0
ARC
  5
7FB8
330
7F55
100
AcDbEntity
  8
SANINDUSA
100
AcDbCircle
 10
-0.2450306080882001
 20
-0.0215597467770294
 30
0.0
 40
0.0010000000000002
100
AcDbArc
 50
180.0
 51
0.0
  0
ARC
  5
7FB9
330
7F55
100
AcDbEntity
  8
SANINDUSA
100
AcDbCircle
 10
-0.2410306080882947
 20
-0.0214688376861432
 30
0.0
 40
0.0010000000000002
100
AcDbArc
 50
180.0
 51
0.0
  0
ARC
  5
7FBA
330
7F55
100
AcDbEntity
  8
SANINDUSA
100
AcDbCircle
 10
-0.2370306080883893
 20
-0.0213779285952569
 30
0.0
 40
0.0010000000000002
100
AcDbArc
 50
180.0
 51
0.0
  0
ARC
  5
7FBB
330
7F55
100
AcDbEntity
  8
SANINDUSA
100
AcDbCircle
 10
-0.2330306080884839
 20
-0.0212870195043706
 30
0.0
 40
0.0010000000000002
100
AcDbArc
 50
180.0
 51
271.301952672039
  0
ARC
  5
7FBC
330
7F55
100
AcDbEntity
  8
SANINDUSA
100
AcDbCircle
 10
-0.2370306080883893
 20
0.1121205220181309
 30
0.0
 40
0.0010000000000002
100
AcDbArc
 50
0.0
 51
180.0
  0
ARC
  5
7FBD
330
7F55
100
AcDbEntity
  8
SANINDUSA
100
AcDbCircle
 10
-0.2450306080882001
 20
0.1123023401999035
 30
0.0
 40
0.0010000000000002
100
AcDbArc
 50
0.0
 51
180.0
  0
LINE
  5
7FBE
330
7F55
100
AcDbEntity
  8
SANINDUSA
100
AcDbLine
 10
-0.2460306080884038
 20
0.1123023401999035
 30
0.0
 11
-0.2460306080884038
 21
0.1108712967113661
 31
0.0
  0
ARC
  5
7FBF
330
7F55
100
AcDbEntity
  8
SANINDUSA
100
AcDbCircle
 10
-0.2410306080882947
 20
0.1122114311090172
 30
0.0
 40
0.0010000000000002
100
AcDbArc
 50
0.0
 51
180.0
  0
LINE
  5
7FC0
330
7F55
100
AcDbEntity
  8
SANINDUSA
100
AcDbLine
 10
-0.2440306080879964
 20
0.1108712967113661
 30
0.0
 11
-0.2440306080879964
 21
0.1123023401999035
 31
0.0
  0
LINE
  5
7FC1
330
7F55
100
AcDbEntity
  8
SANINDUSA
100
AcDbLine
 10
-0.2420306080884984
 20
0.1122114311090172
 30
0.0
 11
-0.2420306080884984
 21
0.1108712967113661
 31
0.0
  0
LINE
  5
7FC2
330
7F55
100
AcDbEntity
  8
SANINDUSA
100
AcDbLine
 10
-0.240030608088091
 20
0.1108712967113661
 30
0.0
 11
-0.240030608088091
 21
0.1122114311090172
 31
0.0
  0
LINE
  5
7FC3
330
7F55
100
AcDbEntity
  8
SANINDUSA
100
AcDbLine
 10
-0.238030608088593
 20
0.1121205220181309
 30
0.0
 11
-0.238030608088593
 21
0.1108712967113661
 31
0.0
  0
ARC
  5
7FC4
330
7F55
100
AcDbEntity
  8
SANINDUSA
100
AcDbCircle
 10
-0.2330306080884839
 20
0.1120296129272447
 30
0.0
 40
0.0010000000000002
100
AcDbArc
 50
88.69804732796104
 51
180.0
  0
LINE
  5
7FC5
330
7F55
100
AcDbEntity
  8
SANINDUSA
100
AcDbLine
 10
-0.2360306080881855
 20
0.1108712967113661
 30
0.0
 11
-0.2360306080881855
 21
0.1121205220181309
 31
0.0
  0
LINE
  5
7FC6
330
7F55
100
AcDbEntity
  8
SANINDUSA
100
AcDbLine
 10
-0.2340306080877781
 20
0.1120296129272447
 30
0.0
 11
-0.2340306080877781
 21
0.1108712967113661
 31
0.0
  0
ARC
  5
7FC7
330
7F55
100
AcDbEntity
  8
SANINDUSA
100
AcDbCircle
 10
-0.2280306080883747
 20
0.1129162347945112
 30
0.0
 40
0.002
100
AcDbArc
 50
0.0
 51
88.69804732796104
  0
ARC
  5
7FC8
330
7F55
100
AcDbEntity
  8
SANINDUSA
100
AcDbCircle
 10
-0.2280306080883747
 20
-0.0221736413718645
 30
0.0
 40
0.002
100
AcDbArc
 50
271.301952672039
 51
0.0
  0
LINE
  5
7FC9
330
7F55
100
AcDbEntity
  8
SANINDUSA
  6
Continuous
100
AcDbLine
 10
0.2571759601205485
 20
0.049998598943148
 30
0.0
 11
0.2571759601205485
 21
-0.049998598943148
 31
0.0
  0
LINE
  5
7FCA
330
7F55
100
AcDbEntity
  8
SANINDUSA
100
AcDbLine
 10
0.2641999999996187
 20
-0.0699999999999363
 30
0.0
 11
0.2842454428100609
 21
-0.0695444217542445
 31
0.0
  0
LINE
  5
7FCB
330
7F55
100
AcDbEntity
  8
SANINDUSA
100
AcDbLine
 10
0.2842454428100609
 20
0.0695444217542445
 30
0.0
 11
0.2641999999996187
 21
0.0699999999999363
 31
0.0
  0
LINE
  5
7FCC
330
7F55
100
AcDbEntity
  8
SANINDUSA
100
AcDbLine
 10
0.2641999999996187
 20
-0.0629638746470391
 30
0.0
 11
0.2641999999996187
 21
-0.0699999999999363
 31
0.0
  0
LINE
  5
7FCD
330
7F55
100
AcDbEntity
  8
SANINDUSA
100
AcDbLine
 10
0.2641999999996187
 20
0.0699999999999363
 30
0.0
 11
0.2641999999996187
 21
0.0629638746472665
 31
0.0
  0
LINE
  5
7FCE
330
7F55
100
AcDbEntity
  8
SANINDUSA
100
AcDbLine
 10
0.2861999999995532
 20
0.0584999999998672
 30
0.0
 11
0.2861999999995532
 21
0.0515109435793875
 31
0.0
  0
LINE
  5
7FCF
330
7F55
100
AcDbEntity
  8
SANINDUSA
100
AcDbLine
 10
0.2861999999995532
 20
-0.0515109435793875
 30
0.0
 11
0.2861999999995532
 21
-0.0585000000000946
 31
0.0
  0
LINE
  5
7FD0
330
7F55
100
AcDbEntity
  8
SANINDUSA
100
AcDbLine
 10
0.2861999999995532
 20
-0.0675449380833015
 30
0.0
 11
0.2861999999995532
 21
-0.0585000000000946
 31
0.0
  0
LINE
  5
7FD1
330
7F55
100
AcDbEntity
  8
SANINDUSA
100
AcDbLine
 10
0.2842000000000553
 20
-0.059500000000071
 30
0.0
 11
0.2842000000000553
 21
-0.0675449380833015
 31
0.0
  0
LINE
  5
7FD2
330
7F55
100
AcDbEntity
  8
SANINDUSA
100
AcDbLine
 10
0.2842000000000553
 20
-0.0675449380833015
 30
0.0
 11
0.279222721404949
 21
-0.0676580580513928
 31
0.0
  0
LINE
  5
7FD3
330
7F55
100
AcDbEntity
  8
SANINDUSA
100
AcDbLine
 10
0.2662000000000262
 20
-0.0669310434884665
 30
0.0
 11
0.2662000000000262
 21
-0.063890836662722
 31
0.0
  0
LINE
  5
7FD4
330
7F55
100
AcDbEntity
  8
SANINDUSA
100
AcDbLine
 10
0.2681999999995241
 20
-0.0648500063841766
 30
0.0
 11
0.2681999999995241
 21
-0.0669310434884665
 31
0.0
  0
LINE
  5
7FD5
330
7F55
100
AcDbEntity
  8
SANINDUSA
100
AcDbLine
 10
0.2793338659039364
 20
-0.0513897765072216
 30
0.0
 11
0.2842000000000553
 21
-0.059500000000071
 31
0.0
  0
LINE
  5
7FD6
330
7F55
100
AcDbEntity
  8
SANINDUSA
100
AcDbLine
 10
0.2861999999995532
 20
-0.0585000000000946
 30
0.0
 11
0.2830691973867942
 21
-0.0514556941216142
 31
0.0
  0
LINE
  5
7FD7
330
7F55
100
AcDbEntity
  8
SANINDUSA
100
AcDbLine
 10
0.2842000000000553
 20
0.0675449380830742
 30
0.0
 11
0.2842000000000553
 21
0.059500000000071
 31
0.0
  0
LINE
  5
7FD8
330
7F55
100
AcDbEntity
  8
SANINDUSA
100
AcDbLine
 10
0.2861999999995532
 20
0.0584999999998672
 30
0.0
 11
0.2861999999995532
 21
0.0675449380830742
 31
0.0
  0
LINE
  5
7FD9
330
7F55
100
AcDbEntity
  8
SANINDUSA
100
AcDbLine
 10
0.2842000000000553
 20
0.059500000000071
 30
0.0
 11
0.2793338659039364
 21
0.0513897765069942
 31
0.0
  0
LINE
  5
7FDA
330
7F55
100
AcDbEntity
  8
SANINDUSA
100
AcDbLine
 10
0.2830691973867942
 20
0.0514556941213869
 30
0.0
 11
0.2861999999995532
 21
0.0584999999998672
 31
0.0
  0
LINE
  5
7FDB
330
7F55
100
AcDbEntity
  8
SANINDUSA
100
AcDbLine
 10
0.279222721404949
 20
0.0676580580511654
 30
0.0
 11
0.2842000000000553
 21
0.0675449380830742
 31
0.0
  0
LINE
  5
7FDC
330
7F55
100
AcDbEntity
  8
SANINDUSA
100
AcDbLine
 10
0.2662000000000262
 20
0.0638908366629494
 30
0.0
 11
0.2662000000000262
 21
0.0669310434884665
 31
0.0
  0
LINE
  5
7FDD
330
7F55
100
AcDbEntity
  8
SANINDUSA
100
AcDbLine
 10
0.2681999999995241
 20
0.0669310434884665
 30
0.0
 11
0.2681999999995241
 21
0.0648500063839492
 31
0.0
  0
ARC
  5
7FDE
330
7F55
100
AcDbEntity
  8
SANINDUSA
100
AcDbCircle
 10
0.2671999999993204
 20
-0.0669310434884665
 30
0.0
 40
0.0010000000000002
100
AcDbArc
 50
180.0
 51
0.0
  0
ARC
  5
7FDF
330
7F55
100
AcDbEntity
  8
SANINDUSA
100
AcDbCircle
 10
0.2711999999992258
 20
-0.0668401343975802
 30
0.0
 40
0.0010000000000002
100
AcDbArc
 50
180.5639344929796
 51
343.1500899781601
  0
ARC
  5
7FE0
330
7F55
100
AcDbEntity
  8
SANINDUSA
100
AcDbCircle
 10
0.2752000000000407
 20
-0.0667492253066939
 30
0.0
 40
0.0010000000000002
100
AcDbArc
 50
202.3816772040944
 51
337.6183227959056
  0
ARC
  5
7FE1
330
7F55
100
AcDbEntity
  8
SANINDUSA
100
AcDbCircle
 10
0.2791999999999462
 20
-0.0666583162158077
 30
0.0
 40
0.0010000000000002
100
AcDbArc
 50
208.1436502311457
 51
271.301952672039
  0
ARC
  5
7FE2
330
7F55
100
AcDbEntity
  8
SANINDUSA
100
AcDbCircle
 10
0.2752000000000407
 20
0.0667492253066939
 30
0.0
 40
0.0010000000000002
100
AcDbArc
 50
22.38167719202895
 51
157.618322807971
  0
ARC
  5
7FE3
330
7F55
100
AcDbEntity
  8
SANINDUSA
100
AcDbCircle
 10
0.2671999999993204
 20
0.0669310434884665
 30
0.0
 40
0.0010000000000002
100
AcDbArc
 50
0.0
 51
180.0
  0
LINE
  5
7FE4
330
7F55
100
AcDbEntity
  8
SANINDUSA
100
AcDbLine
 10
0.2662000000000262
 20
0.0669310434884665
 30
0.0
 11
0.2662000000000262
 21
0.0638908366629494
 31
0.0
  0
ARC
  5
7FE5
330
7F55
100
AcDbEntity
  8
SANINDUSA
100
AcDbCircle
 10
0.2711999999992258
 20
0.0668401343975802
 30
0.0
 40
0.0010000000000002
100
AcDbArc
 50
16.84991000937676
 51
179.4360655200489
  0
LINE
  5
7FE6
330
7F55
100
AcDbEntity
  8
SANINDUSA
100
AcDbLine
 10
0.2681999999995241
 20
0.0648500063839492
 30
0.0
 11
0.2681999999995241
 21
0.0669310434884665
 31
0.0
  0
ARC
  5
7FE7
330
7F55
100
AcDbEntity
  8
SANINDUSA
100
AcDbCircle
 10
0.2791999999999462
 20
0.0666583162158077
 30
0.0
 40
0.0010000000000002
100
AcDbArc
 50
88.69804732796104
 51
151.8563497803362
  0
ARC
  5
7FE8
330
7F55
100
AcDbEntity
  8
SANINDUSA
100
AcDbCircle
 10
0.2842000000000553
 20
0.0675449380830742
 30
0.0
 40
0.002
100
AcDbArc
 50
0.0
 51
88.69804732796104
  0
ARC
  5
7FE9
330
7F55
100
AcDbEntity
  8
SANINDUSA
100
AcDbCircle
 10
0.2842000000000553
 20
-0.0675449380833015
 30
0.0
 40
0.002
100
AcDbArc
 50
271.301952672039
 51
0.0
  0
LINE
  5
7FEA
330
7F55
100
AcDbEntity
  8
SANINDUSA
100
AcDbLine
 10
0.271900752518377
 20
0.064679999999953
 30
0.0
 11
0.271900752518377
 21
0.0512586039178586
 31
0.0
  0
LINE
  5
7FEB
330
7F55
100
AcDbEntity
  8
SANINDUSA
100
AcDbLine
 10
0.271900752518377
 20
-0.051258603918086
 30
0.0
 11
0.271900752518377
 21
-0.0646800000001804
 31
0.0
  0
LINE
  5
7FEC
330
7F55
100
AcDbEntity
  8
SANINDUSA
100
AcDbLine
 10
0.2655799999993178
 20
0.0548799999999119
 30
0.0
 11
0.2655799999993178
 21
0.051147061226402
 31
0.0
  0
LINE
  5
7FED
330
7F55
100
AcDbEntity
  8
SANINDUSA
100
AcDbLine
 10
0.2655799999993178
 20
-0.0511470612266294
 30
0.0
 11
0.2655799999993178
 21
-0.0548800000001393
 31
0.0
  0
LINE
  5
7FEE
330
7F55
100
AcDbEntity
  8
SANINDUSA
100
AcDbLine
 10
0.2616107525182088
 20
0.0543900000000122
 30
0.0
 11
0.2616107525182088
 21
0.0510770156827221
 31
0.0
  0
LINE
  5
7FEF
330
7F55
100
AcDbEntity
  8
SANINDUSA
100
AcDbLine
 10
0.2616107525182088
 20
-0.0510770156827221
 30
0.0
 11
0.2616107525182088
 21
-0.0543900000000122
 31
0.0
  0
LINE
  5
7FF0
330
7F55
100
AcDbEntity
  8
SANINDUSA
100
AcDbLine
 10
0.0
 20
-0.0480199999999513
 30
0.0
 11
0.0
 21
0.0480199999999513
 31
0.0
  0
LINE
  5
7FF1
330
7F55
100
AcDbEntity
  8
SANINDUSA
100
AcDbLine
 10
0.000489999999445
 20
0.0475300000000516
 30
0.0
 11
0.000489999999445
 21
-0.0475300000000516
 31
0.0
  0
LINE
  5
7FF2
330
7F55
100
AcDbEntity
  8
SANINDUSA
100
AcDbLine
 10
0.2394558456726372
 20
0.0514954290604237
 30
0.0
 11
0.2680610583383896
 21
0.0647534018573879
 31
0.0
  0
LINE
  5
7FF3
330
7F55
100
AcDbEntity
  8
SANINDUSA
100
AcDbLine
 10
0.2546318585818881
 20
0.0478170353544556
 30
0.0
 11
0.2609177878730406
 21
0.0541029646453808
 31
0.0
  0
LINE
  5
7FF4
330
7F55
100
AcDbEntity
  8
SANINDUSA
100
AcDbLine
 10
0.000489999999445
 20
0.0475300000000516
 30
0.0
 11
0.25393889393672
 21
0.0475300000000516
 31
0.0
  0
LINE
  5
7FF5
330
7F55
100
AcDbEntity
  8
SANINDUSA
100
AcDbLine
 10
0.0082044012569895
 20
0.0514499999999316
 30
0.0
 11
0.2392497954851933
 21
0.0514499999999316
 31
0.0
  0
ARC
  5
7FF6
330
7F55
100
AcDbEntity
  8
SANINDUSA
100
AcDbCircle
 10
0.0082044012569895
 20
0.0166170408240305
 30
0.0
 40
0.0348329591759133
100
AcDbArc
 50
90.0
 51
102.981023069007
  0
ARC
  5
7FF7
330
7F55
100
AcDbEntity
  8
SANINDUSA
100
AcDbCircle
 10
0.000489999999445
 20
0.0500823491029223
 30
0.0
 40
0.0004900000000001
100
AcDbArc
 50
102.981023069007
 51
180.0
  0
LINE
  5
7FF8
330
7F55
100
AcDbEntity
  8
SANINDUSA
100
AcDbLine
 10
0.0
 20
0.0480199999999513
 30
0.0
 11
0.0
 21
0.0500823491029223
 31
0.0
  0
ARC
  5
7FF9
330
7F55
100
AcDbEntity
  8
SANINDUSA
100
AcDbCircle
 10
0.000489999999445
 20
0.0480199999999513
 30
0.0
 40
0.00049
100
AcDbArc
 50
180.0
 51
270.0
  0
ARC
  5
7FFA
330
7F55
100
AcDbEntity
  8
SANINDUSA
100
AcDbCircle
 10
0.25393889393672
 20
0.0485099999998511
 30
0.0
 40
0.00098
100
AcDbArc
 50
270.0
 51
315.0000000000092
  0
ARC
  5
7FFB
330
7F55
100
AcDbEntity
  8
SANINDUSA
100
AcDbCircle
 10
0.2392497954851933
 20
0.0519400000000587
 30
0.0
 40
0.00049
100
AcDbArc
 50
270.0
 51
294.8668271162652
  0
ARC
  5
7FFC
330
7F55
100
AcDbEntity
  8
SANINDUSA
100
AcDbCircle
 10
0.2832199999993463
 20
0.0661499999998796
 30
0.0
 40
0.0009800000000001
100
AcDbArc
 50
0.0
 51
90.0
  0
ARC
  5
7FFD
330
7F55
100
AcDbEntity
  8
SANINDUSA
100
AcDbCircle
 10
0.2708859292906709
 20
0.0661499999998796
 30
0.0
 40
0.0009799999999999
100
AcDbArc
 50
90.0
 51
135.0000000000092
  0
LINE
  5
7FFE
330
7F55
100
AcDbEntity
  8
SANINDUSA
100
AcDbLine
 10
0.271900752518377
 20
0.064679999999953
 30
0.0
 11
0.2832199999993463
 21
0.064679999999953
 31
0.0
  0
LINE
  5
7FFF
330
7F55
100
AcDbEntity
  8
SANINDUSA
100
AcDbLine
 10
0.2708859292906709
 20
0.0671299999999064
 30
0.0
 11
0.2832199999993463
 21
0.0671299999999064
 31
0.0
  0
ARC
  5
8000
330
7F55
100
AcDbEntity
  8
SANINDUSA
100
AcDbCircle
 10
0.2616107525182088
 20
0.0534099999999853
 30
0.0
 40
0.00098
100
AcDbArc
 50
90.0
 51
135.0000000000092
  0
LINE
  5
8001
330
7F55
100
AcDbEntity
  8
SANINDUSA
100
AcDbLine
 10
0.265065376259372
 20
0.0582505530317121
 30
0.0
 11
0.265065376259372
 21
0.0568646237404664
 31
0.0
  0
LINE
  5
8002
330
7F55
100
AcDbEntity
  8
SANINDUSA
100
AcDbLine
 10
0.2650899999998728
 20
0.0543900000000122
 30
0.0
 11
0.2616107525182088
 21
0.0543900000000122
 31
0.0
  0
ARC
  5
8003
330
7F55
100
AcDbEntity
  8
SANINDUSA
100
AcDbCircle
 10
0.2650899999998728
 20
0.0548799999999119
 30
0.0
 40
0.0004900000000001
100
AcDbArc
 50
270.0
 51
0.0
  0
LINE
  5
8004
330
7F55
100
AcDbEntity
  8
SANINDUSA
100
AcDbLine
 10
0.2655799999993178
 20
0.0561470353543427
 30
0.0
 11
0.2655799999993178
 21
0.0548799999999119
 31
0.0
  0
ARC
  5
8005
330
7F55
100
AcDbEntity
  8
SANINDUSA
100
AcDbCircle
 10
0.2650899999998728
 20
0.0561470353543427
 30
0.0
 40
0.0004900000000001
100
AcDbArc
 50
0.0
 51
44.99999999999078
  0
LINE
  5
8006
330
7F55
100
AcDbEntity
  8
SANINDUSA
100
AcDbLine
 10
0.265065376259372
 20
0.0568646237404664
 30
0.0
 11
0.2654364823229116
 21
0.0564935176771542
 31
0.0
  0
ARC
  5
8007
330
7F55
100
AcDbEntity
  8
SANINDUSA
100
AcDbCircle
 10
0.2657583409045401
 20
0.0575575883860893
 30
0.0
 40
0.00098
100
AcDbArc
 50
135.0000000000092
 51
224.9999999999908
  0
ARC
  5
8008
330
7F55
100
AcDbEntity
  8
SANINDUSA
100
AcDbCircle
 10
0.271900752518377
 20
0.0636999999999262
 30
0.0
 40
0.0009799999999999
100
AcDbArc
 50
90.0
 51
135.0000000000092
  0
ARC
  5
8009
330
7F55
100
AcDbEntity
  8
SANINDUSA
100
AcDbCircle
 10
0.2678550081509456
 20
0.0651979727970229
 30
0.0
 40
0.00049
100
AcDbArc
 50
294.8668271162652
 51
315.0000000000092
  0
LINE
  5
800A
330
7F55
100
AcDbEntity
  8
SANINDUSA
100
AcDbLine
 10
0.2682014904739844
 20
0.0648514904742115
 30
0.0
 11
0.2701929646455028
 21
0.0668429646455024
 31
0.0
  0
LINE
  5
800B
330
7F55
100
AcDbEntity
  8
SANINDUSA
100
AcDbLine
 10
0.265065376259372
 20
0.0582505530317121
 30
0.0
 11
0.2712077878732089
 21
0.064392964645549
 31
0.0
  0
ARC
  5
800C
330
7F55
100
AcDbEntity
  8
SANINDUSA
100
AcDbCircle
 10
0.2832199999993463
 20
0.0656599999999799
 30
0.0
 40
0.0009800000000001
100
AcDbArc
 50
270.0
 51
0.0
  0
LINE
  5
800D
330
7F55
100
AcDbEntity
  8
SANINDUSA
100
AcDbLine
 10
0.2842000000000553
 20
0.0661499999998796
 30
0.0
 11
0.2842000000000553
 21
0.0656599999999799
 31
0.0
  0
LINE
  5
800E
330
7F55
100
AcDbEntity
  8
SANINDUSA
100
AcDbLine
 10
0.2394558456726372
 20
-0.0514954290604237
 30
0.0
 11
0.2680610583383896
 21
-0.0647534018573879
 31
0.0
  0
LINE
  5
800F
330
7F55
100
AcDbEntity
  8
SANINDUSA
100
AcDbLine
 10
0.2609177878730406
 20
-0.0541029646456082
 30
0.0
 11
0.2546318585818881
 21
-0.0478170353544556
 31
0.0
  0
LINE
  5
8010
330
7F55
100
AcDbEntity
  8
SANINDUSA
100
AcDbLine
 10
0.25393889393672
 20
-0.0475300000000516
 30
0.0
 11
0.000489999999445
 21
-0.0475300000000516
 31
0.0
  0
LINE
  5
8011
330
7F55
100
AcDbEntity
  8
SANINDUSA
100
AcDbLine
 10
0.2392497954851933
 20
-0.051450000000159
 30
0.0
 11
0.0082044012569895
 21
-0.051450000000159
 31
0.0
  0
ARC
  5
8012
330
7F55
100
AcDbEntity
  8
SANINDUSA
100
AcDbCircle
 10
0.0082044012569895
 20
-0.0166170408240305
 30
0.0
 40
0.0348329591759133
100
AcDbArc
 50
257.018976930993
 51
270.0
  0
ARC
  5
8013
330
7F55
100
AcDbEntity
  8
SANINDUSA
100
AcDbCircle
 10
0.000489999999445
 20
-0.0500823491031497
 30
0.0
 40
0.00049
100
AcDbArc
 50
180.0
 51
257.018976930993
  0
ARC
  5
8014
330
7F55
100
AcDbEntity
  8
SANINDUSA
100
AcDbCircle
 10
0.000489999999445
 20
-0.0480199999999513
 30
0.0
 40
0.00049
100
AcDbArc
 50
90.0
 51
180.0
  0
LINE
  5
8015
330
7F55
100
AcDbEntity
  8
SANINDUSA
100
AcDbLine
 10
0.0
 20
-0.0500823491031497
 30
0.0
 11
0.0
 21
-0.0480199999999513
 31
0.0
  0
ARC
  5
8016
330
7F55
100
AcDbEntity
  8
SANINDUSA
100
AcDbCircle
 10
0.25393889393672
 20
-0.0485100000000784
 30
0.0
 40
0.00098
100
AcDbArc
 50
44.99999999999078
 51
90.0
  0
ARC
  5
8017
330
7F55
100
AcDbEntity
  8
SANINDUSA
100
AcDbCircle
 10
0.2832199999993463
 20
-0.066150000000107
 30
0.0
 40
0.0009800000000001
100
AcDbArc
 50
270.0
 51
0.0
  0
LINE
  5
8018
330
7F55
100
AcDbEntity
  8
SANINDUSA
100
AcDbLine
 10
0.2701929646455028
 20
-0.0668429646455024
 30
0.0
 11
0.2682014904739844
 21
-0.0648514904742115
 31
0.0
  0
LINE
  5
8019
330
7F55
100
AcDbEntity
  8
SANINDUSA
100
AcDbLine
 10
0.2832199999993463
 20
-0.0646800000001804
 30
0.0
 11
0.271900752518377
 21
-0.0646800000001804
 31
0.0
  0
ARC
  5
801A
330
7F55
100
AcDbEntity
  8
SANINDUSA
100
AcDbCircle
 10
0.271900752518377
 20
-0.0636999999999262
 30
0.0
 40
0.00098
100
AcDbArc
 50
224.9999999999908
 51
270.0
  0
ARC
  5
801B
330
7F55
100
AcDbEntity
  8
SANINDUSA
100
AcDbCircle
 10
0.2678550081509456
 20
-0.0651979727970229
 30
0.0
 40
0.00049
100
AcDbArc
 50
44.99999999999078
 51
65.13317288373476
  0
ARC
  5
801C
330
7F55
100
AcDbEntity
  8
SANINDUSA
100
AcDbCircle
 10
0.2616107525182088
 20
-0.0534099999999853
 30
0.0
 40
0.00098
100
AcDbArc
 50
224.9999999999908
 51
270.0
  0
LINE
  5
801D
330
7F55
100
AcDbEntity
  8
SANINDUSA
100
AcDbLine
 10
0.265065376259372
 20
-0.0568646237404664
 30
0.0
 11
0.265065376259372
 21
-0.0582505530317121
 31
0.0
  0
ARC
  5
801E
330
7F55
100
AcDbEntity
  8
SANINDUSA
100
AcDbCircle
 10
0.2657583409045401
 20
-0.0575575883860893
 30
0.0
 40
0.0009799999999999
100
AcDbArc
 50
135.0000000000092
 51
224.9999999999908
  0
LINE
  5
801F
330
7F55
100
AcDbEntity
  8
SANINDUSA
100
AcDbLine
 10
0.2654364823229116
 20
-0.0564935176773815
 30
0.0
 11
0.265065376259372
 21
-0.0568646237404664
 31
0.0
  0
ARC
  5
8020
330
7F55
100
AcDbEntity
  8
SANINDUSA
100
AcDbCircle
 10
0.2650899999998728
 20
-0.0561470353545701
 30
0.0
 40
0.0004900000000001
100
AcDbArc
 50
315.0000000000092
 51
0.0
  0
LINE
  5
8021
330
7F55
100
AcDbEntity
  8
SANINDUSA
100
AcDbLine
 10
0.2655799999993178
 20
-0.0548800000001393
 30
0.0
 11
0.2655799999993178
 21
-0.0561470353545701
 31
0.0
  0
ARC
  5
8022
330
7F55
100
AcDbEntity
  8
SANINDUSA
100
AcDbCircle
 10
0.2650899999998728
 20
-0.0548800000001393
 30
0.0
 40
0.00049
100
AcDbArc
 50
0.0
 51
90.0
  0
LINE
  5
8023
330
7F55
100
AcDbEntity
  8
SANINDUSA
100
AcDbLine
 10
0.2616107525182088
 20
-0.0543900000000122
 30
0.0
 11
0.2650899999998728
 21
-0.0543900000000122
 31
0.0
  0
LINE
  5
8024
330
7F55
100
AcDbEntity
  8
SANINDUSA
100
AcDbLine
 10
0.2712077878732089
 20
-0.064392964645549
 30
0.0
 11
0.265065376259372
 21
-0.0582505530317121
 31
0.0
  0
LINE
  5
8025
330
7F55
100
AcDbEntity
  8
SANINDUSA
100
AcDbLine
 10
0.2842000000000553
 20
-0.0656599999999799
 30
0.0
 11
0.2842000000000553
 21
-0.066150000000107
 31
0.0
  0
ARC
  5
8026
330
7F55
100
AcDbEntity
  8
SANINDUSA
100
AcDbCircle
 10
0.2832199999993463
 20
-0.0656599999999799
 30
0.0
 40
0.0009800000000001
100
AcDbArc
 50
0.0
 51
90.0
  0
LINE
  5
8027
330
7F55
100
AcDbEntity
  8
SANINDUSA
100
AcDbLine
 10
0.2832199999993463
 20
-0.0671300000001338
 30
0.0
 11
0.2708859292906709
 21
-0.0671300000001338
 31
0.0
  0
ARC
  5
8028
330
7F55
100
AcDbEntity
  8
SANINDUSA
100
AcDbCircle
 10
0.2708859292906709
 20
-0.066150000000107
 30
0.0
 40
0.00098
100
AcDbArc
 50
224.9999999999908
 51
270.0
  0
ENDBLK
  5
802A
330
7F55
100
AcDbEntity
  8
0
100
AcDbBlockEnd
  0
ENDSEC
  0
SECTION
  2
ENTITIES
  0
LWPOLYLINE
  5
10E6
330
1F
100
AcDbEntity
  8
SANINDUSA
  6
Continuous
100
AcDbPolyline
 90
       13
 70
   128
 43
0.0
 10
774.3493797936364
 20
1021.009148975649
 10
774.3494605817919
 20
1020.987148315408
 10
774.3506551502577
 20
1020.963259184833
 10
774.3529310116407
 20
1020.939489830239
 10
774.3562761936831
 20
1020.915897086941
 10
774.360674547533
 20
1020.892533459876
 10
774.3661049756946
 20
1020.869456015482
 10
774.3725416568224
 20
1020.846718310539
 10
774.3799506701035
 20
1020.824378499016
 10
774.3882903494959
 20
1020.802493045724
 10
774.3975032327142
 20
1020.78112427912
 10
774.4075139844825
 20
1020.760340104212
 10
774.4171394181679
 20
1020.742227098084
  0
LWPOLYLINE
  5
10E7
330
1F
100
AcDbEntity
  8
SANINDUSA
  6
Continuous
100
AcDbPolyline
 90
       13
 70
   128
 43
0.0
 10
774.6289884445591
 20
1020.742227098084
 10
774.6386138782445
 20
1020.760340104212
 10
774.6486246300126
 20
1020.78112427912
 10
774.6578375132311
 20
1020.802493045724
 10
774.6661771926235
 20
1020.824378499016
 10
774.6735862059046
 20
1020.846718310539
 10
774.6800228870323
 20
1020.869456015482
 10
774.685453315194
 20
1020.892533459876
 10
774.6898516690438
 20
1020.915897086941
 10
774.6931968510863
 20
1020.939489830239
 10
774.6954727124692
 20
1020.963259184833
 10
774.696667280935
 20
1020.987148315408
 10
774.6967480690906
 20
1021.009148975649
  0
LWPOLYLINE
  5
10F1
330
1F
100
AcDbEntity
  8
SANINDUSA
  6
Continuous
100
AcDbPolyline
 90
        8
 70
   128
 43
0.0
 10
774.5230639313635
 20
1020.73543467405
 10
774.5304275600294
 20
1020.735434249786
 10
774.5379941357071
 20
1020.735433348328
 10
774.5454551683093
 20
1020.735433719599
 10
774.5526839113521
 20
1020.735436213065
 10
774.5597179561021
 20
1020.73544767448
 10
774.5665082106638
 20
1020.735479047724
 10
774.5665082635721
 20
1020.735479048082
  0
LINE
  5
10F3
330
1F
100
AcDbEntity
  8
SANINDUSA
  6
Continuous
100
AcDbLine
 10
774.6276152592534
 20
1020.659221447265
 30
0.0
 11
774.4185126034737
 21
1020.659221447265
 31
0.0
  0
LINE
  5
10F4
330
1F
100
AcDbEntity
  8
SANINDUSA
  6
Continuous
100
AcDbLine
 10
774.3948750898462
 20
1020.787220109298
 30
0.0
 11
774.3909395838296
 21
1020.661283916769
 31
0.0
  0
LWPOLYLINE
  5
10F5
330
1F
100
AcDbEntity
  8
SANINDUSA
  6
Continuous
100
AcDbPolyline
 90
        3
 70
   128
 43
0.0
 10
774.419002779537
 20
1020.736438614419
 10
774.4170524504364
 20
1020.677416321855
 10
774.4165192704289
 20
1020.661284191676
  0
LWPOLYLINE
  5
10F6
330
1F
100
AcDbEntity
  8
SANINDUSA
  6
Continuous
100
AcDbPolyline
 90
        3
 70
   128
 43
0.0
 10
774.4132617209414
 20
1020.661283725895
 10
774.4147966188295
 20
1020.702044925057
 10
774.4163766804398
 20
1020.743662407244
  0
LINE
  5
10F8
330
1F
100
AcDbEntity
  8
SANINDUSA
  6
Continuous
100
AcDbLine
 10
774.4152546371315
 20
1020.659221447265
 30
0.0
 11
774.3929386079818
 21
1020.659221447265
 31
0.0
  0
ARC
  5
10F9
330
1F
100
AcDbEntity
  8
SANINDUSA
  6
Continuous
100
AcDbCircle
 10
774.3929386079818
 20
1020.661221447265
 30
0.0
 40
0.0020000000000002
100
AcDbArc
 50
178.2100893916696
 51
270.0268317700867
  0
LWPOLYLINE
  5
10FC
330
1F
100
AcDbEntity
  8
SANINDUSA
  6
Continuous
100
AcDbPolyline
 90
        9
 70
   128
 43
0.0
 10
774.4152546371315
 20
1020.659221447265
 10
774.4148580396751
 20
1020.659261410555
 10
774.4144772915579
 20
1020.659379703361
 10
774.4141276087274
 20
1020.659571598313
 10
774.4138229656601
 20
1020.659829426658
 10
774.4135755368955
 20
1020.660142884726
 10
774.4133952105008
 20
1020.660499445702
 10
774.4132891929124
 20
1020.660884860236
 10
774.4132617209414
 20
1020.661283725895
  0
LWPOLYLINE
  5
10FD
330
1F
100
AcDbEntity
  8
SANINDUSA
  6
Continuous
100
AcDbPolyline
 90
        9
 70
   128
 43
0.0
 10
774.4185126034737
 20
1020.659221447265
 10
774.4181158632466
 20
1020.659261422142
 10
774.4177349826616
 20
1020.659379748784
 10
774.4173851873734
 20
1020.659571697098
 10
774.4170804604057
 20
1020.659829593972
 10
774.4168329831819
 20
1020.660143130011
 10
774.4166526485738
 20
1020.660499771651
 10
774.4165466654351
 20
1020.660885262185
 10
774.4165192704289
 20
1020.661284191676
  0
LINE
  5
10FE
330
1F
100
AcDbEntity
  8
SANINDUSA
  6
Continuous
100
AcDbLine
 10
774.4185126034737
 20
1020.659221447265
 30
0.0
 11
774.4152546371315
 21
1020.659221447265
 31
0.0
  0
LWPOLYLINE
  5
1100
330
1F
100
AcDbEntity
  8
SANINDUSA
  6
Continuous
100
AcDbPolyline
 90
       13
 70
   128
 43
0.0
 10
774.4791733374718
 20
1020.735488891013
 10
774.4712206884335
 20
1020.735588550268
 10
774.463693017806
 20
1020.735666972376
 10
774.4564216308263
 20
1020.735761517341
 10
774.4496770640173
 20
1020.735855114037
 10
774.4434298599551
 20
1020.73594763642
 10
774.437810481439
 20
1020.736036689353
 10
774.4327282218507
 20
1020.736123320259
 10
774.4283858936658
 20
1020.736203670846
 10
774.4249043833911
 20
1020.736274730663
 10
774.4221749304198
 20
1020.736337791078
 10
774.4201746014052
 20
1020.73639334215
 10
774.419002779537
 20
1020.736438614419
  0
LINE
  5
1101
330
1F
100
AcDbEntity
  8
SANINDUSA
  6
Continuous
100
AcDbLine
 10
774.4171394181679
 20
1020.742227098084
 30
0.0
 11
774.4177358319344
 21
1020.741643023888
 31
0.0
  0
LWPOLYLINE
  5
1102
330
1F
100
AcDbEntity
  8
SANINDUSA
  6
Continuous
100
AcDbPolyline
 90
        9
 70
   128
 43
0.0
 10
774.419002779537
 20
1020.736438614419
 10
774.4190013468509
 20
1020.737116483791
 10
774.4189541226675
 20
1020.737792679425
 10
774.418861323993
 20
1020.738464094044
 10
774.4187233772589
 20
1020.739127642341
 10
774.4185409163629
 20
1020.739780275156
 10
774.4183147797556
 20
1020.740418993487
 10
774.4180460065876
 20
1020.741040862276
 10
774.4177358319344
 20
1020.741643023888
  0
LWPOLYLINE
  5
1103
330
1F
100
AcDbEntity
  8
SANINDUSA
  6
Continuous
100
AcDbPolyline
 90
        5
 70
   128
 43
0.0
 10
774.419002779537
 20
1020.736438614419
 10
774.4183006424705
 20
1020.737100907939
 10
774.4178053223207
 20
1020.738388173739
 10
774.4173380620735
 20
1020.740316282489
 10
774.416946408337
 20
1020.742590301277
  0
LWPOLYLINE
  5
1105
330
1F
100
AcDbEntity
  8
SANINDUSA
  6
Continuous
100
AcDbPolyline
 90
        8
 70
   128
 43
0.0
 10
774.5230639313635
 20
1020.73543467405
 10
774.5157003026975
 20
1020.735434249786
 10
774.50813372702
 20
1020.735433348328
 10
774.5006726944177
 20
1020.735433719599
 10
774.4934439513749
 20
1020.735436213065
 10
774.486409906625
 20
1020.73544767448
 10
774.479619652063
 20
1020.735479047724
 10
774.4796195991548
 20
1020.735479048082
  0
LWPOLYLINE
  5
110B
330
1F
100
AcDbEntity
  8
SANINDUSA
  6
Continuous
100
AcDbPolyline
 90
        3
 70
   128
 43
0.0
 10
774.6271250831901
 20
1020.736438614419
 10
774.6290754122906
 20
1020.677416321855
 10
774.6296085922981
 20
1020.661284191676
  0
LWPOLYLINE
  5
110C
330
1F
100
AcDbEntity
  8
SANINDUSA
  6
Continuous
100
AcDbPolyline
 90
        3
 70
   128
 43
0.0
 10
774.6328661417854
 20
1020.661283725895
 10
774.6313312438975
 20
1020.702044925057
 10
774.6297511822872
 20
1020.743662407244
  0
LINE
  5
110D
330
1F
100
AcDbEntity
  8
SANINDUSA
  6
Continuous
100
AcDbLine
 10
774.6512470721572
 20
1020.787206886789
 30
0.0
 11
774.6551821709352
 21
1020.661283725896
 31
0.0
  0
LINE
  5
110F
330
1F
100
AcDbEntity
  8
SANINDUSA
  6
Continuous
100
AcDbLine
 10
774.6308732255954
 20
1020.659221447265
 30
0.0
 11
774.6531892547452
 21
1020.659221447265
 31
0.0
  0
LWPOLYLINE
  5
1110
330
1F
100
AcDbEntity
  8
SANINDUSA
  6
Continuous
100
AcDbPolyline
 90
        9
 70
   128
 43
0.0
 10
774.6276152592534
 20
1020.659221447265
 10
774.6280119994804
 20
1020.659261422142
 10
774.6283928800655
 20
1020.659379748784
 10
774.6287426753537
 20
1020.659571697098
 10
774.6290474023212
 20
1020.659829593972
 10
774.629294879545
 20
1020.660143130011
 10
774.6294752141531
 20
1020.660499771651
 10
774.6295811972919
 20
1020.660885262185
 10
774.6296085922981
 20
1020.661284191676
  0
LINE
  5
1113
330
1F
100
AcDbEntity
  8
SANINDUSA
  6
Continuous
100
AcDbLine
 10
774.6276152592534
 20
1020.659221447265
 30
0.0
 11
774.6308732255954
 21
1020.659221447265
 31
0.0
  0
LWPOLYLINE
  5
1114
330
1F
100
AcDbEntity
  8
SANINDUSA
  6
Continuous
100
AcDbPolyline
 90
        9
 70
   128
 43
0.0
 10
774.6531892547452
 20
1020.659221447265
 10
774.6535858522016
 20
1020.659261410555
 10
774.6539666003188
 20
1020.659379703361
 10
774.6543162831494
 20
1020.659571598313
 10
774.6546209262166
 20
1020.659829426658
 10
774.6548683549812
 20
1020.660142884726
 10
774.6550486813759
 20
1020.660499445702
 10
774.6551546989643
 20
1020.660884860236
 10
774.6551821709352
 20
1020.661283725896
  0
LWPOLYLINE
  5
1116
330
1F
100
AcDbEntity
  8
SANINDUSA
  6
Continuous
100
AcDbPolyline
 90
       13
 70
   128
 43
0.0
 10
774.5669545252551
 20
1020.735488891013
 10
774.5749071742936
 20
1020.735588550268
 10
774.5824348449209
 20
1020.735666972376
 10
774.5897062319007
 20
1020.735761517341
 10
774.5964507987097
 20
1020.735855114037
 10
774.6026980027719
 20
1020.73594763642
 10
774.608317381288
 20
1020.736036689353
 10
774.6133996408762
 20
1020.736123320259
 10
774.6177419690613
 20
1020.736203670846
 10
774.6212234793359
 20
1020.736274730663
 10
774.6239529323072
 20
1020.736337791078
 10
774.6259532613216
 20
1020.73639334215
 10
774.6271250831901
 20
1020.736438614419
  0
LINE
  5
1119
330
1F
100
AcDbEntity
  8
SANINDUSA
  6
Continuous
100
AcDbLine
 10
774.6289884445591
 20
1020.742227098084
 30
0.0
 11
774.6283920307925
 21
1020.741643023888
 31
0.0
  0
LWPOLYLINE
  5
111A
330
1F
100
AcDbEntity
  8
SANINDUSA
  6
Continuous
100
AcDbPolyline
 90
        9
 70
   128
 43
0.0
 10
774.6271250831901
 20
1020.736438614419
 10
774.6271265158761
 20
1020.737116483791
 10
774.6271737400594
 20
1020.737792679425
 10
774.627266538734
 20
1020.738464094044
 10
774.6274044854681
 20
1020.739127642341
 10
774.6275869463641
 20
1020.739780275156
 10
774.6278130829714
 20
1020.740418993487
 10
774.6280818561395
 20
1020.741040862276
 10
774.6283920307925
 20
1020.741643023888
  0
LWPOLYLINE
  5
111B
330
1F
100
AcDbEntity
  8
SANINDUSA
  6
Continuous
100
AcDbPolyline
 90
        6
 70
   128
 43
0.0
 10
774.6271250831901
 20
1020.736438614419
 10
774.6274802668936
 20
1020.736615997965
 10
774.6278272202565
 20
1020.737100907939
 10
774.6283225404063
 20
1020.738388173739
 10
774.6287898006535
 20
1020.740316282489
 10
774.6291814543901
 20
1020.742590301277
  0
LINE
  5
1124
330
1F
100
AcDbEntity
  8
SANINDUSA
  6
Continuous
100
AcDbLine
 10
774.3430449048539
 20
1021.059221447265
 30
0.0
 11
774.4081649246074
 21
1021.059221447265
 31
0.0
  0
LINE
  5
1126
330
1F
100
AcDbEntity
  8
SANINDUSA
  6
Continuous
100
AcDbLine
 10
774.4103677294771
 20
1021.014221447265
 30
0.0
 11
774.345596229675
 21
1021.014221447265
 31
0.0
  0
LINE
  5
1128
330
1F
100
AcDbEntity
  8
SANINDUSA
  6
Continuous
100
AcDbLine
 10
774.3380639313635
 20
1021.053785668551
 30
0.0
 11
774.3411260345868
 21
1021.018785668551
 31
0.0
  0
ARC
  5
112C
330
1F
100
AcDbEntity
  8
SANINDUSA
100
AcDbCircle
 10
774.3443789413683
 20
1021.009371889638
 30
0.0
 40
0.005
100
AcDbArc
 50
357.4477187137897
 51
80.04895489527251
  0
ARC
  5
112D
330
1F
100
AcDbEntity
  8
SANINDUSA
  6
Continuous
100
AcDbCircle
 10
774.3461070080774
 20
1021.019221447265
 30
0.0
 40
0.005
100
AcDbArc
 50
184.9999999999973
 51
260.0489548952725
  0
ARC
  5
112E
330
1F
100
AcDbEntity
  8
SANINDUSA
  6
Continuous
100
AcDbCircle
 10
774.3430449048539
 20
1021.054221447265
 30
0.0
 40
0.005
100
AcDbArc
 50
90.0
 51
185.0000000000022
  0
LINE
  5
1133
330
1F
100
AcDbEntity
  8
SANINDUSA
  6
Continuous
100
AcDbLine
 10
774.4081649246074
 20
1021.059221447265
 30
0.0
 11
774.6379629381196
 21
1021.059221447265
 31
0.0
  0
LINE
  5
1136
330
1F
100
AcDbEntity
  8
SANINDUSA
  6
Continuous
100
AcDbLine
 10
774.6357601332499
 20
1021.014221447265
 30
0.0
 11
774.4103677294771
 21
1021.014221447265
 31
0.0
  0
LINE
  5
1138
330
1F
100
AcDbEntity
  8
SANINDUSA
  6
Continuous
100
AcDbLine
 10
774.7030829578729
 20
1021.059221447265
 30
0.0
 11
774.6379629381196
 21
1021.059221447265
 31
0.0
  0
LINE
  5
113A
330
1F
100
AcDbEntity
  8
SANINDUSA
  6
Continuous
100
AcDbLine
 10
774.6357601332499
 20
1021.014221447265
 30
0.0
 11
774.7005316330519
 21
1021.014221447265
 31
0.0
  0
LINE
  5
113B
330
1F
100
AcDbEntity
  8
SANINDUSA
  6
Continuous
100
AcDbLine
 10
774.7050018281401
 20
1021.018785668551
 30
0.0
 11
774.7080639313635
 21
1021.053785668551
 31
0.0
  0
ARC
  5
113C
330
1F
100
AcDbEntity
  8
SANINDUSA
100
AcDbCircle
 10
774.7017489213586
 20
1021.009371889638
 30
0.0
 40
0.005
100
AcDbArc
 50
99.95104510472749
 51
182.5522812862103
  0
ARC
  5
113D
330
1F
100
AcDbEntity
  8
SANINDUSA
  6
Continuous
100
AcDbCircle
 10
774.7000208546496
 20
1021.019221447265
 30
0.0
 40
0.005
100
AcDbArc
 50
279.951045104754
 51
354.9999999999978
  0
ARC
  5
113F
330
1F
100
AcDbEntity
  8
SANINDUSA
  6
Continuous
100
AcDbCircle
 10
774.7030829578729
 20
1021.054221447265
 30
0.0
 40
0.005
100
AcDbArc
 50
355.0000000000043
 51
90.0
  0
ELLIPSE
  5
1148
330
1F
100
AcDbEntity
  8
SANINDUSA
100
AcDbEllipse
 10
772.9952577051967
 20
1020.794718456562
 30
0.0
 11
-0.0000000000000031
 21
-0.16
 31
0.0
210
0.0
220
0.0
230
1.0
 40
0.871875
 41
0.0
 42
6.283185307179586
  0
ARC
  5
1157
330
1F
100
AcDbEntity
  8
SANINDUSA
  6
Continuous
100
AcDbCircle
 10
772.9952577051967
 20
1020.744271648327
 30
0.0
 40
0.1647202838061209
100
AcDbArc
 50
223.9969791009584
 51
316.0030208990416
  0
LINE
  5
115A
330
1F
100
AcDbEntity
  8
SANINDUSA
  6
Continuous
100
AcDbLine
 10
772.8804242952991
 20
1021.134094822016
 30
0.0
 11
773.1100911150941
 21
1021.134094822016
 31
0.0
  0
LWPOLYLINE
  5
115F
330
1F
100
AcDbEntity
  8
SANINDUSA
  6
Continuous
100
AcDbPolyline
 90
       16
 70
   128
 43
0.0
 10
772.9930673130784
 20
1020.776030364635
 10
772.9891910363276
 20
1020.776256453381
 10
772.9853553692262
 20
1020.776875733129
 10
772.9816004959785
 20
1020.77788171602
 10
772.9779657543551
 20
1020.779263862917
 10
772.9744892235733
 20
1020.781007693817
 10
772.9712073253605
 20
1020.783094939548
 10
772.9681544423847
 20
1020.78550373317
 10
772.9653625580453
 20
1020.788208839057
 10
772.9628609214003
 20
1020.791181917283
 10
772.9606757407406
 20
1020.794391820519
 10
772.9588299090186
 20
1020.797804920349
 10
772.9573427640127
 20
1020.801385459577
 10
772.9562298857342
 20
1020.805095926836
 10
772.9555029332057
 20
1020.808897449573
 10
772.9551695223143
 20
1020.812750201294
  0
LINE
  5
1160
330
1F
100
AcDbEntity
  8
SANINDUSA
  6
Continuous
100
AcDbLine
 10
772.9653375550066
 20
1020.867713622382
 30
0.0
 11
773.0251778553866
 21
1020.867713622382
 31
0.0
  0
LWPOLYLINE
  5
1161
330
1F
100
AcDbEntity
  8
SANINDUSA
  6
Continuous
100
AcDbPolyline
 90
        4
 70
   128
 43
0.0
 10
773.105070919176
 20
1020.977964203
 10
773.1043207702395
 20
1020.978770781156
 10
773.1037137023338
 20
1020.979872870663
 10
773.1034095035463
 20
1020.981026572742
  0
LINE
  5
1163
330
1F
100
AcDbEntity
  8
SANINDUSA
  6
Continuous
100
AcDbLine
 10
773.1145822163456
 20
1020.968720977142
 30
0.0
 11
773.1273769116939
 21
1021.131938520638
 31
0.0
  0
LINE
  5
1164
330
1F
100
AcDbEntity
  8
SANINDUSA
  6
Continuous
100
AcDbLine
 10
773.1273759447682
 20
1021.131938596435
 30
0.0
 11
773.1145813171928
 21
1020.968721917495
 31
0.0
  0
ARC
  5
1169
330
1F
100
AcDbEntity
  8
SANINDUSA
  6
Continuous
100
AcDbCircle
 10
772.9393617259502
 20
1020.799718456562
 30
0.0
 40
0.2434473304707137
100
AcDbArc
 50
315.7533972671055
 51
44.24660273289385
  0
LWPOLYLINE
  5
116B
330
1F
100
AcDbEntity
  8
SANINDUSA
  6
Continuous
100
AcDbPolyline
 90
       16
 70
   128
 43
0.0
 10
772.9974480973148
 20
1020.776030364635
 10
773.0013243740658
 20
1020.776256453381
 10
773.0051600411671
 20
1020.776875733129
 10
773.0089149144149
 20
1020.77788171602
 10
773.0125496560381
 20
1020.779263862917
 10
773.01602618682
 20
1020.781007693817
 10
773.0193080850328
 20
1020.783094939548
 10
773.0223609680085
 20
1020.78550373317
 10
773.0251528523481
 20
1020.788208839057
 10
773.027654488993
 20
1020.791181917283
 10
773.0298396696528
 20
1020.794391820519
 10
773.0316855013747
 20
1020.797804920349
 10
773.0331726463807
 20
1020.801385459577
 10
773.0342855246591
 20
1020.805095926836
 10
773.0350124771876
 20
1020.808897449573
 10
773.0353458880789
 20
1020.812750201294
  0
LINE
  5
1170
330
1F
100
AcDbEntity
  8
SANINDUSA
  6
Continuous
100
AcDbLine
 10
772.9974480973148
 20
1020.776030364635
 30
0.0
 11
772.9930673130784
 21
1020.776030364635
 31
0.0
  0
ARC
  5
1174
330
1F
100
AcDbEntity
  8
SANINDUSA
  6
Continuous
100
AcDbCircle
 10
772.9952577051967
 20
1020.855165264797
 30
0.0
 40
0.164720283806121
100
AcDbArc
 50
43.99697910095837
 51
48.19798210064448
  0
LWPOLYLINE
  5
117A
330
1F
100
AcDbEntity
  8
SANINDUSA
  6
Continuous
100
AcDbPolyline
 90
       16
 70
   128
 43
0.0
 10
773.0353458880789
 20
1020.812750201294
 10
773.0350892275778
 20
1020.813407191725
 10
773.0348488173742
 20
1020.814451752894
 10
773.0346269259346
 20
1020.815874028516
 10
773.0344256469853
 20
1020.81766059826
 10
773.0342468797577
 20
1020.819794604385
 10
773.0340923110659
 20
1020.822255910803
 10
773.0339633993919
 20
1020.82502129308
 10
773.0338613611222
 20
1020.828064657581
 10
773.0337871590713
 20
1020.831357287679
 10
773.0337414933959
 20
1020.834868114726
 10
773.033724794989
 20
1020.838564011206
 10
773.0337372214135
 20
1020.842410103321
 10
773.033778655416
 20
1020.846370100057
 10
773.033848706033
 20
1020.850406635617
 10
773.0339467122798
 20
1020.854481621995
  0
LINE
  5
117E
330
1F
100
AcDbEntity
  8
SANINDUSA
  6
Continuous
100
AcDbLine
 10
773.0339467122798
 20
1020.854481621995
 30
0.0
 11
773.0341815103583
 21
1020.863061110721
 31
0.0
  0
LWPOLYLINE
  5
117F
330
1F
100
AcDbEntity
  8
SANINDUSA
  6
Continuous
100
AcDbPolyline
 90
        6
 70
   128
 43
0.0
 10
773.0258450985392
 20
1020.867713622382
 10
773.0290906488096
 20
1020.867162723205
 10
773.0319705486741
 20
1020.865567477018
 10
773.034158464784
 20
1020.863116129861
 10
773.0354406793281
 20
1020.860054963324
 10
773.0357145030672
 20
1020.857382784551
  0
LINE
  5
1197
330
1F
100
AcDbEntity
  8
SANINDUSA
  6
Continuous
100
AcDbLine
 10
773.1033542062339
 20
1020.982206448611
 30
0.0
 11
773.1150917754574
 21
1021.131938596435
 31
0.0
  0
CIRCLE
  5
119C
330
1F
100
AcDbEntity
  8
SANINDUSA
  6
Continuous
100
AcDbCircle
 10
773.0777577051966
 20
1021.015094822016
 30
0.0
 40
0.0075
  0
LINE
  5
119E
330
1F
100
AcDbEntity
  8
SANINDUSA
  6
Continuous
100
AcDbLine
 10
773.1034093330083
 20
1020.981026527776
 30
0.0
 11
773.1033542062339
 21
1020.982206448611
 31
0.0
  0
LINE
  5
11A1
330
1F
100
AcDbEntity
  8
SANINDUSA
  6
Continuous
100
AcDbLine
 10
773.1130988592675
 20
1021.134094822016
 30
0.0
 11
773.1100911150941
 21
1021.134094822016
 31
0.0
  0
LWPOLYLINE
  5
11A2
330
1F
100
AcDbEntity
  8
SANINDUSA
  6
Continuous
100
AcDbPolyline
 90
        9
 70
   128
 43
0.0
 10
773.1130988592675
 20
1021.134094822016
 10
773.1135079937448
 20
1021.134052485294
 10
773.1138998068098
 20
1021.133927267528
 10
773.1142577103814
 20
1021.133724470026
 10
773.1145665519963
 20
1021.133452678569
 10
773.1148132563126
 20
1021.133123399918
 10
773.1149873786786
 20
1021.132750574651
 10
773.1150815473242
 20
1021.132349986967
 10
773.1150917754574
 20
1021.131938596435
  0
LWPOLYLINE
  5
11A4
330
1F
100
AcDbEntity
  8
SANINDUSA
  6
Continuous
100
AcDbPolyline
 90
        9
 70
   128
 43
0.0
 10
773.1253830285782
 20
1021.134094822016
 10
773.1257921630556
 20
1021.134052485294
 10
773.1261839761205
 20
1021.133927267528
 10
773.1265418796922
 20
1021.133724470026
 10
773.126850721307
 20
1021.133452678569
 10
773.1270974256234
 20
1021.133123399918
 10
773.1272715479895
 20
1021.132750574651
 10
773.127365716635
 20
1021.132349986967
 10
773.1273759447682
 20
1021.131938596435
  0
LINE
  5
11A5
330
1F
100
AcDbEntity
  8
SANINDUSA
  6
Continuous
100
AcDbLine
 10
773.1253830285782
 20
1021.134094822016
 30
0.0
 11
773.1130988592675
 21
1021.134094822016
 31
0.0
  0
LWPOLYLINE
  5
11A7
330
1F
100
AcDbEntity
  8
SANINDUSA
  6
Continuous
100
AcDbPolyline
 90
        5
 70
   128
 43
0.0
 10
772.8871043038434
 20
1020.98102448762
 10
772.8870995115676
 20
1020.980922230405
 10
772.8867282624305
 20
1020.979698232564
 10
772.8860780106316
 20
1020.978615977416
 10
772.8854402560118
 20
1020.977972189316
  0
LINE
  5
11A9
330
1F
100
AcDbEntity
  8
SANINDUSA
  6
Continuous
100
AcDbLine
 10
772.8631384986993
 20
1021.131938520638
 30
0.0
 11
772.8759331940477
 21
1020.968720977142
 31
0.0
  0
LINE
  5
11AA
330
1F
100
AcDbEntity
  8
SANINDUSA
  6
Continuous
100
AcDbLine
 10
772.863139465625
 20
1021.131938596435
 30
0.0
 11
772.8759340932005
 21
1020.968721917495
 31
0.0
  0
ARC
  5
11AB
330
1F
100
AcDbEntity
  8
SANINDUSA
100
AcDbCircle
 10
773.0511447113155
 20
1020.799714700864
 30
0.0
 40
0.2434382821262893
100
AcDbArc
 50
136.0327636178575
 51
224.2474431144221
  0
LWPOLYLINE
  5
11B4
330
1F
100
AcDbEntity
  8
SANINDUSA
  6
Continuous
100
AcDbPolyline
 90
       16
 70
   128
 43
0.0
 10
772.9551695223143
 20
1020.812750201294
 10
772.9554261828154
 20
1020.813407191725
 10
772.955666593019
 20
1020.814451752894
 10
772.9558884844586
 20
1020.815874028516
 10
772.9560897634079
 20
1020.81766059826
 10
772.9562685306356
 20
1020.819794604385
 10
772.9564230993274
 20
1020.822255910803
 10
772.9565520110013
 20
1020.82502129308
 10
772.956654049271
 20
1020.828064657581
 10
772.9567282513219
 20
1020.831357287679
 10
772.9567739169973
 20
1020.834868114726
 10
772.9567906154044
 20
1020.838564011206
 10
772.9567781889799
 20
1020.842410103321
 10
772.9567367549773
 20
1020.846370100057
 10
772.9566667043603
 20
1020.850406635617
 10
772.9565686981135
 20
1020.854481621995
  0
LINE
  5
11B7
330
1F
100
AcDbEntity
  8
SANINDUSA
  6
Continuous
100
AcDbLine
 10
772.9565686981135
 20
1020.854481621995
 30
0.0
 11
772.9563339000349
 21
1020.863061110721
 31
0.0
  0
LWPOLYLINE
  5
11B8
330
1F
100
AcDbEntity
  8
SANINDUSA
  6
Continuous
100
AcDbPolyline
 90
        6
 70
   128
 43
0.0
 10
772.964670311854
 20
1020.867713622382
 10
772.9614247615837
 20
1020.867162723205
 10
772.9585448617191
 20
1020.865567477018
 10
772.9563569456092
 20
1020.863116129861
 10
772.9550747310651
 20
1020.860054963324
 10
772.9548009073261
 20
1020.857382784551
  0
ARC
  5
11CF
330
1F
100
AcDbEntity
  8
SANINDUSA
  6
Continuous
100
AcDbCircle
 10
772.9958041609201
 20
1020.854576225099
 30
0.0
 40
0.165523630421194
100
AcDbArc
 50
131.807115716537
 51
136.4012609746158
  0
CIRCLE
  5
11D7
330
1F
100
AcDbEntity
  8
SANINDUSA
  6
Continuous
100
AcDbCircle
 10
772.9127577051967
 20
1021.015094822016
 30
0.0
 40
0.0075
  0
LINE
  5
11D8
330
1F
100
AcDbEntity
  8
SANINDUSA
  6
Continuous
100
AcDbLine
 10
772.8871612041594
 20
1020.982206448611
 30
0.0
 11
772.8754236349358
 21
1021.131938596435
 31
0.0
  0
LINE
  5
11DA
330
1F
100
AcDbEntity
  8
SANINDUSA
  6
Continuous
100
AcDbLine
 10
772.8871059784008
 20
1020.981024409143
 30
0.0
 11
772.8871612041594
 21
1020.982206448611
 31
0.0
  0
LINE
  5
11DE
330
1F
100
AcDbEntity
  8
SANINDUSA
  6
Continuous
100
AcDbLine
 10
772.8774165511257
 20
1021.134094822016
 30
0.0
 11
772.8804242952991
 21
1021.134094822016
 31
0.0
  0
LWPOLYLINE
  5
11E0
330
1F
100
AcDbEntity
  8
SANINDUSA
  6
Continuous
100
AcDbPolyline
 90
        9
 70
   128
 43
0.0
 10
772.8774165511257
 20
1021.134094822016
 10
772.8770074166484
 20
1021.134052485294
 10
772.8766156035836
 20
1021.133927267528
 10
772.8762577000118
 20
1021.133724470026
 10
772.8759488583969
 20
1021.133452678569
 10
772.8757021540807
 20
1021.133123399918
 10
772.8755280317146
 20
1021.132750574651
 10
772.8754338630691
 20
1021.132349986967
 10
772.8754236349358
 20
1021.131938596435
  0
LWPOLYLINE
  5
11E2
330
1F
100
AcDbEntity
  8
SANINDUSA
  6
Continuous
100
AcDbPolyline
 90
        9
 70
   128
 43
0.0
 10
772.865132381815
 20
1021.134094822016
 10
772.8647232473377
 20
1021.134052485294
 10
772.8643314342727
 20
1021.133927267528
 10
772.8639735307011
 20
1021.133724470026
 10
772.8636646890862
 20
1021.133452678569
 10
772.8634179847698
 20
1021.133123399918
 10
772.8632438624038
 20
1021.132750574651
 10
772.8631496937583
 20
1021.132349986967
 10
772.863139465625
 20
1021.131938596435
  0
LINE
  5
11E3
330
1F
100
AcDbEntity
  8
SANINDUSA
  6
Continuous
100
AcDbLine
 10
772.865132381815
 20
1021.134094822016
 30
0.0
 11
772.8774165511257
 21
1021.134094822016
 31
0.0
  0
LINE
  5
11F9
330
1F
100
AcDbEntity
  8
SANINDUSA
  6
Continuous
100
AcDbLine
 10
775.3844229981848
 20
1020.863078466474
 30
0.0
 11
775.3872219002272
 21
1020.75758502716
 31
0.0
  0
LINE
  5
11FA
330
1F
100
AcDbEntity
  8
SANINDUSA
  6
Continuous
100
AcDbLine
 10
775.3745028939918
 20
1020.859934478674
 30
0.0
 11
775.3797722627169
 21
1020.661326659826
 31
0.0
  0
LINE
  5
11FB
330
1F
100
AcDbEntity
  8
SANINDUSA
  6
Continuous
100
AcDbLine
 10
775.3340920461669
 20
1020.850561832259
 30
0.0
 11
775.3219704641456
 21
1020.74874054328
 31
0.0
  0
LINE
  5
11FC
330
1F
100
AcDbEntity
  8
SANINDUSA
  6
Continuous
100
AcDbLine
 10
775.3241621634249
 20
1020.851743961157
 30
0.0
 11
775.3120405814037
 21
1020.749922672178
 31
0.0
  0
LINE
  5
11FD
330
1F
100
AcDbEntity
  8
SANINDUSA
  6
Continuous
100
AcDbLine
 10
775.1873783394716
 20
1020.838358087061
 30
0.0
 11
775.2166134875736
 21
1020.739379703361
 31
0.0
  0
LINE
  5
11FE
330
1F
100
AcDbEntity
  8
SANINDUSA
  6
Continuous
100
AcDbLine
 10
775.2270405814036
 20
1020.739379703361
 30
0.0
 11
775.1969687394075
 21
1020.841190794082
 31
0.0
  0
LWPOLYLINE
  5
1200
330
1F
100
AcDbEntity
  8
SANINDUSA
  6
Continuous
100
AcDbPolyline
 90
       10
 70
   128
 43
0.0
 10
775.3907828220567
 20
1020.756388541167
 10
775.4016980129295
 20
1020.770664071713
 10
775.4132328230544
 20
1020.787206162667
 10
775.4239795765644
 20
1020.804270596563
 10
775.4327967991306
 20
1020.819751136977
 10
775.440965885713
 20
1020.83558324908
 10
775.4485213540465
 20
1020.851853764312
 10
775.4553919304854
 20
1020.868425125541
 10
775.462372169247
 20
1020.887644519367
 10
775.4743929903233
 20
1020.926388744716
  0
LINE
  5
1202
330
1F
100
AcDbEntity
  8
SANINDUSA
  6
Continuous
100
AcDbLine
 10
775.0533727303435
 20
1020.894375656093
 30
0.0
 11
775.0533727303435
 21
1020.794383750629
 31
0.0
  0
LWPOLYLINE
  5
1204
330
1F
100
AcDbEntity
  8
SANINDUSA
  6
Continuous
100
AcDbPolyline
 90
       16
 70
   128
 43
0.0
 10
775.3921316700394
 20
1020.74227354692
 10
775.4027120381536
 20
1020.755406566578
 10
775.4127874669372
 20
1020.768930363077
 10
775.4234350266295
 20
1020.784519270052
 10
775.4334026198132
 20
1020.800551468666
 10
775.4423656268665
 20
1020.816424990623
 10
775.4506640155256
 20
1020.832655831667
 10
775.4583329185402
 20
1020.8493329026
 10
775.4652999185373
 20
1020.866315179025
 10
775.4716513161467
 20
1020.883871144484
 10
775.477257150645
 20
1020.901696850903
 10
775.4821037433743
 20
1020.919743816882
 10
775.4861774156773
 20
1020.937963561023
 10
775.4902660269107
 20
1020.961656966047
 10
775.4930520479718
 20
1020.985557254664
 10
775.4945432864501
 20
1021.009555852729
  0
LINE
  5
1206
330
1F
100
AcDbEntity
  8
SANINDUSA
  6
Continuous
100
AcDbLine
 10
774.9536426089254
 20
1021.047879703361
 30
0.0
 11
774.9536426089254
 21
1020.731598426569
 31
0.0
  0
LINE
  5
120A
330
1F
100
AcDbEntity
  8
SANINDUSA
  6
Continuous
100
AcDbLine
 10
775.1156356527948
 20
1020.789940787059
 30
0.0
 11
775.1422390646165
 21
1020.727866159475
 31
0.0
  0
ARC
  5
120B
330
1F
100
AcDbEntity
  8
SANINDUSA
  6
Continuous
100
AcDbCircle
 10
775.2157706670179
 20
1020.759379703361
 30
0.0
 40
0.09
100
AcDbArc
 50
203.1985905136516
 51
270.0
  0
ARC
  5
120C
330
1F
100
AcDbEntity
  8
SANINDUSA
  6
Continuous
100
AcDbCircle
 10
775.2157706670179
 20
1020.759379703361
 30
0.0
 40
0.08
100
AcDbArc
 50
203.1985905136516
 51
270.0
  0
LINE
  5
1215
330
1F
100
AcDbEntity
  8
SANINDUSA
  6
Continuous
100
AcDbLine
 10
775.1064442024946
 20
1020.786001594073
 30
0.0
 11
775.1330476143163
 21
1020.723926966489
 31
0.0
  0
LINE
  5
1217
330
1F
100
AcDbEntity
  8
SANINDUSA
  6
Continuous
100
AcDbLine
 10
774.9536426089254
 20
1020.731598426569
 30
0.0
 11
774.9536426089254
 21
1020.718891417319
 31
0.0
  0
LINE
  5
121C
330
1F
100
AcDbEntity
  8
SANINDUSA
  6
Continuous
100
AcDbLine
 10
774.9586425816486
 20
1020.668379548199
 30
0.0
 11
774.9586423121038
 21
1020.689068036249
 31
0.0
  0
LINE
  5
121D
330
1F
100
AcDbEntity
  8
SANINDUSA
  6
Continuous
100
AcDbLine
 10
774.9897361712828
 20
1020.66812820222
 30
0.0
 11
774.9932805752195
 21
1020.696483433714
 31
0.0
  0
LINE
  5
121E
330
1F
100
AcDbEntity
  8
SANINDUSA
  6
Continuous
100
AcDbLine
 10
774.9536426089254
 20
1020.661394625811
 30
0.0
 11
774.9536426089254
 21
1020.718891417319
 31
0.0
  0
LINE
  5
1221
330
1F
100
AcDbEntity
  8
SANINDUSA
  6
Continuous
100
AcDbLine
 10
774.9556426011153
 20
1020.659379703361
 30
0.0
 11
775.0076181600105
 21
1020.659379703361
 31
0.0
  0
ARC
  5
1222
330
1F
100
AcDbEntity
  8
SANINDUSA
  6
Continuous
100
AcDbCircle
 10
774.9807363668995
 20
1020.684814602384
 30
0.0
 40
0.001
100
AcDbArc
 50
352.8749836511175
 51
104.0362434679336
  0
LWPOLYLINE
  5
1223
330
1F
100
AcDbEntity
  8
SANINDUSA
  6
Continuous
100
AcDbPolyline
 90
       11
 70
   128
 43
0.0
 10
774.9804938312744
 20
1020.685784744884
 10
774.9693999013272
 20
1020.683011262398
 42
0.3441549656710466
 10
774.9686424369524
 20
1020.682041104754
 10
774.9686424495203
 20
1020.681211180319
 10
774.9686424721742
 20
1020.679600467313
 10
774.9686424930928
 20
1020.677989754306
 10
774.9686425003678
 20
1020.67737890812
 42
0.4141739494045058
 10
774.9696423770283
 20
1020.676378920037
 10
774.9798066265592
 20
1020.676377666385
 42
0.3782776985915756
 10
774.9807990277753
 20
1020.677253631643
 10
774.9817286447761
 20
1020.68469056765
  0
ARC
  5
1226
330
1F
100
AcDbEntity
  8
SANINDUSA
  6
Continuous
100
AcDbCircle
 10
774.9877516102607
 20
1020.668376270094
 30
0.0
 40
0.0020000050301543
100
AcDbArc
 50
269.9885270239536
 51
352.8750477062632
  0
ARC
  5
1229
330
1F
100
AcDbEntity
  8
SANINDUSA
  6
Continuous
100
AcDbCircle
 10
774.9606425814798
 20
1020.668379559341
 30
0.0
 40
0.0019999990951178
100
AcDbArc
 50
180.0
 51
269.9976454106252
  0
LINE
  5
122B
330
1F
100
AcDbEntity
  8
SANINDUSA
  6
Continuous
100
AcDbLine
 10
774.9536426089254
 20
1020.661381079177
 30
0.0
 11
774.9536426089254
 21
1020.661394625811
 31
0.0
  0
ARC
  5
122D
330
1F
100
AcDbEntity
  8
SANINDUSA
  6
Continuous
100
AcDbCircle
 10
774.9556696161549
 20
1020.661406646148
 30
0.0
 40
0.002027122806978
100
AcDbArc
 50
180.7231451667807
 51
269.2364085804822
  0
LWPOLYLINE
  5
122E
330
1F
100
AcDbEntity
  8
SANINDUSA
  6
Continuous
100
AcDbPolyline
 90
        3
 70
   128
 43
0.0
 10
774.9606424992891
 20
1020.666379558236
 10
774.9737626089254
 20
1020.66637850437
 10
774.9877512097764
 20
1020.666376257574
  0
ARC
  5
1232
330
1F
100
AcDbEntity
  8
SANINDUSA
  6
Continuous
100
AcDbCircle
 10
774.9912960194661
 20
1020.696731503183
 30
0.0
 40
0.002
100
AcDbArc
 50
352.8749836511043
 51
104.0362434679067
  0
ARC
  5
1236
330
1F
100
AcDbEntity
  8
SANINDUSA
  6
Continuous
100
AcDbCircle
 10
774.9606423124605
 20
1020.689068076064
 30
0.0
 40
0.0020000003571515
100
AcDbArc
 50
104.0362393831202
 51
180.0
  0
LINE
  5
1239
330
1F
100
AcDbEntity
  8
SANINDUSA
  6
Continuous
100
AcDbLine
 10
774.9908109482161
 20
1020.698671788184
 30
0.0
 11
774.9601572412622
 21
1020.691008361445
 31
0.0
  0
LINE
  5
1241
330
1F
100
AcDbEntity
  8
SANINDUSA
  6
Continuous
100
AcDbLine
 10
775.0978524823765
 20
1020.802053407158
 30
0.0
 11
775.0546421592289
 21
1020.803349716852
 31
0.0
  0
LINE
  5
1242
330
1F
100
AcDbEntity
  8
SANINDUSA
  6
Continuous
100
AcDbLine
 10
775.0975526172855
 20
1020.792057904122
 30
0.0
 11
775.0543422941379
 21
1020.793354213817
 31
0.0
  0
ARC
  5
1243
330
1F
100
AcDbEntity
  8
SANINDUSA
  6
Continuous
100
AcDbCircle
 10
775.0546121727198
 20
1020.802350166548
 30
0.0
 40
0.001
100
AcDbArc
 50
88.28164199834956
 51
178.2816419980693
  0
ARC
  5
1244
330
1F
100
AcDbEntity
  8
SANINDUSA
  6
Continuous
100
AcDbCircle
 10
775.054372280647
 20
1020.79435376412
 30
0.0
 40
0.001
100
AcDbArc
 50
178.2816419980693
 51
268.2816419983495
  0
LINE
  5
1245
330
1F
100
AcDbEntity
  8
SANINDUSA
  6
Continuous
100
AcDbLine
 10
775.0536126224163
 20
1020.802380153058
 30
0.0
 11
775.0533727303435
 21
1020.794383750629
 31
0.0
  0
ARC
  5
1247
330
1F
100
AcDbEntity
  8
SANINDUSA
  6
Continuous
100
AcDbCircle
 10
775.0972527521944
 20
1020.782062401087
 30
0.0
 40
0.01
100
AcDbArc
 50
23.19859051365162
 51
88.28164199834956
  0
ARC
  5
1249
330
1F
100
AcDbEntity
  8
SANINDUSA
  6
Continuous
100
AcDbCircle
 10
775.0972527521944
 20
1020.782062401087
 30
0.0
 40
0.02
100
AcDbArc
 50
23.19859051365599
 51
88.28164199834956
  0
LINE
  5
124E
330
1F
100
AcDbEntity
  8
SANINDUSA
  6
Continuous
100
AcDbLine
 10
775.2786156457274
 20
1020.659379703361
 30
0.0
 11
775.3817716132519
 21
1020.659379703361
 31
0.0
  0
ARC
  5
1258
330
1F
100
AcDbEntity
  8
SANINDUSA
  6
Continuous
100
AcDbCircle
 10
775.2326015194681
 20
1020.759379703361
 30
0.0
 40
0.09
100
AcDbArc
 50
270.0
 51
353.2110254255627
  0
ARC
  5
1259
330
1F
100
AcDbEntity
  8
SANINDUSA
  6
Continuous
100
AcDbCircle
 10
775.2326015194681
 20
1020.759379703361
 30
0.0
 40
0.0800000000000002
100
AcDbArc
 50
270.0
 51
353.2110254255627
  0
ARC
  5
125A
330
1F
100
AcDbEntity
  8
SANINDUSA
100
AcDbCircle
 10
775.2241860932429
 20
1020.876834830711
 30
0.0
 40
0.2076257432550051
100
AcDbArc
 50
267.6770678100625
 51
272.3229321899375
  0
ARC
  5
125B
330
1F
100
AcDbEntity
  8
SANINDUSA
100
AcDbCircle
 10
775.2241860932429
 20
1020.886834830711
 30
0.0
 40
0.2076257432550051
100
AcDbArc
 50
267.6770678100625
 51
272.3229321899375
  0
LINE
  5
125C
330
1F
100
AcDbEntity
  8
SANINDUSA
  6
Continuous
100
AcDbLine
 10
775.2166134875736
 20
1020.739379703361
 30
0.0
 11
775.2270405814036
 21
1020.739379703361
 31
0.0
  0
LINE
  5
125F
330
1F
100
AcDbEntity
  8
SANINDUSA
  6
Continuous
100
AcDbLine
 10
775.3898060879429
 20
1020.735592930146
 30
0.0
 11
775.3917736708308
 21
1020.661432747749
 31
0.0
  0
LINE
  5
1260
330
1F
100
AcDbEntity
  8
SANINDUSA
  6
Continuous
100
AcDbLine
 10
775.3897743743813
 20
1020.659379703361
 30
0.0
 11
775.3817716132519
 21
1020.659379703361
 31
0.0
  0
ARC
  5
1261
330
1F
100
AcDbEntity
  8
SANINDUSA
  6
Continuous
100
AcDbCircle
 10
775.381771612705
 20
1020.661379703373
 30
0.0
 40
0.002000000011848
100
AcDbArc
 50
181.5194719277506
 51
270.0000156661003
  0
ARC
  5
1262
330
1F
100
AcDbEntity
  8
SANINDUSA
  6
Continuous
100
AcDbCircle
 10
775.3897743743813
 20
1020.661379703361
 30
0.0
 40
0.0020000000000005
100
AcDbArc
 50
270.0
 51
1.519787988878198
  0
ARC
  5
1264
330
1F
100
AcDbEntity
  8
SANINDUSA
  6
Continuous
100
AcDbCircle
 10
775.3892211966768
 20
1020.757638071548
 30
0.0
 40
0.002
100
AcDbArc
 50
181.5197879896471
 51
321.3350448695809
  0
ARC
  5
1265
330
1F
100
AcDbEntity
  8
SANINDUSA
  6
Continuous
100
AcDbCircle
 10
775.3998025701903
 20
1020.735858152086
 30
0.0
 40
0.0100000000000011
100
AcDbArc
 50
140.0932890819468
 51
181.5197879888782
  0
ARC
  5
1266
330
1F
100
AcDbEntity
  8
SANINDUSA
100
AcDbCircle
 10
775.2785004693168
 20
1021.017346018841
 30
0.0
 40
0.1921831994248852
100
AcDbArc
 50
222.6279626752705
 51
236.284636061321
  0
ARC
  5
126B
330
1F
100
AcDbEntity
  8
SANINDUSA
100
AcDbCircle
 10
775.2784366087125
 20
1021.017245386102
 30
0.0
 40
0.1820786536761446
100
AcDbArc
 50
181.560682252504
 51
236.0933591077865
  0
LINE
  5
126D
330
1F
100
AcDbEntity
  8
SANINDUSA
  6
Continuous
100
AcDbLine
 10
775.4580189743794
 20
1021.014379703361
 30
0.0
 11
775.1280189743795
 21
1021.014379703361
 31
0.0
  0
LINE
  5
126F
330
1F
100
AcDbEntity
  8
SANINDUSA
  6
Continuous
100
AcDbLine
 10
775.1280189743795
 20
1021.059379703361
 30
0.0
 11
775.4580189743794
 21
1021.059379703361
 31
0.0
  0
ARC
  5
1271
330
1F
100
AcDbEntity
  8
SANINDUSA
100
AcDbCircle
 10
775.2785004693168
 20
1021.017346018841
 30
0.0
 40
0.1921831994248852
100
AcDbArc
 50
191.7678950446823
 51
215.6836041962033
  0
LINE
  5
127E
330
1F
100
AcDbEntity
  8
SANINDUSA
  6
Continuous
100
AcDbLine
 10
775.0533727303435
 20
1020.894375656093
 30
0.0
 11
775.0536126224163
 21
1020.886379253665
 31
0.0
  0
LINE
  5
1283
330
1F
100
AcDbEntity
  8
SANINDUSA
  6
Continuous
100
AcDbLine
 10
775.0546421592289
 20
1020.88540968987
 30
0.0
 11
775.1355669729263
 21
1020.887837434281
 31
0.0
  0
ARC
  5
1284
330
1F
100
AcDbEntity
  8
SANINDUSA
  6
Continuous
100
AcDbCircle
 10
775.0546121727198
 20
1020.886409240174
 30
0.0
 40
0.001
100
AcDbArc
 50
181.7183580019306
 51
271.7183580016504
  0
ARC
  5
1285
330
1F
100
AcDbEntity
  8
SANINDUSA
100
AcDbCircle
 10
775.1356269459445
 20
1020.885838333674
 30
0.0
 40
0.002
100
AcDbArc
 50
42.62796267527511
 51
91.71835800165045
  0
LINE
  5
1289
330
1F
100
AcDbEntity
  8
SANINDUSA
  6
Continuous
100
AcDbLine
 10
775.0543422941379
 20
1020.895405192906
 30
0.0
 11
775.118488253435
 21
1020.897329571684
 31
0.0
  0
ARC
  5
128A
330
1F
100
AcDbEntity
  8
SANINDUSA
  6
Continuous
100
AcDbCircle
 10
775.054372280647
 20
1020.894405642602
 30
0.0
 40
0.0010000000000001
100
AcDbArc
 50
91.71835800165045
 51
181.7183580016569
  0
ARC
  5
128B
330
1F
100
AcDbEntity
  8
SANINDUSA
100
AcDbCircle
 10
775.1183383208896
 20
1020.902327323202
 30
0.0
 40
0.005
100
AcDbArc
 50
271.7183580016504
 51
35.68360419620081
  0
ARC
  5
1296
330
1F
100
AcDbEntity
  8
SANINDUSA
  6
Continuous
100
AcDbCircle
 10
775.1280189743795
 20
1021.054379703361
 30
0.0
 40
0.005
100
AcDbArc
 50
0.0
 51
90.0
  0
LINE
  5
1297
330
1F
100
AcDbEntity
  8
SANINDUSA
  6
Continuous
100
AcDbLine
 10
774.9536426089254
 20
1021.047879703361
 30
0.0
 11
774.9536426089254
 21
1021.057379703361
 31
0.0
  0
LINE
  5
1299
330
1F
100
AcDbEntity
  8
SANINDUSA
100
AcDbLine
 10
775.0356426089255
 20
1021.046879703361
 30
0.0
 11
775.0676140614923
 21
1021.046879703361
 31
0.0
  0
LINE
  5
129A
330
1F
100
AcDbEntity
  8
SANINDUSA
  6
Continuous
100
AcDbLine
 10
775.0356426089255
 20
1020.991879703361
 30
0.0
 11
775.0857403931168
 21
1020.991879703361
 31
0.0
  0
LINE
  5
129B
330
1F
100
AcDbEntity
  8
SANINDUSA
  6
Continuous
100
AcDbLine
 10
774.9956775137383
 20
1020.981845402497
 30
0.0
 11
775.0884439767178
 21
1020.979742322358
 31
0.0
  0
LINE
  5
129C
330
1F
100
AcDbEntity
  8
SANINDUSA
100
AcDbLine
 10
774.9936426089255
 20
1020.990879703361
 30
0.0
 11
774.9936426089255
 21
1021.046879703361
 31
0.0
  0
LINE
  5
129D
330
1F
100
AcDbEntity
  8
SANINDUSA
  6
Continuous
100
AcDbLine
 10
775.0236426089254
 20
1021.000879703361
 30
0.0
 11
775.0236426089254
 21
1021.037879703361
 31
0.0
  0
LINE
  5
129E
330
1F
100
AcDbEntity
  8
SANINDUSA
  6
Continuous
100
AcDbLine
 10
775.0336426089254
 20
1021.037879703361
 30
0.0
 11
775.0336426089254
 21
1021.000879703361
 31
0.0
  0
ARC
  5
129F
330
1F
100
AcDbEntity
  8
SANINDUSA
  6
Continuous
100
AcDbCircle
 10
774.9956426089254
 20
1020.983845097887
 30
0.0
 40
0.0019999999999999
100
AcDbArc
 50
180.0
 51
269.0000000000243
  0
ARC
  5
12A0
330
1F
100
AcDbEntity
  8
SANINDUSA
  6
Continuous
100
AcDbCircle
 10
774.9946426089254
 20
1020.990879703361
 30
0.0
 40
0.0010000000000001
100
AcDbArc
 50
90.0
 51
180.0
  0
LINE
  5
12A1
330
1F
100
AcDbEntity
  8
SANINDUSA
  6
Continuous
100
AcDbLine
 10
774.9936426089255
 20
1020.983845097887
 30
0.0
 11
774.9936426089255
 21
1020.990879703361
 31
0.0
  0
LINE
  5
12A2
330
1F
100
AcDbEntity
  8
SANINDUSA
  6
Continuous
100
AcDbLine
 10
775.0326426089254
 20
1021.001879703361
 30
0.0
 11
775.0246426089254
 21
1021.001879703361
 31
0.0
  0
ARC
  5
12A3
330
1F
100
AcDbEntity
  8
SANINDUSA
  6
Continuous
100
AcDbCircle
 10
775.0216426089255
 20
1020.993879703361
 30
0.0
 40
0.002
100
AcDbArc
 50
270.0
 51
0.0
  0
LINE
  5
12A4
330
1F
100
AcDbEntity
  8
SANINDUSA
  6
Continuous
100
AcDbLine
 10
775.0236426089254
 20
1021.000879703361
 30
0.0
 11
775.0236426089254
 21
1020.993879703361
 31
0.0
  0
LINE
  5
12A5
330
1F
100
AcDbEntity
  8
SANINDUSA
  6
Continuous
100
AcDbLine
 10
775.0336426089254
 20
1021.000879703361
 30
0.0
 11
775.0336426089254
 21
1020.993879703361
 31
0.0
  0
ARC
  5
12A6
330
1F
100
AcDbEntity
  8
SANINDUSA
  6
Continuous
100
AcDbCircle
 10
775.0356426089255
 20
1020.993879703361
 30
0.0
 40
0.002
100
AcDbArc
 50
180.0
 51
270.0
  0
ARC
  5
12A7
330
1F
100
AcDbEntity
  8
SANINDUSA
  6
Continuous
100
AcDbCircle
 10
775.0246426089254
 20
1021.000879703361
 30
0.0
 40
0.0010000000000001
100
AcDbArc
 50
90.0
 51
180.0
  0
ARC
  5
12A8
330
1F
100
AcDbEntity
  8
SANINDUSA
  6
Continuous
100
AcDbCircle
 10
775.0326426089254
 20
1021.000879703361
 30
0.0
 40
0.0010000000000002
100
AcDbArc
 50
0.0
 51
90.0
  0
LINE
  5
12A9
330
1F
100
AcDbEntity
  8
SANINDUSA
  6
Continuous
100
AcDbLine
 10
774.9946426089254
 20
1020.991879703361
 30
0.0
 11
775.0216426089255
 21
1020.991879703361
 31
0.0
  0
LINE
  5
12AA
330
1F
100
AcDbEntity
  8
SANINDUSA
  6
Continuous
100
AcDbLine
 10
775.0216426089255
 20
1021.046879703361
 30
0.0
 11
774.9546426089255
 21
1021.046879703361
 31
0.0
  0
ARC
  5
12AB
330
1F
100
AcDbEntity
  8
SANINDUSA
  6
Continuous
100
AcDbCircle
 10
774.9546426089255
 20
1021.047879703361
 30
0.0
 40
0.0010000000000001
100
AcDbArc
 50
180.0
 51
270.0
  0
ARC
  5
12AC
330
1F
100
AcDbEntity
  8
SANINDUSA
  6
Continuous
100
AcDbCircle
 10
775.0356426089255
 20
1021.044879703361
 30
0.0
 40
0.002
100
AcDbArc
 50
90.0
 51
180.0
  0
ARC
  5
12AD
330
1F
100
AcDbEntity
  8
SANINDUSA
  6
Continuous
100
AcDbCircle
 10
775.0216426089255
 20
1021.044879703361
 30
0.0
 40
0.002
100
AcDbArc
 50
0.0
 51
90.0
  0
ARC
  5
12AE
330
1F
100
AcDbEntity
  8
SANINDUSA
  6
Continuous
100
AcDbCircle
 10
775.0326426089254
 20
1021.037879703361
 30
0.0
 40
0.0010000000000002
100
AcDbArc
 50
270.0
 51
0.0
  0
LINE
  5
12AF
330
1F
100
AcDbEntity
  8
SANINDUSA
  6
Continuous
100
AcDbLine
 10
775.0246426089254
 20
1021.036879703361
 30
0.0
 11
775.0326426089254
 21
1021.036879703361
 31
0.0
  0
ARC
  5
12B0
330
1F
100
AcDbEntity
  8
SANINDUSA
  6
Continuous
100
AcDbCircle
 10
775.0246426089254
 20
1021.037879703361
 30
0.0
 40
0.0010000000000001
100
AcDbArc
 50
180.0
 51
270.0
  0
LINE
  5
12B1
330
1F
100
AcDbEntity
  8
SANINDUSA
  6
Continuous
100
AcDbLine
 10
775.0336426089254
 20
1021.044879703361
 30
0.0
 11
775.0336426089254
 21
1021.037879703361
 31
0.0
  0
LINE
  5
12B2
330
1F
100
AcDbEntity
  8
SANINDUSA
  6
Continuous
100
AcDbLine
 10
775.0236426089254
 20
1021.044879703361
 30
0.0
 11
775.0236426089254
 21
1021.037879703361
 31
0.0
  0
ARC
  5
12B3
330
1F
100
AcDbEntity
  8
SANINDUSA
100
AcDbCircle
 10
775.0984233190449
 20
1021.012379703361
 30
0.0
 40
0.002
100
AcDbArc
 50
90.0
 51
182.6753214341462
  0
ARC
  5
12B4
330
1F
100
AcDbEntity
  8
SANINDUSA
100
AcDbCircle
 10
775.0963397215675
 20
1021.014379703361
 30
0.0
 40
0.01
100
AcDbArc
 50
90.0
 51
182.017563799053
  0
ARC
  5
12B5
330
1F
100
AcDbEntity
  8
SANINDUSA
  6
Continuous
100
AcDbCircle
 10
775.1280189743795
 20
1021.019379703361
 30
0.0
 40
0.005
100
AcDbArc
 50
270.0
 51
0.0
  0
ARC
  5
12B8
330
1F
100
AcDbEntity
  8
SANINDUSA
100
AcDbCircle
 10
775.0857403931168
 20
1020.993879703361
 30
0.0
 40
0.002
100
AcDbArc
 50
270.0
 51
6.940945768227823
  0
ARC
  5
12B9
330
1F
100
AcDbEntity
  8
SANINDUSA
100
AcDbCircle
 10
775.0883986469761
 20
1020.97774283612
 30
0.0
 40
0.002
100
AcDbArc
 50
11.76789504468551
 51
88.7012873535516
  0
ARC
  5
12BA
330
1F
100
AcDbEntity
  8
SANINDUSA
100
AcDbCircle
 10
775.2785004693168
 20
1021.017346018841
 30
0.0
 40
0.1921831994248852
100
AcDbArc
 50
180.9893595058462
 51
186.9409457682261
  0
LINE
  5
12BC
330
1F
100
AcDbEntity
  8
SANINDUSA
  6
Continuous
100
AcDbLine
 10
775.1280189743795
 20
1021.014379703361
 30
0.0
 11
775.0984233190449
 21
1021.014379703361
 31
0.0
  0
LINE
  5
12BD
330
1F
100
AcDbEntity
  8
SANINDUSA
  6
Continuous
100
AcDbLine
 10
775.1220977128313
 20
1021.049379703361
 30
0.0
 11
775.0749455006416
 21
1021.049379703361
 31
0.0
  0
ARC
  5
12BE
330
1F
100
AcDbEntity
  8
SANINDUSA
  6
Continuous
100
AcDbCircle
 10
775.0749455006416
 20
1021.047379703361
 30
0.0
 40
0.002
100
AcDbArc
 50
90.0
 51
127.6584620062086
  0
ARC
  5
12BF
330
1F
100
AcDbEntity
  8
SANINDUSA
  6
Continuous
100
AcDbCircle
 10
775.0676140614923
 20
1021.056879703361
 30
0.0
 40
0.0100000000000002
100
AcDbArc
 50
270.0
 51
307.6584620062086
  0
ARC
  5
12C0
330
1F
100
AcDbEntity
  8
SANINDUSA
100
AcDbCircle
 10
775.1220977128313
 20
1021.048379703361
 30
0.0
 40
0.001
100
AcDbArc
 50
1.000000000000147
 51
90.0
  0
ARC
  5
12C1
330
1F
100
AcDbEntity
  8
SANINDUSA
  6
Continuous
100
AcDbCircle
 10
775.1224991793247
 20
1021.025379703361
 30
0.0
 40
0.001
100
AcDbArc
 50
270.0
 51
1.000000000001775
  0
LINE
  5
12C2
330
1F
100
AcDbEntity
  8
SANINDUSA
  6
Continuous
100
AcDbLine
 10
775.1224991793247
 20
1021.024379703361
 30
0.0
 11
775.0963397215675
 21
1021.024379703361
 31
0.0
  0
LINE
  5
12C3
330
1F
100
AcDbEntity
  8
SANINDUSA
  6
Continuous
100
AcDbLine
 10
775.1330189743795
 20
1021.054379703361
 30
0.0
 11
775.1330189743795
 21
1021.019379703361
 31
0.0
  0
LINE
  5
12C4
330
1F
100
AcDbEntity
  8
SANINDUSA
  6
Continuous
100
AcDbLine
 10
775.1230975605265
 20
1021.048397155768
 30
0.0
 11
775.1234990270199
 21
1021.025397155767
 31
0.0
  0
LINE
  5
12C5
330
1F
100
AcDbEntity
  8
SANINDUSA
  6
Continuous
100
AcDbLine
 10
775.1280189743795
 20
1021.059379703361
 30
0.0
 11
774.9556426089254
 21
1021.059379703361
 31
0.0
  0
ARC
  5
12C6
330
1F
100
AcDbEntity
  8
SANINDUSA
  6
Continuous
100
AcDbCircle
 10
774.9556426089254
 20
1021.057379703361
 30
0.0
 40
0.002
100
AcDbArc
 50
90.0
 51
180.0
  0
ARC
  5
12CA
330
1F
100
AcDbEntity
  8
SANINDUSA
100
AcDbCircle
 10
775.3450716245487
 20
1021.008789890622
 30
0.0
 40
0.1394141390712525
100
AcDbArc
 50
269.5685968538324
 51
359.8778983863131
  0
ARC
  5
12CE
330
1F
100
AcDbEntity
  8
SANINDUSA
  6
Continuous
100
AcDbCircle
 10
775.3440219289089
 20
1020.849379703361
 30
0.0
 40
0.01
100
AcDbArc
 50
90.0
 51
173.2110254255628
  0
ARC
  5
12D0
330
1F
100
AcDbEntity
  8
SANINDUSA
  6
Continuous
100
AcDbCircle
 10
775.3440219289089
 20
1020.849379703361
 30
0.0
 40
0.0200000000000003
100
AcDbArc
 50
90.0
 51
173.2110254255628
  0
LWPOLYLINE
  5
12D4
330
1F
100
AcDbEntity
  8
SANINDUSA
  6
Continuous
100
AcDbPolyline
 90
        6
 70
   128
 43
0.0
 10
775.2875409952435
 20
1020.869461862873
 10
775.2817550208192
 20
1020.869436222149
 10
775.2585883961573
 20
1020.869431025067
 10
775.23232127379
 20
1020.869719523346
 10
775.2191698223338
 20
1020.870206783517
 10
775.2060500794629
 20
1020.871162267473
  0
ARC
  5
12D7
330
1F
100
AcDbEntity
  8
SANINDUSA
  6
Continuous
100
AcDbCircle
 10
775.1566890596767
 20
1020.829293424592
 30
0.0
 40
0.0320000000000004
100
AcDbArc
 50
16.45550782690699
 51
61.76924123143801
  0
ARC
  5
12D8
330
1F
100
AcDbEntity
  8
SANINDUSA
  6
Continuous
100
AcDbCircle
 10
775.1566890596767
 20
1020.829293424592
 30
0.0
 40
0.0420000000000001
100
AcDbArc
 50
16.45550782690699
 51
61.28885167555776
  0
LWPOLYLINE
  5
12D9
330
1F
100
AcDbEntity
  8
SANINDUSA
  6
Continuous
100
AcDbPolyline
 90
        7
 70
   128
 43
0.0
 10
775.2060500794629
 20
1020.871162267473
 10
775.1989969995807
 20
1020.87182356327
 10
775.1921609407227
 20
1020.872410019225
 10
775.1856995495281
 20
1020.872889460011
 10
775.1796498102163
 20
1020.873241200593
 10
775.1771624805866
 20
1020.873353265893
 10
775.1771624314973
 20
1020.873353269177
  0
LWPOLYLINE
  5
12DB
330
1F
100
AcDbEntity
  8
SANINDUSA
  6
Continuous
100
AcDbPolyline
 90
        5
 70
   128
 43
0.0
 10
775.1723868670887
 20
1020.873529347656
 10
775.1723868229889
 20
1020.873529349036
 10
775.1694398965205
 20
1020.873635627349
 10
775.1666396273667
 20
1020.873751003702
 10
775.1666176986191
 20
1020.873751994231
  0
LINE
  5
12DC
330
1F
100
AcDbEntity
  8
SANINDUSA
  6
Continuous
100
AcDbLine
 10
775.1666176986191
 20
1020.873751994231
 30
0.0
 11
775.1665429376933
 21
1020.873605410781
 31
0.0
  0
LINE
  5
12DD
330
1F
100
AcDbEntity
  8
SANINDUSA
  6
Continuous
100
AcDbLine
 10
775.1771624314973
 20
1020.873353269177
 30
0.0
 11
775.1767479700113
 21
1020.873374416424
 31
0.0
  0
LINE
  5
12DE
330
1F
100
AcDbEntity
  8
SANINDUSA
  6
Continuous
100
AcDbLine
 10
775.1767479700113
 20
1020.873374416424
 30
0.0
 11
775.1764223520148
 21
1020.873391201192
 31
0.0
  0
LWPOLYLINE
  5
12DF
330
1F
100
AcDbEntity
  8
SANINDUSA
  6
Continuous
100
AcDbPolyline
 90
        4
 70
   128
 43
0.0
 10
775.1764223520148
 20
1020.873391201192
 10
775.176422304023
 20
1020.873391204069
 10
775.1757036987546
 20
1020.87342410573
 10
775.1757036554448
 20
1020.873424106251
  0
LWPOLYLINE
  5
12E0
330
1F
100
AcDbEntity
  8
SANINDUSA
  6
Continuous
100
AcDbPolyline
 90
        3
 70
   128
 43
0.0
 10
775.1757036554448
 20
1020.873424106251
 10
775.1757036091454
 20
1020.873424108184
 10
775.1732009687115
 20
1020.873507630615
  0
LINE
  5
12E1
330
1F
100
AcDbEntity
  8
SANINDUSA
  6
Continuous
100
AcDbLine
 10
775.1732009687113
 20
1020.873507630615
 30
0.0
 11
775.1723868670887
 21
1020.873529347656
 31
0.0
  0
LWPOLYLINE
  5
12E4
330
1F
100
AcDbEntity
  8
SANINDUSA
  6
Continuous
100
AcDbPolyline
 90
       11
 70
   128
 43
0.0
 10
775.3357014245507
 20
1020.869379703361
 10
775.335701390889
 20
1020.869379703361
 10
775.3318444480021
 20
1020.869393056036
 10
775.3274683621498
 20
1020.869424780125
 10
775.3226453644043
 20
1020.869462375646
 10
775.317389671897
 20
1020.869495157897
 10
775.3117676423141
 20
1020.869517678369
 10
775.3058707922216
 20
1020.86952571801
 10
775.2991922223509
 20
1020.869515369368
 10
775.2934066365765
 20
1020.869492909252
 10
775.2875409952435
 20
1020.869461862873
  0
ARC
  5
12E7
330
1F
100
AcDbEntity
  8
SANINDUSA
100
AcDbCircle
 10
775.3450716245487
 20
1021.008789890622
 30
0.0
 40
0.1494141390712525
100
AcDbArc
 50
285.8486095259776
 51
327.2961909370721
  0
ARC
  5
12E9
330
1F
100
AcDbEntity
  8
SANINDUSA
100
AcDbCircle
 10
775.3725035975422
 20
1020.859881434286
 30
0.0
 40
0.002
100
AcDbArc
 50
1.519787988878198
 51
100.4380216120813
  0
ARC
  5
12EA
330
1F
100
AcDbEntity
  8
SANINDUSA
100
AcDbCircle
 10
775.3864222946342
 20
1020.863131510862
 30
0.0
 40
0.002
100
AcDbArc
 50
105.8486095259767
 51
181.5197879888847
  0
ARC
  5
12EB
330
1F
100
AcDbEntity
  8
SANINDUSA
100
AcDbCircle
 10
775.3450716245487
 20
1021.008789890622
 30
0.0
 40
0.1494141390712525
100
AcDbArc
 50
269.5685968538324
 51
280.4380216120813
  0
ARC
  5
12ED
330
1F
100
AcDbEntity
  8
SANINDUSA
100
AcDbCircle
 10
775.4724828167126
 20
1020.92698139704
 30
0.0
 40
0.002
100
AcDbArc
 50
342.7629231015662
 51
147.2961909370527
  0
ARC
  5
12F1
330
1F
100
AcDbEntity
  8
SANINDUSA
  6
Continuous
100
AcDbCircle
 10
775.5031860664201
 20
1021.054379703361
 30
0.0
 40
0.005
100
AcDbArc
 50
354.9999999999684
 51
90.0
  0
ARC
  5
12F2
330
1F
100
AcDbEntity
  8
SANINDUSA
  6
Continuous
100
AcDbCircle
 10
775.4580189743794
 20
1021.054379703361
 30
0.0
 40
0.005
100
AcDbArc
 50
90.0
 51
180.0
  0
LWPOLYLINE
  5
12F3
330
1F
100
AcDbEntity
  8
SANINDUSA
  6
Continuous
100
AcDbPolyline
 90
        4
 70
   128
 43
0.0
 10
775.4844854470467
 20
1021.008492788835
 10
775.4846245953825
 20
1021.012306784654
 42
0.4249354132547905
 10
775.4826259251091
 20
1021.014379703361
 10
775.4580189743794
 20
1021.014379703361
  0
ARC
  5
12F4
330
1F
100
AcDbEntity
  8
SANINDUSA
  6
Continuous
100
AcDbCircle
 10
775.4995401826268
 20
1021.009379703361
 30
0.0
 40
0.0050000000000005
100
AcDbArc
 50
90.0
 51
177.9810591572747
  0
ARC
  5
12F5
330
1F
100
AcDbEntity
  8
SANINDUSA
  6
Continuous
100
AcDbCircle
 10
775.5001239631967
 20
1021.019379703361
 30
0.0
 40
0.0050000000000003
100
AcDbArc
 50
270.0
 51
355.000000000001
  0
ARC
  5
12F6
330
1F
100
AcDbEntity
  8
SANINDUSA
  6
Continuous
100
AcDbCircle
 10
775.4580189743794
 20
1021.019379703361
 30
0.0
 40
0.005
100
AcDbArc
 50
180.0
 51
270.0
  0
LINE
  5
12F7
330
1F
100
AcDbEntity
  8
SANINDUSA
  6
Continuous
100
AcDbLine
 10
775.5001239631967
 20
1021.014379703361
 30
0.0
 11
775.4995401826268
 21
1021.014379703361
 31
0.0
  0
LINE
  5
12F8
330
1F
100
AcDbEntity
  8
SANINDUSA
  6
Continuous
100
AcDbLine
 10
775.4966382154137
 20
1021.049379703361
 30
0.0
 11
775.4639402359276
 21
1021.049379703361
 31
0.0
  0
LINE
  5
12F9
330
1F
100
AcDbEntity
  8
SANINDUSA
  6
Continuous
100
AcDbLine
 10
775.4946259761526
 20
1021.024379703361
 30
0.0
 11
775.4850287470516
 21
1021.024379703361
 31
0.0
  0
ARC
  5
12FA
330
1F
100
AcDbEntity
  8
SANINDUSA
  6
Continuous
100
AcDbCircle
 10
775.4635387694343
 20
1021.025379703361
 30
0.0
 40
0.001
100
AcDbArc
 50
178.9999999999982
 51
270.0
  0
ARC
  5
12FB
330
1F
100
AcDbEntity
  8
SANINDUSA
  6
Continuous
100
AcDbCircle
 10
775.4639402359276
 20
1021.048379703361
 30
0.0
 40
0.001
100
AcDbArc
 50
90.0
 51
178.9999999999982
  0
LINE
  5
12FC
330
1F
100
AcDbEntity
  8
SANINDUSA
  6
Continuous
100
AcDbLine
 10
775.4850287470516
 20
1021.024379703361
 30
0.0
 11
775.4635387694343
 21
1021.024379703361
 31
0.0
  0
LINE
  5
12FD
330
1F
100
AcDbEntity
  8
SANINDUSA
  6
Continuous
100
AcDbLine
 10
775.4530189743794
 20
1021.019379703361
 30
0.0
 11
775.4530189743794
 21
1021.054379703361
 31
0.0
  0
LINE
  5
12FE
330
1F
100
AcDbEntity
  8
SANINDUSA
  6
Continuous
100
AcDbLine
 10
775.4625389217391
 20
1021.025397155767
 30
0.0
 11
775.4629403882325
 21
1021.048397155768
 31
0.0
  0
ARC
  5
12FF
330
1F
100
AcDbEntity
  8
SANINDUSA
  6
Continuous
100
AcDbCircle
 10
775.4966382154137
 20
1021.048379703361
 30
0.0
 40
0.001
100
AcDbArc
 50
354.9999999999962
 51
90.0
  0
ARC
  5
1300
330
1F
100
AcDbEntity
  8
SANINDUSA
  6
Continuous
100
AcDbCircle
 10
775.4946259761526
 20
1021.025379703361
 30
0.0
 40
0.001
100
AcDbArc
 50
270.0
 51
354.9999999999962
  0
LINE
  5
1301
330
1F
100
AcDbEntity
  8
SANINDUSA
  6
Continuous
100
AcDbLine
 10
775.4956221708506
 20
1021.025292547618
 30
0.0
 11
775.4976344101118
 21
1021.048292547618
 31
0.0
  0
LINE
  5
1302
330
1F
100
AcDbEntity
  8
SANINDUSA
  6
Continuous
100
AcDbLine
 10
775.5051049366872
 20
1021.018943924647
 30
0.0
 11
775.5081670399105
 21
1021.053943924647
 31
0.0
  0
LINE
  5
1303
330
1F
100
AcDbEntity
  8
SANINDUSA
  6
Continuous
100
AcDbLine
 10
775.5031860664201
 20
1021.059379703361
 30
0.0
 11
775.4580189743794
 21
1021.059379703361
 31
0.0
  0
LINE
  5
7EE6
330
1F
100
AcDbEntity
  8
SANINDUSA
  6
Continuous
100
AcDbLine
 10
773.4372089639
 20
1021.054314865111
 30
0.0
 11
773.4372089639
 21
1021.057221447165
 31
0.0
  0
ARC
  5
7EE7
330
1F
100
AcDbEntity
  8
SANINDUSA
  6
Continuous
100
AcDbCircle
 10
773.4392089638999
 20
1021.057221447165
 30
0.0
 40
0.0020000000000002
100
AcDbArc
 50
90.0
 51
180.0
  0
LINE
  5
7EE8
330
1F
100
AcDbEntity
  8
SANINDUSA
  6
Continuous
100
AcDbLine
 10
773.4392089638999
 20
1021.059221447165
 30
0.0
 11
773.5887067733537
 21
1021.059221447165
 31
0.0
  0
LWPOLYLINE
  5
7EE9
330
1F
100
AcDbEntity
  8
SANINDUSA
  6
Continuous
100
AcDbPolyline
 90
        9
 70
   128
 43
0.0
 10
773.5933615530594
 20
1021.053785668451
 10
773.5933741699592
 20
1021.054819965441
 10
773.5935451750446
 20
1021.055828644491
 10
773.5938672489099
 20
1021.056768531849
 10
773.5943266060626
 20
1021.057599398203
 10
773.5949035849746
 20
1021.058285680588
 10
773.5955734896393
 20
1021.05879800456
 10
773.5963076466169
 20
1021.059114441492
 10
773.597074632323
 20
1021.059221447165
  0
LINE
  5
7EEA
330
1F
100
AcDbEntity
  8
SANINDUSA
  6
Continuous
100
AcDbLine
 10
773.597074632323
 20
1021.059221447165
 30
0.0
 11
773.6051935468955
 21
1021.059221447165
 31
0.0
  0
LWPOLYLINE
  5
7EEB
330
1F
100
AcDbEntity
  8
SANINDUSA
  6
Continuous
100
AcDbPolyline
 90
        9
 70
   128
 43
0.0
 10
773.6091791992175
 20
1021.009065750587
 10
773.6091845830673
 20
1021.010062914735
 10
773.6092053599812
 20
1021.01102645107
 10
773.6092406996457
 20
1021.01191785351
 10
773.6092891897712
 20
1021.012701498681
 10
773.6093488925327
 20
1021.013346069543
 10
773.6094174220117
 20
1021.013825806924
 10
773.6094920395445
 20
1021.014121538939
 10
773.6095697631691
 20
1021.014221447165
  0
LWPOLYLINE
  5
7EEC
330
1F
100
AcDbEntity
  8
SANINDUSA
  6
Continuous
100
AcDbPolyline
 90
        6
 70
   128
 43
0.0
 10
773.5980912770916
 20
1021.018785668451
 10
773.5982499154456
 20
1021.018265300574
 10
773.5991447835021
 20
1021.016941008768
 10
773.600897685528
 20
1021.015676599393
 10
773.6037691337084
 20
1021.014647512241
 10
773.6071115644872
 20
1021.014230506908
  0
LINE
  5
7EED
330
1F
100
AcDbEntity
  8
SANINDUSA
  6
Continuous
100
AcDbLine
 10
773.6071115644872
 20
1021.014230506908
 30
0.0
 11
773.6077051332206
 21
1021.014221447165
 31
0.0
  0
LWPOLYLINE
  5
7EEE
330
1F
100
AcDbEntity
  8
SANINDUSA
  6
Continuous
100
AcDbPolyline
 90
        3
 70
   128
 43
0.0
 10
773.5933615530594
 20
1021.053785668451
 10
773.5939606432755
 20
1021.049311246715
 10
773.5980912770916
 20
1021.018785668451
  0
ARC
  5
7EEF
330
1F
100
AcDbEntity
  8
SANINDUSA
  6
Continuous
100
AcDbCircle
 10
773.9836903181712
 20
1021.009221447165
 30
0.0
 40
0.0050000000000001
100
AcDbArc
 50
90.0
 51
177.9810591572796
  0
LINE
  5
7EF0
330
1F
100
AcDbEntity
  8
SANINDUSA
  6
Continuous
100
AcDbLine
 10
773.9358501123163
 20
1021.014221447165
 30
0.0
 11
773.9836903181712
 21
1021.014221447165
 31
0.0
  0
LINE
  5
7EF1
330
1F
100
AcDbEntity
  8
SANINDUSA
  6
Continuous
100
AcDbLine
 10
773.9358501123163
 20
1021.014221447165
 30
0.0
 11
773.6077051332206
 21
1021.014221447165
 31
0.0
  0
LINE
  5
7EF2
330
1F
100
AcDbEntity
  8
SANINDUSA
  6
Continuous
100
AcDbLine
 10
773.6051935468955
 20
1021.059221447165
 30
0.0
 11
773.9379771118125
 21
1021.059221447165
 31
0.0
  0
ARC
  5
7EF3
330
1F
100
AcDbEntity
  8
SANINDUSA
  6
Continuous
100
AcDbCircle
 10
773.9867524213946
 20
1021.054221447165
 30
0.0
 40
0.0050000000000001
100
AcDbArc
 50
354.9999999999978
 51
90.0
  0
LINE
  5
7EF4
330
1F
100
AcDbEntity
  8
SANINDUSA
  6
Continuous
100
AcDbLine
 10
773.9917333948851
 20
1021.053785668451
 30
0.0
 11
773.9886712916617
 21
1021.018785668451
 31
0.0
  0
LINE
  5
7EF5
330
1F
100
AcDbEntity
  8
SANINDUSA
  6
Continuous
100
AcDbLine
 10
773.9867524213946
 20
1021.059221447165
 30
0.0
 11
773.9379771118125
 21
1021.059221447165
 31
0.0
  0
ARC
  5
7EF6
330
1F
100
AcDbEntity
  8
SANINDUSA
  6
Continuous
100
AcDbCircle
 10
773.9836903181712
 20
1021.019221447165
 30
0.0
 40
0.0050000000000001
100
AcDbArc
 50
270.0
 51
354.9999999999978
  0
LINE
  5
7EF7
330
1F
100
AcDbEntity
  8
SANINDUSA
  6
Continuous
100
AcDbLine
 10
773.5887067733537
 20
1021.059221447165
 30
0.0
 11
773.597074632323
 21
1021.059221447165
 31
0.0
  0
LWPOLYLINE
  5
7EF8
330
1F
100
AcDbEntity
  8
SANINDUSA
  6
Continuous
100
AcDbPolyline
 90
        7
 70
   128
 43
0.0
 10
773.7679223239718
 20
1020.736438614319
 10
773.7631778078265
 20
1020.736615997865
 10
773.7584343635979
 20
1020.737100907839
 10
773.7514545060015
 20
1020.738388173639
 10
773.7446208612867
 20
1020.740316282389
 10
773.7377653803966
 20
1020.74293310883
 10
773.7311499538732
 20
1020.746116400427
  0
ARC
  5
7EF9
330
1F
100
AcDbEntity
  8
SANINDUSA
  6
Continuous
100
AcDbCircle
 10
773.8833689251649
 20
1020.735699895889
 30
0.0
 40
0.01
100
AcDbArc
 50
140.0932890820109
 51
181.5197879889108
  0
LWPOLYLINE
  5
7EFA
330
1F
100
AcDbEntity
  8
SANINDUSA
  6
Continuous
100
AcDbPolyline
 90
        8
 70
   128
 43
0.0
 10
773.8733724429175
 20
1020.73543467395
 10
773.8730730458576
 20
1020.735434249686
 10
773.8721349807195
 20
1020.735433348228
 10
773.8705647714972
 20
1020.735433719499
 10
773.8683745500344
 20
1020.735436212965
 10
773.8655820290797
 20
1020.73544767438
 10
773.8622627919027
 20
1020.735479047624
 10
773.8620212774592
 20
1020.735488890913
  0
LINE
  5
7EFB
330
1F
100
AcDbEntity
  8
SANINDUSA
  6
Continuous
100
AcDbLine
 10
773.8733724429175
 20
1020.73543467395
 30
0.0
 11
773.8753399725975
 21
1020.661274200723
 31
0.0
  0
LWPOLYLINE
  5
7EFC
330
1F
100
AcDbEntity
  8
SANINDUSA
  6
Continuous
100
AcDbPolyline
 90
       13
 70
   128
 43
0.0
 10
773.8620212774592
 20
1020.735488890913
 10
773.857189821034
 20
1020.735588550167
 10
773.8517134650427
 20
1020.735666972276
 10
773.8455032226133
 20
1020.735761517241
 10
773.8387244647571
 20
1020.735855113937
 10
773.8313230451739
 20
1020.73594763632
 10
773.8234343201509
 20
1020.736036689253
 10
773.8148682036253
 20
1020.736123320159
 10
773.805904246025
 20
1020.736203670746
 10
773.7968652997214
 20
1020.736274730563
 10
773.7875715437397
 20
1020.736337790978
 10
773.7778138286793
 20
1020.73639334205
 10
773.7679223239718
 20
1020.736438614319
  0
LWPOLYLINE
  5
7EFD
330
1F
100
AcDbEntity
  8
SANINDUSA
  6
Continuous
100
AcDbPolyline
 90
       30
 70
   128
 43
0.0
 10
773.7311499538732
 20
1020.746116400427
 10
773.7267852712911
 20
1020.748576271301
 10
773.7224298931454
 20
1020.751314395042
 10
773.7180838194359
 20
1020.754330771648
 10
773.7137470501627
 20
1020.757625401121
 10
773.7094195853257
 20
1020.76119828346
 10
773.7051014249252
 20
1020.765049418665
 10
773.7007925689608
 20
1020.769178806736
 10
773.6958220198884
 20
1020.774303199347
 10
773.6909164250636
 20
1020.77975329215
 10
773.6860757844864
 20
1020.785529085143
 10
773.6813000981567
 20
1020.791630578328
 10
773.6765893660747
 20
1020.798057771703
 10
773.6683878796498
 20
1020.810283765661
 10
773.6605791678676
 20
1020.823302347374
 10
773.6534275830823
 20
1020.836595710153
 10
773.6469639581971
 20
1020.849953512581
 10
773.6409342184916
 20
1020.863823447548
 10
773.6335546511614
 20
1020.883179255639
 10
773.6270894394765
 20
1020.903135052998
 10
773.6216232311337
 20
1020.92333711465
 10
773.6171107092424
 20
1020.943839833448
 10
773.6139468829762
 20
1020.961962394117
 10
773.6115103361433
 20
1020.980235435356
 10
773.6109918683866
 20
1020.985021347011
 10
773.6105223487641
 20
1020.989808672067
 10
773.6100964013728
 20
1020.994688459269
 10
773.6097393157077
 20
1020.999436554404
 10
773.6094621014485
 20
1021.003836661081
 10
773.6091791992175
 20
1021.009065750587
  0
LINE
  5
7EFE
330
1F
100
AcDbEntity
  8
SANINDUSA
  6
Continuous
100
AcDbLine
 10
773.4372089639
 20
1020.661221447165
 30
0.0
 11
773.4372089639
 21
1021.054314865111
 31
0.0
  0
LWPOLYLINE
  5
7EFF
330
1F
100
AcDbEntity
  8
SANINDUSA
  6
Continuous
100
AcDbPolyline
 90
       16
 70
   128
 43
0.0
 10
773.875698025014
 20
1020.742115290723
 10
773.8868580111583
 20
1020.755998943486
 10
773.8974537678252
 20
1020.770317339251
 10
773.9075187283889
 20
1020.785155831954
 10
773.9169689747878
 20
1020.800393212469
 10
773.925931981841
 20
1020.816266734427
 10
773.9342303705001
 20
1020.832497575471
 10
773.9418992735148
 20
1020.849174646404
 10
773.9488662735119
 20
1020.866156922829
 10
773.9569332687851
 20
1020.888894563934
 10
773.9637483640475
 20
1020.912057244149
 10
773.9692815819543
 20
1020.935540482938
 10
773.9726564582983
 20
1020.953839470755
 10
773.9752510075459
 20
1020.972282151547
 10
773.9770678588654
 20
1020.990818276432
 10
773.9786934722689
 20
1021.009399016948
  0
LINE
  5
7F00
330
1F
100
AcDbEntity
  8
SANINDUSA
  6
Continuous
100
AcDbLine
 10
773.7238868994985
 20
1020.659221447165
 30
0.0
 11
773.4392089638999
 21
1020.659221447165
 31
0.0
  0
LINE
  5
7F01
330
1F
100
AcDbEntity
  8
SANINDUSA
  6
Continuous
100
AcDbLine
 10
773.7662112851233
 20
1020.659221447165
 30
0.0
 11
773.7238868994985
 21
1020.659221447165
 31
0.0
  0
LINE
  5
7F02
330
1F
100
AcDbEntity
  8
SANINDUSA
  6
Continuous
100
AcDbLine
 10
773.7662112851233
 20
1020.659221447165
 30
0.0
 11
773.873341301674
 21
1020.659221447265
 31
0.0
  0
LWPOLYLINE
  5
7F03
330
1F
100
AcDbEntity
  8
SANINDUSA
  6
Continuous
100
AcDbPolyline
 90
        9
 70
   128
 43
0.0
 10
773.873341301674
 20
1020.659221447265
 10
773.87373785821
 20
1020.659261283712
 10
773.8741186419583
 20
1020.65937896028
 10
773.8744685316019
 20
1020.659569803912
 10
773.8747736326603
 20
1020.659826236007
 10
773.8750218292547
 20
1020.660138073384
 10
773.8752032652411
 20
1020.660492932655
 10
773.8753107356086
 20
1020.660876721992
 10
773.8753399725975
 20
1020.661274200723
  0
ARC
  5
7F04
330
1F
100
AcDbEntity
  8
SANINDUSA
  6
Continuous
100
AcDbCircle
 10
773.4392089638999
 20
1020.661221447165
 30
0.0
 40
0.0019999999999996
100
AcDbArc
 50
180.0
 51
270.0
  0
LINE
  5
8030
330
1F
100
AcDbEntity
  8
SANINDUSA
  6
HIDDEN
100
AcDbLine
 10
775.009618160011
 20
1020.694127039179
 30
0.0
 11
775.009618160011
 21
1020.605879703361
 31
0.0
  0
LINE
  5
8031
330
1F
100
AcDbEntity
  8
SANINDUSA
  6
HIDDEN
100
AcDbLine
 10
775.0956181600112
 20
1020.605879703361
 30
0.0
 11
775.0956181600112
 21
1020.717300752142
 31
0.0
  0
LINE
  5
8032
330
1F
100
AcDbEntity
  8
SANINDUSA
  6
HIDDEN
100
AcDbLine
 10
775.0976181600107
 20
1020.609611754169
 30
0.0
 11
775.0976181600107
 21
1020.717300755092
 31
0.0
  0
LINE
  5
8033
330
1F
100
AcDbEntity
  8
SANINDUSA
  6
HIDDEN
100
AcDbLine
 10
775.009618160011
 20
1020.605879703361
 30
0.0
 11
775.0956181600112
 21
1020.605879703361
 31
0.0
  0
LINE
  5
8034
330
1F
100
AcDbEntity
  8
SANINDUSA
  6
HIDDEN
100
AcDbLine
 10
775.0076181600105
 20
1020.609611754169
 30
0.0
 11
775.0086181600107
 21
1020.605879703361
 31
0.0
  0
LINE
  5
8035
330
1F
100
AcDbEntity
  8
SANINDUSA
  6
HIDDEN
100
AcDbLine
 10
775.0086181600107
 20
1020.605879703361
 30
0.0
 11
775.009618160011
 21
1020.605879703361
 31
0.0
  0
LINE
  5
8036
330
1F
100
AcDbEntity
  8
SANINDUSA
  6
HIDDEN
100
AcDbLine
 10
775.0956181600112
 20
1020.605879703361
 30
0.0
 11
775.0966181600105
 21
1020.605879703361
 31
0.0
  0
LINE
  5
8037
330
1F
100
AcDbEntity
  8
SANINDUSA
  6
HIDDEN
100
AcDbLine
 10
775.0966181600105
 20
1020.605879703361
 30
0.0
 11
775.0976181600107
 21
1020.609611754169
 31
0.0
  0
ARC
  5
8038
330
1F
100
AcDbEntity
  8
SANINDUSA
  6
HIDDEN
100
AcDbCircle
 10
775.0236181600111
 20
1020.835879703361
 30
0.0
 40
0.056
100
AcDbArc
 50
100.286560611059
 51
180.0
  0
ARC
  5
8039
330
1F
100
AcDbEntity
  8
SANINDUSA
  6
HIDDEN
100
AcDbCircle
 10
775.0236181600111
 20
1020.835879703361
 30
0.0
 40
0.0539999999999999
100
AcDbArc
 50
90.0
 51
180.0
  0
LINE
  5
803A
330
1F
100
AcDbEntity
  8
SANINDUSA
  6
HIDDEN
100
AcDbLine
 10
774.969618160011
 20
1020.760156526188
 30
0.0
 11
774.969618160011
 21
1020.79340912531
 31
0.0
  0
LINE
  5
803B
330
1F
100
AcDbEntity
  8
SANINDUSA
  6
HIDDEN
100
AcDbLine
 10
774.9676181600106
 20
1020.760156526188
 30
0.0
 11
774.9676181600106
 21
1020.793409125311
 31
0.0
  0
LINE
  5
803C
330
1F
100
AcDbEntity
  8
SANINDUSA
  6
HIDDEN
100
AcDbLine
 10
774.969618160011
 20
1020.835879703361
 30
0.0
 11
774.969618160011
 21
1020.79340912531
 31
0.0
  0
LINE
  5
803D
330
1F
100
AcDbEntity
  8
SANINDUSA
  6
HIDDEN
100
AcDbLine
 10
774.9676181600106
 20
1020.835879703361
 30
0.0
 11
774.9676181600106
 21
1020.79340912531
 31
0.0
  0
LINE
  5
803E
330
1F
100
AcDbEntity
  8
SANINDUSA
  6
HIDDEN
100
AcDbLine
 10
774.969618160011
 20
1020.79340912531
 30
0.0
 11
774.9696181600146
 21
1020.79340912531
 31
0.0
  0
LINE
  5
803F
330
1F
100
AcDbEntity
  8
SANINDUSA
  6
HIDDEN
100
AcDbLine
 10
775.0936181600108
 20
1020.778879703361
 30
0.0
 11
775.0936181600108
 21
1020.776879703361
 31
0.0
  0
LINE
  5
8040
330
1F
100
AcDbEntity
  8
SANINDUSA
  6
HIDDEN
100
AcDbLine
 10
775.0636181600111
 20
1020.777491164724
 30
0.0
 11
775.0636181600111
 21
1020.778879703361
 31
0.0
  0
LINE
  5
8041
330
1F
100
AcDbEntity
  8
SANINDUSA
  6
HIDDEN
100
AcDbLine
 10
775.0623019587609
 20
1020.77525654737
 30
0.0
 11
775.0908312378441
 21
1020.732958073032
 31
0.0
  0
LINE
  5
8042
330
1F
100
AcDbEntity
  8
SANINDUSA
  6
HIDDEN
100
AcDbLine
 10
775.0639600848661
 20
1020.776372778917
 30
0.0
 11
775.0924893120744
 21
1020.734076460196
 31
0.0
  0
ARC
  5
8043
330
1F
100
AcDbEntity
  8
SANINDUSA
  6
HIDDEN
100
AcDbCircle
 10
775.0656181600105
 20
1020.777491164724
 30
0.0
 40
0.0020000000000001
100
AcDbArc
 50
180.0
 51
214.0000000001473
  0
ARC
  5
8044
330
1F
100
AcDbEntity
  8
SANINDUSA
  6
HIDDEN
100
AcDbCircle
 10
775.0676183358854
 20
1020.717300775594
 30
0.0
 40
0.0299998176965208
100
AcDbArc
 50
0.0
 51
33.99999865963494
  0
ARC
  5
8045
330
1F
100
AcDbEntity
  8
SANINDUSA
  6
HIDDEN
100
AcDbCircle
 10
775.0676183652729
 20
1020.717300795591
 30
0.0
 40
0.0279997830701829
100
AcDbArc
 50
0.0
 51
33.99999523654716
  0
LINE
  5
8046
330
1F
100
AcDbEntity
  8
SANINDUSA
  6
HIDDEN
100
AcDbLine
 10
775.0936181600108
 20
1020.776879703361
 30
0.0
 11
775.0976181600107
 21
1020.776879703361
 31
0.0
  0
LINE
  5
8047
330
1F
100
AcDbEntity
  8
SANINDUSA
  6
HIDDEN
100
AcDbLine
 10
775.0976181600107
 20
1020.780879703361
 30
0.0
 11
775.0616181600106
 21
1020.780879703361
 31
0.0
  0
LINE
  5
8048
330
1F
100
AcDbEntity
  8
SANINDUSA
  6
HIDDEN
100
AcDbLine
 10
775.0936181600108
 20
1020.778879703361
 30
0.0
 11
775.0636181600111
 21
1020.778879703361
 31
0.0
  0
LINE
  5
8049
330
1F
100
AcDbEntity
  8
SANINDUSA
  6
HIDDEN
100
AcDbLine
 10
775.0616181600106
 20
1020.78085420222
 30
0.0
 11
775.0616181600106
 21
1020.780879703361
 31
0.0
  0
LINE
  5
804A
330
1F
100
AcDbEntity
  8
SANINDUSA
  6
HIDDEN
100
AcDbLine
 10
775.054618160011
 20
1020.907879703361
 30
0.0
 11
775.0976181600107
 21
1020.907879703361
 31
0.0
  0
LINE
  5
804B
330
1F
100
AcDbEntity
  8
SANINDUSA
  6
HIDDEN
100
AcDbLine
 10
775.054618160011
 20
1020.909879703361
 30
0.0
 11
775.0936181600108
 21
1020.909879703361
 31
0.0
  0
LINE
  5
804C
330
1F
100
AcDbEntity
  8
SANINDUSA
  6
HIDDEN
100
AcDbLine
 10
775.0526181600106
 20
1020.905879703361
 30
0.0
 11
775.0526181600106
 21
1020.894879703361
 31
0.0
  0
LINE
  5
804D
330
1F
100
AcDbEntity
  8
SANINDUSA
  6
HIDDEN
100
AcDbLine
 10
775.0506181600111
 20
1020.905879703361
 30
0.0
 11
775.0506181600111
 21
1020.894879703361
 31
0.0
  0
LINE
  5
804E
330
1F
100
AcDbEntity
  8
SANINDUSA
  6
HIDDEN
100
AcDbLine
 10
775.0286181600111
 20
1020.908879703361
 30
0.0
 11
775.0286181600111
 21
1020.904879703361
 31
0.0
  0
LINE
  5
804F
330
1F
100
AcDbEntity
  8
SANINDUSA
  6
HIDDEN
100
AcDbLine
 10
775.0136181600108
 20
1020.908879703361
 30
0.0
 11
775.0136181600108
 21
1020.904879703361
 31
0.0
  0
LINE
  5
8050
330
1F
100
AcDbEntity
  8
SANINDUSA
  6
HIDDEN
100
AcDbLine
 10
775.0286181600111
 20
1020.891879703361
 30
0.0
 11
775.0476181600105
 21
1020.891879703361
 31
0.0
  0
LINE
  5
8051
330
1F
100
AcDbEntity
  8
SANINDUSA
  6
HIDDEN
100
AcDbLine
 10
775.0236181600111
 20
1020.889879703361
 30
0.0
 11
775.0476181600105
 21
1020.889879703361
 31
0.0
  0
LINE
  5
8052
330
1F
100
AcDbEntity
  8
SANINDUSA
  6
HIDDEN
100
AcDbLine
 10
775.0286181600111
 20
1020.904879703361
 30
0.0
 11
775.0136181600108
 21
1020.904879703361
 31
0.0
  0
LINE
  5
8053
330
1F
100
AcDbEntity
  8
SANINDUSA
  6
HIDDEN
100
AcDbLine
 10
775.0136181600108
 20
1020.896879703361
 30
0.0
 11
775.0286181600111
 21
1020.896879703361
 31
0.0
  0
LINE
  5
8054
330
1F
100
AcDbEntity
  8
SANINDUSA
  6
HIDDEN
100
AcDbLine
 10
775.0286181600111
 20
1020.89688031258
 30
0.0
 11
775.0136181600108
 21
1020.89688031258
 31
0.0
  0
LINE
  5
8055
330
1F
100
AcDbEntity
  8
SANINDUSA
  6
HIDDEN
100
AcDbLine
 10
775.0136181600108
 20
1020.904769021279
 30
0.0
 11
775.0136181600108
 21
1020.897001279503
 31
0.0
  0
LINE
  5
8056
330
1F
100
AcDbEntity
  8
SANINDUSA
  6
HIDDEN
100
AcDbLine
 10
775.0136181600108
 20
1020.904879094142
 30
0.0
 11
775.0136181600108
 21
1020.904879703361
 31
0.0
  0
LINE
  5
8057
330
1F
100
AcDbEntity
  8
SANINDUSA
  6
HIDDEN
100
AcDbLine
 10
775.0136181600108
 20
1020.904769021279
 30
0.0
 11
775.0136181600108
 21
1020.904879094142
 31
0.0
  0
LINE
  5
8058
330
1F
100
AcDbEntity
  8
SANINDUSA
  6
HIDDEN
100
AcDbLine
 10
775.0136181600108
 20
1020.896879703361
 30
0.0
 11
775.0136181600108
 21
1020.89688031258
 31
0.0
  0
LINE
  5
8059
330
1F
100
AcDbEntity
  8
SANINDUSA
  6
HIDDEN
100
AcDbLine
 10
775.0136181600108
 20
1020.89688031258
 30
0.0
 11
775.0136181600108
 21
1020.897001279503
 31
0.0
  0
LINE
  5
805A
330
1F
100
AcDbEntity
  8
SANINDUSA
  6
HIDDEN
100
AcDbLine
 10
775.0136181600108
 20
1020.896879703361
 30
0.0
 11
775.0136181600108
 21
1020.890979612617
 31
0.0
  0
LINE
  5
805B
330
1F
100
AcDbEntity
  8
SANINDUSA
  6
HIDDEN
100
AcDbLine
 10
775.0286181600111
 20
1020.904769021279
 30
0.0
 11
775.0286181600111
 21
1020.897001279503
 31
0.0
  0
LINE
  5
805C
330
1F
100
AcDbEntity
  8
SANINDUSA
  6
HIDDEN
100
AcDbLine
 10
775.0286181600111
 20
1020.904879094142
 30
0.0
 11
775.0286181600111
 21
1020.904879703361
 31
0.0
  0
LINE
  5
805D
330
1F
100
AcDbEntity
  8
SANINDUSA
  6
HIDDEN
100
AcDbLine
 10
775.0286181600111
 20
1020.904769021279
 30
0.0
 11
775.0286181600111
 21
1020.904879094142
 31
0.0
  0
LINE
  5
805E
330
1F
100
AcDbEntity
  8
SANINDUSA
  6
HIDDEN
100
AcDbLine
 10
775.0286181600111
 20
1020.896879703361
 30
0.0
 11
775.0286181600111
 21
1020.89688031258
 31
0.0
  0
LINE
  5
805F
330
1F
100
AcDbEntity
  8
SANINDUSA
  6
HIDDEN
100
AcDbLine
 10
775.0286181600111
 20
1020.89688031258
 30
0.0
 11
775.0286181600111
 21
1020.897001279503
 31
0.0
  0
LINE
  5
8060
330
1F
100
AcDbEntity
  8
SANINDUSA
  6
HIDDEN
100
AcDbLine
 10
775.0286181600111
 20
1020.896879703361
 30
0.0
 11
775.0286181600111
 21
1020.891879703361
 31
0.0
  0
ARC
  5
8061
330
1F
100
AcDbEntity
  8
SANINDUSA
  6
HIDDEN
100
AcDbCircle
 10
775.0476181600105
 20
1020.894879703361
 30
0.0
 40
0.003
100
AcDbArc
 50
270.0
 51
0.0
  0
ARC
  5
8062
330
1F
100
AcDbEntity
  8
SANINDUSA
  6
HIDDEN
100
AcDbCircle
 10
775.0476181600105
 20
1020.894879703361
 30
0.0
 40
0.005
100
AcDbArc
 50
270.0
 51
0.0
  0
LINE
  5
8063
330
1F
100
AcDbEntity
  8
SANINDUSA
  6
HIDDEN
100
AcDbLine
 10
775.0136181600108
 20
1020.908879703361
 30
0.0
 11
775.0286181600111
 21
1020.908879703361
 31
0.0
  0
ARC
  5
8064
330
1F
100
AcDbEntity
  8
SANINDUSA
  6
HIDDEN
100
AcDbCircle
 10
775.054618160011
 20
1020.905879703361
 30
0.0
 40
0.002
100
AcDbArc
 50
90.0
 51
180.0
  0
ARC
  5
8065
330
1F
100
AcDbEntity
  8
SANINDUSA
  6
HIDDEN
100
AcDbCircle
 10
775.054618160011
 20
1020.905879703361
 30
0.0
 40
0.0040000000000001
100
AcDbArc
 50
90.0
 51
180.0
  0
LINE
  5
8066
330
1F
100
AcDbEntity
  8
SANINDUSA
  6
HIDDEN
100
AcDbLine
 10
775.0976181600107
 20
1020.911879703361
 30
0.0
 11
775.0936181600108
 21
1020.911879703361
 31
0.0
  0
LINE
  5
8067
330
1F
100
AcDbEntity
  8
SANINDUSA
  6
HIDDEN
100
AcDbLine
 10
775.0936181600108
 20
1020.911879703361
 30
0.0
 11
775.0936181600108
 21
1020.909879703361
 31
0.0
  0
LINE
  5
8068
330
1F
100
AcDbEntity
  8
SANINDUSA
  6
HIDDEN
100
AcDbLine
 10
775.0976181600107
 20
1020.911879703361
 30
0.0
 11
775.0976181600107
 21
1020.907879703361
 31
0.0
  0
LINE
  5
8069
330
1F
100
AcDbEntity
  8
SANINDUSA
  6
HIDDEN
100
AcDbLine
 10
775.0976181600107
 20
1020.780879703361
 30
0.0
 11
775.0976181600107
 21
1020.776879703361
 31
0.0
  0
LINE
  5
806A
330
1F
100
AcDbEntity
  8
SANINDUSA
  6
HIDDEN
100
AcDbLine
 10
775.0616181600106
 20
1020.78085420222
 30
0.0
 11
775.0616181600106
 21
1020.777493243431
 31
0.0
  0
ARC
  5
806B
330
1F
100
AcDbEntity
  8
SANINDUSA
  6
HIDDEN
100
AcDbCircle
 10
775.0656181600105
 20
1020.777493243431
 30
0.0
 40
0.004
100
AcDbArc
 50
180.0
 51
213.9986946280392
  0
LINE
  5
806C
330
1F
100
AcDbEntity
  8
SANINDUSA
  6
HIDDEN
100
AcDbLine
 10
775.0076181600105
 20
1020.694127039179
 30
0.0
 11
775.0076181600105
 21
1020.609611754169
 31
0.0
  0
ARC
  5
806D
330
1F
100
AcDbEntity
  8
SANINDUSA
  6
HIDDEN
100
AcDbCircle
 10
774.987618160011
 20
1020.694127039179
 30
0.0
 40
0.02
100
AcDbArc
 50
0.0
 51
37.28570792801683
  0
LINE
  5
806E
330
1F
100
AcDbEntity
  8
SANINDUSA
  6
HIDDEN
100
AcDbLine
 10
774.971705667689
 20
1020.748040727077
 30
0.0
 11
775.003530652333
 21
1020.70624283829
 31
0.0
  0
ARC
  5
806F
330
1F
100
AcDbEntity
  8
SANINDUSA
  6
HIDDEN
100
AcDbCircle
 10
774.987618160011
 20
1020.760156526188
 30
0.0
 40
0.02
100
AcDbArc
 50
180.0
 51
217.2857079280168
  0
ARC
  5
8070
330
1F
100
AcDbEntity
  8
SANINDUSA
  6
HIDDEN
100
AcDbCircle
 10
774.987618160011
 20
1020.694127039179
 30
0.0
 40
0.022
100
AcDbArc
 50
0.0
 51
37.28570792801683
  0
LINE
  5
8071
330
1F
100
AcDbEntity
  8
SANINDUSA
  6
HIDDEN
100
AcDbLine
 10
774.9732969169207
 20
1020.749252306988
 30
0.0
 11
775.0051219015648
 21
1020.707454418202
 31
0.0
  0
ARC
  5
8072
330
1F
100
AcDbEntity
  8
SANINDUSA
  6
HIDDEN
100
AcDbCircle
 10
774.987618160011
 20
1020.760156526188
 30
0.0
 40
0.018
100
AcDbArc
 50
180.0
 51
217.2857079280168
  0
LINE
  5
8073
330
1F
100
AcDbEntity
  8
SANINDUSA
100
AcDbLine
 10
775.0776181600111
 20
1020.774379703361
 30
0.0
 11
775.0976636028216
 21
1020.774835281607
 31
0.0
  0
LINE
  5
8074
330
1F
100
AcDbEntity
  8
SANINDUSA
100
AcDbLine
 10
775.0976636028216
 20
1020.913924125115
 30
0.0
 11
775.0776181600111
 21
1020.914379703361
 31
0.0
  0
LINE
  5
8075
330
1F
100
AcDbEntity
  8
SANINDUSA
100
AcDbLine
 10
775.0776181600111
 20
1020.778879703361
 30
0.0
 11
775.0776181600111
 21
1020.774379703361
 31
0.0
  0
LINE
  5
8076
330
1F
100
AcDbEntity
  8
SANINDUSA
100
AcDbLine
 10
775.0776181600111
 20
1020.914379703361
 30
0.0
 11
775.0776181600111
 21
1020.909879703361
 31
0.0
  0
LINE
  5
8077
330
1F
100
AcDbEntity
  8
SANINDUSA
100
AcDbLine
 10
775.0996181600111
 20
1020.902879703361
 30
0.0
 11
775.0996181600111
 21
1020.896194553819
 31
0.0
  0
LINE
  5
8078
330
1F
100
AcDbEntity
  8
SANINDUSA
100
AcDbLine
 10
775.0996181600111
 20
1020.792564852903
 30
0.0
 11
775.0996181600111
 21
1020.785879703361
 31
0.0
  0
LINE
  5
8079
330
1F
100
AcDbEntity
  8
SANINDUSA
100
AcDbLine
 10
775.0996181600111
 20
1020.776834765278
 30
0.0
 11
775.0996181600111
 21
1020.785879703361
 31
0.0
  0
LINE
  5
807A
330
1F
100
AcDbEntity
  8
SANINDUSA
100
AcDbLine
 10
775.0976181600107
 20
1020.784879703361
 30
0.0
 11
775.0976181600107
 21
1020.776834765278
 31
0.0
  0
LINE
  5
807B
330
1F
100
AcDbEntity
  8
SANINDUSA
100
AcDbLine
 10
775.0976181600107
 20
1020.776834765278
 30
0.0
 11
775.0926408814165
 21
1020.77672164531
 31
0.0
  0
LINE
  5
807C
330
1F
100
AcDbEntity
  8
SANINDUSA
100
AcDbLine
 10
775.0796181600106
 20
1020.777448659873
 30
0.0
 11
775.0796181600106
 21
1020.778879703361
 31
0.0
  0
LINE
  5
807D
330
1F
100
AcDbEntity
  8
SANINDUSA
100
AcDbLine
 10
775.0916181600112
 20
1020.777721387145
 30
0.0
 11
775.0916181600112
 21
1020.778879703361
 31
0.0
  0
LINE
  5
807E
330
1F
100
AcDbEntity
  8
SANINDUSA
100
AcDbLine
 10
775.0896181600109
 20
1020.778879703361
 30
0.0
 11
775.0896181600109
 21
1020.777630478054
 31
0.0
  0
LINE
  5
807F
330
1F
100
AcDbEntity
  8
SANINDUSA
100
AcDbLine
 10
775.0876181600105
 20
1020.777630478054
 30
0.0
 11
775.0876181600105
 21
1020.778879703361
 31
0.0
  0
LINE
  5
8080
330
1F
100
AcDbEntity
  8
SANINDUSA
100
AcDbLine
 10
775.0856181600109
 20
1020.778879703361
 30
0.0
 11
775.0856181600109
 21
1020.777539568963
 31
0.0
  0
LINE
  5
8081
330
1F
100
AcDbEntity
  8
SANINDUSA
100
AcDbLine
 10
775.0836181600106
 20
1020.777539568963
 30
0.0
 11
775.0836181600106
 21
1020.778879703361
 31
0.0
  0
LINE
  5
8082
330
1F
100
AcDbEntity
  8
SANINDUSA
100
AcDbLine
 10
775.0816181600111
 20
1020.778879703361
 30
0.0
 11
775.0816181600111
 21
1020.777448659873
 31
0.0
  0
LINE
  5
8083
330
1F
100
AcDbEntity
  8
SANINDUSA
100
AcDbLine
 10
775.0929363214062
 20
1020.792682767702
 30
0.0
 11
775.0976181600107
 21
1020.784879703361
 31
0.0
  0
LINE
  5
8084
330
1F
100
AcDbEntity
  8
SANINDUSA
100
AcDbLine
 10
775.0996181600111
 20
1020.785879703361
 30
0.0
 11
775.0966234948672
 21
1020.792617699935
 31
0.0
  0
LINE
  5
8085
330
1F
100
AcDbEntity
  8
SANINDUSA
100
AcDbLine
 10
775.0976181600107
 20
1020.911924641444
 30
0.0
 11
775.0976181600107
 21
1020.903879703361
 31
0.0
  0
LINE
  5
8086
330
1F
100
AcDbEntity
  8
SANINDUSA
100
AcDbLine
 10
775.0996181600111
 20
1020.902879703361
 30
0.0
 11
775.0996181600111
 21
1020.911924641444
 31
0.0
  0
LINE
  5
8087
330
1F
100
AcDbEntity
  8
SANINDUSA
100
AcDbLine
 10
775.0976181600107
 20
1020.903879703361
 30
0.0
 11
775.0929363214062
 21
1020.89607663902
 31
0.0
  0
LINE
  5
8088
330
1F
100
AcDbEntity
  8
SANINDUSA
100
AcDbLine
 10
775.0966234948672
 20
1020.896141706787
 30
0.0
 11
775.0996181600111
 21
1020.902879703361
 31
0.0
  0
LINE
  5
8089
330
1F
100
AcDbEntity
  8
SANINDUSA
100
AcDbLine
 10
775.0926408814165
 20
1020.912037761412
 30
0.0
 11
775.0976181600107
 21
1020.911924641444
 31
0.0
  0
LINE
  5
808A
330
1F
100
AcDbEntity
  8
SANINDUSA
100
AcDbLine
 10
775.0796181600106
 20
1020.909879703361
 30
0.0
 11
775.0796181600106
 21
1020.911310746849
 31
0.0
  0
LINE
  5
808B
330
1F
100
AcDbEntity
  8
SANINDUSA
100
AcDbLine
 10
775.0816181600111
 20
1020.911310746849
 30
0.0
 11
775.0816181600111
 21
1020.909879703361
 31
0.0
  0
LINE
  5
808C
330
1F
100
AcDbEntity
  8
SANINDUSA
100
AcDbLine
 10
775.0836181600106
 20
1020.909879703361
 30
0.0
 11
775.0836181600106
 21
1020.911219837759
 31
0.0
  0
LINE
  5
808D
330
1F
100
AcDbEntity
  8
SANINDUSA
100
AcDbLine
 10
775.0856181600109
 20
1020.911219837759
 30
0.0
 11
775.0856181600109
 21
1020.909879703361
 31
0.0
  0
LINE
  5
808E
330
1F
100
AcDbEntity
  8
SANINDUSA
100
AcDbLine
 10
775.0876181600105
 20
1020.909879703361
 30
0.0
 11
775.0876181600105
 21
1020.911128928668
 31
0.0
  0
LINE
  5
808F
330
1F
100
AcDbEntity
  8
SANINDUSA
100
AcDbLine
 10
775.0896181600109
 20
1020.911128928668
 30
0.0
 11
775.0896181600109
 21
1020.909879703361
 31
0.0
  0
LINE
  5
8090
330
1F
100
AcDbEntity
  8
SANINDUSA
100
AcDbLine
 10
775.0916181600112
 20
1020.909879703361
 30
0.0
 11
775.0916181600112
 21
1020.911038019577
 31
0.0
  0
ARC
  5
8091
330
1F
100
AcDbEntity
  8
SANINDUSA
100
AcDbCircle
 10
775.0806181600109
 20
1020.777448659873
 30
0.0
 40
0.0010000000000002
100
AcDbArc
 50
180.0
 51
0.0
  0
ARC
  5
8092
330
1F
100
AcDbEntity
  8
SANINDUSA
100
AcDbCircle
 10
775.0846181600108
 20
1020.777539568963
 30
0.0
 40
0.0010000000000002
100
AcDbArc
 50
180.0
 51
0.0
  0
ARC
  5
8093
330
1F
100
AcDbEntity
  8
SANINDUSA
100
AcDbCircle
 10
775.0886181600106
 20
1020.777630478054
 30
0.0
 40
0.0010000000000002
100
AcDbArc
 50
180.0
 51
0.0
  0
ARC
  5
8094
330
1F
100
AcDbEntity
  8
SANINDUSA
100
AcDbCircle
 10
775.0926181600106
 20
1020.777721387145
 30
0.0
 40
0.0010000000000002
100
AcDbArc
 50
180.0
 51
271.301952672039
  0
ARC
  5
8095
330
1F
100
AcDbEntity
  8
SANINDUSA
100
AcDbCircle
 10
775.0886181600106
 20
1020.911128928668
 30
0.0
 40
0.0010000000000002
100
AcDbArc
 50
0.0
 51
180.0
  0
ARC
  5
8096
330
1F
100
AcDbEntity
  8
SANINDUSA
100
AcDbCircle
 10
775.0806181600109
 20
1020.911310746849
 30
0.0
 40
0.0010000000000002
100
AcDbArc
 50
0.0
 51
180.0
  0
LINE
  5
8097
330
1F
100
AcDbEntity
  8
SANINDUSA
100
AcDbLine
 10
775.0796181600106
 20
1020.911310746849
 30
0.0
 11
775.0796181600106
 21
1020.909879703361
 31
0.0
  0
ARC
  5
8098
330
1F
100
AcDbEntity
  8
SANINDUSA
100
AcDbCircle
 10
775.0846181600108
 20
1020.911219837759
 30
0.0
 40
0.0010000000000002
100
AcDbArc
 50
0.0
 51
180.0
  0
LINE
  5
8099
330
1F
100
AcDbEntity
  8
SANINDUSA
100
AcDbLine
 10
775.0816181600111
 20
1020.909879703361
 30
0.0
 11
775.0816181600111
 21
1020.911310746849
 31
0.0
  0
LINE
  5
809A
330
1F
100
AcDbEntity
  8
SANINDUSA
100
AcDbLine
 10
775.0836181600106
 20
1020.911219837759
 30
0.0
 11
775.0836181600106
 21
1020.909879703361
 31
0.0
  0
LINE
  5
809B
330
1F
100
AcDbEntity
  8
SANINDUSA
100
AcDbLine
 10
775.0856181600109
 20
1020.909879703361
 30
0.0
 11
775.0856181600109
 21
1020.911219837759
 31
0.0
  0
LINE
  5
809C
330
1F
100
AcDbEntity
  8
SANINDUSA
100
AcDbLine
 10
775.0876181600105
 20
1020.911128928668
 30
0.0
 11
775.0876181600105
 21
1020.909879703361
 31
0.0
  0
ARC
  5
809D
330
1F
100
AcDbEntity
  8
SANINDUSA
100
AcDbCircle
 10
775.0926181600106
 20
1020.911038019577
 30
0.0
 40
0.0010000000000002
100
AcDbArc
 50
88.69804732796104
 51
180.0
  0
LINE
  5
809E
330
1F
100
AcDbEntity
  8
SANINDUSA
100
AcDbLine
 10
775.0896181600109
 20
1020.909879703361
 30
0.0
 11
775.0896181600109
 21
1020.911128928668
 31
0.0
  0
LINE
  5
809F
330
1F
100
AcDbEntity
  8
SANINDUSA
100
AcDbLine
 10
775.0916181600112
 20
1020.911038019577
 30
0.0
 11
775.0916181600112
 21
1020.909879703361
 31
0.0
  0
ARC
  5
80A0
330
1F
100
AcDbEntity
  8
SANINDUSA
100
AcDbCircle
 10
775.0976181600107
 20
1020.911924641444
 30
0.0
 40
0.002
100
AcDbArc
 50
0.0
 51
88.69804732796104
  0
ARC
  5
80A1
330
1F
100
AcDbEntity
  8
SANINDUSA
100
AcDbCircle
 10
775.0976181600107
 20
1020.776834765278
 30
0.0
 40
0.002
100
AcDbArc
 50
271.301952672039
 51
0.0
  0
LINE
  5
8105
330
1F
100
AcDbEntity
  8
SANINDUSA
  6
Continuous
100
AcDbLine
 10
775.0976181600107
 20
1020.659379703361
 30
0.0
 11
775.2786156016279
 21
1020.659379703361
 31
0.0
  0
ENDSEC
  0
SECTION
  2
OBJECTS
  0
DICTIONARY
  5
C
330
0
100
AcDbDictionary
281
     1
  3
ACAD_COLOR
350
7F37
  3
ACAD_GROUP
350
D
  3
ACAD_LAYOUT
350
1A
  3
ACAD_MATERIAL
350
7F0A
  3
ACAD_MLEADERSTYLE
350
7F4C
  3
ACAD_MLINESTYLE
350
17
  3
ACAD_PLOTSETTINGS
350
19
  3
ACAD_PLOTSTYLENAME
350
E
  3
ACAD_SCALELIST
350
7F3A
  3
ACAD_TABLESTYLE
350
7F38
  3
ACAD_VISUALSTYLE
350
7F23
  3
ACDB_RECOMPOSE_DATA
350
8177
  3
AcDbVariableDictionary
350
3D
  3
AEC_PROPERTY_SET_DEFS
350
802B
  3
ASE_INDEX_DICTIONARY
350
7F05
  3
Autodesk_PNP
350
7F53
  3
DWGPROPS
350
8178
  0
DICTIONARY
  5
8106
330
10
100
AcDbDictionary
280
     1
281
     1
  3
ADSK_XREC_LAYER_RECONCILED
360
8107
  0
DICTIONARY
  5
8108
330
2F
100
AcDbDictionary
280
     1
281
     1
  3
ADSK_XREC_LAYER_RECONCILED
360
8109
  0
DICTIONARY
  5
810A
330
30
100
AcDbDictionary
280
     1
281
     1
  3
ADSK_XREC_LAYER_RECONCILED
360
810B
  0
DICTIONARY
  5
810C
330
31
100
AcDbDictionary
280
     1
281
     1
  3
ADSK_XREC_LAYER_RECONCILED
360
810D
  0
DICTIONARY
  5
810E
330
32
100
AcDbDictionary
280
     1
281
     1
  3
ADSK_XREC_LAYER_RECONCILED
360
810F
  0
DICTIONARY
  5
8110
330
33
100
AcDbDictionary
280
     1
281
     1
  3
ADSK_XREC_LAYER_RECONCILED
360
8111
  0
DICTIONARY
  5
8112
330
34
100
AcDbDictionary
280
     1
281
     1
  3
ADSK_XREC_LAYER_RECONCILED
360
8113
  0
DICTIONARY
  5
8114
330
35
100
AcDbDictionary
280
     1
281
     1
  3
ADSK_XREC_LAYER_RECONCILED
360
8115
  0
DICTIONARY
  5
8116
330
36
100
AcDbDictionary
280
     1
281
     1
  3
ADSK_XREC_LAYER_RECONCILED
360
8117
  0
DICTIONARY
  5
8118
330
37
100
AcDbDictionary
280
     1
281
     1
  3
ADSK_XREC_LAYER_RECONCILED
360
8119
  0
DICTIONARY
  5
811A
330
5D6
100
AcDbDictionary
280
     1
281
     1
  3
ADSK_XREC_LAYER_RECONCILED
360
811B
  0
DICTIONARY
  5
811C
330
8AF
100
AcDbDictionary
280
     1
281
     1
  3
ADSK_XREC_LAYER_RECONCILED
360
811D
  0
DICTIONARY
  5
811E
330
8F8
100
AcDbDictionary
280
     1
281
     1
  3
ADSK_XREC_LAYER_RECONCILED
360
811F
  0
DICTIONARY
  5
8120
330
91D
100
AcDbDictionary
280
     1
281
     1
  3
ADSK_XREC_LAYER_RECONCILED
360
8121
  0
DICTIONARY
  5
8122
330
E0B
100
AcDbDictionary
280
     1
281
     1
  3
ADSK_XREC_LAYER_RECONCILED
360
8123
  0
DICTIONARY
  5
8124
330
E0C
100
AcDbDictionary
280
     1
281
     1
  3
ADSK_XREC_LAYER_RECONCILED
360
8125
  0
DICTIONARY
  5
8102
330
1F
100
AcDbDictionary
280
     1
281
     1
  3
ACAD_SORTENTS
360
8103
  0
DICTIONARY
  5
7F37
102
{ACAD_REACTORS
330
C
102
}
330
C
100
AcDbDictionary
281
     1
  0
DICTIONARY
  5
D
102
{ACAD_REACTORS
330
C
102
}
330
C
100
AcDbDictionary
281
     1
  0
DICTIONARY
  5
1A
102
{ACAD_REACTORS
330
C
102
}
330
C
100
AcDbDictionary
281
     1
  3
Layout1
350
1E
  3
Layout2
350
26
  3
Model
350
22
  0
DICTIONARY
  5
7F0A
102
{ACAD_REACTORS
330
C
102
}
330
C
100
AcDbDictionary
281
     1
  3
ByBlock
350
7F13
  3
ByLayer
350
7F0B
  3
Global
350
7F1B
  0
DICTIONARY
  5
7F4C
102
{ACAD_REACTORS
330
C
102
}
330
C
100
AcDbDictionary
281
     1
  3
Standard
350
7F4D
  0
DICTIONARY
  5
17
102
{ACAD_REACTORS
330
C
102
}
330
C
100
AcDbDictionary
281
     1
  3
Standard
350
18
  0
DICTIONARY
  5
19
102
{ACAD_REACTORS
330
C
102
}
330
C
100
AcDbDictionary
281
     1
  0
ACDBDICTIONARYWDFLT
  5
E
102
{ACAD_REACTORS
330
C
102
}
330
C
100
AcDbDictionary
281
     1
  3
Normal
350
F
100
AcDbDictionaryWithDefault
340
F
  0
DICTIONARY
  5
7F3A
102
{ACAD_REACTORS
330
C
102
}
330
C
100
AcDbDictionary
281
     1
  3
A0
350
7F3B
  3
A1
350
7F3C
  3
A2
350
7F3D
  3
A3
350
7F3E
  3
A4
350
7F3F
  3
A5
350
7F40
  3
A6
350
7F41
  3
A7
350
7F42
  3
A8
350
7F43
  3
A9
350
7F44
  3
B0
350
7F45
  3
B1
350
7F46
  3
B2
350
7F47
  3
B3
350
7F48
  3
B4
350
7F49
  3
B5
350
7F4A
  3
B6
350
7F4B
  0
DICTIONARY
  5
7F38
102
{ACAD_REACTORS
330
C
102
}
330
C
100
AcDbDictionary
281
     1
  3
Standard
350
7F39
  0
DICTIONARY
  5
7F23
102
{ACAD_REACTORS
330
C
102
}
330
C
100
AcDbDictionary
281
     1
  3
2dWireframe
350
7F29
  3
3D Hidden
350
7F2B
  3
3dWireframe
350
7F2A
  3
Basic
350
7F28
  3
Brighten
350
7F2F
  3
ColorChange
350
7F33
  3
Conceptual
350
7F2C
  3
Dim
350
7F2E
  3
EdgeColorOff
350
7F36
  3
Facepattern
350
7F32
  3
Flat
350
7F24
  3
FlatWithEdges
350
7F25
  3
Gouraud
350
7F26
  3
GouraudWithEdges
350
7F27
  3
JitterOff
350
7F34
  3
Linepattern
350
7F31
  3
OverhangOff
350
7F35
  3
Realistic
350
7F2D
  3
Thicken
350
7F30
  0
XRECORD
  5
8177
102
{ACAD_REACTORS
330
C
102
}
330
C
100
AcDbXrecord
280
     1
 90
        1
330
7F39
  0
DICTIONARY
  5
3D
102
{ACAD_REACTORS
330
C
102
}
330
C
100
AcDbDictionary
281
     1
  3
CANNOSCALE
350
8171
  3
CMLEADERSTYLE
350
8170
  3
CTABLESTYLE
350
816F
  3
DIMASSOC
350
3F
  3
HIDETEXT
350
3E
  3
INDEXCTL
350
8173
  3
SORTENTS
350
8172
  3
XCLIPFRAME
350
8174
  0
DICTIONARY
  5
802B
102
{ACAD_REACTORS
330
C
102
}
330
C
100
AcDbDictionary
281
     1
  0
DICTIONARY
  5
7F05
102
{ACAD_REACTORS
330
C
102
}
330
C
100
AcDbDictionary
281
     1
  3
ASEBlockHierarchyIndexRecord
350
7F06
1001
DCO15
1040
1757680588.406
  0
DICTIONARY
  5
7F53
102
{ACAD_REACTORS
330
C
102
}
330
C
100
AcDbDictionary
281
     1
  0
XRECORD
  5
8178
102
{ACAD_REACTORS
330
C
102
}
330
C
100
AcDbXrecord
280
     1
  1
DWGPROPS COOKIE
  2

  3

  4

  6

  7

  8
Julio
  9

300
=
301
=
302
=
303
=
304
=
305
=
306
=
307
=
308
=
309
=
 40
0.0049450231481481
 41
2453480.582445197
 42
2456146.737180625
  1

 90
        0
  0
XRECORD
  5
8107
102
{ACAD_REACTORS
330
8106
102
}
330
8106
100
AcDbXrecord
280
     1
290
     1
  0
XRECORD
  5
8109
102
{ACAD_REACTORS
330
8108
102
}
330
8108
100
AcDbXrecord
280
     1
290
     1
  0
XRECORD
  5
810B
102
{ACAD_REACTORS
330
810A
102
}
330
810A
100
AcDbXrecord
280
     1
290
     1
  0
XRECORD
  5
810D
102
{ACAD_REACTORS
330
810C
102
}
330
810C
100
AcDbXrecord
280
     1
290
     1
  0
XRECORD
  5
810F
102
{ACAD_REACTORS
330
810E
102
}
330
810E
100
AcDbXrecord
280
     1
290
     1
  0
XRECORD
  5
8111
102
{ACAD_REACTORS
330
8110
102
}
330
8110
100
AcDbXrecord
280
     1
290
     1
  0
XRECORD
  5
8113
102
{ACAD_REACTORS
330
8112
102
}
330
8112
100
AcDbXrecord
280
     1
290
     1
  0
XRECORD
  5
8115
102
{ACAD_REACTORS
330
8114
102
}
330
8114
100
AcDbXrecord
280
     1
290
     1
  0
XRECORD
  5
8117
102
{ACAD_REACTORS
330
8116
102
}
330
8116
100
AcDbXrecord
280
     1
290
     1
  0
XRECORD
  5
8119
102
{ACAD_REACTORS
330
8118
102
}
330
8118
100
AcDbXrecord
280
     1
290
     1
  0
XRECORD
  5
811B
102
{ACAD_REACTORS
330
811A
102
}
330
811A
100
AcDbXrecord
280
     1
290
     1
  0
XRECORD
  5
811D
102
{ACAD_REACTORS
330
811C
102
}
330
811C
100
AcDbXrecord
280
     1
290
     1
  0
XRECORD
  5
811F
102
{ACAD_REACTORS
330
811E
102
}
330
811E
100
AcDbXrecord
280
     1
290
     1
  0
XRECORD
  5
8121
102
{ACAD_REACTORS
330
8120
102
}
330
8120
100
AcDbXrecord
280
     1
290
     1
  0
XRECORD
  5
8123
102
{ACAD_REACTORS
330
8122
102
}
330
8122
100
AcDbXrecord
280
     1
290
     1
  0
XRECORD
  5
8125
102
{ACAD_REACTORS
330
8124
102
}
330
8124
100
AcDbXrecord
280
     1
290
     1
  0
SORTENTSTABLE
  5
8103
102
{ACAD_REACTORS
330
8102
102
}
330
8102
100
AcDbSortentsTable
330
1F
331
8040
  5
8042
331
12B8
  5
12BA
331
7EE8
  5
7EEA
331
8051
  5
8053
331
8073
  5
8075
331
8062
  5
8064
331
7EF9
  5
7EFB
331
12E4
  5
12E9
331
11A9
  5
11A9
331
8084
  5
8086
331
12F5
  5
12F7
331
8095
  5
8097
331
1242
  5
1244
331
11FE
  5
11FE
331
1285
  5
128A
331
12A7
  5
12A9
331
1296
  5
1299
331
8105
  5
1215
331
113C
  5
113C
331
110D
  5
110D
331
10FC
  5
10FC
331
8030
  5
8032
331
12A8
  5
12AA
331
8041
  5
8043
331
12B9
  5
12BC
331
7EE9
  5
7EEB
331
8052
  5
8054
331
12CA
  5
12D0
331
8063
  5
8065
331
7EFA
  5
7EFC
331
8074
  5
8076
331
12D4
  5
12D8
331
11AA
  5
11AA
331
8085
  5
8087
331
8096
  5
8098
331
12F6
  5
12F8
331
1264
  5
1266
331
1243
  5
1245
331
1232
  5
1239
331
1221
  5
1222
331
11DE
  5
11DE
331
1297
  5
129A
331
113D
  5
113D
331
10FD
  5
10FD
331
8031
  5
8033
331
12A9
  5
12AB
331
8042
  5
8044
331
12BA
  5
12BD
331
7EEA
  5
7EEC
331
8053
  5
8055
331
8075
  5
8077
331
8064
  5
8066
331
7EFB
  5
7EFD
331
11AB
  5
11AB
331
8086
  5
8088
331
12F7
  5
12F9
331
8097
  5
8099
331
1265
  5
126B
331
1244
  5
1247
331
1222
  5
1226
331
1200
  5
1200
331
1157
  5
1157
331
110F
  5
110F
331
10FE
  5
10FE
331
1299
  5
129B
331
8043
  5
8045
331
8032
  5
8034
331
12AA
  5
12AC
331
8054
  5
8056
331
7EEB
  5
7EED
331
8065
  5
8067
331
7EFC
  5
7EFE
331
117A
  5
117A
331
1169
  5
1169
331
8076
  5
8078
331
8087
  5
8089
331
12E7
  5
12EA
331
12F8
  5
12FA
331
11E0
  5
11E0
331
11CF
  5
11CF
331
8098
  5
809A
331
1266
  5
126D
331
1245
  5
1249
331
1223
  5
1229
331
113F
  5
113F
331
1110
  5
1110
331
10E6
  5
10E6
331
8033
  5
8035
331
12AB
  5
12AD
331
129A
  5
129C
331
1289
  5
128B
331
8044
  5
8046
331
12BC
  5
12BE
331
8055
  5
8057
331
7EEC
  5
7EEE
331
8066
  5
8068
331
7EFD
  5
7EFF
331
12D7
  5
12D9
331
119C
  5
119C
331
1148
  5
1148
331
8077
  5
8079
331
8088
  5
808A
331
8099
  5
809B
331
12F9
  5
12FB
331
1202
  5
1202
331
1100
  5
1100
331
10E7
  5
10E7
331
128A
  5
1296
331
8034
  5
8036
331
12AC
  5
12AE
331
129B
  5
129D
331
8045
  5
8047
331
12BD
  5
12BF
331
8056
  5
8058
331
12CE
  5
12D4
331
8067
  5
8069
331
7EFE
  5
7F00
331
8078
  5
807A
331
12E9
  5
12EB
331
12D8
  5
12DB
331
7EED
  5
7EEF
331
116B
  5
116B
331
115A
  5
115A
331
8089
  5
808B
331
809A
  5
809C
331
12FA
  5
12FC
331
1247
  5
124E
331
1236
  5
1241
331
11E2
  5
11E2
331
1101
  5
1101
331
8035
  5
8037
331
12AD
  5
12AF
331
129C
  5
129E
331
128B
  5
1297
331
1258
  5
125A
331
8046
  5
8048
331
12BE
  5
12C0
331
8057
  5
8059
331
7EEE
  5
7EF0
331
8068
  5
806A
331
7EFF
  5
7F01
331
12D9
  5
12DC
331
119E
  5
119E
331
8079
  5
807B
331
12EA
  5
12ED
331
808A
  5
808C
331
12FB
  5
12FD
331
11E3
  5
11E3
331
809B
  5
809D
331
1204
  5
1204
331
1226
  5
122B
331
1215
  5
1217
331
1124
  5
1124
331
1113
  5
1113
331
1102
  5
1102
331
10F1
  5
10F1
331
129D
  5
129F
331
1259
  5
125B
331
1249
  5
1258
331
8036
  5
8038
331
12AE
  5
12B0
331
8047
  5
8049
331
12BF
  5
12C1
331
8058
  5
805A
331
7EEF
  5
7EF1
331
807A
  5
807C
331
8069
  5
806B
331
12EB
  5
12F1
331
7F00
  5
7F02
331
117E
  5
117E
331
808B
  5
808D
331
12FC
  5
12FE
331
809C
  5
809E
331
1114
  5
1114
331
1103
  5
1103
331
125A
  5
125C
331
1239
  5
1242
331
129E
  5
12A0
331
126B
  5
126F
331
8037
  5
8039
331
12AF
  5
12B1
331
8048
  5
804A
331
12C0
  5
12C2
331
8059
  5
805B
331
7EF0
  5
7EF2
331
806A
  5
806C
331
12DB
  5
12DD
331
7F01
  5
7F03
331
117F
  5
117F
331
1133
  5
1133
331
808C
  5
808E
331
807B
  5
807D
331
809D
  5
809F
331
12FD
  5
12FF
331
1206
  5
1206
331
1217
  5
121C
331
1126
  5
1126
331
10F3
  5
10F3
331
8038
  5
803A
331
12B0
  5
12B2
331
129F
  5
12A1
331
125B
  5
125F
331
1229
  5
122D
331
8049
  5
804B
331
12C1
  5
12C3
331
805A
  5
805C
331
7EF1
  5
7EF3
331
806B
  5
806D
331
7F02
  5
7F04
331
12DC
  5
12DE
331
11A1
  5
11A1
331
807C
  5
807E
331
12ED
  5
12F2
331
808D
  5
808F
331
12FE
  5
1300
331
809E
  5
80A0
331
1116
  5
1116
331
1105
  5
1105
331
10F4
  5
10F4
331
127E
  5
1284
331
126D
  5
1271
331
125C
  5
1260
331
8039
  5
803B
331
12B1
  5
12B3
331
12A0
  5
12A2
331
804A
  5
804C
331
12C2
  5
12C4
331
805B
  5
805D
331
7EF2
  5
7EF4
331
806C
  5
806E
331
7F03
  5
8030
331
12DD
  5
12DF
331
11A2
  5
11A2
331
1170
  5
1170
331
115F
  5
115F
331
1128
  5
1128
331
808E
  5
8090
331
807D
  5
807F
331
809F
  5
80A1
331
12FF
  5
1301
331
10F5
  5
10F5
331
80A0
  5
8104
331
1300
  5
1302
331
122B
  5
122E
331
803A
  5
803C
331
12B2
  5
12B4
331
12A1
  5
12A3
331
804B
  5
804D
331
12C3
  5
12C5
331
7EF3
  5
7EF5
331
805C
  5
805E
331
806D
  5
806F
331
7F04
  5
8031
331
12DE
  5
12E0
331
11B4
  5
11B4
331
1160
  5
1160
331
1136
  5
1136
331
807E
  5
8080
331
808F
  5
8091
331
11D7
  5
11D7
331
10F6
  5
10F6
331
8090
  5
8092
331
1301
  5
1303
331
11F9
  5
11F9
331
11D8
  5
11D8
331
80A1
  5
8105
331
126F
  5
127E
331
124E
  5
1259
331
120A
  5
120A
331
803B
  5
803D
331
12B3
  5
12B5
331
12A2
  5
12A4
331
804C
  5
804E
331
12C4
  5
12C6
331
806E
  5
8070
331
805D
  5
805F
331
7EF4
  5
7EF6
331
807F
  5
8081
331
12DF
  5
12E1
331
11A4
  5
11A4
331
1161
  5
1161
331
1119
  5
1119
331
12E0
  5
12E4
331
8080
  5
8082
331
8091
  5
8093
331
12F1
  5
12F3
331
1302
  5
7EE6
331
11FA
  5
11FA
331
125F
  5
1261
331
122D
  5
1231
331
121C
  5
121D
331
120B
  5
120B
331
803C
  5
803E
331
12B4
  5
12B8
331
12A3
  5
12A5
331
804D
  5
804F
331
12C5
  5
12CA
331
806F
  5
8071
331
805E
  5
8060
331
7EF5
  5
7EF7
331
11A5
  5
11A5
331
1138
  5
1138
331
111A
  5
111A
331
10F8
  5
10F8
331
8070
  5
8072
331
12D0
  5
12D7
331
12E1
  5
12E7
331
8081
  5
8083
331
8092
  5
8094
331
12F2
  5
12F4
331
1303
  5
7EE7
331
11FB
  5
11FB
331
11DA
  5
11DA
331
120C
  5
120C
331
1271
  5
1283
331
1260
  5
1262
331
122E
  5
1232
331
121D
  5
121E
331
803D
  5
803F
331
12B5
  5
12B9
331
12A4
  5
12A6
331
804E
  5
8050
331
12C6
  5
12CE
331
7EF6
  5
7EF8
331
805F
  5
8061
331
11B7
  5
11B7
331
1174
  5
1174
331
1163
  5
1163
331
112C
  5
112C
331
111B
  5
111B
331
10F9
  5
10F9
331
8082
  5
8084
331
8071
  5
8073
331
8060
  5
8062
331
12F3
  5
12F5
331
11B8
  5
11B8
331
8093
  5
8095
331
11FC
  5
11FC
331
1261
  5
1264
331
121E
  5
1221
331
1283
  5
1285
331
803E
  5
8040
331
12A5
  5
12A7
331
7EE6
  5
7EE8
331
804F
  5
8051
331
7EF7
  5
7EF9
331
11A7
  5
11A7
331
1164
  5
1164
331
113A
  5
113A
331
112D
  5
112D
331
110B
  5
110B
331
8050
  5
8052
331
8083
  5
8085
331
8072
  5
8074
331
8061
  5
8063
331
7EF8
  5
7EFA
331
12F4
  5
12F6
331
8094
  5
8096
331
11FD
  5
11FD
331
1262
  5
1265
331
1241
  5
1243
331
1284
  5
1289
331
12A6
  5
12A8
331
803F
  5
8041
331
7EE7
  5
7EE9
331
1197
  5
1197
331
113B
  5
113B
331
112E
  5
112E
331
110C
  5
110C
  0
LAYOUT
  5
1E
102
{ACAD_XDICTIONARY
360
8179
102
}
102
{ACAD_REACTORS
330
1A
102
}
330
1A
100
AcDbPlotSettings
  1

  2
Ploter HP500
  4

  6

 40
0.0
 41
0.0
 42
0.0
 43
0.0
 44
0.0
 45
0.0
 46
0.0
 47
0.0
 48
0.0
 49
0.0
140
0.0
141
0.0
142
1.0
143
1.0
 70
   688
 72
     0
 73
     0
 74
     5
  7
monochrome.ctb
 75
    16
147
1.0
148
0.0
149
0.0
100
AcDbLayout
  1
Layout1
 70
     1
 71
     1
 10
0.0
 20
0.0
 11
420.0
 21
297.0
 12
0.0
 22
0.0
 32
0.0
 14
1.000000000000000E+20
 24
1.000000000000000E+20
 34
1.000000000000000E+20
 15
-1.000000000000000E+20
 25
-1.000000000000000E+20
 35
-1.000000000000000E+20
146
0.0
 13
0.0
 23
0.0
 33
0.0
 16
1.0
 26
0.0
 36
0.0
 17
0.0
 27
1.0
 37
0.0
 76
     0
330
1B
  0
LAYOUT
  5
26
102
{ACAD_XDICTIONARY
360
817D
102
}
102
{ACAD_REACTORS
330
1A
102
}
330
1A
100
AcDbPlotSettings
  1

  2
Ploter HP500
  4

  6

 40
0.0
 41
0.0
 42
0.0
 43
0.0
 44
0.0
 45
0.0
 46
0.0
 47
0.0
 48
0.0
 49
0.0
140
0.0
141
0.0
142
1.0
143
1.0
 70
   688
 72
     0
 73
     0
 74
     5
  7
monochrome.ctb
 75
    16
147
1.0
148
0.0
149
0.0
100
AcDbLayout
  1
Layout2
 70
     1
 71
     2
 10
0.0
 20
0.0
 11
12.0
 21
9.0
 12
0.0
 22
0.0
 32
0.0
 14
0.0
 24
0.0
 34
0.0
 15
0.0
 25
0.0
 35
0.0
146
0.0
 13
0.0
 23
0.0
 33
0.0
 16
1.0
 26
0.0
 36
0.0
 17
0.0
 27
1.0
 37
0.0
 76
     0
330
23
  0
LAYOUT
  5
22
102
{ACAD_XDICTIONARY
360
817B
102
}
102
{ACAD_REACTORS
330
1A
102
}
330
1A
100
AcDbPlotSettings
  1

  2
Ploter HP500
  4
User268
  6

 40
4.995333194732666
 41
16.97565841674804
 42
4.995330810546875
 43
16.97567749023437
 44
209.9733276367187
 45
296.9259948730469
 46
0.0
 47
0.0
 48
0.0
 49
0.0
140
0.0
141
0.0
142
1.0
143
1.0
 70
 11952
 72
     1
 73
     1
 74
     0
  7

 75
     0
147
1.0
148
-427.5957866592534
149
7.362384574453926
100
AcDbLayout
  1
Model
 70
     1
 71
     0
 10
0.0
 20
0.0
 11
12.0
 21
9.0
 12
0.0
 22
0.0
 32
0.0
 14
0.0
 24
0.0
 34
0.0
 15
0.0
 25
0.0
 35
0.0
146
0.0
 13
0.0
 23
0.0
 33
0.0
 16
1.0
 26
0.0
 36
0.0
 17
0.0
 27
1.0
 37
0.0
 76
     0
330
1F
331
7F08
  0
MATERIAL
  5
7F13
102
{ACAD_XDICTIONARY
360
7F14
102
}
102
{ACAD_REACTORS
330
7F0A
102
}
330
7F0A
100
AcDbMaterial
  1
ByBlock
 72
     0
 43
0.0008202099737533
 43
0.0
 43
0.0
 43
0.0
 43
0.0
 43
0.0008202099737533
 43
0.0
 43
0.0
 43
0.0
 43
0.0
 43
1.0
 43
0.0
 43
0.0
 43
0.0
 43
0.0
 43
1.0
 77
     0
 47
0.0008202099737533
 47
0.0
 47
0.0
 47
0.0
 47
0.0
 47
0.0008202099737533
 47
0.0
 47
0.0
 47
0.0
 47
0.0
 47
1.0
 47
0.0
 47
0.0
 47
0.0
 47
0.0
 47
1.0
171
     0
 49
0.0008202099737533
 49
0.0
 49
0.0
 49
0.0
 49
0.0
 49
0.0008202099737533
 49
0.0
 49
0.0
 49
0.0
 49
0.0
 49
1.0
 49
0.0
 49
0.0
 49
0.0
 49
0.0
 49
1.0
175
     0
142
0.0008202099737533
142
0.0
142
0.0
142
0.0
142
0.0
142
0.0008202099737533
142
0.0
142
0.0
142
0.0
142
0.0
142
1.0
142
0.0
142
0.0
142
0.0
142
0.0
142
1.0
179
     0
144
0.0008202099737533
144
0.0
144
0.0
144
0.0
144
0.0
144
0.0008202099737533
144
0.0
144
0.0
144
0.0
144
0.0
144
1.0
144
0.0
144
0.0
144
0.0
144
0.0
144
1.0
147
0.0008202099737533
147
0.0
147
0.0
147
0.0
147
0.0
147
0.0008202099737533
147
0.0
147
0.0
147
0.0
147
0.0
147
1.0
147
0.0
147
0.0
147
0.0
147
0.0
147
1.0
  0
MATERIAL
  5
7F0B
102
{ACAD_XDICTIONARY
360
7F0C
102
}
102
{ACAD_REACTORS
330
7F0A
102
}
330
7F0A
100
AcDbMaterial
  1
ByLayer
 72
     0
 43
0.0008202099737533
 43
0.0
 43
0.0
 43
0.0
 43
0.0
 43
0.0008202099737533
 43
0.0
 43
0.0
 43
0.0
 43
0.0
 43
1.0
 43
0.0
 43
0.0
 43
0.0
 43
0.0
 43
1.0
 77
     0
 47
0.0008202099737533
 47
0.0
 47
0.0
 47
0.0
 47
0.0
 47
0.0008202099737533
 47
0.0
 47
0.0
 47
0.0
 47
0.0
 47
1.0
 47
0.0
 47
0.0
 47
0.0
 47
0.0
 47
1.0
171
     0
 49
0.0008202099737533
 49
0.0
 49
0.0
 49
0.0
 49
0.0
 49
0.0008202099737533
 49
0.0
 49
0.0
 49
0.0
 49
0.0
 49
1.0
 49
0.0
 49
0.0
 49
0.0
 49
0.0
 49
1.0
175
     0
142
0.0008202099737533
142
0.0
142
0.0
142
0.0
142
0.0
142
0.0008202099737533
142
0.0
142
0.0
142
0.0
142
0.0
142
1.0
142
0.0
142
0.0
142
0.0
142
0.0
142
1.0
179
     0
144
0.0008202099737533
144
0.0
144
0.0
144
0.0
144
0.0
144
0.0008202099737533
144
0.0
144
0.0
144
0.0
144
0.0
144
1.0
144
0.0
144
0.0
144
0.0
144
0.0
144
1.0
147
0.0008202099737533
147
0.0
147
0.0
147
0.0
147
0.0
147
0.0008202099737533
147
0.0
147
0.0
147
0.0
147
0.0
147
1.0
147
0.0
147
0.0
147
0.0
147
0.0
147
1.0
  0
MATERIAL
  5
7F1B
102
{ACAD_XDICTIONARY
360
7F1C
102
}
102
{ACAD_REACTORS
330
7F0A
102
}
330
7F0A
100
AcDbMaterial
  1
Global
 72
     0
 43
0.0008202099737533
 43
0.0
 43
0.0
 43
0.0
 43
0.0
 43
0.0008202099737533
 43
0.0
 43
0.0
 43
0.0
 43
0.0
 43
1.0
 43
0.0
 43
0.0
 43
0.0
 43
0.0
 43
1.0
 77
     0
 47
0.0008202099737533
 47
0.0
 47
0.0
 47
0.0
 47
0.0
 47
0.0008202099737533
 47
0.0
 47
0.0
 47
0.0
 47
0.0
 47
1.0
 47
0.0
 47
0.0
 47
0.0
 47
0.0
 47
1.0
171
     0
 49
0.0008202099737533
 49
0.0
 49
0.0
 49
0.0
 49
0.0
 49
0.0008202099737533
 49
0.0
 49
0.0
 49
0.0
 49
0.0
 49
1.0
 49
0.0
 49
0.0
 49
0.0
 49
0.0
 49
1.0
175
     0
142
0.0008202099737533
142
0.0
142
0.0
142
0.0
142
0.0
142
0.0008202099737533
142
0.0
142
0.0
142
0.0
142
0.0
142
1.0
142
0.0
142
0.0
142
0.0
142
0.0
142
1.0
179
     0
144
0.0008202099737533
144
0.0
144
0.0
144
0.0
144
0.0
144
0.0008202099737533
144
0.0
144
0.0
144
0.0
144
0.0
144
1.0
144
0.0
144
0.0
144
0.0
144
0.0
144
1.0
147
0.0008202099737533
147
0.0
147
0.0
147
0.0
147
0.0
147
0.0008202099737533
147
0.0
147
0.0
147
0.0
147
0.0
147
1.0
147
0.0
147
0.0
147
0.0
147
0.0
147
1.0
  0
MLEADERSTYLE
  5
7F4D
102
{ACAD_REACTORS
330
7F4C
102
}
330
7F4C
100
AcDbMLeaderStyle
170
     2
171
     1
172
     0
 90
        2
 40
0.0
 41
0.0
173
     1
 91
-1056964608
340
14
 92
       -2
290
     1
 42
2.0
291
     1
 43
0.36
  3
Standard
 44
4.0
300

342
11
174
     1
178
     6
175
     1
176
     0
 93
-1056964608
 45
4.0
292
     0
297
     0
 46
4.0
 94
-1056964608
 47
1.0
 49
1.0
140
1.0
293
     1
141
0.0
294
     1
177
     0
142
1.0
295
     0
296
     0
143
0.125
1001
ACAD_MLEADERVER
1070
     2
  0
MLINESTYLE
  5
18
102
{ACAD_REACTORS
330
17
102
}
330
17
100
AcDbMlineStyle
  2
STANDARD
 70
     0
  3

 62
   256
 51
90.0
 52
90.0
 71
     2
 49
0.5
 62
   256
  6
BYLAYER
 49
-0.5
 62
   256
  6
BYLAYER
  0
ACDBPLACEHOLDER
  5
F
102
{ACAD_REACTORS
330
E
102
}
330
E
  0
SCALE
  5
7F3B
102
{ACAD_REACTORS
330
7F3A
102
}
330
7F3A
100
AcDbScale
 70
     0
300
1:1
140
1.0
141
1.0
290
     1
  0
SCALE
  5
7F3C
102
{ACAD_REACTORS
330
7F3A
102
}
330
7F3A
100
AcDbScale
 70
     0
300
1:2
140
1.0
141
2.0
290
     0
  0
SCALE
  5
7F3D
102
{ACAD_REACTORS
330
7F3A
102
}
330
7F3A
100
AcDbScale
 70
     0
300
1:4
140
1.0
141
4.0
290
     0
  0
SCALE
  5
7F3E
102
{ACAD_REACTORS
330
7F3A
102
}
330
7F3A
100
AcDbScale
 70
     0
300
1:5
140
1.0
141
5.0
290
     0
  0
SCALE
  5
7F3F
102
{ACAD_REACTORS
330
7F3A
102
}
330
7F3A
100
AcDbScale
 70
     0
300
1:8
140
1.0
141
8.0
290
     0
  0
SCALE
  5
7F40
102
{ACAD_REACTORS
330
7F3A
102
}
330
7F3A
100
AcDbScale
 70
     0
300
1:10
140
1.0
141
10.0
290
     0
  0
SCALE
  5
7F41
102
{ACAD_REACTORS
330
7F3A
102
}
330
7F3A
100
AcDbScale
 70
     0
300
1:16
140
1.0
141
16.0
290
     0
  0
SCALE
  5
7F42
102
{ACAD_REACTORS
330
7F3A
102
}
330
7F3A
100
AcDbScale
 70
     0
300
1:20
140
1.0
141
20.0
290
     0
  0
SCALE
  5
7F43
102
{ACAD_REACTORS
330
7F3A
102
}
330
7F3A
100
AcDbScale
 70
     0
300
1:30
140
1.0
141
30.0
290
     0
  0
SCALE
  5
7F44
102
{ACAD_REACTORS
330
7F3A
102
}
330
7F3A
100
AcDbScale
 70
     0
300
1:40
140
1.0
141
40.0
290
     0
  0
SCALE
  5
7F45
102
{ACAD_REACTORS
330
7F3A
102
}
330
7F3A
100
AcDbScale
 70
     0
300
1:50
140
1.0
141
50.0
290
     0
  0
SCALE
  5
7F46
102
{ACAD_REACTORS
330
7F3A
102
}
330
7F3A
100
AcDbScale
 70
     0
300
1:100
140
1.0
141
100.0
290
     0
  0
SCALE
  5
7F47
102
{ACAD_REACTORS
330
7F3A
102
}
330
7F3A
100
AcDbScale
 70
     0
300
2:1
140
2.0
141
1.0
290
     0
  0
SCALE
  5
7F48
102
{ACAD_REACTORS
330
7F3A
102
}
330
7F3A
100
AcDbScale
 70
     0
300
4:1
140
4.0
141
1.0
290
     0
  0
SCALE
  5
7F49
102
{ACAD_REACTORS
330
7F3A
102
}
330
7F3A
100
AcDbScale
 70
     0
300
8:1
140
8.0
141
1.0
290
     0
  0
SCALE
  5
7F4A
102
{ACAD_REACTORS
330
7F3A
102
}
330
7F3A
100
AcDbScale
 70
     0
300
10:1
140
10.0
141
1.0
290
     0
  0
SCALE
  5
7F4B
102
{ACAD_REACTORS
330
7F3A
102
}
330
7F3A
100
AcDbScale
 70
     0
300
100:1
140
100.0
141
1.0
290
     0
  0
TABLESTYLE
  5
7F39
102
{ACAD_XDICTIONARY
360
8175
102
}
102
{ACAD_REACTORS
330
7F38
102
}
330
7F38
100
AcDbTableStyle
  3
Standard
 70
     0
 71
     0
 40
1.5
 41
1.5
280
     0
281
     0
  7
Standard
140
4.5
170
     2
 62
     0
 63
     7
283
     0
274
    -2
284
     1
 64
     0
275
    -2
285
     1
 65
     0
276
    -2
286
     1
 66
     0
277
    -2
287
     1
 67
     0
278
    -2
288
     1
 68
     0
279
    -2
289
     1
 69
     0
  7
Standard
140
6.0
170
     5
 62
     0
 63
     7
283
     0
274
    -2
284
     1
 64
     0
275
    -2
285
     1
 65
     0
276
    -2
286
     1
 66
     0
277
    -2
287
     1
 67
     0
278
    -2
288
     1
 68
     0
279
    -2
289
     1
 69
     0
  7
Standard
140
4.5
170
     5
 62
     0
 63
     7
283
     0
274
    -2
284
     1
 64
     0
275
    -2
285
     1
 65
     0
276
    -2
286
     1
 66
     0
277
    -2
287
     1
 67
     0
278
    -2
288
     1
 68
     0
279
    -2
289
     1
 69
     0
  0
VISUALSTYLE
  5
7F29
102
{ACAD_XDICTIONARY
360
8198
102
}
102
{ACAD_REACTORS
330
7F23
102
}
330
7F23
100
AcDbVisualStyle
  2
2dWireframe
 70
     4
 71
     0
 72
     2
 73
     0
 90
        0
 40
-0.6
 41
-30.0
 62
     5
 63
     7
 74
     1
 91
        4
 64
     7
 65
   257
 75
     1
175
     1
 42
1.0
 92
        0
 66
   257
 43
1.0
 76
     1
 77
     6
 78
     2
 67
     7
 79
     5
170
     0
171
     0
290
     0
174
     0
 93
        1
 44
0.0
173
     0
291
     0
 45
0.0
1001
ACAD
1000
AcDbSavedByObjectVersion
1070
     0
  0
VISUALSTYLE
  5
7F2B
102
{ACAD_XDICTIONARY
360
819C
102
}
102
{ACAD_REACTORS
330
7F23
102
}
330
7F23
100
AcDbVisualStyle
  2
3D Hidden
 70
     6
 71
     1
 72
     2
 73
     2
 90
        0
 40
-0.6
 41
-30.0
 62
     5
 63
     7
 74
     2
 91
        2
 64
     7
 65
   257
 75
     2
175
     1
 42
179.0
 92
        0
 66
   257
 43
1.0
 76
     1
 77
     6
 78
     2
 67
     7
 79
     3
170
     0
171
     0
290
     0
174
     0
 93
        1
 44
0.0
173
     0
291
     0
 45
0.0
1001
ACAD
1000
AcDbSavedByObjectVersion
1070
     0
  0
VISUALSTYLE
  5
7F2A
102
{ACAD_XDICTIONARY
360
819A
102
}
102
{ACAD_REACTORS
330
7F23
102
}
330
7F23
100
AcDbVisualStyle
  2
3dWireframe
 70
     5
 71
     0
 72
     2
 73
     0
 90
        0
 40
-0.6
 41
-30.0
 62
     5
 63
     7
 74
     1
 91
        4
 64
     7
 65
   257
 75
     1
175
     1
 42
1.0
 92
        0
 66
   257
 43
1.0
 76
     1
 77
     6
 78
     2
 67
     7
 79
     5
170
     0
171
     0
290
     0
174
     0
 93
        1
 44
0.0
173
     0
291
     0
 45
0.0
1001
ACAD
1000
AcDbSavedByObjectVersion
1070
     0
  0
VISUALSTYLE
  5
7F28
102
{ACAD_XDICTIONARY
360
8196
102
}
102
{ACAD_REACTORS
330
7F23
102
}
330
7F23
100
AcDbVisualStyle
  2
Basic
 70
     7
 71
     1
 72
     0
 73
     1
 90
        0
 40
-0.6
 41
-30.0
 62
     5
 63
     7
 74
     0
 91
        4
 64
     7
 65
   257
 75
     1
175
     1
 42
1.0
 92
        8
 66
     7
 43
1.0
 76
     1
 77
     6
 78
     2
 67
     7
 79
     5
170
     0
171
     0
290
     0
174
     0
 93
        1
 44
0.0
173
     0
291
     1
 45
0.0
1001
ACAD
1000
AcDbSavedByObjectVersion
1070
     0
  0
VISUALSTYLE
  5
7F2F
102
{ACAD_XDICTIONARY
360
81A4
102
}
102
{ACAD_REACTORS
330
7F23
102
}
330
7F23
100
AcDbVisualStyle
  2
Brighten
 70
    12
 71
     2
 72
     2
 73
     0
 90
        0
 40
-0.6
 41
-30.0
 62
     5
 63
     7
 74
     1
 91
        4
 64
     7
 65
   257
 75
     1
175
     1
 42
1.0
 92
        8
 66
     7
 43
1.0
 76
     1
 77
     6
 78
     2
 67
     7
 79
     5
170
     0
171
     0
290
     0
174
     0
 93
        1
 44
50.0
173
     0
291
     1
 45
0.0
1001
ACAD
1000
AcDbSavedByObjectVersion
1070
     0
  0
VISUALSTYLE
  5
7F33
102
{ACAD_XDICTIONARY
360
81AC
102
}
102
{ACAD_REACTORS
330
7F23
102
}
330
7F23
100
AcDbVisualStyle
  2
ColorChange
 70
    16
 71
     2
 72
     2
 73
     3
 90
        0
 40
-0.6
 41
-30.0
 62
     5
 63
     8
 74
     1
 91
        4
 64
     7
 65
   257
 75
     1
175
     1
 42
1.0
 92
        8
 66
     8
 43
1.0
 76
     1
 77
     6
 78
     2
 67
     7
 79
     5
170
     0
171
     0
290
     0
174
     0
 93
        1
 44
0.0
173
     0
291
     1
 45
0.0
1001
ACAD
1000
AcDbSavedByObjectVersion
1070
     0
  0
VISUALSTYLE
  5
7F2C
102
{ACAD_XDICTIONARY
360
819E
102
}
102
{ACAD_REACTORS
330
7F23
102
}
330
7F23
100
AcDbVisualStyle
  2
Conceptual
 70
     9
 71
     3
 72
     2
 73
     0
 90
        0
 40
-0.6
 41
-30.0
 62
     5
 63
     7
 74
     2
 91
        2
 64
     7
 65
   257
 75
     1
175
     1
 42
179.0
 92
        8
 66
     7
 43
1.0
 76
     1
 77
     6
 78
     2
 67
     7
 79
     3
170
     0
171
     0
290
     0
174
     0
 93
        1
 44
0.0
173
     0
291
     0
 45
0.0
1001
ACAD
1000
AcDbSavedByObjectVersion
1070
     0
  0
VISUALSTYLE
  5
7F2E
102
{ACAD_XDICTIONARY
360
81A2
102
}
102
{ACAD_REACTORS
330
7F23
102
}
330
7F23
100
AcDbVisualStyle
  2
Dim
 70
    11
 71
     2
 72
     2
 73
     0
 90
        0
 40
-0.6
 41
-30.0
 62
     5
 63
     7
 74
     1
 91
        4
 64
     7
 65
   257
 75
     1
175
     1
 42
1.0
 92
        8
 66
     7
 43
1.0
 76
     1
 77
     6
 78
     2
 67
     7
 79
     5
170
     0
171
     0
290
     0
174
     0
 93
        1
 44
-50.0
173
     0
291
     1
 45
0.0
1001
ACAD
1000
AcDbSavedByObjectVersion
1070
     0
  0
VISUALSTYLE
  5
7F36
102
{ACAD_XDICTIONARY
360
81B2
102
}
102
{ACAD_REACTORS
330
7F23
102
}
330
7F23
100
AcDbVisualStyle
  2
EdgeColorOff
 70
    22
 71
     2
 72
     2
 73
     0
 90
        0
 40
-0.6
 41
-30.0
 62
     5
 63
     7
 74
     1
 91
        4
 64
     7
 65
   257
 75
     1
175
     1
 42
1.0
 92
        8
 66
     7
 43
1.0
 76
     1
 77
     6
 78
     2
 67
     7
 79
     5
170
     0
171
     0
290
     0
174
     0
 93
        1
 44
0.0
173
     0
291
     1
 45
0.0
1001
ACAD
1000
AcDbSavedByObjectVersion
1070
     0
  0
VISUALSTYLE
  5
7F32
102
{ACAD_XDICTIONARY
360
81AA
102
}
102
{ACAD_REACTORS
330
7F23
102
}
330
7F23
100
AcDbVisualStyle
  2
Facepattern
 70
    15
 71
     2
 72
     2
 73
     0
 90
        0
 40
-0.6
 41
-30.0
 62
     5
 63
     7
 74
     1
 91
        4
 64
     7
 65
   257
 75
     1
175
     1
 42
1.0
 92
        8
 66
     7
 43
1.0
 76
     1
 77
     6
 78
     2
 67
     7
 79
     5
170
     0
171
     0
290
     0
174
     0
 93
        1
 44
0.0
173
     0
291
     1
 45
0.0
1001
ACAD
1000
AcDbSavedByObjectVersion
1070
     0
  0
VISUALSTYLE
  5
7F24
102
{ACAD_XDICTIONARY
360
818E
102
}
102
{ACAD_REACTORS
330
7F23
102
}
330
7F23
100
AcDbVisualStyle
  2
Flat
 70
     0
 71
     2
 72
     1
 73
     1
 90
        2
 40
-0.6
 41
30.0
 62
     5
 63
     7
 74
     0
 91
        4
 64
     7
 65
   257
 75
     1
175
     1
 42
1.0
 92
        8
 66
     7
 43
1.0
 76
     1
 77
     6
 78
     2
 67
     7
 79
     5
170
     0
171
     0
290
     0
174
     0
 93
       13
 44
0.0
173
     0
291
     1
 45
0.0
1001
ACAD
1000
AcDbSavedByObjectVersion
1070
     0
  0
VISUALSTYLE
  5
7F25
102
{ACAD_XDICTIONARY
360
8190
102
}
102
{ACAD_REACTORS
330
7F23
102
}
330
7F23
100
AcDbVisualStyle
  2
FlatWithEdges
 70
     1
 71
     2
 72
     1
 73
     1
 90
        2
 40
-0.6
 41
30.0
 62
     5
 63
     7
 74
     1
 91
        4
 64
     7
 65
   257
 75
     1
175
     1
 42
1.0
 92
        0
 66
   257
 43
1.0
 76
     1
 77
     6
 78
     2
 67
     7
 79
     5
170
     0
171
     0
290
     0
174
     0
 93
       13
 44
0.0
173
     0
291
     1
 45
0.0
1001
ACAD
1000
AcDbSavedByObjectVersion
1070
     0
  0
VISUALSTYLE
  5
7F26
102
{ACAD_XDICTIONARY
360
8192
102
}
102
{ACAD_REACTORS
330
7F23
102
}
330
7F23
100
AcDbVisualStyle
  2
Gouraud
 70
     2
 71
     2
 72
     2
 73
     1
 90
        2
 40
-0.6
 41
30.0
 62
     5
 63
     7
 74
     0
 91
        4
 64
     7
 65
   257
 75
     1
175
     1
 42
1.0
 92
        0
 66
     7
 43
1.0
 76
     1
 77
     6
 78
     2
 67
     7
 79
     5
170
     0
171
     0
290
     0
174
     0
 93
       13
 44
0.0
173
     0
291
     1
 45
0.0
1001
ACAD
1000
AcDbSavedByObjectVersion
1070
     0
  0
VISUALSTYLE
  5
7F27
102
{ACAD_XDICTIONARY
360
8194
102
}
102
{ACAD_REACTORS
330
7F23
102
}
330
7F23
100
AcDbVisualStyle
  2
GouraudWithEdges
 70
     3
 71
     2
 72
     2
 73
     1
 90
        2
 40
-0.6
 41
30.0
 62
     5
 63
     7
 74
     1
 91
        4
 64
     7
 65
   257
 75
     1
175
     1
 42
1.0
 92
        0
 66
   257
 43
1.0
 76
     1
 77
     6
 78
     2
 67
     7
 79
     5
170
     0
171
     0
290
     0
174
     0
 93
       13
 44
0.0
173
     0
291
     1
 45
0.0
1001
ACAD
1000
AcDbSavedByObjectVersion
1070
     0
  0
VISUALSTYLE
  5
7F34
102
{ACAD_XDICTIONARY
360
81AE
102
}
102
{ACAD_REACTORS
330
7F23
102
}
330
7F23
100
AcDbVisualStyle
  2
JitterOff
 70
    20
 71
     2
 72
     2
 73
     0
 90
        0
 40
-0.6
 41
-30.0
 62
     5
 63
     7
 74
     1
 91
        4
 64
     7
 65
   257
 75
     1
175
     1
 42
1.0
 92
       10
 66
     7
 43
1.0
 76
     1
 77
     6
 78
     2
 67
     7
 79
     5
170
     0
171
     0
290
     0
174
     0
 93
        1
 44
0.0
173
     0
291
     1
 45
0.0
1001
ACAD
1000
AcDbSavedByObjectVersion
1070
     0
  0
VISUALSTYLE
  5
7F31
102
{ACAD_XDICTIONARY
360
81A8
102
}
102
{ACAD_REACTORS
330
7F23
102
}
330
7F23
100
AcDbVisualStyle
  2
Linepattern
 70
    14
 71
     2
 72
     2
 73
     0
 90
        0
 40
-0.6
 41
-30.0
 62
     5
 63
     7
 74
     1
 91
        4
 64
     7
 65
   257
 75
     7
175
     7
 42
1.0
 92
        8
 66
     7
 43
1.0
 76
     1
 77
     6
 78
     2
 67
     7
 79
     5
170
     0
171
     0
290
     0
174
     0
 93
        1
 44
0.0
173
     0
291
     1
 45
0.0
1001
ACAD
1000
AcDbSavedByObjectVersion
1070
     0
  0
VISUALSTYLE
  5
7F35
102
{ACAD_XDICTIONARY
360
81B0
102
}
102
{ACAD_REACTORS
330
7F23
102
}
330
7F23
100
AcDbVisualStyle
  2
OverhangOff
 70
    21
 71
     2
 72
     2
 73
     0
 90
        0
 40
-0.6
 41
-30.0
 62
     5
 63
     7
 74
     1
 91
        4
 64
     7
 65
   257
 75
     1
175
     1
 42
1.0
 92
        9
 66
     7
 43
1.0
 76
     1
 77
     6
 78
     2
 67
     7
 79
     5
170
     0
171
     0
290
     0
174
     0
 93
        1
 44
0.0
173
     0
291
     1
 45
0.0
1001
ACAD
1000
AcDbSavedByObjectVersion
1070
     0
  0
VISUALSTYLE
  5
7F2D
102
{ACAD_XDICTIONARY
360
81A0
102
}
102
{ACAD_REACTORS
330
7F23
102
}
330
7F23
100
AcDbVisualStyle
  2
Realistic
 70
     8
 71
     2
 72
     2
 73
     0
 90
        0
 40
-0.6
 41
-30.0
 62
     5
 63
     7
 74
     1
 91
        0
 64
     7
 65
   257
 75
     1
175
     1
 42
1.0
 92
        8
 66
     8
 43
1.0
 76
     1
 77
     6
 78
     2
 67
     7
 79
     5
170
     0
171
     0
290
     0
174
     0
 93
       13
 44
0.0
173
     0
291
     0
 45
0.0
1001
ACAD
1000
AcDbSavedByObjectVersion
1070
     0
  0
VISUALSTYLE
  5
7F30
102
{ACAD_XDICTIONARY
360
81A6
102
}
102
{ACAD_REACTORS
330
7F23
102
}
330
7F23
100
AcDbVisualStyle
  2
Thicken
 70
    13
 71
     2
 72
     2
 73
     0
 90
        0
 40
-0.6
 41
-30.0
 62
     5
 63
     7
 74
     1
 91
        4
 64
     7
 65
   257
 75
     1
175
     1
 42
1.0
 92
       12
 66
     7
 43
1.0
 76
     1
 77
     6
 78
     2
 67
     7
 79
     5
170
     0
171
     0
290
     0
174
     0
 93
        1
 44
0.0
173
     0
291
     1
 45
0.0
1001
ACAD
1000
AcDbSavedByObjectVersion
1070
     0
  0
DICTIONARYVAR
  5
8171
102
{ACAD_REACTORS
330
3D
102
}
330
3D
100
DictionaryVariables
280
     0
  1
1:1
  0
DICTIONARYVAR
  5
8170
102
{ACAD_REACTORS
330
3D
102
}
330
3D
100
DictionaryVariables
280
     0
  1
STANDARD
  0
DICTIONARYVAR
  5
816F
102
{ACAD_REACTORS
330
3D
102
}
330
3D
100
DictionaryVariables
280
     0
  1
STANDARD
  0
DICTIONARYVAR
  5
3F
102
{ACAD_REACTORS
330
3D
102
}
330
3D
100
DictionaryVariables
280
     0
  1
2
  0
DICTIONARYVAR
  5
3E
102
{ACAD_REACTORS
330
3D
102
}
330
3D
100
DictionaryVariables
280
     0
  1
1
  0
DICTIONARYVAR
  5
8173
102
{ACAD_REACTORS
330
3D
102
}
330
3D
100
DictionaryVariables
280
     0
  1
0
  0
DICTIONARYVAR
  5
8172
102
{ACAD_REACTORS
330
3D
102
}
330
3D
100
DictionaryVariables
280
     0
  1
127
  0
DICTIONARYVAR
  5
8174
102
{ACAD_REACTORS
330
3D
102
}
330
3D
100
DictionaryVariables
280
     0
  1
2
  0
XRECORD
  5
7F06
102
{ACAD_REACTORS
330
7F05
102
}
330
7F05
100
AcDbXrecord
280
     1
330
C8E
330
7DC5
  0
DICTIONARY
  5
8179
330
1E
100
AcDbDictionary
280
     1
281
     1
  3
ACAD_XREC_ROUNDTRIP
360
817A
  0
DICTIONARY
  5
817D
330
26
100
AcDbDictionary
280
     1
281
     1
  3
ACAD_XREC_ROUNDTRIP
360
817E
  0
DICTIONARY
  5
817B
330
22
100
AcDbDictionary
280
     1
281
     1
  3
ACAD_XREC_ROUNDTRIP
360
817C
  0
DICTIONARY
  5
7F14
330
7F13
100
AcDbDictionary
280
     1
281
     1
  3
ACAD_XREC_ROUNDTRIP
360
818C
  3
BUMPTILE
360
7F16
  3
DIFFUSETILE
360
7F15
  3
OPACITYTILE
360
7F19
  3
REFLECTIONTILE
360
7F18
  3
REFRACTIONTILE
360
7F1A
  3
SPECULARTILE
360
7F17
  0
DICTIONARY
  5
7F0C
330
7F0B
100
AcDbDictionary
280
     1
281
     1
  3
ACAD_XREC_ROUNDTRIP
360
818B
  3
BUMPTILE
360
7F0E
  3
DIFFUSETILE
360
7F0D
  3
OPACITYTILE
360
7F11
  3
REFLECTIONTILE
360
7F10
  3
REFRACTIONTILE
360
7F12
  3
SPECULARTILE
360
7F0F
  0
DICTIONARY
  5
7F1C
330
7F1B
100
AcDbDictionary
280
     1
281
     1
  3
ACAD_XREC_ROUNDTRIP
360
818D
  3
BUMPTILE
360
7F1E
  3
DIFFUSETILE
360
7F1D
  3
OPACITYTILE
360
7F21
  3
REFLECTIONTILE
360
7F20
  3
REFRACTIONTILE
360
7F22
  3
SPECULARTILE
360
7F1F
  0
DICTIONARY
  5
8175
330
7F39
100
AcDbDictionary
280
     1
281
     1
  3
ACAD_ROUNDTRIP_2008_TABLESTYLE_CELLSTYLEMAP
360
8176
  3
ACAD_XREC_ROUNDTRIP
360
81B4
  0
DICTIONARY
  5
8198
330
7F29
100
AcDbDictionary
280
     1
281
     1
  3
ACAD_XREC_ROUNDTRIP
360
8199
  0
DICTIONARY
  5
819C
330
7F2B
100
AcDbDictionary
280
     1
281
     1
  3
ACAD_XREC_ROUNDTRIP
360
819D
  0
DICTIONARY
  5
819A
330
7F2A
100
AcDbDictionary
280
     1
281
     1
  3
ACAD_XREC_ROUNDTRIP
360
819B
  0
DICTIONARY
  5
8196
330
7F28
100
AcDbDictionary
280
     1
281
     1
  3
ACAD_XREC_ROUNDTRIP
360
8197
  0
DICTIONARY
  5
81A4
330
7F2F
100
AcDbDictionary
280
     1
281
     1
  3
ACAD_XREC_ROUNDTRIP
360
81A5
  0
DICTIONARY
  5
81AC
330
7F33
100
AcDbDictionary
280
     1
281
     1
  3
ACAD_XREC_ROUNDTRIP
360
81AD
  0
DICTIONARY
  5
819E
330
7F2C
100
AcDbDictionary
280
     1
281
     1
  3
ACAD_XREC_ROUNDTRIP
360
819F
  0
DICTIONARY
  5
81A2
330
7F2E
100
AcDbDictionary
280
     1
281
     1
  3
ACAD_XREC_ROUNDTRIP
360
81A3
  0
DICTIONARY
  5
81B2
330
7F36
100
AcDbDictionary
280
     1
281
     1
  3
ACAD_XREC_ROUNDTRIP
360
81B3
  0
DICTIONARY
  5
81AA
330
7F32
100
AcDbDictionary
280
     1
281
     1
  3
ACAD_XREC_ROUNDTRIP
360
81AB
  0
DICTIONARY
  5
818E
330
7F24
100
AcDbDictionary
280
     1
281
     1
  3
ACAD_XREC_ROUNDTRIP
360
818F
  0
DICTIONARY
  5
8190
330
7F25
100
AcDbDictionary
280
     1
281
     1
  3
ACAD_XREC_ROUNDTRIP
360
8191
  0
DICTIONARY
  5
8192
330
7F26
100
AcDbDictionary
280
     1
281
     1
  3
ACAD_XREC_ROUNDTRIP
360
8193
  0
DICTIONARY
  5
8194
330
7F27
100
AcDbDictionary
280
     1
281
     1
  3
ACAD_XREC_ROUNDTRIP
360
8195
  0
DICTIONARY
  5
81AE
330
7F34
100
AcDbDictionary
280
     1
281
     1
  3
ACAD_XREC_ROUNDTRIP
360
81AF
  0
DICTIONARY
  5
81A8
330
7F31
100
AcDbDictionary
280
     1
281
     1
  3
ACAD_XREC_ROUNDTRIP
360
81A9
  0
DICTIONARY
  5
81B0
330
7F35
100
AcDbDictionary
280
     1
281
     1
  3
ACAD_XREC_ROUNDTRIP
360
81B1
  0
DICTIONARY
  5
81A0
330
7F2D
100
AcDbDictionary
280
     1
281
     1
  3
ACAD_XREC_ROUNDTRIP
360
81A1
  0
DICTIONARY
  5
81A6
330
7F30
100
AcDbDictionary
280
     1
281
     1
  3
ACAD_XREC_ROUNDTRIP
360
81A7
  0
XRECORD
  5
817A
102
{ACAD_REACTORS
330
8179
102
}
330
8179
100
AcDbXrecord
280
     1
102
SHADEPLOT
 70
     0
102
SHADEPLOTRESLEVEL
 70
     2
102
SHADEPLOTCUSTOMDPI
 70
   300
  0
XRECORD
  5
817E
102
{ACAD_REACTORS
330
817D
102
}
330
817D
100
AcDbXrecord
280
     1
102
SHADEPLOT
 70
     0
102
SHADEPLOTRESLEVEL
 70
     2
102
SHADEPLOTCUSTOMDPI
 70
   300
  0
XRECORD
  5
817C
102
{ACAD_REACTORS
330
817B
102
}
330
817B
100
AcDbXrecord
280
     1
102
SHADEPLOT
 70
     0
102
SHADEPLOTRESLEVEL
 70
     2
102
SHADEPLOTCUSTOMDPI
 70
   300
  0
XRECORD
  5
818C
102
{ACAD_REACTORS
330
7F14
102
}
330
7F14
100
AcDbXrecord
280
     1
102
MATERIAL
148
0.0
149
0.0
149
0.0
 93
        0
 94
      127
282
     0
 72
     0
 77
     0
171
     0
175
     0
179
     0
273
     0
  0
XRECORD
  5
7F16
102
{ACAD_REACTORS
330
7F14
102
}
330
7F14
100
AcDbXrecord
280
     1
270
     1
271
     1
  0
XRECORD
  5
7F15
102
{ACAD_REACTORS
330
7F14
102
}
330
7F14
100
AcDbXrecord
280
     1
270
     1
271
     1
  0
XRECORD
  5
7F19
102
{ACAD_REACTORS
330
7F14
102
}
330
7F14
100
AcDbXrecord
280
     1
270
     1
271
     1
  0
XRECORD
  5
7F18
102
{ACAD_REACTORS
330
7F14
102
}
330
7F14
100
AcDbXrecord
280
     1
270
     1
271
     1
  0
XRECORD
  5
7F1A
102
{ACAD_REACTORS
330
7F14
102
}
330
7F14
100
AcDbXrecord
280
     1
270
     1
271
     1
  0
XRECORD
  5
7F17
102
{ACAD_REACTORS
330
7F14
102
}
330
7F14
100
AcDbXrecord
280
     1
270
     1
271
     1
  0
XRECORD
  5
818B
102
{ACAD_REACTORS
330
7F0C
102
}
330
7F0C
100
AcDbXrecord
280
     1
102
MATERIAL
148
0.0
149
0.0
149
0.0
 93
        0
 94
      127
282
     0
 72
     0
 77
     0
171
     0
175
     0
179
     0
273
     0
  0
XRECORD
  5
7F0E
102
{ACAD_REACTORS
330
7F0C
102
}
330
7F0C
100
AcDbXrecord
280
     1
270
     1
271
     1
  0
XRECORD
  5
7F0D
102
{ACAD_REACTORS
330
7F0C
102
}
330
7F0C
100
AcDbXrecord
280
     1
270
     1
271
     1
  0
XRECORD
  5
7F11
102
{ACAD_REACTORS
330
7F0C
102
}
330
7F0C
100
AcDbXrecord
280
     1
270
     1
271
     1
  0
XRECORD
  5
7F10
102
{ACAD_REACTORS
330
7F0C
102
}
330
7F0C
100
AcDbXrecord
280
     1
270
     1
271
     1
  0
XRECORD
  5
7F12
102
{ACAD_REACTORS
330
7F0C
102
}
330
7F0C
100
AcDbXrecord
280
     1
270
     1
271
     1
  0
XRECORD
  5
7F0F
102
{ACAD_REACTORS
330
7F0C
102
}
330
7F0C
100
AcDbXrecord
280
     1
270
     1
271
     1
  0
XRECORD
  5
818D
102
{ACAD_REACTORS
330
7F1C
102
}
330
7F1C
100
AcDbXrecord
280
     1
102
MATERIAL
148
0.0
149
0.0
149
0.0
 93
        0
 94
      127
282
     0
 72
     0
 77
     0
171
     0
175
     0
179
     0
273
     0
  0
XRECORD
  5
7F1E
102
{ACAD_REACTORS
330
7F1C
102
}
330
7F1C
100
AcDbXrecord
280
     1
270
     1
271
     1
  0
XRECORD
  5
7F1D
102
{ACAD_REACTORS
330
7F1C
102
}
330
7F1C
100
AcDbXrecord
280
     1
270
     1
271
     1
  0
XRECORD
  5
7F21
102
{ACAD_REACTORS
330
7F1C
102
}
330
7F1C
100
AcDbXrecord
280
     1
270
     1
271
     1
  0
XRECORD
  5
7F20
102
{ACAD_REACTORS
330
7F1C
102
}
330
7F1C
100
AcDbXrecord
280
     1
270
     1
271
     1
  0
XRECORD
  5
7F22
102
{ACAD_REACTORS
330
7F1C
102
}
330
7F1C
100
AcDbXrecord
280
     1
270
     1
271
     1
  0
XRECORD
  5
7F1F
102
{ACAD_REACTORS
330
7F1C
102
}
330
7F1C
100
AcDbXrecord
280
     1
270
     1
271
     1
  0
CELLSTYLEMAP
  5
8176
102
{ACAD_REACTORS
330
8175
102
}
330
8175
100
AcDbCellStyleMap
 90
        3
300
CELLSTYLE
  1
TABLEFORMAT_BEGIN
 90
        5
170
     1
 91
        0
 92
    32768
 62
   257
 93
        1
300
CONTENTFORMAT
  1
CONTENTFORMAT_BEGIN
 90
        0
 91
        0
 92
      512
 93
        0
300

 40
0.0
140
1.0
 94
        5
 62
     0
340
11
144
6.0
309
CONTENTFORMAT_END
171
     1
301
MARGIN
  1
CELLMARGIN_BEGIN
 40
1.5
 40
1.5
 40
1.5
 40
1.5
 40
4.5
 40
4.5
309
CELLMARGIN_END
 94
        6
 95
        1
302
GRIDFORMAT
  1
GRIDFORMAT_BEGIN
 90
        0
 91
        1
 62
     0
 92
       -2
340
0
 93
        0
 40
1.125
309
GRIDFORMAT_END
 95
        2
302
GRIDFORMAT
  1
GRIDFORMAT_BEGIN
 90
        0
 91
        1
 62
     0
 92
       -2
340
0
 93
        0
 40
1.125
309
GRIDFORMAT_END
 95
        4
302
GRIDFORMAT
  1
GRIDFORMAT_BEGIN
 90
        0
 91
        1
 62
     0
 92
       -2
340
0
 93
        0
 40
1.125
309
GRIDFORMAT_END
 95
        8
302
GRIDFORMAT
  1
GRIDFORMAT_BEGIN
 90
        0
 91
        1
 62
     0
 92
       -2
340
0
 93
        0
 40
1.125
309
GRIDFORMAT_END
 95
       16
302
GRIDFORMAT
  1
GRIDFORMAT_BEGIN
 90
        0
 91
        1
 62
     0
 92
       -2
340
0
 93
        0
 40
1.125
309
GRIDFORMAT_END
 95
       32
302
GRIDFORMAT
  1
GRIDFORMAT_BEGIN
 90
        0
 91
        1
 62
     0
 92
       -2
340
0
 93
        0
 40
1.125
309
GRIDFORMAT_END
309
TABLEFORMAT_END
  1
CELLSTYLE_BEGIN
 90
        1
 91
        1
300
_TITLE
309
CELLSTYLE_END
300
CELLSTYLE
  1
TABLEFORMAT_BEGIN
 90
        5
170
     1
 91
        0
 92
        0
 62
   257
 93
        1
300
CONTENTFORMAT
  1
CONTENTFORMAT_BEGIN
 90
        0
 91
        0
 92
      512
 93
        0
300

 40
0.0
140
1.0
 94
        5
 62
     0
340
11
144
4.5
309
CONTENTFORMAT_END
171
     1
301
MARGIN
  1
CELLMARGIN_BEGIN
 40
1.5
 40
1.5
 40
1.5
 40
1.5
 40
4.5
 40
4.5
309
CELLMARGIN_END
 94
        6
 95
        1
302
GRIDFORMAT
  1
GRIDFORMAT_BEGIN
 90
        0
 91
        1
 62
     0
 92
       -2
340
0
 93
        0
 40
1.125
309
GRIDFORMAT_END
 95
        2
302
GRIDFORMAT
  1
GRIDFORMAT_BEGIN
 90
        0
 91
        1
 62
     0
 92
       -2
340
0
 93
        0
 40
1.125
309
GRIDFORMAT_END
 95
        4
302
GRIDFORMAT
  1
GRIDFORMAT_BEGIN
 90
        0
 91
        1
 62
     0
 92
       -2
340
0
 93
        0
 40
1.125
309
GRIDFORMAT_END
 95
        8
302
GRIDFORMAT
  1
GRIDFORMAT_BEGIN
 90
        0
 91
        1
 62
     0
 92
       -2
340
0
 93
        0
 40
1.125
309
GRIDFORMAT_END
 95
       16
302
GRIDFORMAT
  1
GRIDFORMAT_BEGIN
 90
        0
 91
        1
 62
     0
 92
       -2
340
0
 93
        0
 40
1.125
309
GRIDFORMAT_END
 95
       32
302
GRIDFORMAT
  1
GRIDFORMAT_BEGIN
 90
        0
 91
        1
 62
     0
 92
       -2
340
0
 93
        0
 40
1.125
309
GRIDFORMAT_END
309
TABLEFORMAT_END
  1
CELLSTYLE_BEGIN
 90
        2
 91
        1
300
_HEADER
309
CELLSTYLE_END
300
CELLSTYLE
  1
TABLEFORMAT_BEGIN
 90
        5
170
     1
 91
        0
 92
        0
 62
   257
 93
        1
300
CONTENTFORMAT
  1
CONTENTFORMAT_BEGIN
 90
        0
 91
        0
 92
      512
 93
        0
300

 40
0.0
140
1.0
 94
        2
 62
     0
340
11
144
4.5
309
CONTENTFORMAT_END
171
     1
301
MARGIN
  1
CELLMARGIN_BEGIN
 40
1.5
 40
1.5
 40
1.5
 40
1.5
 40
4.5
 40
4.5
309
CELLMARGIN_END
 94
        6
 95
        1
302
GRIDFORMAT
  1
GRIDFORMAT_BEGIN
 90
        0
 91
        1
 62
     0
 92
       -2
340
0
 93
        0
 40
1.125
309
GRIDFORMAT_END
 95
        2
302
GRIDFORMAT
  1
GRIDFORMAT_BEGIN
 90
        0
 91
        1
 62
     0
 92
       -2
340
0
 93
        0
 40
1.125
309
GRIDFORMAT_END
 95
        4
302
GRIDFORMAT
  1
GRIDFORMAT_BEGIN
 90
        0
 91
        1
 62
     0
 92
       -2
340
0
 93
        0
 40
1.125
309
GRIDFORMAT_END
 95
        8
302
GRIDFORMAT
  1
GRIDFORMAT_BEGIN
 90
        0
 91
        1
 62
     0
 92
       -2
340
0
 93
        0
 40
1.125
309
GRIDFORMAT_END
 95
       16
302
GRIDFORMAT
  1
GRIDFORMAT_BEGIN
 90
        0
 91
        1
 62
     0
 92
       -2
340
0
 93
        0
 40
1.125
309
GRIDFORMAT_END
 95
       32
302
GRIDFORMAT
  1
GRIDFORMAT_BEGIN
 90
        0
 91
        1
 62
     0
 92
       -2
340
0
 93
        0
 40
1.125
309
GRIDFORMAT_END
309
TABLEFORMAT_END
  1
CELLSTYLE_BEGIN
 90
        3
 91
        2
300
_DATA
309
CELLSTYLE_END
  0
XRECORD
  5
81B4
102
{ACAD_REACTORS
330
8175
102
}
330
8175
100
AcDbXrecord
280
     1
102
ACAD_ROUNDTRIP_PRE2007_TABLESTYLE
 90
      512
 91
        0
  1

 92
      512
 93
        0
  2

 94
      512
 95
        0
  3

  0
XRECORD
  5
8199
102
{ACAD_REACTORS
330
8198
102
}
330
8198
100
AcDbXrecord
280
     1
102
RTVSPropertyOp0
 70
     1
102
RTVSPropertyOp1
 70
     1
102
RTVSPropertyOp2
 70
     1
102
RTVSPropertyOp3
 70
     1
102
RTVSPropertyOp4
 70
     1
102
RTVSPropertyOp5
 70
     1
102
RTVSPropertyOp6
 70
     1
102
RTVSPropertyOp7
 70
     1
102
RTVSPropertyOp8
 70
     1
102
RTVSPropertyOp9
 70
     1
102
RTVSPropertyOp10
 70
     1
102
RTVSPropertyOp11
 70
     1
102
RTVSPropertyOp12
 70
     1
102
RTVSPropertyOp13
 70
     1
102
RTVSPropertyOp14
 70
     1
102
RTVSPropertyOp15
 70
     1
102
RTVSPropertyOp16
 70
     1
102
RTVSPropertyOp17
 70
     1
102
RTVSPropertyOp18
 70
     1
102
RTVSPropertyOp19
 70
     1
102
RTVSPropertyOp20
 70
     1
102
RTVSPropertyOp21
 70
     1
102
RTVSPropertyOp22
 70
     1
102
RTVSPropertyOp23
 70
     1
102
RTVSPropertyOp24
 70
     1
102
RTVSPropertyOp25
 70
     1
102
RTVSPropertyOp26
 70
     1
102
RTVSPropertyOp27
 70
     1
  0
XRECORD
  5
819D
102
{ACAD_REACTORS
330
819C
102
}
330
819C
100
AcDbXrecord
280
     1
102
RTVSPropertyOp0
 70
     1
102
RTVSPropertyOp1
 70
     1
102
RTVSPropertyOp2
 70
     1
102
RTVSPropertyOp3
 70
     1
102
RTVSPropertyOp4
 70
     1
102
RTVSPropertyOp5
 70
     1
102
RTVSPropertyOp6
 70
     1
102
RTVSPropertyOp7
 70
     1
102
RTVSPropertyOp8
 70
     1
102
RTVSPropertyOp9
 70
     1
102
RTVSPropertyOp10
 70
     1
102
RTVSPropertyOp11
 70
     1
102
RTVSPropertyOp12
 70
     1
102
RTVSPropertyOp13
 70
     1
102
RTVSPropertyOp14
 70
     1
102
RTVSPropertyOp15
 70
     1
102
RTVSPropertyOp16
 70
     1
102
RTVSPropertyOp17
 70
     1
102
RTVSPropertyOp18
 70
     1
102
RTVSPropertyOp19
 70
     1
102
RTVSPropertyOp20
 70
     1
102
RTVSPropertyOp21
 70
     1
102
RTVSPropertyOp22
 70
     1
102
RTVSPropertyOp23
 70
     1
102
RTVSPropertyOp24
 70
     1
102
RTVSPropertyOp25
 70
     1
102
RTVSPropertyOp26
 70
     1
102
RTVSPropertyOp27
 70
     1
  0
XRECORD
  5
819B
102
{ACAD_REACTORS
330
819A
102
}
330
819A
100
AcDbXrecord
280
     1
102
RTVSPropertyOp0
 70
     1
102
RTVSPropertyOp1
 70
     1
102
RTVSPropertyOp2
 70
     1
102
RTVSPropertyOp3
 70
     1
102
RTVSPropertyOp4
 70
     1
102
RTVSPropertyOp5
 70
     1
102
RTVSPropertyOp6
 70
     1
102
RTVSPropertyOp7
 70
     1
102
RTVSPropertyOp8
 70
     1
102
RTVSPropertyOp9
 70
     1
102
RTVSPropertyOp10
 70
     1
102
RTVSPropertyOp11
 70
     1
102
RTVSPropertyOp12
 70
     1
102
RTVSPropertyOp13
 70
     1
102
RTVSPropertyOp14
 70
     1
102
RTVSPropertyOp15
 70
     1
102
RTVSPropertyOp16
 70
     1
102
RTVSPropertyOp17
 70
     1
102
RTVSPropertyOp18
 70
     1
102
RTVSPropertyOp19
 70
     1
102
RTVSPropertyOp20
 70
     1
102
RTVSPropertyOp21
 70
     1
102
RTVSPropertyOp22
 70
     1
102
RTVSPropertyOp23
 70
     1
102
RTVSPropertyOp24
 70
     1
102
RTVSPropertyOp25
 70
     1
102
RTVSPropertyOp26
 70
     1
102
RTVSPropertyOp27
 70
     1
  0
XRECORD
  5
8197
102
{ACAD_REACTORS
330
8196
102
}
330
8196
100
AcDbXrecord
280
     1
102
RTVSPropertyOp0
 70
     1
102
RTVSPropertyOp1
 70
     1
102
RTVSPropertyOp2
 70
     1
102
RTVSPropertyOp3
 70
     1
102
RTVSPropertyOp4
 70
     1
102
RTVSPropertyOp5
 70
     1
102
RTVSPropertyOp6
 70
     1
102
RTVSPropertyOp7
 70
     1
102
RTVSPropertyOp8
 70
     1
102
RTVSPropertyOp9
 70
     1
102
RTVSPropertyOp10
 70
     1
102
RTVSPropertyOp11
 70
     1
102
RTVSPropertyOp12
 70
     1
102
RTVSPropertyOp13
 70
     1
102
RTVSPropertyOp14
 70
     1
102
RTVSPropertyOp15
 70
     1
102
RTVSPropertyOp16
 70
     1
102
RTVSPropertyOp17
 70
     1
102
RTVSPropertyOp18
 70
     1
102
RTVSPropertyOp19
 70
     1
102
RTVSPropertyOp20
 70
     1
102
RTVSPropertyOp21
 70
     1
102
RTVSPropertyOp22
 70
     1
102
RTVSPropertyOp23
 70
     1
102
RTVSPropertyOp24
 70
     1
102
RTVSPropertyOp25
 70
     1
102
RTVSPropertyOp26
 70
     1
102
RTVSPropertyOp27
 70
     1
  0
XRECORD
  5
81A5
102
{ACAD_REACTORS
330
81A4
102
}
330
81A4
100
AcDbXrecord
280
     1
102
RTVSPropertyOp0
 70
     1
102
RTVSPropertyOp1
 70
     1
102
RTVSPropertyOp2
 70
     1
102
RTVSPropertyOp3
 70
     1
102
RTVSPropertyOp4
 70
     1
102
RTVSPropertyOp5
 70
     1
102
RTVSPropertyOp6
 70
     1
102
RTVSPropertyOp7
 70
     1
102
RTVSPropertyOp8
 70
     1
102
RTVSPropertyOp9
 70
     1
102
RTVSPropertyOp10
 70
     1
102
RTVSPropertyOp11
 70
     1
102
RTVSPropertyOp12
 70
     1
102
RTVSPropertyOp13
 70
     1
102
RTVSPropertyOp14
 70
     1
102
RTVSPropertyOp15
 70
     1
102
RTVSPropertyOp16
 70
     1
102
RTVSPropertyOp17
 70
     1
102
RTVSPropertyOp18
 70
     1
102
RTVSPropertyOp19
 70
     1
102
RTVSPropertyOp20
 70
     1
102
RTVSPropertyOp21
 70
     1
102
RTVSPropertyOp22
 70
     1
102
RTVSPropertyOp23
 70
     1
102
RTVSPropertyOp24
 70
     1
102
RTVSPropertyOp25
 70
     1
102
RTVSPropertyOp26
 70
     1
102
RTVSPropertyOp27
 70
     1
  0
XRECORD
  5
81AD
102
{ACAD_REACTORS
330
81AC
102
}
330
81AC
100
AcDbXrecord
280
     1
102
RTVSPropertyOp0
 70
     1
102
RTVSPropertyOp1
 70
     1
102
RTVSPropertyOp2
 70
     1
102
RTVSPropertyOp3
 70
     1
102
RTVSPropertyOp4
 70
     1
102
RTVSPropertyOp5
 70
     1
102
RTVSPropertyOp6
 70
     1
102
RTVSPropertyOp7
 70
     1
102
RTVSPropertyOp8
 70
     1
102
RTVSPropertyOp9
 70
     1
102
RTVSPropertyOp10
 70
     1
102
RTVSPropertyOp11
 70
     1
102
RTVSPropertyOp12
 70
     1
102
RTVSPropertyOp13
 70
     1
102
RTVSPropertyOp14
 70
     1
102
RTVSPropertyOp15
 70
     1
102
RTVSPropertyOp16
 70
     1
102
RTVSPropertyOp17
 70
     1
102
RTVSPropertyOp18
 70
     1
102
RTVSPropertyOp19
 70
     1
102
RTVSPropertyOp20
 70
     1
102
RTVSPropertyOp21
 70
     1
102
RTVSPropertyOp22
 70
     1
102
RTVSPropertyOp23
 70
     1
102
RTVSPropertyOp24
 70
     1
102
RTVSPropertyOp25
 70
     1
102
RTVSPropertyOp26
 70
     1
102
RTVSPropertyOp27
 70
     1
  0
XRECORD
  5
819F
102
{ACAD_REACTORS
330
819E
102
}
330
819E
100
AcDbXrecord
280
     1
102
RTVSPropertyOp0
 70
     1
102
RTVSPropertyOp1
 70
     1
102
RTVSPropertyOp2
 70
     1
102
RTVSPropertyOp3
 70
     1
102
RTVSPropertyOp4
 70
     1
102
RTVSPropertyOp5
 70
     1
102
RTVSPropertyOp6
 70
     1
102
RTVSPropertyOp7
 70
     1
102
RTVSPropertyOp8
 70
     1
102
RTVSPropertyOp9
 70
     1
102
RTVSPropertyOp10
 70
     1
102
RTVSPropertyOp11
 70
     1
102
RTVSPropertyOp12
 70
     1
102
RTVSPropertyOp13
 70
     1
102
RTVSPropertyOp14
 70
     1
102
RTVSPropertyOp15
 70
     1
102
RTVSPropertyOp16
 70
     1
102
RTVSPropertyOp17
 70
     1
102
RTVSPropertyOp18
 70
     1
102
RTVSPropertyOp19
 70
     1
102
RTVSPropertyOp20
 70
     1
102
RTVSPropertyOp21
 70
     1
102
RTVSPropertyOp22
 70
     1
102
RTVSPropertyOp23
 70
     1
102
RTVSPropertyOp24
 70
     1
102
RTVSPropertyOp25
 70
     1
102
RTVSPropertyOp26
 70
     1
102
RTVSPropertyOp27
 70
     1
  0
XRECORD
  5
81A3
102
{ACAD_REACTORS
330
81A2
102
}
330
81A2
100
AcDbXrecord
280
     1
102
RTVSPropertyOp0
 70
     1
102
RTVSPropertyOp1
 70
     1
102
RTVSPropertyOp2
 70
     1
102
RTVSPropertyOp3
 70
     1
102
RTVSPropertyOp4
 70
     1
102
RTVSPropertyOp5
 70
     1
102
RTVSPropertyOp6
 70
     1
102
RTVSPropertyOp7
 70
     1
102
RTVSPropertyOp8
 70
     1
102
RTVSPropertyOp9
 70
     1
102
RTVSPropertyOp10
 70
     1
102
RTVSPropertyOp11
 70
     1
102
RTVSPropertyOp12
 70
     1
102
RTVSPropertyOp13
 70
     1
102
RTVSPropertyOp14
 70
     1
102
RTVSPropertyOp15
 70
     1
102
RTVSPropertyOp16
 70
     1
102
RTVSPropertyOp17
 70
     1
102
RTVSPropertyOp18
 70
     1
102
RTVSPropertyOp19
 70
     1
102
RTVSPropertyOp20
 70
     1
102
RTVSPropertyOp21
 70
     1
102
RTVSPropertyOp22
 70
     1
102
RTVSPropertyOp23
 70
     1
102
RTVSPropertyOp24
 70
     1
102
RTVSPropertyOp25
 70
     1
102
RTVSPropertyOp26
 70
     1
102
RTVSPropertyOp27
 70
     1
  0
XRECORD
  5
81B3
102
{ACAD_REACTORS
330
81B2
102
}
330
81B2
100
AcDbXrecord
280
     1
102
RTVSPropertyOp0
 70
     0
102
RTVSPropertyOp1
 70
     0
102
RTVSPropertyOp2
 70
     0
102
RTVSPropertyOp3
 70
     0
102
RTVSPropertyOp4
 70
     0
102
RTVSPropertyOp5
 70
     0
102
RTVSPropertyOp6
 70
     0
102
RTVSPropertyOp7
 70
     0
102
RTVSPropertyOp8
 70
     0
102
RTVSPropertyOp9
 70
     0
102
RTVSPropertyOp10
 70
     0
102
RTVSPropertyOp11
 70
     0
102
RTVSPropertyOp12
 70
     0
102
RTVSPropertyOp13
 70
     0
102
RTVSPropertyOp14
 70
     2
102
RTVSPropertyOp15
 70
     0
102
RTVSPropertyOp16
 70
     0
102
RTVSPropertyOp17
 70
     0
102
RTVSPropertyOp18
 70
     0
102
RTVSPropertyOp19
 70
     0
102
RTVSPropertyOp20
 70
     0
102
RTVSPropertyOp21
 70
     0
102
RTVSPropertyOp22
 70
     0
102
RTVSPropertyOp23
 70
     0
102
RTVSPropertyOp24
 70
     0
102
RTVSPropertyOp25
 70
     0
102
RTVSPropertyOp26
 70
     0
102
RTVSPropertyOp27
 70
     0
  0
XRECORD
  5
81AB
102
{ACAD_REACTORS
330
81AA
102
}
330
81AA
100
AcDbXrecord
280
     1
102
RTVSPropertyOp0
 70
     1
102
RTVSPropertyOp1
 70
     1
102
RTVSPropertyOp2
 70
     1
102
RTVSPropertyOp3
 70
     1
102
RTVSPropertyOp4
 70
     1
102
RTVSPropertyOp5
 70
     1
102
RTVSPropertyOp6
 70
     1
102
RTVSPropertyOp7
 70
     1
102
RTVSPropertyOp8
 70
     1
102
RTVSPropertyOp9
 70
     1
102
RTVSPropertyOp10
 70
     1
102
RTVSPropertyOp11
 70
     1
102
RTVSPropertyOp12
 70
     1
102
RTVSPropertyOp13
 70
     1
102
RTVSPropertyOp14
 70
     1
102
RTVSPropertyOp15
 70
     1
102
RTVSPropertyOp16
 70
     1
102
RTVSPropertyOp17
 70
     1
102
RTVSPropertyOp18
 70
     1
102
RTVSPropertyOp19
 70
     1
102
RTVSPropertyOp20
 70
     1
102
RTVSPropertyOp21
 70
     1
102
RTVSPropertyOp22
 70
     1
102
RTVSPropertyOp23
 70
     1
102
RTVSPropertyOp24
 70
     1
102
RTVSPropertyOp25
 70
     1
102
RTVSPropertyOp26
 70
     1
102
RTVSPropertyOp27
 70
     1
  0
XRECORD
  5
818F
102
{ACAD_REACTORS
330
818E
102
}
330
818E
100
AcDbXrecord
280
     1
102
RTVSPropertyOp0
 70
     1
102
RTVSPropertyOp1
 70
     1
102
RTVSPropertyOp2
 70
     1
102
RTVSPropertyOp3
 70
     1
102
RTVSPropertyOp4
 70
     1
102
RTVSPropertyOp5
 70
     1
102
RTVSPropertyOp6
 70
     1
102
RTVSPropertyOp7
 70
     1
102
RTVSPropertyOp8
 70
     1
102
RTVSPropertyOp9
 70
     1
102
RTVSPropertyOp10
 70
     1
102
RTVSPropertyOp11
 70
     1
102
RTVSPropertyOp12
 70
     1
102
RTVSPropertyOp13
 70
     1
102
RTVSPropertyOp14
 70
     1
102
RTVSPropertyOp15
 70
     1
102
RTVSPropertyOp16
 70
     1
102
RTVSPropertyOp17
 70
     1
102
RTVSPropertyOp18
 70
     1
102
RTVSPropertyOp19
 70
     1
102
RTVSPropertyOp20
 70
     1
102
RTVSPropertyOp21
 70
     1
102
RTVSPropertyOp22
 70
     1
102
RTVSPropertyOp23
 70
     1
102
RTVSPropertyOp24
 70
     1
102
RTVSPropertyOp25
 70
     1
102
RTVSPropertyOp26
 70
     1
102
RTVSPropertyOp27
 70
     1
  0
XRECORD
  5
8191
102
{ACAD_REACTORS
330
8190
102
}
330
8190
100
AcDbXrecord
280
     1
102
RTVSPropertyOp0
 70
     1
102
RTVSPropertyOp1
 70
     1
102
RTVSPropertyOp2
 70
     1
102
RTVSPropertyOp3
 70
     1
102
RTVSPropertyOp4
 70
     1
102
RTVSPropertyOp5
 70
     1
102
RTVSPropertyOp6
 70
     1
102
RTVSPropertyOp7
 70
     1
102
RTVSPropertyOp8
 70
     1
102
RTVSPropertyOp9
 70
     1
102
RTVSPropertyOp10
 70
     1
102
RTVSPropertyOp11
 70
     1
102
RTVSPropertyOp12
 70
     1
102
RTVSPropertyOp13
 70
     1
102
RTVSPropertyOp14
 70
     1
102
RTVSPropertyOp15
 70
     1
102
RTVSPropertyOp16
 70
     1
102
RTVSPropertyOp17
 70
     1
102
RTVSPropertyOp18
 70
     1
102
RTVSPropertyOp19
 70
     1
102
RTVSPropertyOp20
 70
     1
102
RTVSPropertyOp21
 70
     1
102
RTVSPropertyOp22
 70
     1
102
RTVSPropertyOp23
 70
     1
102
RTVSPropertyOp24
 70
     1
102
RTVSPropertyOp25
 70
     1
102
RTVSPropertyOp26
 70
     1
102
RTVSPropertyOp27
 70
     1
  0
XRECORD
  5
8193
102
{ACAD_REACTORS
330
8192
102
}
330
8192
100
AcDbXrecord
280
     1
102
RTVSPropertyOp0
 70
     1
102
RTVSPropertyOp1
 70
     1
102
RTVSPropertyOp2
 70
     1
102
RTVSPropertyOp3
 70
     1
102
RTVSPropertyOp4
 70
     1
102
RTVSPropertyOp5
 70
     1
102
RTVSPropertyOp6
 70
     1
102
RTVSPropertyOp7
 70
     1
102
RTVSPropertyOp8
 70
     1
102
RTVSPropertyOp9
 70
     1
102
RTVSPropertyOp10
 70
     1
102
RTVSPropertyOp11
 70
     1
102
RTVSPropertyOp12
 70
     1
102
RTVSPropertyOp13
 70
     1
102
RTVSPropertyOp14
 70
     1
102
RTVSPropertyOp15
 70
     1
102
RTVSPropertyOp16
 70
     1
102
RTVSPropertyOp17
 70
     1
102
RTVSPropertyOp18
 70
     1
102
RTVSPropertyOp19
 70
     1
102
RTVSPropertyOp20
 70
     1
102
RTVSPropertyOp21
 70
     1
102
RTVSPropertyOp22
 70
     1
102
RTVSPropertyOp23
 70
     1
102
RTVSPropertyOp24
 70
     1
102
RTVSPropertyOp25
 70
     1
102
RTVSPropertyOp26
 70
     1
102
RTVSPropertyOp27
 70
     1
  0
XRECORD
  5
8195
102
{ACAD_REACTORS
330
8194
102
}
330
8194
100
AcDbXrecord
280
     1
102
RTVSPropertyOp0
 70
     1
102
RTVSPropertyOp1
 70
     1
102
RTVSPropertyOp2
 70
     1
102
RTVSPropertyOp3
 70
     1
102
RTVSPropertyOp4
 70
     1
102
RTVSPropertyOp5
 70
     1
102
RTVSPropertyOp6
 70
     1
102
RTVSPropertyOp7
 70
     1
102
RTVSPropertyOp8
 70
     1
102
RTVSPropertyOp9
 70
     1
102
RTVSPropertyOp10
 70
     1
102
RTVSPropertyOp11
 70
     1
102
RTVSPropertyOp12
 70
     1
102
RTVSPropertyOp13
 70
     1
102
RTVSPropertyOp14
 70
     1
102
RTVSPropertyOp15
 70
     1
102
RTVSPropertyOp16
 70
     1
102
RTVSPropertyOp17
 70
     1
102
RTVSPropertyOp18
 70
     1
102
RTVSPropertyOp19
 70
     1
102
RTVSPropertyOp20
 70
     1
102
RTVSPropertyOp21
 70
     1
102
RTVSPropertyOp22
 70
     1
102
RTVSPropertyOp23
 70
     1
102
RTVSPropertyOp24
 70
     1
102
RTVSPropertyOp25
 70
     1
102
RTVSPropertyOp26
 70
     1
102
RTVSPropertyOp27
 70
     1
  0
XRECORD
  5
81AF
102
{ACAD_REACTORS
330
81AE
102
}
330
81AE
100
AcDbXrecord
280
     1
102
RTVSPropertyOp0
 70
     0
102
RTVSPropertyOp1
 70
     0
102
RTVSPropertyOp2
 70
     0
102
RTVSPropertyOp3
 70
     0
102
RTVSPropertyOp4
 70
     0
102
RTVSPropertyOp5
 70
     0
102
RTVSPropertyOp6
 70
     0
102
RTVSPropertyOp7
 70
     0
102
RTVSPropertyOp8
 70
     0
102
RTVSPropertyOp9
 70
     0
102
RTVSPropertyOp10
 70
     0
102
RTVSPropertyOp11
 70
     0
102
RTVSPropertyOp12
 70
     0
102
RTVSPropertyOp13
 70
     0
102
RTVSPropertyOp14
 70
     2
102
RTVSPropertyOp15
 70
     0
102
RTVSPropertyOp16
 70
     0
102
RTVSPropertyOp17
 70
     0
102
RTVSPropertyOp18
 70
     0
102
RTVSPropertyOp19
 70
     0
102
RTVSPropertyOp20
 70
     0
102
RTVSPropertyOp21
 70
     0
102
RTVSPropertyOp22
 70
     0
102
RTVSPropertyOp23
 70
     0
102
RTVSPropertyOp24
 70
     0
102
RTVSPropertyOp25
 70
     0
102
RTVSPropertyOp26
 70
     0
102
RTVSPropertyOp27
 70
     0
  0
XRECORD
  5
81A9
102
{ACAD_REACTORS
330
81A8
102
}
330
81A8
100
AcDbXrecord
280
     1
102
RTVSPropertyOp0
 70
     1
102
RTVSPropertyOp1
 70
     1
102
RTVSPropertyOp2
 70
     1
102
RTVSPropertyOp3
 70
     1
102
RTVSPropertyOp4
 70
     1
102
RTVSPropertyOp5
 70
     1
102
RTVSPropertyOp6
 70
     1
102
RTVSPropertyOp7
 70
     1
102
RTVSPropertyOp8
 70
     1
102
RTVSPropertyOp9
 70
     1
102
RTVSPropertyOp10
 70
     1
102
RTVSPropertyOp11
 70
     1
102
RTVSPropertyOp12
 70
     1
102
RTVSPropertyOp13
 70
     1
102
RTVSPropertyOp14
 70
     1
102
RTVSPropertyOp15
 70
     1
102
RTVSPropertyOp16
 70
     1
102
RTVSPropertyOp17
 70
     1
102
RTVSPropertyOp18
 70
     1
102
RTVSPropertyOp19
 70
     1
102
RTVSPropertyOp20
 70
     1
102
RTVSPropertyOp21
 70
     1
102
RTVSPropertyOp22
 70
     1
102
RTVSPropertyOp23
 70
     1
102
RTVSPropertyOp24
 70
     1
102
RTVSPropertyOp25
 70
     1
102
RTVSPropertyOp26
 70
     1
102
RTVSPropertyOp27
 70
     1
  0
XRECORD
  5
81B1
102
{ACAD_REACTORS
330
81B0
102
}
330
81B0
100
AcDbXrecord
280
     1
102
RTVSPropertyOp0
 70
     0
102
RTVSPropertyOp1
 70
     0
102
RTVSPropertyOp2
 70
     0
102
RTVSPropertyOp3
 70
     0
102
RTVSPropertyOp4
 70
     0
102
RTVSPropertyOp5
 70
     0
102
RTVSPropertyOp6
 70
     0
102
RTVSPropertyOp7
 70
     0
102
RTVSPropertyOp8
 70
     0
102
RTVSPropertyOp9
 70
     0
102
RTVSPropertyOp10
 70
     0
102
RTVSPropertyOp11
 70
     0
102
RTVSPropertyOp12
 70
     0
102
RTVSPropertyOp13
 70
     0
102
RTVSPropertyOp14
 70
     2
102
RTVSPropertyOp15
 70
     0
102
RTVSPropertyOp16
 70
     0
102
RTVSPropertyOp17
 70
     0
102
RTVSPropertyOp18
 70
     0
102
RTVSPropertyOp19
 70
     0
102
RTVSPropertyOp20
 70
     0
102
RTVSPropertyOp21
 70
     0
102
RTVSPropertyOp22
 70
     0
102
RTVSPropertyOp23
 70
     0
102
RTVSPropertyOp24
 70
     0
102
RTVSPropertyOp25
 70
     0
102
RTVSPropertyOp26
 70
     0
102
RTVSPropertyOp27
 70
     0
  0
XRECORD
  5
81A1
102
{ACAD_REACTORS
330
81A0
102
}
330
81A0
100
AcDbXrecord
280
     1
102
RTVSPropertyOp0
 70
     1
102
RTVSPropertyOp1
 70
     1
102
RTVSPropertyOp2
 70
     1
102
RTVSPropertyOp3
 70
     1
102
RTVSPropertyOp4
 70
     1
102
RTVSPropertyOp5
 70
     1
102
RTVSPropertyOp6
 70
     1
102
RTVSPropertyOp7
 70
     1
102
RTVSPropertyOp8
 70
     1
102
RTVSPropertyOp9
 70
     1
102
RTVSPropertyOp10
 70
     1
102
RTVSPropertyOp11
 70
     1
102
RTVSPropertyOp12
 70
     1
102
RTVSPropertyOp13
 70
     1
102
RTVSPropertyOp14
 70
     1
102
RTVSPropertyOp15
 70
     1
102
RTVSPropertyOp16
 70
     1
102
RTVSPropertyOp17
 70
     1
102
RTVSPropertyOp18
 70
     1
102
RTVSPropertyOp19
 70
     1
102
RTVSPropertyOp20
 70
     1
102
RTVSPropertyOp21
 70
     1
102
RTVSPropertyOp22
 70
     1
102
RTVSPropertyOp23
 70
     1
102
RTVSPropertyOp24
 70
     1
102
RTVSPropertyOp25
 70
     1
102
RTVSPropertyOp26
 70
     1
102
RTVSPropertyOp27
 70
     1
  0
XRECORD
  5
81A7
102
{ACAD_REACTORS
330
81A6
102
}
330
81A6
100
AcDbXrecord
280
     1
102
RTVSPropertyOp0
 70
     1
102
RTVSPropertyOp1
 70
     1
102
RTVSPropertyOp2
 70
     1
102
RTVSPropertyOp3
 70
     1
102
RTVSPropertyOp4
 70
     1
102
RTVSPropertyOp5
 70
     1
102
RTVSPropertyOp6
 70
     1
102
RTVSPropertyOp7
 70
     1
102
RTVSPropertyOp8
 70
     1
102
RTVSPropertyOp9
 70
     1
102
RTVSPropertyOp10
 70
     1
102
RTVSPropertyOp11
 70
     1
102
RTVSPropertyOp12
 70
     1
102
RTVSPropertyOp13
 70
     1
102
RTVSPropertyOp14
 70
     1
102
RTVSPropertyOp15
 70
     1
102
RTVSPropertyOp16
 70
     1
102
RTVSPropertyOp17
 70
     1
102
RTVSPropertyOp18
 70
     1
102
RTVSPropertyOp19
 70
     1
102
RTVSPropertyOp20
 70
     1
102
RTVSPropertyOp21
 70
     1
102
RTVSPropertyOp22
 70
     1
102
RTVSPropertyOp23
 70
     1
102
RTVSPropertyOp24
 70
     1
102
RTVSPropertyOp25
 70
     1
102
RTVSPropertyOp26
 70
     1
102
RTVSPropertyOp27
 70
     1
  0
ENDSEC
  0
EOF
