  0
SECTION
  2
HEADER
  9
$ACADVER
  1
AC1015
  9
$ACADMAINTVER
 70
    20
  9
$DWGCODEPAGE
  3
ANSI_1252
  9
$INSBASE
 10
0.0
 20
0.0
 30
0.0
  9
$EXTMIN
 10
100.05431609393
 20
567.8738641993203
 30
0.0
  9
$EXTMAX
 10
103.3935017395667
 20
568.7703006476372
 30
0.0
  9
$LIMMIN
 10
0.0
 20
0.0
  9
$LIMMAX
 10
0.0
 20
0.0
  9
$ORTHOMODE
 70
     1
  9
$REGENMODE
 70
     1
  9
$FILLMODE
 70
     1
  9
$QTEXTMODE
 70
     0
  9
$MIRRTEXT
 70
     1
  9
$LTSCALE
 40
1.0
  9
$ATTMODE
 70
     1
  9
$TEXTSIZE
 40
0.0
  9
$TRACEWID
 40
0.05
  9
$TEXTSTYLE
  7
STANDARD
  9
$CLAYER
  8
INDUSA
  9
$CELTYPE
  6
CONTINUOUS
  9
$CECOLOR
 62
   256
  9
$CELTSCALE
 40
1.0
  9
$DISPSILH
 70
     0
  9
$DIMSCALE
 40
1.0
  9
$DIMASZ
 40
5.994399999999999
  9
$DIMEXO
 40
0.9905999999999998
  9
$DIMDLI
 40
0.38
  9
$DIMRND
 40
0.0
  9
$DIMDLE
 40
0.9905999999999998
  9
$DIMEXE
 40
0.18
  9
$DIMTP
 40
0.0
  9
$DIMTM
 40
0.0
  9
$DIMTXT
 40
6.349999999999999
  9
$DIMCEN
 40
0.09
  9
$DIMTSZ
 40
0.0
  9
$DIMTOL
 70
     0
  9
$DIMLIM
 70
     0
  9
$DIMTIH
 70
     1
  9
$DIMTOH
 70
     1
  9
$DIMSE1
 70
     0
  9
$DIMSE2
 70
     0
  9
$DIMTAD
 70
     1
  9
$DIMZIN
 70
     0
  9
$DIMBLK
  1

  9
$DIMASO
 70
     1
  9
$DIMSHO
 70
     1
  9
$DIMPOST
  1

  9
$DIMAPOST
  1

  9
$DIMALT
 70
     0
  9
$DIMALTD
 70
     2
  9
$DIMALTF
 40
0.0394
  9
$DIMLFAC
 40
1.0
  9
$DIMTOFL
 70
     0
  9
$DIMTVP
 40
0.0
  9
$DIMTIX
 70
     0
  9
$DIMSOXD
 70
     0
  9
$DIMSAH
 70
     0
  9
$DIMBLK1
  1

  9
$DIMBLK2
  1

  9
$DIMSTYLE
  2
STANDARD
  9
$DIMCLRD
 70
     0
  9
$DIMCLRE
 70
     0
  9
$DIMCLRT
 70
     0
  9
$DIMTFAC
 40
1.0
  9
$DIMGAP
 40
0.9905999999999998
  9
$DIMJUST
 70
     0
  9
$DIMSD1
 70
     0
  9
$DIMSD2
 70
     0
  9
$DIMTOLJ
 70
     1
  9
$DIMTZIN
 70
     0
  9
$DIMALTZ
 70
     0
  9
$DIMALTTZ
 70
     0
  9
$DIMUPT
 70
     0
  9
$DIMDEC
 70
     4
  9
$DIMTDEC
 70
     4
  9
$DIMALTU
 70
     2
  9
$DIMALTTD
 70
     2
  9
$DIMTXSTY
  7
STANDARD
  9
$DIMAUNIT
 70
     0
  9
$DIMADEC
 70
     0
  9
$DIMALTRND
 40
0.0
  9
$DIMAZIN
 70
     0
  9
$DIMDSEP
 70
    46
  9
$DIMATFIT
 70
     3
  9
$DIMFRAC
 70
     0
  9
$DIMLDRBLK
  1

  9
$DIMLUNIT
 70
     2
  9
$DIMLWD
 70
    -2
  9
$DIMLWE
 70
    -2
  9
$DIMTMOVE
 70
     0
  9
$LUNITS
 70
     2
  9
$LUPREC
 70
     2
  9
$SKETCHINC
 40
0.1
  9
$FILLETRAD
 40
0.0
  9
$AUNITS
 70
     0
  9
$AUPREC
 70
     2
  9
$MENU
  1
acad
  9
$ELEVATION
 40
0.0
  9
$PELEVATION
 40
0.0
  9
$THICKNESS
 40
0.0
  9
$LIMCHECK
 70
     0
  9
$CHAMFERA
 40
0.0
  9
$CHAMFERB
 40
0.0
  9
$CHAMFERC
 40
0.0
  9
$CHAMFERD
 40
0.0
  9
$SKPOLY
 70
     0
  9
$TDCREATE
 40
2444972.041666667
  9
$TDUCREATE
 40
2444972.000000000
  9
$TDUPDATE
 40
2456146.584736320
  9
$TDUUPDATE
 40
2456146.543069653
  9
$TDINDWG
 40
0.0272643634
  9
$TDUSRTIMER
 40
0.0272643634
  9
$USRTIMER
 70
     1
  9
$ANGBASE
 50
0.0
  9
$ANGDIR
 70
     0
  9
$PDMODE
 70
     0
  9
$PDSIZE
 40
-1.0
  9
$PLINEWID
 40
0.0
  9
$SPLFRAME
 70
     0
  9
$SPLINETYPE
 70
     6
  9
$SPLINESEGS
 70
     8
  9
$HANDSEED
  5
20EA
  9
$SURFTAB1
 70
     6
  9
$SURFTAB2
 70
     6
  9
$SURFTYPE
 70
     6
  9
$SURFU
 70
     6
  9
$SURFV
 70
     6
  9
$UCSBASE
  2

  9
$UCSNAME
  2

  9
$UCSORG
 10
0.0
 20
0.0
 30
0.0
  9
$UCSXDIR
 10
1.0
 20
0.0
 30
0.0
  9
$UCSYDIR
 10
0.0
 20
1.0
 30
0.0
  9
$UCSORTHOREF
  2

  9
$UCSORTHOVIEW
 70
     0
  9
$UCSORGTOP
 10
0.0
 20
0.0
 30
0.0
  9
$UCSORGBOTTOM
 10
0.0
 20
0.0
 30
0.0
  9
$UCSORGLEFT
 10
0.0
 20
0.0
 30
0.0
  9
$UCSORGRIGHT
 10
0.0
 20
0.0
 30
0.0
  9
$UCSORGFRONT
 10
0.0
 20
0.0
 30
0.0
  9
$UCSORGBACK
 10
0.0
 20
0.0
 30
0.0
  9
$PUCSBASE
  2

  9
$PUCSNAME
  2

  9
$PUCSORG
 10
0.0
 20
0.0
 30
0.0
  9
$PUCSXDIR
 10
1.0
 20
0.0
 30
0.0
  9
$PUCSYDIR
 10
0.0
 20
1.0
 30
0.0
  9
$PUCSORTHOREF
  2

  9
$PUCSORTHOVIEW
 70
     0
  9
$PUCSORGTOP
 10
0.0
 20
0.0
 30
0.0
  9
$PUCSORGBOTTOM
 10
0.0
 20
0.0
 30
0.0
  9
$PUCSORGLEFT
 10
0.0
 20
0.0
 30
0.0
  9
$PUCSORGRIGHT
 10
0.0
 20
0.0
 30
0.0
  9
$PUCSORGFRONT
 10
0.0
 20
0.0
 30
0.0
  9
$PUCSORGBACK
 10
0.0
 20
0.0
 30
0.0
  9
$USERI1
 70
     0
  9
$USERI2
 70
     0
  9
$USERI3
 70
     0
  9
$USERI4
 70
     0
  9
$USERI5
 70
     0
  9
$USERR1
 40
0.0
  9
$USERR2
 40
0.0
  9
$USERR3
 40
0.0
  9
$USERR4
 40
0.0
  9
$USERR5
 40
0.0
  9
$WORLDVIEW
 70
     1
  9
$SHADEDGE
 70
     3
  9
$SHADEDIF
 70
    70
  9
$TILEMODE
 70
     1
  9
$MAXACTVP
 70
    16
  9
$PINSBASE
 10
0.0
 20
0.0
 30
0.0
  9
$PLIMCHECK
 70
     0
  9
$PEXTMIN
 10
1.000000000000000E+20
 20
1.000000000000000E+20
 30
1.000000000000000E+20
  9
$PEXTMAX
 10
-1.000000000000000E+20
 20
-1.000000000000000E+20
 30
-1.000000000000000E+20
  9
$PLIMMIN
 10
0.0
 20
0.0
  9
$PLIMMAX
 10
12.0
 20
9.0
  9
$UNITMODE
 70
     0
  9
$VISRETAIN
 70
     0
  9
$PLINEGEN
 70
     1
  9
$PSLTSCALE
 70
     1
  9
$TREEDEPTH
 70
  3020
  9
$CMLSTYLE
  2
STANDARD
  9
$CMLJUST
 70
     0
  9
$CMLSCALE
 40
1.0
  9
$PROXYGRAPHICS
 70
     1
  9
$MEASUREMENT
 70
     0
  9
$CELWEIGHT
370
    -1
  9
$ENDCAPS
280
     0
  9
$JOINSTYLE
280
     0
  9
$LWDISPLAY
290
     0
  9
$INSUNITS
 70
     0
  9
$HYPERLINKBASE
  1

  9
$STYLESHEET
  1

  9
$XEDIT
290
     1
  9
$CEPSNTYPE
380
     0
  9
$PSTYLEMODE
290
     1
  9
$FINGERPRINTGUID
  2
{F9983EDF-F37D-414D-BB34-B4DFA24E1CF9}
  9
$VERSIONGUID
  2
{61920D57-C37D-4E70-9625-11D9ACA1CDA6}
  9
$EXTNAMES
290
     1
  9
$PSVPSCALE
 40
0.0
  9
$OLESTARTUP
290
     0
  0
ENDSEC
  0
SECTION
  2
CLASSES
  0
CLASS
  1
IMAGE
  2
AcDbRasterImage
  3
ISM
 90
    34943
280
     0
281
     1
  0
CLASS
  1
DICTIONARYVAR
  2
AcDbDictionaryVar
  3
ObjectDBX Classes
 90
        0
280
     0
281
     0
  0
CLASS
  1
RASTERVARIABLES
  2
AcDbRasterVariables
  3
ISM
 90
    32768
280
     0
281
     0
  0
CLASS
  1
IMAGEDEF
  2
AcDbRasterImageDef
  3
ISM
 90
    32768
280
     0
281
     0
  0
CLASS
  1
IMAGEDEF_REACTOR
  2
AcDbRasterImageDefReactor
  3
ISM
 90
    32769
280
     0
281
     0
  0
CLASS
  1
IDBUFFER
  2
AcDbIdBuffer
  3
ObjectDBX Classes
 90
    32768
280
     0
281
     0
  0
CLASS
  1
SPATIAL_FILTER
  2
AcDbSpatialFilter
  3
ObjectDBX Classes
 90
    32768
280
     0
281
     0
  0
CLASS
  1
SORTENTSTABLE
  2
AcDbSortentsTable
  3
ObjectDBX Classes
 90
    32768
280
     0
281
     0
  0
CLASS
  1
LAYER_INDEX
  2
AcDbLayerIndex
  3
ObjectDBX Classes
 90
    32768
280
     0
281
     0
  0
CLASS
  1
SPATIAL_INDEX
  2
AcDbSpatialIndex
  3
ObjectDBX Classes
 90
    32768
280
     0
281
     0
  0
CLASS
  1
OBJECT_PTR
  2
CAseDLPNTableRecord
  3
ASE-LPNTableRecord
 90
    32769
280
     0
281
     0
  0
CLASS
  1
LAYOUT
  2
AcDbLayout
  3
ObjectDBX Classes
 90
        0
280
     0
281
     0
  0
CLASS
  1
PLOTSETTINGS
  2
AcDbPlotSettings
  3
ObjectDBX Classes
 90
    32768
280
     0
281
     0
  0
CLASS
  1
ACDBDICTIONARYWDFLT
  2
AcDbDictionaryWithDefault
  3
ObjectDBX Classes
 90
        0
280
     0
281
     0
  0
CLASS
  1
ACDBPLACEHOLDER
  2
AcDbPlaceHolder
  3
ObjectDBX Classes
 90
        0
280
     0
281
     0
  0
CLASS
  1
VBA_PROJECT
  2
AcDbVbaProject
  3
acad
 90
    32768
280
     0
281
     0
  0
CLASS
  1
WIPEOUT
  2
AcDbWipeout
  3
"WipeOut|Product Desc: Object Enabler for WipeOut entity                        |Company: Autodesk, Inc.                        |WEB Address: www.autodesk.com"
 90
    34943
280
     0
281
     1
  0
CLASS
  1
WIPEOUTVARIABLES
  2
AcDbWipeoutVariables
  3
"WipeOut|Product Desc:     WipeOut Dbx Application|Company:          Autodesk, Inc.|WEB Address:      www.autodesk.com"
 90
    32768
280
     0
281
     0
  0
CLASS
  1
RTEXT
  2
RText
  3
RText|AutoCAD Express Tool|expresstools@autodesk.com
 90
    35839
280
     0
281
     1
  0
CLASS
  1
ARCALIGNEDTEXT
  2
AcDbArcAlignedText
  3
ATEXT|AutoCAD Express Tool|expresstools@autodesk.com
 90
    32768
280
     0
281
     1
  0
CLASS
  1
MATERIAL
  2
AcDbMaterial
  3
ObjectDBX Classes
 90
     1153
280
     0
281
     0
  0
CLASS
  1
VISUALSTYLE
  2
AcDbVisualStyle
  3
ObjectDBX Classes
 90
     4095
280
     0
281
     0
  0
CLASS
  1
TABLESTYLE
  2
AcDbTableStyle
  3
ObjectDBX Classes
 90
     4095
280
     0
281
     0
  0
CLASS
  1
SCALE
  2
AcDbScale
  3
ObjectDBX Classes
 90
     1153
280
     0
281
     0
  0
CLASS
  1
MLEADERSTYLE
  2
AcDbMLeaderStyle
  3
ACDB_MLEADERSTYLE_CLASS
 90
     4095
280
     0
281
     0
  0
CLASS
  1
CELLSTYLEMAP
  2
AcDbCellStyleMap
  3
ObjectDBX Classes
 90
     1152
280
     0
281
     0
  0
ENDSEC
  0
SECTION
  2
TABLES
  0
TABLE
  2
VPORT
  5
7
330
0
100
AcDbSymbolTable
 70
     1
  0
VPORT
  5
2053
330
7
100
AcDbSymbolTableRecord
100
AcDbViewportTableRecord
  2
*Active
 70
     0
 10
0.0
 20
0.0
 11
1.0
 21
1.0
 12
101.7938166971503
 22
568.3220824234788
 13
0.0
 23
0.0
 14
1.0
 24
1.0
 15
0.0
 25
0.0
 16
0.0
 26
0.0
 36
1.0
 17
0.0
 27
0.0
 37
0.0
 40
2.121995245114553
 41
1.645464025026068
 42
50.0
 43
0.0
 44
0.0
 50
0.0
 51
0.0
 71
     0
 72
  2000
 73
     1
 74
     1
 75
     0
 76
     0
 77
     0
 78
     0
281
     0
 65
     1
110
0.0
120
0.0
130
0.0
111
1.0
121
0.0
131
0.0
112
0.0
122
1.0
132
0.0
 79
     0
146
0.0
  0
ENDTAB
  0
TABLE
  2
LTYPE
  5
4
330
0
100
AcDbSymbolTable
 70
     6
  0
LTYPE
  5
11
330
4
100
AcDbSymbolTableRecord
100
AcDbLinetypeTableRecord
  2
BYBLOCK
 70
     0
  3

 72
    65
 73
     0
 40
0.0
  0
LTYPE
  5
12
330
4
100
AcDbSymbolTableRecord
100
AcDbLinetypeTableRecord
  2
BYLAYER
 70
     0
  3

 72
    65
 73
     0
 40
0.0
  0
LTYPE
  5
13
330
4
100
AcDbSymbolTableRecord
100
AcDbLinetypeTableRecord
  2
CONTINUOUS
 70
     0
  3
Solid line
 72
    65
 73
     0
 40
0.0
  0
LTYPE
  5
1E
330
4
100
AcDbSymbolTableRecord
100
AcDbLinetypeTableRecord
  2
HIDDEN
 70
     0
  3
Hidden __ __ __ __ __ __ __ __ __ __ __ __ __ __
 72
    65
 73
     2
 40
1.905
 49
1.27
 74
     0
 49
-0.635
 74
     0
  0
LTYPE
  5
1F
330
4
100
AcDbSymbolTableRecord
100
AcDbLinetypeTableRecord
  2
PHANTOM
 70
     0
  3
Phantom ______  __  __  ______  __  __  ______
 72
    65
 73
     6
 40
12.7
 49
6.349999999999999
 74
     0
 49
-1.27
 74
     0
 49
1.27
 74
     0
 49
-1.27
 74
     0
 49
1.27
 74
     0
 49
-1.27
 74
     0
  0
LTYPE
  5
20
330
4
100
AcDbSymbolTableRecord
100
AcDbLinetypeTableRecord
  2
CENTER
 70
     0
  3
Center ____ _ ____ _ ____ _ ____ _ ____ _ ____
 72
    65
 73
     4
 40
10.16
 49
6.349999999999999
 74
     0
 49
-1.27
 74
     0
 49
1.27
 74
     0
 49
-1.27
 74
     0
  0
LTYPE
  5
21
330
4
100
AcDbSymbolTableRecord
100
AcDbLinetypeTableRecord
  2
CENTERX2
 70
     0
  3
Center (2x) ________  __  ________  __  _____
 72
    65
 73
     4
 40
20.32
 49
12.7
 74
     0
 49
-2.54
 74
     0
 49
2.54
 74
     0
 49
-2.54
 74
     0
  0
LTYPE
  5
22
330
4
100
AcDbSymbolTableRecord
100
AcDbLinetypeTableRecord
  2
DOT2
 70
     0
  3
Dot (.5x) ........................................
 72
    65
 73
     2
 40
0.635
 49
0.0
 74
     0
 49
-0.635
 74
     0
  0
ENDTAB
  0
TABLE
  2
LAYER
  5
2
330
0
100
AcDbSymbolTable
 70
     4
  0
LAYER
  5
14
102
{ACAD_XDICTIONARY
360
20AB
102
}
330
2
100
AcDbSymbolTableRecord
100
AcDbLayerTableRecord
  2
0
 70
     0
 62
     7
  6
CONTINUOUS
370
    -3
390
2010
  0
LAYER
  5
26
330
2
100
AcDbSymbolTableRecord
100
AcDbLayerTableRecord
  2
DEFPOINTS
 70
     0
 62
     7
  6
CONTINUOUS
290
     0
370
    -3
390
2010
  0
LAYER
  5
27
102
{ACAD_XDICTIONARY
360
20AD
102
}
330
2
100
AcDbSymbolTableRecord
100
AcDbLayerTableRecord
  2
FORMAT
 70
     0
 62
     7
  6
CONTINUOUS
370
    -3
390
2010
  0
LAYER
  5
2017
102
{ACAD_XDICTIONARY
360
20AF
102
}
330
2
100
AcDbSymbolTableRecord
100
AcDbLayerTableRecord
  2
INDUSA
 70
     0
 62
     3
  6
CONTINUOUS
370
    -3
390
2010
  0
ENDTAB
  0
TABLE
  2
STYLE
  5
3
330
0
100
AcDbSymbolTable
 70
     2
  0
STYLE
  5
17
330
3
100
AcDbSymbolTableRecord
100
AcDbTextStyleTableRecord
  2
STANDARD
 70
     0
 40
0.0
 41
1.0
 50
0.0
 71
     0
 42
0.0
  3
txt
  4

  0
STYLE
  5
68
330
3
100
AcDbSymbolTableRecord
100
AcDbTextStyleTableRecord
  2
SLDTEXTSTYLE0
 70
     0
 40
0.0
 41
0.75
 50
0.0
 71
     0
 42
0.0
  3
txt
  4

  0
ENDTAB
  0
TABLE
  2
VIEW
  5
5
330
0
100
AcDbSymbolTable
 70
     0
  0
ENDTAB
  0
TABLE
  2
UCS
  5
6
330
0
100
AcDbSymbolTable
 70
     0
  0
ENDTAB
  0
TABLE
  2
APPID
  5
8
330
0
100
AcDbSymbolTable
 70
     3
  0
APPID
  5
16
330
8
100
AcDbSymbolTableRecord
100
AcDbRegAppTableRecord
  2
ACAD
 70
     0
  0
APPID
  5
202A
330
8
100
AcDbSymbolTableRecord
100
AcDbRegAppTableRecord
  2
DCO15
 70
     0
  0
APPID
  5
20E9
330
8
100
AcDbSymbolTableRecord
100
AcDbRegAppTableRecord
  2
ACAD_MLEADERVER
 70
     0
  0
ENDTAB
  0
TABLE
  2
DIMSTYLE
  5
9
330
0
100
AcDbSymbolTable
 70
     1
100
AcDbDimStyleTable
 71
     1
340
18
  0
DIMSTYLE
105
18
330
9
100
AcDbSymbolTableRecord
100
AcDbDimStyleTableRecord
  2
STANDARD
 70
     0
289
     0
340
17
  0
ENDTAB
  0
TABLE
  2
BLOCK_RECORD
  5
1
330
0
100
AcDbSymbolTable
 70
    16
  0
BLOCK_RECORD
  5
A
330
1
100
AcDbSymbolTableRecord
100
AcDbBlockTableRecord
  2
*MODEL_SPACE
340
2013
  0
BLOCK_RECORD
  5
B
330
1
100
AcDbSymbolTableRecord
100
AcDbBlockTableRecord
  2
*PAPER_SPACE
340
2014
  0
BLOCK_RECORD
  5
8C
330
1
100
AcDbSymbolTableRecord
100
AcDbBlockTableRecord
  2
NOTE35
340
0
102
{BLKREFS
331
8F
102
}
  0
BLOCK_RECORD
  5
90
330
1
100
AcDbSymbolTableRecord
100
AcDbBlockTableRecord
  2
NOTE36
340
0
102
{BLKREFS
331
93
102
}
  0
BLOCK_RECORD
  5
95
330
1
100
AcDbSymbolTableRecord
100
AcDbBlockTableRecord
  2
NOTE38
340
0
102
{BLKREFS
331
98
102
}
  0
BLOCK_RECORD
  5
99
330
1
100
AcDbSymbolTableRecord
100
AcDbBlockTableRecord
  2
NOTE39
340
0
102
{BLKREFS
331
9C
102
}
  0
BLOCK_RECORD
  5
9D
330
1
100
AcDbSymbolTableRecord
100
AcDbBlockTableRecord
  2
NOTE40
340
0
102
{BLKREFS
331
A0
102
}
  0
BLOCK_RECORD
  5
A1
330
1
100
AcDbSymbolTableRecord
100
AcDbBlockTableRecord
  2
NOTE41
340
0
102
{BLKREFS
331
A4
102
}
  0
BLOCK_RECORD
  5
A5
330
1
100
AcDbSymbolTableRecord
100
AcDbBlockTableRecord
  2
NOTE42
340
0
102
{BLKREFS
331
A8
102
}
  0
BLOCK_RECORD
  5
A9
330
1
100
AcDbSymbolTableRecord
100
AcDbBlockTableRecord
  2
NOTE43
340
0
102
{BLKREFS
331
AC
102
}
  0
BLOCK_RECORD
  5
AD
330
1
100
AcDbSymbolTableRecord
100
AcDbBlockTableRecord
  2
NOTE44
340
0
102
{BLKREFS
331
B0
102
}
  0
BLOCK_RECORD
  5
B1
330
1
100
AcDbSymbolTableRecord
100
AcDbBlockTableRecord
  2
NOTE45
340
0
102
{BLKREFS
331
B4
102
}
  0
BLOCK_RECORD
  5
B5
330
1
100
AcDbSymbolTableRecord
100
AcDbBlockTableRecord
  2
NOTE46
340
0
102
{BLKREFS
331
B8
102
}
  0
BLOCK_RECORD
  5
B9
330
1
100
AcDbSymbolTableRecord
100
AcDbBlockTableRecord
  2
NOTE47
340
0
102
{BLKREFS
331
BC
102
}
  0
BLOCK_RECORD
  5
BD
330
1
100
AcDbSymbolTableRecord
100
AcDbBlockTableRecord
  2
NOTE48
340
0
102
{BLKREFS
331
C0
102
}
  0
BLOCK_RECORD
  5
C2
330
1
100
AcDbSymbolTableRecord
100
AcDbBlockTableRecord
  2
NOTE50
340
0
102
{BLKREFS
331
C5
102
}
  0
BLOCK_RECORD
  5
C6
330
1
100
AcDbSymbolTableRecord
100
AcDbBlockTableRecord
  2
NOTE51
340
0
102
{BLKREFS
331
C9
102
}
  0
BLOCK_RECORD
  5
2018
330
1
100
AcDbSymbolTableRecord
100
AcDbBlockTableRecord
  2
11310PL
340
0
  0
ENDTAB
  0
ENDSEC
  0
SECTION
  2
BLOCKS
  0
BLOCK
  5
D
330
A
100
AcDbEntity
  8
0
100
AcDbBlockBegin
  2
*MODEL_SPACE
 70
     0
 10
0.0
 20
0.0
 30
0.0
  3
*MODEL_SPACE
  1

  0
ENDBLK
  5
E
330
A
100
AcDbEntity
  8
0
100
AcDbBlockEnd
  0
BLOCK
  5
F
330
B
100
AcDbEntity
 67
     1
  8
0
100
AcDbBlockBegin
  2
*PAPER_SPACE
 70
     0
 10
0.0
 20
0.0
 30
0.0
  3
*PAPER_SPACE
  1

  0
ENDBLK
  5
10
330
B
100
AcDbEntity
 67
     1
  8
0
100
AcDbBlockEnd
  0
BLOCK
  5
8D
330
8C
100
AcDbEntity
  8
0
 62
     0
100
AcDbBlockBegin
  2
NOTE35
 70
     0
 10
0.0
 20
0.0
 30
0.0
  3
NOTE35
  1

  0
ENDBLK
  5
8E
330
8C
100
AcDbEntity
  8
0
100
AcDbBlockEnd
  0
BLOCK
  5
91
330
90
100
AcDbEntity
  8
0
 62
     0
100
AcDbBlockBegin
  2
NOTE36
 70
     0
 10
0.0
 20
0.0
 30
0.0
  3
NOTE36
  1

  0
ENDBLK
  5
92
330
90
100
AcDbEntity
  8
0
100
AcDbBlockEnd
  0
BLOCK
  5
96
330
95
100
AcDbEntity
  8
0
 62
     0
100
AcDbBlockBegin
  2
NOTE38
 70
     0
 10
0.0
 20
0.0
 30
0.0
  3
NOTE38
  1

  0
ENDBLK
  5
97
330
95
100
AcDbEntity
  8
0
100
AcDbBlockEnd
  0
BLOCK
  5
9A
330
99
100
AcDbEntity
  8
0
 62
     0
100
AcDbBlockBegin
  2
NOTE39
 70
     0
 10
0.0
 20
0.0
 30
0.0
  3
NOTE39
  1

  0
ENDBLK
  5
9B
330
99
100
AcDbEntity
  8
0
100
AcDbBlockEnd
  0
BLOCK
  5
9E
330
9D
100
AcDbEntity
  8
0
 62
     0
100
AcDbBlockBegin
  2
NOTE40
 70
     0
 10
0.0
 20
0.0
 30
0.0
  3
NOTE40
  1

  0
ENDBLK
  5
9F
330
9D
100
AcDbEntity
  8
0
100
AcDbBlockEnd
  0
BLOCK
  5
A2
330
A1
100
AcDbEntity
  8
0
 62
     0
100
AcDbBlockBegin
  2
NOTE41
 70
     0
 10
0.0
 20
0.0
 30
0.0
  3
NOTE41
  1

  0
ENDBLK
  5
A3
330
A1
100
AcDbEntity
  8
0
100
AcDbBlockEnd
  0
BLOCK
  5
A6
330
A5
100
AcDbEntity
  8
0
 62
     0
100
AcDbBlockBegin
  2
NOTE42
 70
     0
 10
0.0
 20
0.0
 30
0.0
  3
NOTE42
  1

  0
ENDBLK
  5
A7
330
A5
100
AcDbEntity
  8
0
100
AcDbBlockEnd
  0
BLOCK
  5
AA
330
A9
100
AcDbEntity
  8
0
 62
     0
100
AcDbBlockBegin
  2
NOTE43
 70
     0
 10
0.0
 20
0.0
 30
0.0
  3
NOTE43
  1

  0
ENDBLK
  5
AB
330
A9
100
AcDbEntity
  8
0
100
AcDbBlockEnd
  0
BLOCK
  5
AE
330
AD
100
AcDbEntity
  8
0
 62
     0
100
AcDbBlockBegin
  2
NOTE44
 70
     0
 10
0.0
 20
0.0
 30
0.0
  3
NOTE44
  1

  0
ENDBLK
  5
AF
330
AD
100
AcDbEntity
  8
0
100
AcDbBlockEnd
  0
BLOCK
  5
B2
330
B1
100
AcDbEntity
  8
0
 62
     0
100
AcDbBlockBegin
  2
NOTE45
 70
     0
 10
0.0
 20
0.0
 30
0.0
  3
NOTE45
  1

  0
ENDBLK
  5
B3
330
B1
100
AcDbEntity
  8
0
100
AcDbBlockEnd
  0
BLOCK
  5
B6
330
B5
100
AcDbEntity
  8
0
 62
     0
100
AcDbBlockBegin
  2
NOTE46
 70
     0
 10
0.0
 20
0.0
 30
0.0
  3
NOTE46
  1

  0
ENDBLK
  5
B7
330
B5
100
AcDbEntity
  8
0
100
AcDbBlockEnd
  0
BLOCK
  5
BA
330
B9
100
AcDbEntity
  8
0
 62
     0
100
AcDbBlockBegin
  2
NOTE47
 70
     0
 10
0.0
 20
0.0
 30
0.0
  3
NOTE47
  1

  0
ENDBLK
  5
BB
330
B9
100
AcDbEntity
  8
0
100
AcDbBlockEnd
  0
BLOCK
  5
BE
330
BD
100
AcDbEntity
  8
0
 62
     0
100
AcDbBlockBegin
  2
NOTE48
 70
     0
 10
0.0
 20
0.0
 30
0.0
  3
NOTE48
  1

  0
ENDBLK
  5
BF
330
BD
100
AcDbEntity
  8
0
100
AcDbBlockEnd
  0
BLOCK
  5
C3
330
C2
100
AcDbEntity
  8
0
 62
     0
100
AcDbBlockBegin
  2
NOTE50
 70
     0
 10
0.0
 20
0.0
 30
0.0
  3
NOTE50
  1

  0
ENDBLK
  5
C4
330
C2
100
AcDbEntity
  8
0
100
AcDbBlockEnd
  0
BLOCK
  5
C7
330
C6
100
AcDbEntity
  8
0
 62
     0
100
AcDbBlockBegin
  2
NOTE51
 70
     0
 10
0.0
 20
0.0
 30
0.0
  3
NOTE51
  1

  0
ENDBLK
  5
C8
330
C6
100
AcDbEntity
  8
0
100
AcDbBlockEnd
  0
BLOCK
  5
201F
330
2018
100
AcDbEntity
  8
0
100
AcDbBlockBegin
  2
11310PL
 70
     0
 10
0.0
 20
0.0
 30
0.0
  3
11310PL
  1

  0
CIRCLE
  5
2019
330
2018
100
AcDbEntity
  8
INDUSA
100
AcDbCircle
 10
0.0
 20
-0.07
 30
0.0
 40
0.0175
  0
CIRCLE
  5
201A
330
2018
100
AcDbEntity
  8
INDUSA
100
AcDbCircle
 10
0.0
 20
-0.21
 30
0.0
 40
0.0225
  0
LWPOLYLINE
  5
201B
330
2018
100
AcDbEntity
  8
INDUSA
100
AcDbPolyline
 90
        8
 70
     1
 43
0.0
 10
0.268322
 20
-0.389068
 42
0.136814
 10
0.311928
 20
-0.260281
 42
0.031566
 10
0.31
 20
0.0
 10
-0.31
 20
0.0
 42
0.031566
 10
-0.311928
 20
-0.260281
 42
0.136814
 10
-0.268322
 20
-0.389068
 42
0.198952
 10
-0.09679
 20
-0.501356
 42
0.089312
 10
0.09679
 20
-0.501356
 42
0.198952
  0
LWPOLYLINE
  5
201C
330
2018
100
AcDbEntity
  8
INDUSA
100
AcDbPolyline
 90
        8
 70
     0
 43
0.0
 10
-0.294964
 20
0.0
 42
0.031692
 10
-0.29695
 20
-0.259463
 42
0.136814
 10
-0.255929
 20
-0.380618
 42
0.198885
 10
-0.094067
 20
-0.4866050000000001
 42
0.089249
 10
0.094067
 20
-0.4866050000000001
 42
0.198885
 10
0.255929
 20
-0.380618
 42
0.136814
 10
0.29695
 20
-0.259463
 42
0.031692
 10
0.294964
 20
0.0
  0
LWPOLYLINE
  5
201D
330
2018
100
AcDbEntity
  8
INDUSA
100
AcDbPolyline
 90
       10
 70
     1
 43
0.0
 10
0.089527
 20
-0.46202
 42
0.198758
 10
0.235273
 20
-0.366535
 42
0.136814
 10
0.271988
 20
-0.2581
 42
0.026689
 10
0.272543
 20
-0.044011
 42
0.399795
 10
0.252567
 20
-0.025
 10
-0.252567
 20
-0.025
 42
0.399795
 10
-0.272543
 20
-0.044011
 42
0.026689
 10
-0.271988
 20
-0.2581
 42
0.136814
 10
-0.235273
 20
-0.366535
 42
0.198758
 10
-0.089527
 20
-0.46202
 42
0.089135
  0
LWPOLYLINE
  5
201E
330
2018
100
AcDbEntity
  8
INDUSA
100
AcDbPolyline
 90
        4
 70
     0
 43
0.0
 10
0.270351
 20
-0.201672
 42
0.4224000000000001
 10
0.210374
 20
-0.14
 10
-0.210374
 20
-0.14
 42
0.4224000000000001
 10
-0.270351
 20
-0.201672
  0
ENDBLK
  5
2020
330
2018
100
AcDbEntity
  8
0
100
AcDbBlockEnd
  0
ENDSEC
  0
SECTION
  2
ENTITIES
  0
INSERT
  5
8F
330
A
100
AcDbEntity
  8
0
100
AcDbBlockReference
  2
NOTE35
 10
0.0
 20
0.0
 30
0.0
  0
INSERT
  5
93
330
A
100
AcDbEntity
  8
0
100
AcDbBlockReference
  2
NOTE36
 10
0.0
 20
0.0
 30
0.0
  0
INSERT
  5
98
330
A
100
AcDbEntity
  8
0
100
AcDbBlockReference
  2
NOTE38
 10
0.0
 20
0.0
 30
0.0
  0
INSERT
  5
9C
330
A
100
AcDbEntity
  8
0
100
AcDbBlockReference
  2
NOTE39
 10
0.0
 20
0.0
 30
0.0
  0
INSERT
  5
A0
330
A
100
AcDbEntity
  8
0
100
AcDbBlockReference
  2
NOTE40
 10
0.0
 20
0.0
 30
0.0
  0
INSERT
  5
A4
330
A
100
AcDbEntity
  8
0
100
AcDbBlockReference
  2
NOTE41
 10
0.0
 20
0.0
 30
0.0
  0
INSERT
  5
A8
330
A
100
AcDbEntity
  8
0
100
AcDbBlockReference
  2
NOTE42
 10
0.0
 20
0.0
 30
0.0
  0
INSERT
  5
AC
330
A
100
AcDbEntity
  8
0
100
AcDbBlockReference
  2
NOTE43
 10
0.0
 20
0.0
 30
0.0
  0
INSERT
  5
B0
330
A
100
AcDbEntity
  8
0
100
AcDbBlockReference
  2
NOTE44
 10
0.0
 20
0.0
 30
0.0
  0
INSERT
  5
B4
330
A
100
AcDbEntity
  8
0
100
AcDbBlockReference
  2
NOTE45
 10
0.0
 20
0.0
 30
0.0
  0
INSERT
  5
B8
330
A
100
AcDbEntity
  8
0
100
AcDbBlockReference
  2
NOTE46
 10
0.0
 20
0.0
 30
0.0
  0
INSERT
  5
BC
330
A
100
AcDbEntity
  8
0
100
AcDbBlockReference
  2
NOTE47
 10
0.0
 20
0.0
 30
0.0
  0
INSERT
  5
C0
330
A
100
AcDbEntity
  8
0
100
AcDbBlockReference
  2
NOTE48
 10
0.0
 20
0.0
 30
0.0
  0
INSERT
  5
C5
330
A
100
AcDbEntity
  8
0
100
AcDbBlockReference
  2
NOTE50
 10
0.0
 20
0.0
 30
0.0
  0
INSERT
  5
C9
330
A
100
AcDbEntity
  8
0
100
AcDbBlockReference
  2
NOTE51
 10
0.0
 20
0.0
 30
0.0
  0
ARC
  5
DD
330
A
100
AcDbEntity
  8
INDUSA
  6
Continuous
100
AcDbCircle
 10
100.472656201113
 20
568.4308293504716
 30
0.0
 40
0.002
100
AcDbArc
 50
354.4769946903401
 51
71.3011668878088
  0
LWPOLYLINE
  5
DE
330
A
100
AcDbEntity
  8
INDUSA
  6
Continuous
100
AcDbPolyline
 90
       11
 70
   128
 43
0.0
 10
100.4255268250198
 20
568.0053790352629
 10
100.4284141463393
 20
568.0293564282059
 10
100.4362109806214
 20
568.0942150096163
 10
100.4433486489153
 20
568.1538613206777
 10
100.4498924475411
 20
568.2089156959709
 10
100.45593641651
 20
568.2602832976438
 10
100.462157811879
 20
568.3143208569963
 10
100.4678395149194
 20
568.3654797325762
 10
100.4716281297996
 20
568.40121598501
 10
100.4743282420837
 20
568.4277957880834
 10
100.4746081885528
 20
568.430641371477
  0
ARC
  5
EB
330
A
100
AcDbEntity
  8
INDUSA
  6
Continuous
100
AcDbCircle
 10
100.05631609393
 20
568.4308293504716
 30
0.0
 40
0.002
100
AcDbArc
 50
108.6988331122274
 51
185.4619798317837
  0
LWPOLYLINE
  5
EC
330
A
100
AcDbEntity
  8
INDUSA
  6
Continuous
100
AcDbPolyline
 90
       11
 70
   128
 43
0.0
 10
100.0543686198221
 20
568.4306419922395
 10
100.0559257856449
 20
568.4150616178722
 10
100.0588260063604
 20
568.3870248359794
 10
100.0627807840174
 20
568.3504100933724
 10
100.0681206937874
 20
568.3028360535148
 10
100.0748645369306
 20
568.2446587506221
 10
100.0809487276376
 20
568.1931482079035
 10
100.0873984712452
 20
568.1389965326303
 10
100.0946218107857
 20
568.0787174243887
 10
100.1024202094037
 20
568.0138908372669
 10
100.1034450087096
 20
568.0053799127797
  0
LWPOLYLINE
  5
F9
330
A
100
AcDbEntity
  8
INDUSA
  6
Continuous
100
AcDbPolyline
 90
       13
 70
   128
 43
0.0
 10
100.2644854674531
 20
567.9794392994742
 10
100.2646794277277
 20
567.9794383830333
 10
100.2786812780652
 20
567.9796149047608
 10
100.2940660349284
 20
567.9801051772341
 10
100.3094343660844
 20
567.9809073150067
 10
100.3247680414719
 20
567.9820220194415
 10
100.3400499502289
 20
567.9834491148832
 10
100.3552650828428
 20
567.9851881069585
 10
100.3702789116179
 20
567.9872249433493
 10
100.3851621093763
 20
567.9895559737872
 10
100.4002318195911
 20
567.9922253774146
 10
100.4153222125066
 20
567.9952029690932
 10
100.4171324981331
 20
567.9955956407952
  0
LWPOLYLINE
  5
108
330
A
100
AcDbEntity
  8
INDUSA
  6
Continuous
100
AcDbPolyline
 90
       12
 70
   128
 43
0.0
 10
100.1118423065051
 20
567.9955779476289
 10
100.1232495134314
 20
567.9932486727826
 10
100.1381669846251
 20
567.9904942845439
 10
100.1533283031325
 20
567.9880045629279
 10
100.1685448996332
 20
567.9858271105025
 10
100.1836114352396
 20
567.9839945235878
 10
100.198582358351
 20
567.982484903272
 10
100.213824294281
 20
567.981260594024
 10
100.2291275752559
 20
567.9803448267496
 10
100.2444762625338
 20
567.9797384470533
 10
100.2598534551491
 20
567.9794414952072
 10
100.2644854674531
 20
567.9794392994742
  0
ARC
  5
116
330
A
100
AcDbEntity
  8
INDUSA
  6
Continuous
100
AcDbCircle
 10
100.4150757760016
 20
568.0053362556146
 30
0.0
 40
0.0100000000000001
100
AcDbArc
 50
281.9072822132621
 51
337.6626550566498
  0
ARC
  5
117
330
A
100
AcDbEntity
  8
INDUSA
  6
Continuous
100
AcDbCircle
 10
100.1138965190414
 20
568.0053362556146
 30
0.0
 40
0.0100000000000001
100
AcDbArc
 50
202.3373449433502
 51
258.0927177867379
  0
LINE
  5
118
330
A
100
AcDbEntity
  8
INDUSA
  6
Continuous
100
AcDbLine
 10
100.1041377466485
 20
568.0027743090858
 30
0.0
 11
100.1046468970884
 21
568.0015356643807
 31
0.0
  0
LWPOLYLINE
  5
119
330
A
100
AcDbEntity
  8
INDUSA
  6
Continuous
100
AcDbPolyline
 90
        3
 70
   128
 43
0.0
 10
100.4243255846264
 20
568.0015359827863
 10
100.4246812333
 20
568.0024014330434
 10
100.4248345282152
 20
568.002773787004
  0
ARC
  5
11E
330
A
100
AcDbEntity
  8
INDUSA
  6
Continuous
100
AcDbCircle
 10
100.415585372927
 20
568.006575986437
 30
0.0
 40
0.0100000000000003
100
AcDbArc
 50
337.6465722977886
 51
353.1422409986778
  0
ARC
  5
11F
330
A
100
AcDbEntity
  8
INDUSA
  6
Continuous
100
AcDbCircle
 10
100.113386922116
 20
568.006575986437
 30
0.0
 40
0.0100000000000002
100
AcDbArc
 50
186.8577590013285
 51
202.353427702205
  0
LINE
  5
120
330
A
100
AcDbEntity
  8
INDUSA
  6
Continuous
100
AcDbLine
 10
100.425303005919
 20
568.4490548648553
 30
0.0
 11
100.4001660585116
 21
568.5344218240116
 31
0.0
  0
LINE
  5
137
330
A
100
AcDbEntity
  8
INDUSA
  6
Continuous
100
AcDbLine
 10
100.1036692891241
 20
568.4490548648553
 30
0.0
 11
100.1289795280559
 21
568.5350103350288
 31
0.0
  0
LINE
  5
139
330
A
100
AcDbEntity
  8
INDUSA
  6
Continuous
100
AcDbLine
 10
100.4236885854357
 20
568.4470368521979
 30
0.0
 11
100.4200655584412
 21
568.4473065598865
 31
0.0
  0
LWPOLYLINE
  5
13A
330
A
100
AcDbEntity
  8
INDUSA
  6
Continuous
100
AcDbPolyline
 90
       13
 70
   128
 43
0.0
 10
100.2644861475215
 20
568.4657139887617
 10
100.2644862075158
 20
568.4657139888689
 10
100.2723362996955
 20
568.4656808210469
 10
100.2880372113776
 20
568.4653305375291
 10
100.3037229839578
 20
568.4646017905651
 10
100.3193839290966
 20
568.4634954575352
 10
100.3350111216995
 20
568.4620148047618
 10
100.350595617817
 20
568.4601633003035
 10
100.3661284667278
 20
568.4579384460171
 10
100.3815962463216
 20
568.45534040167
 10
100.3969965512193
 20
568.4523794097948
 10
100.4046696069634
 20
568.4507693363375
 10
100.4200655584412
 20
568.4473065598865
  0
LWPOLYLINE
  5
157
330
A
100
AcDbEntity
  8
INDUSA
  6
Continuous
100
AcDbPolyline
 90
       13
 70
   128
 43
0.0
 10
100.2644861475215
 20
568.4657139887617
 10
100.2644860875272
 20
568.4657139888689
 10
100.2566359953475
 20
568.4656808210469
 10
100.2409350836654
 20
568.4653305375291
 10
100.2252493110852
 20
568.4646017905651
 10
100.2095883659464
 20
568.4634954575352
 10
100.1939611733435
 20
568.4620148047618
 10
100.178376677226
 20
568.4601633003035
 10
100.1628438283153
 20
568.4579384460171
 10
100.1473760487214
 20
568.45534040167
 10
100.1319757438237
 20
568.4523794097948
 10
100.1243026880797
 20
568.4507693363375
 10
100.1089067366019
 20
568.4473065598865
  0
LINE
  5
166
330
A
100
AcDbEntity
  8
INDUSA
  6
Continuous
100
AcDbLine
 10
100.1052837096072
 20
568.4470368521979
 30
0.0
 11
100.1089067366019
 21
568.4473065598865
 31
0.0
  0
LWPOLYLINE
  5
1BB
330
A
100
AcDbEntity
  8
INDUSA
  6
Continuous
100
AcDbPolyline
 90
        8
 70
   128
 43
0.0
 10
100.2644861475215
 20
567.9882670637494
 10
100.2684861299311
 20
567.9882832822695
 10
100.2844845509938
 20
567.9885693662385
 10
100.3058230737486
 20
567.9895028378928
 10
100.3271293957721
 20
567.9910660489632
 10
100.3483756625006
 20
567.9932569558046
 10
100.3784560698772
 20
567.9974511048612
 10
100.4083340019219
 20
568.0029037162525
  0
LWPOLYLINE
  5
1DE
330
A
100
AcDbEntity
  8
INDUSA
  6
Continuous
100
AcDbPolyline
 90
        8
 70
   128
 43
0.0
 10
100.2644861475215
 20
567.9882670637494
 10
100.2604861651119
 20
567.9882832822695
 10
100.2444877440492
 20
567.9885693662385
 10
100.2231492212944
 20
567.9895028378928
 10
100.2018428992709
 20
567.9910660489632
 10
100.1805966325424
 20
567.9932569558046
 10
100.1505162251658
 20
567.9974511048612
 10
100.1206382931212
 20
568.0029037162525
  0
LWPOLYLINE
  5
201
330
A
100
AcDbEntity
  8
INDUSA
  6
Continuous
100
AcDbPolyline
 90
        9
 70
   128
 43
0.0
 10
100.1052837096072
 20
568.4470368521979
 10
100.10489492864
 20
568.447155535792
 10
100.1045229677817
 20
568.4472891842727
 10
100.1041832186795
 20
568.4474322672989
 10
100.103889740066
 20
568.4475788641313
 10
100.1036546760125
 20
568.4477229086295
 10
100.1034877534108
 20
568.4478584402683
 10
100.103395879476
 20
568.4479798507829
 10
100.1033828559287
 20
568.448082116236
  0
LINE
  5
20C
330
A
100
AcDbEntity
  8
INDUSA
  6
Continuous
100
AcDbLine
 10
100.1033828559287
 20
568.448082116236
 30
0.0
 11
100.1036692891241
 21
568.4490548648553
 31
0.0
  0
LWPOLYLINE
  5
20D
330
A
100
AcDbEntity
  8
INDUSA
  6
Continuous
100
AcDbPolyline
 90
        9
 70
   128
 43
0.0
 10
100.4236885854357
 20
568.4470368521979
 10
100.424077366403
 20
568.447155535792
 10
100.4244493272613
 20
568.4472891842727
 10
100.4247890763635
 20
568.4474322672989
 10
100.425082554977
 20
568.4475788641313
 10
100.4253176190305
 20
568.4477229086295
 10
100.4254845416323
 20
568.4478584402683
 10
100.425576415567
 20
568.4479798507829
 10
100.4255894391143
 20
568.448082116236
  0
LINE
  5
218
330
A
100
AcDbEntity
  8
INDUSA
  6
Continuous
100
AcDbLine
 10
100.4255894391143
 20
568.448082116236
 30
0.0
 11
100.425303005919
 21
568.4490548648553
 31
0.0
  0
ARC
  5
233
330
A
100
AcDbEntity
  8
INDUSA
  6
Continuous
100
AcDbCircle
 10
100.2527617916945
 20
568.1681310309711
 30
0.0
 40
0.2108
100
AcDbArc
 50
66.81603150282794
 51
86.81165595349749
  0
ARC
  5
235
330
A
100
AcDbEntity
  8
INDUSA
  6
Continuous
100
AcDbCircle
 10
100.2762105033485
 20
568.1681310309711
 30
0.0
 40
0.2108000000000001
100
AcDbArc
 50
93.18834404650418
 51
113.1839684971738
  0
LWPOLYLINE
  5
238
330
A
100
AcDbEntity
  8
INDUSA
  6
Continuous
100
AcDbPolyline
 90
        5
 70
   128
 43
0.0
 10
100.3420426012415
 20
568.0422848439116
 10
100.3320923634388
 20
568.0412854181729
 10
100.3121487263011
 20
568.039752824056
 10
100.292147441667
 20
568.0388429722118
 10
100.2644861475215
 20
568.0386149497287
  0
LWPOLYLINE
  5
250
330
A
100
AcDbEntity
  8
INDUSA
  6
Continuous
100
AcDbPolyline
 90
        5
 70
   128
 43
0.0
 10
100.1869296938015
 20
568.0422848439116
 10
100.1968799316042
 20
568.0412854181729
 10
100.2168235687419
 20
568.039752824056
 10
100.236824853376
 20
568.0388429722118
 10
100.2644861475215
 20
568.0386149497287
  0
LINE
  5
262
330
A
100
AcDbEntity
  8
INDUSA
  6
Continuous
100
AcDbLine
 10
100.1033073849794
 20
568.4478258112302
 30
0.0
 11
100.1033828559287
 21
568.448082116236
 31
0.0
  0
LINE
  5
26E
330
A
100
AcDbEntity
  8
INDUSA
  6
Continuous
100
AcDbLine
 10
100.4256649100637
 20
568.4478258112302
 30
0.0
 11
100.4255894391143
 21
568.448082116236
 31
0.0
  0
LINE
  5
26F
330
A
100
AcDbEntity
  8
INDUSA
  6
Continuous
100
AcDbLine
 10
100.4257227097618
 20
568.4476575373946
 30
0.0
 11
100.4256649100637
 21
568.4478258112302
 31
0.0
  0
LINE
  5
272
330
A
100
AcDbEntity
  8
INDUSA
  6
Continuous
100
AcDbLine
 10
100.1032495852812
 20
568.4476575373946
 30
0.0
 11
100.1033073849794
 21
568.4478258112302
 31
0.0
  0
ARC
  5
2A2
330
A
100
AcDbEntity
  8
INDUSA
  6
Continuous
100
AcDbCircle
 10
100.1013888306108
 20
568.4483907440887
 30
0.0
 40
0.0019999999999999
100
AcDbArc
 50
284.3954951161009
 51
338.4937112215437
  0
LWPOLYLINE
  5
2A4
330
A
100
AcDbEntity
  8
INDUSA
  6
Continuous
100
AcDbPolyline
 90
        7
 70
   128
 43
0.0
 10
100.1129110310726
 20
568.0112887363451
 10
100.1124380677467
 20
568.0152606751859
 10
100.1105460515522
 20
568.0311484108846
 10
100.1029751416002
 20
568.0946990095808
 10
100.0878169360819
 20
568.2217982060449
 10
100.0751814741251
 20
568.3275046505549
 10
100.0626192267942
 20
568.4332190113252
  0
LWPOLYLINE
  5
2AF
330
A
100
AcDbEntity
  8
INDUSA
  6
Continuous
100
AcDbPolyline
 90
        4
 70
   128
 43
0.0
 10
100.3962314039227
 20
568.2644963412916
 10
100.3956825950503
 20
568.2545114122067
 10
100.393485626653
 20
568.2145717911309
 10
100.38658198154
 20
568.0892427105877
  0
LWPOLYLINE
  5
2B6
330
A
100
AcDbEntity
  8
INDUSA
  6
Continuous
100
AcDbPolyline
 90
        6
 70
   128
 43
0.0
 10
100.1327408911203
 20
568.2644963412916
 10
100.1332896999928
 20
568.2545114122067
 10
100.1343878683178
 20
568.2345415843041
 10
100.13548666839
 20
568.2145717911309
 10
100.1389374241281
 20
568.1519071921449
 10
100.142390313503
 20
568.0892427105877
  0
ARC
  5
2C0
330
A
100
AcDbEntity
  8
INDUSA
  6
Continuous
100
AcDbCircle
 10
100.3366577365413
 20
568.0919940305087
 30
0.0
 40
0.05
100
AcDbArc
 50
276.1825916024031
 51
356.8456263839149
  0
ARC
  5
2C4
330
A
100
AcDbEntity
  8
INDUSA
  6
Continuous
100
AcDbCircle
 10
100.2325902366163
 20
568.2699834356075
 30
0.0
 40
0.1
100
AcDbArc
 50
113.1839684971738
 51
183.1454532085593
  0
ARC
  5
2C7
330
A
100
AcDbEntity
  8
INDUSA
  6
Continuous
100
AcDbCircle
 10
100.1923145585018
 20
568.0919940305087
 30
0.0
 40
0.0500000000000002
100
AcDbArc
 50
183.1543736160833
 51
263.8174083975973
  0
ARC
  5
2C8
330
A
100
AcDbEntity
  8
INDUSA
  6
Continuous
100
AcDbCircle
 10
100.4275834644323
 20
568.4483907440887
 30
0.0
 40
0.0019999999999999
100
AcDbArc
 50
201.5062887784563
 51
255.604504883899
  0
LWPOLYLINE
  5
2C9
330
A
100
AcDbEntity
  8
INDUSA
  6
Continuous
100
AcDbPolyline
 90
        5
 70
   128
 43
0.0
 10
100.1206382931212
 20
568.0029037162525
 10
100.1175288498278
 20
568.0041376471528
 10
100.1150103422277
 20
568.0063438227722
 10
100.1134070454137
 20
568.0092062073461
 10
100.1129110310726
 20
568.0112887363451
  0
LWPOLYLINE
  5
2D1
330
A
100
AcDbEntity
  8
INDUSA
  6
Continuous
100
AcDbPolyline
 90
        7
 70
   128
 43
0.0
 10
100.4160612639704
 20
568.0112887363451
 10
100.4165342272963
 20
568.0152606751859
 10
100.4184262434908
 20
568.0311484108846
 10
100.4259971534428
 20
568.0946990095808
 10
100.4411553589611
 20
568.2217982060449
 10
100.4537908209179
 20
568.3275046505549
 10
100.4663530682488
 20
568.4332190113252
  0
CIRCLE
  5
2DB
330
A
100
AcDbEntity
  8
INDUSA
  6
Continuous
100
AcDbCircle
 10
100.1844861475215
 20
568.4336171153086
 30
0.0
 40
0.0075
  0
LWPOLYLINE
  5
2DC
330
A
100
AcDbEntity
  8
INDUSA
  6
Continuous
100
AcDbPolyline
 90
        9
 70
   128
 43
0.0
 10
100.0626192267942
 20
568.4332190113252
 10
100.0625674005554
 20
568.4335683183111
 10
100.0625634651847
 20
568.433912162962
 10
100.0626075464461
 20
568.4342395569166
 10
100.0626982356195
 20
568.4345400375339
 10
100.0628326345199
 20
568.4348040022516
 10
100.0630064481157
 20
568.4350230154591
 10
100.063214121786
 20
568.4351900780759
 10
100.0634490188323
 20
568.4352998512248
  0
CIRCLE
  5
2E7
330
A
100
AcDbEntity
  8
INDUSA
  6
Continuous
100
AcDbCircle
 10
100.3444861475215
 20
568.4336171153086
 30
0.0
 40
0.0075
  0
LWPOLYLINE
  5
2E8
330
A
100
AcDbEntity
  8
INDUSA
  6
Continuous
100
AcDbPolyline
 90
        9
 70
   128
 43
0.0
 10
100.4663530682488
 20
568.4332190113252
 10
100.4664048944876
 20
568.4335683183111
 10
100.4664088298583
 20
568.433912162962
 10
100.4663647485969
 20
568.4342395569166
 10
100.4662740594235
 20
568.4345400375339
 10
100.4661396605231
 20
568.4348040022516
 10
100.4659658469273
 20
568.4350230154591
 10
100.465758173257
 20
568.4351900780759
 10
100.4655232762107
 20
568.4352998512248
  0
LWPOLYLINE
  5
2F3
330
A
100
AcDbEntity
  8
INDUSA
  6
Continuous
100
AcDbPolyline
 90
        5
 70
   128
 43
0.0
 10
100.4083340019219
 20
568.0029037162525
 10
100.4114434452152
 20
568.0041376471528
 10
100.4139619528153
 20
568.0063438227722
 10
100.4155652496293
 20
568.0092062073461
 10
100.4160612639704
 20
568.0112887363451
  0
ARC
  5
2FA
330
A
100
AcDbEntity
  8
INDUSA
  6
Continuous
100
AcDbCircle
 10
100.2963820584267
 20
568.2699834356075
 30
0.0
 40
0.1
100
AcDbArc
 50
356.8545467914412
 51
66.81603150282794
  0
LINE
  5
320
330
A
100
AcDbEntity
  8
INDUSA
  6
Continuous
100
AcDbLine
 10
100.0578276587733
 20
568.4334481598402
 30
0.0
 11
100.0634490188323
 21
568.4352998512248
 31
0.0
  0
LINE
  5
321
330
A
100
AcDbEntity
  8
INDUSA
  6
Continuous
100
AcDbLine
 10
100.4711446362697
 20
568.4334481598402
 30
0.0
 11
100.4655232762107
 21
568.4352998512248
 31
0.0
  0
LWPOLYLINE
  5
349
330
A
100
AcDbEntity
  8
INDUSA
  6
Continuous
100
AcDbPolyline
 90
        4
 70
   128
 43
0.0
 10
100.0557691356864
 20
568.4327556643782
 10
100.0558666167407
 20
568.4327886363877
 10
100.0568285118947
 20
568.4331130130249
 10
100.0578276587733
 20
568.4334481598402
  0
LINE
  5
34F
330
A
100
AcDbEntity
  8
INDUSA
  6
Continuous
100
AcDbLine
 10
100.4657456301542
 20
568.4352276958643
 30
0.0
 11
100.4657754519491
 21
568.4352180128642
 31
0.0
  0
LINE
  5
350
330
A
100
AcDbEntity
  8
INDUSA
  6
Continuous
100
AcDbLine
 10
100.0632267405209
 20
568.4352277204218
 30
0.0
 11
100.0631968430939
 21
568.4352180128642
 31
0.0
  0
LWPOLYLINE
  5
351
330
A
100
AcDbEntity
  8
INDUSA
  6
Continuous
100
AcDbPolyline
 90
        5
 70
   128
 43
0.0
 10
100.4657754519491
 20
568.4352180128642
 10
100.4637333231287
 20
568.4358774382135
 10
100.4611779958128
 20
568.4366919835306
 10
100.4581022386532
 20
568.4376568617275
 10
100.4545203096919
 20
568.4387592029477
  0
LWPOLYLINE
  5
358
330
A
100
AcDbEntity
  8
INDUSA
  6
Continuous
100
AcDbPolyline
 90
        5
 70
   128
 43
0.0
 10
100.0631968430939
 20
568.4352180128642
 10
100.0652389719143
 20
568.4358774382135
 10
100.0677942992302
 20
568.4366919835306
 10
100.0708700563899
 20
568.4376568617275
 10
100.0744519853511
 20
568.4387592029477
  0
LWPOLYLINE
  5
3C6
330
A
100
AcDbEntity
  8
INDUSA
  6
Continuous
100
AcDbPolyline
 90
        5
 70
   128
 43
0.0
 10
100.4545203096919
 20
568.4387592029477
 10
100.4539396087654
 20
568.43893576035
 10
100.4530189601979
 20
568.4392144476492
 10
100.4518270584342
 20
568.4395730105173
 10
100.450672119169
 20
568.4399180520139
  0
LWPOLYLINE
  5
3CD
330
A
100
AcDbEntity
  8
INDUSA
  6
Continuous
100
AcDbPolyline
 90
        5
 70
   128
 43
0.0
 10
100.0744519853511
 20
568.4387592029477
 10
100.0750326862777
 20
568.43893576035
 10
100.0759533348451
 20
568.4392144476492
 10
100.0771452366089
 20
568.4395730105173
 10
100.078300175874
 20
568.4399180520139
  0
ARC
  5
3D4
330
A
100
AcDbEntity
  8
INDUSA
  6
Continuous
100
AcDbCircle
 10
100.2674762213524
 20
567.8246105979528
 30
0.0
 40
0.6420000000000003
100
AcDbArc
 50
73.42011756383803
 51
75.6045048839027
  0
ARC
  5
3D5
330
A
100
AcDbEntity
  8
INDUSA
  6
Continuous
100
AcDbCircle
 10
100.2614960736906
 20
567.8246105979528
 30
0.0
 40
0.642
100
AcDbArc
 50
104.3954951160988
 51
106.5798824361635
  0
LINE
  5
557
330
A
100
AcDbEntity
  8
INDUSA
  6
Continuous
100
AcDbLine
 10
100.2266205639551
 20
568.2430396941506
 30
0.0
 11
100.226355420718
 21
568.2329810025557
 31
0.0
  0
LWPOLYLINE
  5
55F
330
A
100
AcDbEntity
  8
INDUSA
  6
Continuous
100
AcDbPolyline
 90
       12
 70
   128
 43
0.0
 10
100.302616874325
 20
568.230795483097
 10
100.302171457873
 20
568.2257732795135
 10
100.3010998587091
 20
568.2208291937113
 10
100.2994255644732
 20
568.2160978279639
 10
100.2971552338735
 20
568.2116086227069
 10
100.2943143234192
 20
568.2074382493461
 10
100.2909769789626
 20
568.2037004483243
 10
100.2871488058397
 20
568.200404964672
 10
100.2829473905588
 20
568.1976555655534
 10
100.278427570886
 20
568.1954784740534
 10
100.2715723901355
 20
568.193416276156
 10
100.2644861488549
 20
568.1926266663512
  0
LINE
  5
56D
330
A
100
AcDbEntity
  8
INDUSA
  6
Continuous
100
AcDbLine
 10
100.302616874325
 20
568.2329810025557
 30
0.0
 11
100.302616874325
 21
568.2307956687399
 31
0.0
  0
LINE
  5
576
330
A
100
AcDbEntity
  8
INDUSA
  6
Continuous
100
AcDbLine
 10
100.3023517310879
 20
568.2430396941506
 30
0.0
 11
100.302616874325
 21
568.2329810025557
 31
0.0
  0
LINE
  5
57D
330
A
100
AcDbEntity
  8
INDUSA
  6
Continuous
100
AcDbLine
 10
100.226355420718
 20
568.2329810025557
 30
0.0
 11
100.226355420718
 21
568.2307956687399
 31
0.0
  0
LWPOLYLINE
  5
57E
330
A
100
AcDbEntity
  8
INDUSA
  6
Continuous
100
AcDbPolyline
 90
       12
 70
   128
 43
0.0
 10
100.226355420718
 20
568.230795483097
 10
100.22680083717
 20
568.2257732795135
 10
100.2278724363339
 20
568.2208291937113
 10
100.2295467305698
 20
568.2160978279639
 10
100.2318170611695
 20
568.2116086227069
 10
100.2346579716238
 20
568.2074382493461
 10
100.2379953160804
 20
568.2037004483243
 10
100.2418234892033
 20
568.200404964672
 10
100.2460249044842
 20
568.1976555655534
 10
100.250544724157
 20
568.1954784740534
 10
100.2573999049075
 20
568.193416276156
 10
100.2644861461881
 20
568.1926266663512
  0
ARC
  5
5AE
330
A
100
AcDbEntity
  8
INDUSA
  6
Continuous
100
AcDbCircle
 10
100.2654861475215
 20
568.1646171153086
 30
0.0
 40
0.1000000000000003
100
AcDbArc
 50
90.57296734485811
 51
104.0219483290303
  0
ARC
  5
5BC
330
A
100
AcDbEntity
  8
INDUSA
  6
Continuous
100
AcDbCircle
 10
100.2634861475215
 20
568.1646171153086
 30
0.0
 40
0.1000000000000003
100
AcDbArc
 50
75.97805167097115
 51
89.42703265514371
  0
LWPOLYLINE
  5
5BD
330
A
100
AcDbEntity
  8
INDUSA
  6
Continuous
100
AcDbPolyline
 90
        9
 70
   128
 43
0.0
 10
100.2412567905602
 20
568.2616374135005
 10
100.2382048819883
 20
568.2605954878518
 10
100.2353691045774
 20
568.2590604356134
 10
100.2328345044919
 20
568.2570656369215
 10
100.2306681167957
 20
568.2546757747498
 10
100.2289357476725
 20
568.2519614743853
 10
100.2276669857038
 20
568.2490013705421
 10
100.2269233524485
 20
568.2460594637626
 10
100.2266205639551
 20
568.2430396941506
  0
LWPOLYLINE
  5
5C8
330
A
100
AcDbEntity
  8
INDUSA
  6
Continuous
100
AcDbPolyline
 90
        9
 70
   128
 43
0.0
 10
100.2877155044828
 20
568.2616374135005
 10
100.2907674130547
 20
568.2605954878517
 10
100.2936031904657
 20
568.2590604356134
 10
100.2961377905511
 20
568.2570656369215
 10
100.2983041782473
 20
568.2546757747498
 10
100.3000365473706
 20
568.2519614743853
 10
100.3013053093393
 20
568.2490013705421
 10
100.3020489425945
 20
568.2460594637626
 10
100.3023517310879
 20
568.2430396941506
  0
LINE
  5
5D4
330
A
100
AcDbEntity
  8
INDUSA
  6
Continuous
100
AcDbLine
 10
100.1006543929123
 20
568.6936171153085
 30
0.0
 11
100.1007116646854
 21
568.6936171153085
 31
0.0
  0
LINE
  5
5D5
330
A
100
AcDbEntity
  8
INDUSA
  6
Continuous
100
AcDbLine
 10
100.4302606303576
 20
568.6936171153085
 30
0.0
 11
100.4303179021307
 21
568.6936171153085
 31
0.0
  0
LWPOLYLINE
  5
5E2
330
A
100
AcDbEntity
  8
INDUSA
  6
Continuous
100
AcDbPolyline
 90
        5
 70
   128
 43
0.0
 10
100.1007116646854
 20
568.6936171153085
 10
100.0987116789099
 20
568.693415076917
 10
100.0955856208734
 20
568.6922030271907
 10
100.0930371029089
 20
568.6900260107067
 10
100.0926275210752
 20
568.6893216987681
  0
LWPOLYLINE
  5
5E9
330
A
100
AcDbEntity
  8
INDUSA
  6
Continuous
100
AcDbPolyline
 90
        5
 70
   128
 43
0.0
 10
100.4302606303576
 20
568.6936171153085
 10
100.4322606161331
 20
568.693415076917
 10
100.4353866741696
 20
568.6922030271907
 10
100.4379351921341
 20
568.6900260107067
 10
100.439246670728
 20
568.6877708080711
  0
LINE
  5
5F0
330
A
100
AcDbEntity
  8
INDUSA
  6
Continuous
100
AcDbLine
 10
100.1007116646854
 20
568.6936171153085
 30
0.0
 11
100.4302606303576
 21
568.6936171153085
 31
0.0
  0
LWPOLYLINE
  5
5F3
330
A
100
AcDbEntity
  8
INDUSA
  6
Continuous
100
AcDbPolyline
 90
       10
 70
   128
 43
0.0
 10
100.2654861475215
 20
568.5133327730445
 10
100.2838142742062
 20
568.5137125958807
 10
100.3021109730423
 20
568.5148507569163
 10
100.3204711924162
 20
568.5167617627408
 10
100.3387358074981
 20
568.5194363726499
 10
100.3567482562539
 20
568.5228442962853
 10
100.3746042057161
 20
568.5269948939999
 10
100.3923948952053
 20
568.5319181868493
 10
100.4099649230302
 20
568.5375787260595
 10
100.4318597531159
 20
568.5457939290734
  0
LWPOLYLINE
  5
623
330
A
100
AcDbEntity
  8
INDUSA
  6
Continuous
100
AcDbPolyline
 90
       10
 70
   128
 43
0.0
 10
100.2654861475215
 20
568.5133327730445
 10
100.2471580208368
 20
568.5137125958807
 10
100.2288613220007
 20
568.5148507569163
 10
100.2105011026268
 20
568.5167617627408
 10
100.1922364875449
 20
568.5194363726499
 10
100.1742240387891
 20
568.5228442962853
 10
100.156368089327
 20
568.5269948939999
 10
100.1385773998377
 20
568.5319181868493
 10
100.1210073720128
 20
568.5375787260595
 10
100.0991125419272
 20
568.5457939290734
  0
LWPOLYLINE
  5
6A3
330
A
100
AcDbEntity
  8
INDUSA
  6
Continuous
100
AcDbPolyline
 90
       20
 70
   128
 43
0.0
 10
100.2654861475215
 20
568.6313323961423
 10
100.2612899675686
 20
568.6309751714419
 10
100.2572118654892
 20
568.6299234254386
 10
100.2533701165812
 20
568.6281973529514
 10
100.2498697974525
 20
568.6258549507491
 10
100.2468159563357
 20
568.6229546267667
 10
100.2442883164181
 20
568.6195857871937
 10
100.2423665262431
 20
568.6158380536406
 10
100.241096391829
 20
568.6118223867403
 10
100.2405233992867
 20
568.6076497200279
 10
100.2406540408901
 20
568.6034399250559
 10
100.2414945023313
 20
568.5993127920974
 10
100.2430112242906
 20
568.5953835368793
 10
100.2451703702901
 20
568.5917672696225
 10
100.2479021318019
 20
568.5885615769158
 10
100.2511364570378
 20
568.5858638805913
 10
100.2547751581455
 20
568.5837431399737
 10
100.2587199314501
 20
568.5822680575951
 10
100.2628552451284
 20
568.5814712102417
 10
100.2654861475215
 20
568.5813323884056
  0
LWPOLYLINE
  5
6BA
330
A
100
AcDbEntity
  8
INDUSA
  6
Continuous
100
AcDbPolyline
 90
       20
 70
   128
 43
0.0
 10
100.2654861475215
 20
568.6313323961423
 10
100.2696823274744
 20
568.6309751714419
 10
100.2737604295539
 20
568.6299234254386
 10
100.2776021784618
 20
568.6281973529514
 10
100.2811024975905
 20
568.6258549507491
 10
100.2841563387073
 20
568.6229546267667
 10
100.2866839786249
 20
568.6195857871937
 10
100.2886057687999
 20
568.6158380536406
 10
100.289875903214
 20
568.6118223867403
 10
100.2904488957563
 20
568.6076497200279
 10
100.2903182541529
 20
568.6034399250559
 10
100.2894777927117
 20
568.5993127920974
 10
100.2879610707524
 20
568.5953835368793
 10
100.285801924753
 20
568.5917672696225
 10
100.2830701632411
 20
568.5885615769158
 10
100.2798358380052
 20
568.5858638805913
 10
100.2761971368975
 20
568.5837431399737
 10
100.2722523635929
 20
568.5822680575951
 10
100.2681170499146
 20
568.5814712102417
 10
100.2654861475215
 20
568.5813323884056
  0
LWPOLYLINE
  5
717
330
A
100
AcDbEntity
  8
INDUSA
  6
Continuous
100
AcDbPolyline
 90
        5
 70
   128
 43
0.0
 10
100.0991125419272
 20
568.5457939290734
 10
100.0972588991571
 20
568.5467841914856
 10
100.0948357961107
 20
568.5491085823628
 10
100.0933186718563
 20
568.5521040043308
 10
100.0928731249212
 20
568.554888103899
  0
LWPOLYLINE
  5
729
330
A
100
AcDbEntity
  8
INDUSA
  6
Continuous
100
AcDbPolyline
 90
        5
 70
   128
 43
0.0
 10
100.4318597531159
 20
568.5457939290734
 10
100.433713395886
 20
568.5467841914856
 10
100.4361364989323
 20
568.5491085823628
 10
100.4376536231867
 20
568.5521040043308
 10
100.4380991701218
 20
568.554888103899
  0
LINE
  5
73B
330
A
100
AcDbEntity
  8
INDUSA
  6
Continuous
100
AcDbLine
 10
100.4380991701218
 20
568.554888103899
 30
0.0
 11
100.4403107615185
 21
568.6831604045083
 31
0.0
  0
LINE
  5
73C
330
A
100
AcDbEntity
  8
INDUSA
  6
Continuous
100
AcDbLine
 10
100.0928731249212
 20
568.554888103899
 30
0.0
 11
100.0906615335245
 21
568.6831604045083
 31
0.0
  0
LINE
  5
74A
330
A
100
AcDbEntity
  8
INDUSA
  6
Continuous
100
AcDbLine
 10
100.0906615335245
 20
568.6831604045083
 30
0.0
 11
100.0906615335245
 21
568.6831604045083
 31
0.0
  0
LINE
  5
758
330
A
100
AcDbEntity
  8
INDUSA
  6
Continuous
100
AcDbLine
 10
100.4403107615185
 20
568.6831604045083
 30
0.0
 11
100.4403107615185
 21
568.6831604045083
 31
0.0
  0
LWPOLYLINE
  5
7F3
330
A
100
AcDbEntity
  8
INDUSA
  6
Continuous
100
AcDbPolyline
 90
        5
 70
   128
 43
0.0
 10
101.2342497174211
 20
568.1195490745234
 10
101.2342513765781
 20
568.1195895040778
 10
101.2345484600283
 20
568.1213650694224
 10
101.2351342025004
 20
568.1230646020349
 10
101.2355580612776
 20
568.1238356235623
  0
LWPOLYLINE
  5
804
330
A
100
AcDbEntity
  8
INDUSA
  6
Continuous
100
AcDbPolyline
 90
        4
 70
   128
 43
0.0
 10
101.2203890549647
 20
568.2842318536764
 10
101.2187339610187
 20
568.2846175555627
 10
101.2150854444925
 20
568.2857653059565
 10
101.2113857986627
 20
568.2872081638525
  0
LWPOLYLINE
  5
827
330
A
100
AcDbEntity
  8
INDUSA
  6
Continuous
100
AcDbPolyline
 90
        3
 70
   128
 43
0.0
 10
100.8996074392041
 20
568.7342889475671
 10
100.9002571284854
 20
568.68237642418
 10
100.9045564866996
 20
568.3388639544855
  0
LWPOLYLINE
  5
82C
330
A
100
AcDbEntity
  8
INDUSA
  6
Continuous
100
AcDbPolyline
 90
        3
 70
   128
 43
0.0
 10
101.2441960973091
 20
568.3388639540097
 10
101.2448655624157
 20
568.3923514791567
 10
101.2491450705582
 20
568.7342889481564
  0
LINE
  5
831
330
A
100
AcDbEntity
  8
INDUSA
  6
Continuous
100
AcDbLine
 10
101.2436010912217
 20
568.7678637240551
 30
0.0
 11
101.2434462597405
 21
568.767864787961
 31
0.0
  0
LWPOLYLINE
  5
832
330
A
100
AcDbEntity
  8
INDUSA
  6
Continuous
100
AcDbPolyline
 90
       28
 70
   128
 43
0.0
 10
101.2433388121088
 20
568.7678655262743
 10
101.2424925669598
 20
568.7678713411458
 10
101.2411423044653
 20
568.7678809707476
 10
101.239658853419
 20
568.7678918704191
 10
101.2379329000657
 20
568.7679049386491
 10
101.2359028729411
 20
568.767920839517
 10
101.2335687746429
 20
568.767939811628
 10
101.2309306081234
 20
568.767962126156
 10
101.2269400636238
 20
568.7679976173874
 10
101.222408968558
 20
568.7680404431778
 10
101.2176510545112
 20
568.7680883135177
 10
101.2099442284291
 20
568.7681721046373
 10
101.2025648714316
 20
568.7682594314241
 10
101.1948310071717
 20
568.7683582240693
 10
101.186468220227
 20
568.7684731281994
 10
101.1793092022317
 20
568.7685778497782
 10
101.1715100781084
 20
568.7686982438919
 10
101.1631931889556
 20
568.7688333935755
 10
101.1553210710607
 20
568.7689671933723
 10
101.1478261340723
 20
568.7690993330742
 10
101.1399486029478
 20
568.7692425763104
 10
101.1318024521056
 20
568.7693946121347
 10
101.1237393766859
 20
568.7695481183002
 10
101.1150338177247
 20
568.7697161187741
 10
101.1105132862369
 20
568.7698038660583
 10
101.1059512445164
 20
568.7698925183005
 10
101.1013919949876
 20
568.7699810129242
 10
101.1013040093239
 20
568.769982715144
  0
LWPOLYLINE
  5
850
330
A
100
AcDbEntity
  8
INDUSA
  6
Continuous
100
AcDbPolyline
 90
       22
 70
   128
 43
0.0
 10
101.0474462664537
 20
568.7699825545889
 10
101.0431862328794
 20
568.7698999960604
 10
101.0355060253617
 20
568.7697507866768
 10
101.0280930527067
 20
568.7696073467349
 10
101.0211945844676
 20
568.7694751040234
 10
101.0143150543539
 20
568.7693450529916
 10
101.0066905572807
 20
568.7692037502216
 10
100.9968873128587
 20
568.769027571417
 10
100.9865598297808
 20
568.7688500795174
 10
100.9772602695139
 20
568.7686985197209
 10
100.9676301697115
 20
568.7685507888086
 10
100.9568337227374
 20
568.7683973134747
 10
100.9454079670048
 20
568.768249880166
 10
100.934076103864
 20
568.7681197009517
 10
100.9276027274605
 20
568.7680527568422
 10
100.9218263495834
 20
568.7679977518571
 10
100.9168460140339
 20
568.7679539606041
 10
100.9136331757465
 20
568.7679275028183
 10
100.9108681274107
 20
568.7679058700759
 10
100.9085382283119
 20
568.7678884860619
 10
100.9065273005542
 20
568.7678741539412
 10
100.9053735876154
 20
568.7678663890202
  0
LWPOLYLINE
  5
868
330
A
100
AcDbEntity
  8
INDUSA
  6
Continuous
100
AcDbPolyline
 90
       11
 70
   128
 43
0.0
 10
101.2400431839421
 20
568.7277425822966
 10
101.2408101979778
 20
568.7277625341034
 10
101.2421655662989
 20
568.7278129211343
 10
101.2433371131371
 20
568.7278785659536
 10
101.2442994300801
 20
568.7279603130369
 10
101.2450913789492
 20
568.7280742567296
 10
101.2456236418358
 20
568.7282230508466
 10
101.2460983559486
 20
568.728470910163
 10
101.2465053541905
 20
568.7288377293092
 10
101.2468645321681
 20
568.7294505610553
 10
101.2468999534574
 20
568.7295547696875
  0
LWPOLYLINE
  5
875
330
A
100
AcDbEntity
  8
INDUSA
  6
Continuous
100
AcDbPolyline
 90
       12
 70
   128
 43
0.0
 10
100.9018525927912
 20
568.7295547696875
 10
100.9022339667104
 20
568.7288534379605
 10
100.9025863150123
 20
568.7285195979139
 10
100.9029265210208
 20
568.7283113929593
 10
100.9032211424693
 20
568.7281896932969
 10
100.9035497527319
 20
568.7280979945414
 10
100.9040198257795
 20
568.7280137198595
 10
100.9048585009541
 20
568.727921390129
 10
100.9058738241346
 20
568.7278496883974
 10
100.9071616299086
 20
568.7277888780703
 10
100.9085103688711
 20
568.7277472450976
 10
100.9087093623065
 20
568.7277425822966
  0
LINE
  5
883
330
A
100
AcDbEntity
  8
INDUSA
  6
Continuous
100
AcDbLine
 10
101.2468999534574
 20
568.7295547696875
 30
0.0
 11
101.2491115448541
 21
568.7366908905678
 31
0.0
  0
LINE
  5
884
330
A
100
AcDbEntity
  8
INDUSA
  6
Continuous
100
AcDbLine
 10
100.8996410013945
 20
568.7366908905678
 30
0.0
 11
100.9018525927912
 21
568.7295547696875
 31
0.0
  0
LWPOLYLINE
  5
89B
330
A
100
AcDbEntity
  8
INDUSA
  6
Continuous
100
AcDbPolyline
 90
        9
 70
   128
 43
0.0
 10
100.9207397295778
 20
568.2401894028502
 10
100.9394671842442
 20
568.2404587710276
 10
100.9582834840152
 20
568.2406770036161
 10
100.9772262792298
 20
568.240845422312
 10
100.9962335311869
 20
568.2409640971735
 10
101.0154462982342
 20
568.2410339554076
 10
101.0346989320181
 20
568.2410541941537
 10
101.0540305853528
 20
568.241024876906
 10
101.0733762731243
 20
568.240945872141
  0
LWPOLYLINE
  5
8AB
330
A
100
AcDbEntity
  8
INDUSA
  6
Continuous
100
AcDbPolyline
 90
        9
 70
   128
 43
0.0
 10
101.2260128166708
 20
568.2401894028502
 10
101.2072853620044
 20
568.2404587710276
 10
101.1884690622333
 20
568.2406770036161
 10
101.1695262670188
 20
568.240845422312
 10
101.1505190150617
 20
568.2409640971735
 10
101.1313062480144
 20
568.2410339554076
 10
101.1120536142305
 20
568.2410541941537
 10
101.0927219608958
 20
568.241024876906
 10
101.0733762731243
 20
568.240945872141
  0
LINE
  5
8CB
330
A
100
AcDbEntity
  8
INDUSA
  6
Continuous
100
AcDbLine
 10
100.929919046545
 20
568.2824286480967
 30
0.0
 11
101.0733762731243
 21
568.2824286480967
 31
0.0
  0
LINE
  5
8E3
330
A
100
AcDbEntity
  8
INDUSA
  6
Continuous
100
AcDbLine
 10
101.2168334997036
 20
568.2824286480967
 30
0.0
 11
101.0733762731243
 21
568.2824286480967
 31
0.0
  0
LWPOLYLINE
  5
8F2
330
A
100
AcDbEntity
  8
INDUSA
  6
Continuous
100
AcDbPolyline
 90
        3
 70
   128
 43
0.0
 10
101.1577469419872
 20
568.0661945352877
 10
101.1186101195907
 20
568.0661878924606
 10
101.0733762731243
 20
568.0661783485146
  0
LWPOLYLINE
  5
8F8
330
A
100
AcDbEntity
  8
INDUSA
  6
Continuous
100
AcDbPolyline
 90
        3
 70
   128
 43
0.0
 10
100.9890056042614
 20
568.0661945352877
 10
101.0281424266579
 20
568.0661878924606
 10
101.0733762731243
 20
568.0661783485146
  0
LINE
  5
939
330
A
100
AcDbEntity
  8
INDUSA
  6
Continuous
100
AcDbLine
 10
100.9131585143241
 20
568.2419475862658
 30
0.0
 11
100.9218011566754
 21
568.2808999842328
 31
0.0
  0
LINE
  5
948
330
A
100
AcDbEntity
  8
INDUSA
  6
Continuous
100
AcDbLine
 10
101.2335940319245
 20
568.2419475862658
 30
0.0
 11
101.2249513895732
 21
568.2808999842328
 31
0.0
  0
LINE
  5
949
330
A
100
AcDbEntity
  8
INDUSA
  6
Continuous
100
AcDbLine
 10
101.2341014406123
 20
568.2405634668988
 30
0.0
 11
101.2335940319245
 21
568.2419475862658
 31
0.0
  0
LINE
  5
955
330
A
100
AcDbEntity
  8
INDUSA
  6
Continuous
100
AcDbLine
 10
100.9126511056363
 20
568.2405634668988
 30
0.0
 11
100.9131585143241
 21
568.2419475862658
 31
0.0
  0
LWPOLYLINE
  5
96C
330
A
100
AcDbEntity
  8
INDUSA
  6
Continuous
100
AcDbPolyline
 90
        9
 70
   128
 43
0.0
 10
101.2337517274038
 20
568.2345599769487
 10
101.2339951768772
 20
568.2352817086495
 10
101.2341829183401
 20
568.2360204208349
 10
101.234313853152
 20
568.2367717906506
 10
101.2343872150981
 20
568.2375314211707
 10
101.2344025748732
 20
568.238294867129
 10
101.2343598425938
 20
568.2390576609318
 10
101.234259268324
 20
568.2398153388016
 10
101.2341014406123
 20
568.2405634668988
  0
LWPOLYLINE
  5
982
330
A
100
AcDbEntity
  8
INDUSA
  6
Continuous
100
AcDbPolyline
 90
        9
 70
   128
 43
0.0
 10
100.9130008188448
 20
568.2345599769487
 10
100.9127573693714
 20
568.2352817086495
 10
100.9125696279085
 20
568.2360204208349
 10
100.9124386930966
 20
568.2367717906506
 10
100.9123653311505
 20
568.2375314211707
 10
100.9123499713754
 20
568.238294867129
 10
100.9123927036548
 20
568.2390576609318
 10
100.9124932779246
 20
568.2398153388016
 10
100.9126511056363
 20
568.2405634668988
  0
LWPOLYLINE
  5
998
330
A
100
AcDbEntity
  8
INDUSA
  6
Continuous
100
AcDbPolyline
 90
       13
 70
   128
 43
0.0
 10
100.980769290725
 20
568.068489267735
 10
100.9747209989832
 20
568.0802982838803
 10
100.9687560040577
 20
568.0924177308901
 10
100.9628732721842
 20
568.1048566373438
 10
100.9570841610887
 20
568.1175932873363
 10
100.9511894749953
 20
568.1310967595379
 10
100.9454032313416
 20
568.1449097537908
 10
100.9397199390919
 20
568.1590522428028
 10
100.9341538624458
 20
568.173495691613
 10
100.9286799318952
 20
568.1883140702201
 10
100.9233308721191
 20
568.2034252027589
 10
100.9181002296866
 20
568.2188514183551
 10
100.9130008188448
 20
568.2345599769487
  0
LWPOLYLINE
  5
9A7
330
A
100
AcDbEntity
  8
INDUSA
  6
Continuous
100
AcDbPolyline
 90
       13
 70
   128
 43
0.0
 10
101.1659832555236
 20
568.068489267735
 10
101.1720315472654
 20
568.0802982838803
 10
101.1779965421909
 20
568.0924177308901
 10
101.1838792740644
 20
568.1048566373438
 10
101.1896683851599
 20
568.1175932873363
 10
101.1955630712533
 20
568.1310967595379
 10
101.201349314907
 20
568.1449097537908
 10
101.2070326071567
 20
568.1590522428028
 10
101.2125986838028
 20
568.173495691613
 10
101.2180726143534
 20
568.1883140702201
 10
101.2234216741295
 20
568.2034252027589
 10
101.228652316562
 20
568.2188514183551
 10
101.2337517274038
 20
568.2345599769487
  0
LINE
  5
9C1
330
A
100
AcDbEntity
  8
INDUSA
  6
Continuous
100
AcDbLine
 10
101.2752431938517
 20
568.2817979773505
 30
0.0
 11
101.2808315287365
 21
568.2756463419528
 31
0.0
  0
LWPOLYLINE
  5
9C2
330
A
100
AcDbEntity
  8
INDUSA
  6
Continuous
100
AcDbPolyline
 90
        8
 70
   128
 43
0.0
 10
101.2808315287365
 20
568.2756463419528
 10
101.2784667123959
 20
568.2726646264796
 10
101.2757931407797
 20
568.2696501833541
 10
101.2698225822871
 20
568.2638352806614
 10
101.263338690671
 20
568.2584841107338
 10
101.2565743496844
 20
568.2536241511571
 10
101.2454126310835
 20
568.246686966955
 10
101.2341014406123
 20
568.2405634668988
  0
LWPOLYLINE
  5
9D5
330
A
100
AcDbEntity
  8
INDUSA
  6
Continuous
100
AcDbPolyline
 90
        8
 70
   128
 43
0.0
 10
100.8659210175121
 20
568.2756463419528
 10
100.8682858338526
 20
568.2726646264796
 10
100.8709594054689
 20
568.2696501833541
 10
100.8769299639615
 20
568.2638352806614
 10
100.8834138555776
 20
568.2584841107338
 10
100.8901781965642
 20
568.2536241511571
 10
100.9013399151651
 20
568.246686966955
 10
100.9126511056363
 20
568.2405634668988
  0
LINE
  5
9DF
330
A
100
AcDbEntity
  8
INDUSA
  6
Continuous
100
AcDbLine
 10
100.871509352397
 20
568.2817979773505
 30
0.0
 11
100.8659210175121
 21
568.2756463419528
 31
0.0
  0
LWPOLYLINE
  5
9E9
330
A
100
AcDbEntity
  8
INDUSA
  6
Continuous
100
AcDbPolyline
 90
        9
 70
   128
 43
0.0
 10
101.2230213948494
 20
568.2824286480967
 10
101.2233507447273
 20
568.2824009529277
 10
101.2236709732047
 20
568.2823186344429
 10
101.2239732114997
 20
568.2821839724668
 10
101.2242490890717
 20
568.2820006964854
 10
101.2244909654446
 20
568.2817738823581
 10
101.2246921418114
 20
568.2815098117405
 10
101.2248470465587
 20
568.2812157981131
 10
101.2249513895732
 20
568.2808999842328
  0
LINE
  5
9F4
330
A
100
AcDbEntity
  8
INDUSA
  6
Continuous
100
AcDbLine
 10
101.2230213948494
 20
568.2824286480967
 30
0.0
 11
101.2168334997036
 21
568.2824286480967
 31
0.0
  0
LWPOLYLINE
  5
9F5
330
A
100
AcDbEntity
  8
INDUSA
  6
Continuous
100
AcDbPolyline
 90
        9
 70
   128
 43
0.0
 10
100.9237311513992
 20
568.2824286480967
 10
100.9234018015213
 20
568.2824009529277
 10
100.9230815730439
 20
568.2823186344429
 10
100.9227793347489
 20
568.2821839724668
 10
100.9225034571769
 20
568.2820006964854
 10
100.922261580804
 20
568.2817738823581
 10
100.9220604044372
 20
568.2815098117405
 10
100.9219054996899
 20
568.2812157981131
 10
100.9218011566754
 20
568.2808999842328
  0
LINE
  5
A00
330
A
100
AcDbEntity
  8
INDUSA
  6
Continuous
100
AcDbLine
 10
100.9237311513992
 20
568.2824286480967
 30
0.0
 11
100.929919046545
 21
568.2824286480967
 31
0.0
  0
LWPOLYLINE
  5
A01
330
A
100
AcDbEntity
  8
INDUSA
  6
Continuous
100
AcDbPolyline
 90
        4
 70
   128
 43
0.0
 10
101.2808315287365
 20
568.2756463419528
 10
101.2826693607576
 20
568.2728262693712
 10
101.283501705559
 20
568.2695321066995
 10
101.2834794821314
 20
568.26760893002
  0
LWPOLYLINE
  5
A1B
330
A
100
AcDbEntity
  8
INDUSA
  6
Continuous
100
AcDbPolyline
 90
        4
 70
   128
 43
0.0
 10
100.8659210175121
 20
568.2756463419528
 10
100.8640831854909
 20
568.2728262693712
 10
100.8632508406896
 20
568.2695321066995
 10
100.8632730641172
 20
568.26760893002
  0
LINE
  5
A21
330
A
100
AcDbEntity
  8
INDUSA
  6
Continuous
100
AcDbLine
 10
100.9817314547732
 20
568.0667146276596
 30
0.0
 11
100.980769290725
 21
568.068489267735
 31
0.0
  0
LWPOLYLINE
  5
A22
330
A
100
AcDbEntity
  8
INDUSA
  6
Continuous
100
AcDbPolyline
 90
        4
 70
   128
 43
0.0
 10
100.9110722449312
 20
568.1241523967427
 10
100.9294834966565
 20
568.1091835303171
 10
100.9483469137284
 20
568.0938480825723
 10
100.9817314547732
 20
568.0667146276596
  0
LWPOLYLINE
  5
A28
330
A
100
AcDbEntity
  8
INDUSA
  6
Continuous
100
AcDbPolyline
 90
        9
 70
   128
 43
0.0
 10
100.8632730641172
 20
568.26760893002
 10
100.865726386417
 20
568.2492390709005
 10
100.8691372152773
 20
568.2310385749681
 10
100.8735528369986
 20
568.2128439917984
 10
100.8789130861895
 20
568.194927174215
 10
100.8854538393585
 20
568.1766816729974
 10
100.892970008732
 20
568.1588400193233
 10
100.9015477384179
 20
568.1412406645762
 10
100.9110722449312
 20
568.1241523967427
  0
LWPOLYLINE
  5
A33
330
A
100
AcDbEntity
  8
INDUSA
  6
Continuous
100
AcDbPolyline
 90
        9
 70
   128
 43
0.0
 10
101.2834794821314
 20
568.26760893002
 10
101.2810261598316
 20
568.2492390709005
 10
101.2776153309713
 20
568.2310385749681
 10
101.27319970925
 20
568.2128439917984
 10
101.2678394600591
 20
568.194927174215
 10
101.2612987068901
 20
568.1766816729974
 10
101.2537825375166
 20
568.1588400193233
 10
101.2452048078307
 20
568.1412406645762
 10
101.2356803013174
 20
568.1241523967427
  0
LWPOLYLINE
  5
A3E
330
A
100
AcDbEntity
  8
INDUSA
  6
Continuous
100
AcDbPolyline
 90
        4
 70
   128
 43
0.0
 10
101.2356803013174
 20
568.1241523967427
 10
101.2172690495921
 20
568.1091835303171
 10
101.1984056325202
 20
568.0938480825723
 10
101.1650210914754
 20
568.0667146276596
  0
LINE
  5
A44
330
A
100
AcDbEntity
  8
INDUSA
  6
Continuous
100
AcDbLine
 10
101.1650210914754
 20
568.0667146276596
 30
0.0
 11
101.1659832555236
 21
568.068489267735
 31
0.0
  0
LWPOLYLINE
  5
A45
330
A
100
AcDbEntity
  8
INDUSA
  6
Continuous
100
AcDbPolyline
 90
        9
 70
   128
 43
0.0
 10
101.2737964327953
 20
568.2824286480967
 10
101.2739987098881
 20
568.2824182364881
 10
101.2741988809511
 20
568.2823871100639
 10
101.2743948618813
 20
568.2823355929001
 10
101.2745846122021
 20
568.2822642213734
 10
101.2747661563074
 20
568.2821737385761
 10
101.2749376040311
 20
568.2820650865798
 10
101.2750971703264
 20
568.2819393966264
 10
101.2752431938516
 20
568.2817979773505
  0
LINE
  5
A50
330
A
100
AcDbEntity
  8
INDUSA
  6
Continuous
100
AcDbLine
 10
101.2737964327953
 20
568.2824286480967
 30
0.0
 11
101.2230213948494
 21
568.2824286480967
 31
0.0
  0
LWPOLYLINE
  5
A51
330
A
100
AcDbEntity
  8
INDUSA
  6
Continuous
100
AcDbPolyline
 90
        9
 70
   128
 43
0.0
 10
100.8729561134533
 20
568.2824286480967
 10
100.8727538363605
 20
568.2824182364881
 10
100.8725536652975
 20
568.2823871100639
 10
100.8723576843673
 20
568.2823355929001
 10
100.8721679340465
 20
568.2822642213734
 10
100.8719863899412
 20
568.2821737385761
 10
100.8718149422175
 20
568.2820650865798
 10
100.8716553759222
 20
568.2819393966264
 10
100.871509352397
 20
568.2817979773505
  0
LINE
  5
A5C
330
A
100
AcDbEntity
  8
INDUSA
  6
Continuous
100
AcDbLine
 10
100.8729561134533
 20
568.2824286480967
 30
0.0
 11
100.9237311513992
 21
568.2824286480967
 31
0.0
  0
LWPOLYLINE
  5
A90
330
A
100
AcDbEntity
  8
INDUSA
  6
Continuous
100
AcDbPolyline
 90
        4
 70
   128
 43
0.0
 10
100.9825729351569
 20
568.0620260465912
 10
100.9824879033933
 20
568.0638375196569
 10
100.9822186100097
 20
568.0653353531235
 10
100.9817314547732
 20
568.0667146276596
  0
LWPOLYLINE
  5
AA1
330
A
100
AcDbEntity
  8
INDUSA
  6
Continuous
100
AcDbPolyline
 90
        4
 70
   128
 43
0.0
 10
101.1641796110917
 20
568.0620260465912
 10
101.1642646428553
 20
568.0638375196569
 10
101.1645339362389
 20
568.0653353531235
 10
101.1650210914754
 20
568.0667146276596
  0
LINE
  5
AB2
330
A
100
AcDbEntity
  8
INDUSA
  6
Continuous
100
AcDbLine
 10
101.1641645973208
 20
568.0592361760396
 30
0.0
 11
101.1641796110917
 21
568.0620260465912
 31
0.0
  0
LINE
  5
ABE
330
A
100
AcDbEntity
  8
INDUSA
  6
Continuous
100
AcDbLine
 10
100.9825879489279
 20
568.0592361760396
 30
0.0
 11
100.9825729351569
 21
568.0620260465912
 31
0.0
  0
LWPOLYLINE
  5
AEB
330
A
100
AcDbEntity
  8
INDUSA
  6
Continuous
100
AcDbPolyline
 90
        7
 70
   128
 43
0.0
 10
100.992530633857
 20
567.87474091418
 10
100.9901113594842
 20
567.9052581151428
 10
100.9879888407946
 20
567.9359408938051
 10
100.9861796771241
 20
567.966571479383
 10
100.9846740965287
 20
567.9973305200349
 10
100.9834750273066
 20
568.0282375537209
 10
100.9825879489278
 20
568.0592361760396
  0
LWPOLYLINE
  5
AFC
330
A
100
AcDbEntity
  8
INDUSA
  6
Continuous
100
AcDbPolyline
 90
        7
 70
   128
 43
0.0
 10
101.1542219123916
 20
567.87474091418
 10
101.1566411867644
 20
567.9052581151428
 10
101.158763705454
 20
567.9359408938051
 10
101.1605728691244
 20
567.966571479383
 10
101.1620784497199
 20
567.9973305200349
 10
101.163277518942
 20
568.0282375537209
 10
101.1641645973208
 20
568.0592361760396
  0
LWPOLYLINE
  5
B05
330
A
100
AcDbEntity
  8
INDUSA
  6
Continuous
100
AcDbPolyline
 90
        3
 70
   128
 43
0.0
 10
101.2356803013174
 20
568.1241523967427
 10
101.2343937486761
 20
568.1208782111403
 10
101.2341933506006
 20
568.1195428909413
  0
LWPOLYLINE
  5
B16
330
A
100
AcDbEntity
  8
INDUSA
  6
Continuous
100
AcDbPolyline
 90
        3
 70
   128
 43
0.0
 10
100.9110722449312
 20
568.1241523967427
 10
100.9123587975725
 20
568.1208782111403
 10
100.912559195648
 20
568.1195428909413
  0
LWPOLYLINE
  5
B1B
330
A
100
AcDbEntity
  8
INDUSA
  6
Continuous
100
AcDbPolyline
 90
        5
 70
   128
 43
0.0
 10
101.2341933506006
 20
568.1195428909413
 10
101.2287564644337
 20
568.0565511729123
 10
101.2223088572546
 20
567.9936590331501
 10
101.2152600429386
 20
567.9341378599421
 10
101.2072946865495
 20
567.8747207626328
  0
LWPOLYLINE
  5
B30
330
A
100
AcDbEntity
  8
INDUSA
  6
Continuous
100
AcDbPolyline
 90
        5
 70
   128
 43
0.0
 10
100.912559195648
 20
568.1195428909413
 10
100.9179960818149
 20
568.0565511729123
 10
100.924443688994
 20
567.9936590331501
 10
100.93149250331
 20
567.9341378599421
 10
100.939457859699
 20
567.8747207626328
  0
LINE
  5
B38
330
A
100
AcDbEntity
  8
INDUSA
  6
Continuous
100
AcDbLine
 10
101.0021880891301
 20
567.8738641993203
 30
0.0
 11
100.9935021718238
 21
567.8738641993203
 31
0.0
  0
LWPOLYLINE
  5
B39
330
A
100
AcDbEntity
  8
INDUSA
  6
Continuous
100
AcDbPolyline
 90
        9
 70
   128
 43
0.0
 10
100.992530633857
 20
567.87474091418
 10
100.9925682023186
 20
567.8745643838761
 10
100.992636251358
 20
567.8743976382041
 10
100.9927325601597
 20
567.8742461189957
 10
100.992853985636
 20
567.8741147711583
 10
100.9929965650039
 20
567.8740078812965
 10
100.9931556451118
 20
567.8739289378162
 10
100.9933260342982
 20
567.8738805170789
 10
100.9935021718238
 20
567.8738641993203
  0
LINE
  5
B44
330
A
100
AcDbEntity
  8
INDUSA
  6
Continuous
100
AcDbLine
 10
101.1445644571185
 20
567.8738641993203
 30
0.0
 11
101.1532503744248
 21
567.8738641993203
 31
0.0
  0
LWPOLYLINE
  5
B46
330
A
100
AcDbEntity
  8
INDUSA
  6
Continuous
100
AcDbPolyline
 90
        9
 70
   128
 43
0.0
 10
101.1542219123916
 20
567.87474091418
 10
101.15418434393
 20
567.8745643838761
 10
101.1541162948906
 20
567.8743976382041
 10
101.1540199860889
 20
567.8742461189957
 10
101.1538985606126
 20
567.8741147711583
 10
101.1537559812447
 20
567.8740078812965
 10
101.1535969011368
 20
567.8739289378162
 10
101.1534265119504
 20
567.8738805170789
 10
101.1532503744248
 20
567.8738641993203
  0
LINE
  5
B51
330
A
100
AcDbEntity
  8
INDUSA
  6
Continuous
100
AcDbLine
 10
101.0733762731243
 20
567.8738641993203
 30
0.0
 11
101.1445644571185
 21
567.8738641993203
 31
0.0
  0
LINE
  5
B53
330
A
100
AcDbEntity
  8
INDUSA
  6
Continuous
100
AcDbLine
 10
101.0733762731243
 20
567.8738641993203
 30
0.0
 11
101.0021880891301
 21
567.8738641993203
 31
0.0
  0
LWPOLYLINE
  5
B54
330
A
100
AcDbEntity
  8
INDUSA
  6
Continuous
100
AcDbPolyline
 90
        9
 70
   128
 43
0.0
 10
100.939457859699
 20
567.8747207626328
 10
100.9394981439607
 20
567.8745474588489
 10
100.9395678907897
 20
567.8743842043844
 10
100.9396648873076
 20
567.8742361788622
 10
100.939786056077
 20
567.8741080787322
 10
100.9399275527402
 20
567.8740039682653
 10
100.9400848879905
 20
567.8739271506055
 10
100.9402530700056
 20
567.8738800629693
 10
100.9404267628244
 20
567.8738641993203
  0
LINE
  5
B5F
330
A
100
AcDbEntity
  8
INDUSA
  6
Continuous
100
AcDbLine
 10
100.9935021718238
 20
567.8738641993203
 30
0.0
 11
100.9404267628244
 21
567.8738641993203
 31
0.0
  0
LINE
  5
B60
330
A
100
AcDbEntity
  8
INDUSA
  6
Continuous
100
AcDbLine
 10
101.1532503744248
 20
567.8738641993203
 30
0.0
 11
101.2063260772128
 21
567.8738641993203
 31
0.0
  0
LINE
  5
B65
330
A
100
AcDbEntity
  8
INDUSA
  6
Continuous
100
AcDbLine
 10
101.2203890549647
 20
568.2842318536764
 30
0.0
 11
101.2248348246412
 21
568.2832718448005
 31
0.0
  0
LWPOLYLINE
  5
B66
330
A
100
AcDbEntity
  8
INDUSA
  6
Continuous
100
AcDbPolyline
 90
       11
 70
   128
 43
0.0
 10
101.2324665212478
 20
568.2826134549135
 10
101.2211876074274
 20
568.2835864918644
 10
101.2144536873994
 20
568.2841442576971
 10
101.2008974030687
 20
568.2852112519005
 10
101.1872480742471
 20
568.2862081352857
 10
101.1735185813634
 20
568.2871312367383
 10
101.159726150815
 20
568.2879776165669
 10
101.1319999579782
 20
568.289432236494
 10
101.1124977926018
 20
568.2902580536421
 10
101.0929464930904
 20
568.290923717725
 10
101.0733762731243
 20
568.2914285417792
  0
LWPOLYLINE
  5
B73
330
A
100
AcDbEntity
  8
INDUSA
  6
Continuous
100
AcDbPolyline
 90
       11
 70
   128
 43
0.0
 10
100.9142860250008
 20
568.2826134549135
 10
100.9255649388212
 20
568.2835864918644
 10
100.9322988588491
 20
568.2841442576971
 10
100.9458551431799
 20
568.2852112519005
 10
100.9595044720015
 20
568.2862081352857
 10
100.9732339648852
 20
568.2871312367383
 10
100.9870263954336
 20
568.2879776165669
 10
101.0147525882704
 20
568.289432236494
 10
101.0342547536468
 20
568.2902580536421
 10
101.0538060531582
 20
568.290923717725
 10
101.0733762731243
 20
568.2914285417792
  0
LINE
  5
B80
330
A
100
AcDbEntity
  8
INDUSA
  6
Continuous
100
AcDbLine
 10
100.926364339889
 20
568.2842320369221
 30
0.0
 11
100.9219177216074
 21
568.2832718448005
 31
0.0
  0
LINE
  5
BE9
330
A
100
AcDbEntity
  8
INDUSA
  6
Continuous
100
AcDbLine
 10
101.2063260772128
 20
567.8738641993203
 30
0.0
 11
101.2063260772128
 21
567.8738641993203
 31
0.0
  0
LINE
  5
BEA
330
A
100
AcDbEntity
  8
INDUSA
  6
Continuous
100
AcDbLine
 10
100.9118939637853
 20
568.3388641993203
 30
0.0
 11
101.0740262731243
 21
568.3388641993203
 31
0.0
  0
LINE
  5
BEB
330
A
100
AcDbEntity
  8
INDUSA
  6
Continuous
100
AcDbLine
 10
101.0747262731243
 20
568.3388641993203
 30
0.0
 11
101.2368585824633
 21
568.3388641993203
 31
0.0
  0
LWPOLYLINE
  5
C13
330
A
100
AcDbEntity
  8
INDUSA
  6
Continuous
100
AcDbPolyline
 90
       12
 70
   128
 43
0.0
 10
100.9448780784408
 20
568.2918557152698
 10
100.9507275837568
 20
568.2918564734276
 10
100.9742633581892
 20
568.2918591554478
 10
100.9980744943415
 20
568.2918612776961
 10
101.0220442397742
 20
568.2918628266613
 10
101.0461079091069
 20
568.2918637988112
 10
101.0702008169592
 20
568.2918641906135
 10
101.0971279947372
 20
568.2918639373873
 10
101.124049039797
 20
568.2918629572953
 10
101.1508738610525
 20
568.2918612562822
 10
101.1775123674181
 20
568.291858840292
 10
101.2038744678078
 20
568.2918557152698
  0
LINE
  5
C43
330
A
100
AcDbEntity
  8
INDUSA
  6
Continuous
100
AcDbLine
 10
101.2295190096879
 20
567.8738641993203
 30
0.0
 11
101.2115146476019
 21
567.8738641993203
 31
0.0
  0
LINE
  5
C61
330
A
100
AcDbEntity
  8
INDUSA
  6
Continuous
100
AcDbLine
 10
100.9372378986467
 20
567.8738641993203
 30
0.0
 11
100.9192335365607
 21
567.8738641993203
 31
0.0
  0
LINE
  5
C77
330
A
100
AcDbEntity
  8
INDUSA
  6
Continuous
100
AcDbLine
 10
101.2115146476019
 20
567.8738641993203
 30
0.0
 11
101.2093998096989
 21
567.8738641993203
 31
0.0
  0
LINE
  5
C78
330
A
100
AcDbEntity
  8
INDUSA
  6
Continuous
100
AcDbLine
 10
100.9393527365497
 20
567.8738641993203
 30
0.0
 11
100.9372378986467
 21
567.8738641993203
 31
0.0
  0
LINE
  5
C79
330
A
100
AcDbEntity
  8
INDUSA
  6
Continuous
100
AcDbLine
 10
101.2093998096989
 20
567.8738641993203
 30
0.0
 11
101.2063260772128
 21
567.8738641993203
 31
0.0
  0
LINE
  5
C7A
330
A
100
AcDbEntity
  8
INDUSA
  6
Continuous
100
AcDbLine
 10
100.9404267628244
 20
567.8738641993203
 30
0.0
 11
100.9393527365497
 21
567.8738641993203
 31
0.0
  0
LWPOLYLINE
  5
CD3
330
A
100
AcDbEntity
  8
INDUSA
  6
Continuous
100
AcDbPolyline
 90
        9
 70
   128
 43
0.0
 10
100.9168832281925
 20
567.8738641993203
 10
100.9159178066621
 20
567.873958316708
 10
100.9149887303127
 20
567.8742371256379
 10
100.9141309760398
 20
567.8746901298029
 10
100.91337683568
 20
567.8753002749755
 10
100.9127547003217
 20
567.8760445910477
 10
100.9122879914665
 20
567.8768950567858
 10
100.9119942792819
 20
567.8778196547445
 10
100.9118846211373
 20
567.8787835766258
  0
LINE
  5
CDF
330
A
100
AcDbEntity
  8
INDUSA
  6
Continuous
100
AcDbLine
 10
100.9192335365607
 20
567.8738641993203
 30
0.0
 11
100.9168832281925
 21
567.8738641993203
 31
0.0
  0
LINE
  5
CE1
330
A
100
AcDbEntity
  8
INDUSA
  6
Continuous
100
AcDbLine
 10
100.9045459114599
 20
568.3337835766259
 30
0.0
 11
100.9053742167588
 21
568.2824286480967
 31
0.0
  0
LINE
  5
CE2
330
A
100
AcDbEntity
  8
INDUSA
  6
Continuous
100
AcDbLine
 10
100.9078333328878
 20
568.1299634480985
 30
0.0
 11
100.9118846211373
 21
567.8787835766258
 31
0.0
  0
LINE
  5
CE4
330
A
100
AcDbEntity
  8
INDUSA
  6
Continuous
100
AcDbLine
 10
101.2368679251113
 20
567.8787835766258
 30
0.0
 11
101.2409788134305
 21
568.1336586524191
 31
0.0
  0
LINE
  5
CE5
330
A
100
AcDbEntity
  8
INDUSA
  6
Continuous
100
AcDbLine
 10
101.2433783294898
 20
568.2824286480967
 30
0.0
 11
101.2442066347887
 21
568.3337835766259
 31
0.0
  0
LWPOLYLINE
  5
CE7
330
A
100
AcDbEntity
  8
INDUSA
  6
Continuous
100
AcDbPolyline
 90
        9
 70
   128
 43
0.0
 10
101.2368679251113
 20
567.8787835766258
 10
101.2367582669666
 20
567.8778196547445
 10
101.2364645547821
 20
567.8768950567858
 10
101.235997845927
 20
567.8760445910477
 10
101.2353757105686
 20
567.8753002749755
 10
101.2346215702088
 20
567.8746901298029
 10
101.2337638159359
 20
567.8742371256379
 10
101.2328347395865
 20
567.873958316708
 10
101.2318693180561
 20
567.8738641993203
  0
LINE
  5
CF2
330
A
100
AcDbEntity
  8
INDUSA
  6
Continuous
100
AcDbLine
 10
101.2318693180561
 20
567.8738641993203
 30
0.0
 11
101.2295190096879
 21
567.8738641993203
 31
0.0
  0
LWPOLYLINE
  5
CF3
330
A
100
AcDbEntity
  8
INDUSA
  6
Continuous
100
AcDbPolyline
 90
        8
 70
   128
 43
0.0
 10
100.9045459114599
 20
568.3337835766259
 10
100.9046280481772
 20
568.3347703637747
 10
100.9049030083347
 20
568.3357216112506
 10
100.9053600080244
 20
568.3366000112295
 10
100.9059811237674
 20
568.3373711129583
 10
100.9067419954708
 20
568.3380046739097
 10
100.907612781828
 20
568.3384758458912
 10
100.9087658691531
 20
568.3388641993203
  0
LWPOLYLINE
  5
CFD
330
A
100
AcDbEntity
  8
INDUSA
  6
Continuous
100
AcDbPolyline
 90
        8
 70
   128
 43
0.0
 10
101.2442066347887
 20
568.3337835766259
 10
101.2441244980714
 20
568.3347703637747
 10
101.2438495379139
 20
568.3357216112506
 10
101.2433925382242
 20
568.3366000112295
 10
101.2427714224812
 20
568.3373711129583
 10
101.2420105507777
 20
568.3380046739097
 10
101.2411397644207
 20
568.3384758458912
 10
101.2399866770955
 20
568.3388641993203
  0
LINE
  5
D70
330
A
100
AcDbEntity
  8
INDUSA
  6
Continuous
100
AcDbLine
 10
101.2403308637302
 20
568.3388641993203
 30
0.0
 11
101.0743762731243
 21
568.3388641993203
 31
0.0
  0
LINE
  5
D84
330
A
100
AcDbEntity
  8
INDUSA
  6
Continuous
100
AcDbLine
 10
100.9084216825184
 20
568.3388641993203
 30
0.0
 11
101.0743762731243
 21
568.3388641993203
 31
0.0
  0
LWPOLYLINE
  5
D90
330
A
100
AcDbEntity
  8
INDUSA
  6
Continuous
100
AcDbPolyline
 90
        9
 70
   128
 43
0.0
 10
101.2455260063174
 20
568.7281957568325
 10
101.2460398934334
 20
568.7281443216017
 10
101.246228725413
 20
568.7280864781119
 10
101.2464025282853
 20
568.727992714613
 10
101.2465545231443
 20
568.7278666882018
 10
101.2466787816715
 20
568.7277133143389
 10
101.2467704573596
 20
568.727538575129
 10
101.2468259745437
 20
568.7273492859982
 10
101.2468431678639
 20
568.7271528298692
  0
LWPOLYLINE
  5
DA9
330
A
100
AcDbEntity
  8
INDUSA
  6
Continuous
100
AcDbPolyline
 90
        9
 70
   128
 43
0.0
 10
100.9032103791963
 20
568.728194139296
 10
100.9027126528152
 20
568.7281443216017
 10
100.9025238208356
 20
568.7280864781119
 10
100.9023500179633
 20
568.727992714613
 10
100.9021980231042
 20
568.7278666882018
 10
100.9020737645771
 20
568.7277133143389
 10
100.901982088889
 20
568.727538575129
 10
100.9019265717049
 20
568.7273492859982
 10
100.9019093783847
 20
568.7271528298692
  0
LWPOLYLINE
  5
DB4
330
A
100
AcDbEntity
  8
INDUSA
  6
Continuous
100
AcDbPolyline
 90
        4
 70
   128
 43
0.0
 10
101.2468431678639
 20
568.7271528298692
 10
101.2450467791087
 20
568.5831679160791
 10
101.2435229076188
 20
568.4610160387283
 10
101.2419991555528
 20
568.3388641993203
  0
LINE
  5
DBA
330
A
100
AcDbEntity
  8
INDUSA
  6
Continuous
100
AcDbLine
 10
101.2419991555528
 20
568.3388641993203
 30
0.0
 11
101.2403308637302
 21
568.3388641993203
 31
0.0
  0
LWPOLYLINE
  5
DBB
330
A
100
AcDbEntity
  8
INDUSA
  6
Continuous
100
AcDbPolyline
 90
        4
 70
   128
 43
0.0
 10
100.9019093783847
 20
568.7271528298692
 10
100.9037057671399
 20
568.5831679160791
 10
100.9052296386298
 20
568.4610160387283
 10
100.9067533906959
 20
568.3388641993203
  0
LINE
  5
DC1
330
A
100
AcDbEntity
  8
INDUSA
  6
Continuous
100
AcDbLine
 10
100.9067533906959
 20
568.3388641993203
 30
0.0
 11
100.9084216825184
 21
568.3388641993203
 31
0.0
  0
LWPOLYLINE
  5
DC2
330
A
100
AcDbEntity
  8
INDUSA
  6
Continuous
100
AcDbPolyline
 90
        7
 70
   128
 43
0.0
 10
101.2486373632439
 20
568.7351608532858
 10
101.2487028201234
 20
568.7351202738897
 10
101.2488548073318
 20
568.7349942753276
 10
101.2489790674338
 20
568.7348409331904
 10
101.24907075502
 20
568.7346662269151
 10
101.2491262948169
 20
568.7344769690134
 10
101.2491435211005
 20
568.7342805394243
  0
LWPOLYLINE
  5
DDB
330
A
100
AcDbEntity
  8
INDUSA
  6
Continuous
100
AcDbPolyline
 90
        7
 70
   128
 43
0.0
 10
100.9001151830047
 20
568.7351608532858
 10
100.9000497261252
 20
568.7351202738897
 10
100.8998977389168
 20
568.7349942753276
 10
100.8997734788148
 20
568.7348409331904
 10
100.8996817912285
 20
568.7346662269151
 10
100.8996262514317
 20
568.7344769690134
 10
100.8996090251481
 20
568.7342805394243
  0
LINE
  5
DEB
330
A
100
AcDbEntity
  8
INDUSA
  6
Continuous
100
AcDbLine
 10
101.2419991555528
 20
568.3388641993203
 30
0.0
 11
101.2441945136781
 21
568.3388641993203
 31
0.0
  0
LINE
  5
DF3
330
A
100
AcDbEntity
  8
INDUSA
  6
Continuous
100
AcDbLine
 10
100.9067533906959
 20
568.3388641993203
 30
0.0
 11
100.9045580325705
 21
568.3388641993203
 31
0.0
  0
LINE
  5
DF4
330
A
100
AcDbEntity
  8
INDUSA
  6
Continuous
100
AcDbLine
 10
100.9045760486435
 20
568.3388641993203
 30
0.0
 11
100.9045580325705
 21
568.3388641993203
 31
0.0
  0
LINE
  5
DF5
330
A
100
AcDbEntity
  8
INDUSA
  6
Continuous
100
AcDbLine
 10
101.2441764979943
 20
568.3388641993203
 30
0.0
 11
101.2441945136781
 21
568.3388641993203
 31
0.0
  0
LWPOLYLINE
  5
DF6
330
A
100
AcDbEntity
  8
INDUSA
  6
Continuous
100
AcDbPolyline
 90
       10
 70
   128
 43
0.0
 10
101.0743762731243
 20
568.7703006476372
 10
101.0789072053466
 20
568.7702276427306
 10
101.0833113486996
 20
568.7701657178942
 10
101.08746091185
 20
568.7701149980455
 10
101.0912427977349
 20
568.7700744532269
 10
101.0945457486674
 20
568.7700429679039
 10
101.0972813449825
 20
568.7700191042438
 10
101.0993650586927
 20
568.7700015786823
 10
101.1007450406755
 20
568.7699892585198
 10
101.1013039981665
 20
568.7699821392931
  0
LWPOLYLINE
  5
E02
330
A
100
AcDbEntity
  8
INDUSA
  6
Continuous
100
AcDbPolyline
 90
        4
 70
   128
 43
0.0
 10
101.2442100466315
 20
568.7678461190018
 10
101.2440450997037
 20
568.7678524222191
 10
101.2433734779631
 20
568.7678662908678
 10
101.2420545407776
 20
568.7678372002631
  0
LWPOLYLINE
  5
E08
330
A
100
AcDbEntity
  8
INDUSA
  6
Continuous
100
AcDbPolyline
 90
        5
 70
   128
 43
0.0
 10
101.2419995155555
 20
568.7678359866215
 10
101.2417757616776
 20
568.7678350909485
 10
101.2410165174141
 20
568.7678347878137
 10
101.2398048949255
 20
568.7678352607348
 10
101.2388783533044
 20
568.7678360206706
  0
LWPOLYLINE
  5
E28
330
A
100
AcDbEntity
  8
INDUSA
  6
Continuous
100
AcDbPolyline
 90
        5
 70
   128
 43
0.0
 10
100.906753030693
 20
568.7678359866215
 10
100.906976784571
 20
568.7678350909485
 10
100.9077360288344
 20
568.7678347878137
 10
100.9089476513231
 20
568.7678352607348
 10
100.9098741929442
 20
568.7678360206706
  0
LWPOLYLINE
  5
E2F
330
A
100
AcDbEntity
  8
INDUSA
  6
Continuous
100
AcDbPolyline
 90
        4
 70
   128
 43
0.0
 10
100.9045424996171
 20
568.7678461190018
 10
100.9047074465449
 20
568.7678524222191
 10
100.9053790682855
 20
568.7678662908678
 10
100.9066751213133
 20
568.7678377049983
  0
LWPOLYLINE
  5
E35
330
A
100
AcDbEntity
  8
INDUSA
  6
Continuous
100
AcDbPolyline
 90
       10
 70
   128
 43
0.0
 10
101.0743762731243
 20
568.7703006476372
 10
101.069845340902
 20
568.7702276427306
 10
101.065441197549
 20
568.7701657178942
 10
101.0612916343986
 20
568.7701149980455
 10
101.0575097485137
 20
568.7700744532269
 10
101.0542067975812
 20
568.7700429679039
 10
101.0514712012661
 20
568.7700191042438
 10
101.049387487556
 20
568.7700015786823
 10
101.0480075055731
 20
568.7699892585198
 10
101.0474462750847
 20
568.7699821103429
  0
LWPOLYLINE
  5
EA6
330
A
100
AcDbEntity
  8
INDUSA
  6
Continuous
100
AcDbPolyline
 90
       28
 70
   128
 43
0.0
 10
101.2399980593188
 20
568.7277451610191
 10
101.2282773300723
 20
568.7274914237922
 10
101.2164311946159
 20
568.7272564013176
 10
101.2044693057678
 20
568.7270402851034
 10
101.1924014106681
 20
568.7268432512517
 10
101.1802373428359
 20
568.7266654603157
 10
101.1679870141566
 20
568.726507057168
 10
101.1556604068052
 20
568.7263681708834
 10
101.1432675651125
 20
568.7262489146333
 10
101.1308185873802
 20
568.7261493855938
 10
101.1183236176524
 20
568.726069664866
 10
101.1057928374499
 20
568.7260098174101
 10
101.0932364574734
 20
568.7259698919929
 10
101.0806647092838
 20
568.7259499211478
 10
101.0680878369648
 20
568.7259499211478
 10
101.0555160887752
 20
568.7259698919929
 10
101.0429597087987
 20
568.7260098174101
 10
101.0304289285961
 20
568.726069664866
 10
101.0179339588684
 20
568.7261493855938
 10
101.0054849811361
 20
568.7262489146333
 10
100.9930921394434
 20
568.7263681708834
 10
100.980765532092
 20
568.726507057168
 10
100.9685152034127
 20
568.7266654603157
 10
100.9563511355805
 20
568.7268432512517
 10
100.9442832404808
 20
568.7270402851034
 10
100.9323213516327
 20
568.7272564013176
 10
100.9204752161763
 20
568.7274914237922
 10
100.9087544869298
 20
568.7277451610191
  0
LWPOLYLINE
  5
ECB
330
A
100
AcDbEntity
  8
INDUSA
  6
Continuous
100
AcDbPolyline
 90
        9
 70
   128
 43
0.0
 10
101.2469892957246
 20
568.7628359912777
 10
101.2468934556033
 20
568.7638102721315
 10
101.2466096362975
 20
568.7647472028425
 10
101.2461487184083
 20
568.7656108648922
 10
101.2455283718523
 20
568.7663681486159
 10
101.2447723784623
 20
568.7669900225079
 10
101.2439097202776
 20
568.7674526461828
 10
101.2429734684781
 20
568.7677382843302
 10
101.2419995155555
 20
568.7678359866215
  0
LWPOLYLINE
  5
EDD
330
A
100
AcDbEntity
  8
INDUSA
  6
Continuous
100
AcDbPolyline
 90
        9
 70
   128
 43
0.0
 10
100.901763250524
 20
568.7628359912777
 10
100.9018590906453
 20
568.7638102721315
 10
100.902142909951
 20
568.7647472028425
 10
100.9026038278403
 20
568.7656108648922
 10
100.9032241743963
 20
568.7663681486159
 10
100.9039801677863
 20
568.7669900225079
 10
100.904842825971
 20
568.7674526461828
 10
100.9057790777705
 20
568.7677382843302
 10
100.906753030693
 20
568.7678359866215
  0
LINE
  5
EE8
330
A
100
AcDbEntity
  8
INDUSA
  6
Continuous
100
AcDbLine
 10
101.2469892957246
 20
568.7301468166509
 30
0.0
 11
101.2469892957246
 21
568.7628359912777
 31
0.0
  0
LINE
  5
EFB
330
A
100
AcDbEntity
  8
INDUSA
  6
Continuous
100
AcDbLine
 10
100.901763250524
 20
568.7301468166509
 30
0.0
 11
100.901763250524
 21
568.7628359912777
 31
0.0
  0
LWPOLYLINE
  5
F01
330
A
100
AcDbEntity
  8
INDUSA
  6
Continuous
100
AcDbPolyline
 90
        9
 70
   128
 43
0.0
 10
101.2492008871213
 20
568.762846120789
 10
101.2491050441459
 20
568.763820548325
 10
101.2488211649912
 20
568.7647576087471
 10
101.2483601358583
 20
568.7656213676509
 10
101.2477396362979
 20
568.7663787016001
 10
101.2469834612346
 20
568.7670005683432
 10
101.2461206084786
 20
568.7674631205269
 10
101.2451841667176
 20
568.7677486201947
 10
101.2442100466315
 20
568.7678461190018
  0
LWPOLYLINE
  5
F11
330
A
100
AcDbEntity
  8
INDUSA
  6
Continuous
100
AcDbPolyline
 90
        9
 70
   128
 43
0.0
 10
100.8995516591273
 20
568.762846120789
 10
100.8996475021027
 20
568.763820548325
 10
100.8999313812574
 20
568.7647576087471
 10
100.9003924103903
 20
568.7656213676509
 10
100.9010129099507
 20
568.7663787016001
 10
100.901769085014
 20
568.7670005683432
 10
100.90263193777
 20
568.7674631205269
 10
100.903568379531
 20
568.7677486201947
 10
100.9045424996171
 20
568.7678461190018
  0
LINE
  5
F1C
330
A
100
AcDbEntity
  8
INDUSA
  6
Continuous
100
AcDbLine
 10
101.2492008871213
 20
568.762846120789
 30
0.0
 11
101.2492008871213
 21
568.7372829375314
 31
0.0
  0
LINE
  5
F1F
330
A
100
AcDbEntity
  8
INDUSA
  6
Continuous
100
AcDbLine
 10
100.8995516591273
 20
568.762846120789
 30
0.0
 11
100.8995516591273
 21
568.7372829375314
 31
0.0
  0
LWPOLYLINE
  5
F20
330
A
100
AcDbEntity
  8
INDUSA
  6
Continuous
100
AcDbPolyline
 90
        3
 70
   128
 43
0.0
 10
101.2491115448541
 20
568.7366908905678
 10
101.2491627900392
 20
568.7368931250528
 10
101.2492008871213
 20
568.7372829375314
  0
LWPOLYLINE
  5
F25
330
A
100
AcDbEntity
  8
INDUSA
  6
Continuous
100
AcDbPolyline
 90
        3
 70
   128
 43
0.0
 10
100.8996410013945
 20
568.7366908905678
 10
100.8995897562094
 20
568.7368931250528
 10
100.8995516591273
 20
568.7372829375314
  0
LWPOLYLINE
  5
F2A
330
A
100
AcDbEntity
  8
INDUSA
  6
Continuous
100
AcDbPolyline
 90
        6
 70
   128
 43
0.0
 10
101.2072946865495
 20
567.8747207626328
 10
101.2072544022879
 20
567.8745474588489
 10
101.2071846554589
 20
567.8743842043844
 10
101.207087658941
 20
567.8742361788622
 10
101.2069664901716
 20
567.8741080787322
 10
101.2069034086625
 20
567.8740567956664
  0
LWPOLYLINE
  5
F46
330
A
100
AcDbEntity
  8
INDUSA
  6
Continuous
100
AcDbPolyline
 90
        3
 70
   128
 43
0.0
 10
101.2341933506006
 20
568.1195428909413
 10
101.2342464357004
 20
568.1195463140056
 10
101.2342480204497
 20
568.1195477796133
  0
LWPOLYLINE
  5
F6F
330
A
100
AcDbEntity
  8
INDUSA
  6
Continuous
100
AcDbPolyline
 90
        5
 70
   128
 43
0.0
 10
101.2038744678078
 20
568.2918557152698
 10
101.2068088434525
 20
568.2913487998887
 10
101.2094064723582
 20
568.2898555946165
 10
101.2112451693107
 20
568.287618328294
 10
101.2113857986627
 20
568.2872081638525
  0
LWPOLYLINE
  5
F76
330
A
100
AcDbEntity
  8
INDUSA
  6
Continuous
100
AcDbPolyline
 90
        5
 70
   128
 43
0.0
 10
100.938109149544
 20
568.2885251254511
 10
100.9381482467407
 20
568.2885980325975
 10
100.9400187717169
 20
568.290368286609
 10
100.9424806278345
 20
568.2915212378109
 10
100.9448780784408
 20
568.2918557152698
  0
LINE
  5
FA6
330
A
100
AcDbEntity
  8
INDUSA
  6
Continuous
100
AcDbLine
 10
101.2420545407776
 20
568.7678372002631
 30
0.0
 11
101.2419995155555
 21
568.7678359866215
 31
0.0
  0
LINE
  5
FA7
330
A
100
AcDbEntity
  8
INDUSA
  6
Continuous
100
AcDbLine
 10
100.9066751213133
 20
568.7678377049983
 30
0.0
 11
100.906753030693
 21
568.7678359866215
 31
0.0
  0
LWPOLYLINE
  5
FA8
330
A
100
AcDbEntity
  8
INDUSA
  6
Continuous
100
AcDbPolyline
 90
        3
 70
   128
 43
0.0
 10
101.2468919954144
 20
568.7295296786918
 10
101.2469511986425
 20
568.7297570041724
 10
101.2469892957246
 20
568.7301468166509
  0
LWPOLYLINE
  5
FAD
330
A
100
AcDbEntity
  8
INDUSA
  6
Continuous
100
AcDbPolyline
 90
        3
 70
   128
 43
0.0
 10
100.9018611672136
 20
568.7295277821569
 10
100.9018013476061
 20
568.7297570041724
 10
100.901763250524
 20
568.7301468166509
  0
LWPOLYLINE
  5
FD7
330
A
100
AcDbEntity
  8
INDUSA
  6
Continuous
100
AcDbPolyline
 90
       13
 70
   128
 43
0.0
 10
101.8692068525726
 20
568.2824686066902
 10
101.8676886676417
 20
568.2828919979995
 10
101.8653730068989
 20
568.2835880128249
 10
101.8628102851251
 20
568.2844060803946
 10
101.8603899767579
 20
568.2852233190518
 10
101.8580074030807
 20
568.2860692112602
 10
101.8559367613025
 20
568.2868462541434
 10
101.8541222822232
 20
568.2875692121026
 10
101.8525713320646
 20
568.2882297246982
 10
101.851518031458
 20
568.288709889808
 10
101.8507003932045
 20
568.2891152876497
 10
101.8501437606505
 20
568.2894260190484
 10
101.8497817867457
 20
568.2896600960425
  0
LINE
  5
FE7
330
A
100
AcDbEntity
  8
INDUSA
  6
Continuous
100
AcDbLine
 10
101.7926768981727
 20
568.2918641513602
 30
0.0
 11
101.7926768981727
 21
568.3338640557019
 31
0.0
  0
ARC
  5
FE8
330
A
100
AcDbEntity
  8
INDUSA
  6
Continuous
100
AcDbCircle
 10
101.7876768981715
 20
568.3338641993203
 30
0.0
 40
0.005
100
AcDbArc
 50
0.2731462484914271
 51
90.00000374709607
  0
ARC
  5
FFE
330
A
100
AcDbEntity
  8
INDUSA
  6
Continuous
100
AcDbCircle
 10
101.7896768981727
 20
568.2918641993203
 30
0.0
 40
0.003
100
AcDbArc
 50
351.4548434355704
 51
0.2523242167096118
  0
ARC
  5
FFF
330
A
100
AcDbEntity
  8
INDUSA
  6
Continuous
100
AcDbCircle
 10
101.8009586362684
 20
568.7279443365655
 30
0.0
 40
0.0020000000000002
100
AcDbArc
 50
266.815756401525
 51
0.3799959578903245
  0
LINE
  5
1000
330
A
100
AcDbEntity
  8
INDUSA
  6
Continuous
100
AcDbLine
 10
101.8029586362629
 20
568.727944188436
 30
0.0
 11
101.8029612404367
 21
568.7631049533076
 31
0.0
  0
LWPOLYLINE
  5
1025
330
A
100
AcDbEntity
  8
INDUSA
  6
Continuous
100
AcDbPolyline
 90
       28
 70
   128
 43
0.0
 10
101.8630047420182
 20
568.2055117153133
 10
101.863002435927
 20
568.1862717075123
 10
101.8629971182295
 20
568.1660340480606
 10
101.862988790711
 20
568.144798736958
 10
101.8629776167519
 20
568.1228501483899
 10
101.8629658083339
 20
568.1032195039365
 10
101.8629620692383
 20
568.0974176049237
 10
101.8629581181628
 20
568.091441659257
 10
101.8629539552012
 20
568.0852916669367
 10
101.8629505133382
 20
568.0803076031406
 10
101.8629475169273
 20
568.0760404503635
 10
101.8629441054446
 20
568.0712379072088
 10
101.8629402790486
 20
568.0658999736765
 10
101.8629360379174
 20
568.0600266497666
 10
101.8629301180991
 20
568.0518834438097
 10
101.8629235435782
 20
568.0428941025295
 10
101.8629167867941
 20
568.0336721475083
 10
101.8629106428002
 20
568.0252325247773
 10
101.862905115759
 20
568.0175787226294
 10
101.8628963372955
 20
568.00523640525
 10
101.8628881913246
 20
567.9933869757324
 10
101.8628789478734
 20
567.9792248564448
 10
101.862870905013
 20
567.9660249948581
 10
101.8628636418282
 20
567.9529900455795
 10
101.8628566096641
 20
567.9386082267618
 10
101.8628481304481
 20
567.916766622096
 10
101.862842791418
 20
567.895851946282
 10
101.8628405906844
 20
567.8758641993198
  0
LINE
  5
1043
330
A
100
AcDbEntity
  8
INDUSA
  6
Continuous
100
AcDbLine
 10
101.8631736402824
 20
568.2054286480968
 30
0.0
 11
101.8630047420182
 21
568.205511715313
 31
0.0
  0
LINE
  5
1044
330
A
100
AcDbEntity
  8
INDUSA
  6
Continuous
100
AcDbLine
 10
101.8763759614674
 20
568.2054286480968
 30
0.0
 11
101.8631736402824
 21
568.2054286480968
 31
0.0
  0
LWPOLYLINE
  5
1045
330
A
100
AcDbEntity
  8
INDUSA
  6
Continuous
100
AcDbPolyline
 90
        5
 70
   128
 43
0.0
 10
101.8775348105335
 20
568.2082957089018
 10
101.8773582531312
 20
568.2071070261853
 10
101.877079565832
 20
568.2061841759686
 10
101.8767210029639
 20
568.2055979284312
 10
101.8763759614674
 20
568.2054286480968
  0
LWPOLYLINE
  5
104C
330
A
100
AcDbEntity
  8
INDUSA
  6
Continuous
100
AcDbPolyline
 90
        5
 70
   128
 43
0.0
 10
101.8810760006171
 20
568.2608346810694
 10
101.8804165752677
 20
568.2475863374001
 10
101.8796020299506
 20
568.2344137590193
 10
101.8786371517538
 20
568.2212958825958
 10
101.8775348105335
 20
568.2082957089018
  0
LWPOLYLINE
  5
1053
330
A
100
AcDbEntity
  8
INDUSA
  6
Continuous
100
AcDbPolyline
 90
       10
 70
   128
 43
0.0
 10
101.877329429379
 20
568.2744286480967
 10
101.8779711765902
 20
568.2742430279286
 10
101.8786017979943
 20
568.2736951929268
 10
101.8792026957196
 20
568.2727916272459
 10
101.8797538721339
 20
568.271557942654
 10
101.8802253235832
 20
568.2700549868401
 10
101.8806119680997
 20
568.2683035330548
 10
101.8808845452731
 20
568.2664487237042
 10
101.8810537949135
 20
568.2644677201024
 10
101.8810760006171
 20
568.2608346810694
  0
LINE
  5
105F
330
A
100
AcDbEntity
  8
INDUSA
  6
Continuous
100
AcDbLine
 10
101.8698404748153
 20
568.2744286480967
 30
0.0
 11
101.877329429379
 21
568.2744286480967
 31
0.0
  0
LWPOLYLINE
  5
1061
330
A
100
AcDbEntity
  8
INDUSA
  6
Continuous
100
AcDbPolyline
 90
        9
 70
   128
 43
0.0
 10
101.8856310675671
 20
568.26760893002
 10
101.8848359780629
 20
568.2492390709005
 10
101.8837344796893
 20
568.2310385749681
 10
101.8823280964221
 20
568.2128439917984
 10
101.8806589885658
 20
568.194927174215
 10
101.8786827565986
 20
568.1766816729974
 10
101.876497284272
 20
568.1588400193233
 10
101.8741157342933
 20
568.1412406645762
 10
101.8716122906941
 20
568.1241523967427
  0
LWPOLYLINE
  5
1082
330
A
100
AcDbEntity
  8
INDUSA
  6
Continuous
100
AcDbPolyline
 90
       13
 70
   128
 43
0.0
 10
102.1510954324575
 20
568.068489267735
 10
102.1653875087249
 20
568.0802982838803
 10
102.1794530731099
 20
568.0924177308901
 10
102.1933163608085
 20
568.1048566373438
 10
102.2069467387289
 20
568.1175932873363
 10
102.2208149737375
 20
568.1310967595379
 10
102.2344215636221
 20
568.1449097537908
 10
102.2477831342272
 20
568.1590522428028
 10
102.2608692498675
 20
568.173495691613
 10
102.2737409338711
 20
568.1883140702201
 10
102.2863214504474
 20
568.2034252027589
 10
102.2986260968492
 20
568.2188514183551
 10
102.3106247872302
 20
568.2345599769487
  0
LINE
  5
1091
330
A
100
AcDbEntity
  8
INDUSA
  6
Continuous
100
AcDbLine
 10
102.1491701566696
 20
568.0667146276596
 30
0.0
 11
102.1510954324575
 21
568.068489267735
 31
0.0
  0
LWPOLYLINE
  5
1098
330
A
100
AcDbEntity
  8
INDUSA
  6
Continuous
100
AcDbPolyline
 90
        8
 70
   128
 43
0.0
 10
102.3106247872302
 20
568.2345599769487
 10
102.2369342034576
 20
568.2392213820254
 10
102.1632661079255
 20
568.2442906655408
 10
102.0934723621053
 20
568.2495643005451
 10
102.0236972871288
 20
568.255357172059
 10
101.9546980252749
 20
568.261519034806
 10
101.9201794899652
 20
568.26463877439
 10
101.8856310675671
 20
568.26760893002
  0
LINE
  5
10AE
330
A
100
AcDbEntity
  8
INDUSA
  6
Continuous
100
AcDbLine
 10
101.8830750021561
 20
568.2817979773505
 30
0.0
 11
101.8849844040337
 21
568.2756463419528
 31
0.0
  0
LWPOLYLINE
  5
10B8
330
A
100
AcDbEntity
  8
INDUSA
  6
Continuous
100
AcDbPolyline
 90
        4
 70
   128
 43
0.0
 10
101.8849844040337
 20
568.2756463419528
 10
101.8854727567178
 20
568.2728262693712
 10
101.8856656700754
 20
568.2695321066995
 10
101.8856310675671
 20
568.26760893002
  0
LWPOLYLINE
  5
10EA
330
A
100
AcDbEntity
  8
INDUSA
  6
Continuous
100
AcDbPolyline
 90
        9
 70
   128
 43
0.0
 10
101.8828966209894
 20
568.2824286480967
 10
101.8829215611297
 20
568.2824182364881
 10
101.8829462416031
 20
568.2823871100639
 10
101.8829704054461
 20
568.2823355929001
 10
101.8829938010742
 20
568.2822642213734
 10
101.8830161849013
 20
568.2821737385761
 10
101.8830373238757
 20
568.2820650865798
 10
101.8830569979067
 20
568.2819393966264
 10
101.8830750021561
 20
568.2817979773505
  0
LWPOLYLINE
  5
10F5
330
A
100
AcDbEntity
  8
INDUSA
  6
Continuous
100
AcDbPolyline
 90
        9
 70
   128
 43
0.0
 10
102.3047751410615
 20
568.2824286480967
 10
102.3048144133389
 20
568.2824009529277
 10
102.3048525979639
 20
568.2823186344429
 10
102.3048886374069
 20
568.2821839724668
 10
102.3049215335494
 20
568.2820006964854
 10
102.3049503753272
 20
568.2817738823581
 10
102.3049743639624
 20
568.2815098117405
 10
102.3049928350857
 20
568.2812157981131
 10
102.3050052771362
 20
568.2808999842328
  0
LINE
  5
1100
330
A
100
AcDbEntity
  8
INDUSA
  6
Continuous
100
AcDbLine
 10
101.8828966209894
 20
568.2824286480967
 30
0.0
 11
102.3047751410615
 21
568.2824286480967
 31
0.0
  0
LINE
  5
110C
330
A
100
AcDbEntity
  8
INDUSA
  6
Continuous
100
AcDbLine
 10
101.8717776802381
 20
568.2824286480967
 30
0.0
 11
101.8828966209894
 21
568.2824286480967
 31
0.0
  0
LWPOLYLINE
  5
1132
330
A
100
AcDbEntity
  8
INDUSA
  6
Continuous
100
AcDbPolyline
 90
        6
 70
   128
 43
0.0
 10
101.7766466103573
 20
568.289964880094
 10
101.7889707185725
 20
568.2881085076237
 10
101.8042026516922
 20
568.2862157022513
 10
101.8194765259925
 20
568.2847191537907
 10
101.8435925716652
 20
568.2831713026438
 10
101.8677524301007
 20
568.2826134549135
  0
LWPOLYLINE
  5
113A
330
A
100
AcDbEntity
  8
INDUSA
  6
Continuous
100
AcDbPolyline
 90
        3
 70
   128
 43
0.0
 10
101.792644258387
 20
568.291428519594
 10
101.8086836379703
 20
568.2914285020165
 10
101.846059543612
 20
568.2914285417792
  0
LWPOLYLINE
  5
113F
330
A
100
AcDbEntity
  8
INDUSA
  6
Continuous
100
AcDbPolyline
 90
        4
 70
   128
 43
0.0
 10
102.1454181963269
 20
568.0620260465912
 10
102.1461270823584
 20
568.0638375196569
 10
102.147325312231
 20
568.0653353531235
 10
102.1491701566696
 20
568.0667146276596
  0
LWPOLYLINE
  5
1145
330
A
100
AcDbEntity
  8
INDUSA
  6
Continuous
100
AcDbPolyline
 90
        4
 70
   128
 43
0.0
 10
102.1454181963269
 20
568.0620260465912
 10
102.0326355339252
 20
568.0856933353669
 10
101.9510704050127
 20
568.1028129817902
 10
101.8714208887355
 20
568.1195428909413
  0
LWPOLYLINE
  5
114B
330
A
100
AcDbEntity
  8
INDUSA
  6
Continuous
100
AcDbPolyline
 90
        3
 70
   128
 43
0.0
 10
101.8716122906941
 20
568.1241523967427
 10
101.8714179868148
 20
568.1208782111403
 10
101.8714208887355
 20
568.1195428909413
  0
LINE
  5
1166
330
A
100
AcDbEntity
  8
INDUSA
  6
Continuous
100
AcDbLine
 10
101.8684682022511
 20
568.2744286480967
 30
0.0
 11
101.8698404748153
 21
568.2744286480967
 31
0.0
  0
LINE
  5
1174
330
A
100
AcDbEntity
  8
INDUSA
  6
Continuous
100
AcDbLine
 10
101.8693696827807
 20
568.2824286480967
 30
0.0
 11
101.8717776802381
 21
568.2824286480967
 31
0.0
  0
LWPOLYLINE
  5
1177
330
A
100
AcDbEntity
  8
INDUSA
  6
Continuous
100
AcDbPolyline
 90
        3
 70
   128
 43
0.0
 10
101.869306246976
 20
568.2824333406602
 10
101.869348606629
 20
568.2824291769454
 10
101.8693696827807
 20
568.2824286480967
  0
LINE
  5
1193
330
A
100
AcDbEntity
  8
INDUSA
  6
Continuous
100
AcDbLine
 10
101.8692571612834
 20
568.2824433023023
 30
0.0
 11
101.869306246976
 21
568.2824333406602
 31
0.0
  0
LINE
  5
11A1
330
A
100
AcDbEntity
  8
INDUSA
  6
Continuous
100
AcDbLine
 10
101.8677524301007
 20
568.2826134549135
 30
0.0
 11
101.8692571612834
 21
568.2824433023023
 31
0.0
  0
LWPOLYLINE
  5
11C7
330
A
100
AcDbEntity
  8
INDUSA
  6
Continuous
100
AcDbPolyline
 90
        5
 70
   128
 43
0.0
 10
101.8714208887355
 20
568.1195428909413
 10
101.8700601937046
 20
568.0565511729123
 10
101.8685194259181
 20
567.9936590331501
 10
101.8669212004061
 20
567.9341378599421
 10
101.8652202983918
 20
567.8747207626328
  0
LINE
  5
11CF
330
A
100
AcDbEntity
  8
INDUSA
  6
Continuous
100
AcDbLine
 10
102.1450378798342
 20
568.0592361760396
 30
0.0
 11
102.1454181963269
 21
568.0620260465912
 31
0.0
  0
LWPOLYLINE
  5
11D0
330
A
100
AcDbEntity
  8
INDUSA
  6
Continuous
100
AcDbPolyline
 90
        7
 70
   128
 43
0.0
 10
102.1202183283644
 20
567.87474091418
 10
102.1261013619459
 20
567.9052581151428
 10
102.1312971855606
 20
567.9359408938051
 10
102.13577137281
 20
567.966571479383
 10
102.1395542531778
 20
567.9973305200349
 10
102.1426454145249
 20
568.0282375537209
 10
102.1450378798342
 20
568.0592361760396
  0
LWPOLYLINE
  5
1224
330
A
100
AcDbEntity
  8
INDUSA
  6
Continuous
100
AcDbPolyline
 90
        4
 70
   128
 43
0.0
 10
101.846059543612
 20
568.2914285417792
 10
101.8477143416737
 20
568.2911467381351
 10
101.8491825817484
 20
568.2903330954498
 10
101.8497817867457
 20
568.2896600960425
  0
LWPOLYLINE
  5
122B
330
A
100
AcDbEntity
  8
INDUSA
  6
Continuous
100
AcDbPolyline
 90
       11
 70
   128
 43
0.0
 10
102.1567197437895
 20
568.0661783485146
 10
102.1735414215426
 20
568.0786605888076
 10
102.1900842333337
 20
568.0915101245529
 10
102.2063714332428
 20
568.1047468878829
 10
102.222362606646
 20
568.1183397952391
 10
102.2388878505734
 20
568.1330448181324
 10
102.2550665621189
 20
568.1481302633487
 10
102.2709238535849
 20
568.1636221134824
 10
102.2864156139366
 20
568.1794794922145
 10
102.3110117942572
 20
568.2062580525366
 10
102.3345994590754
 20
568.2339991443948
  0
LWPOLYLINE
  5
1247
330
A
100
AcDbEntity
  8
INDUSA
  6
Continuous
100
AcDbPolyline
 90
        4
 70
   128
 43
0.0
 10
102.3366166370563
 20
568.2425154940069
 10
102.3367900217327
 20
568.2391621744987
 10
102.3358436591507
 20
568.2359404945888
 10
102.3345994590754
 20
568.2339991443948
  0
LINE
  5
1259
330
A
100
AcDbEntity
  8
INDUSA
  6
Continuous
100
AcDbLine
 10
102.3280269497319
 20
568.2808657767418
 30
0.0
 11
102.3366166370563
 21
568.2425154940069
 31
0.0
  0
LINE
  5
1265
330
A
100
AcDbEntity
  8
INDUSA
  6
Continuous
100
AcDbLine
 10
102.3047751410615
 20
568.2824286480967
 30
0.0
 11
102.3114781443967
 21
568.2824286480967
 31
0.0
  0
LWPOLYLINE
  5
1266
330
A
100
AcDbEntity
  8
INDUSA
  6
Continuous
100
AcDbPolyline
 90
        5
 70
   128
 43
0.0
 10
102.3260753030169
 20
568.2824286480967
 10
102.3267373151656
 20
568.2823159055374
 10
102.327324690469
 20
568.2819903886644
 10
102.3277712065406
 20
568.2814887971602
 10
102.3280269497319
 20
568.2808657767418
  0
LINE
  5
126D
330
A
100
AcDbEntity
  8
INDUSA
  6
Continuous
100
AcDbLine
 10
102.3114781443967
 20
568.2824286480967
 30
0.0
 11
102.3260753030169
 21
568.2824286480967
 31
0.0
  0
LINE
  5
1282
330
A
100
AcDbEntity
  8
INDUSA
  6
Continuous
100
AcDbLine
 10
101.8650186733677
 20
567.8738641993203
 30
0.0
 11
101.8650172615753
 21
567.8738641993203
 31
0.0
  0
LWPOLYLINE
  5
1283
330
A
100
AcDbEntity
  8
INDUSA
  6
Continuous
100
AcDbPolyline
 90
        9
 70
   128
 43
0.0
 10
101.8652202983918
 20
567.8747207626328
 10
101.8652119153915
 20
567.8745474588489
 10
101.8651974013439
 20
567.8743842043844
 10
101.8651772167405
 20
567.8742361788622
 10
101.8651520019844
 20
567.8741080787322
 10
101.8651225570714
 20
567.8740039682653
 10
101.8650898162093
 20
567.8739271506055
 10
101.865054818177
 20
567.8738800629693
 10
101.8650186733677
 20
567.8738641993203
  0
LWPOLYLINE
  5
128E
330
A
100
AcDbEntity
  8
INDUSA
  6
Continuous
100
AcDbPolyline
 90
        9
 70
   128
 43
0.0
 10
102.1202183283644
 20
567.87474091418
 10
102.1202105066203
 20
567.8745643838761
 10
102.1201963388277
 20
567.8743976382041
 10
102.1201762873598
 20
567.8742461189957
 10
102.1201510066067
 20
567.8741147711583
 10
102.1201213216188
 20
567.8740078812965
 10
102.120088201181
 20
567.8739289378162
 10
102.120052726196
 20
567.8738805170789
 10
102.1200160544082
 20
567.8738641993203
  0
LINE
  5
1299
330
A
100
AcDbEntity
  8
INDUSA
  6
Continuous
100
AcDbLine
 10
102.1200160544082
 20
567.8738641993203
 30
0.0
 11
101.8650186733677
 21
567.8738641993203
 31
0.0
  0
LINE
  5
12BC
330
A
100
AcDbEntity
  8
INDUSA
  6
Continuous
100
AcDbLine
 10
101.8650172615746
 20
567.8738641993203
 30
0.0
 11
101.8647995960426
 21
567.8738641993203
 31
0.0
  0
LWPOLYLINE
  5
12BD
330
A
100
AcDbEntity
  8
INDUSA
  6
Continuous
100
AcDbPolyline
 90
        5
 70
   128
 43
0.0
 10
101.8647995960421
 20
567.8738641993203
 10
101.8640499146305
 20
567.8740164402555
 10
101.8634143654178
 20
567.8744499857582
 10
101.8629897050107
 20
567.8750988324559
 10
101.8628405841063
 20
567.8758641993206
  0
LINE
  5
12EB
330
A
100
AcDbEntity
  8
INDUSA
  6
Continuous
100
AcDbLine
 10
101.8647995960426
 20
567.8738641993203
 30
0.0
 11
101.8618610342256
 21
567.8738641993203
 31
0.0
  0
LINE
  5
12EC
330
A
100
AcDbEntity
  8
INDUSA
  6
Continuous
100
AcDbLine
 10
101.8618610342256
 20
567.8738641993203
 30
0.0
 11
101.7686768981727
 21
567.8738641993203
 31
0.0
  0
LWPOLYLINE
  5
1304
330
A
100
AcDbEntity
  8
INDUSA
  6
Continuous
100
AcDbPolyline
 90
        9
 70
   128
 43
0.0
 10
102.1526058831861
 20
568.0586913324556
 10
102.150955970243
 20
568.0357419958641
 10
102.1488845815659
 20
568.0125311054378
 10
102.1464094681685
 20
567.9893334316729
 10
102.1435341266934
 20
567.9661898853744
 10
102.1402753502854
 20
567.9432124497578
 10
102.1366230180219
 20
567.9203044565224
 10
102.1325734793797
 20
567.8974421030391
 10
102.1281345018968
 20
567.874664514738
  0
LWPOLYLINE
  5
131D
330
A
100
AcDbEntity
  8
INDUSA
  6
Continuous
100
AcDbPolyline
 90
        9
 70
   128
 43
0.0
 10
102.1454181963269
 20
568.0620260465912
 10
102.1469510077477
 20
568.0617032841481
 10
102.148376202628
 20
568.0613995309368
 10
102.1496547703169
 20
568.0611231013362
 10
102.1507517136651
 20
568.0608815618194
 10
102.1516370069726
 20
568.0606815238428
 10
102.1522864178562
 20
568.0605284628764
 10
102.1526821705426
 20
568.0604265685281
 10
102.1528842877842
 20
568.0603527525065
  0
LWPOLYLINE
  5
1329
330
A
100
AcDbEntity
  8
INDUSA
  6
Continuous
100
AcDbPolyline
 90
        4
 70
   128
 43
0.0
 10
102.1567197437895
 20
568.0661783485146
 10
102.1543709172548
 20
568.0637789179352
 10
102.1529487217408
 20
568.0607372715416
 10
102.1526058831861
 20
568.0586913324556
  0
ARC
  5
1335
330
A
100
AcDbEntity
  8
INDUSA
  6
Continuous
100
AcDbCircle
 10
102.1271546416682
 20
567.8748641993203
 30
0.0
 40
0.0010000000000004
100
AcDbArc
 50
270.0
 51
348.4814851216581
  0
LINE
  5
1336
330
A
100
AcDbEntity
  8
INDUSA
  6
Continuous
100
AcDbLine
 10
102.1271546416682
 20
567.8738641993203
 30
0.0
 11
102.1200160544082
 21
567.8738641993203
 31
0.0
  0
LINE
  5
1337
330
A
100
AcDbEntity
  8
INDUSA
  6
Continuous
100
AcDbLine
 10
101.7686768981727
 20
567.8738641993203
 30
0.0
 11
101.8736768981727
 21
567.8738641993203
 31
0.0
  0
LINE
  5
1338
330
A
100
AcDbEntity
  8
INDUSA
  6
Continuous
100
AcDbLine
 10
101.8693696827807
 20
568.2824286480967
 30
0.0
 11
101.869385550804
 21
568.2824286480967
 31
0.0
  0
ARC
  5
1339
330
A
100
AcDbEntity
  8
INDUSA
  6
Continuous
100
AcDbCircle
 10
101.6276768981727
 20
568.3338641993203
 30
0.0
 40
0.005
100
AcDbArc
 50
90.00000000000079
 51
180.0
  0
LINE
  5
135C
330
A
100
AcDbEntity
  8
INDUSA
  6
Continuous
100
AcDbLine
 10
101.6226768981727
 20
567.8788641993203
 30
0.0
 11
101.6226768981727
 21
568.3338641993203
 31
0.0
  0
LINE
  5
135E
330
A
100
AcDbEntity
  8
INDUSA
  6
Continuous
100
AcDbLine
 10
101.7611495006557
 20
568.3388641993203
 30
0.0
 11
101.7876768981715
 21
568.3388641993203
 31
0.0
  0
LWPOLYLINE
  5
136C
330
A
100
AcDbEntity
  8
INDUSA
  6
Continuous
100
AcDbPolyline
 90
        9
 70
   128
 43
0.0
 10
101.768735795142
 20
568.3338416374384
 10
101.768647437774
 20
568.3348202809952
 10
101.7683773213017
 20
568.3357619721557
 10
101.7679358856815
 20
568.3366303147145
 10
101.767340192326
 20
568.3373917473775
 10
101.7666132646835
 20
568.3380168409
 10
101.7657831983853
 20
568.338481435522
 10
101.7648820753547
 20
568.3387675747399
 10
101.7639447238456
 20
568.3388641993203
  0
LWPOLYLINE
  5
1382
330
A
100
AcDbEntity
  8
INDUSA
  6
Continuous
100
AcDbPolyline
 90
        6
 70
   128
 43
0.0
 10
101.768735795142
 20
568.3338416374384
 10
101.7687361284705
 20
568.3288654792601
 10
101.7687388140662
 20
568.2888705986433
 10
101.7687496732143
 20
568.1288910700499
 10
101.7687584633377
 20
568.0013776380108
 10
101.7687670238655
 20
567.8788406830769
  0
LWPOLYLINE
  5
1395
330
A
100
AcDbEntity
  8
INDUSA
  6
Continuous
100
AcDbPolyline
 90
        6
 70
   128
 43
0.0
 10
101.7756883721835
 20
568.2838545478922
 10
101.7758008100962
 20
568.2863684030628
 10
101.7761047977804
 20
568.2885980325975
 10
101.7765689237746
 20
568.290368286609
 10
101.7771655034178
 20
568.2915212378109
 10
101.7777327923612
 20
568.2918557152698
  0
LWPOLYLINE
  5
139D
330
A
100
AcDbEntity
  8
INDUSA
  6
Continuous
100
AcDbPolyline
 90
        6
 70
   128
 43
0.0
 10
101.7744675596891
 20
567.8788534548031
 10
101.7744707640467
 20
567.8798641571843
 10
101.7745466117667
 20
567.9038639899198
 10
101.7748454220777
 20
567.9998633409264
 10
101.7752743558858
 20
568.1418589125096
 10
101.7756883721835
 20
568.2838545478922
  0
LINE
  5
13A5
330
A
100
AcDbEntity
  8
INDUSA
  6
Continuous
100
AcDbLine
 10
101.7744675334103
 20
567.8788462917534
 30
0.0
 11
101.7744675596891
 21
567.8788534548031
 31
0.0
  0
LINE
  5
13AB
330
A
100
AcDbEntity
  8
INDUSA
  6
Continuous
100
AcDbLine
 10
101.7639447238456
 20
568.3388641993203
 30
0.0
 11
101.7876252073824
 21
568.3388641993203
 31
0.0
  0
ARC
  5
13AC
330
A
100
AcDbEntity
  8
INDUSA
  6
Continuous
100
AcDbCircle
 10
101.6276768981727
 20
567.8788641993203
 30
0.0
 40
0.005
100
AcDbArc
 50
180.0
 51
270.0
  0
LINE
  5
13B8
330
A
100
AcDbEntity
  8
INDUSA
  6
Continuous
100
AcDbLine
 10
101.763994783528
 20
567.8738641993203
 30
0.0
 11
101.6276768981727
 21
567.8738641993203
 31
0.0
  0
LWPOLYLINE
  5
13C4
330
A
100
AcDbEntity
  8
INDUSA
  6
Continuous
100
AcDbPolyline
 90
        9
 70
   128
 43
0.0
 10
101.763994783528
 20
567.8738641993203
 10
101.7649230598085
 20
567.8739597002897
 10
101.7658158755752
 20
567.8742425550241
 10
101.7666391249196
 20
567.8747019583627
 10
101.7673613593973
 20
567.8753203609199
 10
101.7679549893713
 20
567.8760741394781
 10
101.7683973379464
 20
567.8769344994044
 10
101.7686715072355
 20
567.8778685746158
 10
101.7687670238655
 20
567.8788406830769
  0
LWPOLYLINE
  5
13CF
330
A
100
AcDbEntity
  8
INDUSA
  6
Continuous
100
AcDbPolyline
 90
        7
 70
   128
 43
0.0
 10
101.7744675334103
 20
567.8788462917534
 10
101.7741854144431
 20
567.8772395741662
 10
101.773389939432
 20
567.8758165347473
 10
101.7721575854371
 20
567.8747074761286
 10
101.7705796572141
 20
567.8740259276082
 10
101.76928254918
 20
567.8738642189134
 10
101.7692679941856
 20
567.8738641993203
  0
LINE
  5
13D8
330
A
100
AcDbEntity
  8
INDUSA
  6
Continuous
100
AcDbLine
 10
101.7692679941856
 20
567.8738641993203
 30
0.0
 11
101.763994783528
 21
567.8738641993203
 31
0.0
  0
LINE
  5
13D9
330
A
100
AcDbEntity
  8
INDUSA
  6
Continuous
100
AcDbLine
 10
101.6226768981727
 20
568.2644997440225
 30
0.0
 11
101.6226768981727
 21
568.2679913082608
 31
0.0
  0
LINE
  5
13DA
330
A
100
AcDbEntity
  8
INDUSA
  6
Continuous
100
AcDbLine
 10
101.6226768981727
 20
568.2578987613011
 30
0.0
 11
101.6226768981727
 21
568.2679913082608
 31
0.0
  0
LINE
  5
13DB
330
A
100
AcDbEntity
  8
INDUSA
  6
Continuous
100
AcDbLine
 10
101.6226768981727
 20
568.2679913082608
 30
0.0
 11
101.6226768981727
 21
568.2715480716594
 31
0.0
  0
LINE
  5
13DC
330
A
100
AcDbEntity
  8
INDUSA
  6
Continuous
100
AcDbLine
 10
101.6226768981727
 20
568.2715480716594
 30
0.0
 11
101.6226768981727
 21
568.3338641993203
 31
0.0
  0
LINE
  5
13ED
330
A
100
AcDbEntity
  8
INDUSA
  6
Continuous
100
AcDbLine
 10
101.6226768981727
 20
568.3388641993203
 30
0.0
 11
101.6328554271581
 21
568.3388641993203
 31
0.0
  0
LINE
  5
13EE
330
A
100
AcDbEntity
  8
INDUSA
  6
Continuous
100
AcDbLine
 10
101.6226768981727
 20
568.734802381257
 30
0.0
 11
101.6226768981727
 21
568.3388641993203
 31
0.0
  0
ARC
  5
13EF
330
A
100
AcDbEntity
  8
INDUSA
  6
Continuous
100
AcDbCircle
 10
101.6236768981727
 20
568.734802381257
 30
0.0
 40
0.001
100
AcDbArc
 50
86.81575640149288
 51
180.0
  0
LINE
  5
13F0
330
A
100
AcDbEntity
  8
INDUSA
  6
Continuous
100
AcDbLine
 10
101.6328876436206
 20
568.7352915077924
 30
0.0
 11
101.6237324451033
 21
568.7358008373345
 31
0.0
  0
LINE
  5
1404
330
A
100
AcDbEntity
  8
INDUSA
  6
Continuous
100
AcDbLine
 10
101.7610047941166
 20
568.7281639889888
 30
0.0
 11
101.6328876436206
 21
568.7352915077924
 31
0.0
  0
LINE
  5
1416
330
A
100
AcDbEntity
  8
INDUSA
  6
Continuous
100
AcDbLine
 10
101.755795482179
 20
568.3388641993203
 30
0.0
 11
101.6328554271581
 21
568.3388641993203
 31
0.0
  0
LWPOLYLINE
  5
141E
330
A
100
AcDbEntity
  8
INDUSA
  6
Continuous
100
AcDbPolyline
 90
        3
 70
   128
 43
0.0
 10
101.7650691116077
 20
568.3408306685611
 10
101.7675748703124
 20
568.5342450230859
 10
101.7700586523656
 20
568.7266933249809
  0
LWPOLYLINE
  5
1423
330
A
100
AcDbEntity
  8
INDUSA
  6
Continuous
100
AcDbPolyline
 90
        5
 70
   128
 43
0.0
 10
101.7611495006557
 20
568.3388641993203
 10
101.7626340700374
 20
568.3391217259571
 10
101.7644194662582
 20
568.340146755981
 10
101.7650628009027
 20
568.3408224682991
 10
101.7650691116077
 20
568.3408306685611
  0
LINE
  5
142A
330
A
100
AcDbEntity
  8
INDUSA
  6
Continuous
100
AcDbLine
 10
101.755795482179
 20
568.3388641993203
 30
0.0
 11
101.7611495006557
 21
568.3388641993203
 31
0.0
  0
LWPOLYLINE
  5
142B
330
A
100
AcDbEntity
  8
INDUSA
  6
Continuous
100
AcDbPolyline
 90
        9
 70
   128
 43
0.0
 10
101.7691871756132
 20
568.7277087800042
 10
101.7693628214654
 20
568.7276805980458
 10
101.7695299678111
 20
568.7276167452018
 10
101.7696824697287
 20
568.7275195689402
 10
101.7698147206806
 20
568.727392641822
 10
101.7699218586299
 20
568.72724063016
 10
101.769999944787
 20
568.7270691224685
 10
101.7700461084145
 20
568.7268844240079
 10
101.7700586523656
 20
568.7266933249809
  0
LINE
  5
1436
330
A
100
AcDbEntity
  8
INDUSA
  6
Continuous
100
AcDbLine
 10
101.7691871756132
 20
568.7277087800042
 30
0.0
 11
101.7610047941166
 21
568.7281639889888
 31
0.0
  0
LINE
  5
1444
330
A
100
AcDbEntity
  8
INDUSA
  6
Continuous
100
AcDbLine
 10
101.8023276471634
 20
568.7248941589493
 30
0.0
 11
101.7927256485632
 21
568.3408142149381
 31
0.0
  0
ARC
  5
1451
330
A
100
AcDbEntity
  8
INDUSA
  6
Continuous
100
AcDbCircle
 10
101.801327959517
 20
568.7249191511405
 30
0.0
 40
0.001
100
AcDbArc
 50
358.5679038151121
 51
86.81575640152543
  0
LINE
  5
1452
330
A
100
AcDbEntity
  8
INDUSA
  6
Continuous
100
AcDbLine
 10
101.8013835064476
 20
568.725917607218
 30
0.0
 11
101.7691871756132
 21
568.7277087800042
 31
0.0
  0
ARC
  5
1453
330
A
100
AcDbEntity
  8
INDUSA
  6
Continuous
100
AcDbCircle
 10
101.7907262732703
 20
568.3408641993203
 30
0.0
 40
0.0020000000000005
100
AcDbArc
 50
270.0
 51
358.5679038158289
  0
LINE
  5
1454
330
A
100
AcDbEntity
  8
INDUSA
  6
Continuous
100
AcDbLine
 10
101.7641197338455
 20
568.3388641993203
 30
0.0
 11
101.7907262732703
 21
568.3388641993203
 31
0.0
  0
LWPOLYLINE
  5
1455
330
A
100
AcDbEntity
  8
INDUSA
  6
Continuous
100
AcDbPolyline
 90
       10
 70
   128
 43
0.0
 10
101.7658742986513
 20
568.7678360206706
 10
101.7740194533225
 20
568.7678601110828
 10
101.7796024840173
 20
568.7678824547141
 10
101.7844695567269
 20
568.7679074615465
 10
101.788637585419
 20
568.7679350909125
 10
101.7920637281036
 20
568.7679649155983
 10
101.7947264327907
 20
568.7679963551306
 10
101.7966459014888
 20
568.7680290469621
 10
101.7978234190775
 20
568.7680626809447
 10
101.7982411529032
 20
568.7680974930767
  0
LWPOLYLINE
  5
1461
330
A
100
AcDbEntity
  8
INDUSA
  6
Continuous
100
AcDbPolyline
 90
        5
 70
   128
 43
0.0
 10
101.7613242533222
 20
568.7678359866215
 10
101.7627165512911
 20
568.7678350909485
 10
101.7642149859376
 20
568.7678347878137
 10
101.7653783109245
 20
568.7678352607348
 10
101.7658742986513
 20
568.7678360206706
  0
LWPOLYLINE
  5
1468
330
A
100
AcDbEntity
  8
INDUSA
  6
Continuous
100
AcDbPolyline
 90
        4
 70
   128
 43
0.0
 10
101.6330441173815
 20
568.7678461190018
 10
101.6430427549574
 20
568.7678524222191
 10
101.6830371159135
 20
568.7678662908678
 10
101.7613242533222
 20
568.7678359866215
  0
LWPOLYLINE
  5
146E
330
A
100
AcDbEntity
  8
INDUSA
  6
Continuous
100
AcDbPolyline
 90
        7
 70
   128
 43
0.0
 10
101.6279531080787
 20
568.7678469864242
 10
101.6279551969226
 20
568.7678468600664
 10
101.628284811797
 20
568.7678457848979
 10
101.6291407649257
 20
568.76784530129
 10
101.6304265549667
 20
568.7678452087219
 10
101.631997238137
 20
568.7678455607773
 10
101.6330441173815
 20
568.7678461190018
  0
LWPOLYLINE
  5
1477
330
A
100
AcDbEntity
  8
INDUSA
  6
Continuous
100
AcDbPolyline
 90
        5
 70
   128
 43
0.0
 10
101.6276820275358
 20
568.7681101570259
 10
101.6277008705185
 20
568.768092463628
 10
101.6277794292523
 20
568.7680189350953
 10
101.6279143188191
 20
568.7678866812071
 10
101.6279531080787
 20
568.7678469864242
  0
LWPOLYLINE
  5
147E
330
A
100
AcDbEntity
  8
INDUSA
  6
Continuous
100
AcDbPolyline
 90
        3
 70
   128
 43
0.0
 10
101.6276820275358
 20
568.7681101570259
 10
101.6552882029248
 20
568.7694045705308
 10
101.6829223896428
 20
568.7701981561247
  0
LWPOLYLINE
  5
1483
330
A
100
AcDbEntity
  8
INDUSA
  6
Continuous
100
AcDbPolyline
 90
       20
 70
   128
 43
0.0
 10
101.7368075642796
 20
568.7702650651763
 10
101.7366122701298
 20
568.7702276427306
 10
101.7354810607295
 20
568.7701657178942
 10
101.7336217035712
 20
568.7701149980455
 10
101.7310969229007
 20
568.7700744532269
 10
101.7279677320577
 20
568.7700429679039
 10
101.7243320228027
 20
568.7700191042438
 10
101.7202832523657
 20
568.7700015786823
 10
101.7159438649065
 20
568.7699892585198
 10
101.7114313371753
 20
568.7699812703542
 10
101.7068773850416
 20
568.7699771022634
 10
101.7024102755385
 20
568.7699765677762
 10
101.6981559835923
 20
568.7699799964001
 10
101.6942388297515
 20
568.7699881291352
 10
101.6907650232546
 20
568.7700022701638
 10
101.6878410476488
 20
568.7700241410287
 10
101.6855410712319
 20
568.7700556639915
 10
101.6839410965638
 20
568.7700989000511
 10
101.6830748790507
 20
568.770155183624
 10
101.6830464321746
 20
568.7701632001376
  0
LWPOLYLINE
  5
1499
330
A
100
AcDbEntity
  8
INDUSA
  6
Continuous
100
AcDbPolyline
 90
        3
 70
   128
 43
0.0
 10
101.7369932562169
 20
568.7703006476372
 10
101.7676220865545
 20
568.7695074550039
 10
101.7982411529032
 20
568.7680974930767
  0
LINE
  5
149F
330
A
100
AcDbEntity
  8
INDUSA
  6
Continuous
100
AcDbLine
 10
101.6229593609842
 20
568.7377358212898
 30
0.0
 11
101.6229612208648
 21
568.7628473654787
 31
0.0
  0
LWPOLYLINE
  5
14B4
330
A
100
AcDbEntity
  8
INDUSA
  6
Continuous
100
AcDbPolyline
 90
        9
 70
   128
 43
0.0
 10
101.6229612208648
 20
568.7628473654787
 10
101.623057159871
 20
568.7638217695325
 10
101.623341153603
 20
568.764758794172
 10
101.6238023118283
 20
568.7656225075616
 10
101.6244229506349
 20
568.7663797891129
 10
101.625179270551
 20
568.7670015995514
 10
101.6260422691775
 20
568.767464094477
 10
101.6269788533348
 20
568.7677495387196
 10
101.6279531080787
 20
568.7678469864242
  0
ARC
  5
14C0
330
A
100
AcDbEntity
  8
INDUSA
  6
Continuous
100
AcDbCircle
 10
101.6249593609787
 20
568.7377356731603
 30
0.0
 40
0.0020000000000001
100
AcDbArc
 50
180.0000000000008
 51
266.8157564015248
  0
LINE
  5
14CC
330
A
100
AcDbEntity
  8
INDUSA
  6
Continuous
100
AcDbLine
 10
101.7612579169707
 20
568.7281499070498
 30
0.0
 11
101.7610047941166
 21
568.7281639889888
 31
0.0
  0
LWPOLYLINE
  5
14EA
330
A
100
AcDbEntity
  8
INDUSA
  6
Continuous
100
AcDbPolyline
 90
        9
 70
   128
 43
0.0
 10
101.7705000844078
 20
568.7628356895633
 10
101.7704109982167
 20
568.7638099680625
 10
101.7701477072566
 20
568.7647469100985
 10
101.7697203049626
 20
568.7656105973712
 10
101.7691451760879
 20
568.7663679198505
 10
101.768444368583
 20
568.766989845072
 10
101.7676447483727
 20
568.7674525311164
 10
101.7667769694333
 20
568.767738240604
 10
101.7658742986513
 20
568.7678360206706
  0
LINE
  5
14FD
330
A
100
AcDbEntity
  8
INDUSA
  6
Continuous
100
AcDbLine
 10
101.7705000844078
 20
568.7628356895633
 30
0.0
 11
101.7704976333267
 21
568.7297419359087
 31
0.0
  0
LWPOLYLINE
  5
14FE
330
A
100
AcDbEntity
  8
INDUSA
  6
Continuous
100
AcDbPolyline
 90
        9
 70
   128
 43
0.0
 10
101.7685332268715
 20
568.7277451610191
 10
101.7689080862615
 20
568.7277653480797
 10
101.7692721370196
 20
568.7278665377407
 10
101.7696104610077
 20
568.7280445834338
 10
101.7699091943239
 20
568.7282921891702
 10
101.7701560954201
 20
568.728599208517
 10
101.7703410467382
 20
568.7289530603796
 10
101.7704564693094
 20
568.729339244552
 10
101.7704976333267
 20
568.7297419359087
  0
LWPOLYLINE
  5
150B
330
A
100
AcDbEntity
  8
INDUSA
  6
Continuous
100
AcDbPolyline
 90
        6
 70
   128
 43
0.0
 10
101.7982411529032
 20
568.7680974930767
 10
101.7998778040259
 20
568.7677234266056
 10
101.8012983770966
 20
568.7668287062312
 10
101.8023427151866
 20
568.7655142038209
 10
101.8028930772443
 20
568.7639281168684
 10
101.8029612404367
 20
568.7631049533076
  0
LWPOLYLINE
  5
151F
330
A
100
AcDbEntity
  8
INDUSA
  6
Continuous
100
AcDbPolyline
 90
        6
 70
   128
 43
0.0
 10
101.6229612409331
 20
568.7631183208193
 10
101.6232432203002
 20
568.7647733329002
 10
101.6240571225317
 20
568.7662417131853
 10
101.6253111856873
 20
568.7673579115106
 10
101.6268640214861
 20
568.7679960845421
 10
101.6276820275358
 20
568.7681101570259
  0
LINE
  5
1527
330
A
100
AcDbEntity
  8
INDUSA
  6
Continuous
100
AcDbLine
 10
101.6229612208648
 20
568.7628473654787
 30
0.0
 11
101.6229612409331
 21
568.7631183208193
 31
0.0
  0
LINE
  5
1528
330
A
100
AcDbEntity
  8
INDUSA
  6
Continuous
100
AcDbLine
 10
101.6829223896428
 20
568.7701981561247
 30
0.0
 11
101.6830633285412
 21
568.7701769907095
 31
0.0
  0
LWPOLYLINE
  5
1529
330
A
100
AcDbEntity
  8
INDUSA
  6
Continuous
100
AcDbPolyline
 90
        3
 70
   128
 43
0.0
 10
101.7364403134269
 20
568.7702182294507
 10
101.7365230157395
 20
568.7702522085661
 10
101.7369932562169
 20
568.7703006476372
  0
LINE
  5
154B
330
A
100
AcDbEntity
  8
INDUSA
  6
Continuous
100
AcDbLine
 10
101.7757433019155
 20
568.2744286480967
 30
0.0
 11
101.8684682022511
 21
568.2744286480967
 31
0.0
  0
LWPOLYLINE
  5
1560
330
A
100
AcDbEntity
  8
INDUSA
  6
Continuous
100
AcDbPolyline
 90
        8
 70
   128
 43
0.0
 10
101.7777327923612
 20
568.2918557152698
 10
101.7790685652959
 20
568.2918564734276
 10
101.7837934072356
 20
568.2918591554478
 10
101.7875315875452
 20
568.2918612776961
 10
101.7902596608779
 20
568.2918628266613
 10
101.791971647014
 20
568.2918637988112
 10
101.7926615657338
 20
568.2918641906135
 10
101.7925924592114
 20
568.2918641513602
  0
LINE
  5
1594
330
A
100
AcDbEntity
  8
INDUSA
  6
Continuous
100
AcDbLine
 10
102.9182808006132
 20
568.104286856431
 30
0.0
 11
102.9173315631969
 21
568.1033376190145
 31
0.0
  0
LINE
  5
1617
330
A
100
AcDbEntity
  8
INDUSA
  6
Continuous
100
AcDbLine
 10
103.3443908164898
 20
568.2424286480968
 30
0.0
 11
103.3443908164898
 21
568.2724286480968
 31
0.0
  0
LWPOLYLINE
  5
1618
330
A
100
AcDbEntity
  8
INDUSA
  6
Continuous
100
AcDbPolyline
 90
       13
 70
   128
 43
0.0
 10
102.9260048368566
 20
568.2824286480967
 10
102.9243455641632
 20
568.2828913473006
 10
102.9220294640204
 20
568.2835874584212
 10
102.9194663599454
 20
568.2844056165905
 10
102.9170460434616
 20
568.2852228342978
 10
102.9146633956306
 20
568.2860687267235
 10
102.9125925997332
 20
568.2868458006293
 10
102.9107779638084
 20
568.2875687936078
 10
102.9092268521345
 20
568.2882293468338
 10
102.9081733411312
 20
568.2887095854092
 10
102.9073554707218
 20
568.2891150710083
 10
102.9067986702179
 20
568.2894258716194
 10
102.9064357838459
 20
568.289660516949
  0
LWPOLYLINE
  5
1628
330
A
100
AcDbEntity
  8
INDUSA
  6
Continuous
100
AcDbPolyline
 90
        4
 70
   128
 43
0.0
 10
102.8243315631969
 20
568.2065189191933
 10
102.8972215090314
 20
568.2007891232221
 10
102.9409508575856
 20
568.1972992750171
 10
102.9836405866671
 20
568.1938609593518
  0
LINE
  5
163F
330
A
100
AcDbEntity
  8
INDUSA
  6
Continuous
100
AcDbLine
 10
103.0368133255509
 20
567.9364984622938
 30
0.0
 11
103.0150765256613
 21
568.014128718667
 31
0.0
  0
LWPOLYLINE
  5
1640
330
A
100
AcDbEntity
  8
INDUSA
  6
Continuous
100
AcDbPolyline
 90
        7
 70
   128
 43
0.0
 10
102.8652532858864
 20
568.2682747323503
 10
102.8652082501007
 20
568.2682749343972
 10
102.8651580963964
 20
568.2682843595877
 10
102.8650866073833
 20
568.2683146244468
 10
102.8648990731164
 20
568.2684862775314
 10
102.8645312913608
 20
568.2692039655286
 10
102.8643315631968
 20
568.2701997220065
  0
LWPOLYLINE
  5
165C
330
A
100
AcDbEntity
  8
INDUSA
  6
Continuous
100
AcDbPolyline
 90
        6
 70
   128
 43
0.0
 10
102.8643315631968
 20
568.2133157117913
 10
102.8643882406597
 20
568.2129826371562
 10
102.8645520335353
 20
568.2126871088422
 10
102.8648041760465
 20
568.2124630737336
 10
102.8651153556929
 20
568.2123359163433
 10
102.865252786643
 20
568.2123153012883
  0
LINE
  5
1664
330
A
100
AcDbEntity
  8
INDUSA
  6
Continuous
100
AcDbLine
 10
102.9161123221988
 20
568.2724286480968
 30
0.0
 11
102.8652532858864
 21
568.2682747323503
 31
0.0
  0
LWPOLYLINE
  5
1670
330
A
100
AcDbEntity
  8
INDUSA
  6
Continuous
100
AcDbPolyline
 90
        3
 70
   128
 43
0.0
 10
102.9757472105633
 20
568.2035001148449
 10
102.913236306998
 20
568.2084986774246
 10
102.865252786643
 20
568.2123153012883
  0
LWPOLYLINE
  5
169C
330
A
100
AcDbEntity
  8
INDUSA
  6
Continuous
100
AcDbPolyline
 90
       15
 70
   128
 43
0.0
 10
103.0623123897353
 20
568.1048297967546
 10
103.0582410195593
 20
568.1155797995565
 10
103.0535586003181
 20
568.1260884168949
 10
103.0482892616379
 20
568.1363048136468
 10
103.0420579524516
 20
568.1468141849307
 10
103.035193732385
 20
568.1569351449625
 10
103.0277314918953
 20
568.1666090266284
 10
103.0202699131526
 20
568.1751745839858
 10
103.0123253262306
 20
568.1832939497478
 10
103.0037596967216
 20
568.1909475532803
 10
102.995039369902
 20
568.1984341804995
 10
102.9869124094217
 20
568.2062131591278
 10
102.9793718471759
 20
568.2145614358756
 10
102.9725991813337
 20
568.223260228673
 10
102.9664775527108
 20
568.2324286480969
  0
LWPOLYLINE
  5
16BC
330
A
100
AcDbEntity
  8
INDUSA
  6
Continuous
100
AcDbPolyline
 90
        6
 70
   128
 43
0.0
 10
102.853252955137
 20
568.213265899046
 10
102.8535863449337
 20
568.2132959155093
 10
102.8538910081685
 20
568.2134345550026
 10
102.8541330948953
 20
568.2136663308332
 10
102.8542856758938
 20
568.2139659682293
 10
102.8543315631968
 20
568.2142665761581
  0
LWPOLYLINE
  5
16E2
330
A
100
AcDbEntity
  8
INDUSA
  6
Continuous
100
AcDbPolyline
 90
        3
 70
   128
 43
0.0
 10
103.1827927282197
 20
567.973477741406
 10
103.1980781292738
 20
568.0405121118578
 10
103.2152336335317
 20
568.1157203894002
  0
LWPOLYLINE
  5
16FB
330
A
100
AcDbEntity
  8
INDUSA
  6
Continuous
100
AcDbPolyline
 90
        5
 70
   128
 43
0.0
 10
103.0623123897352
 20
568.1048297967548
 10
103.074368785246
 20
568.0694148518561
 10
103.0860681061716
 20
568.0338803291037
 10
103.0974110763658
 20
567.9982125622976
 10
103.1083951463263
 20
567.9624286480969
  0
LWPOLYLINE
  5
1716
330
A
100
AcDbEntity
  8
INDUSA
  6
Continuous
100
AcDbPolyline
 90
        3
 70
   128
 43
0.0
 10
103.2308166815255
 20
568.1357563901164
 10
103.270410590169
 20
568.1560276167939
 10
103.3104177753975
 20
568.1765109294921
  0
LWPOLYLINE
  5
1731
330
A
100
AcDbEntity
  8
INDUSA
  6
Continuous
100
AcDbPolyline
 90
        5
 70
   128
 43
0.0
 10
102.90723514306
 20
568.2885287362823
 10
102.90922679462
 20
568.2856829235463
 10
102.912112731255
 20
568.2835929982144
 10
102.9155223929497
 20
568.2825798356098
 10
102.9167877388244
 20
568.2825039536036
  0
LINE
  5
1739
330
A
100
AcDbEntity
  8
INDUSA
  6
Continuous
100
AcDbLine
 10
102.8243315631969
 20
568.2155485758029
 30
0.0
 11
102.8243315631969
 21
568.2649324474498
 31
0.0
  0
LINE
  5
173B
330
A
100
AcDbEntity
  8
INDUSA
  6
Continuous
100
AcDbLine
 10
102.853252955137
 20
568.213265899046
 30
0.0
 11
102.8243315631969
 21
568.2155485758029
 31
0.0
  0
LWPOLYLINE
  5
1741
330
A
100
AcDbEntity
  8
INDUSA
  6
Continuous
100
AcDbPolyline
 90
        4
 70
   128
 43
0.0
 10
103.0150765256613
 20
568.014128718667
 10
102.9989323564015
 20
568.0139888788296
 10
102.9581308940219
 20
568.0133859309385
 10
102.9173315631969
 20
568.0125839738182
  0
LWPOLYLINE
  5
1747
330
A
100
AcDbEntity
  8
INDUSA
  6
Continuous
100
AcDbPolyline
 90
        4
 70
   128
 43
0.0
 10
102.9173315631969
 20
568.0942733223753
 10
102.9566897551411
 20
568.0934974726239
 10
102.9960516033058
 20
568.0929002535878
 10
103.0559331361424
 20
568.0926382534043
  0
LINE
  5
174E
330
A
100
AcDbEntity
  8
INDUSA
  6
Continuous
100
AcDbLine
 10
102.8243315631969
 20
568.2649324474498
 30
0.0
 11
102.8243315631969
 21
568.2703087203906
 31
0.0
  0
LINE
  5
174F
330
A
100
AcDbEntity
  8
INDUSA
  6
Continuous
100
AcDbLine
 10
102.8243315631969
 20
568.2703087203906
 30
0.0
 11
102.8543315631968
 21
568.2718100871607
 31
0.0
  0
LINE
  5
1750
330
A
100
AcDbEntity
  8
INDUSA
  6
Continuous
100
AcDbLine
 10
102.8643315631968
 20
568.2723100411401
 30
0.0
 11
102.8667046228998
 21
568.2724286480968
 31
0.0
  0
LINE
  5
1751
330
A
100
AcDbEntity
  8
INDUSA
  6
Continuous
100
AcDbLine
 10
103.314975705251
 20
568.1676097471441
 30
0.0
 11
103.3201110159058
 21
568.1703339080419
 31
0.0
  0
LWPOLYLINE
  5
1752
330
A
100
AcDbEntity
  8
INDUSA
  6
Continuous
100
AcDbPolyline
 90
        3
 70
   128
 43
0.0
 10
103.2353762372406
 20
568.1268558780775
 10
103.2655856443053
 20
568.1423224778145
 10
103.314975705251
 20
568.1676097471441
  0
LWPOLYLINE
  5
1757
330
A
100
AcDbEntity
  8
INDUSA
  6
Continuous
100
AcDbPolyline
 90
        6
 70
   128
 43
0.0
 10
103.2353762372406
 20
568.1268558780775
 10
103.2325543188866
 20
568.1251011931622
 10
103.2299948890031
 20
568.1228338075944
 10
103.2279128373129
 20
568.1202439718295
 10
103.2262483350456
 20
568.1172570541748
 10
103.2249881197344
 20
568.1134989196087
  0
LINE
  5
175F
330
A
100
AcDbEntity
  8
INDUSA
  6
Continuous
100
AcDbLine
 10
103.2177640822793
 20
568.0818289982177
 30
0.0
 11
103.2249881197344
 21
568.1134989196086
 31
0.0
  0
LWPOLYLINE
  5
1760
330
A
100
AcDbEntity
  8
INDUSA
  6
Continuous
100
AcDbPolyline
 90
        5
 70
   128
 43
0.0
 10
103.2177640822793
 20
568.0818289982177
 10
103.2461790579099
 20
568.1038965132748
 10
103.2737724394871
 20
568.1270645329832
 10
103.2972925098259
 20
568.1482972745787
 10
103.3201110159058
 20
568.1703339080419
  0
LINE
  5
1767
330
A
100
AcDbEntity
  8
INDUSA
  6
Continuous
100
AcDbLine
 10
103.3763156373516
 20
568.2724286480968
 30
0.0
 11
103.3443632688818
 21
568.2724286480968
 31
0.0
  0
LINE
  5
1768
330
A
100
AcDbEntity
  8
INDUSA
  6
Continuous
100
AcDbLine
 10
103.3443632688818
 20
568.2424286480968
 30
0.0
 11
103.3443632688818
 21
568.2724286480968
 31
0.0
  0
LINE
  5
1769
330
A
100
AcDbEntity
  8
INDUSA
  6
Continuous
100
AcDbLine
 10
103.3830351044783
 20
568.2424286480968
 30
0.0
 11
103.3633076329598
 21
568.2424286480968
 31
0.0
  0
LWPOLYLINE
  5
176A
330
A
100
AcDbEntity
  8
INDUSA
  6
Continuous
100
AcDbPolyline
 90
        8
 70
   128
 43
0.0
 10
103.3830351044783
 20
568.2424286480968
 10
103.3821951711596
 20
568.2461786481129
 10
103.3813552378203
 20
568.2499286481244
 10
103.3805153044606
 20
568.2536786481315
 10
103.3796753710803
 20
568.2574286481338
 10
103.3788354376793
 20
568.2611786481316
 10
103.3779955042575
 20
568.2649286481246
 10
103.3763156373516
 20
568.2724286480968
  0
LWPOLYLINE
  5
1774
330
A
100
AcDbEntity
  8
INDUSA
  6
Continuous
100
AcDbPolyline
 90
        6
 70
   128
 43
0.0
 10
103.2308166815255
 20
568.1357563901164
 10
103.2265835130413
 20
568.1331241981679
 10
103.2227441002256
 20
568.1297229038768
 10
103.2196207984776
 20
568.1258379023965
 10
103.2171238687492
 20
568.1213572281133
 10
103.2152336335317
 20
568.1157203894002
  0
LWPOLYLINE
  5
177C
330
A
100
AcDbEntity
  8
INDUSA
  6
Continuous
100
AcDbPolyline
 90
        7
 70
   128
 43
0.0
 10
103.3104177753975
 20
568.1765109294921
 10
103.3209057663937
 20
568.1823069255192
 10
103.3310182222179
 20
568.1887580143584
 10
103.3406949077139
 20
568.1958257772258
 10
103.3502473165943
 20
568.2037965927007
 10
103.3592681814917
 20
568.212383778833
 10
103.3676995870273
 20
568.2215322107652
  0
LINE
  5
1785
330
A
100
AcDbEntity
  8
INDUSA
  6
Continuous
100
AcDbLine
 10
103.3676995870273
 20
568.2215322107652
 30
0.0
 11
103.3769551456459
 21
568.2324286480969
 31
0.0
  0
LINE
  5
1786
330
A
100
AcDbEntity
  8
INDUSA
  6
Continuous
100
AcDbLine
 10
103.3769551456459
 20
568.2324286480969
 30
0.0
 11
103.3633076329598
 21
568.2324286480969
 31
0.0
  0
LWPOLYLINE
  5
1787
330
A
100
AcDbEntity
  8
INDUSA
  6
Continuous
100
AcDbPolyline
 90
        6
 70
   128
 43
0.0
 10
103.3343628383633
 20
568.2374286480968
 10
103.3346446877293
 20
568.2357736742203
 10
103.3354584512169
 20
568.2343052864251
 10
103.3367123993867
 20
568.2331889981756
 10
103.3382652138808
 20
568.2325506517127
 10
103.339363054974
 20
568.2324286480969
  0
LINE
  5
178F
330
A
100
AcDbEntity
  8
INDUSA
  6
Continuous
100
AcDbLine
 10
103.3343628383633
 20
568.2774286480968
 30
0.0
 11
103.3343628383633
 21
568.2374286480968
 31
0.0
  0
LWPOLYLINE
  5
1790
330
A
100
AcDbEntity
  8
INDUSA
  6
Continuous
100
AcDbPolyline
 90
        6
 70
   128
 43
0.0
 10
103.339363054974
 20
568.2824286480967
 10
103.3377079018207
 20
568.2821467731646
 10
103.3362393543175
 20
568.2813329197468
 10
103.3351230152255
 20
568.2800788591582
 10
103.3344847550087
 20
568.2785260317431
 10
103.3343628383633
 20
568.2774286480968
  0
LINE
  5
1798
330
A
100
AcDbEntity
  8
INDUSA
  6
Continuous
100
AcDbLine
 10
103.3827220886329
 20
568.2824286480967
 30
0.0
 11
103.339363054974
 21
568.2824286480967
 31
0.0
  0
LWPOLYLINE
  5
1799
330
A
100
AcDbEntity
  8
INDUSA
  6
Continuous
100
AcDbPolyline
 90
        5
 70
   128
 43
0.0
 10
103.3846737566073
 20
568.2808657767418
 10
103.3844190469799
 20
568.2814871375537
 10
103.3839730222655
 20
568.2819891614044
 10
103.3833859644725
 20
568.2823152533085
 10
103.3827220886329
 20
568.2824286480967
  0
LWPOLYLINE
  5
17A0
330
A
100
AcDbEntity
  8
INDUSA
  6
Continuous
100
AcDbPolyline
 90
        8
 70
   128
 43
0.0
 10
103.3932605491038
 20
568.2425288301073
 10
103.3923840558614
 20
568.2464420582976
 10
103.3912825846415
 20
568.251359732384
 10
103.3901811133878
 20
568.2562774064627
 10
103.3890796421001
 20
568.2611950805338
 10
103.3879781707784
 20
568.2661127545974
 10
103.3868766994225
 20
568.2710304286533
 10
103.3846737566073
 20
568.2808657767418
  0
LWPOLYLINE
  5
17AA
330
A
100
AcDbEntity
  8
INDUSA
  6
Continuous
100
AcDbPolyline
 90
        4
 70
   128
 43
0.0
 10
103.3912425276416
 20
568.2340115383649
 10
103.3929019896296
 20
568.2369304330117
 10
103.3935017395667
 20
568.2402340747292
 10
103.3932605491038
 20
568.2425288301073
  0
LWPOLYLINE
  5
17B0
330
A
100
AcDbEntity
  8
INDUSA
  6
Continuous
100
AcDbPolyline
 90
        4
 70
   128
 43
0.0
 10
103.213371217051
 20
568.0661787495709
 10
103.2110233902518
 20
568.0637783400169
 10
103.2096024621322
 20
568.0607361007834
 10
103.2092648372309
 20
568.0587186833539
  0
LWPOLYLINE
  5
17B6
330
A
100
AcDbEntity
  8
INDUSA
  6
Continuous
100
AcDbPolyline
 90
        9
 70
   128
 43
0.0
 10
103.1847891669209
 20
567.874664514738
 10
103.1892509981289
 20
567.8975649836424
 10
103.1933171292924
 20
567.9205390057925
 10
103.1969894674199
 20
567.9436075287383
 10
103.200261367355
 20
567.9667362421916
 10
103.2031014732064
 20
567.9896571264135
 10
103.2055482766888
 20
568.0126233271829
 10
103.2076036399168
 20
568.0356551119416
 10
103.2092648372309
 20
568.0587186833539
  0
ARC
  5
17C1
330
A
100
AcDbEntity
  8
INDUSA
  6
Continuous
100
AcDbCircle
 10
103.1838093066923
 20
567.8748641993203
 30
0.0
 40
0.001
100
AcDbArc
 50
270.0000000000041
 51
348.4814851216707
  0
LINE
  5
17C2
330
A
100
AcDbEntity
  8
INDUSA
  6
Continuous
100
AcDbLine
 10
103.1838093066923
 20
567.8738641993203
 30
0.0
 11
103.1570621900332
 21
567.8738641993203
 31
0.0
  0
ARC
  5
17C3
330
A
100
AcDbEntity
  8
INDUSA
  6
Continuous
100
AcDbCircle
 10
102.9795032990545
 20
568.0050689264861
 30
0.0
 40
0.0050000000000001
100
AcDbArc
 50
337.4104397824155
 51
345.005762261073
  0
LINE
  5
17C4
330
A
100
AcDbEntity
  8
INDUSA
  6
Continuous
100
AcDbLine
 10
102.9841197001729
 20
568.0031482909888
 30
0.0
 11
102.9831046550814
 21
568.0007085488813
 31
0.0
  0
LINE
  5
17C5
330
A
100
AcDbEntity
  8
INDUSA
  6
Continuous
100
AcDbLine
 10
102.9787343277022
 20
568.0036945193676
 30
0.0
 11
102.9831046550814
 21
568.0007085488813
 31
0.0
  0
ARC
  5
17C6
330
A
100
AcDbEntity
  8
INDUSA
  6
Continuous
100
AcDbCircle
 10
103.0950613156362
 20
567.9527745160954
 30
0.0
 40
0.060479238390792
100
AcDbArc
 50
195.6117915518495
 51
275.4449548111686
  0
ARC
  5
17C7
330
A
100
AcDbEntity
  8
INDUSA
  6
Continuous
100
AcDbCircle
 10
103.0922268040843
 20
567.9823438429298
 30
0.0
 40
0.0901841096328816
100
AcDbArc
 50
275.4550600225637
 51
347.2423180368069
  0
LWPOLYLINE
  5
17C8
330
A
100
AcDbEntity
  8
INDUSA
  6
Continuous
100
AcDbPolyline
 90
        3
 70
   128
 43
0.0
 10
103.1801840715566
 20
567.9624286096855
 10
103.1811521973367
 20
567.9664409942605
 10
103.1827927282197
 20
567.973477741406
  0
LWPOLYLINE
  5
17CD
330
A
100
AcDbEntity
  8
INDUSA
  6
Continuous
100
AcDbPolyline
 90
        3
 70
   128
 43
0.0
 10
103.176437960121
 20
567.8838641993203
 10
103.1829219288406
 20
567.9190454526908
 10
103.1884678140792
 20
567.9544125488945
  0
LINE
  5
17D2
330
A
100
AcDbEntity
  8
INDUSA
  6
Continuous
100
AcDbLine
 10
103.1693011841887
 20
567.8838641993203
 30
0.0
 11
103.176437960121
 21
567.8838641993203
 31
0.0
  0
LINE
  5
17D3
330
A
100
AcDbEntity
  8
INDUSA
  6
Continuous
100
AcDbLine
 10
103.1570621900332
 20
567.8738641993203
 30
0.0
 11
103.1578844435676
 21
567.8778646266947
 31
0.0
  0
LWPOLYLINE
  5
17D4
330
A
100
AcDbEntity
  8
INDUSA
  6
Continuous
100
AcDbPolyline
 90
        3
 70
   128
 43
0.0
 10
102.9787343277022
 20
568.0036945193676
 10
102.9677629859009
 20
568.0035203372518
 10
102.9175354257983
 20
568.0025555172376
  0
LWPOLYLINE
  5
17D9
330
A
100
AcDbEntity
  8
INDUSA
  6
Continuous
100
AcDbPolyline
 90
       13
 70
   128
 43
0.0
 10
103.213371217051
 20
568.0661787495709
 10
103.2308177743104
 20
568.0791460232962
 10
103.2479647637873
 20
568.0925069130466
 10
103.2648378457889
 20
568.1062837296658
 10
103.2813919526757
 20
568.1204422250673
 10
103.2962066378973
 20
568.1336843533767
 10
103.3107419675368
 20
568.147232526797
 10
103.3250160677404
 20
568.16110548723
 10
103.338997038801
 20
568.1752738104238
 10
103.3524993156203
 20
568.1895379925277
 10
103.3657043550792
 20
568.2040777753233
 10
103.3786282086865
 20
568.2189126164844
 10
103.3912425276416
 20
568.2340115383649
  0
LWPOLYLINE
  5
17E8
330
A
100
AcDbEntity
  8
INDUSA
  6
Continuous
100
AcDbPolyline
 90
        5
 70
   128
 43
0.0
 10
103.1884678140792
 20
567.9544125488945
 10
103.1864031182921
 20
567.948090925652
 10
103.1839241361927
 20
567.9419199827042
 10
103.180984771758
 20
567.9358200851761
 10
103.1776406465015
 20
567.9299323488197
  0
LWPOLYLINE
  5
17EF
330
A
100
AcDbEntity
  8
INDUSA
  6
Continuous
100
AcDbPolyline
 90
        3
 70
   128
 43
0.0
 10
103.1693011841887
 20
567.8838641993203
 10
103.1736723400709
 20
567.9068581530034
 10
103.1776406465015
 20
567.9299323488197
  0
LWPOLYLINE
  5
17F4
330
A
100
AcDbEntity
  8
INDUSA
  6
Continuous
100
AcDbPolyline
 90
       14
 70
   128
 43
0.0
 10
103.1017656417066
 20
567.8825866388331
 10
103.0950331339158
 20
567.8822701196139
 10
103.088285546858
 20
567.8825964591624
 10
103.0816150058795
 20
567.8835612019386
 10
103.073942680499
 20
567.8855101220535
 10
103.0665120973876
 20
567.8883118323685
 10
103.0594629966369
 20
567.8919136437136
 10
103.0528682729538
 20
567.8962922834458
 10
103.0467839425605
 20
567.9013956225223
 10
103.0413244278211
 20
567.9071276871739
 10
103.0365508109049
 20
567.9134423881087
 10
103.0324986953272
 20
567.9202719931786
 10
103.0292442854713
 20
567.9274880643292
 10
103.02715797321
 20
567.933789727711
  0
LINE
  5
1804
330
A
100
AcDbEntity
  8
INDUSA
  6
Continuous
100
AcDbLine
 10
102.9173315631969
 20
568.0025513501818
 30
0.0
 11
102.9173315631969
 21
568.0125839738182
 31
0.0
  0
LINE
  5
1805
330
A
100
AcDbEntity
  8
INDUSA
  6
Continuous
100
AcDbLine
 10
102.9175354257983
 20
568.0025555172376
 30
0.0
 11
102.9173315631969
 21
568.0025513501818
 31
0.0
  0
LINE
  5
1806
330
A
100
AcDbEntity
  8
INDUSA
  6
Continuous
100
AcDbLine
 10
103.02715797321
 20
567.933789727711
 30
0.0
 11
103.0074880331433
 21
568.0040384469958
 31
0.0
  0
LINE
  5
1807
330
A
100
AcDbEntity
  8
INDUSA
  6
Continuous
100
AcDbLine
 10
103.0074880331433
 20
568.0040384469958
 30
0.0
 11
102.9843330583092
 21
568.003775316985
 31
0.0
  0
LINE
  5
1808
330
A
100
AcDbEntity
  8
INDUSA
  6
Continuous
100
AcDbLine
 10
103.1578844431944
 20
567.8778646248787
 30
0.0
 11
103.1646235960702
 21
567.9130531963642
 31
0.0
  0
LWPOLYLINE
  5
1809
330
A
100
AcDbEntity
  8
INDUSA
  6
Continuous
100
AcDbPolyline
 90
       11
 70
   128
 43
0.0
 10
103.1646235960702
 20
567.9130531963642
 10
103.1598456603229
 20
567.9083831812757
 10
103.1547437643587
 20
567.9040232270653
 10
103.1480239194312
 20
567.8991029195326
 10
103.1409193321537
 20
567.894756589853
 10
103.1332569721781
 20
567.890916931263
 10
103.1252950461038
 20
567.8877447913432
 10
103.1195822385138
 20
567.8859377367351
 10
103.1137717231052
 20
567.8844750243219
 10
103.1077972524779
 20
567.8833488111523
 10
103.1017655253797
 20
567.8825866277152
  0
LINE
  5
1830
330
A
100
AcDbEntity
  8
INDUSA
  6
Continuous
100
AcDbLine
 10
102.9167877388244
 20
568.2825039536036
 30
0.0
 11
102.9167877388244
 21
568.2824286480967
 31
0.0
  0
LINE
  5
1831
330
A
100
AcDbEntity
  8
INDUSA
  6
Continuous
100
AcDbLine
 10
102.9894912886027
 20
568.2824286480967
 30
0.0
 11
102.9167877388244
 21
568.2824286480967
 31
0.0
  0
LWPOLYLINE
  5
1832
330
A
100
AcDbEntity
  8
INDUSA
  6
Continuous
100
AcDbPolyline
 90
        7
 70
   128
 43
0.0
 10
102.9945025485738
 20
568.2774286480968
 10
102.9944849259347
 20
568.2778475895278
 10
102.9942887729734
 20
568.2788734156586
 10
102.9935397608427
 20
568.2803753600092
 10
102.9923360914675
 20
568.2815448423959
 10
102.9908112446564
 20
568.2822520703795
 10
102.9894912886027
 20
568.2824286480967
  0
LINE
  5
183B
330
A
100
AcDbEntity
  8
INDUSA
  6
Continuous
100
AcDbLine
 10
102.9945025485738
 20
568.2374286480968
 30
0.0
 11
102.9945025485738
 21
568.2774286480968
 31
0.0
  0
LWPOLYLINE
  5
183C
330
A
100
AcDbEntity
  8
INDUSA
  6
Continuous
100
AcDbPolyline
 90
        7
 70
   128
 43
0.0
 10
102.9894912886027
 20
568.2324286480969
 10
102.9896122326023
 20
568.2324301046365
 10
102.9906615815431
 20
568.2325669146115
 10
102.9922099544568
 20
568.2332284484195
 10
102.9934519667152
 20
568.2343654640584
 10
102.9942454912673
 20
568.2358478596801
 10
102.9945025485738
 20
568.2374286480968
  0
LINE
  5
1845
330
A
100
AcDbEntity
  8
INDUSA
  6
Continuous
100
AcDbLine
 10
102.9894912886027
 20
568.2324286480969
 30
0.0
 11
102.9811501001383
 21
568.2324286480969
 31
0.0
  0
LINE
  5
1846
330
A
100
AcDbEntity
  8
INDUSA
  6
Continuous
100
AcDbLine
 10
103.0986864700297
 20
567.9624286480967
 30
0.0
 11
103.1083951463263
 21
567.9624286480967
 31
0.0
  0
LWPOLYLINE
  5
1847
330
A
100
AcDbEntity
  8
INDUSA
  6
Continuous
100
AcDbPolyline
 90
        5
 70
   128
 43
0.0
 10
103.097728780759
 20
567.9631391684842
 10
103.097878600028
 20
567.9628387029792
 10
103.0981194172259
 20
567.9626047601149
 10
103.0984241829769
 20
567.9624636203727
 10
103.0986864700297
 20
567.9624286480969
  0
LWPOLYLINE
  5
184E
330
A
100
AcDbEntity
  8
INDUSA
  6
Continuous
100
AcDbPolyline
 90
        7
 70
   128
 43
0.0
 10
103.049628225906
 20
568.1026657681197
 10
103.0502887192439
 20
568.1027783840912
 10
103.0508746792508
 20
568.1031034271496
 10
103.051319190725
 20
568.1036034446938
 10
103.0515735461559
 20
568.1042225040563
 10
103.0516095224147
 20
568.1048926784115
 10
103.0514975308471
 20
568.1053616322353
  0
LINE
  5
1857
330
A
100
AcDbEntity
  8
INDUSA
  6
Continuous
100
AcDbLine
 10
102.8243315631969
 20
568.2065189191933
 30
0.0
 11
102.8243315631969
 21
568.2155485758029
 31
0.0
  0
LWPOLYLINE
  5
1858
330
A
100
AcDbEntity
  8
INDUSA
  6
Continuous
100
AcDbPolyline
 90
        7
 70
   128
 43
0.0
 10
102.8553315631969
 20
568.2230938715965
 10
102.85519705768
 20
568.2230847087802
 10
102.854879300772
 20
568.2229848608149
 10
102.8546116567228
 20
568.2227854331601
 10
102.8544231848947
 20
568.2225073127849
 10
102.8543560120424
 20
568.2223073917238
 10
102.8543315631968
 20
568.2220859429264
  0
LINE
  5
1861
330
A
100
AcDbEntity
  8
INDUSA
  6
Continuous
100
AcDbLine
 10
102.8633315631969
 20
568.2230938715965
 30
0.0
 11
102.8553315631969
 21
568.2230938715965
 31
0.0
  0
LWPOLYLINE
  5
1862
330
A
100
AcDbEntity
  8
INDUSA
  6
Continuous
100
AcDbPolyline
 90
        7
 70
   128
 43
0.0
 10
102.8643315631968
 20
568.2220859429264
 10
102.8643315322285
 20
568.2220938722702
 10
102.8643071143513
 20
568.2223073917238
 10
102.8641786536901
 20
568.2226215076759
 10
102.8639532851065
 20
568.2228753236358
 10
102.8636577028558
 20
568.2230387389808
 10
102.8633315631969
 20
568.2230938715965
  0
LWPOLYLINE
  5
186B
330
A
100
AcDbEntity
  8
INDUSA
  6
Continuous
100
AcDbPolyline
 90
        8
 70
   128
 43
0.0
 10
102.9578196600365
 20
568.2424286480968
 10
102.9561643449824
 20
568.2421467493519
 10
102.95469565333
 20
568.2413328151089
 10
102.9535792535759
 20
568.2400786494986
 10
102.9529410323404
 20
568.2385257736509
 10
102.9528528458402
 20
568.2368493218791
 10
102.9533245340007
 20
568.2352382526933
 10
102.9534194618699
 20
568.2350533416066
  0
LINE
  5
1875
330
A
100
AcDbEntity
  8
INDUSA
  6
Continuous
100
AcDbLine
 10
102.9844805402402
 20
568.2424286480968
 30
0.0
 11
102.9811501001383
 21
568.2424286480968
 31
0.0
  0
LINE
  5
1876
330
A
100
AcDbEntity
  8
INDUSA
  6
Continuous
100
AcDbLine
 10
102.9844805402402
 20
568.2724286480968
 30
0.0
 11
102.9844805402402
 21
568.2424286480968
 31
0.0
  0
LINE
  5
1877
330
A
100
AcDbEntity
  8
INDUSA
  6
Continuous
100
AcDbLine
 10
102.9844805402402
 20
568.2724286480968
 30
0.0
 11
102.8667046228998
 21
568.2724286480968
 31
0.0
  0
LWPOLYLINE
  5
1878
330
A
100
AcDbEntity
  8
INDUSA
  6
Continuous
100
AcDbPolyline
 90
        7
 70
   128
 43
0.0
 10
102.8633315631969
 20
568.2627634245971
 10
102.8634220220504
 20
568.2627675585477
 10
102.8636236012625
 20
568.2628073802332
 10
102.8639230109412
 20
568.262958678764
 10
102.8641555575157
 20
568.2632003592634
 10
102.8642964786838
 20
568.2635067857425
 10
102.8643315631968
 20
568.263771353267
  0
LINE
  5
1881
330
A
100
AcDbEntity
  8
INDUSA
  6
Continuous
100
AcDbLine
 10
102.8553315631969
 20
568.2627634245971
 30
0.0
 11
102.8633315631969
 21
568.2627634245971
 31
0.0
  0
LWPOLYLINE
  5
1882
330
A
100
AcDbEntity
  8
INDUSA
  6
Continuous
100
AcDbPolyline
 90
        7
 70
   128
 43
0.0
 10
102.8543315631968
 20
568.263771353267
 10
102.8543690690611
 20
568.2634979762204
 10
102.854514799878
 20
568.2631899016707
 10
102.8546576029303
 20
568.2630268046637
 10
102.8549386079481
 20
568.2628445343676
 10
102.8552642117297
 20
568.2627657141978
 10
102.8553315631969
 20
568.2627634245971
  0
LWPOLYLINE
  5
1894
330
A
100
AcDbEntity
  8
INDUSA
  6
Continuous
100
AcDbPolyline
 90
        5
 70
   128
 43
0.0
 10
102.90723514306
 20
568.2885287362823
 10
102.9062662303237
 20
568.289900580984
 10
102.9048978211368
 20
568.2908743590387
 10
102.9032844710782
 20
568.2913400834017
 10
102.9027218615897
 20
568.2913715668674
  0
LWPOLYLINE
  5
189B
330
A
100
AcDbEntity
  8
INDUSA
  6
Continuous
100
AcDbPolyline
 90
        5
 70
   128
 43
0.0
 10
102.9175354257983
 20
568.104301778956
 10
102.9468953721039
 20
568.103713988056
 10
102.9762568343041
 20
568.1032003584236
 10
103.0264868239619
 20
568.1027024990323
 10
103.049628225906
 20
568.1026657681197
  0
LINE
  5
18A2
330
A
100
AcDbEntity
  8
INDUSA
  6
Continuous
100
AcDbLine
 10
102.8543315631968
 20
568.2220859429264
 30
0.0
 11
102.8543315631968
 21
568.2142665761581
 31
0.0
  0
LINE
  5
18A3
330
A
100
AcDbEntity
  8
INDUSA
  6
Continuous
100
AcDbLine
 10
102.8543315631968
 20
568.2718100871607
 30
0.0
 11
102.8543315631968
 21
568.263771353267
 31
0.0
  0
LINE
  5
18A4
330
A
100
AcDbEntity
  8
INDUSA
  6
Continuous
100
AcDbLine
 10
102.8643315631968
 20
568.263771353267
 30
0.0
 11
102.8643315631968
 21
568.2723100411401
 31
0.0
  0
LINE
  5
18A5
330
A
100
AcDbEntity
  8
INDUSA
  6
Continuous
100
AcDbLine
 10
102.8643315631968
 20
568.2133157117913
 30
0.0
 11
102.8643315631968
 21
568.2220859429264
 31
0.0
  0
LWPOLYLINE
  5
18A6
330
A
100
AcDbEntity
  8
INDUSA
  6
Continuous
100
AcDbPolyline
 90
        5
 70
   128
 43
0.0
 10
102.9757472105633
 20
568.2035001148449
 10
102.9695086544585
 20
568.210816985904
 10
102.9637142607858
 20
568.2184902810209
 10
102.9583146649574
 20
568.2266150938743
 10
102.9534194618699
 20
568.2350533416066
  0
LINE
  5
18AD
330
A
100
AcDbEntity
  8
INDUSA
  6
Continuous
100
AcDbLine
 10
102.9173315631969
 20
568.0942733223753
 30
0.0
 11
102.9173315631969
 21
568.1043059460117
 31
0.0
  0
LINE
  5
18AE
330
A
100
AcDbEntity
  8
INDUSA
  6
Continuous
100
AcDbLine
 10
102.9173315631969
 20
568.1043059460117
 30
0.0
 11
102.9175354257983
 21
568.104301778956
 31
0.0
  0
LWPOLYLINE
  5
18AF
330
A
100
AcDbEntity
  8
INDUSA
  6
Continuous
100
AcDbPolyline
 90
        4
 70
   128
 43
0.0
 10
103.0559331361424
 20
568.0926382534043
 10
103.0680147545797
 20
568.0568440355215
 10
103.0800227041044
 20
568.020012378942
 10
103.097728780759
 20
567.9631391684842
  0
LWPOLYLINE
  5
18B5
330
A
100
AcDbEntity
  8
INDUSA
  6
Continuous
100
AcDbPolyline
 90
        9
 70
   128
 43
0.0
 10
103.0514975308471
 20
568.1053616322353
 10
103.0456541351999
 20
568.1194022738679
 10
103.0387154601102
 20
568.1329352684993
 10
103.0304967975762
 20
568.1462083529156
 10
103.0212199915141
 20
568.1587643744296
 10
103.0133773643391
 20
568.1678945783068
 10
103.0049619750011
 20
568.1764994131969
 10
102.9958386375678
 20
568.1845789027224
 10
102.9866229640283
 20
568.1925598301059
  0
LWPOLYLINE
  5
18C0
330
A
100
AcDbEntity
  8
INDUSA
  6
Continuous
100
AcDbPolyline
 90
        3
 70
   128
 43
0.0
 10
102.9866229640283
 20
568.1925598301059
 10
102.9852080972557
 20
568.193472968601
 10
102.9836405866671
 20
568.1938609593518
  0
LINE
  5
18CB
330
A
100
AcDbEntity
  8
INDUSA
  6
Continuous
100
AcDbLine
 10
102.9501392987038
 20
567.9475067267787
 30
0.0
 11
102.9734813112729
 21
568.0036111219553
 31
0.0
  0
LINE
  5
18CC
330
A
100
AcDbEntity
  8
INDUSA
  6
Continuous
100
AcDbLine
 10
102.9831046550814
 20
568.0007085488813
 30
0.0
 11
102.9593721009407
 21
567.943665455784
 31
0.0
  0
LINE
  5
18CD
330
A
100
AcDbEntity
  8
INDUSA
  6
Continuous
100
AcDbLine
 10
103.1884014330802
 20
567.9542093055553
 30
0.0
 11
103.1881132918668
 21
567.9521516977132
 31
0.0
  0
LINE
  5
18E3
330
A
100
AcDbEntity
  8
INDUSA
  6
Continuous
100
AcDbLine
 10
103.3356347532536
 20
568.2324286480969
 30
0.0
 11
103.3390085696908
 21
568.2324286480969
 31
0.0
  0
LINE
  5
18F3
330
A
100
AcDbEntity
  8
INDUSA
  6
Continuous
100
AcDbLine
 10
102.8543315631968
 20
568.2220859429264
 30
0.0
 11
102.8543315631968
 21
568.263771353267
 31
0.0
  0
LINE
  5
18F5
330
A
100
AcDbEntity
  8
INDUSA
  6
Continuous
100
AcDbLine
 10
102.8643315631968
 20
568.263771353267
 30
0.0
 11
102.8643315631968
 21
568.2220859429264
 31
0.0
  0
LWPOLYLINE
  5
18F8
330
A
100
AcDbEntity
  8
INDUSA
  6
Continuous
100
AcDbPolyline
 90
        3
 70
   128
 43
0.0
 10
102.9249810171332
 20
568.2824306276278
 10
102.9249959960906
 20
568.2824288993988
 10
102.9250046720755
 20
568.2824286480967
  0
LINE
  5
1909
330
A
100
AcDbEntity
  8
INDUSA
  6
Continuous
100
AcDbLine
 10
103.006444462331
 20
568.2824286480967
 30
0.0
 11
102.9894912886027
 21
568.2824286480967
 31
0.0
  0
LINE
  5
1916
330
A
100
AcDbEntity
  8
INDUSA
  6
Continuous
100
AcDbLine
 10
102.9894912886027
 20
568.2324286480969
 30
0.0
 11
103.006444462331
 21
568.2324286480969
 31
0.0
  0
LINE
  5
193D
330
A
100
AcDbEntity
  8
INDUSA
  6
Continuous
100
AcDbLine
 10
103.3389896489377
 20
568.2824286480967
 30
0.0
 11
103.3356347532536
 21
568.2824286480967
 31
0.0
  0
LINE
  5
19AC
330
A
100
AcDbEntity
  8
INDUSA
  6
Continuous
100
AcDbLine
 10
103.1554756784117
 20
567.8738641993203
 30
0.0
 11
103.1570621900332
 21
567.8738641993203
 31
0.0
  0
LINE
  5
19BF
330
A
100
AcDbEntity
  8
INDUSA
  6
Continuous
100
AcDbLine
 10
103.1554756784117
 20
567.8738641993203
 30
0.0
 11
102.9310795619168
 21
567.8738641993203
 31
0.0
  0
LWPOLYLINE
  5
19D5
330
A
100
AcDbEntity
  8
INDUSA
  6
Continuous
100
AcDbPolyline
 90
        7
 70
   128
 43
0.0
 10
102.9223269784383
 20
567.8838641993203
 10
102.9227166480405
 20
567.8839025271762
 10
102.9230913824424
 20
567.8840160417193
 10
102.9234368188777
 20
567.8842003921804
 10
102.9237397175087
 20
567.8844485128017
 10
102.9239884688803
 20
567.884750893652
 10
102.9241735388856
 20
567.8850959451214
  0
LINE
  5
19DE
330
A
100
AcDbEntity
  8
INDUSA
  6
Continuous
100
AcDbLine
 10
102.9303315631969
 20
567.8738641993203
 30
0.0
 11
102.9301683231632
 21
567.8838641993203
 31
0.0
  0
LINE
  5
19DF
330
A
100
AcDbEntity
  8
INDUSA
  6
Continuous
100
AcDbLine
 10
102.9241735388856
 20
567.8850959451214
 30
0.0
 11
102.9501392987038
 21
567.9475067267787
 31
0.0
  0
LINE
  5
19E0
330
A
100
AcDbEntity
  8
INDUSA
  6
Continuous
100
AcDbLine
 10
102.9303315631969
 20
567.8738641993203
 30
0.0
 11
102.9593721009407
 21
567.943665455784
 31
0.0
  0
LINE
  5
1A0F
330
A
100
AcDbEntity
  8
INDUSA
  6
Continuous
100
AcDbLine
 10
103.1087266919296
 20
568.2824286480967
 30
0.0
 11
103.006444462331
 21
568.2824286480967
 31
0.0
  0
LINE
  5
1A1C
330
A
100
AcDbEntity
  8
INDUSA
  6
Continuous
100
AcDbLine
 10
103.006444462331
 20
568.2324286480969
 30
0.0
 11
103.1087266919296
 21
568.2324286480969
 31
0.0
  0
LWPOLYLINE
  5
1A1E
330
A
100
AcDbEntity
  8
INDUSA
  6
Continuous
100
AcDbPolyline
 90
        9
 70
   128
 43
0.0
 10
102.8253315631969
 20
567.8738641993203
 10
102.8251364728749
 20
567.8738834140399
 10
102.8249488797645
 20
567.8739403197878
 10
102.8247759929638
 20
567.8740327297081
 10
102.8246244564157
 20
567.8741570925392
 10
102.8245000935846
 20
567.8743086290872
 10
102.8244076836644
 20
567.8744815158879
 10
102.8243507779164
 20
567.8746691089982
 10
102.8243315631969
 20
567.8748641993203
  0
LINE
  5
1A29
330
A
100
AcDbEntity
  8
INDUSA
  6
Continuous
100
AcDbLine
 10
102.8243315631969
 20
567.8838641993203
 30
0.0
 11
102.9301683231632
 21
567.8838641993203
 31
0.0
  0
LINE
  5
1A2A
330
A
100
AcDbEntity
  8
INDUSA
  6
Continuous
100
AcDbLine
 10
102.8253315631969
 20
567.8738641993203
 30
0.0
 11
102.9303315631969
 21
567.8738641993203
 31
0.0
  0
LINE
  5
1A2B
330
A
100
AcDbEntity
  8
INDUSA
  6
Continuous
100
AcDbLine
 10
102.8243315631969
 20
567.8838641993203
 30
0.0
 11
102.8243315631969
 21
567.8748641993203
 31
0.0
  0
LINE
  5
1A3D
330
A
100
AcDbEntity
  8
INDUSA
  6
Continuous
100
AcDbLine
 10
103.2839810999097
 20
568.2324286480969
 30
0.0
 11
103.3356347532536
 21
568.2324286480969
 31
0.0
  0
LINE
  5
1A4A
330
A
100
AcDbEntity
  8
INDUSA
  6
Continuous
100
AcDbLine
 10
103.3356347532536
 20
568.2824286480967
 30
0.0
 11
103.2839810999097
 21
568.2824286480967
 31
0.0
  0
LINE
  5
1A77
330
A
100
AcDbEntity
  8
INDUSA
  6
Continuous
100
AcDbLine
 10
102.9303315631969
 20
567.8738641993203
 30
0.0
 11
102.9310795619168
 21
567.8738641993203
 31
0.0
  0
LINE
  5
1A79
330
A
100
AcDbEntity
  8
INDUSA
  6
Continuous
100
AcDbLine
 10
102.8243315631969
 20
568.2065189191933
 30
0.0
 11
102.8243315631969
 21
567.8838641993203
 31
0.0
  0
LINE
  5
1A9C
330
A
100
AcDbEntity
  8
INDUSA
  6
Continuous
100
AcDbLine
 10
103.2839810999097
 20
568.2824286480967
 30
0.0
 11
103.1087266919296
 21
568.2824286480967
 31
0.0
  0
LINE
  5
1A9E
330
A
100
AcDbEntity
  8
INDUSA
  6
Continuous
100
AcDbLine
 10
103.1087266919296
 20
568.2324286480969
 30
0.0
 11
103.2839810999097
 21
568.2324286480969
 31
0.0
  0
LWPOLYLINE
  5
1AAB
330
A
100
AcDbEntity
  8
INDUSA
  6
Continuous
100
AcDbPolyline
 90
        6
 70
   128
 43
0.0
 10
102.8493294250272
 20
568.3338641973043
 10
102.8490475702351
 20
568.3355192207308
 10
102.8482337822091
 20
568.33698765302
 10
102.8469798080108
 20
568.3381039426357
 10
102.8454270190188
 20
568.3387422373735
 10
102.844329406208
 20
568.3388641993203
  0
LINE
  5
1AB3
330
A
100
AcDbEntity
  8
INDUSA
  6
Continuous
100
AcDbLine
 10
102.8393293723633
 20
568.2988641993204
 30
0.0
 11
102.8393293849648
 21
568.3288641993203
 31
0.0
  0
LINE
  5
1AB4
330
A
100
AcDbEntity
  8
INDUSA
  6
Continuous
100
AcDbLine
 10
102.8263151229314
 20
568.3288641993203
 30
0.0
 11
102.8393293849648
 21
568.3288641993203
 31
0.0
  0
LINE
  5
1AB5
330
A
100
AcDbEntity
  8
INDUSA
  6
Continuous
100
AcDbLine
 10
102.8263151229314
 20
568.2988641993204
 30
0.0
 11
102.8263151229314
 21
568.3288641993203
 31
0.0
  0
LINE
  5
1AB6
330
A
100
AcDbEntity
  8
INDUSA
  6
Continuous
100
AcDbLine
 10
102.8263151229314
 20
568.2988641993204
 30
0.0
 11
102.8393293723633
 21
568.2988641993204
 31
0.0
  0
LWPOLYLINE
  5
1AB7
330
A
100
AcDbEntity
  8
INDUSA
  6
Continuous
100
AcDbPolyline
 90
        6
 70
   128
 43
0.0
 10
102.8463293965605
 20
568.2888641993204
 10
102.8473224199657
 20
568.289033313936
 10
102.8482034875325
 20
568.2895215918307
 10
102.8488732636704
 20
568.2902739825151
 10
102.8492562356427
 20
568.2912056567748
 10
102.8493294079929
 20
568.2918641980965
  0
LINE
  5
1ABF
330
A
100
AcDbEntity
  8
INDUSA
  6
Continuous
100
AcDbLine
 10
102.8273315631969
 20
568.2888641993202
 30
0.0
 11
102.8463293965605
 21
568.2888641993202
 31
0.0
  0
ARC
  5
1AC0
330
A
100
AcDbEntity
  8
INDUSA
  6
Continuous
100
AcDbCircle
 10
102.8273315631969
 20
568.2858641993203
 30
0.0
 40
0.0030000000000001
100
AcDbArc
 50
90.00000000000079
 51
180.0
  0
LINE
  5
1AC1
330
A
100
AcDbEntity
  8
INDUSA
  6
Continuous
100
AcDbLine
 10
102.8243315631969
 20
568.2858641993203
 30
0.0
 11
102.8243315631969
 21
568.2811630528123
 31
0.0
  0
ARC
  5
1AC2
330
A
100
AcDbEntity
  8
INDUSA
  6
Continuous
100
AcDbCircle
 10
102.8213315631969
 20
568.2811630528123
 30
0.0
 40
0.003
100
AcDbArc
 50
277.765166018423
 51
0.0000000000003997
  0
LINE
  5
1AC3
330
A
100
AcDbEntity
  8
INDUSA
  6
Continuous
100
AcDbLine
 10
102.8217369028111
 20
568.2781905623081
 30
0.0
 11
102.8074446102092
 21
568.276241613317
 31
0.0
  0
LWPOLYLINE
  5
1AC4
330
A
100
AcDbEntity
  8
INDUSA
  6
Continuous
100
AcDbPolyline
 90
        6
 70
   128
 43
0.0
 10
102.8063090922643
 20
568.2772323321119
 10
102.8063654446373
 20
568.2769014502174
 10
102.8065281407255
 20
568.2766078729835
 10
102.8067788534861
 20
568.2763846503855
 10
102.8070894156776
 20
568.2762569108639
 10
102.8074446102092
 20
568.276241613317
  0
LINE
  5
1ACC
330
A
100
AcDbEntity
  8
INDUSA
  6
Continuous
100
AcDbLine
 10
102.8063090922643
 20
568.2772323321119
 30
0.0
 11
102.8063090922643
 21
568.2853063696795
 31
0.0
  0
LWPOLYLINE
  5
1ACD
330
A
100
AcDbEntity
  8
INDUSA
  6
Continuous
100
AcDbPolyline
 90
        6
 70
   128
 43
0.0
 10
102.8071743837997
 20
568.2862973112207
 10
102.8068537993596
 20
568.2861966658533
 10
102.8065846025155
 20
568.285995573095
 10
102.8063972043108
 20
568.2857167416133
 10
102.8063127421403
 20
568.2853917138011
 10
102.8063090922643
 20
568.2853063696796
  0
LINE
  5
1AD5
330
A
100
AcDbEntity
  8
INDUSA
  6
Continuous
100
AcDbLine
 10
102.8145821940039
 20
568.2873074671577
 30
0.0
 11
102.8071743837997
 21
568.2862973112207
 31
0.0
  0
LWPOLYLINE
  5
1AD6
330
A
100
AcDbEntity
  8
INDUSA
  6
Continuous
100
AcDbPolyline
 90
        6
 70
   128
 43
0.0
 10
102.8145821940039
 20
568.2873074671577
 10
102.8152232527116
 20
568.2875087240362
 10
102.8157615540152
 20
568.2879108398707
 10
102.8161363077735
 20
568.2884684136487
 10
102.8163052609965
 20
568.2891184267417
 10
102.8163125749993
 20
568.2892892905583
  0
LINE
  5
1ADE
330
A
100
AcDbEntity
  8
INDUSA
  6
Continuous
100
AcDbLine
 10
102.8163125749993
 20
568.2892892905583
 30
0.0
 11
102.8163125749993
 21
568.3368641993203
 31
0.0
  0
LWPOLYLINE
  5
1ADF
330
A
100
AcDbEntity
  8
INDUSA
  6
Continuous
100
AcDbPolyline
 90
        7
 70
   128
 43
0.0
 10
102.8183131458757
 20
568.3388641993203
 10
102.8180105614936
 20
568.3388411903669
 10
102.8173728633493
 20
568.3386295222744
 10
102.8168412283872
 20
568.3382187048255
 10
102.8164756752441
 20
568.3376551629396
 10
102.8163508865744
 20
568.3372537302282
 10
102.8163125749993
 20
568.3368641993204
  0
LINE
  5
1AE8
330
A
100
AcDbEntity
  8
INDUSA
  6
Continuous
100
AcDbLine
 10
102.8183131458757
 20
568.3388641993203
 30
0.0
 11
102.844329406208
 21
568.3388641993203
 31
0.0
  0
LINE
  5
1AE9
330
A
100
AcDbEntity
  8
INDUSA
  6
Continuous
100
AcDbLine
 10
102.8493294079929
 20
568.2918641980965
 30
0.0
 11
102.8493294250272
 21
568.3338641973043
 31
0.0
  0
LWPOLYLINE
  5
1AEA
330
A
100
AcDbEntity
  8
INDUSA
  6
Continuous
100
AcDbPolyline
 90
        7
 70
   128
 43
0.0
 10
102.7243315631969
 20
567.9827889129045
 10
102.7242890691952
 20
567.9830773966773
 10
102.72420756597
 20
567.983271337053
 10
102.7239985410838
 20
567.9835341735154
 10
102.723714293195
 20
567.983713000761
 10
102.7233869286566
 20
567.9837876253178
 10
102.7233315631969
 20
567.9837891595449
  0
LINE
  5
1AF3
330
A
100
AcDbEntity
  8
INDUSA
  6
Continuous
100
AcDbLine
 10
102.7243315631969
 20
567.9827889129045
 30
0.0
 11
102.7243315631969
 21
567.9145277223118
 31
0.0
  0
ARC
  5
1AF4
330
A
100
AcDbEntity
  8
INDUSA
  6
Continuous
100
AcDbCircle
 10
102.7193315631969
 20
567.9145277223118
 30
0.0
 40
0.005
100
AcDbArc
 50
278.1301023541547
 51
0.0000000000003997
  0
LINE
  5
1AF5
330
A
100
AcDbEntity
  8
INDUSA
  6
Continuous
100
AcDbLine
 10
102.720038669978
 20
567.9095779748435
 30
0.0
 11
102.6936244564157
 21
567.9058045157631
 31
0.0
  0
ARC
  5
1AF6
330
A
100
AcDbEntity
  8
INDUSA
  6
Continuous
100
AcDbCircle
 10
102.6943315631969
 20
567.9008547682949
 30
0.0
 40
0.005
100
AcDbArc
 50
98.13010235415717
 51
180.0
  0
LINE
  5
1AF7
330
A
100
AcDbEntity
  8
INDUSA
  6
Continuous
100
AcDbLine
 10
102.6893315631969
 20
567.9008547682949
 30
0.0
 11
102.6893315631969
 21
567.8788641993203
 31
0.0
  0
ARC
  5
1AF8
330
A
100
AcDbEntity
  8
INDUSA
  6
Continuous
100
AcDbCircle
 10
102.6843315631969
 20
567.8788641993203
 30
0.0
 40
0.005
100
AcDbArc
 50
270.0
 51
0.0000000000003997
  0
ARC
  5
1AF9
330
A
100
AcDbEntity
  8
INDUSA
  6
Continuous
100
AcDbCircle
 10
102.6843315631969
 20
567.8788641993203
 30
0.0
 40
0.005
100
AcDbArc
 50
180.0
 51
270.0
  0
ARC
  5
1AFA
330
A
100
AcDbEntity
  8
INDUSA
  6
Continuous
100
AcDbCircle
 10
102.6823315631969
 20
567.9112623131152
 30
0.0
 40
0.0030000000000001
100
AcDbArc
 50
98.13010235415525
 51
180.0
  0
LINE
  5
1AFB
330
A
100
AcDbEntity
  8
INDUSA
  6
Continuous
100
AcDbLine
 10
102.6819072991281
 20
567.9142321615962
 30
0.0
 11
102.7117558272656
 21
567.9184962370444
 31
0.0
  0
ARC
  5
1AFC
330
A
100
AcDbEntity
  8
INDUSA
  6
Continuous
100
AcDbCircle
 10
102.7113315631969
 20
567.9214660855254
 30
0.0
 40
0.0029999999999998
100
AcDbArc
 50
278.1301023541579
 51
0.0000000000003997
  0
LINE
  5
1AFD
330
A
100
AcDbEntity
  8
INDUSA
  6
Continuous
100
AcDbLine
 10
102.7143315631969
 20
567.9214660855254
 30
0.0
 11
102.7143315631969
 21
567.9827889129045
 31
0.0
  0
LWPOLYLINE
  5
1AFE
330
A
100
AcDbEntity
  8
INDUSA
  6
Continuous
100
AcDbPolyline
 90
        7
 70
   128
 43
0.0
 10
102.7153315631968
 20
567.9837891595449
 10
102.7151511715234
 20
567.9837727502996
 10
102.7148358460798
 20
567.9836576107529
 10
102.7145763755114
 20
567.983444582414
 10
102.7144561162901
 20
567.9832723455366
 10
102.7143454743956
 20
567.9829551727794
 10
102.7143315631969
 20
567.9827889129045
  0
LINE
  5
1B07
330
A
100
AcDbEntity
  8
INDUSA
  6
Continuous
100
AcDbLine
 10
102.7153315631968
 20
567.9837891595449
 30
0.0
 11
102.7233315631969
 21
567.9837891595449
 31
0.0
  0
LINE
  5
1B08
330
A
100
AcDbEntity
  8
INDUSA
  6
Continuous
100
AcDbLine
 10
102.6793315631969
 20
567.8788641993203
 30
0.0
 11
102.6793315631969
 21
567.9112623131152
 31
0.0
  0
ARC
  5
1B09
330
A
100
AcDbEntity
  8
INDUSA
  6
Continuous
100
AcDbCircle
 10
102.6803315631969
 20
568.2578987613011
 30
0.0
 40
0.0010000000000001
100
AcDbArc
 50
97.76516601843134
 51
180.0
  0
LINE
  5
1B0A
330
A
100
AcDbEntity
  8
INDUSA
  6
Continuous
100
AcDbLine
 10
102.6881964499921
 20
568.2599805005601
 30
0.0
 11
102.6801964499921
 21
568.2588895914691
 31
0.0
  0
ARC
  5
1B0B
330
A
100
AcDbEntity
  8
INDUSA
  6
Continuous
100
AcDbCircle
 10
102.6883315631968
 20
568.258989670392
 30
0.0
 40
0.001
100
AcDbArc
 50
0.0000000000003997
 51
97.76516601842391
  0
LINE
  5
1B0C
330
A
100
AcDbEntity
  8
INDUSA
  6
Continuous
100
AcDbLine
 10
102.6893315631969
 20
568.258989670392
 30
0.0
 11
102.6893315631969
 21
568.2397687759434
 31
0.0
  0
LWPOLYLINE
  5
1B0D
330
A
100
AcDbEntity
  8
INDUSA
  6
Continuous
100
AcDbPolyline
 90
        7
 70
   128
 43
0.0
 10
102.6883315631968
 20
568.2387687691752
 10
102.6883601297943
 20
568.2387691772865
 10
102.6885684009251
 20
568.2387972201464
 10
102.6888766374816
 20
568.2389303825184
 10
102.6891234209467
 20
568.2391580662351
 10
102.6892809296225
 20
568.2394546028641
 10
102.6893315631969
 20
568.2397687759434
  0
LINE
  5
1B16
330
A
100
AcDbEntity
  8
INDUSA
  6
Continuous
100
AcDbLine
 10
102.6883315631968
 20
568.2387687691752
 30
0.0
 11
102.6803315631969
 21
568.2387687691752
 31
0.0
  0
LWPOLYLINE
  5
1B17
330
A
100
AcDbEntity
  8
INDUSA
  6
Continuous
100
AcDbPolyline
 90
        7
 70
   128
 43
0.0
 10
102.6793315631969
 20
568.2397687759434
 10
102.679333024606
 20
568.2397147322391
 10
102.6794072029385
 20
568.2393872525755
 10
102.6795855974866
 20
568.239102787086
 10
102.6797412580363
 20
568.2389615903186
 10
102.6800417137305
 20
568.238811697219
 10
102.6803315631969
 20
568.2387687691752
  0
LINE
  5
1B20
330
A
100
AcDbEntity
  8
INDUSA
  6
Continuous
100
AcDbLine
 10
102.6793315631969
 20
568.2397687759434
 30
0.0
 11
102.6793315631969
 21
568.2578987613011
 31
0.0
  0
LINE
  5
1B2D
330
A
100
AcDbEntity
  8
INDUSA
  6
Continuous
100
AcDbLine
 10
102.6793315631969
 20
568.2380250838543
 30
0.0
 11
102.6793315631969
 21
568.2397687759434
 31
0.0
  0
LINE
  5
1B3B
330
A
100
AcDbEntity
  8
INDUSA
  6
Continuous
100
AcDbLine
 10
102.6893315631969
 20
568.2397687759434
 30
0.0
 11
102.6893315631969
 21
568.2380250838543
 31
0.0
  0
LINE
  5
1B56
330
A
100
AcDbEntity
  8
INDUSA
  6
Continuous
100
AcDbLine
 10
102.7143315631969
 20
567.9827889129045
 30
0.0
 11
102.7143315631969
 21
568.0377717324828
 31
0.0
  0
LINE
  5
1B62
330
A
100
AcDbEntity
  8
INDUSA
  6
Continuous
100
AcDbLine
 10
102.7243315631969
 20
568.0376255193707
 30
0.0
 11
102.7243315631969
 21
567.9827889129045
 31
0.0
  0
LINE
  5
1B71
330
A
100
AcDbEntity
  8
INDUSA
  6
Continuous
100
AcDbLine
 10
102.7899923013561
 20
568.2830405579274
 30
0.0
 11
102.7899923013561
 21
568.2749665203596
 31
0.0
  0
LWPOLYLINE
  5
1B74
330
A
100
AcDbEntity
  8
INDUSA
  6
Continuous
100
AcDbPolyline
 90
        9
 70
   128
 43
0.0
 10
102.7899923013561
 20
568.2749665203597
 10
102.7900217173439
 20
568.2747607963641
 10
102.7900801139823
 20
568.2745639575037
 10
102.7901649691443
 20
568.2743845051685
 10
102.7902726179703
 20
568.2742301898311
 10
102.7903984111514
 20
568.2741076763082
 10
102.7905369157317
 20
568.2740222559083
 10
102.7906821497551
 20
568.2739776179037
 10
102.7908278406233
 20
568.2739756901916
  0
LINE
  5
1B7F
330
A
100
AcDbEntity
  8
INDUSA
  6
Continuous
100
AcDbLine
 10
102.8074446102092
 20
568.276241613317
 30
0.0
 11
102.7908278406233
 21
568.2739756901916
 31
0.0
  0
LWPOLYLINE
  5
1B80
330
A
100
AcDbEntity
  8
INDUSA
  6
Continuous
100
AcDbPolyline
 90
        9
 70
   128
 43
0.0
 10
102.7905576142139
 20
568.2840313880953
 10
102.7904331862492
 20
568.2839972912677
 10
102.7903175683079
 20
568.283930718501
 10
102.790214684996
 20
568.2838339295817
 10
102.7901280286471
 20
568.2837102099719
 10
102.7900605407771
 20
568.2835637592854
 10
102.7900145122355
 20
568.2833995487335
 10
102.7899915054429
 20
568.283223152379
 10
102.7899923013561
 20
568.2830405579274
  0
LINE
  5
1B8B
330
A
100
AcDbEntity
  8
INDUSA
  6
Continuous
100
AcDbLine
 10
102.7905576142139
 20
568.2840313880953
 30
0.0
 11
102.8071743837997
 21
568.2862973112207
 31
0.0
  0
LWPOLYLINE
  5
1B98
330
A
100
AcDbEntity
  8
INDUSA
  6
Continuous
100
AcDbPolyline
 90
        9
 70
   128
 43
0.0
 10
102.6793315631969
 20
568.2080176562497
 10
102.6793507779165
 20
568.2080122096132
 10
102.6794076836644
 20
568.2080069722878
 10
102.6795000935845
 20
568.208002145541
 10
102.6796244564157
 20
568.207997914862
 10
102.6797759929638
 20
568.2079944428336
 10
102.6799488797645
 20
568.2079918628837
 10
102.6801364728748
 20
568.2079902741584
 10
102.6803315631969
 20
568.2079897377114
  0
LINE
  5
1BA3
330
A
100
AcDbEntity
  8
INDUSA
  6
Continuous
100
AcDbLine
 10
102.6793315631969
 20
568.2080176562497
 30
0.0
 11
102.6793315631969
 21
568.2380250838543
 31
0.0
  0
LINE
  5
1BA5
330
A
100
AcDbEntity
  8
INDUSA
  6
Continuous
100
AcDbLine
 10
102.6883315631968
 20
568.2079897377114
 30
0.0
 11
102.6803315631969
 21
568.2079897377114
 31
0.0
  0
LWPOLYLINE
  5
1BA6
330
A
100
AcDbEntity
  8
INDUSA
  6
Continuous
100
AcDbPolyline
 90
        9
 70
   128
 43
0.0
 10
102.6883315631968
 20
568.2079897377114
 10
102.6885266535189
 20
568.2079902741584
 10
102.6887142466292
 20
568.2079918628837
 10
102.6888871334299
 20
568.2079944428336
 10
102.689038669978
 20
568.207997914862
 10
102.6891630328092
 20
568.208002145541
 10
102.6892554427294
 20
568.2080069722878
 10
102.6893123484773
 20
568.2080122096132
 10
102.6893315631969
 20
568.2080176562497
  0
LINE
  5
1BB1
330
A
100
AcDbEntity
  8
INDUSA
  6
Continuous
100
AcDbLine
 10
102.6893315631969
 20
568.2380250838543
 30
0.0
 11
102.6893315631969
 21
568.2080176562497
 31
0.0
  0
LINE
  5
1BBE
330
A
100
AcDbEntity
  8
INDUSA
  6
Continuous
100
AcDbLine
 10
102.7908278406233
 20
568.2739756901916
 30
0.0
 11
102.7789506730783
 21
568.2723560764355
 31
0.0
  0
LINE
  5
1BCC
330
A
100
AcDbEntity
  8
INDUSA
  6
Continuous
100
AcDbLine
 10
102.7786804466689
 20
568.2824117743392
 30
0.0
 11
102.7905576142139
 21
568.2840313880953
 31
0.0
  0
LINE
  5
1BD9
330
A
100
AcDbEntity
  8
INDUSA
  6
Continuous
100
AcDbLine
 10
102.7789506730783
 20
568.2723560764355
 30
0.0
 11
102.7180294171219
 21
568.2640486324414
 31
0.0
  0
LINE
  5
1BE6
330
A
100
AcDbEntity
  8
INDUSA
  6
Continuous
100
AcDbLine
 10
102.7177591907124
 20
568.2741043303451
 30
0.0
 11
102.7786804466689
 21
568.2824117743392
 31
0.0
  0
ARC
  5
1BE9
330
A
100
AcDbEntity
  8
INDUSA
  6
Continuous
100
AcDbCircle
 10
102.7873315631969
 20
568.2856099814395
 30
0.0
 40
0.0020000000000003
100
AcDbArc
 50
277.7651660184261
 51
0.0000000000003997
  0
LINE
  5
1BEA
330
A
100
AcDbEntity
  8
INDUSA
  6
Continuous
100
AcDbLine
 10
102.7893315631968
 20
568.2856099814395
 30
0.0
 11
102.7893315631968
 21
568.3368641993203
 31
0.0
  0
ARC
  5
1BEC
330
A
100
AcDbEntity
  8
INDUSA
  6
Continuous
100
AcDbCircle
 10
102.7913315631969
 20
568.3368641993203
 30
0.0
 40
0.0020000000000002
100
AcDbArc
 50
90.00000000000079
 51
180.0
  0
LINE
  5
1BF9
330
A
100
AcDbEntity
  8
INDUSA
  6
Continuous
100
AcDbLine
 10
102.6793315631969
 20
568.1349566661578
 30
0.0
 11
102.6793315631969
 21
568.2080176562497
 31
0.0
  0
LINE
  5
1C24
330
A
100
AcDbEntity
  8
INDUSA
  6
Continuous
100
AcDbLine
 10
102.6893315631969
 20
568.2080176562497
 30
0.0
 11
102.6893315631969
 21
568.1348104530457
 31
0.0
  0
LWPOLYLINE
  5
1C25
330
A
100
AcDbEntity
  8
INDUSA
  6
Continuous
100
AcDbPolyline
 90
        4
 70
   128
 43
0.0
 10
102.7143315631969
 20
568.0377717324828
 10
102.7138795648386
 20
568.0444796034797
 10
102.7124536345164
 20
568.0513462030773
 10
102.7111204415365
 20
568.0554012776759
  0
LWPOLYLINE
  5
1C36
330
A
100
AcDbEntity
  8
INDUSA
  6
Continuous
100
AcDbPolyline
 90
        4
 70
   128
 43
0.0
 10
102.7207838217312
 20
568.0561238348903
 10
102.722915212499
 20
568.049441991792
 10
102.7241062110596
 20
568.0423672943691
 10
102.7243315631969
 20
568.0376255193707
  0
LWPOLYLINE
  5
1C52
330
A
100
AcDbEntity
  8
INDUSA
  6
Continuous
100
AcDbPolyline
 90
        6
 70
   128
 43
0.0
 10
102.6840224061971
 20
568.1138123928913
 10
102.6823509672066
 20
568.1178445768523
 10
102.6810375619973
 20
568.1220071701006
 10
102.6800921998809
 20
568.1262684499863
 10
102.6795220853548
 20
568.1305959417796
 10
102.6793315631969
 20
568.1349566661578
  0
LWPOLYLINE
  5
1C5A
330
A
100
AcDbEntity
  8
INDUSA
  6
Continuous
100
AcDbPolyline
 90
        6
 70
   128
 43
0.0
 10
102.6893315631969
 20
568.1348104530457
 10
102.6895220853548
 20
568.1304497286675
 10
102.6900921998809
 20
568.1261222368741
 10
102.6910375619973
 20
568.1218609569886
 10
102.6923509672066
 20
568.1176983637402
 10
102.6940224061971
 20
568.1136661797792
  0
LINE
  5
1C78
330
A
100
AcDbEntity
  8
INDUSA
  6
Continuous
100
AcDbLine
 10
102.7096407201966
 20
568.0589160057494
 30
0.0
 11
102.6840224061971
 21
568.1138123928913
 31
0.0
  0
LINE
  5
1C79
330
A
100
AcDbEntity
  8
INDUSA
  6
Continuous
100
AcDbLine
 10
102.6940224061971
 20
568.1136661797792
 30
0.0
 11
102.7196407201966
 21
568.0587697926373
 31
0.0
  0
LWPOLYLINE
  5
1C85
330
A
100
AcDbEntity
  8
INDUSA
  6
Continuous
100
AcDbPolyline
 90
        4
 70
   128
 43
0.0
 10
102.7111204415365
 20
568.0554012776759
 10
102.710657050171
 20
568.0565852716663
 10
102.7101637033869
 20
568.0577571002703
 10
102.7096407201966
 20
568.0589160057494
  0
LWPOLYLINE
  5
1C8B
330
A
100
AcDbEntity
  8
INDUSA
  6
Continuous
100
AcDbPolyline
 90
        4
 70
   128
 43
0.0
 10
102.7196407201966
 20
568.0587697926373
 10
102.7200386817513
 20
568.0578951842285
 10
102.7204197625105
 20
568.0570130897195
 10
102.7207838217312
 20
568.0561238348903
  0
LWPOLYLINE
  5
1C92
330
A
100
AcDbEntity
  8
INDUSA
  6
Continuous
100
AcDbPolyline
 90
        4
 70
   128
 43
0.0
 10
102.6979983886298
 20
568.2614605401949
 10
102.6999852422805
 20
568.2616957125044
 10
102.7036655077909
 20
568.2621273847693
 10
102.7073325378712
 20
568.262589967089
  0
LINE
  5
1C98
330
A
100
AcDbEntity
  8
INDUSA
  6
Continuous
100
AcDbLine
 10
102.6978824745491
 20
568.2623105767865
 30
0.0
 11
102.6979983886298
 21
568.2614605401949
 31
0.0
  0
LINE
  5
1C99
330
A
100
AcDbEntity
  8
INDUSA
  6
Continuous
100
AcDbLine
 10
102.7180294171219
 20
568.2640486324414
 30
0.0
 11
102.7073325378712
 21
568.262589967089
 31
0.0
  0
LINE
  5
1C9B
330
A
100
AcDbEntity
  8
INDUSA
  6
Continuous
100
AcDbLine
 10
102.6977473613444
 20
568.2713754445223
 30
0.0
 11
102.6978824745491
 21
568.2703846143542
 31
0.0
  0
LINE
  5
1C9C
330
A
100
AcDbEntity
  8
INDUSA
  6
Continuous
100
AcDbLine
 10
102.6977473613444
 20
568.2713754445223
 30
0.0
 11
102.7177591907124
 21
568.2741043303451
 31
0.0
  0
LINE
  5
1C9D
330
A
100
AcDbEntity
  8
INDUSA
  6
Continuous
100
AcDbLine
 10
102.6978824745491
 20
568.2623105767865
 30
0.0
 11
102.6978824745491
 21
568.2703846143542
 31
0.0
  0
LWPOLYLINE
  5
1CC5
330
A
100
AcDbEntity
  8
INDUSA
  6
Continuous
100
AcDbPolyline
 90
        3
 70
   128
 43
0.0
 10
102.6893315631969
 20
568.2592560795716
 10
102.689435344309
 20
568.2600414571099
 10
102.6895740880605
 20
568.2603658709856
  0
LWPOLYLINE
  5
1CCA
330
A
100
AcDbEntity
  8
INDUSA
  6
Continuous
100
AcDbPolyline
 90
        9
 70
   128
 43
0.0
 10
102.6895740880605
 20
568.2603658709856
 10
102.6896402451336
 20
568.2604122123063
 10
102.6897127851296
 20
568.2604541172412
 10
102.6897910382883
 20
568.2604911988833
 10
102.6898742821003
 20
568.2605231148586
 10
102.6899617479776
 20
568.2605495704877
 10
102.6900526283498
 20
568.2605703215065
 10
102.6901460841206
 20
568.2605851763212
 10
102.6902412524152
 20
568.2605939977777
  0
LWPOLYLINE
  5
1CE2
330
A
100
AcDbEntity
  8
INDUSA
  6
Continuous
100
AcDbPolyline
 90
        4
 70
   128
 43
0.0
 10
102.6902412524152
 20
568.2605939977777
 10
102.6926012168494
 20
568.2608444404783
 10
102.695195518155
 20
568.261134247446
 10
102.6979983886298
 20
568.2614605401949
  0
LINE
  5
1CEA
330
A
100
AcDbEntity
  8
INDUSA
  6
Continuous
100
AcDbLine
 10
102.6793315631969
 20
568.2578987613011
 30
0.0
 11
102.6793315631969
 21
568.2679913082608
 31
0.0
  0
ARC
  5
1CEC
330
A
100
AcDbEntity
  8
INDUSA
  6
Continuous
100
AcDbCircle
 10
102.6803315631969
 20
568.2679913082608
 30
0.0
 40
0.0010000000000001
100
AcDbArc
 50
97.76516601843134
 51
180.0
  0
LINE
  5
1CED
330
A
100
AcDbEntity
  8
INDUSA
  6
Continuous
100
AcDbLine
 10
102.6801964499921
 20
568.2689821384287
 30
0.0
 11
102.6811964499921
 21
568.2691185020651
 31
0.0
  0
LINE
  5
1CEF
330
A
100
AcDbEntity
  8
INDUSA
  6
Continuous
100
AcDbLine
 10
102.6811964499921
 20
568.2691185020651
 30
0.0
 11
102.6977473613444
 21
568.2713754445223
 31
0.0
  0
LINE
  5
1CF9
330
A
100
AcDbEntity
  8
INDUSA
  6
Continuous
100
AcDbLine
 10
102.6892972812063
 20
567.8738641993203
 30
0.0
 11
102.6843315631969
 21
567.8738641993203
 31
0.0
  0
LINE
  5
1D6C
330
A
100
AcDbEntity
  8
INDUSA
  6
Continuous
100
AcDbLine
 10
102.8193315631969
 20
567.8738641993203
 30
0.0
 11
102.6892972812063
 21
567.8738641993203
 31
0.0
  0
LINE
  5
1D71
330
A
100
AcDbEntity
  8
INDUSA
  6
Continuous
100
AcDbLine
 10
102.6793315631969
 20
567.9112623131152
 30
0.0
 11
102.6793315631969
 21
567.9243942961944
 31
0.0
  0
LINE
  5
1D87
330
A
100
AcDbEntity
  8
INDUSA
  6
Continuous
100
AcDbLine
 10
102.6793315631969
 20
568.1130233328245
 30
0.0
 11
102.6793315631969
 21
568.1349566661578
 31
0.0
  0
LINE
  5
1D91
330
A
100
AcDbEntity
  8
INDUSA
  6
Continuous
100
AcDbLine
 10
102.6793315631969
 20
568.1103415084529
 30
0.0
 11
102.6793315631969
 21
568.1130233328245
 31
0.0
  0
LINE
  5
1D93
330
A
100
AcDbEntity
  8
INDUSA
  6
Continuous
100
AcDbLine
 10
102.6793315631969
 20
567.9243942961944
 30
0.0
 11
102.6793315631969
 21
568.1103415084529
 31
0.0
  0
LWPOLYLINE
  5
1D95
330
A
100
AcDbEntity
  8
INDUSA
  6
Continuous
100
AcDbPolyline
 90
       10
 70
   128
 43
0.0
 10
102.8193315631969
 20
567.8738641993203
 10
102.8201998040852
 20
567.8739401605553
 10
102.8210416639135
 20
567.8741657362165
 10
102.8218315631969
 20
567.8745340723014
 10
102.8225455012453
 20
567.8750339771047
 10
102.8231617854125
 20
567.875650261272
 10
102.8236616902158
 20
567.8763641993204
 10
102.8240300263008
 20
567.8771540986038
 10
102.8242556019619
 20
567.877995958432
 10
102.8243315631969
 20
567.8788641993203
  0
LINE
  5
1DAD
330
A
100
AcDbEntity
  8
INDUSA
  6
Continuous
100
AcDbLine
 10
102.6793315631969
 20
568.2644997450201
 30
0.0
 11
102.6793315631969
 21
568.2715480716594
 31
0.0
  0
LINE
  5
1DD6
330
A
100
AcDbEntity
  8
INDUSA
  6
Continuous
100
AcDbLine
 10
102.8228228905605
 20
567.8738641993203
 30
0.0
 11
102.8193315631969
 21
567.8738641993203
 31
0.0
  0
LINE
  5
1DED
330
A
100
AcDbEntity
  8
INDUSA
  6
Continuous
100
AcDbLine
 10
102.6793315631969
 20
568.2715480716594
 30
0.0
 11
102.6793315631969
 21
568.3338641993203
 31
0.0
  0
LWPOLYLINE
  5
1DEE
330
A
100
AcDbEntity
  8
INDUSA
  6
Continuous
100
AcDbPolyline
 90
        9
 70
   128
 43
0.0
 10
102.6793315631969
 20
568.3338641993203
 10
102.6794255461249
 20
568.3348290809139
 10
102.6797039617926
 20
568.3357576895485
 10
102.6801563436723
 20
568.3366151158805
 10
102.6807656852944
 20
568.3373691265357
 10
102.6815090795749
 20
568.3379913758617
 10
102.6823585799655
 20
568.3384584715335
 10
102.6832822510525
 20
568.3387528539434
 10
102.6842453691106
 20
568.3388634563231
  0
LINE
  5
1DF9
330
A
100
AcDbEntity
  8
INDUSA
  6
Continuous
100
AcDbLine
 10
102.8253315631969
 20
567.8738641993203
 30
0.0
 11
102.8228228905605
 21
567.8738641993203
 31
0.0
  0
LWPOLYLINE
  5
1DFA
330
A
100
AcDbEntity
  8
INDUSA
  6
Continuous
100
AcDbPolyline
 90
        7
 70
   128
 43
0.0
 10
102.7946914118017
 20
568.3408641993203
 10
102.7947315338734
 20
568.340465872166
 10
102.7949739692302
 20
568.3398399528214
 10
102.7954098597596
 20
568.3393295419524
 10
102.7959905040994
 20
568.3389916750001
 10
102.7966510198346
 20
568.3388646594369
 10
102.7966939695183
 20
568.3388641993203
  0
LINE
  5
1E03
330
A
100
AcDbEntity
  8
INDUSA
  6
Continuous
100
AcDbLine
 10
102.7946914118017
 20
568.3408641993203
 30
0.0
 11
102.7946914118017
 21
568.3488641993204
 31
0.0
  0
LWPOLYLINE
  5
1E04
330
A
100
AcDbEntity
  8
INDUSA
  6
Continuous
100
AcDbPolyline
 90
        7
 70
   128
 43
0.0
 10
102.7966939695183
 20
568.3508641993203
 10
102.7964020345988
 20
568.3508428301213
 10
102.7957619961707
 20
568.350634387639
 10
102.7952272058156
 20
568.3502258160491
 10
102.7948583617368
 20
568.3496636354588
 10
102.7947315338734
 20
568.3492625264746
 10
102.7946914118017
 20
568.3488641993204
  0
LINE
  5
1E0D
330
A
100
AcDbEntity
  8
INDUSA
  6
Continuous
100
AcDbLine
 10
102.7966939695183
 20
568.3508641993203
 30
0.0
 11
102.8356745650292
 21
568.3508641993203
 31
0.0
  0
LWPOLYLINE
  5
1E0E
330
A
100
AcDbEntity
  8
INDUSA
  6
Continuous
100
AcDbPolyline
 90
        6
 70
   128
 43
0.0
 10
102.8356745650292
 20
568.3508641993203
 10
102.8363365827004
 20
568.350976942708
 10
102.8369239629183
 20
568.3513024623358
 10
102.8373704811576
 20
568.3518040574962
 10
102.8376257953232
 20
568.3524251743281
 10
102.837673951547
 20
568.3528142165155
  0
LWPOLYLINE
  5
1E16
330
A
100
AcDbEntity
  8
INDUSA
  6
Continuous
100
AcDbPolyline
 90
        3
 70
   128
 43
0.0
 10
102.837673951547
 20
568.3528142165155
 10
102.8423908064138
 20
568.5414931410551
 10
102.8470658814257
 20
568.7285004956971
  0
LWPOLYLINE
  5
1E1B
330
A
100
AcDbEntity
  8
INDUSA
  6
Continuous
100
AcDbPolyline
 90
        6
 70
   128
 43
0.0
 10
102.8481211225665
 20
568.7294739595779
 10
102.847787492947
 20
568.729436061388
 10
102.8474852149543
 20
568.7292898661968
 10
102.8472483692424
 20
568.729051856823
 10
102.8471036588004
 20
568.7287488686485
 10
102.8470658814257
 20
568.7285004956971
  0
LWPOLYLINE
  5
1E23
330
A
100
AcDbEntity
  8
INDUSA
  6
Continuous
100
AcDbPolyline
 90
        6
 70
   128
 43
0.0
 10
102.8530787728719
 20
568.728252237654
 10
102.853022401815
 20
568.7285832418415
 10
102.8528596443381
 20
568.7288769278059
 10
102.8526088495548
 20
568.7291001858437
 10
102.8522982910587
 20
568.7292278455153
 10
102.8521343134327
 20
568.7292506944394
  0
LINE
  5
1E2B
330
A
100
AcDbEntity
  8
INDUSA
  6
Continuous
100
AcDbLine
 10
102.8530787728719
 20
568.7271394264043
 30
0.0
 11
102.8530787728719
 21
568.728252237654
 31
0.0
  0
LWPOLYLINE
  5
1E2C
330
A
100
AcDbEntity
  8
INDUSA
  6
Continuous
100
AcDbPolyline
 90
        6
 70
   128
 43
0.0
 10
102.8530787728719
 20
568.7271394264045
 10
102.8531351439294
 20
568.7268084222145
 10
102.8532979014075
 20
568.7265147362479
 10
102.8535486961944
 20
568.726291478207
 10
102.8538592546928
 20
568.726163818538
 10
102.854023232282
 20
568.7261409696207
  0
LINE
  5
1E34
330
A
100
AcDbEntity
  8
INDUSA
  6
Continuous
100
AcDbLine
 10
102.854023232282
 20
568.7261409696207
 30
0.0
 11
102.8580354078861
 21
568.725917760964
 31
0.0
  0
LWPOLYLINE
  5
1E35
330
A
100
AcDbEntity
  8
INDUSA
  6
Continuous
100
AcDbPolyline
 90
        6
 70
   128
 43
0.0
 10
102.8589795548359
 20
568.7248943126901
 10
102.8589314737459
 20
568.7252266222479
 10
102.8587761068262
 20
568.7255242840185
 10
102.8585309700395
 20
568.7257537399943
 10
102.8582236991313
 20
568.7258891210513
 10
102.858035407886
 20
568.725917760964
  0
LWPOLYLINE
  5
1E3D
330
A
100
AcDbEntity
  8
INDUSA
  6
Continuous
100
AcDbPolyline
 90
        6
 70
   128
 43
0.0
 10
102.8473783874667
 20
568.3388641993203
 10
102.8480404047822
 20
568.3389769426547
 10
102.8486277846836
 20
568.3393024621051
 10
102.8490743027836
 20
568.3398040570303
 10
102.8493296170325
 20
568.3404251737496
 10
102.84937777337
 20
568.3408142164421
  0
LINE
  5
1E45
330
A
100
AcDbEntity
  8
INDUSA
  6
Continuous
100
AcDbLine
 10
102.7966939695183
 20
568.3388641993203
 30
0.0
 11
102.8473783874667
 21
568.3388641993203
 31
0.0
  0
LINE
  5
1E46
330
A
100
AcDbEntity
  8
INDUSA
  6
Continuous
100
AcDbLine
 10
102.8521343134327
 20
568.7292506944393
 30
0.0
 11
102.8481211225665
 21
568.7294739595779
 31
0.0
  0
LWPOLYLINE
  5
1E47
330
A
100
AcDbEntity
  8
INDUSA
  6
Continuous
100
AcDbPolyline
 90
        3
 70
   128
 43
0.0
 10
102.84937777337
 20
568.3408142164421
 10
102.8542057498979
 20
568.5339378928963
 10
102.8589795548359
 20
568.7248943126901
  0
ARC
  5
1E4C
330
A
100
AcDbEntity
  8
INDUSA
  6
Continuous
100
AcDbCircle
 10
102.6803315631969
 20
568.734802381257
 30
0.0
 40
0.001
100
AcDbArc
 50
86.81575640151725
 51
180.0
  0
ARC
  5
1E4D
330
A
100
AcDbEntity
  8
INDUSA
  6
Continuous
100
AcDbCircle
 10
102.6843315631968
 20
568.7365829425836
 30
0.0
 40
0.001
100
AcDbArc
 50
266.8157564015246
 51
0.0000000000003997
  0
LINE
  5
1E4E
330
A
100
AcDbEntity
  8
INDUSA
  6
Continuous
100
AcDbLine
 10
102.6853315631969
 20
568.7374732232468
 30
0.0
 11
102.6853315631969
 21
568.7365829425836
 31
0.0
  0
ARC
  5
1E4F
330
A
100
AcDbEntity
  8
INDUSA
  6
Continuous
100
AcDbCircle
 10
102.6863315631969
 20
568.7374732232468
 30
0.0
 40
0.001
100
AcDbArc
 50
86.81575640151725
 51
180.0
  0
ARC
  5
1E50
330
A
100
AcDbEntity
  8
INDUSA
  6
Continuous
100
AcDbCircle
 10
102.6903315631969
 20
568.7372506919533
 30
0.0
 40
0.0010000000000001
100
AcDbArc
 50
0.0000000000003997
 51
86.81575640151757
  0
LINE
  5
1E51
330
A
100
AcDbEntity
  8
INDUSA
  6
Continuous
100
AcDbLine
 10
102.6913315631968
 20
568.7372506919533
 30
0.0
 11
102.6913315631968
 21
568.3528641993204
 31
0.0
  0
ARC
  5
1E52
330
A
100
AcDbEntity
  8
INDUSA
  6
Continuous
100
AcDbCircle
 10
102.6933315631969
 20
568.3528641993204
 30
0.0
 40
0.0020000000000002
100
AcDbArc
 50
180.0
 51
270.0
  0
LINE
  5
1E53
330
A
100
AcDbEntity
  8
INDUSA
  6
Continuous
100
AcDbLine
 10
102.6933315631969
 20
568.3508641993203
 30
0.0
 11
102.7327705997476
 21
568.3508641993203
 31
0.0
  0
LWPOLYLINE
  5
1E54
330
A
100
AcDbEntity
  8
INDUSA
  6
Continuous
100
AcDbPolyline
 90
        7
 70
   128
 43
0.0
 10
102.7347731574642
 20
568.3488641993204
 10
102.7347704943565
 20
568.3489673053143
 10
102.7346239173022
 20
568.3496217869905
 10
102.7342690234056
 20
568.3501909863067
 10
102.7337453956033
 20
568.3506112306718
 10
102.7333587272006
 20
568.3507759915145
 10
102.7327705997476
 20
568.3508641993203
  0
LINE
  5
1E5D
330
A
100
AcDbEntity
  8
INDUSA
  6
Continuous
100
AcDbLine
 10
102.7347731574642
 20
568.3488641993204
 30
0.0
 11
102.7347731574642
 21
568.3408641993203
 31
0.0
  0
LWPOLYLINE
  5
1E5E
330
A
100
AcDbEntity
  8
INDUSA
  6
Continuous
100
AcDbPolyline
 90
        7
 70
   128
 43
0.0
 10
102.7327705997476
 20
568.3388641993203
 10
102.7329444640749
 20
568.3388717525994
 10
102.7333587272006
 20
568.3389524071262
 10
102.7339594570018
 20
568.3392548108113
 10
102.7344261971492
 20
568.339739070605
 10
102.7347058645716
 20
568.3403501082451
 10
102.7347731574642
 20
568.3408641993203
  0
LINE
  5
1E67
330
A
100
AcDbEntity
  8
INDUSA
  6
Continuous
100
AcDbLine
 10
102.6793315631969
 20
568.3388641993203
 30
0.0
 11
102.7327705997476
 21
568.3388641993203
 31
0.0
  0
LINE
  5
1E68
330
A
100
AcDbEntity
  8
INDUSA
  6
Continuous
100
AcDbLine
 10
102.6793315631969
 20
568.734802381257
 30
0.0
 11
102.6793315631969
 21
568.3388641993203
 31
0.0
  0
LINE
  5
1E6A
330
A
100
AcDbEntity
  8
INDUSA
  6
Continuous
100
AcDbLine
 10
102.6903871101275
 20
568.7382491480307
 30
0.0
 11
102.6863871101274
 21
568.7384716793242
 31
0.0
  0
LINE
  5
1E6C
330
A
100
AcDbEntity
  8
INDUSA
  6
Continuous
100
AcDbLine
 10
102.7966939695183
 20
568.3388641993203
 30
0.0
 11
102.7327705997476
 21
568.3388641993203
 31
0.0
  0
LINE
  5
1E6E
330
A
100
AcDbEntity
  8
INDUSA
  6
Continuous
100
AcDbLine
 10
102.7327705997476
 20
568.3508641993203
 30
0.0
 11
102.7966939695183
 21
568.3508641993203
 31
0.0
  0
LWPOLYLINE
  5
1E6F
330
A
100
AcDbEntity
  8
INDUSA
  6
Continuous
100
AcDbPolyline
 90
        9
 70
   128
 43
0.0
 10
102.8133348618795
 20
568.3528289770619
 10
102.8132927997921
 20
568.3524438373516
 10
102.8131810794947
 20
568.35207449283
 10
102.813003898901
 20
568.3517348216945
 10
102.8127679156086
 20
568.3514375871592
 10
102.8124819967391
 20
568.3511939578736
 10
102.8121568857536
 20
568.351013088259
 10
102.8118047987653
 20
568.3509017745291
 10
102.8114389655164
 20
568.3508641993203
  0
LWPOLYLINE
  5
1EC1
330
A
100
AcDbEntity
  8
INDUSA
  6
Continuous
100
AcDbPolyline
 90
        6
 70
   128
 43
0.0
 10
102.7416653425814
 20
568.7681723622399
 10
102.7415526241139
 20
568.7688340128585
 10
102.7412273539445
 20
568.7694210713673
 10
102.7407256657719
 20
568.7698682819457
 10
102.7401032051464
 20
568.7701250191459
 10
102.7396211241699
 20
568.7701741984255
  0
LWPOLYLINE
  5
1EC9
330
A
100
AcDbEntity
  8
INDUSA
  6
Continuous
100
AcDbPolyline
 90
        6
 70
   128
 43
0.0
 10
102.7936041641519
 20
568.7702742716462
 10
102.7929381050978
 20
568.7701715195554
 10
102.7923436012338
 20
568.7698541083301
 10
102.7918877422588
 20
568.7693577065179
 10
102.7916225365743
 20
568.76873896904
 10
102.7915672258678
 20
568.7682723385202
  0
LWPOLYLINE
  5
1ED1
330
A
100
AcDbEntity
  8
INDUSA
  6
Continuous
100
AcDbPolyline
 90
       19
 70
   128
 43
0.0
 10
102.793488281604
 20
568.7702601735296
 10
102.7931264818064
 20
568.7702161574475
 10
102.7921357257536
 20
568.7701657178942
 10
102.7902763685954
 20
568.7701149980455
 10
102.7877515879249
 20
568.7700744532269
 10
102.7846223970818
 20
568.7700429679039
 10
102.7809866878269
 20
568.7700191042438
 10
102.7769379173898
 20
568.7700015786823
 10
102.7725985299307
 20
568.7699892585198
 10
102.7680860021995
 20
568.7699812703542
 10
102.7635320500657
 20
568.7699771022634
 10
102.7590649405626
 20
568.7699765677762
 10
102.7548106486164
 20
568.7699799964001
 10
102.7508934947756
 20
568.7699881291352
 10
102.7474196882787
 20
568.7700022701638
 10
102.7444957126729
 20
568.7700241410287
 10
102.742195736256
 20
568.7700556639915
 10
102.7405957615879
 20
568.7700989000511
 10
102.7399443053249
 20
568.7701412292416
  0
LINE
  5
1EE6
330
A
100
AcDbEntity
  8
INDUSA
  6
Continuous
100
AcDbLine
 10
102.7416653425814
 20
568.7681723622399
 30
0.0
 11
102.7416647250097
 21
568.759834096368
 31
0.0
  0
LINE
  5
1EE7
330
A
100
AcDbEntity
  8
INDUSA
  6
Continuous
100
AcDbLine
 10
102.7915666006176
 20
568.7598304003974
 30
0.0
 11
102.7915672258678
 21
568.7682723385202
 31
0.0
  0
LWPOLYLINE
  5
1EE9
330
A
100
AcDbEntity
  8
INDUSA
  6
Continuous
100
AcDbPolyline
 90
        6
 70
   128
 43
0.0
 10
102.6843395938601
 20
568.7681074050933
 10
102.6827026729716
 20
568.7677345191503
 10
102.6812814545893
 20
568.7668408234233
 10
102.6802361687685
 20
568.7655270744804
 10
102.679684663395
 20
568.7639413853408
 10
102.6796159057415
 20
568.7631154074185
  0
LWPOLYLINE
  5
1EF1
330
A
100
AcDbEntity
  8
INDUSA
  6
Continuous
100
AcDbPolyline
 90
        7
 70
   128
 43
0.0
 10
102.7396609362841
 20
568.7578342447728
 10
102.7402060930862
 20
568.7579096707443
 10
102.7405990927239
 20
568.7580669854776
 10
102.7411322949326
 20
568.7584765866438
 10
102.7414997950786
 20
568.7590396766942
 10
102.7416596413754
 20
568.7596918752547
 10
102.7416647250097
 20
568.759834096368
  0
LINE
  5
1EFA
330
A
100
AcDbEntity
  8
INDUSA
  6
Continuous
100
AcDbLine
 10
102.7096155148405
 20
568.7578364700798
 30
0.0
 11
102.7396609362841
 21
568.7578342447728
 31
0.0
  0
ARC
  5
1EFB
330
A
100
AcDbEntity
  8
INDUSA
  6
Continuous
100
AcDbCircle
 10
102.7096151445167
 20
568.7528364700936
 30
0.0
 40
0.0050000000000011
100
AcDbArc
 50
89.99575640151993
 51
180.0000000000008
  0
LINE
  5
1EFC
330
A
100
AcDbEntity
  8
INDUSA
  6
Continuous
100
AcDbLine
 10
102.7046137169893
 20
568.733562614001
 30
0.0
 11
102.7046151445304
 21
568.7528368404173
 31
0.0
  0
ARC
  5
1EFD
330
A
100
AcDbEntity
  8
INDUSA
  6
Continuous
100
AcDbCircle
 10
102.7026137169948
 20
568.7335627621306
 30
0.0
 40
0.0020000000000001
100
AcDbArc
 50
266.8157564015126
 51
0.0000000000003997
  0
LINE
  5
1EFE
330
A
100
AcDbEntity
  8
INDUSA
  6
Continuous
100
AcDbLine
 10
102.6939359421966
 20
568.7320424386232
 30
0.0
 11
102.7025026231336
 21
568.7315658499758
 31
0.0
  0
ARC
  5
1EFF
330
A
100
AcDbEntity
  8
INDUSA
  6
Continuous
100
AcDbCircle
 10
102.6940137078994
 20
568.7334402771315
 30
0.0
 40
0.0014
100
AcDbArc
 50
180.0000000000008
 51
266.8157564015002
  0
LINE
  5
1F00
330
A
100
AcDbEntity
  8
INDUSA
  6
Continuous
100
AcDbLine
 10
102.6926137342608
 20
568.7337962531415
 30
0.0
 11
102.6926137079032
 21
568.7334403808222
 31
0.0
  0
ARC
  5
1F01
330
A
100
AcDbEntity
  8
INDUSA
  6
Continuous
100
AcDbCircle
 10
102.6912137342647
 20
568.7337963568323
 30
0.0
 40
0.0014000000000002
100
AcDbArc
 50
0.0000000000003997
 51
86.81575640153637
  0
LINE
  5
1F02
330
A
100
AcDbEntity
  8
INDUSA
  6
Continuous
100
AcDbLine
 10
102.6912914999675
 20
568.7351941953405
 30
0.0
 11
102.6815029321417
 21
568.7357387610054
 31
0.0
  0
ARC
  5
1F03
330
A
100
AcDbEntity
  8
INDUSA
  6
Continuous
100
AcDbCircle
 10
102.6816140260029
 20
568.7377356731603
 30
0.0
 40
0.0019999999999999
100
AcDbArc
 50
180.0000000000008
 51
266.8157564015164
  0
LINE
  5
1F04
330
A
100
AcDbEntity
  8
INDUSA
  6
Continuous
100
AcDbLine
 10
102.6796140260084
 20
568.7377358212898
 30
0.0
 11
102.6796159057415
 21
568.7631154074185
 31
0.0
  0
LINE
  5
1F05
330
A
100
AcDbEntity
  8
INDUSA
  6
Continuous
100
AcDbLine
 10
102.6911155148912
 20
568.757837840278
 30
0.0
 11
102.6931155148857
 21
568.7578376921484
 31
0.0
  0
ARC
  5
1F06
330
A
100
AcDbEntity
  8
INDUSA
  6
Continuous
100
AcDbCircle
 10
102.6911154037941
 20
568.7563378402821
 30
0.0
 40
0.0014999999999999
100
AcDbArc
 50
89.99575640150364
 51
180.0000000000008
  0
LINE
  5
1F07
330
A
100
AcDbEntity
  8
INDUSA
  6
Continuous
100
AcDbLine
 10
102.6896154037982
 20
568.7563379513792
 30
0.0
 11
102.6896146915895
 21
568.746721925352
 31
0.0
  0
ARC
  5
1F08
330
A
100
AcDbEntity
  8
INDUSA
  6
Continuous
100
AcDbCircle
 10
102.6911146915854
 20
568.7467218142549
 30
0.0
 40
0.0014999999999999
100
AcDbArc
 50
180.0000000000008
 51
266.8157564015408
  0
LINE
  5
1F09
330
A
100
AcDbEntity
  8
INDUSA
  6
Continuous
100
AcDbLine
 10
102.6930313629541
 20
568.7451128649501
 30
0.0
 11
102.6910313711895
 21
568.7452241301388
 31
0.0
  0
ARC
  5
1F0A
330
A
100
AcDbEntity
  8
INDUSA
  6
Continuous
100
AcDbCircle
 10
102.69311468335
 20
568.7466105490663
 30
0.0
 40
0.0015000000000001
100
AcDbArc
 50
266.8157564014978
 51
0.0000000000003997
  0
LINE
  5
1F0B
330
A
100
AcDbEntity
  8
INDUSA
  6
Continuous
100
AcDbLine
 10
102.6946146833459
 20
568.7466104379691
 30
0.0
 11
102.6946154037845
 21
568.7563375810554
 31
0.0
  0
ARC
  5
1F0C
330
A
100
AcDbEntity
  8
INDUSA
  6
Continuous
100
AcDbCircle
 10
102.6931154037886
 20
568.7563376921525
 30
0.0
 40
0.0015000000000012
100
AcDbArc
 50
0.0000000000003997
 51
89.99575640151993
  0
LWPOLYLINE
  5
1F0D
330
A
100
AcDbEntity
  8
INDUSA
  6
Continuous
100
AcDbPolyline
 90
        3
 70
   128
 43
0.0
 10
102.6843395938601
 20
568.7681074050933
 10
102.7119666148935
 20
568.7693891279523
 10
102.7396211241699
 20
568.7701741984255
  0
LWPOLYLINE
  5
1F12
330
A
100
AcDbEntity
  8
INDUSA
  6
Continuous
100
AcDbPolyline
 90
        7
 70
   128
 43
0.0
 10
102.7915666006176
 20
568.7598304003974
 10
102.791677043861
 20
568.7591754550443
 10
102.7918545060245
 20
568.7587973831096
 10
102.7922939261244
 20
568.7582885755915
 10
102.792876912507
 20
568.7579538316974
 10
102.7935386168863
 20
568.7578305012046
 10
102.7935700930842
 20
568.7578302520036
  0
LINE
  5
1F1C
330
A
100
AcDbEntity
  8
INDUSA
  6
Continuous
100
AcDbLine
 10
102.844612537647
 20
568.7563264715528
 30
0.0
 11
102.8446111876361
 21
568.7380990332236
 31
0.0
  0
LWPOLYLINE
  5
1F1D
330
A
100
AcDbEntity
  8
INDUSA
  6
Continuous
100
AcDbPolyline
 90
        6
 70
   128
 43
0.0
 10
102.8446111876361
 20
568.7380990332236
 10
102.8446957074365
 20
568.7376025207915
 10
102.8449398109668
 20
568.7371619738633
 10
102.8453159782912
 20
568.7368270589233
 10
102.8457818019462
 20
568.73663553477
 10
102.846027877254
 20
568.7366012368945
  0
LWPOLYLINE
  5
1F25
330
A
100
AcDbEntity
  8
INDUSA
  6
Continuous
100
AcDbPolyline
 90
        6
 70
   128
 43
0.0
 10
102.8480278822675
 20
568.7364899709689
 10
102.8485283267263
 20
568.736546818254
 10
102.8489817437427
 20
568.7367661110543
 10
102.8493370123071
 20
568.7371231251232
 10
102.8495540779567
 20
568.7375776073789
 10
102.8496112125155
 20
568.7379875428938
  0
LINE
  5
1F2D
330
A
100
AcDbEntity
  8
INDUSA
  6
Continuous
100
AcDbLine
 10
102.8496112125155
 20
568.7379875428938
 30
0.0
 11
102.8496125707565
 21
568.7563261012265
 31
0.0
  0
LWPOLYLINE
  5
1F2E
330
A
100
AcDbEntity
  8
INDUSA
  6
Continuous
100
AcDbPolyline
 90
        7
 70
   128
 43
0.0
 10
102.8496125707565
 20
568.7563261012265
 10
102.8496118174315
 20
568.7563737455213
 10
102.8495115698288
 20
568.7568673220682
 10
102.8492535969489
 20
568.7572998929018
 10
102.8488669819106
 20
568.7576226907992
 10
102.84839531032
 20
568.7577993225785
 10
102.8481126720015
 20
568.7578262123203
  0
LWPOLYLINE
  5
1F37
330
A
100
AcDbEntity
  8
INDUSA
  6
Continuous
100
AcDbPolyline
 90
        7
 70
   128
 43
0.0
 10
102.8461126587581
 20
568.7578263604508
 10
102.8458782058433
 20
568.7578079422599
 10
102.8454009976182
 20
568.7576468540327
 10
102.8450040124136
 20
568.7573368880432
 10
102.8447320085681
 20
568.7569129925927
 10
102.8446398925302
 20
568.7566115197662
 10
102.844612537647
 20
568.7563264715528
  0
LWPOLYLINE
  5
1F40
330
A
100
AcDbEntity
  8
INDUSA
  6
Continuous
100
AcDbPolyline
 90
        6
 70
   128
 43
0.0
 10
102.8346102308923
 20
568.726108306652
 10
102.8347229239448
 20
568.7254462902173
 10
102.835048395246
 20
568.7248588944401
 10
102.8355499516148
 20
568.7244123411647
 10
102.8361710499367
 20
568.7241569754418
 10
102.8364991510124
 20
568.7241112448086
  0
LINE
  5
1F48
330
A
100
AcDbEntity
  8
INDUSA
  6
Continuous
100
AcDbLine
 10
102.8346122098218
 20
568.7528272122151
 30
0.0
 11
102.8346102308923
 21
568.726108306652
 31
0.0
  0
LWPOLYLINE
  5
1F49
330
A
100
AcDbEntity
  8
INDUSA
  6
Continuous
100
AcDbPolyline
 90
        6
 70
   128
 43
0.0
 10
102.8346122098218
 20
568.7528272122151
 10
102.8344741612082
 20
568.7539943813256
 10
102.8338138728067
 20
568.7555379295713
 10
102.8326798811317
 20
568.7567759124542
 10
102.8312000273263
 20
568.7575687594873
 10
102.8296125445989
 20
568.757827582528
  0
LWPOLYLINE
  5
1F51
330
A
100
AcDbEntity
  8
INDUSA
  6
Continuous
100
AcDbPolyline
 90
        6
 70
   128
 43
0.0
 10
102.8596131366226
 20
568.763101759671
 10
102.8593314054406
 20
568.7647567984184
 10
102.8585177281418
 20
568.7662252859435
 10
102.857263843784
 20
568.7673416588371
 10
102.8557111142543
 20
568.7679800614428
 10
102.8548898529707
 20
568.7680944414856
  0
LINE
  5
1F59
330
A
100
AcDbEntity
  8
INDUSA
  6
Continuous
100
AcDbLine
 10
102.8596131366226
 20
568.763101759671
 30
0.0
 11
102.8596105326966
 21
568.7279443417654
 31
0.0
  0
LWPOLYLINE
  5
1F5A
330
A
100
AcDbEntity
  8
INDUSA
  6
Continuous
100
AcDbPolyline
 90
        6
 70
   128
 43
0.0
 10
102.8574994262733
 20
568.7259475791344
 10
102.8581666852178
 20
568.7260233754828
 10
102.858771240936
 20
568.7263157657343
 10
102.859244932209
 20
568.7267917842782
 10
102.859534353145
 20
568.7273977605062
 10
102.8596105326966
 20
568.7279443417654
  0
LWPOLYLINE
  5
1F62
330
A
100
AcDbEntity
  8
INDUSA
  6
Continuous
100
AcDbPolyline
 90
        6
 70
   128
 43
0.0
 10
102.8480880112095
 20
568.7264711627262
 10
102.847620929686
 20
568.7264181052547
 10
102.8471977404451
 20
568.726213431962
 10
102.8468661564219
 20
568.7258802188011
 10
102.846663561814
 20
568.7254560353358
 10
102.846610236245
 20
568.7250734289404
  0
LINE
  5
1F6A
330
A
100
AcDbEntity
  8
INDUSA
  6
Continuous
100
AcDbLine
 10
102.846610232931
 20
568.7250286833537
 30
0.0
 11
102.846610236245
 21
568.7250734289404
 31
0.0
  0
LWPOLYLINE
  5
1F6B
330
A
100
AcDbEntity
  8
INDUSA
  6
Continuous
100
AcDbPolyline
 90
        6
 70
   128
 43
0.0
 10
102.8451324579059
 20
568.7236309495712
 10
102.8455995394748
 20
568.7236840070444
 10
102.8460227287575
 20
568.7238886803576
 10
102.846354312783
 20
568.7242218935359
 10
102.8465569073737
 20
568.7246460769995
 10
102.846610232931
 20
568.7250286833537
  0
LINE
  5
1F73
330
A
100
AcDbEntity
  8
INDUSA
  6
Continuous
100
AcDbLine
 10
102.7935700930842
 20
568.7578302520036
 30
0.0
 11
102.8296125445989
 21
568.757827582528
 31
0.0
  0
LINE
  5
1F74
330
A
100
AcDbEntity
  8
INDUSA
  6
Continuous
100
AcDbLine
 10
102.8364991510124
 20
568.7241112448086
 30
0.0
 11
102.8451324579059
 21
568.7236309495712
 31
0.0
  0
LINE
  5
1F75
330
A
100
AcDbEntity
  8
INDUSA
  6
Continuous
100
AcDbLine
 10
102.8480278822675
 20
568.7364899709689
 30
0.0
 11
102.846027877254
 21
568.7366012368945
 31
0.0
  0
LINE
  5
1F76
330
A
100
AcDbEntity
  8
INDUSA
  6
Continuous
100
AcDbLine
 10
102.8461126587581
 20
568.7578263604508
 30
0.0
 11
102.8481126720015
 21
568.7578262123203
 31
0.0
  0
LINE
  5
1F77
330
A
100
AcDbEntity
  8
INDUSA
  6
Continuous
100
AcDbLine
 10
102.8574994262733
 20
568.7259475791344
 30
0.0
 11
102.8480880112095
 21
568.7264711627262
 31
0.0
  0
LWPOLYLINE
  5
1F78
330
A
100
AcDbEntity
  8
INDUSA
  6
Continuous
100
AcDbPolyline
 90
        3
 70
   128
 43
0.0
 10
102.7936041641519
 20
568.7702742716462
 10
102.8242517833304
 20
568.7694893245552
 10
102.8548898529707
 20
568.7680944414856
  0
LWPOLYLINE
  5
1F7D
330
A
100
AcDbEntity
  8
INDUSA
  6
Continuous
100
AcDbPolyline
 90
        9
 70
   128
 43
0.0
 10
102.8070743122764
 20
568.7578292518168
 10
102.8079964644196
 20
568.7577331099196
 10
102.8088831645418
 20
568.757448515506
 10
102.8097003372545
 20
568.75698640538
 10
102.8104165790686
 20
568.7563645381746
 10
102.8110043652129
 20
568.7556068118974
 10
102.8114411073956
 20
568.7547423455445
 10
102.8117100218594
 20
568.7538043600731
 10
102.8118007743723
 20
568.7528289017388
  0
LINE
  5
1F8A
330
A
100
AcDbEntity
  8
INDUSA
  6
Continuous
100
AcDbLine
 10
102.8117988897598
 20
568.7273834359234
 30
0.0
 11
102.8118007743723
 21
568.7528289017388
 31
0.0
  0
LWPOLYLINE
  5
1F8B
330
A
100
AcDbEntity
  8
INDUSA
  6
Continuous
100
AcDbPolyline
 90
        9
 70
   128
 43
0.0
 10
102.8117988897598
 20
568.7273834359234
 10
102.8118305849102
 20
568.7270061876648
 10
102.8119290431692
 20
568.7266424823891
 10
102.8120907286329
 20
568.7263053817426
 10
102.8123098347361
 20
568.7260069919275
 10
102.8125784927822
 20
568.7257580289342
 10
102.8128870545294
 20
568.7255674337015
 10
102.8132244386853
 20
568.7254420510229
 10
102.8135785288665
 20
568.725386383732
  0
LINE
  5
1F96
330
A
100
AcDbEntity
  8
INDUSA
  6
Continuous
100
AcDbLine
 10
102.8364991510124
 20
568.7241112448086
 30
0.0
 11
102.8135785288665
 21
568.725386383732
 31
0.0
  0
LINE
  5
1FB0
330
A
100
AcDbEntity
  8
INDUSA
  6
Continuous
100
AcDbLine
 10
102.7025026231336
 20
568.7315658499758
 30
0.0
 11
102.7147094386767
 21
568.7308867503628
 31
0.0
  0
LINE
  5
1FCA
330
A
100
AcDbEntity
  8
INDUSA
  6
Continuous
100
AcDbLine
 10
102.8024410426958
 20
568.7260059935328
 30
0.0
 11
102.8135785288665
 21
568.725386383732
 31
0.0
  0
LINE
  5
1FCD
330
A
100
AcDbEntity
  8
INDUSA
  6
Continuous
100
AcDbLine
 10
102.7147094386767
 20
568.7308867503628
 30
0.0
 11
102.8024410426958
 21
568.7260059935328
 31
0.0
  0
LWPOLYLINE
  5
1FF5
330
A
100
AcDbEntity
  8
INDUSA
  6
Continuous
100
AcDbPolyline
 90
        3
 70
   128
 43
0.0
 10
102.8185279765748
 20
568.7251110319818
 10
102.8159680649642
 20
568.540989770946
 10
102.8133348618795
 20
568.3528289770619
  0
LINE
  5
2022
330
A
100
AcDbEntity
  8
INDUSA
  6
Continuous
100
AcDbLine
 10
100.4711446362697
 20
568.4334481598402
 30
0.0
 11
100.4732973885122
 21
568.4327237840859
 31
0.0
  0
ARC
  5
2024
330
A
100
AcDbEntity
  8
INDUSA
  6
Continuous
100
AcDbCircle
 10
100.1016069024026
 20
568.6830621894379
 30
0.0
 40
0.0109458095213511
100
AcDbArc
 50
145.1197217612164
 51
179.4858868580764
  0
ARC
  5
2025
330
A
100
AcDbEntity
  8
INDUSA
  6
Continuous
100
AcDbCircle
 10
100.431689138473
 20
568.6835985148389
 30
0.0
 40
0.0086327472221265
100
AcDbArc
 50
357.0910001255911
 51
31.45716522244224
  0
ARC
  5
2026
330
A
100
AcDbEntity
  8
INDUSA
  6
Continuous
100
AcDbCircle
 10
100.9866374862193
 20
568.0842025455707
 30
0.0
 40
0.0181630508839796
100
AcDbArc
 50
254.329155389656
 51
277.4916135472374
  0
ARC
  5
2027
330
A
100
AcDbEntity
  8
INDUSA
  6
Continuous
100
AcDbCircle
 10
101.158970280732
 20
568.1002137316379
 30
0.0
 40
0.0340411850263784
100
AcDbArc
 50
267.94051697417
 51
280.2387140889793
  0
ARC
  5
202F
330
A
100
AcDbEntity
  8
INDUSA
  6
Continuous
100
AcDbCircle
 10
101.2062782923282
 20
567.8749690499505
 30
0.0
 40
0.0011058834976062
100
AcDbArc
 50
272.4765039952839
 51
304.4206388183475
  0
LINE
  5
2031
330
A
100
AcDbEntity
  8
INDUSA
  6
Continuous
100
AcDbLine
 10
101.2260128166708
 20
568.2401894028502
 30
0.0
 11
101.2341014406123
 21
568.2405634668988
 31
0.0
  0
LINE
  5
2033
330
A
100
AcDbEntity
  8
INDUSA
  6
Continuous
100
AcDbLine
 10
100.9126511056363
 20
568.2405634668988
 30
0.0
 11
100.9207397295778
 21
568.2401894028502
 31
0.0
  0
LINE
  5
2036
330
A
100
AcDbEntity
  8
INDUSA
  6
Continuous
100
AcDbLine
 10
100.926364339889
 20
568.2842320369221
 30
0.0
 11
100.9276582409819
 21
568.284511438831
 31
0.0
  0
ARC
  5
2037
330
A
100
AcDbEntity
  8
INDUSA
  6
Continuous
100
AcDbCircle
 10
100.9144281632026
 20
568.2807921623986
 30
0.0
 40
0.0018268305048475
100
AcDbArc
 50
94.46246020315511
 51
116.3878556983466
  0
LWPOLYLINE
  5
2038
330
A
100
AcDbEntity
  8
INDUSA
  6
Continuous
100
AcDbPolyline
 90
        4
 70
   128
 43
0.0
 10
100.938109149544
 20
568.2885251254511
 10
100.9346755186737
 20
568.2869438825304
 10
100.9307630175884
 20
568.2854558890313
 10
100.9276582409819
 20
568.284511438831
  0
ARC
  5
2039
330
A
100
AcDbEntity
  8
INDUSA
  6
Continuous
100
AcDbCircle
 10
101.2321730598278
 20
568.2803007778169
 30
0.0
 40
0.0023312217737149
100
AcDbArc
 50
65.89105546864956
 51
82.76824354998115
  0
LINE
  5
203A
330
A
100
AcDbEntity
  8
INDUSA
  6
Continuous
100
AcDbLine
 10
100.9087093623065
 20
568.7277425822966
 30
0.0
 11
100.9087544869298
 21
568.7277451610191
 31
0.0
  0
LINE
  5
203B
330
A
100
AcDbEntity
  8
INDUSA
  6
Continuous
100
AcDbLine
 10
101.2399980593188
 20
568.7277451610191
 30
0.0
 11
101.2400431839421
 21
568.7277425822966
 31
0.0
  0
LINE
  5
203F
330
A
100
AcDbEntity
  8
INDUSA
  6
Continuous
100
AcDbLine
 10
102.3106247872302
 20
568.2345599769487
 30
0.0
 11
102.3345994590754
 21
568.2339991443948
 31
0.0
  0
LINE
  5
2040
330
A
100
AcDbEntity
  8
INDUSA
  6
Continuous
100
AcDbLine
 10
102.3048706176854
 20
568.2822513034547
 30
0.0
 11
102.3106247872302
 21
568.2345599769487
 31
0.0
  0
LINE
  5
2041
330
A
100
AcDbEntity
  8
INDUSA
  6
Continuous
100
AcDbLine
 10
102.6803871101275
 20
568.7358008373345
 30
0.0
 11
102.6815029321417
 21
568.7357387610054
 31
0.0
  0
LINE
  5
2042
330
A
100
AcDbEntity
  8
INDUSA
  6
Continuous
100
AcDbLine
 10
102.8243315631969
 20
568.2811630528123
 30
0.0
 11
102.8243315631969
 21
568.2703087203906
 31
0.0
  0
LINE
  5
2043
330
A
100
AcDbEntity
  8
INDUSA
  6
Continuous
100
AcDbLine
 10
102.8492562356427
 20
568.2912056567748
 30
0.0
 11
102.9027218615897
 21
568.2913715668673
 31
0.0
  0
LINE
  5
2045
330
A
100
AcDbEntity
  8
INDUSA
  6
Continuous
100
AcDbLine
 10
102.9711501001383
 20
568.2424286480968
 30
0.0
 11
102.9711501001383
 21
568.2324286480969
 31
0.0
  0
LINE
  5
2049
330
A
100
AcDbEntity
  8
INDUSA
  6
Continuous
100
AcDbLine
 10
102.9811501001383
 20
568.2324286480969
 30
0.0
 11
102.9811501001383
 21
568.2424286480968
 31
0.0
  0
LINE
  5
204A
330
A
100
AcDbEntity
  8
INDUSA
  6
Continuous
100
AcDbLine
 10
102.9711501001383
 20
568.2424286480968
 30
0.0
 11
102.9578196600365
 21
568.2424286480968
 31
0.0
  0
LINE
  5
204B
330
A
100
AcDbEntity
  8
INDUSA
  6
Continuous
100
AcDbLine
 10
102.9711501001383
 20
568.2324286480969
 30
0.0
 11
102.9664775527108
 21
568.2324286480969
 31
0.0
  0
LINE
  5
204C
330
A
100
AcDbEntity
  8
INDUSA
  6
Continuous
100
AcDbLine
 10
103.3533076329598
 20
568.2424286480968
 30
0.0
 11
103.3533076329598
 21
568.2324286480969
 31
0.0
  0
LINE
  5
204E
330
A
100
AcDbEntity
  8
INDUSA
  6
Continuous
100
AcDbLine
 10
103.3633076329598
 20
568.2324286480969
 30
0.0
 11
103.3633076329598
 21
568.2424286480968
 31
0.0
  0
LINE
  5
204F
330
A
100
AcDbEntity
  8
INDUSA
  6
Continuous
100
AcDbLine
 10
103.3533076329598
 20
568.2424286480968
 30
0.0
 11
103.3443632688818
 21
568.2424286480968
 31
0.0
  0
LINE
  5
2050
330
A
100
AcDbEntity
  8
INDUSA
  6
Continuous
100
AcDbLine
 10
103.3533076329598
 20
568.2324286480969
 30
0.0
 11
103.339363054974
 21
568.2324286480969
 31
0.0
  0
ENDSEC
  0
SECTION
  2
OBJECTS
  0
DICTIONARY
  5
19
330
0
100
AcDbDictionary
281
     1
  3
ACAD_COLOR
350
2082
  3
ACAD_GROUP
350
1A
  3
ACAD_LAYOUT
350
2011
  3
ACAD_MATERIAL
350
2055
  3
ACAD_MLEADERSTYLE
350
20A7
  3
ACAD_MLINESTYLE
350
1B
  3
ACAD_PLOTSETTINGS
350
2012
  3
ACAD_PLOTSTYLENAME
350
200F
  3
ACAD_SCALELIST
350
2085
  3
ACAD_TABLESTYLE
350
2083
  3
ACAD_VISUALSTYLE
350
206E
  3
ACDB_RECOMPOSE_DATA
350
20B9
  3
AcDbVariableDictionary
350
202D
  3
ASE_INDEX_DICTIONARY
350
2029
  3
DWGPROPS
350
20BA
  0
DICTIONARY
  5
20AB
330
14
100
AcDbDictionary
280
     1
281
     1
  3
ADSK_XREC_LAYER_RECONCILED
360
20AC
  0
DICTIONARY
  5
20AD
330
27
100
AcDbDictionary
280
     1
281
     1
  3
ADSK_XREC_LAYER_RECONCILED
360
20AE
  0
DICTIONARY
  5
20AF
330
2017
100
AcDbDictionary
280
     1
281
     1
  3
ADSK_XREC_LAYER_RECONCILED
360
20B0
  0
DICTIONARY
  5
2082
102
{ACAD_REACTORS
330
19
102
}
330
19
100
AcDbDictionary
281
     1
  0
DICTIONARY
  5
1A
102
{ACAD_REACTORS
330
19
102
}
330
19
100
AcDbDictionary
281
     1
  0
DICTIONARY
  5
2011
102
{ACAD_REACTORS
330
19
102
}
330
19
100
AcDbDictionary
281
     1
  3
Layout1
350
2014
  3
Model
350
2013
  0
DICTIONARY
  5
2055
102
{ACAD_REACTORS
330
19
102
}
330
19
100
AcDbDictionary
281
     1
  3
ByBlock
350
205E
  3
ByLayer
350
2056
  3
Global
350
2066
  0
DICTIONARY
  5
20A7
102
{ACAD_REACTORS
330
19
102
}
330
19
100
AcDbDictionary
281
     1
  3
Standard
350
20A8
  0
DICTIONARY
  5
1B
102
{ACAD_REACTORS
330
19
102
}
330
19
100
AcDbDictionary
281
     1
  3
STANDARD
350
1C
  0
DICTIONARY
  5
2012
102
{ACAD_REACTORS
330
19
102
}
330
19
100
AcDbDictionary
281
     1
  0
ACDBDICTIONARYWDFLT
  5
200F
102
{ACAD_REACTORS
330
19
102
}
330
19
100
AcDbDictionary
281
     1
  3
Normal
350
2010
100
AcDbDictionaryWithDefault
340
2010
  0
DICTIONARY
  5
2085
102
{ACAD_REACTORS
330
19
102
}
330
19
100
AcDbDictionary
281
     1
  3
A0
350
2086
  3
A1
350
2087
  3
A2
350
2088
  3
A3
350
2089
  3
A4
350
208A
  3
A5
350
208B
  3
A6
350
208C
  3
A7
350
208D
  3
A8
350
208E
  3
A9
350
208F
  3
B0
350
2090
  3
B1
350
2091
  3
B2
350
2092
  3
B3
350
2093
  3
B4
350
2094
  3
B5
350
2095
  3
B6
350
2096
  3
B7
350
2097
  3
B8
350
2098
  3
B9
350
2099
  3
C0
350
209A
  3
C1
350
209B
  3
C2
350
209C
  3
C3
350
209D
  3
C4
350
209E
  3
C5
350
209F
  3
C6
350
20A0
  3
C7
350
20A1
  3
C8
350
20A2
  3
C9
350
20A3
  3
D0
350
20A4
  3
D1
350
20A5
  3
D2
350
20A6
  0
DICTIONARY
  5
2083
102
{ACAD_REACTORS
330
19
102
}
330
19
100
AcDbDictionary
281
     1
  3
Standard
350
2084
  0
DICTIONARY
  5
206E
102
{ACAD_REACTORS
330
19
102
}
330
19
100
AcDbDictionary
281
     1
  3
2dWireframe
350
2074
  3
3D Hidden
350
2076
  3
3dWireframe
350
2075
  3
Basic
350
2073
  3
Brighten
350
207A
  3
ColorChange
350
207E
  3
Conceptual
350
2077
  3
Dim
350
2079
  3
EdgeColorOff
350
2081
  3
Facepattern
350
207D
  3
Flat
350
206F
  3
FlatWithEdges
350
2070
  3
Gouraud
350
2071
  3
GouraudWithEdges
350
2072
  3
JitterOff
350
207F
  3
Linepattern
350
207C
  3
OverhangOff
350
2080
  3
Realistic
350
2078
  3
Thicken
350
207B
  0
XRECORD
  5
20B9
102
{ACAD_REACTORS
330
19
102
}
330
19
100
AcDbXrecord
280
     1
 90
        1
330
2084
  0
DICTIONARY
  5
202D
102
{ACAD_REACTORS
330
19
102
}
330
19
100
AcDbDictionary
281
     1
  3
CANNOSCALE
350
20B3
  3
CMLEADERSTYLE
350
20B2
  3
CTABLESTYLE
350
20B1
  3
DIMASSOC
350
202E
  3
INDEXCTL
350
20B5
  3
SORTENTS
350
20B4
  3
XCLIPFRAME
350
20B6
  0
DICTIONARY
  5
2029
102
{ACAD_REACTORS
330
19
102
}
330
19
100
AcDbDictionary
281
     1
  3
ASEBlockHierarchyIndexRecord
350
202B
1001
DCO15
1040
1757667417.218
  0
XRECORD
  5
20BA
102
{ACAD_REACTORS
330
19
102
}
330
19
100
AcDbXrecord
280
     1
  1
DWGPROPS COOKIE
  2

  3

  4

  6

  7

  8
Julio
  9

300
=
301
=
302
=
303
=
304
=
305
=
306
=
307
=
308
=
309
=
 40
0.0272641898148148
 41
2444972.041666667
 42
2456146.58473632
  1

 90
        0
  0
XRECORD
  5
20AC
102
{ACAD_REACTORS
330
20AB
102
}
330
20AB
100
AcDbXrecord
280
     1
290
     1
  0
XRECORD
  5
20AE
102
{ACAD_REACTORS
330
20AD
102
}
330
20AD
100
AcDbXrecord
280
     1
290
     1
  0
XRECORD
  5
20B0
102
{ACAD_REACTORS
330
20AF
102
}
330
20AF
100
AcDbXrecord
280
     1
290
     1
  0
LAYOUT
  5
2014
102
{ACAD_XDICTIONARY
360
20BD
102
}
102
{ACAD_REACTORS
330
2011
102
}
330
2011
100
AcDbPlotSettings
  1

  2
PLOTER 500
  4

  6

 40
0.0
 41
0.0
 42
0.0
 43
0.0
 44
0.0
 45
0.0
 46
0.0
 47
0.0
 48
0.0
 49
0.0
140
0.0
141
0.0
142
1.0
143
1.0
 70
   688
 72
     0
 73
     0
 74
     5
  7

 75
    16
147
1.0
148
0.0
149
0.0
100
AcDbLayout
  1
Layout1
 70
     1
 71
     1
 10
0.0
 20
0.0
 11
12.0
 21
9.0
 12
0.0
 22
0.0
 32
0.0
 14
1.000000000000000E+20
 24
1.000000000000000E+20
 34
1.000000000000000E+20
 15
-1.000000000000000E+20
 25
-1.000000000000000E+20
 35
-1.000000000000000E+20
146
0.0
 13
0.0
 23
0.0
 33
0.0
 16
1.0
 26
0.0
 36
0.0
 17
0.0
 27
1.0
 37
0.0
 76
     0
330
B
  0
LAYOUT
  5
2013
102
{ACAD_XDICTIONARY
360
20BB
102
}
102
{ACAD_REACTORS
330
2011
102
}
330
2011
100
AcDbPlotSettings
  1

  2
PLOTER 500
  4

  6

 40
0.0
 41
0.0
 42
0.0
 43
0.0
 44
0.0
 45
0.0
 46
0.0
 47
0.0
 48
0.0
 49
0.0
140
0.0
141
0.0
142
1.0
143
1.0
 70
  1712
 72
     0
 73
     0
 74
     0
  7

 75
     0
147
1.0
148
0.0
149
0.0
100
AcDbLayout
  1
Model
 70
     1
 71
     0
 10
0.0
 20
0.0
 11
12.0
 21
9.0
 12
0.0
 22
0.0
 32
0.0
 14
0.0
 24
0.0
 34
0.0
 15
0.0
 25
0.0
 35
0.0
146
0.0
 13
0.0
 23
0.0
 33
0.0
 16
1.0
 26
0.0
 36
0.0
 17
0.0
 27
1.0
 37
0.0
 76
     0
330
A
331
2053
  0
MATERIAL
  5
205E
102
{ACAD_XDICTIONARY
360
205F
102
}
102
{ACAD_REACTORS
330
2055
102
}
330
2055
100
AcDbMaterial
  1
ByBlock
 72
     0
 43
0.0208333333333333
 43
0.0
 43
0.0
 43
0.0
 43
0.0
 43
0.0208333333333333
 43
0.0
 43
0.0
 43
0.0
 43
0.0
 43
1.0
 43
0.0
 43
0.0
 43
0.0
 43
0.0
 43
1.0
 77
     0
 47
0.0208333333333333
 47
0.0
 47
0.0
 47
0.0
 47
0.0
 47
0.0208333333333333
 47
0.0
 47
0.0
 47
0.0
 47
0.0
 47
1.0
 47
0.0
 47
0.0
 47
0.0
 47
0.0
 47
1.0
171
     0
 49
0.0208333333333333
 49
0.0
 49
0.0
 49
0.0
 49
0.0
 49
0.0208333333333333
 49
0.0
 49
0.0
 49
0.0
 49
0.0
 49
1.0
 49
0.0
 49
0.0
 49
0.0
 49
0.0
 49
1.0
175
     0
142
0.0208333333333333
142
0.0
142
0.0
142
0.0
142
0.0
142
0.0208333333333333
142
0.0
142
0.0
142
0.0
142
0.0
142
1.0
142
0.0
142
0.0
142
0.0
142
0.0
142
1.0
179
     0
144
0.0208333333333333
144
0.0
144
0.0
144
0.0
144
0.0
144
0.0208333333333333
144
0.0
144
0.0
144
0.0
144
0.0
144
1.0
144
0.0
144
0.0
144
0.0
144
0.0
144
1.0
147
0.0208333333333333
147
0.0
147
0.0
147
0.0
147
0.0
147
0.0208333333333333
147
0.0
147
0.0
147
0.0
147
0.0
147
1.0
147
0.0
147
0.0
147
0.0
147
0.0
147
1.0
  0
MATERIAL
  5
2056
102
{ACAD_XDICTIONARY
360
2057
102
}
102
{ACAD_REACTORS
330
2055
102
}
330
2055
100
AcDbMaterial
  1
ByLayer
 72
     0
 43
0.0208333333333333
 43
0.0
 43
0.0
 43
0.0
 43
0.0
 43
0.0208333333333333
 43
0.0
 43
0.0
 43
0.0
 43
0.0
 43
1.0
 43
0.0
 43
0.0
 43
0.0
 43
0.0
 43
1.0
 77
     0
 47
0.0208333333333333
 47
0.0
 47
0.0
 47
0.0
 47
0.0
 47
0.0208333333333333
 47
0.0
 47
0.0
 47
0.0
 47
0.0
 47
1.0
 47
0.0
 47
0.0
 47
0.0
 47
0.0
 47
1.0
171
     0
 49
0.0208333333333333
 49
0.0
 49
0.0
 49
0.0
 49
0.0
 49
0.0208333333333333
 49
0.0
 49
0.0
 49
0.0
 49
0.0
 49
1.0
 49
0.0
 49
0.0
 49
0.0
 49
0.0
 49
1.0
175
     0
142
0.0208333333333333
142
0.0
142
0.0
142
0.0
142
0.0
142
0.0208333333333333
142
0.0
142
0.0
142
0.0
142
0.0
142
1.0
142
0.0
142
0.0
142
0.0
142
0.0
142
1.0
179
     0
144
0.0208333333333333
144
0.0
144
0.0
144
0.0
144
0.0
144
0.0208333333333333
144
0.0
144
0.0
144
0.0
144
0.0
144
1.0
144
0.0
144
0.0
144
0.0
144
0.0
144
1.0
147
0.0208333333333333
147
0.0
147
0.0
147
0.0
147
0.0
147
0.0208333333333333
147
0.0
147
0.0
147
0.0
147
0.0
147
1.0
147
0.0
147
0.0
147
0.0
147
0.0
147
1.0
  0
MATERIAL
  5
2066
102
{ACAD_XDICTIONARY
360
2067
102
}
102
{ACAD_REACTORS
330
2055
102
}
330
2055
100
AcDbMaterial
  1
Global
 72
     0
 43
0.0208333333333333
 43
0.0
 43
0.0
 43
0.0
 43
0.0
 43
0.0208333333333333
 43
0.0
 43
0.0
 43
0.0
 43
0.0
 43
1.0
 43
0.0
 43
0.0
 43
0.0
 43
0.0
 43
1.0
 77
     0
 47
0.0208333333333333
 47
0.0
 47
0.0
 47
0.0
 47
0.0
 47
0.0208333333333333
 47
0.0
 47
0.0
 47
0.0
 47
0.0
 47
1.0
 47
0.0
 47
0.0
 47
0.0
 47
0.0
 47
1.0
171
     0
 49
0.0208333333333333
 49
0.0
 49
0.0
 49
0.0
 49
0.0
 49
0.0208333333333333
 49
0.0
 49
0.0
 49
0.0
 49
0.0
 49
1.0
 49
0.0
 49
0.0
 49
0.0
 49
0.0
 49
1.0
175
     0
142
0.0208333333333333
142
0.0
142
0.0
142
0.0
142
0.0
142
0.0208333333333333
142
0.0
142
0.0
142
0.0
142
0.0
142
1.0
142
0.0
142
0.0
142
0.0
142
0.0
142
1.0
179
     0
144
0.0208333333333333
144
0.0
144
0.0
144
0.0
144
0.0
144
0.0208333333333333
144
0.0
144
0.0
144
0.0
144
0.0
144
1.0
144
0.0
144
0.0
144
0.0
144
0.0
144
1.0
147
0.0208333333333333
147
0.0
147
0.0
147
0.0
147
0.0
147
0.0208333333333333
147
0.0
147
0.0
147
0.0
147
0.0
147
1.0
147
0.0
147
0.0
147
0.0
147
0.0
147
1.0
  0
MLEADERSTYLE
  5
20A8
102
{ACAD_REACTORS
330
20A7
102
}
330
20A7
100
AcDbMLeaderStyle
170
     2
171
     1
172
     0
 90
        2
 40
0.0
 41
0.0
173
     1
 91
-1056964608
340
11
 92
       -2
290
     1
 42
0.09
291
     1
 43
0.36
  3
Standard
 44
0.18
300

342
17
174
     1
178
     6
175
     1
176
     0
 93
-1056964608
 45
0.18
292
     0
297
     0
 46
0.18
 94
-1056964608
 47
1.0
 49
1.0
140
1.0
293
     1
141
0.0
294
     1
177
     0
142
1.0
295
     0
296
     0
143
0.125
1001
ACAD_MLEADERVER
1070
     2
  0
MLINESTYLE
  5
1C
102
{ACAD_REACTORS
330
1B
102
}
330
1B
100
AcDbMlineStyle
  2
STANDARD
 70
     0
  3

 62
     0
 51
90.0
 52
90.0
 71
     2
 49
0.5
 62
   256
  6
BYLAYER
 49
-0.5
 62
   256
  6
BYLAYER
  0
ACDBPLACEHOLDER
  5
2010
102
{ACAD_REACTORS
330
200F
102
}
330
200F
  0
SCALE
  5
2086
102
{ACAD_REACTORS
330
2085
102
}
330
2085
100
AcDbScale
 70
     0
300
1:1
140
1.0
141
1.0
290
     1
  0
SCALE
  5
2087
102
{ACAD_REACTORS
330
2085
102
}
330
2085
100
AcDbScale
 70
     0
300
1:2
140
1.0
141
2.0
290
     0
  0
SCALE
  5
2088
102
{ACAD_REACTORS
330
2085
102
}
330
2085
100
AcDbScale
 70
     0
300
1:4
140
1.0
141
4.0
290
     0
  0
SCALE
  5
2089
102
{ACAD_REACTORS
330
2085
102
}
330
2085
100
AcDbScale
 70
     0
300
1:5
140
1.0
141
5.0
290
     0
  0
SCALE
  5
208A
102
{ACAD_REACTORS
330
2085
102
}
330
2085
100
AcDbScale
 70
     0
300
1:8
140
1.0
141
8.0
290
     0
  0
SCALE
  5
208B
102
{ACAD_REACTORS
330
2085
102
}
330
2085
100
AcDbScale
 70
     0
300
1:10
140
1.0
141
10.0
290
     0
  0
SCALE
  5
208C
102
{ACAD_REACTORS
330
2085
102
}
330
2085
100
AcDbScale
 70
     0
300
1:16
140
1.0
141
16.0
290
     0
  0
SCALE
  5
208D
102
{ACAD_REACTORS
330
2085
102
}
330
2085
100
AcDbScale
 70
     0
300
1:20
140
1.0
141
20.0
290
     0
  0
SCALE
  5
208E
102
{ACAD_REACTORS
330
2085
102
}
330
2085
100
AcDbScale
 70
     0
300
1:30
140
1.0
141
30.0
290
     0
  0
SCALE
  5
208F
102
{ACAD_REACTORS
330
2085
102
}
330
2085
100
AcDbScale
 70
     0
300
1:40
140
1.0
141
40.0
290
     0
  0
SCALE
  5
2090
102
{ACAD_REACTORS
330
2085
102
}
330
2085
100
AcDbScale
 70
     0
300
1:50
140
1.0
141
50.0
290
     0
  0
SCALE
  5
2091
102
{ACAD_REACTORS
330
2085
102
}
330
2085
100
AcDbScale
 70
     0
300
1:100
140
1.0
141
100.0
290
     0
  0
SCALE
  5
2092
102
{ACAD_REACTORS
330
2085
102
}
330
2085
100
AcDbScale
 70
     0
300
2:1
140
2.0
141
1.0
290
     0
  0
SCALE
  5
2093
102
{ACAD_REACTORS
330
2085
102
}
330
2085
100
AcDbScale
 70
     0
300
4:1
140
4.0
141
1.0
290
     0
  0
SCALE
  5
2094
102
{ACAD_REACTORS
330
2085
102
}
330
2085
100
AcDbScale
 70
     0
300
8:1
140
8.0
141
1.0
290
     0
  0
SCALE
  5
2095
102
{ACAD_REACTORS
330
2085
102
}
330
2085
100
AcDbScale
 70
     0
300
10:1
140
10.0
141
1.0
290
     0
  0
SCALE
  5
2096
102
{ACAD_REACTORS
330
2085
102
}
330
2085
100
AcDbScale
 70
     0
300
100:1
140
100.0
141
1.0
290
     0
  0
SCALE
  5
2097
102
{ACAD_REACTORS
330
2085
102
}
330
2085
100
AcDbScale
 70
     0
300
1/128" = 1'-0"
140
0.0078125
141
12.0
290
     0
  0
SCALE
  5
2098
102
{ACAD_REACTORS
330
2085
102
}
330
2085
100
AcDbScale
 70
     0
300
1/64" = 1'-0"
140
0.015625
141
12.0
290
     0
  0
SCALE
  5
2099
102
{ACAD_REACTORS
330
2085
102
}
330
2085
100
AcDbScale
 70
     0
300
1/32" = 1'-0"
140
0.03125
141
12.0
290
     0
  0
SCALE
  5
209A
102
{ACAD_REACTORS
330
2085
102
}
330
2085
100
AcDbScale
 70
     0
300
1/16" = 1'-0"
140
0.0625
141
12.0
290
     0
  0
SCALE
  5
209B
102
{ACAD_REACTORS
330
2085
102
}
330
2085
100
AcDbScale
 70
     0
300
3/32" = 1'-0"
140
0.09375
141
12.0
290
     0
  0
SCALE
  5
209C
102
{ACAD_REACTORS
330
2085
102
}
330
2085
100
AcDbScale
 70
     0
300
1/8" = 1'-0"
140
0.125
141
12.0
290
     0
  0
SCALE
  5
209D
102
{ACAD_REACTORS
330
2085
102
}
330
2085
100
AcDbScale
 70
     0
300
3/16" = 1'-0"
140
0.1875
141
12.0
290
     0
  0
SCALE
  5
209E
102
{ACAD_REACTORS
330
2085
102
}
330
2085
100
AcDbScale
 70
     0
300
1/4" = 1'-0"
140
0.25
141
12.0
290
     0
  0
SCALE
  5
209F
102
{ACAD_REACTORS
330
2085
102
}
330
2085
100
AcDbScale
 70
     0
300
3/8" = 1'-0"
140
0.375
141
12.0
290
     0
  0
SCALE
  5
20A0
102
{ACAD_REACTORS
330
2085
102
}
330
2085
100
AcDbScale
 70
     0
300
1/2" = 1'-0"
140
0.5
141
12.0
290
     0
  0
SCALE
  5
20A1
102
{ACAD_REACTORS
330
2085
102
}
330
2085
100
AcDbScale
 70
     0
300
3/4" = 1'-0"
140
0.75
141
12.0
290
     0
  0
SCALE
  5
20A2
102
{ACAD_REACTORS
330
2085
102
}
330
2085
100
AcDbScale
 70
     0
300
1" = 1'-0"
140
1.0
141
12.0
290
     0
  0
SCALE
  5
20A3
102
{ACAD_REACTORS
330
2085
102
}
330
2085
100
AcDbScale
 70
     0
300
1-1/2" = 1'-0"
140
1.5
141
12.0
290
     0
  0
SCALE
  5
20A4
102
{ACAD_REACTORS
330
2085
102
}
330
2085
100
AcDbScale
 70
     0
300
3" = 1'-0"
140
3.0
141
12.0
290
     0
  0
SCALE
  5
20A5
102
{ACAD_REACTORS
330
2085
102
}
330
2085
100
AcDbScale
 70
     0
300
6" = 1'-0"
140
6.0
141
12.0
290
     0
  0
SCALE
  5
20A6
102
{ACAD_REACTORS
330
2085
102
}
330
2085
100
AcDbScale
 70
     0
300
1'-0" = 1'-0"
140
12.0
141
12.0
290
     0
  0
TABLESTYLE
  5
2084
102
{ACAD_XDICTIONARY
360
20B7
102
}
102
{ACAD_REACTORS
330
2083
102
}
330
2083
100
AcDbTableStyle
  3
Standard
 70
     0
 71
     0
 40
0.06
 41
0.06
280
     0
281
     0
  7
STANDARD
140
0.18
170
     2
 62
     0
 63
     7
283
     0
274
    -2
284
     1
 64
     0
275
    -2
285
     1
 65
     0
276
    -2
286
     1
 66
     0
277
    -2
287
     1
 67
     0
278
    -2
288
     1
 68
     0
279
    -2
289
     1
 69
     0
  7
STANDARD
140
0.25
170
     5
 62
     0
 63
     7
283
     0
274
    -2
284
     1
 64
     0
275
    -2
285
     1
 65
     0
276
    -2
286
     1
 66
     0
277
    -2
287
     1
 67
     0
278
    -2
288
     1
 68
     0
279
    -2
289
     1
 69
     0
  7
STANDARD
140
0.18
170
     5
 62
     0
 63
     7
283
     0
274
    -2
284
     1
 64
     0
275
    -2
285
     1
 65
     0
276
    -2
286
     1
 66
     0
277
    -2
287
     1
 67
     0
278
    -2
288
     1
 68
     0
279
    -2
289
     1
 69
     0
  0
VISUALSTYLE
  5
2074
102
{ACAD_XDICTIONARY
360
20CC
102
}
102
{ACAD_REACTORS
330
206E
102
}
330
206E
100
AcDbVisualStyle
  2
2dWireframe
 70
     4
 71
     0
 72
     2
 73
     0
 90
        0
 40
-0.6
 41
-30.0
 62
     5
 63
     7
 74
     1
 91
        4
 64
     7
 65
   257
 75
     1
175
     1
 42
1.0
 92
        0
 66
   257
 43
1.0
 76
     1
 77
     6
 78
     2
 67
     7
 79
     5
170
     0
171
     0
290
     0
174
     0
 93
        1
 44
0.0
173
     0
291
     0
 45
0.0
1001
ACAD
1000
AcDbSavedByObjectVersion
1070
     0
  0
VISUALSTYLE
  5
2076
102
{ACAD_XDICTIONARY
360
20D0
102
}
102
{ACAD_REACTORS
330
206E
102
}
330
206E
100
AcDbVisualStyle
  2
3D Hidden
 70
     6
 71
     1
 72
     2
 73
     2
 90
        0
 40
-0.6
 41
-30.0
 62
     5
 63
     7
 74
     2
 91
        2
 64
     7
 65
   257
 75
     2
175
     1
 42
179.0
 92
        0
 66
   257
 43
1.0
 76
     1
 77
     6
 78
     2
 67
     7
 79
     3
170
     0
171
     0
290
     0
174
     0
 93
        1
 44
0.0
173
     0
291
     0
 45
0.0
1001
ACAD
1000
AcDbSavedByObjectVersion
1070
     0
  0
VISUALSTYLE
  5
2075
102
{ACAD_XDICTIONARY
360
20CE
102
}
102
{ACAD_REACTORS
330
206E
102
}
330
206E
100
AcDbVisualStyle
  2
3dWireframe
 70
     5
 71
     0
 72
     2
 73
     0
 90
        0
 40
-0.6
 41
-30.0
 62
     5
 63
     7
 74
     1
 91
        4
 64
     7
 65
   257
 75
     1
175
     1
 42
1.0
 92
        0
 66
   257
 43
1.0
 76
     1
 77
     6
 78
     2
 67
     7
 79
     5
170
     0
171
     0
290
     0
174
     0
 93
        1
 44
0.0
173
     0
291
     0
 45
0.0
1001
ACAD
1000
AcDbSavedByObjectVersion
1070
     0
  0
VISUALSTYLE
  5
2073
102
{ACAD_XDICTIONARY
360
20CA
102
}
102
{ACAD_REACTORS
330
206E
102
}
330
206E
100
AcDbVisualStyle
  2
Basic
 70
     7
 71
     1
 72
     0
 73
     1
 90
        0
 40
-0.6
 41
-30.0
 62
     5
 63
     7
 74
     0
 91
        4
 64
     7
 65
   257
 75
     1
175
     1
 42
1.0
 92
        8
 66
     7
 43
1.0
 76
     1
 77
     6
 78
     2
 67
     7
 79
     5
170
     0
171
     0
290
     0
174
     0
 93
        1
 44
0.0
173
     0
291
     1
 45
0.0
1001
ACAD
1000
AcDbSavedByObjectVersion
1070
     0
  0
VISUALSTYLE
  5
207A
102
{ACAD_XDICTIONARY
360
20D8
102
}
102
{ACAD_REACTORS
330
206E
102
}
330
206E
100
AcDbVisualStyle
  2
Brighten
 70
    12
 71
     2
 72
     2
 73
     0
 90
        0
 40
-0.6
 41
-30.0
 62
     5
 63
     7
 74
     1
 91
        4
 64
     7
 65
   257
 75
     1
175
     1
 42
1.0
 92
        8
 66
     7
 43
1.0
 76
     1
 77
     6
 78
     2
 67
     7
 79
     5
170
     0
171
     0
290
     0
174
     0
 93
        1
 44
50.0
173
     0
291
     1
 45
0.0
1001
ACAD
1000
AcDbSavedByObjectVersion
1070
     0
  0
VISUALSTYLE
  5
207E
102
{ACAD_XDICTIONARY
360
20E0
102
}
102
{ACAD_REACTORS
330
206E
102
}
330
206E
100
AcDbVisualStyle
  2
ColorChange
 70
    16
 71
     2
 72
     2
 73
     3
 90
        0
 40
-0.6
 41
-30.0
 62
     5
 63
     8
 74
     1
 91
        4
 64
     7
 65
   257
 75
     1
175
     1
 42
1.0
 92
        8
 66
     8
 43
1.0
 76
     1
 77
     6
 78
     2
 67
     7
 79
     5
170
     0
171
     0
290
     0
174
     0
 93
        1
 44
0.0
173
     0
291
     1
 45
0.0
1001
ACAD
1000
AcDbSavedByObjectVersion
1070
     0
  0
VISUALSTYLE
  5
2077
102
{ACAD_XDICTIONARY
360
20D2
102
}
102
{ACAD_REACTORS
330
206E
102
}
330
206E
100
AcDbVisualStyle
  2
Conceptual
 70
     9
 71
     3
 72
     2
 73
     0
 90
        0
 40
-0.6
 41
-30.0
 62
     5
 63
     7
 74
     2
 91
        2
 64
     7
 65
   257
 75
     1
175
     1
 42
179.0
 92
        8
 66
     7
 43
1.0
 76
     1
 77
     6
 78
     2
 67
     7
 79
     3
170
     0
171
     0
290
     0
174
     0
 93
        1
 44
0.0
173
     0
291
     0
 45
0.0
1001
ACAD
1000
AcDbSavedByObjectVersion
1070
     0
  0
VISUALSTYLE
  5
2079
102
{ACAD_XDICTIONARY
360
20D6
102
}
102
{ACAD_REACTORS
330
206E
102
}
330
206E
100
AcDbVisualStyle
  2
Dim
 70
    11
 71
     2
 72
     2
 73
     0
 90
        0
 40
-0.6
 41
-30.0
 62
     5
 63
     7
 74
     1
 91
        4
 64
     7
 65
   257
 75
     1
175
     1
 42
1.0
 92
        8
 66
     7
 43
1.0
 76
     1
 77
     6
 78
     2
 67
     7
 79
     5
170
     0
171
     0
290
     0
174
     0
 93
        1
 44
-50.0
173
     0
291
     1
 45
0.0
1001
ACAD
1000
AcDbSavedByObjectVersion
1070
     0
  0
VISUALSTYLE
  5
2081
102
{ACAD_XDICTIONARY
360
20E6
102
}
102
{ACAD_REACTORS
330
206E
102
}
330
206E
100
AcDbVisualStyle
  2
EdgeColorOff
 70
    22
 71
     2
 72
     2
 73
     0
 90
        0
 40
-0.6
 41
-30.0
 62
     5
 63
     7
 74
     1
 91
        4
 64
     7
 65
   257
 75
     1
175
     1
 42
1.0
 92
        8
 66
     7
 43
1.0
 76
     1
 77
     6
 78
     2
 67
     7
 79
     5
170
     0
171
     0
290
     0
174
     0
 93
        1
 44
0.0
173
     0
291
     1
 45
0.0
1001
ACAD
1000
AcDbSavedByObjectVersion
1070
     0
  0
VISUALSTYLE
  5
207D
102
{ACAD_XDICTIONARY
360
20DE
102
}
102
{ACAD_REACTORS
330
206E
102
}
330
206E
100
AcDbVisualStyle
  2
Facepattern
 70
    15
 71
     2
 72
     2
 73
     0
 90
        0
 40
-0.6
 41
-30.0
 62
     5
 63
     7
 74
     1
 91
        4
 64
     7
 65
   257
 75
     1
175
     1
 42
1.0
 92
        8
 66
     7
 43
1.0
 76
     1
 77
     6
 78
     2
 67
     7
 79
     5
170
     0
171
     0
290
     0
174
     0
 93
        1
 44
0.0
173
     0
291
     1
 45
0.0
1001
ACAD
1000
AcDbSavedByObjectVersion
1070
     0
  0
VISUALSTYLE
  5
206F
102
{ACAD_XDICTIONARY
360
20C2
102
}
102
{ACAD_REACTORS
330
206E
102
}
330
206E
100
AcDbVisualStyle
  2
Flat
 70
     0
 71
     2
 72
     1
 73
     1
 90
        2
 40
-0.6
 41
30.0
 62
     5
 63
     7
 74
     0
 91
        4
 64
     7
 65
   257
 75
     1
175
     1
 42
1.0
 92
        8
 66
     7
 43
1.0
 76
     1
 77
     6
 78
     2
 67
     7
 79
     5
170
     0
171
     0
290
     0
174
     0
 93
       13
 44
0.0
173
     0
291
     1
 45
0.0
1001
ACAD
1000
AcDbSavedByObjectVersion
1070
     0
  0
VISUALSTYLE
  5
2070
102
{ACAD_XDICTIONARY
360
20C4
102
}
102
{ACAD_REACTORS
330
206E
102
}
330
206E
100
AcDbVisualStyle
  2
FlatWithEdges
 70
     1
 71
     2
 72
     1
 73
     1
 90
        2
 40
-0.6
 41
30.0
 62
     5
 63
     7
 74
     1
 91
        4
 64
     7
 65
   257
 75
     1
175
     1
 42
1.0
 92
        0
 66
   257
 43
1.0
 76
     1
 77
     6
 78
     2
 67
     7
 79
     5
170
     0
171
     0
290
     0
174
     0
 93
       13
 44
0.0
173
     0
291
     1
 45
0.0
1001
ACAD
1000
AcDbSavedByObjectVersion
1070
     0
  0
VISUALSTYLE
  5
2071
102
{ACAD_XDICTIONARY
360
20C6
102
}
102
{ACAD_REACTORS
330
206E
102
}
330
206E
100
AcDbVisualStyle
  2
Gouraud
 70
     2
 71
     2
 72
     2
 73
     1
 90
        2
 40
-0.6
 41
30.0
 62
     5
 63
     7
 74
     0
 91
        4
 64
     7
 65
   257
 75
     1
175
     1
 42
1.0
 92
        0
 66
     7
 43
1.0
 76
     1
 77
     6
 78
     2
 67
     7
 79
     5
170
     0
171
     0
290
     0
174
     0
 93
       13
 44
0.0
173
     0
291
     1
 45
0.0
1001
ACAD
1000
AcDbSavedByObjectVersion
1070
     0
  0
VISUALSTYLE
  5
2072
102
{ACAD_XDICTIONARY
360
20C8
102
}
102
{ACAD_REACTORS
330
206E
102
}
330
206E
100
AcDbVisualStyle
  2
GouraudWithEdges
 70
     3
 71
     2
 72
     2
 73
     1
 90
        2
 40
-0.6
 41
30.0
 62
     5
 63
     7
 74
     1
 91
        4
 64
     7
 65
   257
 75
     1
175
     1
 42
1.0
 92
        0
 66
   257
 43
1.0
 76
     1
 77
     6
 78
     2
 67
     7
 79
     5
170
     0
171
     0
290
     0
174
     0
 93
       13
 44
0.0
173
     0
291
     1
 45
0.0
1001
ACAD
1000
AcDbSavedByObjectVersion
1070
     0
  0
VISUALSTYLE
  5
207F
102
{ACAD_XDICTIONARY
360
20E2
102
}
102
{ACAD_REACTORS
330
206E
102
}
330
206E
100
AcDbVisualStyle
  2
JitterOff
 70
    20
 71
     2
 72
     2
 73
     0
 90
        0
 40
-0.6
 41
-30.0
 62
     5
 63
     7
 74
     1
 91
        4
 64
     7
 65
   257
 75
     1
175
     1
 42
1.0
 92
       10
 66
     7
 43
1.0
 76
     1
 77
     6
 78
     2
 67
     7
 79
     5
170
     0
171
     0
290
     0
174
     0
 93
        1
 44
0.0
173
     0
291
     1
 45
0.0
1001
ACAD
1000
AcDbSavedByObjectVersion
1070
     0
  0
VISUALSTYLE
  5
207C
102
{ACAD_XDICTIONARY
360
20DC
102
}
102
{ACAD_REACTORS
330
206E
102
}
330
206E
100
AcDbVisualStyle
  2
Linepattern
 70
    14
 71
     2
 72
     2
 73
     0
 90
        0
 40
-0.6
 41
-30.0
 62
     5
 63
     7
 74
     1
 91
        4
 64
     7
 65
   257
 75
     7
175
     7
 42
1.0
 92
        8
 66
     7
 43
1.0
 76
     1
 77
     6
 78
     2
 67
     7
 79
     5
170
     0
171
     0
290
     0
174
     0
 93
        1
 44
0.0
173
     0
291
     1
 45
0.0
1001
ACAD
1000
AcDbSavedByObjectVersion
1070
     0
  0
VISUALSTYLE
  5
2080
102
{ACAD_XDICTIONARY
360
20E4
102
}
102
{ACAD_REACTORS
330
206E
102
}
330
206E
100
AcDbVisualStyle
  2
OverhangOff
 70
    21
 71
     2
 72
     2
 73
     0
 90
        0
 40
-0.6
 41
-30.0
 62
     5
 63
     7
 74
     1
 91
        4
 64
     7
 65
   257
 75
     1
175
     1
 42
1.0
 92
        9
 66
     7
 43
1.0
 76
     1
 77
     6
 78
     2
 67
     7
 79
     5
170
     0
171
     0
290
     0
174
     0
 93
        1
 44
0.0
173
     0
291
     1
 45
0.0
1001
ACAD
1000
AcDbSavedByObjectVersion
1070
     0
  0
VISUALSTYLE
  5
2078
102
{ACAD_XDICTIONARY
360
20D4
102
}
102
{ACAD_REACTORS
330
206E
102
}
330
206E
100
AcDbVisualStyle
  2
Realistic
 70
     8
 71
     2
 72
     2
 73
     0
 90
        0
 40
-0.6
 41
-30.0
 62
     5
 63
     7
 74
     1
 91
        0
 64
     7
 65
   257
 75
     1
175
     1
 42
1.0
 92
        8
 66
     8
 43
1.0
 76
     1
 77
     6
 78
     2
 67
     7
 79
     5
170
     0
171
     0
290
     0
174
     0
 93
       13
 44
0.0
173
     0
291
     0
 45
0.0
1001
ACAD
1000
AcDbSavedByObjectVersion
1070
     0
  0
VISUALSTYLE
  5
207B
102
{ACAD_XDICTIONARY
360
20DA
102
}
102
{ACAD_REACTORS
330
206E
102
}
330
206E
100
AcDbVisualStyle
  2
Thicken
 70
    13
 71
     2
 72
     2
 73
     0
 90
        0
 40
-0.6
 41
-30.0
 62
     5
 63
     7
 74
     1
 91
        4
 64
     7
 65
   257
 75
     1
175
     1
 42
1.0
 92
       12
 66
     7
 43
1.0
 76
     1
 77
     6
 78
     2
 67
     7
 79
     5
170
     0
171
     0
290
     0
174
     0
 93
        1
 44
0.0
173
     0
291
     1
 45
0.0
1001
ACAD
1000
AcDbSavedByObjectVersion
1070
     0
  0
DICTIONARYVAR
  5
20B3
102
{ACAD_REACTORS
330
202D
102
}
330
202D
100
DictionaryVariables
280
     0
  1
1:1
  0
DICTIONARYVAR
  5
20B2
102
{ACAD_REACTORS
330
202D
102
}
330
202D
100
DictionaryVariables
280
     0
  1
STANDARD
  0
DICTIONARYVAR
  5
20B1
102
{ACAD_REACTORS
330
202D
102
}
330
202D
100
DictionaryVariables
280
     0
  1
STANDARD
  0
DICTIONARYVAR
  5
202E
102
{ACAD_REACTORS
330
202D
102
}
330
202D
100
DictionaryVariables
280
     0
  1
1
  0
DICTIONARYVAR
  5
20B5
102
{ACAD_REACTORS
330
202D
102
}
330
202D
100
DictionaryVariables
280
     0
  1
0
  0
DICTIONARYVAR
  5
20B4
102
{ACAD_REACTORS
330
202D
102
}
330
202D
100
DictionaryVariables
280
     0
  1
127
  0
DICTIONARYVAR
  5
20B6
102
{ACAD_REACTORS
330
202D
102
}
330
202D
100
DictionaryVariables
280
     0
  1
2
  0
XRECORD
  5
202B
102
{ACAD_REACTORS
330
2029
102
}
330
2029
100
AcDbXrecord
280
     1
330
8F
330
93
330
98
330
9C
330
A0
330
A4
330
A8
330
AC
330
B0
330
B4
330
B8
330
BC
330
C0
330
C5
330
C9
  0
DICTIONARY
  5
20BD
330
2014
100
AcDbDictionary
280
     1
281
     1
  3
ACAD_XREC_ROUNDTRIP
360
20BE
  0
DICTIONARY
  5
20BB
330
2013
100
AcDbDictionary
280
     1
281
     1
  3
ACAD_XREC_ROUNDTRIP
360
20BC
  0
DICTIONARY
  5
205F
330
205E
100
AcDbDictionary
280
     1
281
     1
  3
ACAD_XREC_ROUNDTRIP
360
20C0
  3
BUMPTILE
360
2061
  3
DIFFUSETILE
360
2060
  3
OPACITYTILE
360
2064
  3
REFLECTIONTILE
360
2063
  3
REFRACTIONTILE
360
2065
  3
SPECULARTILE
360
2062
  0
DICTIONARY
  5
2057
330
2056
100
AcDbDictionary
280
     1
281
     1
  3
ACAD_XREC_ROUNDTRIP
360
20BF
  3
BUMPTILE
360
2059
  3
DIFFUSETILE
360
2058
  3
OPACITYTILE
360
205C
  3
REFLECTIONTILE
360
205B
  3
REFRACTIONTILE
360
205D
  3
SPECULARTILE
360
205A
  0
DICTIONARY
  5
2067
330
2066
100
AcDbDictionary
280
     1
281
     1
  3
ACAD_XREC_ROUNDTRIP
360
20C1
  3
BUMPTILE
360
2069
  3
DIFFUSETILE
360
2068
  3
OPACITYTILE
360
206C
  3
REFLECTIONTILE
360
206B
  3
REFRACTIONTILE
360
206D
  3
SPECULARTILE
360
206A
  0
DICTIONARY
  5
20B7
330
2084
100
AcDbDictionary
280
     1
281
     1
  3
ACAD_ROUNDTRIP_2008_TABLESTYLE_CELLSTYLEMAP
360
20B8
  3
ACAD_XREC_ROUNDTRIP
360
20E8
  0
DICTIONARY
  5
20CC
330
2074
100
AcDbDictionary
280
     1
281
     1
  3
ACAD_XREC_ROUNDTRIP
360
20CD
  0
DICTIONARY
  5
20D0
330
2076
100
AcDbDictionary
280
     1
281
     1
  3
ACAD_XREC_ROUNDTRIP
360
20D1
  0
DICTIONARY
  5
20CE
330
2075
100
AcDbDictionary
280
     1
281
     1
  3
ACAD_XREC_ROUNDTRIP
360
20CF
  0
DICTIONARY
  5
20CA
330
2073
100
AcDbDictionary
280
     1
281
     1
  3
ACAD_XREC_ROUNDTRIP
360
20CB
  0
DICTIONARY
  5
20D8
330
207A
100
AcDbDictionary
280
     1
281
     1
  3
ACAD_XREC_ROUNDTRIP
360
20D9
  0
DICTIONARY
  5
20E0
330
207E
100
AcDbDictionary
280
     1
281
     1
  3
ACAD_XREC_ROUNDTRIP
360
20E1
  0
DICTIONARY
  5
20D2
330
2077
100
AcDbDictionary
280
     1
281
     1
  3
ACAD_XREC_ROUNDTRIP
360
20D3
  0
DICTIONARY
  5
20D6
330
2079
100
AcDbDictionary
280
     1
281
     1
  3
ACAD_XREC_ROUNDTRIP
360
20D7
  0
DICTIONARY
  5
20E6
330
2081
100
AcDbDictionary
280
     1
281
     1
  3
ACAD_XREC_ROUNDTRIP
360
20E7
  0
DICTIONARY
  5
20DE
330
207D
100
AcDbDictionary
280
     1
281
     1
  3
ACAD_XREC_ROUNDTRIP
360
20DF
  0
DICTIONARY
  5
20C2
330
206F
100
AcDbDictionary
280
     1
281
     1
  3
ACAD_XREC_ROUNDTRIP
360
20C3
  0
DICTIONARY
  5
20C4
330
2070
100
AcDbDictionary
280
     1
281
     1
  3
ACAD_XREC_ROUNDTRIP
360
20C5
  0
DICTIONARY
  5
20C6
330
2071
100
AcDbDictionary
280
     1
281
     1
  3
ACAD_XREC_ROUNDTRIP
360
20C7
  0
DICTIONARY
  5
20C8
330
2072
100
AcDbDictionary
280
     1
281
     1
  3
ACAD_XREC_ROUNDTRIP
360
20C9
  0
DICTIONARY
  5
20E2
330
207F
100
AcDbDictionary
280
     1
281
     1
  3
ACAD_XREC_ROUNDTRIP
360
20E3
  0
DICTIONARY
  5
20DC
330
207C
100
AcDbDictionary
280
     1
281
     1
  3
ACAD_XREC_ROUNDTRIP
360
20DD
  0
DICTIONARY
  5
20E4
330
2080
100
AcDbDictionary
280
     1
281
     1
  3
ACAD_XREC_ROUNDTRIP
360
20E5
  0
DICTIONARY
  5
20D4
330
2078
100
AcDbDictionary
280
     1
281
     1
  3
ACAD_XREC_ROUNDTRIP
360
20D5
  0
DICTIONARY
  5
20DA
330
207B
100
AcDbDictionary
280
     1
281
     1
  3
ACAD_XREC_ROUNDTRIP
360
20DB
  0
XRECORD
  5
20BE
102
{ACAD_REACTORS
330
20BD
102
}
330
20BD
100
AcDbXrecord
280
     1
102
SHADEPLOT
 70
     0
102
SHADEPLOTRESLEVEL
 70
     2
102
SHADEPLOTCUSTOMDPI
 70
   300
  0
XRECORD
  5
20BC
102
{ACAD_REACTORS
330
20BB
102
}
330
20BB
100
AcDbXrecord
280
     1
102
SHADEPLOT
 70
     0
102
SHADEPLOTRESLEVEL
 70
     2
102
SHADEPLOTCUSTOMDPI
 70
   300
  0
XRECORD
  5
20C0
102
{ACAD_REACTORS
330
205F
102
}
330
205F
100
AcDbXrecord
280
     1
102
MATERIAL
148
0.0
149
0.0
149
0.0
 93
        0
 94
      127
282
     0
 72
     0
 77
     0
171
     0
175
     0
179
     0
273
     0
  0
XRECORD
  5
2061
102
{ACAD_REACTORS
330
205F
102
}
330
205F
100
AcDbXrecord
280
     1
270
     1
271
     1
  0
XRECORD
  5
2060
102
{ACAD_REACTORS
330
205F
102
}
330
205F
100
AcDbXrecord
280
     1
270
     1
271
     1
  0
XRECORD
  5
2064
102
{ACAD_REACTORS
330
205F
102
}
330
205F
100
AcDbXrecord
280
     1
270
     1
271
     1
  0
XRECORD
  5
2063
102
{ACAD_REACTORS
330
205F
102
}
330
205F
100
AcDbXrecord
280
     1
270
     1
271
     1
  0
XRECORD
  5
2065
102
{ACAD_REACTORS
330
205F
102
}
330
205F
100
AcDbXrecord
280
     1
270
     1
271
     1
  0
XRECORD
  5
2062
102
{ACAD_REACTORS
330
205F
102
}
330
205F
100
AcDbXrecord
280
     1
270
     1
271
     1
  0
XRECORD
  5
20BF
102
{ACAD_REACTORS
330
2057
102
}
330
2057
100
AcDbXrecord
280
     1
102
MATERIAL
148
0.0
149
0.0
149
0.0
 93
        0
 94
      127
282
     0
 72
     0
 77
     0
171
     0
175
     0
179
     0
273
     0
  0
XRECORD
  5
2059
102
{ACAD_REACTORS
330
2057
102
}
330
2057
100
AcDbXrecord
280
     1
270
     1
271
     1
  0
XRECORD
  5
2058
102
{ACAD_REACTORS
330
2057
102
}
330
2057
100
AcDbXrecord
280
     1
270
     1
271
     1
  0
XRECORD
  5
205C
102
{ACAD_REACTORS
330
2057
102
}
330
2057
100
AcDbXrecord
280
     1
270
     1
271
     1
  0
XRECORD
  5
205B
102
{ACAD_REACTORS
330
2057
102
}
330
2057
100
AcDbXrecord
280
     1
270
     1
271
     1
  0
XRECORD
  5
205D
102
{ACAD_REACTORS
330
2057
102
}
330
2057
100
AcDbXrecord
280
     1
270
     1
271
     1
  0
XRECORD
  5
205A
102
{ACAD_REACTORS
330
2057
102
}
330
2057
100
AcDbXrecord
280
     1
270
     1
271
     1
  0
XRECORD
  5
20C1
102
{ACAD_REACTORS
330
2067
102
}
330
2067
100
AcDbXrecord
280
     1
102
MATERIAL
148
0.0
149
0.0
149
0.0
 93
        0
 94
      127
282
     0
 72
     0
 77
     0
171
     0
175
     0
179
     0
273
     0
  0
XRECORD
  5
2069
102
{ACAD_REACTORS
330
2067
102
}
330
2067
100
AcDbXrecord
280
     1
270
     1
271
     1
  0
XRECORD
  5
2068
102
{ACAD_REACTORS
330
2067
102
}
330
2067
100
AcDbXrecord
280
     1
270
     1
271
     1
  0
XRECORD
  5
206C
102
{ACAD_REACTORS
330
2067
102
}
330
2067
100
AcDbXrecord
280
     1
270
     1
271
     1
  0
XRECORD
  5
206B
102
{ACAD_REACTORS
330
2067
102
}
330
2067
100
AcDbXrecord
280
     1
270
     1
271
     1
  0
XRECORD
  5
206D
102
{ACAD_REACTORS
330
2067
102
}
330
2067
100
AcDbXrecord
280
     1
270
     1
271
     1
  0
XRECORD
  5
206A
102
{ACAD_REACTORS
330
2067
102
}
330
2067
100
AcDbXrecord
280
     1
270
     1
271
     1
  0
CELLSTYLEMAP
  5
20B8
102
{ACAD_REACTORS
330
20B7
102
}
330
20B7
100
AcDbCellStyleMap
 90
        3
300
CELLSTYLE
  1
TABLEFORMAT_BEGIN
 90
        5
170
     1
 91
        0
 92
    32768
 62
   257
 93
        1
300
CONTENTFORMAT
  1
CONTENTFORMAT_BEGIN
 90
        0
 91
        0
 92
      512
 93
        0
300

 40
0.0
140
1.0
 94
        5
 62
     0
340
17
144
0.25
309
CONTENTFORMAT_END
171
     0
 94
        0
309
TABLEFORMAT_END
  1
CELLSTYLE_BEGIN
 90
        1
 91
        1
300
_TITLE
309
CELLSTYLE_END
300
CELLSTYLE
  1
TABLEFORMAT_BEGIN
 90
        5
170
     1
 91
        0
 92
        0
 62
   257
 93
        1
300
CONTENTFORMAT
  1
CONTENTFORMAT_BEGIN
 90
        0
 91
        0
 92
      512
 93
        0
300

 40
0.0
140
1.0
 94
        5
 62
     0
340
17
144
0.18
309
CONTENTFORMAT_END
171
     0
 94
        0
309
TABLEFORMAT_END
  1
CELLSTYLE_BEGIN
 90
        2
 91
        1
300
_HEADER
309
CELLSTYLE_END
300
CELLSTYLE
  1
TABLEFORMAT_BEGIN
 90
        5
170
     1
 91
        0
 92
        0
 62
   257
 93
        1
300
CONTENTFORMAT
  1
CONTENTFORMAT_BEGIN
 90
        0
 91
        0
 92
      512
 93
        0
300

 40
0.0
140
1.0
 94
        2
 62
     0
340
17
144
0.18
309
CONTENTFORMAT_END
171
     0
 94
        0
309
TABLEFORMAT_END
  1
CELLSTYLE_BEGIN
 90
        3
 91
        2
300
_DATA
309
CELLSTYLE_END
  0
XRECORD
  5
20E8
102
{ACAD_REACTORS
330
20B7
102
}
330
20B7
100
AcDbXrecord
280
     1
102
ACAD_ROUNDTRIP_PRE2007_TABLESTYLE
 90
      512
 91
        0
  1

 92
      512
 93
        0
  2

 94
      512
 95
        0
  3

  0
XRECORD
  5
20CD
102
{ACAD_REACTORS
330
20CC
102
}
330
20CC
100
AcDbXrecord
280
     1
102
RTVSPropertyOp0
 70
     1
102
RTVSPropertyOp1
 70
     1
102
RTVSPropertyOp2
 70
     1
102
RTVSPropertyOp3
 70
     1
102
RTVSPropertyOp4
 70
     1
102
RTVSPropertyOp5
 70
     1
102
RTVSPropertyOp6
 70
     1
102
RTVSPropertyOp7
 70
     1
102
RTVSPropertyOp8
 70
     1
102
RTVSPropertyOp9
 70
     1
102
RTVSPropertyOp10
 70
     1
102
RTVSPropertyOp11
 70
     1
102
RTVSPropertyOp12
 70
     1
102
RTVSPropertyOp13
 70
     1
102
RTVSPropertyOp14
 70
     1
102
RTVSPropertyOp15
 70
     1
102
RTVSPropertyOp16
 70
     1
102
RTVSPropertyOp17
 70
     1
102
RTVSPropertyOp18
 70
     1
102
RTVSPropertyOp19
 70
     1
102
RTVSPropertyOp20
 70
     1
102
RTVSPropertyOp21
 70
     1
102
RTVSPropertyOp22
 70
     1
102
RTVSPropertyOp23
 70
     1
102
RTVSPropertyOp24
 70
     1
102
RTVSPropertyOp25
 70
     1
102
RTVSPropertyOp26
 70
     1
102
RTVSPropertyOp27
 70
     1
  0
XRECORD
  5
20D1
102
{ACAD_REACTORS
330
20D0
102
}
330
20D0
100
AcDbXrecord
280
     1
102
RTVSPropertyOp0
 70
     1
102
RTVSPropertyOp1
 70
     1
102
RTVSPropertyOp2
 70
     1
102
RTVSPropertyOp3
 70
     1
102
RTVSPropertyOp4
 70
     1
102
RTVSPropertyOp5
 70
     1
102
RTVSPropertyOp6
 70
     1
102
RTVSPropertyOp7
 70
     1
102
RTVSPropertyOp8
 70
     1
102
RTVSPropertyOp9
 70
     1
102
RTVSPropertyOp10
 70
     1
102
RTVSPropertyOp11
 70
     1
102
RTVSPropertyOp12
 70
     1
102
RTVSPropertyOp13
 70
     1
102
RTVSPropertyOp14
 70
     1
102
RTVSPropertyOp15
 70
     1
102
RTVSPropertyOp16
 70
     1
102
RTVSPropertyOp17
 70
     1
102
RTVSPropertyOp18
 70
     1
102
RTVSPropertyOp19
 70
     1
102
RTVSPropertyOp20
 70
     1
102
RTVSPropertyOp21
 70
     1
102
RTVSPropertyOp22
 70
     1
102
RTVSPropertyOp23
 70
     1
102
RTVSPropertyOp24
 70
     1
102
RTVSPropertyOp25
 70
     1
102
RTVSPropertyOp26
 70
     1
102
RTVSPropertyOp27
 70
     1
  0
XRECORD
  5
20CF
102
{ACAD_REACTORS
330
20CE
102
}
330
20CE
100
AcDbXrecord
280
     1
102
RTVSPropertyOp0
 70
     1
102
RTVSPropertyOp1
 70
     1
102
RTVSPropertyOp2
 70
     1
102
RTVSPropertyOp3
 70
     1
102
RTVSPropertyOp4
 70
     1
102
RTVSPropertyOp5
 70
     1
102
RTVSPropertyOp6
 70
     1
102
RTVSPropertyOp7
 70
     1
102
RTVSPropertyOp8
 70
     1
102
RTVSPropertyOp9
 70
     1
102
RTVSPropertyOp10
 70
     1
102
RTVSPropertyOp11
 70
     1
102
RTVSPropertyOp12
 70
     1
102
RTVSPropertyOp13
 70
     1
102
RTVSPropertyOp14
 70
     1
102
RTVSPropertyOp15
 70
     1
102
RTVSPropertyOp16
 70
     1
102
RTVSPropertyOp17
 70
     1
102
RTVSPropertyOp18
 70
     1
102
RTVSPropertyOp19
 70
     1
102
RTVSPropertyOp20
 70
     1
102
RTVSPropertyOp21
 70
     1
102
RTVSPropertyOp22
 70
     1
102
RTVSPropertyOp23
 70
     1
102
RTVSPropertyOp24
 70
     1
102
RTVSPropertyOp25
 70
     1
102
RTVSPropertyOp26
 70
     1
102
RTVSPropertyOp27
 70
     1
  0
XRECORD
  5
20CB
102
{ACAD_REACTORS
330
20CA
102
}
330
20CA
100
AcDbXrecord
280
     1
102
RTVSPropertyOp0
 70
     1
102
RTVSPropertyOp1
 70
     1
102
RTVSPropertyOp2
 70
     1
102
RTVSPropertyOp3
 70
     1
102
RTVSPropertyOp4
 70
     1
102
RTVSPropertyOp5
 70
     1
102
RTVSPropertyOp6
 70
     1
102
RTVSPropertyOp7
 70
     1
102
RTVSPropertyOp8
 70
     1
102
RTVSPropertyOp9
 70
     1
102
RTVSPropertyOp10
 70
     1
102
RTVSPropertyOp11
 70
     1
102
RTVSPropertyOp12
 70
     1
102
RTVSPropertyOp13
 70
     1
102
RTVSPropertyOp14
 70
     1
102
RTVSPropertyOp15
 70
     1
102
RTVSPropertyOp16
 70
     1
102
RTVSPropertyOp17
 70
     1
102
RTVSPropertyOp18
 70
     1
102
RTVSPropertyOp19
 70
     1
102
RTVSPropertyOp20
 70
     1
102
RTVSPropertyOp21
 70
     1
102
RTVSPropertyOp22
 70
     1
102
RTVSPropertyOp23
 70
     1
102
RTVSPropertyOp24
 70
     1
102
RTVSPropertyOp25
 70
     1
102
RTVSPropertyOp26
 70
     1
102
RTVSPropertyOp27
 70
     1
  0
XRECORD
  5
20D9
102
{ACAD_REACTORS
330
20D8
102
}
330
20D8
100
AcDbXrecord
280
     1
102
RTVSPropertyOp0
 70
     1
102
RTVSPropertyOp1
 70
     1
102
RTVSPropertyOp2
 70
     1
102
RTVSPropertyOp3
 70
     1
102
RTVSPropertyOp4
 70
     1
102
RTVSPropertyOp5
 70
     1
102
RTVSPropertyOp6
 70
     1
102
RTVSPropertyOp7
 70
     1
102
RTVSPropertyOp8
 70
     1
102
RTVSPropertyOp9
 70
     1
102
RTVSPropertyOp10
 70
     1
102
RTVSPropertyOp11
 70
     1
102
RTVSPropertyOp12
 70
     1
102
RTVSPropertyOp13
 70
     1
102
RTVSPropertyOp14
 70
     1
102
RTVSPropertyOp15
 70
     1
102
RTVSPropertyOp16
 70
     1
102
RTVSPropertyOp17
 70
     1
102
RTVSPropertyOp18
 70
     1
102
RTVSPropertyOp19
 70
     1
102
RTVSPropertyOp20
 70
     1
102
RTVSPropertyOp21
 70
     1
102
RTVSPropertyOp22
 70
     1
102
RTVSPropertyOp23
 70
     1
102
RTVSPropertyOp24
 70
     1
102
RTVSPropertyOp25
 70
     1
102
RTVSPropertyOp26
 70
     1
102
RTVSPropertyOp27
 70
     1
  0
XRECORD
  5
20E1
102
{ACAD_REACTORS
330
20E0
102
}
330
20E0
100
AcDbXrecord
280
     1
102
RTVSPropertyOp0
 70
     1
102
RTVSPropertyOp1
 70
     1
102
RTVSPropertyOp2
 70
     1
102
RTVSPropertyOp3
 70
     1
102
RTVSPropertyOp4
 70
     1
102
RTVSPropertyOp5
 70
     1
102
RTVSPropertyOp6
 70
     1
102
RTVSPropertyOp7
 70
     1
102
RTVSPropertyOp8
 70
     1
102
RTVSPropertyOp9
 70
     1
102
RTVSPropertyOp10
 70
     1
102
RTVSPropertyOp11
 70
     1
102
RTVSPropertyOp12
 70
     1
102
RTVSPropertyOp13
 70
     1
102
RTVSPropertyOp14
 70
     1
102
RTVSPropertyOp15
 70
     1
102
RTVSPropertyOp16
 70
     1
102
RTVSPropertyOp17
 70
     1
102
RTVSPropertyOp18
 70
     1
102
RTVSPropertyOp19
 70
     1
102
RTVSPropertyOp20
 70
     1
102
RTVSPropertyOp21
 70
     1
102
RTVSPropertyOp22
 70
     1
102
RTVSPropertyOp23
 70
     1
102
RTVSPropertyOp24
 70
     1
102
RTVSPropertyOp25
 70
     1
102
RTVSPropertyOp26
 70
     1
102
RTVSPropertyOp27
 70
     1
  0
XRECORD
  5
20D3
102
{ACAD_REACTORS
330
20D2
102
}
330
20D2
100
AcDbXrecord
280
     1
102
RTVSPropertyOp0
 70
     1
102
RTVSPropertyOp1
 70
     1
102
RTVSPropertyOp2
 70
     1
102
RTVSPropertyOp3
 70
     1
102
RTVSPropertyOp4
 70
     1
102
RTVSPropertyOp5
 70
     1
102
RTVSPropertyOp6
 70
     1
102
RTVSPropertyOp7
 70
     1
102
RTVSPropertyOp8
 70
     1
102
RTVSPropertyOp9
 70
     1
102
RTVSPropertyOp10
 70
     1
102
RTVSPropertyOp11
 70
     1
102
RTVSPropertyOp12
 70
     1
102
RTVSPropertyOp13
 70
     1
102
RTVSPropertyOp14
 70
     1
102
RTVSPropertyOp15
 70
     1
102
RTVSPropertyOp16
 70
     1
102
RTVSPropertyOp17
 70
     1
102
RTVSPropertyOp18
 70
     1
102
RTVSPropertyOp19
 70
     1
102
RTVSPropertyOp20
 70
     1
102
RTVSPropertyOp21
 70
     1
102
RTVSPropertyOp22
 70
     1
102
RTVSPropertyOp23
 70
     1
102
RTVSPropertyOp24
 70
     1
102
RTVSPropertyOp25
 70
     1
102
RTVSPropertyOp26
 70
     1
102
RTVSPropertyOp27
 70
     1
  0
XRECORD
  5
20D7
102
{ACAD_REACTORS
330
20D6
102
}
330
20D6
100
AcDbXrecord
280
     1
102
RTVSPropertyOp0
 70
     1
102
RTVSPropertyOp1
 70
     1
102
RTVSPropertyOp2
 70
     1
102
RTVSPropertyOp3
 70
     1
102
RTVSPropertyOp4
 70
     1
102
RTVSPropertyOp5
 70
     1
102
RTVSPropertyOp6
 70
     1
102
RTVSPropertyOp7
 70
     1
102
RTVSPropertyOp8
 70
     1
102
RTVSPropertyOp9
 70
     1
102
RTVSPropertyOp10
 70
     1
102
RTVSPropertyOp11
 70
     1
102
RTVSPropertyOp12
 70
     1
102
RTVSPropertyOp13
 70
     1
102
RTVSPropertyOp14
 70
     1
102
RTVSPropertyOp15
 70
     1
102
RTVSPropertyOp16
 70
     1
102
RTVSPropertyOp17
 70
     1
102
RTVSPropertyOp18
 70
     1
102
RTVSPropertyOp19
 70
     1
102
RTVSPropertyOp20
 70
     1
102
RTVSPropertyOp21
 70
     1
102
RTVSPropertyOp22
 70
     1
102
RTVSPropertyOp23
 70
     1
102
RTVSPropertyOp24
 70
     1
102
RTVSPropertyOp25
 70
     1
102
RTVSPropertyOp26
 70
     1
102
RTVSPropertyOp27
 70
     1
  0
XRECORD
  5
20E7
102
{ACAD_REACTORS
330
20E6
102
}
330
20E6
100
AcDbXrecord
280
     1
102
RTVSPropertyOp0
 70
     0
102
RTVSPropertyOp1
 70
     0
102
RTVSPropertyOp2
 70
     0
102
RTVSPropertyOp3
 70
     0
102
RTVSPropertyOp4
 70
     0
102
RTVSPropertyOp5
 70
     0
102
RTVSPropertyOp6
 70
     0
102
RTVSPropertyOp7
 70
     0
102
RTVSPropertyOp8
 70
     0
102
RTVSPropertyOp9
 70
     0
102
RTVSPropertyOp10
 70
     0
102
RTVSPropertyOp11
 70
     0
102
RTVSPropertyOp12
 70
     0
102
RTVSPropertyOp13
 70
     0
102
RTVSPropertyOp14
 70
     2
102
RTVSPropertyOp15
 70
     0
102
RTVSPropertyOp16
 70
     0
102
RTVSPropertyOp17
 70
     0
102
RTVSPropertyOp18
 70
     0
102
RTVSPropertyOp19
 70
     0
102
RTVSPropertyOp20
 70
     0
102
RTVSPropertyOp21
 70
     0
102
RTVSPropertyOp22
 70
     0
102
RTVSPropertyOp23
 70
     0
102
RTVSPropertyOp24
 70
     0
102
RTVSPropertyOp25
 70
     0
102
RTVSPropertyOp26
 70
     0
102
RTVSPropertyOp27
 70
     0
  0
XRECORD
  5
20DF
102
{ACAD_REACTORS
330
20DE
102
}
330
20DE
100
AcDbXrecord
280
     1
102
RTVSPropertyOp0
 70
     1
102
RTVSPropertyOp1
 70
     1
102
RTVSPropertyOp2
 70
     1
102
RTVSPropertyOp3
 70
     1
102
RTVSPropertyOp4
 70
     1
102
RTVSPropertyOp5
 70
     1
102
RTVSPropertyOp6
 70
     1
102
RTVSPropertyOp7
 70
     1
102
RTVSPropertyOp8
 70
     1
102
RTVSPropertyOp9
 70
     1
102
RTVSPropertyOp10
 70
     1
102
RTVSPropertyOp11
 70
     1
102
RTVSPropertyOp12
 70
     1
102
RTVSPropertyOp13
 70
     1
102
RTVSPropertyOp14
 70
     1
102
RTVSPropertyOp15
 70
     1
102
RTVSPropertyOp16
 70
     1
102
RTVSPropertyOp17
 70
     1
102
RTVSPropertyOp18
 70
     1
102
RTVSPropertyOp19
 70
     1
102
RTVSPropertyOp20
 70
     1
102
RTVSPropertyOp21
 70
     1
102
RTVSPropertyOp22
 70
     1
102
RTVSPropertyOp23
 70
     1
102
RTVSPropertyOp24
 70
     1
102
RTVSPropertyOp25
 70
     1
102
RTVSPropertyOp26
 70
     1
102
RTVSPropertyOp27
 70
     1
  0
XRECORD
  5
20C3
102
{ACAD_REACTORS
330
20C2
102
}
330
20C2
100
AcDbXrecord
280
     1
102
RTVSPropertyOp0
 70
     1
102
RTVSPropertyOp1
 70
     1
102
RTVSPropertyOp2
 70
     1
102
RTVSPropertyOp3
 70
     1
102
RTVSPropertyOp4
 70
     1
102
RTVSPropertyOp5
 70
     1
102
RTVSPropertyOp6
 70
     1
102
RTVSPropertyOp7
 70
     1
102
RTVSPropertyOp8
 70
     1
102
RTVSPropertyOp9
 70
     1
102
RTVSPropertyOp10
 70
     1
102
RTVSPropertyOp11
 70
     1
102
RTVSPropertyOp12
 70
     1
102
RTVSPropertyOp13
 70
     1
102
RTVSPropertyOp14
 70
     1
102
RTVSPropertyOp15
 70
     1
102
RTVSPropertyOp16
 70
     1
102
RTVSPropertyOp17
 70
     1
102
RTVSPropertyOp18
 70
     1
102
RTVSPropertyOp19
 70
     1
102
RTVSPropertyOp20
 70
     1
102
RTVSPropertyOp21
 70
     1
102
RTVSPropertyOp22
 70
     1
102
RTVSPropertyOp23
 70
     1
102
RTVSPropertyOp24
 70
     1
102
RTVSPropertyOp25
 70
     1
102
RTVSPropertyOp26
 70
     1
102
RTVSPropertyOp27
 70
     1
  0
XRECORD
  5
20C5
102
{ACAD_REACTORS
330
20C4
102
}
330
20C4
100
AcDbXrecord
280
     1
102
RTVSPropertyOp0
 70
     1
102
RTVSPropertyOp1
 70
     1
102
RTVSPropertyOp2
 70
     1
102
RTVSPropertyOp3
 70
     1
102
RTVSPropertyOp4
 70
     1
102
RTVSPropertyOp5
 70
     1
102
RTVSPropertyOp6
 70
     1
102
RTVSPropertyOp7
 70
     1
102
RTVSPropertyOp8
 70
     1
102
RTVSPropertyOp9
 70
     1
102
RTVSPropertyOp10
 70
     1
102
RTVSPropertyOp11
 70
     1
102
RTVSPropertyOp12
 70
     1
102
RTVSPropertyOp13
 70
     1
102
RTVSPropertyOp14
 70
     1
102
RTVSPropertyOp15
 70
     1
102
RTVSPropertyOp16
 70
     1
102
RTVSPropertyOp17
 70
     1
102
RTVSPropertyOp18
 70
     1
102
RTVSPropertyOp19
 70
     1
102
RTVSPropertyOp20
 70
     1
102
RTVSPropertyOp21
 70
     1
102
RTVSPropertyOp22
 70
     1
102
RTVSPropertyOp23
 70
     1
102
RTVSPropertyOp24
 70
     1
102
RTVSPropertyOp25
 70
     1
102
RTVSPropertyOp26
 70
     1
102
RTVSPropertyOp27
 70
     1
  0
XRECORD
  5
20C7
102
{ACAD_REACTORS
330
20C6
102
}
330
20C6
100
AcDbXrecord
280
     1
102
RTVSPropertyOp0
 70
     1
102
RTVSPropertyOp1
 70
     1
102
RTVSPropertyOp2
 70
     1
102
RTVSPropertyOp3
 70
     1
102
RTVSPropertyOp4
 70
     1
102
RTVSPropertyOp5
 70
     1
102
RTVSPropertyOp6
 70
     1
102
RTVSPropertyOp7
 70
     1
102
RTVSPropertyOp8
 70
     1
102
RTVSPropertyOp9
 70
     1
102
RTVSPropertyOp10
 70
     1
102
RTVSPropertyOp11
 70
     1
102
RTVSPropertyOp12
 70
     1
102
RTVSPropertyOp13
 70
     1
102
RTVSPropertyOp14
 70
     1
102
RTVSPropertyOp15
 70
     1
102
RTVSPropertyOp16
 70
     1
102
RTVSPropertyOp17
 70
     1
102
RTVSPropertyOp18
 70
     1
102
RTVSPropertyOp19
 70
     1
102
RTVSPropertyOp20
 70
     1
102
RTVSPropertyOp21
 70
     1
102
RTVSPropertyOp22
 70
     1
102
RTVSPropertyOp23
 70
     1
102
RTVSPropertyOp24
 70
     1
102
RTVSPropertyOp25
 70
     1
102
RTVSPropertyOp26
 70
     1
102
RTVSPropertyOp27
 70
     1
  0
XRECORD
  5
20C9
102
{ACAD_REACTORS
330
20C8
102
}
330
20C8
100
AcDbXrecord
280
     1
102
RTVSPropertyOp0
 70
     1
102
RTVSPropertyOp1
 70
     1
102
RTVSPropertyOp2
 70
     1
102
RTVSPropertyOp3
 70
     1
102
RTVSPropertyOp4
 70
     1
102
RTVSPropertyOp5
 70
     1
102
RTVSPropertyOp6
 70
     1
102
RTVSPropertyOp7
 70
     1
102
RTVSPropertyOp8
 70
     1
102
RTVSPropertyOp9
 70
     1
102
RTVSPropertyOp10
 70
     1
102
RTVSPropertyOp11
 70
     1
102
RTVSPropertyOp12
 70
     1
102
RTVSPropertyOp13
 70
     1
102
RTVSPropertyOp14
 70
     1
102
RTVSPropertyOp15
 70
     1
102
RTVSPropertyOp16
 70
     1
102
RTVSPropertyOp17
 70
     1
102
RTVSPropertyOp18
 70
     1
102
RTVSPropertyOp19
 70
     1
102
RTVSPropertyOp20
 70
     1
102
RTVSPropertyOp21
 70
     1
102
RTVSPropertyOp22
 70
     1
102
RTVSPropertyOp23
 70
     1
102
RTVSPropertyOp24
 70
     1
102
RTVSPropertyOp25
 70
     1
102
RTVSPropertyOp26
 70
     1
102
RTVSPropertyOp27
 70
     1
  0
XRECORD
  5
20E3
102
{ACAD_REACTORS
330
20E2
102
}
330
20E2
100
AcDbXrecord
280
     1
102
RTVSPropertyOp0
 70
     0
102
RTVSPropertyOp1
 70
     0
102
RTVSPropertyOp2
 70
     0
102
RTVSPropertyOp3
 70
     0
102
RTVSPropertyOp4
 70
     0
102
RTVSPropertyOp5
 70
     0
102
RTVSPropertyOp6
 70
     0
102
RTVSPropertyOp7
 70
     0
102
RTVSPropertyOp8
 70
     0
102
RTVSPropertyOp9
 70
     0
102
RTVSPropertyOp10
 70
     0
102
RTVSPropertyOp11
 70
     0
102
RTVSPropertyOp12
 70
     0
102
RTVSPropertyOp13
 70
     0
102
RTVSPropertyOp14
 70
     2
102
RTVSPropertyOp15
 70
     0
102
RTVSPropertyOp16
 70
     0
102
RTVSPropertyOp17
 70
     0
102
RTVSPropertyOp18
 70
     0
102
RTVSPropertyOp19
 70
     0
102
RTVSPropertyOp20
 70
     0
102
RTVSPropertyOp21
 70
     0
102
RTVSPropertyOp22
 70
     0
102
RTVSPropertyOp23
 70
     0
102
RTVSPropertyOp24
 70
     0
102
RTVSPropertyOp25
 70
     0
102
RTVSPropertyOp26
 70
     0
102
RTVSPropertyOp27
 70
     0
  0
XRECORD
  5
20DD
102
{ACAD_REACTORS
330
20DC
102
}
330
20DC
100
AcDbXrecord
280
     1
102
RTVSPropertyOp0
 70
     1
102
RTVSPropertyOp1
 70
     1
102
RTVSPropertyOp2
 70
     1
102
RTVSPropertyOp3
 70
     1
102
RTVSPropertyOp4
 70
     1
102
RTVSPropertyOp5
 70
     1
102
RTVSPropertyOp6
 70
     1
102
RTVSPropertyOp7
 70
     1
102
RTVSPropertyOp8
 70
     1
102
RTVSPropertyOp9
 70
     1
102
RTVSPropertyOp10
 70
     1
102
RTVSPropertyOp11
 70
     1
102
RTVSPropertyOp12
 70
     1
102
RTVSPropertyOp13
 70
     1
102
RTVSPropertyOp14
 70
     1
102
RTVSPropertyOp15
 70
     1
102
RTVSPropertyOp16
 70
     1
102
RTVSPropertyOp17
 70
     1
102
RTVSPropertyOp18
 70
     1
102
RTVSPropertyOp19
 70
     1
102
RTVSPropertyOp20
 70
     1
102
RTVSPropertyOp21
 70
     1
102
RTVSPropertyOp22
 70
     1
102
RTVSPropertyOp23
 70
     1
102
RTVSPropertyOp24
 70
     1
102
RTVSPropertyOp25
 70
     1
102
RTVSPropertyOp26
 70
     1
102
RTVSPropertyOp27
 70
     1
  0
XRECORD
  5
20E5
102
{ACAD_REACTORS
330
20E4
102
}
330
20E4
100
AcDbXrecord
280
     1
102
RTVSPropertyOp0
 70
     0
102
RTVSPropertyOp1
 70
     0
102
RTVSPropertyOp2
 70
     0
102
RTVSPropertyOp3
 70
     0
102
RTVSPropertyOp4
 70
     0
102
RTVSPropertyOp5
 70
     0
102
RTVSPropertyOp6
 70
     0
102
RTVSPropertyOp7
 70
     0
102
RTVSPropertyOp8
 70
     0
102
RTVSPropertyOp9
 70
     0
102
RTVSPropertyOp10
 70
     0
102
RTVSPropertyOp11
 70
     0
102
RTVSPropertyOp12
 70
     0
102
RTVSPropertyOp13
 70
     0
102
RTVSPropertyOp14
 70
     2
102
RTVSPropertyOp15
 70
     0
102
RTVSPropertyOp16
 70
     0
102
RTVSPropertyOp17
 70
     0
102
RTVSPropertyOp18
 70
     0
102
RTVSPropertyOp19
 70
     0
102
RTVSPropertyOp20
 70
     0
102
RTVSPropertyOp21
 70
     0
102
RTVSPropertyOp22
 70
     0
102
RTVSPropertyOp23
 70
     0
102
RTVSPropertyOp24
 70
     0
102
RTVSPropertyOp25
 70
     0
102
RTVSPropertyOp26
 70
     0
102
RTVSPropertyOp27
 70
     0
  0
XRECORD
  5
20D5
102
{ACAD_REACTORS
330
20D4
102
}
330
20D4
100
AcDbXrecord
280
     1
102
RTVSPropertyOp0
 70
     1
102
RTVSPropertyOp1
 70
     1
102
RTVSPropertyOp2
 70
     1
102
RTVSPropertyOp3
 70
     1
102
RTVSPropertyOp4
 70
     1
102
RTVSPropertyOp5
 70
     1
102
RTVSPropertyOp6
 70
     1
102
RTVSPropertyOp7
 70
     1
102
RTVSPropertyOp8
 70
     1
102
RTVSPropertyOp9
 70
     1
102
RTVSPropertyOp10
 70
     1
102
RTVSPropertyOp11
 70
     1
102
RTVSPropertyOp12
 70
     1
102
RTVSPropertyOp13
 70
     1
102
RTVSPropertyOp14
 70
     1
102
RTVSPropertyOp15
 70
     1
102
RTVSPropertyOp16
 70
     1
102
RTVSPropertyOp17
 70
     1
102
RTVSPropertyOp18
 70
     1
102
RTVSPropertyOp19
 70
     1
102
RTVSPropertyOp20
 70
     1
102
RTVSPropertyOp21
 70
     1
102
RTVSPropertyOp22
 70
     1
102
RTVSPropertyOp23
 70
     1
102
RTVSPropertyOp24
 70
     1
102
RTVSPropertyOp25
 70
     1
102
RTVSPropertyOp26
 70
     1
102
RTVSPropertyOp27
 70
     1
  0
XRECORD
  5
20DB
102
{ACAD_REACTORS
330
20DA
102
}
330
20DA
100
AcDbXrecord
280
     1
102
RTVSPropertyOp0
 70
     1
102
RTVSPropertyOp1
 70
     1
102
RTVSPropertyOp2
 70
     1
102
RTVSPropertyOp3
 70
     1
102
RTVSPropertyOp4
 70
     1
102
RTVSPropertyOp5
 70
     1
102
RTVSPropertyOp6
 70
     1
102
RTVSPropertyOp7
 70
     1
102
RTVSPropertyOp8
 70
     1
102
RTVSPropertyOp9
 70
     1
102
RTVSPropertyOp10
 70
     1
102
RTVSPropertyOp11
 70
     1
102
RTVSPropertyOp12
 70
     1
102
RTVSPropertyOp13
 70
     1
102
RTVSPropertyOp14
 70
     1
102
RTVSPropertyOp15
 70
     1
102
RTVSPropertyOp16
 70
     1
102
RTVSPropertyOp17
 70
     1
102
RTVSPropertyOp18
 70
     1
102
RTVSPropertyOp19
 70
     1
102
RTVSPropertyOp20
 70
     1
102
RTVSPropertyOp21
 70
     1
102
RTVSPropertyOp22
 70
     1
102
RTVSPropertyOp23
 70
     1
102
RTVSPropertyOp24
 70
     1
102
RTVSPropertyOp25
 70
     1
102
RTVSPropertyOp26
 70
     1
102
RTVSPropertyOp27
 70
     1
  0
ENDSEC
  0
EOF
