  0
SECTION
  2
HEADER
  9
$ACADVER
  1
AC1015
  9
$ACADMAINTVER
 70
    20
  9
$DWGCODEPAGE
  3
ANSI_1252
  9
$INSBASE
 10
0.0
 20
0.0
 30
0.0
  9
$EXTMIN
 10
3619.576272626431
 20
1765.540318733613
 30
0.0
  9
$EXTMAX
 10
3622.251264077262
 20
1766.109497465888
 30
0.0
  9
$LIMMIN
 10
0.0
 20
0.0
  9
$LIMMAX
 10
420.0
 20
297.0
  9
$ORTHOMODE
 70
     1
  9
$REGENMODE
 70
     1
  9
$FILLMODE
 70
     1
  9
$QTEXTMODE
 70
     0
  9
$MIRRTEXT
 70
     1
  9
$LTSCALE
 40
1.0
  9
$ATTMODE
 70
     1
  9
$TEXTSIZE
 40
2.5
  9
$TRACEWID
 40
1.0
  9
$TEXTSTYLE
  7
SANINDUSA
  9
$CLAYER
  8
cotas
  9
$CELTYPE
  6
ByLayer
  9
$CECOLOR
 62
   256
  9
$CELTSCALE
 40
1.0
  9
$DISPSILH
 70
     0
  9
$DIMSCALE
 40
1.0
  9
$DIMASZ
 40
2.0
  9
$DIMEXO
 40
1.0
  9
$DIMDLI
 40
1.0
  9
$DIMRND
 40
0.0
  9
$DIMDLE
 40
0.0
  9
$DIMEXE
 40
1.0
  9
$DIMTP
 40
0.0
  9
$DIMTM
 40
0.0
  9
$DIMTXT
 40
2.0
  9
$DIMCEN
 40
0.0
  9
$DIMTSZ
 40
0.0
  9
$DIMTOL
 70
     0
  9
$DIMLIM
 70
     0
  9
$DIMTIH
 70
     0
  9
$DIMTOH
 70
     0
  9
$DIMSE1
 70
     0
  9
$DIMSE2
 70
     0
  9
$DIMTAD
 70
     1
  9
$DIMZIN
 70
     8
  9
$DIMBLK
  1

  9
$DIMASO
 70
     1
  9
$DIMSHO
 70
     1
  9
$DIMPOST
  1

  9
$DIMAPOST
  1

  9
$DIMALT
 70
     0
  9
$DIMALTD
 70
     3
  9
$DIMALTF
 40
0.03937007874016
  9
$DIMLFAC
 40
1.0
  9
$DIMTOFL
 70
     1
  9
$DIMTVP
 40
0.0
  9
$DIMTIX
 70
     0
  9
$DIMSOXD
 70
     0
  9
$DIMSAH
 70
     0
  9
$DIMBLK1
  1

  9
$DIMBLK2
  1

  9
$DIMSTYLE
  2
SANINDUSA
  9
$DIMCLRD
 70
   256
  9
$DIMCLRE
 70
   256
  9
$DIMCLRT
 70
   256
  9
$DIMTFAC
 40
1.0
  9
$DIMGAP
 40
1.0
  9
$DIMJUST
 70
     0
  9
$DIMSD1
 70
     0
  9
$DIMSD2
 70
     0
  9
$DIMTOLJ
 70
     0
  9
$DIMTZIN
 70
     8
  9
$DIMALTZ
 70
     0
  9
$DIMALTTZ
 70
     0
  9
$DIMUPT
 70
     0
  9
$DIMDEC
 70
     1
  9
$DIMTDEC
 70
     1
  9
$DIMALTU
 70
     2
  9
$DIMALTTD
 70
     3
  9
$DIMTXSTY
  7
SANINDUSA
  9
$DIMAUNIT
 70
     0
  9
$DIMADEC
 70
     1
  9
$DIMALTRND
 40
0.0
  9
$DIMAZIN
 70
     0
  9
$DIMDSEP
 70
    44
  9
$DIMATFIT
 70
     3
  9
$DIMFRAC
 70
     0
  9
$DIMLDRBLK
  1

  9
$DIMLUNIT
 70
     2
  9
$DIMLWD
 70
    -1
  9
$DIMLWE
 70
    -1
  9
$DIMTMOVE
 70
     0
  9
$LUNITS
 70
     2
  9
$LUPREC
 70
     4
  9
$SKETCHINC
 40
1.0
  9
$FILLETRAD
 40
0.0
  9
$AUNITS
 70
     0
  9
$AUPREC
 70
     0
  9
$MENU
  1
.
  9
$ELEVATION
 40
0.0
  9
$PELEVATION
 40
0.0
  9
$THICKNESS
 40
0.0
  9
$LIMCHECK
 70
     0
  9
$CHAMFERA
 40
10.0
  9
$CHAMFERB
 40
10.0
  9
$CHAMFERC
 40
20.0
  9
$CHAMFERD
 40
0.0
  9
$SKPOLY
 70
     0
  9
$TDCREATE
 40
2456146.525027488
  9
$TDUCREATE
 40
2456146.483360822
  9
$TDUPDATE
 40
2456146.526812061
  9
$TDUUPDATE
 40
2456146.485145394
  9
$TDINDWG
 40
0.0017849306
  9
$TDUSRTIMER
 40
0.0017849306
  9
$USRTIMER
 70
     1
  9
$ANGBASE
 50
0.0
  9
$ANGDIR
 70
     0
  9
$PDMODE
 70
     0
  9
$PDSIZE
 40
0.0
  9
$PLINEWID
 40
0.0
  9
$SPLFRAME
 70
     0
  9
$SPLINETYPE
 70
     6
  9
$SPLINESEGS
 70
     8
  9
$HANDSEED
  5
12A1
  9
$SURFTAB1
 70
     6
  9
$SURFTAB2
 70
     6
  9
$SURFTYPE
 70
     6
  9
$SURFU
 70
     6
  9
$SURFV
 70
     6
  9
$UCSBASE
  2

  9
$UCSNAME
  2

  9
$UCSORG
 10
0.0
 20
0.0
 30
0.0
  9
$UCSXDIR
 10
1.0
 20
0.0
 30
0.0
  9
$UCSYDIR
 10
0.0
 20
1.0
 30
0.0
  9
$UCSORTHOREF
  2

  9
$UCSORTHOVIEW
 70
     0
  9
$UCSORGTOP
 10
0.0
 20
0.0
 30
0.0
  9
$UCSORGBOTTOM
 10
0.0
 20
0.0
 30
0.0
  9
$UCSORGLEFT
 10
0.0
 20
0.0
 30
0.0
  9
$UCSORGRIGHT
 10
0.0
 20
0.0
 30
0.0
  9
$UCSORGFRONT
 10
0.0
 20
0.0
 30
0.0
  9
$UCSORGBACK
 10
0.0
 20
0.0
 30
0.0
  9
$PUCSBASE
  2

  9
$PUCSNAME
  2

  9
$PUCSORG
 10
0.0
 20
0.0
 30
0.0
  9
$PUCSXDIR
 10
1.0
 20
0.0
 30
0.0
  9
$PUCSYDIR
 10
0.0
 20
1.0
 30
0.0
  9
$PUCSORTHOREF
  2

  9
$PUCSORTHOVIEW
 70
     0
  9
$PUCSORGTOP
 10
0.0
 20
0.0
 30
0.0
  9
$PUCSORGBOTTOM
 10
0.0
 20
0.0
 30
0.0
  9
$PUCSORGLEFT
 10
0.0
 20
0.0
 30
0.0
  9
$PUCSORGRIGHT
 10
0.0
 20
0.0
 30
0.0
  9
$PUCSORGFRONT
 10
0.0
 20
0.0
 30
0.0
  9
$PUCSORGBACK
 10
0.0
 20
0.0
 30
0.0
  9
$USERI1
 70
     0
  9
$USERI2
 70
     0
  9
$USERI3
 70
     0
  9
$USERI4
 70
     0
  9
$USERI5
 70
     0
  9
$USERR1
 40
0.0
  9
$USERR2
 40
0.0
  9
$USERR3
 40
0.0
  9
$USERR4
 40
0.0
  9
$USERR5
 40
0.0
  9
$WORLDVIEW
 70
     1
  9
$SHADEDGE
 70
     3
  9
$SHADEDIF
 70
    70
  9
$TILEMODE
 70
     1
  9
$MAXACTVP
 70
    64
  9
$PINSBASE
 10
0.0
 20
0.0
 30
0.0
  9
$PLIMCHECK
 70
     0
  9
$PEXTMIN
 10
1.000000000000000E+20
 20
1.000000000000000E+20
 30
1.000000000000000E+20
  9
$PEXTMAX
 10
-1.000000000000000E+20
 20
-1.000000000000000E+20
 30
-1.000000000000000E+20
  9
$PLIMMIN
 10
0.0
 20
0.0
  9
$PLIMMAX
 10
420.0
 20
297.0
  9
$UNITMODE
 70
     0
  9
$VISRETAIN
 70
     1
  9
$PLINEGEN
 70
     0
  9
$PSLTSCALE
 70
     1
  9
$TREEDEPTH
 70
  3020
  9
$CMLSTYLE
  2
Standard
  9
$CMLJUST
 70
     0
  9
$CMLSCALE
 40
20.0
  9
$PROXYGRAPHICS
 70
     1
  9
$MEASUREMENT
 70
     1
  9
$CELWEIGHT
370
    -1
  9
$ENDCAPS
280
     0
  9
$JOINSTYLE
280
     0
  9
$LWDISPLAY
290
     0
  9
$INSUNITS
 70
     4
  9
$HYPERLINKBASE
  1

  9
$STYLESHEET
  1
sanindusa.ctb
  9
$XEDIT
290
     1
  9
$CEPSNTYPE
380
     0
  9
$PSTYLEMODE
290
     1
  9
$FINGERPRINTGUID
  2
{A329A502-4869-4369-90D6-17E6B7FD8F08}
  9
$VERSIONGUID
  2
{C038144E-216D-47EF-9F48-EB143C14CA20}
  9
$EXTNAMES
290
     1
  9
$PSVPSCALE
 40
0.0
  9
$OLESTARTUP
290
     0
  0
ENDSEC
  0
SECTION
  2
CLASSES
  0
CLASS
  1
ACDBDICTIONARYWDFLT
  2
AcDbDictionaryWithDefault
  3
ObjectDBX Classes
 90
        0
280
     0
281
     0
  0
CLASS
  1
ACDBPLACEHOLDER
  2
AcDbPlaceHolder
  3
ObjectDBX Classes
 90
        0
280
     0
281
     0
  0
CLASS
  1
LAYOUT
  2
AcDbLayout
  3
ObjectDBX Classes
 90
        0
280
     0
281
     0
  0
CLASS
  1
DICTIONARYVAR
  2
AcDbDictionaryVar
  3
ObjectDBX Classes
 90
        0
280
     0
281
     0
  0
CLASS
  1
DIMASSOC
  2
AcDbDimAssoc
  3
"AcDbDimAssoc|Product Desc:     AcDim ARX App For Dimension|Company:          Autodesk, Inc.|WEB Address:      www.autodesk.com"
 90
    32768
280
     0
281
     0
  0
CLASS
  1
TABLESTYLE
  2
AcDbTableStyle
  3
ObjectDBX Classes
 90
     4095
280
     0
281
     0
  0
CLASS
  1
MATERIAL
  2
AcDbMaterial
  3
ObjectDBX Classes
 90
     1153
280
     0
281
     0
  0
CLASS
  1
VISUALSTYLE
  2
AcDbVisualStyle
  3
ObjectDBX Classes
 90
     4095
280
     0
281
     0
  0
CLASS
  1
SCALE
  2
AcDbScale
  3
ObjectDBX Classes
 90
     1153
280
     0
281
     0
  0
CLASS
  1
MLEADERSTYLE
  2
AcDbMLeaderStyle
  3
ACDB_MLEADERSTYLE_CLASS
 90
     4095
280
     0
281
     0
  0
CLASS
  1
AEC_REFEDIT_STATUS_TRACKER
  2
AecDbRefEditStatusTracker
  3
AecArchBase60|Product Desc: Autodesk Architectural Desktop 2007 |Company: Autodesk,Inc. |WEB Address: www.autodesk.com
 90
      129
280
     0
281
     0
  0
CLASS
  1
NPOCOLLECTION
  2
AcDbImpNonPersistentObjectsCollection
  3
ObjectDBX Classes
 90
     1153
280
     0
281
     0
  0
CLASS
  1
CELLSTYLEMAP
  2
AcDbCellStyleMap
  3
ObjectDBX Classes
 90
     1152
280
     0
281
     0
  0
ENDSEC
  0
SECTION
  2
TABLES
  0
TABLE
  2
VPORT
  5
8
330
0
100
AcDbSymbolTable
 70
     1
  0
VPORT
  5
1068
330
8
100
AcDbSymbolTableRecord
100
AcDbViewportTableRecord
  2
*Active
 70
     0
 10
0.0
 20
0.0
 11
1.0
 21
1.0
 12
3620.913768351846
 22
1765.82490809975
 13
0.0
 23
0.0
 14
10.0
 24
10.0
 15
10.0
 25
10.0
 16
0.0
 26
0.0
 36
1.0
 17
0.0
 27
0.0
 37
0.0
 40
1.631850885393666
 41
1.645464025026068
 42
50.0
 43
0.0
 44
0.0
 50
0.0
 51
0.0
 71
     0
 72
   100
 73
     1
 74
     2
 75
     0
 76
     0
 77
     0
 78
     0
281
     0
 65
     1
110
0.0
120
0.0
130
0.0
111
1.0
121
0.0
131
0.0
112
0.0
122
1.0
132
0.0
 79
     0
146
0.0
  0
ENDTAB
  0
TABLE
  2
LTYPE
  5
5
330
0
100
AcDbSymbolTable
 70
     5
  0
LTYPE
  5
14
330
5
100
AcDbSymbolTableRecord
100
AcDbLinetypeTableRecord
  2
ByBlock
 70
     0
  3

 72
    65
 73
     0
 40
0.0
  0
LTYPE
  5
15
330
5
100
AcDbSymbolTableRecord
100
AcDbLinetypeTableRecord
  2
ByLayer
 70
     0
  3

 72
    65
 73
     0
 40
0.0
  0
LTYPE
  5
16
330
5
100
AcDbSymbolTableRecord
100
AcDbLinetypeTableRecord
  2
Continuous
 70
     0
  3
Solid line
 72
    65
 73
     0
 40
0.0
  0
LTYPE
  5
2D
330
5
100
AcDbSymbolTableRecord
100
AcDbLinetypeTableRecord
  2
DASHDOT
 70
     0
  3
Dash dot __ . __ . __ . __ . __ . __ . __ . __
 72
    65
 73
     4
 40
25.4
 49
12.7
 74
     0
 49
-6.349999999999999
 74
     0
 49
0.0
 74
     0
 49
-6.349999999999999
 74
     0
  0
LTYPE
  5
2E
330
5
100
AcDbSymbolTableRecord
100
AcDbLinetypeTableRecord
  2
HIDDEN
 70
     0
  3
Hidden __ __ __ __ __ __ __ __ __ __ __ __ __ _
 72
    65
 73
     2
 40
9.524999999999998
 49
6.349999999999999
 74
     0
 49
-3.174999999999999
 74
     0
  0
LTYPE
  5
C75
330
5
100
AcDbSymbolTableRecord
100
AcDbLinetypeTableRecord
  2
AM_ISO02W050
 70
     0
  3
__ __ __ __ __ __ __ __ __ __ __ __ __ __ __
 72
    65
 73
     2
 40
7.5
 49
6.0
 74
     0
 49
-1.5
 74
     0
  0
LTYPE
  5
C76
330
5
100
AcDbSymbolTableRecord
100
AcDbLinetypeTableRecord
  2
AM_ISO08W050
 70
     0
  3
____ . ____ . ____ . ____ . ____ . ____ . ____
 72
    65
 73
     4
 40
18.0
 49
12.0
 74
     0
 49
-1.5
 74
     0
 49
3.0
 74
     0
 49
-1.5
 74
     0
  0
ENDTAB
  0
TABLE
  2
LAYER
  5
2
102
{ACAD_XDICTIONARY
360
1051
102
}
330
0
100
AcDbSymbolTable
 70
    18
  0
LAYER
  5
10
102
{ACAD_XDICTIONARY
360
1205
102
}
330
2
100
AcDbSymbolTableRecord
100
AcDbLayerTableRecord
  2
0
 70
     0
 62
     7
  6
Continuous
370
    -3
390
F
  0
LAYER
  5
2F
102
{ACAD_XDICTIONARY
360
1207
102
}
330
2
100
AcDbSymbolTableRecord
100
AcDbLayerTableRecord
  2
1
 70
     0
 62
     1
  6
Continuous
370
    -3
390
F
  0
LAYER
  5
30
102
{ACAD_XDICTIONARY
360
1209
102
}
330
2
100
AcDbSymbolTableRecord
100
AcDbLayerTableRecord
  2
2
 70
     0
 62
     2
  6
Continuous
370
    -3
390
F
  0
LAYER
  5
31
102
{ACAD_XDICTIONARY
360
120B
102
}
330
2
100
AcDbSymbolTableRecord
100
AcDbLayerTableRecord
  2
3
 70
     0
 62
     3
  6
Continuous
370
    -3
390
F
  0
LAYER
  5
32
102
{ACAD_XDICTIONARY
360
120D
102
}
330
2
100
AcDbSymbolTableRecord
100
AcDbLayerTableRecord
  2
4
 70
     0
 62
     4
  6
Continuous
370
    -3
390
F
  0
LAYER
  5
33
102
{ACAD_XDICTIONARY
360
120F
102
}
330
2
100
AcDbSymbolTableRecord
100
AcDbLayerTableRecord
  2
5
 70
     0
 62
     5
  6
Continuous
370
    -3
390
F
  0
LAYER
  5
34
102
{ACAD_XDICTIONARY
360
1211
102
}
330
2
100
AcDbSymbolTableRecord
100
AcDbLayerTableRecord
  2
6
 70
     0
 62
     6
  6
Continuous
370
    -3
390
F
  0
LAYER
  5
35
102
{ACAD_XDICTIONARY
360
1213
102
}
330
2
100
AcDbSymbolTableRecord
100
AcDbLayerTableRecord
  2
7
 70
     0
 62
     7
  6
Continuous
370
    -3
390
F
  0
LAYER
  5
36
102
{ACAD_XDICTIONARY
360
1215
102
}
330
2
100
AcDbSymbolTableRecord
100
AcDbLayerTableRecord
  2
cen
 70
     0
 62
     7
  6
DASHDOT
370
    -3
390
F
  0
LAYER
  5
37
102
{ACAD_XDICTIONARY
360
1217
102
}
330
2
100
AcDbSymbolTableRecord
100
AcDbLayerTableRecord
  2
hid
 70
     0
 62
     7
  6
HIDDEN
370
    -3
390
F
  0
LAYER
  5
5D6
102
{ACAD_XDICTIONARY
360
1219
102
}
330
2
100
AcDbSymbolTableRecord
100
AcDbLayerTableRecord
  2
hatch
 70
     0
 62
     9
  6
Continuous
370
    -3
390
F
  0
LAYER
  5
8AF
102
{ACAD_XDICTIONARY
360
121B
102
}
330
2
100
AcDbSymbolTableRecord
100
AcDbLayerTableRecord
  2
9
 70
     0
 62
     9
  6
Continuous
370
    -3
390
F
  0
LAYER
  5
8F8
102
{ACAD_XDICTIONARY
360
121D
102
}
330
2
100
AcDbSymbolTableRecord
100
AcDbLayerTableRecord
  2
leg fin
 70
     0
 62
     9
  6
Continuous
370
    -3
390
F
  0
LAYER
  5
91D
102
{ACAD_XDICTIONARY
360
121F
102
}
330
2
100
AcDbSymbolTableRecord
100
AcDbLayerTableRecord
  2
cotas
 70
     0
 62
     1
  6
Continuous
370
    -3
390
F
  0
LAYER
  5
92F
330
2
100
AcDbSymbolTableRecord
100
AcDbLayerTableRecord
  2
Defpoints
 70
     0
 62
     7
  6
Continuous
290
     0
370
    -3
390
F
  0
LAYER
  5
C7B
102
{ACAD_XDICTIONARY
360
1221
102
}
330
2
100
AcDbSymbolTableRecord
100
AcDbLayerTableRecord
  2
SANINDUSA
 70
     0
 62
     3
  6
Continuous
370
    -3
390
F
  0
LAYER
  5
1060
102
{ACAD_XDICTIONARY
360
1223
102
}
330
2
100
AcDbSymbolTableRecord
100
AcDbLayerTableRecord
  2
hid1
 70
     0
 62
     9
  6
HIDDEN
370
    -3
390
F
1001
AcAecLayerStandard
1000

1000

  0
LAYER
  5
10B3
102
{ACAD_XDICTIONARY
360
1225
102
}
330
2
100
AcDbSymbolTableRecord
100
AcDbLayerTableRecord
  2
BLOCKS
 70
     0
 62
     3
  6
Continuous
370
    -3
390
F
  0
ENDTAB
  0
TABLE
  2
STYLE
  5
3
330
0
100
AcDbSymbolTable
 70
     4
  0
STYLE
  5
11
330
3
100
AcDbSymbolTableRecord
100
AcDbTextStyleTableRecord
  2
Standard
 70
     0
 40
0.0
 41
1.0
 50
0.0
 71
     0
 42
2.5
  3
Avgardn.ttf
  4

1001
ACAD
1000
AvantGarde Bk BT
1071
       34
  0
STYLE
  5
2C
330
3
100
AcDbSymbolTableRecord
100
AcDbTextStyleTableRecord
  2

 70
     1
 40
0.0
 41
1.0
 50
0.0
 71
     0
 42
2.5
  3
ltypeshp.shx
  4

  0
STYLE
  5
91F
330
3
100
AcDbSymbolTableRecord
100
AcDbTextStyleTableRecord
  2
SANINDUSA
 70
     0
 40
0.0
 41
1.0
 50
0.0
 71
     0
 42
2.5
  3
verdana.TTF
  4

1001
ACAD
1000
Verdana
1071
       34
  0
STYLE
  5
C7C
330
3
100
AcDbSymbolTableRecord
100
AcDbTextStyleTableRecord
  2
futura
 70
     0
 40
0.0
 41
1.0
 50
0.0
 71
     0
 42
2.5
  3
ZURCHN.TTF
  4

1001
ACAD
1000
Zurich BT
1071
       34
  0
ENDTAB
  0
TABLE
  2
VIEW
  5
6
330
0
100
AcDbSymbolTable
 70
     0
  0
ENDTAB
  0
TABLE
  2
UCS
  5
7
330
0
100
AcDbSymbolTable
 70
     0
  0
ENDTAB
  0
TABLE
  2
APPID
  5
9
330
0
100
AcDbSymbolTable
 70
    12
  0
APPID
  5
12
330
9
100
AcDbSymbolTableRecord
100
AcDbRegAppTableRecord
  2
ACAD
 70
     0
  0
APPID
  5
3A
330
9
100
AcDbSymbolTableRecord
100
AcDbRegAppTableRecord
  2
DCO15
 70
     0
  0
APPID
  5
EEE
330
9
100
AcDbSymbolTableRecord
100
AcDbRegAppTableRecord
  2
ACAD_DSTYLE_DIMTEXT_FILL
 70
     0
  0
APPID
  5
EEF
330
9
100
AcDbSymbolTableRecord
100
AcDbRegAppTableRecord
  2
ACAD_DSTYLE_DIMEXT_LENGTH
 70
     0
  0
APPID
  5
EF0
330
9
100
AcDbSymbolTableRecord
100
AcDbRegAppTableRecord
  2
ACAD_DSTYLE_DIMEXT_ENABLED
 70
     0
  0
APPID
  5
EF1
330
9
100
AcDbSymbolTableRecord
100
AcDbRegAppTableRecord
  2
ACAD_DSTYLE_DIM_LINETYPE
 70
     0
  0
APPID
  5
EF2
330
9
100
AcDbSymbolTableRecord
100
AcDbRegAppTableRecord
  2
ACAD_DSTYLE_DIM_EXT1_LINETYPE
 70
     0
  0
APPID
  5
EF3
330
9
100
AcDbSymbolTableRecord
100
AcDbRegAppTableRecord
  2
ACAD_DSTYLE_DIM_EXT2_LINETYPE
 70
     0
  0
APPID
  5
FAF
330
9
100
AcDbSymbolTableRecord
100
AcDbRegAppTableRecord
  2
ACAD_DSTYLE_DIMJOGGED_JOGANGLE_SYMBOL
 70
     0
  0
APPID
  5
1013
330
9
100
AcDbSymbolTableRecord
100
AcDbRegAppTableRecord
  2
ACAD_DSTYLE_DIMARC_LENGTH_SYMBOL
 70
     0
  0
APPID
  5
1061
330
9
100
AcDbSymbolTableRecord
100
AcDbRegAppTableRecord
  2
AcAecLayerStandard
 70
     0
  0
APPID
  5
12A0
330
9
100
AcDbSymbolTableRecord
100
AcDbRegAppTableRecord
  2
ACAD_MLEADERVER
 70
     0
  0
ENDTAB
  0
TABLE
  2
DIMSTYLE
  5
A
330
0
100
AcDbSymbolTable
 70
     4
100
AcDbDimStyleTable
 71
     1
340
921
  0
DIMSTYLE
105
45
330
A
100
AcDbSymbolTableRecord
100
AcDbDimStyleTableRecord
  2
STANDARD
 70
     0
289
     0
340
11
  0
DIMSTYLE
105
921
330
A
100
AcDbSymbolTableRecord
100
AcDbDimStyleTableRecord
  2
SANINDUSA
 70
     0
 41
2.0
 42
1.0
 43
1.0
 44
1.0
 73
     0
 74
     0
 77
     1
 78
     8
140
2.0
141
0.0
143
0.03937007874016
147
1.0
171
     3
172
     1
176
   256
177
   256
178
   256
179
     1
271
     1
272
     1
274
     3
278
    44
283
     0
284
     8
340
91F
371
    -1
372
    -1
1001
ACAD_DSTYLE_DIMJOGGED_JOGANGLE_SYMBOL
1070
   384
1040
1.570796326794896
  0
DIMSTYLE
105
C7D
330
A
100
AcDbSymbolTableRecord
100
AcDbDimStyleTableRecord
  2
AM_ISO
 70
     0
  4
"
 41
2.5
 42
1.0
 43
10.0
 44
1.0
 47
0.1
 48
0.1
 73
     0
 74
     0
 77
     1
 78
     8
 79
     2
140
3.5
141
0.0
143
0.0393701
146
0.71
147
1.5
172
     1
176
   256
177
   256
178
     2
271
     2
272
     3
274
     4
283
     0
284
     8
340
11
371
    -1
372
    -1
  0
DIMSTYLE
105
10B4
330
A
100
AcDbSymbolTableRecord
100
AcDbDimStyleTableRecord
  2
ISO-25
 70
     0
 41
2.5
 42
0.625
 43
3.75
 44
1.25
 73
     0
 74
     0
 77
     1
 78
     8
140
2.5
141
2.5
143
0.03937007874016
147
0.625
171
     3
172
     1
271
     2
272
     2
274
     3
278
    44
283
     0
284
     8
340
11
  0
ENDTAB
  0
TABLE
  2
BLOCK_RECORD
  5
1
330
0
100
AcDbSymbolTable
 70
    11
  0
BLOCK_RECORD
  5
1F
330
1
100
AcDbSymbolTableRecord
100
AcDbBlockTableRecord
  2
*Model_Space
340
22
  0
BLOCK_RECORD
  5
1B
330
1
100
AcDbSymbolTableRecord
100
AcDbBlockTableRecord
  2
*Paper_Space
340
1E
  0
BLOCK_RECORD
  5
23
330
1
100
AcDbSymbolTableRecord
100
AcDbBlockTableRecord
  2
*Paper_Space0
340
26
  0
BLOCK_RECORD
  5
919
330
1
100
AcDbSymbolTableRecord
100
AcDbBlockTableRecord
  2
_DotSmall
340
0
  0
BLOCK_RECORD
  5
922
330
1
100
AcDbSymbolTableRecord
100
AcDbBlockTableRecord
  2
base para cotas
340
0
310
2800000020000000200000000100080000000000000400000000000000000000000000000000000000000000000080000080000000808000800000008000800080800000C0C0C000C0DCC000F0CAA6000020400000206000002080000020A0000020C0000020E00000400000004020000040400000406000004080000040A0
310
000040C0000040E00000600000006020000060400000606000006080000060A0000060C0000060E00000800000008020000080400000806000008080000080A0000080C0000080E00000A0000000A0200000A0400000A0600000A0800000A0A00000A0C00000A0E00000C0000000C0200000C0400000C0600000C0800000C0
310
A00000C0C00000C0E00000E0000000E0200000E0400000E0600000E0800000E0A00000E0C00000E0E00040000000400020004000400040006000400080004000A0004000C0004000E00040200000402020004020400040206000402080004020A0004020C0004020E000404000004040200040404000404060004040800040
310
40A0004040C0004040E00040600000406020004060400040606000406080004060A0004060C0004060E00040800000408020004080400040806000408080004080A0004080C0004080E00040A0000040A0200040A0400040A0600040A0800040A0A00040A0C00040A0E00040C0000040C0200040C0400040C0600040C08000
310
40C0A00040C0C00040C0E00040E0000040E0200040E0400040E0600040E0800040E0A00040E0C00040E0E00080000000800020008000400080006000800080008000A0008000C0008000E00080200000802020008020400080206000802080008020A0008020C0008020E00080400000804020008040400080406000804080
310
008040A0008040C0008040E00080600000806020008060400080606000806080008060A0008060C0008060E00080800000808020008080400080806000808080008080A0008080C0008080E00080A0000080A0200080A0400080A0600080A0800080A0A00080A0C00080A0E00080C0000080C0200080C0400080C0600080C0
310
800080C0A00080C0C00080C0E00080E0000080E0200080E0400080E0600080E0800080E0A00080E0C00080E0E000C0000000C0002000C0004000C0006000C0008000C000A000C000C000C000E000C0200000C0202000C0204000C0206000C0208000C020A000C020C000C020E000C0400000C0402000C0404000C0406000C0
310
408000C040A000C040C000C040E000C0600000C0602000C0604000C0606000C0608000C060A000C060C000C060E000C0800000C0802000C0804000C0806000C0808000C080A000C080C000C080E000C0A00000C0A02000C0A04000C0A06000C0A08000C0A0A000C0A0C000C0A0E000C0C00000C0C02000C0C04000C0C06000
310
C0C08000C0C0A000F0FBFF00A4A0A000808080000000FF0000FF000000FFFF00FF000000FF00FF00FFFF0000FFFFFF00A4A4A4A4A4A4A4A4A4A4A4A4A4A4A4A4A4A4A4A4A4A4A4A4A4A4A4A4A4A4A4A4A4A4A4A4A4A4A4A4A4A4A4A4A4A4A4A4A4A4A4A4A4A4A4A4A4A4A4A4A4A4A4A4A4A4A4A4A4A4A4A4A4A4A4A4A4A4A4
310
A4A4A4A4A4A4A4A4A4A4A4A4A4A4A4A4A4A4A4A4A4A4A4A4A4A4A4A4A4A4A4A4A4A4A4A4A4A4A4A4A4A4A4A4A4A4A4A4A4A4A4A4A4A4A4A4A4A4A4A4A4A4A4A4A4A4A4A4A4A4A4A4A4A4A4A4A4A4A4A4A4A4A4A4A4A4A4A4A4A4A4A4A4A4A4A4A4A4A4A4A4A4A4A4A4A4A4A4A4A4A4A4A4A4A4A4A4A4A4A4A4A4A4A4A4A4A4
310
A4A4A4A4A4A4A4A4A4A4A4A4A4A4A4A4A4A4A4A4A4A4A4A4A4A4A4A4A4A4A4A4A4A4A4A4A4A4A4A4A4A4A4A4A4A4A4A4A4A4A4A4A4A4A4A4A4A4A4A4A4A4A4A4A4A4A4A4A4A4A4A4A4A4A4A4A4A4A4A4A4A4A4A4A4A4A4A4A4A4A4A4A4A4A4A4A4A4A4A4A4A4A4A4A4A4A4A4A4A4A4A4A4A4A4A4A4A4A4A4A4A4A4A4A4A4A4
310
A4A4A4A4A4A4A4A4A4A4A4A4A4A4A4A4A4A4A4A4A4A4A4A4A4A4A4A4A4A4A4A4A4A4A4A4A4A4A4A4A4A4A4A4A4A4A4A4A4A4A4A4A4A4A4A4A4A4A4A4A4A4A4A4A4A4A4A4A4A4A4A4A4A4A4A4A4A4A4A4A4A4A4A4A4A4A4A4A4A4A4A4A4A4A4A4A4A4A4A4A4A4A4A4A4A4A4A4A4A4A4A4A4A4A4A4F9F9F9F9F9F9F9F9F9F9F9
310
F9F9F9F9F9F9F9F9F9F9F9F9F9F9F9F9F9F9F9A4A4F9F9F9F9F9F9F9F9F9F9F9F9F9F9F9F9F9F9F9F9F9F9F9F9F9F9F9F9F9F9A4A4F9F9F9F9F9F9F9F9F9F9F9F9F9F9F9F9F9F9F9F9F9F9F9F9F9F9F9F9F9F9A4A4F9A4A4A4A4A4A4A4A4A4A4A4A4A4A4A4A4A4A4A4A4A4A4A4A4A4A4A4A4F9A4A4A4A4A4A4A4A4A4A4A4A4
310
A4A4A4A4A4A4A4A4A4A4A4A4A4A4A4A4A4A4A4A4A4A4A4A4A4A4A4A4A4A4A4A4A4A4A4A4A4A4A4A4A4A4A4A4A4A4A4A4A4A4A4A4A4A4A4A4A4A4A4A4A4A4A4A4A4A4A4A4A4A4A4A4A4A4A4A4A4A4A4A4A4A4A4A4A4A4A4A4A4A4A4A4A4A4A4A4A4A4A4A4A4A4A4A4A4A4A4A4A4A4A4A4A4A4A4A4A4A4A4A4A4A4A4A4A4A4A4
310
A4A4A4A4A4A4A4A4A4A4A4A4A4A4A4A4A4A4A4A4A4A4A4A4A4A4A4A4A4A4A4A4A4A4A4A4A4A4A4A4A4A4A4A4A4A4A4A4A4A4A4A4A4A4A4A4A4A4A4A4A4A4A4A4A4A4A4A4A4A4A4A4A4A4A4A4A4A4A4A4A4A4A4A4A4A4A4A4A4A4A4A4A4A4A4A4A4A4A4A4A4A4A4A4A4A4A4A4A4A4A4A4A4A4A4A4A4A4A4A4A4A4A4A4A4A4A4
310
A4A4A4A4A4A4A4A4A4A4A4A4A4A4A4A4A4A4A4A4A4A4A4A4A4A4A4A4A4A4A4A4A4A4A4A4A4A4A4A4A4A4A4A4A4A4A4A4A4A4A4A4A4A4A4A4A4A4A4A4A4A4A4A4A4A4A4A4A4A4A4A4A4A4A4A4A4A4A4A4A4A4A4A4A4A4A4A4A4A4A4A4A4A4A4A4A4A4A4A4A4A4A4A4A4A4A4A4A4A4A4A4A4A4A4A4A4A4A4A4A4A4A4A4A4A4A4
310
A4A4A4A4A4A4A4A4A4A4A4A4A4A4A4A4A4A4A4A4A4A4A4A4A4A4A4A4A4A4A4A4A4A4A4A4A4A4A4A4A4A4A4A4A4A4A4A4A4A4A4A4A4A4A4A4
1001
ACAD
1000
DesignCenter Data
1002
{
1070
     1
1070
     4
1002
}
  0
BLOCK_RECORD
  5
AA8
330
1
100
AcDbSymbolTableRecord
100
AcDbBlockTableRecord
  2
_CLOSED
340
0
  0
BLOCK_RECORD
  5
B79
330
1
100
AcDbSymbolTableRecord
100
AcDbBlockTableRecord
  2
nota revisoes
340
0
1001
ACAD
1000
DesignCenter Data
1002
{
1070
     1
1070
     4
1002
}
  0
BLOCK_RECORD
  5
B8E
330
1
100
AcDbSymbolTableRecord
100
AcDbBlockTableRecord
  2
a3l
340
0
1001
ACAD
1000
DesignCenter Data
1002
{
1070
     1
1070
     4
1002
}
  0
BLOCK_RECORD
  5
B9E
330
1
100
AcDbSymbolTableRecord
100
AcDbBlockTableRecord
  2
legenda desenvolvimento
340
0
1001
ACAD
1000
DesignCenter Data
1002
{
1070
     1
1070
     4
1002
}
  0
BLOCK_RECORD
  5
10B5
330
1
100
AcDbSymbolTableRecord
100
AcDbBlockTableRecord
  2
105012PL
340
0
102
{BLKREFS
331
1103
102
}
1001
ACAD
1000
DesignCenter Data
1002
{
1070
     1
1070
     4
1002
}
  0
BLOCK_RECORD
  5
1106
330
1
100
AcDbSymbolTableRecord
100
AcDbBlockTableRecord
  2
105012CT
340
0
102
{BLKREFS
331
1190
102
}
1001
ACAD
1000
DesignCenter Data
1002
{
1070
     1
1070
     4
1002
}
  0
BLOCK_RECORD
  5
1191
330
1
100
AcDbSymbolTableRecord
100
AcDbBlockTableRecord
  2
105012AL
340
0
102
{BLKREFS
331
11BE
102
}
1001
ACAD
1000
DesignCenter Data
1002
{
1070
     1
1070
     4
1002
}
  0
BLOCK_RECORD
  5
11BF
330
1
100
AcDbSymbolTableRecord
100
AcDbBlockTableRecord
  2
105012AF
340
0
102
{BLKREFS
331
1204
102
}
1001
ACAD
1000
DesignCenter Data
1002
{
1070
     1
1070
     4
1002
}
  0
ENDTAB
  0
ENDSEC
  0
SECTION
  2
BLOCKS
  0
BLOCK
  5
20
330
1F
100
AcDbEntity
  8
0
100
AcDbBlockBegin
  2
*Model_Space
 70
     0
 10
0.0
 20
0.0
 30
0.0
  3
*Model_Space
  1

  0
ENDBLK
  5
21
330
1F
100
AcDbEntity
  8
0
100
AcDbBlockEnd
  0
BLOCK
  5
1C
330
1B
100
AcDbEntity
 67
     1
  8
0
100
AcDbBlockBegin
  2
*Paper_Space
 70
     0
 10
0.0
 20
0.0
 30
0.0
  3
*Paper_Space
  1

  0
ENDBLK
  5
1D
330
1B
100
AcDbEntity
 67
     1
  8
0
100
AcDbBlockEnd
  0
BLOCK
  5
24
330
23
100
AcDbEntity
 67
     1
  8
0
100
AcDbBlockBegin
  2
*Paper_Space0
 70
     0
 10
0.0
 20
0.0
 30
0.0
  3
*Paper_Space0
  1

  0
ENDBLK
  5
25
330
23
100
AcDbEntity
 67
     1
  8
0
100
AcDbBlockEnd
  0
BLOCK
  5
91B
330
919
100
AcDbEntity
  8
0
100
AcDbBlockBegin
  2
_DotSmall
 70
     0
 10
0.0
 20
0.0
 30
0.0
  3
_DotSmall
  1

  0
LWPOLYLINE
  5
91A
330
919
100
AcDbEntity
  8
0
  6
ByBlock
 62
     0
100
AcDbPolyline
 90
        2
 70
     1
 43
0.5
 10
-0.0625
 20
0.0
 42
1.0
 10
0.0625
 20
0.0
 42
1.0
  0
ENDBLK
  5
91C
330
919
100
AcDbEntity
  8
0
100
AcDbBlockEnd
  0
BLOCK
  5
92A
330
922
100
AcDbEntity
  8
0
100
AcDbBlockBegin
  2
base para cotas
 70
     0
 10
0.0
 20
0.0
 30
0.0
  3
base para cotas
  1

  0
LINE
  5
B36
330
922
100
AcDbEntity
  8
cotas
100
AcDbLine
 10
0.0
 20
-30.0
 30
0.0
 11
327.1260136525398
 21
-30.0
 31
0.0
  0
LINE
  5
B37
330
922
100
AcDbEntity
  8
cotas
100
AcDbLine
 10
0.0
 20
-25.0
 30
0.0
 11
327.1260136525398
 21
-25.0
 31
0.0
  0
LINE
  5
B38
330
922
100
AcDbEntity
  8
cotas
100
AcDbLine
 10
0.0
 20
-20.0
 30
0.0
 11
327.1260136525398
 21
-20.0
 31
0.0
  0
LINE
  5
B39
330
922
100
AcDbEntity
  8
cotas
100
AcDbLine
 10
0.0
 20
-15.0
 30
0.0
 11
327.1260136525398
 21
-15.0
 31
0.0
  0
LINE
  5
B3A
330
922
100
AcDbEntity
  8
cotas
100
AcDbLine
 10
0.0
 20
-10.0
 30
0.0
 11
327.1260136525398
 21
-10.0
 31
0.0
  0
LINE
  5
B3B
330
922
100
AcDbEntity
  8
cotas
100
AcDbLine
 10
0.0
 20
0.0
 30
0.0
 11
0.0
 21
-30.0
 31
0.0
  0
LINE
  5
B3C
330
922
100
AcDbEntity
  8
cotas
100
AcDbLine
 10
327.1260136525398
 20
-30.0
 30
0.0
 11
327.1260136525398
 21
0.0
 31
0.0
  0
ENDBLK
  5
92B
330
922
100
AcDbEntity
  8
0
100
AcDbBlockEnd
  0
BLOCK
  5
AAD
330
AA8
100
AcDbEntity
  8
0
100
AcDbBlockBegin
  2
_CLOSED
 70
     0
 10
0.0
 20
0.0
 30
0.0
  3
_CLOSED
  1

  0
LINE
  5
AA9
330
AA8
100
AcDbEntity
  8
0
100
AcDbLine
 10
-1.0
 20
0.166667
 30
0.0
 11
0.0
 21
0.0
 31
0.0
  0
LINE
  5
AAA
330
AA8
100
AcDbEntity
  8
0
100
AcDbLine
 10
0.0
 20
0.0
 30
0.0
 11
-1.0
 21
-0.166667
 31
0.0
  0
LINE
  5
AAB
330
AA8
100
AcDbEntity
  8
0
100
AcDbLine
 10
-1.0
 20
0.166667
 30
0.0
 11
-1.0
 21
-0.166667
 31
0.0
  0
LINE
  5
AAC
330
AA8
100
AcDbEntity
  8
0
100
AcDbLine
 10
0.0
 20
0.0
 30
0.0
 11
-1.0
 21
0.0
 31
0.0
  0
ENDBLK
  5
AAE
330
AA8
100
AcDbEntity
  8
0
100
AcDbBlockEnd
  0
BLOCK
  5
B7C
330
B79
100
AcDbEntity
  8
0
100
AcDbBlockBegin
  2
nota revisoes
 70
     0
 10
0.0
 20
0.0
 30
0.0
  3
nota revisoes
  1

  0
CIRCLE
  5
B7A
330
B79
100
AcDbEntity
  8
4
100
AcDbCircle
 10
0.0
 20
0.0
 30
0.0
 40
13.69426055101189
  0
TEXT
  5
B7B
330
B79
100
AcDbEntity
  8
4
100
AcDbText
 10
-5.496248358154345
 20
-5.354545554066362
 30
0.0
 40
12.0
  1
1
  7
SANINDUSA
 72
     1
 11
-0.249774214433728
 21
-5.354545554066362
 31
0.0
100
AcDbText
  0
ENDBLK
  5
B7D
330
B79
100
AcDbEntity
  8
0
100
AcDbBlockEnd
  0
BLOCK
  5
B9C
330
B8E
100
AcDbEntity
  8
0
100
AcDbBlockBegin
  2
a3l
 70
     0
 10
0.0
 20
0.0
 30
0.0
  3
a3l
  1

  0
LINE
  5
B8F
330
B8E
100
AcDbEntity
  8
1
100
AcDbLine
 10
-364.2925296599447
 20
-362.1188951399395
 30
0.0
 11
-364.2925296599447
 21
-65.11889513993946
 31
0.0
  0
LINE
  5
B90
330
B8E
100
AcDbEntity
  8
4
100
AcDbLine
 10
-369.2925296599447
 20
-357.1188951399395
 30
0.0
 11
-369.2925296599447
 21
-70.11889513993946
 31
0.0
  0
LINE
  5
B91
330
B8E
100
AcDbEntity
  8
1
100
AcDbLine
 10
-784.2925296599446
 20
-65.11889513993946
 30
0.0
 11
-784.2925296599446
 21
-362.1188951399395
 31
0.0
  0
LINE
  5
B92
330
B8E
100
AcDbEntity
  8
4
100
AcDbLine
 10
-759.2925296599446
 20
-357.1188951399395
 30
0.0
 11
-759.2925296599446
 21
-70.11889513993946
 31
0.0
  0
LINE
  5
B93
330
B8E
100
AcDbEntity
  8
1
100
AcDbLine
 10
-784.2925296599446
 20
-362.1188951399395
 30
0.0
 11
-364.2925296599447
 21
-362.1188951399395
 31
0.0
  0
LINE
  5
B94
330
B8E
100
AcDbEntity
  8
4
100
AcDbLine
 10
-759.2925296599446
 20
-357.1188951399395
 30
0.0
 11
-369.2925296599447
 21
-357.1188951399395
 31
0.0
  0
LINE
  5
B95
330
B8E
100
AcDbEntity
  8
1
100
AcDbLine
 10
-654.2925296599446
 20
-357.1188951399395
 30
0.0
 11
-654.2925296599446
 21
-362.1188951399395
 31
0.0
  0
LINE
  5
B96
330
B8E
100
AcDbEntity
  8
1
100
AcDbLine
 10
-364.2925296599447
 20
-65.11889513993946
 30
0.0
 11
-784.2925296599446
 21
-65.11889513993946
 31
0.0
  0
LINE
  5
B97
330
B8E
100
AcDbEntity
  8
4
100
AcDbLine
 10
-369.2925296599447
 20
-70.11889513993946
 30
0.0
 11
-759.2925296599446
 21
-70.11889513993946
 31
0.0
  0
LINE
  5
B98
330
B8E
100
AcDbEntity
  8
1
100
AcDbLine
 10
-654.2925296599446
 20
-65.11889513993946
 30
0.0
 11
-654.2925296599446
 21
-70.11889513993946
 31
0.0
  0
LINE
  5
B99
330
B8E
100
AcDbEntity
  8
1
100
AcDbLine
 10
-549.2925296599446
 20
-70.11889513993946
 30
0.0
 11
-549.2925296599446
 21
-65.11889513993946
 31
0.0
  0
LINE
  5
B9A
330
B8E
100
AcDbEntity
  8
1
100
AcDbLine
 10
-369.2925296599447
 20
-65.11889513993946
 30
0.0
 11
-364.2925296599447
 21
-65.11889513993946
 31
0.0
  0
LINE
  5
B9B
330
B8E
100
AcDbEntity
  8
1
100
AcDbLine
 10
-549.2925296599446
 20
-357.1188951399395
 30
0.0
 11
-549.2925296599446
 21
-362.1188951399395
 31
0.0
  0
ENDBLK
  5
B9D
330
B8E
100
AcDbEntity
  8
0
100
AcDbBlockEnd
  0
BLOCK
  5
C13
330
B9E
100
AcDbEntity
  8
0
100
AcDbBlockBegin
  2
legenda desenvolvimento
 70
     2
 10
0.0
 20
0.0
 30
0.0
  3
legenda desenvolvimento
  1

  0
ATTDEF
  5
B9F
330
B9E
100
AcDbEntity
  8
1
100
AcDbText
 10
-108.606245802552
 20
55.5
 30
0.0
 40
4.0
  1
XXXXXXXXXXXXXX
 41
0.8
  7
SANINDUSA
 72
     4
 11
-87.5
 21
57.5
 31
0.0
100
AcDbAttributeDefinition
  3
Nome do Produto:
  2
PRODUTO
 70
     0
  0
ATTDEF
  5
BA0
330
B9E
100
AcDbEntity
  8
1
100
AcDbText
 10
-97.9997966101695
 20
41.25
 30
0.0
 40
3.0
  1
XXXXXXXXX
 41
0.8
  7
futura
 72
     4
 11
-87.5
 21
42.75
 31
0.0
100
AcDbAttributeDefinition
  3
Nome da Peça:
  2
PECA
 70
     0
  0
ATTDEF
  5
BA1
330
B9E
100
AcDbEntity
  8
1
100
AcDbText
 10
-133.4422431161853
 20
21.11745296763252
 30
0.0
 40
2.5
  1
X
 41
0.8
  7
SANINDUSA
 72
     4
 11
-132.5
 21
22.36745296763252
 31
0.0
100
AcDbAttributeDefinition
  3
Cod. TESTE:
  2
TESTE
 70
     0
  0
ATTDEF
  5
BA2
330
B9E
100
AcDbEntity
  8
1
100
AcDbText
 10
-124.3844862323707
 20
21.11745296763252
 30
0.0
 40
2.5
  1
XX
 41
0.8
  7
SANINDUSA
 72
     4
 11
-122.5
 21
22.36745296763252
 31
0.0
100
AcDbAttributeDefinition
  3
Cod. Ano:
  2
ANO
 70
     0
  0
ATTDEF
  5
BA3
330
B9E
100
AcDbEntity
  8
1
100
AcDbText
 10
-112.526889953052
 20
21.11745296763252
 30
0.0
 40
2.5
  1
XXX
 41
0.8
  7
SANINDUSA
 72
     4
 11
-109.700160604496
 21
22.36745296763252
 31
0.0
100
AcDbAttributeDefinition
  3
Cod. Sequência:
  2
SEQUENCIA
 70
     0
  0
ATTDEF
  5
BA4
330
B9E
100
AcDbEntity
  8
1
100
AcDbText
 10
-99.35382430979316
 20
21.11745296763252
 30
0.0
 40
2.5
  1
XX
 41
0.8
  7
SANINDUSA
 72
     4
 11
-97.46933807742244
 21
22.36745296763252
 31
0.0
100
AcDbAttributeDefinition
  3
Cod. Tipo:
  2
TIPO
 70
     0
  0
ATTDEF
  5
BA5
330
B9E
100
AcDbEntity
  8
1
100
AcDbText
 10
-87.42035911468438
 20
21.11745296763252
 30
0.0
 40
2.5
  1
XXX
 41
0.8
  7
SANINDUSA
 72
     4
 11
-84.59362976612828
 21
22.36745296763252
 31
0.0
100
AcDbAttributeDefinition
  3
Cod. Produto:
  2
PRODUTO
 70
     0
  0
ATTDEF
  5
BA6
330
B9E
100
AcDbEntity
  8
1
100
AcDbText
 10
-74.62051971917853
 20
21.11745296763252
 30
0.0
 40
2.5
  1
XXX
 41
0.8
  7
SANINDUSA
 72
     4
 11
-71.79379037062244
 21
22.36745296763252
 31
0.0
100
AcDbAttributeDefinition
  3
Cod. Peça:
  2
PECA
 70
     0
  0
ATTDEF
  5
BA7
330
B9E
100
AcDbEntity
  8
1
100
AcDbText
 10
-61.10603446650329
 20
21.11745296763252
 30
0.0
 40
2.5
  1
XX
 41
0.8
  7
SANINDUSA
 72
     4
 11
-59.22154823413257
 21
22.36745296763252
 31
0.0
100
AcDbAttributeDefinition
  3
Cod. Revisão:
  2
REV
 70
     0
  0
ATTDEF
  5
BA8
330
B9E
100
AcDbEntity
  8
1
100
AcDbText
 10
-48.43615325006194
 20
21.11745296763252
 30
0.0
 40
2.5
  1
XX
 41
0.8
  7
SANINDUSA
 72
     4
 11
-46.55166701769121
 21
22.36745296763252
 31
0.0
100
AcDbAttributeDefinition
  3
Cod. Alteração:
  2
ALT
 70
     0
  0
ATTDEF
  5
BA9
330
B9E
100
AcDbEntity
  8
1
100
AcDbText
 10
-35.19086635325722
 20
23.98875083948959
 30
0.0
 40
3.0
  1
1/XXX
 41
0.8
  7
SANINDUSA
 72
     4
 11
-30.0
 21
25.25
 31
0.0
100
AcDbAttributeDefinition
  3
Escala geral:
  2
ESCALA
 70
     0
  0
ATTDEF
  5
BAA
330
B9E
100
AcDbEntity
  8
1
100
AcDbText
 10
-15.65345869711215
 20
23.75
 30
0.0
 40
3.0
  1
XXXXX
 41
0.8
  7
SANINDUSA
 72
     4
 11
-10.0
 21
25.25
 31
0.0
100
AcDbAttributeDefinition
  3
Folha:
  2
FOLHA
 70
     0
  0
ATTDEF
  5
BAB
330
B9E
100
AcDbEntity
  8
1
100
AcDbText
 10
-178.5146998822042
 20
56.9531347542807
 30
0.0
 40
2.0
  1
xx
 41
0.8
  7
SANINDUSA
 72
     4
 11
-177.2123493113513
 21
57.70330265219877
 31
0.0
100
AcDbAttributeDefinition
  3
revisão
  2
REV.
 70
     0
  0
ATTDEF
  5
BAC
330
B9E
100
AcDbEntity
  8
1
100
AcDbText
 10
-172.7849640077129
 20
56.9531347542807
 30
0.0
 40
2.0
  1
xx
 41
0.8
  7
SANINDUSA
 72
     4
 11
-171.48261343686
 21
57.70330265219877
 31
0.0
100
AcDbAttributeDefinition
  3
alteração
  2
ALT.
 70
     0
  0
ATTDEF
  5
BAD
330
B9E
100
AcDbEntity
  8
1
100
AcDbText
 10
-168.007199951307
 20
56.70330265219877
 30
0.0
 40
2.0
  1
xx/xx/xxxx
 41
0.8
  7
SANINDUSA
 11
-168.007199951307
 21
57.70330265219877
 31
0.0
100
AcDbAttributeDefinition
  3
data
  2
DATA
 70
     0
 74
     2
  0
ATTDEF
  5
BAE
330
B9E
100
AcDbEntity
  8
1
100
AcDbText
 10
-168.5396372253371
 20
13.15916722632639
 30
0.0
 40
2.0
  1
XX/XX/XXXX
 41
0.8
  7
SANINDUSA
 72
     4
 11
-161.5099528734231
 21
14.0
 31
0.0
100
AcDbAttributeDefinition
  3
Data projecto
  2
DATA_PROJ
 70
     0
  0
ATTDEF
  5
BAF
330
B9E
100
AcDbEntity
  8
1
100
AcDbText
 10
-150.8658110728766
 20
13.24983210208193
 30
0.0
 40
2.0
  1
xxxxxxxx
 41
0.8
  7
SANINDUSA
 72
     4
 11
-145.6564087894649
 21
14.0
 31
0.0
100
AcDbAttributeDefinition
  3
nome de quem projectou
  2
NOME
 70
     0
  0
ATTDEF
  5
BB0
330
B9E
100
AcDbEntity
  8
1
100
AcDbText
 10
-168.5396372253371
 20
9.159167226326394
 30
0.0
 40
2.0
  1
XX/XX/XXXX
 41
0.8
  7
SANINDUSA
 72
     4
 11
-161.5099528734231
 21
10.0
 31
0.0
100
AcDbAttributeDefinition
  3
Data desenhou
  2
DATA_DES
 70
     0
  0
ATTDEF
  5
BB1
330
B9E
100
AcDbEntity
  8
1
100
AcDbText
 10
-151.516986358303
 20
9.249832102081933
 30
0.0
 40
2.0
  1
xxxxxxxxx
 41
0.8
  7
SANINDUSA
 72
     4
 11
-145.6564087894649
 21
10.0
 31
0.0
100
AcDbAttributeDefinition
  3
nome
  2
NOME
 70
     0
  0
ATTDEF
  5
BB2
330
B9E
100
AcDbEntity
  8
1
100
AcDbText
 10
-127.2924214135946
 20
14.1979876583216
 30
0.0
 40
2.0
  1
Vitreous China
 41
0.8
  7
SANINDUSA
 72
     4
 11
-119.231709526422
 21
15.22216495852308
 31
0.0
100
AcDbAttributeDefinition
  3
Nome do Material:
  2
MATERIAL
 70
     0
  0
ATTDEF
  5
BB3
330
B9E
100
AcDbEntity
  8
1
100
AcDbText
 10
-103.1563452122093
 20
14.38019043949261
 30
0.0
 40
2.0
  1
Branco
 41
0.8
  7
SANINDUSA
 72
     4
 11
-99.33418268702462
 21
15.35937109765245
 31
0.0
100
AcDbAttributeDefinition
  3
cor da peça
  2
COR
 70
     0
  0
ATTDEF
  5
BB4
330
B9E
100
AcDbEntity
  8
1
100
AcDbText
 10
-116.7235057085292
 20
5.975822699798522
 30
0.0
 40
2.0
  1
Vidrado
 41
0.8
  7
SANINDUSA
 72
     4
 11
-112.5
 21
7.0
 31
0.0
100
AcDbAttributeDefinition
  3
Tipo de acabamento:
  2
ACABAMENTO
 70
     0
  0
ATTDEF
  5
BB5
330
B9E
100
AcDbEntity
  8
1
100
AcDbText
 10
-79.18527869967246
 20
16.65066409850533
 30
0.0
 40
2.0
  1
XXXXXXX
 41
0.8
  7
SANINDUSA
 72
     4
 11
-73.90871724903445
 21
17.65066409850533
 31
0.0
100
AcDbAttributeDefinition
  3
Normas
  2
NORMAS
 70
     0
  0
ATTDEF
  5
BB6
330
B9E
100
AcDbEntity
  8
1
100
AcDbText
 10
-30.55312290127603
 20
14.0
 30
0.0
 40
2.0
  1
XXXXXXXXXXXXXX
 41
0.8
  7
SANINDUSA
 72
     4
 11
-20.0
 21
15.0
 31
0.0
100
AcDbAttributeDefinition
  3
Substitui o desenho:
  2
SUBSTITUI
 70
     0
  0
ATTDEF
  5
BB7
330
B9E
100
AcDbEntity
  8
1
100
AcDbText
 10
-31.30691739422431
 20
6.0
 30
0.0
 40
2.0
  1
XXXXXXXXXXXXXXX
 41
0.8
  7
SANINDUSA
 72
     4
 11
-20.0
 21
7.0
 31
0.0
100
AcDbAttributeDefinition
  3
Substituido por:
  2
SUBSTITUIDO
 70
     0
  0
ATTDEF
  5
BB8
330
B9E
100
AcDbEntity
  8
1
100
AcDbText
 10
-110.0220608548302
 20
1.478208457928303
 30
0.0
 40
2.0
  1
XXXXXXXXXXXXXXXXXXXXXXXXXXXXXXXXXX
 41
0.8
  7
SANINDUSA
 11
-110.0220608548302
 21
2.478208457928303
 31
0.0
100
AcDbAttributeDefinition
  3
Localização do desenho:
  2
LOC-DWG
 70
     0
 74
     2
  0
LINE
  5
BB9
330
B9E
100
AcDbEntity
  8
3
100
AcDbLine
 10
-135.0
 20
4.0
 30
0.0
 11
0.0000000000004547
 21
4.0
 31
0.0
  0
LINE
  5
BBA
330
B9E
100
AcDbEntity
  8
3
100
AcDbLine
 10
-90.00000000000046
 20
12.0
 30
0.0
 11
-135.0
 21
12.0
 31
0.0
  0
LINE
  5
BBB
330
B9E
100
AcDbEntity
  8
3
100
AcDbLine
 10
-135.0
 20
32.5
 30
0.0
 11
-40.0
 21
32.5
 31
0.0
  0
TEXT
  5
BBC
330
B9E
100
AcDbEntity
  8
1
100
AcDbText
 10
-134.0
 20
1.25
 30
0.0
 40
2.0
  1
Localização do des.:
 41
0.8
  7
SANINDUSA
 11
-134.0
 21
2.25
 31
0.0
100
AcDbText
 73
     2
  0
LINE
  5
BBD
330
B9E
100
AcDbEntity
  8
3
100
AcDbLine
 10
-180.0
 20
65.0
 30
0.0
 11
0.0
 21
65.0
 31
0.0
  0
LINE
  5
BBE
330
B9E
100
AcDbEntity
  8
leg fin
100
AcDbLine
 10
-40.0
 20
25.05956924886846
 30
0.0
 11
-135.0
 21
25.05956924886846
 31
0.0
  0
LINE
  5
BBF
330
B9E
100
AcDbEntity
  8
leg fin
100
AcDbLine
 10
-40.0
 20
28.5
 30
0.0
 11
-135.0
 21
28.5
 31
0.0
  0
LINE
  5
BC0
330
B9E
100
AcDbEntity
  8
3
100
AcDbLine
 10
-135.0
 20
50.0
 30
0.0
 11
-40.0
 21
50.0
 31
0.0
  0
TEXT
  5
BC1
330
B9E
100
AcDbEntity
  8
1
100
AcDbText
 10
-134.0
 20
29.75
 30
0.0
 40
2.0
  1
Desenho nº:
 41
0.8
  7
SANINDUSA
 11
-134.0
 21
30.75
 31
0.0
100
AcDbText
 73
     2
  0
TEXT
  5
BC2
330
B9E
100
AcDbEntity
  8
1
100
AcDbText
 10
-134.0
 20
9.25
 30
0.0
 40
2.0
  1
Acabamento:
 41
0.8
  7
SANINDUSA
 11
-134.0
 21
10.25
 31
0.0
100
AcDbText
 73
     2
  0
LINE
  5
BC3
330
B9E
100
AcDbEntity
  8
3
100
AcDbLine
 10
-180.0
 20
20.0
 30
0.0
 11
0.0
 21
20.0
 31
0.0
  0
LINE
  5
BC4
330
B9E
100
AcDbEntity
  8
1
100
AcDbLine
 10
-174.5810776056337
 20
55.5
 30
0.0
 11
-174.5810776056337
 21
65.0
 31
0.0
  0
LINE
  5
BC5
330
B9E
100
AcDbEntity
  8
1
100
AcDbLine
 10
-168.9210461879161
 20
55.5
 30
0.0
 11
-168.9210461879161
 21
65.0
 31
0.0
  0
LINE
  5
BC6
330
B9E
100
AcDbEntity
  8
1
100
AcDbLine
 10
-154.0988595589306
 20
55.5
 30
0.0
 11
-154.0988595589306
 21
65.0
 31
0.0
  0
LINE
  5
BC7
330
B9E
100
AcDbEntity
  8
3
100
AcDbLine
 10
-180.0
 20
65.0
 30
0.0
 11
-180.0
 21
0.0
 31
0.0
  0
LINE
  5
BC8
330
B9E
100
AcDbEntity
  8
3
100
AcDbLine
 10
-135.0
 20
0.0
 30
0.0
 11
-135.0
 21
65.0
 31
0.0
  0
TEXT
  5
BC9
330
B9E
100
AcDbEntity
  8
1
100
AcDbText
 10
-179.0
 20
9.75
 30
0.0
 40
1.5
  1
Des.
 41
0.8
  7
SANINDUSA
 11
-179.0
 21
10.5
 31
0.0
100
AcDbText
 73
     2
  0
LINE
  5
BCA
330
B9E
100
AcDbEntity
  8
1
100
AcDbLine
 10
-168.9210461879161
 20
20.0
 30
0.0
 11
-168.9210461879161
 21
0.0
 31
0.0
  0
LINE
  5
BCB
330
B9E
100
AcDbEntity
  8
1
100
AcDbLine
 10
-154.0988595589306
 20
20.0
 30
0.0
 11
-154.0988595589306
 21
0.0
 31
0.0
  0
LINE
  5
BCC
330
B9E
100
AcDbEntity
  8
1
100
AcDbLine
 10
-180.0
 20
4.0
 30
0.0
 11
-135.0
 21
4.0
 31
0.0
  0
LINE
  5
BCD
330
B9E
100
AcDbEntity
  8
1
100
AcDbLine
 10
-180.0
 20
8.0
 30
0.0
 11
-135.0
 21
8.0
 31
0.0
  0
TEXT
  5
BCE
330
B9E
100
AcDbEntity
  8
1
100
AcDbText
 10
-179.0
 20
1.73257823687436
 30
0.0
 40
1.5
  1
Aprov.
 41
0.8
  7
SANINDUSA
 11
-179.0
 21
2.48257823687436
 31
0.0
100
AcDbText
 73
     2
  0
TEXT
  5
BCF
330
B9E
100
AcDbEntity
  8
1
100
AcDbText
 10
-179.0
 20
5.75
 30
0.0
 40
1.5
  1
Ver.
 41
0.8
  7
SANINDUSA
 11
-179.0
 21
6.5
 31
0.0
100
AcDbText
 73
     2
  0
LINE
  5
BD0
330
B9E
100
AcDbEntity
  8
1
100
AcDbLine
 10
-180.0
 20
16.0
 30
0.0
 11
-135.0
 21
16.0
 31
0.0
  0
LINE
  5
BD1
330
B9E
100
AcDbEntity
  8
1
100
AcDbLine
 10
-180.0
 20
12.0
 30
0.0
 11
-135.0
 21
12.0
 31
0.0
  0
TEXT
  5
BD2
330
B9E
100
AcDbEntity
  8
1
100
AcDbText
 10
-179.0
 20
13.75
 30
0.0
 40
1.5
  1
Proj.
 41
0.8
  7
SANINDUSA
 11
-179.0
 21
14.5
 31
0.0
100
AcDbText
 73
     2
  0
TEXT
  5
BD3
330
B9E
100
AcDbEntity
  8
1
100
AcDbText
 10
-167.9210461879161
 20
17.75
 30
0.0
 40
1.5
  1
Data
 41
0.8
  7
SANINDUSA
 11
-167.9210461879161
 21
18.5
 31
0.0
100
AcDbText
 73
     2
  0
TEXT
  5
BD4
330
B9E
100
AcDbEntity
  8
1
100
AcDbText
 10
-153.0988595589306
 20
17.75
 30
0.0
 40
1.5
  1
Nome
 41
0.8
  7
SANINDUSA
 11
-153.0988595589306
 21
18.5
 31
0.0
100
AcDbText
 73
     2
  0
LINE
  5
BD5
330
B9E
100
AcDbEntity
  8
leg fin
100
AcDbLine
 10
-130.0
 20
20.0
 30
0.0
 11
-130.0
 21
28.5
 31
0.0
  0
TEXT
  5
BD6
330
B9E
100
AcDbEntity
  8
1
100
AcDbText
 10
-134.0
 20
17.25
 30
0.0
 40
2.0
  1
Material:
 41
0.8
  7
SANINDUSA
 11
-134.0
 21
18.25
 31
0.0
100
AcDbText
 73
     2
  0
TEXT
  5
BD7
330
B9E
100
AcDbEntity
  8
1
100
AcDbText
 10
-129.0
 20
26.43288406845113
 30
0.0
 40
1.5
  1
Ano:
 41
0.8
  7
SANINDUSA
 11
-129.0
 21
27.18288406845113
 31
0.0
100
AcDbText
 73
     2
  0
LINE
  5
BD8
330
B9E
100
AcDbEntity
  8
1
100
AcDbLine
 10
-180.0
 20
55.5
 30
0.0
 11
-135.0
 21
55.5
 31
0.0
  0
TEXT
  5
BD9
330
B9E
100
AcDbEntity
  8
1
100
AcDbText
 10
-179.0
 20
52.67772246885193
 30
0.0
 40
1.5
  1
descrição
 41
0.8
  7
SANINDUSA
 11
-179.0
 21
53.42772246885193
 31
0.0
100
AcDbText
 73
     2
  0
TEXT
  5
BDA
330
B9E
100
AcDbEntity
  8
1
100
AcDbText
 10
-134.0
 20
47.25
 30
0.0
 40
2.0
  1
Peça:
 41
0.8
  7
SANINDUSA
 11
-134.0
 21
48.25
 31
0.0
100
AcDbText
 73
     2
  0
LINE
  5
BDB
330
B9E
100
AcDbEntity
  8
1
100
AcDbLine
 10
-180.0
 20
59.5
 30
0.0
 11
-135.0
 21
59.5
 31
0.0
  0
TEXT
  5
BDC
330
B9E
100
AcDbEntity
  8
1
100
AcDbText
 10
-173.5810776056337
 20
62.75
 30
0.0
 40
1.5
  1
Alt.
 41
0.8
  7
SANINDUSA
 11
-173.5810776056337
 21
63.5
 31
0.0
100
AcDbText
 73
     2
  0
TEXT
  5
BDD
330
B9E
100
AcDbEntity
  8
1
100
AcDbText
 10
-179.0
 20
62.75
 30
0.0
 40
1.5
  1
Rev.
 41
0.8
  7
SANINDUSA
 11
-179.0
 21
63.5
 31
0.0
100
AcDbText
 73
     2
  0
TEXT
  5
BDE
330
B9E
100
AcDbEntity
  8
1
100
AcDbText
 10
-167.9210461879161
 20
62.75
 30
0.0
 40
1.5
  1
Data
 41
0.8
  7
SANINDUSA
 11
-167.9210461879161
 21
63.5
 31
0.0
100
AcDbText
 73
     2
  0
TEXT
  5
BDF
330
B9E
100
AcDbEntity
  8
1
100
AcDbText
 10
-153.0988595589306
 20
62.75
 30
0.0
 40
1.5
  1
Nome
 41
0.8
  7
SANINDUSA
 11
-153.0988595589306
 21
63.5
 31
0.0
100
AcDbText
 73
     2
  0
TEXT
  5
BE0
330
B9E
100
AcDbEntity
  8
1
100
AcDbText
 10
-134.0
 20
62.25
 30
0.0
 40
2.0
  1
Produto:
 41
0.8
  7
SANINDUSA
 11
-134.0
 21
63.25
 31
0.0
100
AcDbText
 73
     2
  0
LINE
  5
BE1
330
B9E
100
AcDbEntity
  8
3
100
AcDbLine
 10
-40.0
 20
4.0
 30
0.0
 11
-40.0
 21
65.0
 31
0.0
  0
LWPOLYLINE
  5
BE2
102
{ACAD_REACTORS
330
BEC
102
}
330
B9E
100
AcDbEntity
  8
9
100
AcDbPolyline
 90
       12
 70
     1
 43
0.0
 10
-3.038714600644652
 20
58.90010174665076
 10
-5.726962862472191
 20
58.90010174665076
 10
-5.726962862472191
 20
58.5001017466509
 10
-3.038748516195028
 20
58.5001017466509
 42
-0.4142135623731731
 10
-2.638748516194482
 20
58.1001017466508
 10
-2.638748516194482
 20
57.42799728675596
 10
-5.21497371544865
 20
57.42799728675596
 42
0.4142135623731289
 10
-6.014973715448377
 20
56.627997286756
 10
-6.014973715448377
 20
55.92380871629643
 42
0.4142135623731132
 10
-5.21497371544865
 20
55.12380871629648
 10
-2.23871460064447
 20
55.12380871629648
 10
-2.23871460064447
 20
58.10010174665103
 42
0.4142135623730717
  0
LWPOLYLINE
  5
BE3
102
{ACAD_REACTORS
330
BEC
102
}
330
B9E
100
AcDbEntity
  8
9
100
AcDbPolyline
 90
       20
 70
     1
 43
0.0
 10
-10.01531287095122
 20
57.82799728675581
 10
-10.01531287095122
 20
58.10010174665103
 42
-0.4142135623730744
 10
-9.615312870951584
 20
58.5001017466509
 10
-6.92703069357276
 20
58.5001017466509
 10
-6.92703069357276
 20
58.90010174665076
 10
-9.615346786501959
 20
58.90010174665076
 42
0.4142135623730883
 10
-10.41534678650168
 20
58.1001017466508
 10
-10.41534678650168
 20
57.82796337120567
 42
0.4142135623730717
 10
-9.615346786501959
 20
57.02796337120571
 10
-7.423079531965413
 20
57.02796337120571
 42
-0.4142135623730847
 10
-7.023079531965322
 20
56.62796337120562
 10
-7.023079531965322
 20
55.90786840766487
 42
-0.4142135623730744
 10
-7.423079531965413
 20
55.507868407665
 10
-10.41534678650168
 20
55.507868407665
 10
-10.41534678650168
 20
55.12380871629648
 10
-7.445787917283723
 20
55.12380871629648
 42
0.4114777732064574
 10
-6.645822882998345
 20
55.9163291493976
 10
-6.639238813324936
 20
56.62051771985716
 42
0.4169546541682913
 10
-7.439203847610315
 20
57.42799728675596
 10
-9.615312870951584
 20
57.42799728675596
 42
-0.4142135623731576
  0
LWPOLYLINE
  5
BE4
102
{ACAD_REACTORS
330
BEC
102
}
330
B9E
100
AcDbEntity
  8
9
100
AcDbPolyline
 90
       12
 70
     1
 43
0.0
 10
-14.41561811090378
 20
58.90010174665076
 10
-14.79964388672215
 20
58.90010174665076
 10
-14.79964388672215
 20
55.92380871629643
 42
0.4142135623731133
 10
-13.99964388672242
 20
55.12380871629648
 10
-11.8233508563676
 20
55.12380871629648
 42
0.4142135623730872
 10
-11.02335085636741
 20
55.92380871629643
 10
-11.02335085636741
 20
58.90010174665076
 10
-11.42338477191788
 20
58.90010174665076
 10
-11.42338477191788
 20
55.91567577726095
 42
-0.4131711701795318
 10
-11.82196067063523
 20
55.51567831234956
 10
-14.0141940096214
 20
55.50787335710947
 42
-0.4152567234624407
 10
-14.41561811090378
 20
55.90787082202087
  0
LWPOLYLINE
  5
BE5
102
{ACAD_REACTORS
330
BEC
102
}
330
B9E
100
AcDbEntity
  8
9
100
AcDbPolyline
 90
        6
 70
     1
 43
0.0
 10
-15.80771578768872
 20
55.507868407665
 10
-18.39994912667453
 20
55.507868407665
 42
-0.4142135623731731
 10
-18.79994912667462
 20
55.90786840766487
 10
-18.79994912667462
 20
58.10010174665103
 42
-0.4142135623730744
 10
-18.39994912667453
 20
58.5001017466509
 10
-15.80771578768872
 20
58.5001017466509
  0
LWPOLYLINE
  5
BE6
102
{ACAD_REACTORS
330
BEC
102
}
330
B9E
100
AcDbEntity
  8
9
100
AcDbPolyline
 90
        8
 70
     1
 43
0.0
 10
-15.4236900118708
 20
59.87619128370352
 10
-15.80771578768872
 20
59.87619128370352
 10
-15.80771578768872
 20
58.90010174665076
 10
-18.39176256411201
 20
58.90010174665076
 42
0.4131164467977967
 10
-19.19175694739761
 20
58.1030995310698
 10
-19.1999120763262
 20
55.92680650071542
 42
0.4153115297271718
 10
-18.39991769304061
 20
55.12380871629648
 10
-15.4236900118708
 20
55.12380871629648
  0
LWPOLYLINE
  5
BE7
102
{ACAD_REACTORS
330
BEC
102
}
330
B9E
100
AcDbEntity
  8
9
100
AcDbPolyline
 90
       10
 70
     1
 43
0.0
 10
-20.59201288790928
 20
58.90010174665076
 10
-23.56830591826338
 20
58.90010174665076
 10
-23.56830591826338
 20
55.12380871629648
 10
-23.18424622689509
 20
55.12380871629648
 10
-23.18424622689509
 20
58.5001017466509
 10
-20.59204680345965
 20
58.5001017466509
 42
-0.4142135623730898
 10
-20.19204680345956
 20
58.1001017466508
 10
-20.19204680345956
 20
55.12380871629648
 10
-19.79201288790909
 20
55.12380871629648
 10
-19.79201288790909
 20
58.10010174665103
 42
0.4142135623731132
  0
LWPOLYLINE
  5
BE8
102
{ACAD_REACTORS
330
BEC
102
}
330
B9E
100
AcDbEntity
  8
9
100
AcDbPolyline
 90
        4
 70
     1
 43
0.0
 10
-24.19231812786165
 20
58.90010174665076
 10
-24.57637781922995
 20
58.90010174665076
 10
-24.57637781922995
 20
55.12380871629648
 10
-24.19231812786165
 20
55.12380871629648
  0
LWPOLYLINE
  5
BE9
102
{ACAD_REACTORS
330
BEC
102
}
330
B9E
100
AcDbEntity
  8
9
100
AcDbPolyline
 90
       10
 70
     1
 43
0.0
 10
-28.57661522808212
 20
58.5001017466509
 10
-25.98444972019706
 20
58.5001017466509
 42
-0.4142135623731731
 10
-25.58444972019652
 20
58.1001017466508
 10
-25.58444972019652
 20
55.12380871629648
 10
-25.2004239443786
 20
55.12380871629648
 10
-25.2004239443786
 20
58.10010174665103
 42
0.4142135623730717
 10
-26.00042394437833
 20
58.90010174665076
 10
-28.97664914363259
 20
58.90010174665076
 10
-28.97664914363259
 20
55.12380871629648
 10
-28.57661522808212
 20
55.12380871629648
  0
LWPOLYLINE
  5
BEA
102
{ACAD_REACTORS
330
BEC
102
}
330
B9E
100
AcDbEntity
  8
9
100
AcDbPolyline
 90
       12
 70
     1
 43
0.0
 10
-29.58465321349832
 20
58.10010174665103
 42
0.4142135623730716
 10
-30.3846532134985
 20
58.90010174665076
 10
-33.07296930642724
 20
58.90010174665076
 10
-33.07296930642724
 20
58.5001017466509
 10
-30.38468712904842
 20
58.5001017466509
 42
-0.4142135623730067
 10
-29.98468712904878
 20
58.1001017466508
 10
-29.98468712904878
 20
57.42799728675618
 10
-32.56098015940324
 20
57.42799728675596
 42
0.4142135623731289
 10
-33.36098015940343
 20
56.627997286756
 10
-33.36098015940343
 20
55.92380871629643
 42
0.4142135623731132
 10
-32.56098015940324
 20
55.12380871629648
 10
-29.58465321349832
 20
55.12380871629648
  0
LWPOLYLINE
  5
BEB
102
{ACAD_REACTORS
330
BEC
102
}
330
B9E
100
AcDbEntity
  8
9
100
AcDbPolyline
 90
       20
 70
     1
 43
0.0
 10
-34.7850262845518
 20
57.42799728675596
 10
-36.96125148380543
 20
57.42799728675596
 42
-0.4142135623730898
 10
-37.36125148380552
 20
57.82799728675604
 10
-37.36125148380552
 20
58.10010174665103
 42
-0.4142135623730744
 10
-36.96125148380543
 20
58.5001017466509
 10
-34.27303713752781
 20
58.50010174665067
 10
-34.27303713752781
 20
58.90010174665076
 10
-36.96128539935535
 20
58.90010174665076
 42
0.4142135623731289
 10
-37.76128539935553
 20
58.1001017466508
 10
-37.76128539935553
 20
57.82796337120567
 42
0.4142135623730716
 10
-36.9612853993558
 20
57.02796337120571
 10
-34.76901814481926
 20
57.02796337120571
 42
-0.414213562373168
 10
-34.36901814481962
 20
56.62796337120562
 10
-34.36901814481962
 20
55.90786840766487
 42
-0.4142135623730744
 10
-34.76901814481926
 20
55.507868407665
 10
-37.76128539935553
 20
55.507868407665
 10
-37.76128539935553
 20
55.12380871629648
 10
-34.7850262845518
 20
55.12380871629648
 42
0.4142135623731289
 10
-33.98502628455162
 20
55.92380871629643
 10
-33.98502628455162
 20
56.627997286756
 42
0.4142135623731132
  0
HATCH
  5
BEC
330
B9E
100
AcDbEntity
  8
9
100
AcDbHatch
 10
0.0
 20
0.0
 30
0.0
210
0.0
220
0.0
230
1.0
  2
SOLID
 70
     1
 71
     1
 91
       13
 92
        7
 72
     1
 73
     1
 93
       20
 10
-34.36901814481962
 20
55.90786840766487
 42
-0.414213562372991
 10
-34.76901814481926
 20
55.507868407665
 42
0.0
 10
-37.76128539935553
 20
55.507868407665
 42
0.0
 10
-37.76128539935553
 20
55.12380871629648
 42
0.0
 10
-34.7850262845518
 20
55.12380871629648
 42
0.4142135623731705
 10
-33.98502628455162
 20
55.92380871629666
 42
0.0
 10
-33.98502628455162
 20
56.627997286756
 42
0.4142135623731547
 10
-34.7850262845518
 20
57.42799728675596
 42
0.0
 10
-36.96125148380543
 20
57.42799728675596
 42
-0.4142135623730898
 10
-37.36125148380552
 20
57.82799728675604
 42
0.0
 10
-37.36125148380552
 20
58.1001017466508
 42
-0.4142135623731575
 10
-36.96125148380543
 20
58.5001017466509
 42
0.0
 10
-34.27303713752781
 20
58.50010174665067
 42
0.0
 10
-34.27303713752781
 20
58.90010174665076
 42
0.0
 10
-36.96128539935535
 20
58.90010174665076
 42
0.4142135623731705
 10
-37.76128539935553
 20
58.10010174665058
 42
0.0
 10
-37.76128539935553
 20
57.82796337120544
 42
0.4142135623730299
 10
-36.9612853993558
 20
57.02796337120571
 42
0.0
 10
-34.76901814481926
 20
57.02796337120571
 42
-0.4142135623730015
 10
-34.36901814481962
 20
56.62796337120608
 42
0.0
 97
        1
330
BEB
 92
        7
 72
     1
 73
     1
 93
       12
 10
-33.36098015940343
 20
55.92380871629666
 42
0.4142135623731547
 10
-32.56098015940324
 20
55.12380871629648
 42
0.0
 10
-29.58465321349877
 20
55.12380871629648
 42
0.0
 10
-29.58465321349832
 20
58.10010174665058
 42
0.4142135623731964
 10
-30.3846532134985
 20
58.90010174665076
 42
0.0
 10
-33.07296930642724
 20
58.90010174665076
 42
0.0
 10
-33.07296930642724
 20
58.50010174665067
 42
0.0
 10
-30.38468712904887
 20
58.5001017466509
 42
-0.4142135623732564
 10
-29.98468712904878
 20
58.10010174665103
 42
0.0
 10
-29.98468712904923
 20
57.42799728675596
 42
0.0
 10
-32.56098015940324
 20
57.42799728675596
 42
0.4142135623731705
 10
-33.36098015940343
 20
56.627997286756
 42
0.0
 97
        1
330
BEA
 92
       22
 72
     1
 73
     1
 93
        6
 10
-32.97692046803468
 20
56.62796337120562
 42
-0.4142135623731576
 10
-32.57692046803459
 20
57.02796337120571
 42
0.0
 10
-29.98468712904878
 20
57.02796337120571
 42
0.0
 10
-29.98468712904878
 20
55.507868407665
 42
0.0
 10
-32.57692046803459
 20
55.507868407665
 42
-0.4142135623731731
 10
-32.97692046803468
 20
55.90786840766487
 42
0.0
 97
        1
330
C11
 92
        7
 72
     1
 73
     1
 93
       10
 10
-28.57661522808212
 20
58.5001017466509
 42
0.0
 10
-25.98444972019661
 20
58.5001017466509
 42
-0.4142135623730067
 10
-25.58444972019652
 20
58.10010174665058
 42
0.0
 10
-25.58444972019606
 20
55.12380871629648
 42
0.0
 10
-25.20042394437906
 20
55.12380871629648
 42
0.0
 10
-25.2004239443786
 20
58.1001017466508
 42
0.4142135623731134
 10
-26.00042394437833
 20
58.90010174665076
 42
0.0
 10
-28.97664914363259
 20
58.90010174665076
 42
0.0
 10
-28.97664914363259
 20
55.12380871629648
 42
0.0
 10
-28.57661522808212
 20
55.12380871629648
 42
0.0
 97
        1
330
BE9
 92
        7
 72
     0
 73
     1
 93
        4
 10
-24.57637781922995
 20
55.12380871629648
 10
-24.19231812786165
 20
55.12380871629648
 10
-24.19231812786165
 20
58.90010174665076
 10
-24.57637781922995
 20
58.90010174665076
 97
        1
330
BE8
 92
        7
 72
     0
 73
     1
 93
        4
 10
-24.19231812786165
 20
59.87619128370352
 10
-24.5763778192304
 20
59.87619128370352
 10
-24.5763778192304
 20
59.28412752246913
 10
-24.1923181278612
 20
59.28412752246913
 97
        1
330
C12
 92
        7
 72
     1
 73
     1
 93
       10
 10
-23.18424622689509
 20
58.5001017466509
 42
0.0
 10
-20.59204680345965
 20
58.5001017466509
 42
-0.4142135623730898
 10
-20.19204680345956
 20
58.1001017466508
 42
0.0
 10
-20.19204680345956
 20
55.12380871629648
 42
0.0
 10
-19.79201288790909
 20
55.12380871629648
 42
0.0
 10
-19.79201288790909
 20
58.1001017466508
 42
0.4142135623731547
 10
-20.59201288790928
 20
58.90010174665076
 42
0.0
 10
-23.56830591826338
 20
58.90010174665076
 42
0.0
 10
-23.56830591826338
 20
55.12380871629648
 42
0.0
 10
-23.18424622689463
 20
55.12380871629648
 42
0.0
 97
        1
330
BE7
 92
        7
 72
     1
 73
     1
 93
        8
 10
-19.1999120763262
 20
55.92680650071542
 42
0.4153115297271299
 10
-18.39991769304061
 20
55.12380871629648
 42
0.0
 10
-15.4236900118708
 20
55.12380871629648
 42
0.0
 10
-15.4236900118708
 20
59.87619128370352
 42
0.0
 10
-15.80771578768872
 20
59.87619128370352
 42
0.0
 10
-15.80771578768872
 20
58.90010174665076
 42
0.0
 10
-18.39176256411201
 20
58.90010174665076
 42
0.4131164467977965
 10
-19.19175694739761
 20
58.1030995310698
 42
0.0
 97
        1
330
BE6
 92
       22
 72
     1
 73
     1
 93
        6
 10
-18.79994912667462
 20
58.1001017466508
 42
-0.4142135623731575
 10
-18.39994912667453
 20
58.5001017466509
 42
0.0
 10
-15.80771578768872
 20
58.50010174665067
 42
0.0
 10
-15.80771578768827
 20
55.507868407665
 42
0.0
 10
-18.39994912667453
 20
55.507868407665
 42
-0.4142135623731731
 10
-18.79994912667462
 20
55.90786840766487
 42
0.0
 97
        1
330
BE5
 92
        7
 72
     1
 73
     1
 93
       12
 10
-14.79964388672215
 20
55.92380871629621
 42
0.4142135623729885
 10
-13.99964388672242
 20
55.12380871629648
 42
0.0
 10
-11.8233508563676
 20
55.12380871629648
 42
0.4142135623731289
 10
-11.02335085636741
 20
55.92380871629666
 42
0.0
 10
-11.02335085636741
 20
58.90010174665076
 42
0.0
 10
-11.42338477191788
 20
58.90010174665076
 42
0.0
 10
-11.42338477191788
 20
55.91567577726095
 42
-0.4131711701795319
 10
-11.82196067063523
 20
55.51567831234956
 42
0.0
 10
-14.01419400962095
 20
55.50787335710947
 42
-0.4152567234626918
 10
-14.41561811090378
 20
55.90787082202087
 42
0.0
 10
-14.41561811090378
 20
58.90010174665076
 42
0.0
 10
-14.7996438867226
 20
58.90010174665076
 42
0.0
 97
        1
330
BE4
 92
        7
 72
     1
 73
     1
 93
       20
 10
-7.423079531965413
 20
57.02796337120571
 42
-0.414213562373168
 10
-7.023079531965322
 20
56.62796337120562
 42
0.0
 10
-7.023079531965322
 20
55.90786840766487
 42
-0.4142135623731575
 10
-7.423079531965413
 20
55.507868407665
 42
0.0
 10
-10.41534678650168
 20
55.507868407665
 42
0.0
 10
-10.41534678650168
 20
55.12380871629648
 42
0.0
 10
-7.445787917283723
 20
55.12380871629648
 42
0.4114777732065809
 10
-6.645822882998345
 20
55.91632914939783
 42
0.0
 10
-6.639238813324936
 20
56.62051771985716
 42
0.4169546541682913
 10
-7.439203847610315
 20
57.42799728675596
 42
0.0
 10
-9.615312870951584
 20
57.42799728675596
 42
-0.4142135623729911
 10
-10.01531287095122
 20
57.82799728675581
 42
0.0
 10
-10.01531287095122
 20
58.10010174665103
 42
-0.414213562372991
 10
-9.615312870951584
 20
58.5001017466509
 42
0.0
 10
-6.92703069357276
 20
58.50010174665067
 42
0.0
 10
-6.927030693572305
 20
58.90010174665076
 42
0.0
 10
-9.615346786501959
 20
58.90010174665076
 42
0.4142135623730467
 10
-10.41534678650168
 20
58.10010174665103
 42
0.0
 10
-10.41534678650168
 20
57.82796337120544
 42
0.4142135623730301
 10
-9.615346786501959
 20
57.02796337120571
 42
0.0
 97
        1
330
BE3
 92
        7
 72
     1
 73
     1
 93
       12
 10
-5.21497371544865
 20
57.42799728675596
 42
0.4142135623730871
 10
-6.014973715448377
 20
56.627997286756
 42
0.0
 10
-6.014973715448377
 20
55.92380871629621
 42
0.4142135623730715
 10
-5.21497371544865
 20
55.12380871629648
 42
0.0
 10
-2.23871460064447
 20
55.12380871629648
 42
0.0
 10
-2.23871460064447
 20
58.10010174665058
 42
0.414213562373155
 10
-3.038714600644652
 20
58.90010174665076
 42
0.0
 10
-5.726962862471737
 20
58.90010174665076
 42
0.0
 10
-5.726962862472191
 20
58.5001017466509
 42
0.0
 10
-3.038748516194573
 20
58.5001017466509
 42
-0.4142135623730067
 10
-2.638748516194482
 20
58.10010174665058
 42
0.0
 10
-2.638748516194482
 20
57.42799728675596
 42
0.0
 97
        1
330
BE2
 92
       22
 72
     1
 73
     1
 93
        6
 10
-2.638748516194937
 20
57.02796337120571
 42
0.0
 10
-2.638748516194482
 20
55.50786840766477
 42
0.0
 10
-5.21497371544865
 20
55.507868407665
 42
-0.4142135623731731
 10
-5.614973715448741
 20
55.90786840766509
 42
0.0
 10
-5.614973715448741
 20
56.62796337120562
 42
-0.4142135623731576
 10
-5.21497371544865
 20
57.02796337120571
 42
0.0
 97
        1
330
C0D
 75
     0
 76
     1
 47
0.0407044778999864
 98
       13
 10
-34.18710075113677
 20
56.16907953933765
 10
-33.12851374392494
 20
56.49471602641233
 10
-33.12851374392494
 20
56.49471602641233
 10
-28.77202873835904
 20
57.51232930166111
 10
-24.41554807250941
 20
57.91937341678636
 10
-24.41554807250941
 20
59.384734621186
 10
-23.31624584658039
 20
58.3264175319116
 10
-19.04119127844888
 20
57.75655517324913
 10
-19.04119127844888
 20
57.75655517324913
 10
-14.64399105416578
 20
57.43091868617466
 10
-8.048195057457178
 20
57.22739662861204
 10
-4.017427461911665
 20
57.18669281458665
 10
-4.017427461911665
 20
57.18669281458665
  0
TEXT
  5
BED
330
B9E
100
AcDbEntity
  8
leg fin
100
AcDbText
 10
3.391127401597259
 20
2.107634911895729
 30
0.0
 40
1.5
  1
Este desenho é propriedade da Sanindusa, S.A., e não pode ser copiado nem divulgado sem nossa autorização.
 50
90.0
 41
0.8
  7
SANINDUSA
100
AcDbText
  0
LINE
  5
BEE
330
B9E
100
AcDbEntity
  8
3
100
AcDbLine
 10
-90.0
 20
4.0
 30
0.0
 11
-90.0
 21
12.0
 31
0.0
  0
TEXT
  5
BEF
330
B9E
100
AcDbEntity
  8
1
100
AcDbText
 10
-39.0
 20
9.25
 30
0.0
 40
2.0
  1
Substituido por:
 41
0.8
  7
SANINDUSA
 11
-39.0
 21
10.25
 31
0.0
100
AcDbText
 73
     2
  0
POINT
  5
BF0
330
B9E
100
AcDbEntity
  8
SANINDUSA
100
AcDbPoint
 10
0.0
 20
0.0
 30
0.0
  0
TEXT
  5
BF1
330
B9E
100
AcDbEntity
  8
1
100
AcDbText
 10
-89.0
 20
16.74927010445663
 30
0.0
 40
2.0
  1
Normas:
 41
0.8
  7
SANINDUSA
 11
-89.0
 21
17.74927010445663
 31
0.0
100
AcDbText
 73
     2
  0
LINE
  5
BF2
330
B9E
100
AcDbEntity
  8
3
100
AcDbLine
 10
-90.0
 20
12.0
 30
0.0
 11
-90.0
 21
20.0
 31
0.0
  0
LINE
  5
BF3
330
B9E
100
AcDbEntity
  8
3
100
AcDbLine
 10
-110.546019464768
 20
12.0
 30
0.0
 11
-110.546019464768
 21
20.0
 31
0.0
  0
TEXT
  5
BF4
330
B9E
100
AcDbEntity
  8
1
100
AcDbText
 10
-109.6177520618648
 20
17.25
 30
0.0
 40
2.0
  1
Cor:
 41
0.8
  7
SANINDUSA
 11
-109.6177520618648
 21
18.25
 31
0.0
100
AcDbText
 73
     2
  0
LINE
  5
BF5
330
B9E
100
AcDbEntity
  8
leg fin
100
AcDbLine
 10
-91.42857142857156
 20
20.0
 30
0.0
 11
-91.42857142857156
 21
28.5
 31
0.0
  0
LINE
  5
BF6
330
B9E
100
AcDbEntity
  8
leg fin
100
AcDbLine
 10
-104.2857142857142
 20
20.0
 30
0.0
 11
-104.2857142857142
 21
28.5
 31
0.0
  0
LINE
  5
BF7
330
B9E
100
AcDbEntity
  8
leg fin
100
AcDbLine
 10
-117.1428571428573
 20
20.0
 30
0.0
 11
-117.1428571428573
 21
28.5
 31
0.0
  0
POINT
  5
BF8
330
B9E
100
AcDbEntity
  8
SANINDUSA
100
AcDbPoint
 10
-117.1428571428573
 20
28.5
 30
0.0
  0
POINT
  5
BF9
330
B9E
100
AcDbEntity
  8
SANINDUSA
100
AcDbPoint
 10
-104.2857142857142
 20
28.5
 30
0.0
  0
POINT
  5
BFA
330
B9E
100
AcDbEntity
  8
SANINDUSA
100
AcDbPoint
 10
-91.42857142857156
 20
28.5
 30
0.0
  0
TEXT
  5
BFB
330
B9E
100
AcDbEntity
  8
1
100
AcDbText
 10
-116.200160604496
 20
26.43288406845113
 30
0.0
 40
1.5
  1
Nº Seq.:
 41
0.8
  7
SANINDUSA
 11
-116.200160604496
 21
27.18288406845113
 31
0.0
100
AcDbText
 73
     2
  0
TEXT
  5
BFC
330
B9E
100
AcDbEntity
  8
1
100
AcDbText
 10
-103.2106584078738
 20
26.43288406845113
 30
0.0
 40
1.5
  1
Tipo:
 41
0.8
  7
SANINDUSA
 11
-103.2106584078738
 21
27.18288406845113
 31
0.0
100
AcDbText
 73
     2
  0
TEXT
  5
BFD
330
B9E
100
AcDbEntity
  8
1
100
AcDbText
 10
-90.22114672289353
 20
26.43288406845113
 30
0.0
 40
1.5
  1
Prod.:
 41
0.8
  7
SANINDUSA
 11
-90.22114672289353
 21
27.18288406845113
 31
0.0
100
AcDbText
 73
     2
  0
TEXT
  5
BFE
330
B9E
100
AcDbEntity
  8
1
100
AcDbText
 10
-64.77320576346574
 20
26.43288406845113
 30
0.0
 40
1.5
  1
Rev.:
 41
0.8
  7
SANINDUSA
 11
-64.77320576346574
 21
27.18288406845113
 31
0.0
100
AcDbText
 73
     2
  0
LINE
  5
BFF
330
B9E
100
AcDbEntity
  8
leg fin
100
AcDbLine
 10
-52.85714285714266
 20
20.0
 30
0.0
 11
-52.85714285714266
 21
28.5
 31
0.0
  0
LINE
  5
C00
330
B9E
100
AcDbEntity
  8
leg fin
100
AcDbLine
 10
-65.71428571428578
 20
20.0
 30
0.0
 11
-65.71428571428578
 21
28.5
 31
0.0
  0
LINE
  5
C01
330
B9E
100
AcDbEntity
  8
leg fin
100
AcDbLine
 10
-78.57142857142844
 20
20.0
 30
0.0
 11
-78.57142857142844
 21
28.5
 31
0.0
  0
POINT
  5
C02
330
B9E
100
AcDbEntity
  8
SANINDUSA
100
AcDbPoint
 10
-78.57142857142844
 20
28.5
 30
0.0
  0
POINT
  5
C03
330
B9E
100
AcDbEntity
  8
SANINDUSA
100
AcDbPoint
 10
-65.71428571428578
 20
28.5
 30
0.0
  0
POINT
  5
C04
330
B9E
100
AcDbEntity
  8
SANINDUSA
100
AcDbPoint
 10
-52.85714285714266
 20
28.5
 30
0.0
  0
TEXT
  5
C05
330
B9E
100
AcDbEntity
  8
1
100
AcDbText
 10
-77.61097961686573
 20
26.43288406845113
 30
0.0
 40
1.5
  1
Peça:
 41
0.8
  7
SANINDUSA
 11
-77.61097961686573
 21
27.18288406845113
 31
0.0
100
AcDbText
 73
     2
  0
TEXT
  5
C06
330
B9E
100
AcDbEntity
  8
1
100
AcDbText
 10
-52.06538060077036
 20
26.43288406845113
 30
0.0
 40
1.5
  1
Alt.:
 41
0.8
  7
SANINDUSA
 11
-52.06538060077036
 21
27.18288406845113
 31
0.0
100
AcDbText
 73
     2
  0
LINE
  5
C07
330
B9E
100
AcDbEntity
  8
3
100
AcDbLine
 10
0.0
 20
12.0
 30
0.0
 11
-40.0
 21
12.0
 31
0.0
  0
LINE
  5
C08
330
B9E
100
AcDbEntity
  8
3
100
AcDbLine
 10
-40.0
 20
32.5
 30
0.0
 11
0.0
 21
32.5
 31
0.0
  0
TEXT
  5
C09
330
B9E
100
AcDbEntity
  8
1
100
AcDbText
 10
-19.0
 20
29.75
 30
0.0
 40
2.0
  1
Folha:
 41
0.8
  7
SANINDUSA
 11
-19.0
 21
30.75
 31
0.0
100
AcDbText
 73
     2
  0
LINE
  5
C0A
330
B9E
100
AcDbEntity
  8
3
100
AcDbLine
 10
-20.0
 20
32.5
 30
0.0
 11
-20.0
 21
20.0
 31
0.0
  0
TEXT
  5
C0B
330
B9E
100
AcDbEntity
  8
1
100
AcDbText
 10
-39.0
 20
29.75
 30
0.0
 40
2.0
  1
Escala:
 41
0.8
  7
SANINDUSA
 11
-39.0
 21
30.75
 31
0.0
100
AcDbText
 73
     2
  0
TEXT
  5
C0C
330
B9E
100
AcDbEntity
  8
1
100
AcDbText
 10
-39.0
 20
17.25
 30
0.0
 40
2.0
  1
Substitui:
 41
0.8
  7
SANINDUSA
 11
-39.0
 21
18.25
 31
0.0
100
AcDbText
 73
     2
  0
LWPOLYLINE
  5
C0D
102
{ACAD_REACTORS
330
BEC
102
}
330
B9E
100
AcDbEntity
  8
9
100
AcDbPolyline
 90
        6
 70
     1
 43
0.0
 10
-2.638748516194482
 20
57.02796337120571
 10
-2.638748516194482
 20
55.50786840766477
 10
-5.21497371544865
 20
55.507868407665
 42
-0.4142135623730898
 10
-5.614973715448741
 20
55.90786840766487
 10
-5.614973715448741
 20
56.62796337120562
 42
-0.4142135623731576
 10
-5.21497371544865
 20
57.02796337120571
  0
LINE
  5
C0E
330
B9E
100
AcDbEntity
  8
3
100
AcDbLine
 10
-40.0
 20
50.0
 30
0.0
 11
0.0
 21
50.0
 31
0.0
  0
ATTDEF
  5
C0F
330
B9E
100
AcDbEntity
  8
1
100
AcDbText
 10
-31.30691739422431
 20
40.25
 30
0.0
 40
2.0
  1
XXXXXXXXXXXXXXX
 41
0.8
  7
SANINDUSA
 72
     4
 11
-20.0
 21
41.25
 31
0.0
100
AcDbAttributeDefinition
  3
Observações:
  2
OBS
 70
     0
  0
TEXT
  5
C10
330
B9E
100
AcDbEntity
  8
1
100
AcDbText
 10
-39.0
 20
47.25
 30
0.0
 40
2.0
  1
Observações:
 41
0.8
  7
SANINDUSA
 11
-39.0
 21
48.25
 31
0.0
100
AcDbText
 73
     2
  0
LWPOLYLINE
  5
C11
102
{ACAD_REACTORS
330
BEC
102
}
330
B9E
100
AcDbEntity
  8
9
100
AcDbPolyline
 90
        6
 70
     1
 43
0.0
 10
-29.98468712904878
 20
57.02796337120571
 10
-29.98468712904878
 20
55.507868407665
 10
-32.57692046803459
 20
55.507868407665
 42
-0.4142135623731731
 10
-32.97692046803468
 20
55.90786840766487
 10
-32.97692046803468
 20
56.62796337120562
 42
-0.4142135623731576
 10
-32.57692046803459
 20
57.02796337120571
  0
LWPOLYLINE
  5
C12
102
{ACAD_REACTORS
330
BEC
102
}
330
B9E
100
AcDbEntity
  8
9
100
AcDbPolyline
 90
        4
 70
     1
 43
0.0
 10
-24.19231812786165
 20
59.87619128370352
 10
-24.57637781922995
 20
59.87619128370352
 10
-24.57637781922995
 20
59.28412752246913
 10
-24.19231812786165
 20
59.28412752246913
  0
ENDBLK
  5
C14
330
B9E
100
AcDbEntity
  8
0
100
AcDbBlockEnd
  0
BLOCK
  5
1100
330
10B5
100
AcDbEntity
  8
0
100
AcDbBlockBegin
  2
105012PL
 70
     0
 10
0.0
 20
0.0
 30
0.0
  3
105012PL
  1

  0
LWPOLYLINE
  5
10B6
330
10B5
100
AcDbEntity
  8
BLOCKS
  6
Continuous
100
AcDbPolyline
 90
        5
 70
   128
 43
0.0
 10
0.1496451217250865
 20
-0.5370982428888738
 10
0.1489087779376632
 20
-0.5396062572132223
 10
0.1473793988180887
 20
-0.5417280079069542
 10
0.1452569596060016
 20
-0.5432035948892917
 10
0.143457226579244
 20
-0.5438012462240068
  0
LWPOLYLINE
  5
10B7
330
10B5
100
AcDbEntity
  8
BLOCKS
  6
Continuous
100
AcDbPolyline
 90
        3
 70
   128
 43
0.0
 10
0.1598394371048926
 20
-0.547081132522294
 10
0.1601950857785255
 20
-0.546215682265256
 10
0.1603483806937334
 20
-0.5458433283047271
  0
ARC
  5
10B8
330
10B5
100
AcDbEntity
  8
BLOCKS
  6
Continuous
100
AcDbCircle
 10
0.1505896284800769
 20
-0.5432808596940504
 30
0.0
 40
0.0100000000000004
100
AcDbArc
 50
287.6619774839518
 51
337.6626550566499
  0
LINE
  5
10B9
330
10B5
100
AcDbEntity
  8
BLOCKS
100
AcDbLine
 10
0.1639279988177122
 20
-0.5192606871028147
 30
0.0
 11
0.1610276818289549
 21
-0.5432351778852081
 31
0.0
  0
LINE
  5
10BA
330
10B5
100
AcDbEntity
  8
BLOCKS
  6
Continuous
100
AcDbLine
 10
-0.1300040120156041
 20
0.0
 30
0.0
 11
0.0
 21
0.0
 31
0.0
  0
LWPOLYLINE
  5
10BB
330
10B5
100
AcDbEntity
  8
BLOCKS
  6
Continuous
100
AcDbPolyline
 90
       11
 70
   128
 43
0.0
 10
-0.1611452460351188
 20
-0.1006774795062029
 10
-0.1478113343031282
 20
-0.096771725720032
 10
-0.1410774142751734
 20
-0.0949956579601121
 10
-0.1275211299443413
 20
-0.091775813058689
 10
-0.1138718011227411
 20
-0.0889526513263945
 10
-0.1001423082391284
 20
-0.0864943096419211
 10
-0.0863498776907363
 20
-0.0843846417334362
 10
-0.058623684853842
 20
-0.0811445443007415
 10
-0.0391215194775327
 20
-0.0796203462375615
 10
-0.0195702199661128
 20
-0.0787017064402562
 10
0.0
 20
-0.0783826454393193
  0
ARC
  5
10BC
330
10B5
100
AcDbEntity
  8
BLOCKS
  6
Continuous
100
AcDbCircle
 10
0.0117243558270275
 20
-0.3804860843374627
 30
0.0
 40
0.2108000000000001
100
AcDbArc
 50
93.18834404650955
 51
113.183968497173
  0
LWPOLYLINE
  5
10BD
330
10B5
100
AcDbEntity
  8
BLOCKS
  6
Continuous
100
AcDbPolyline
 90
        9
 70
   128
 43
0.0
 10
-0.0232293569613376
 20
-0.2869797018081499
 10
-0.0262812655332141
 20
-0.288021627456942
 10
-0.029117042944165
 20
-0.2895566796953517
 10
-0.0316516430295906
 20
-0.2915514783871913
 10
-0.0338180307257972
 20
-0.2939413405587174
 10
-0.0355503998490576
 20
-0.2966556409234044
 10
-0.0368191618177321
 20
-0.29961574476647
 10
-0.0375627950730291
 20
-0.3025576515460671
 10
-0.037865583566429
 20
-0.3055774211580911
  0
LWPOLYLINE
  5
10BE
330
10B5
100
AcDbEntity
  8
BLOCKS
  6
Continuous
100
AcDbPolyline
 90
       12
 70
   128
 43
0.0
 10
-0.0381307268035016
 20
-0.3178216322115759
 10
-0.0376853103514918
 20
-0.3228438357951973
 10
-0.0366137111876128
 20
-0.3277879215972916
 10
-0.0349394169517154
 20
-0.3325192873447804
 10
-0.032669086351973
 20
-0.3370084926016261
 10
-0.0298281758977055
 20
-0.3411788659625472
 10
-0.0264908314410946
 20
-0.3449166669844317
 10
-0.022662658318211
 20
-0.3482121506365274
 10
-0.0184612430373363
 20
-0.3509615497551977
 10
-0.0139414233645425
 20
-0.3531386412552138
 10
-0.0070862426139797
 20
-0.3552008391525305
 10
-0.0000000013333761
 20
-0.3559904489574137
  0
LINE
  5
10BF
330
10B5
100
AcDbEntity
  8
BLOCKS
  6
Continuous
100
AcDbLine
 10
-0.037865583566429
 20
-0.3055774211579774
 30
0.0
 11
-0.0381307268035016
 21
-0.3156361127529408
 31
0.0
  0
LINE
  5
10C0
330
10B5
100
AcDbEntity
  8
BLOCKS
  6
Continuous
100
AcDbLine
 10
-0.0381307268035016
 20
-0.3156361127529408
 30
0.0
 11
-0.0381307268035016
 21
-0.3178214465687006
 31
0.0
  0
ARC
  5
10C1
330
10B5
100
AcDbEntity
  8
BLOCKS
  6
Continuous
100
AcDbCircle
 10
-0.0318959109052344
 20
-0.2786336797011017
 30
0.0
 40
0.1
100
AcDbArc
 50
113.183968497173
 51
183.1454532085505
  0
LINE
  5
10C2
330
10B5
100
AcDbEntity
  8
BLOCKS
  6
Continuous
100
AcDbLine
 10
-0.1611787625420789
 20
-0.1007913040780295
 30
0.0
 11
-0.1319225663842189
 21
-0.0014350671415286
 31
0.0
  0
ARC
  5
10C3
330
10B5
100
AcDbEntity
  8
BLOCKS
  6
Continuous
100
AcDbCircle
 10
-0.0029900738309152
 20
-0.7240065173557469
 30
0.0
 40
0.6420000000000003
100
AcDbArc
 50
104.3954951160953
 51
107.9679236891334
  0
LINE
  5
10C4
330
10B5
100
AcDbEntity
  8
BLOCKS
  6
Continuous
100
AcDbLine
 10
-0.2012127935846024
 20
-0.1133759677193211
 30
0.0
 11
-0.2012893044276325
 21
-0.1133991024444185
 31
0.0
  0
LINE
  5
10C5
330
10B5
100
AcDbEntity
  8
BLOCKS
  6
Continuous
100
AcDbLine
 10
-0.2066584887482463
 20
-0.1151689554683344
 30
0.0
 11
-0.2010371286892223
 21
-0.1133172640837756
 31
0.0
  0
LINE
  5
10C6
330
10B5
100
AcDbEntity
  8
BLOCKS
  6
Continuous
100
AcDbLine
 10
-0.2012594070006912
 20
-0.1133893948867808
 30
0.0
 11
-0.2012893044276325
 21
-0.1133991024444185
 31
0.0
  0
LWPOLYLINE
  5
10C7
330
10B5
100
AcDbEntity
  8
BLOCKS
  6
Continuous
100
AcDbPolyline
 90
        3
 70
   128
 43
0.0
 10
-0.2086195307808225
 20
-0.1158284789210029
 10
-0.2076576356267878
 20
-0.1155041022838077
 10
-0.2066584887481895
 20
-0.1151689554683344
  0
ARC
  5
10C8
330
10B5
100
AcDbEntity
  8
BLOCKS
  6
Continuous
100
AcDbCircle
 10
-0.2081700535915161
 20
-0.1177877648369758
 30
0.0
 40
0.0019999999999999
100
AcDbArc
 50
108.6988331122538
 51
173.7291003452083
  0
LINE
  5
10C9
330
10B5
100
AcDbEntity
  8
BLOCKS
  6
Continuous
100
AcDbLine
 10
-0.2004201596710118
 20
-0.1152197228167324
 30
0.0
 11
-0.2010371286892223
 21
-0.1133172640837756
 31
0.0
  0
ARC
  5
10CA
330
10B5
100
AcDbEntity
  8
BLOCKS
  6
Continuous
100
AcDbCircle
 10
-0.1630973169107506
 20
-0.1002263712198328
 30
0.0
 40
0.0020000000000001
100
AcDbArc
 50
284.3954951160954
 51
338.4937112215498
  0
LINE
  5
10CB
330
10B5
100
AcDbEntity
  8
BLOCKS
  6
Continuous
100
AcDbLine
 10
-0.1612365622402763
 20
-0.1009595779139545
 30
0.0
 11
-0.1611787625421357
 21
-0.1007913040783706
 31
0.0
  0
LINE
  5
10CC
330
10B5
100
AcDbEntity
  8
BLOCKS
  6
Continuous
100
AcDbLine
 10
-0.1611787625421357
 20
-0.1007913040783706
 30
0.0
 11
-0.1611032915927808
 21
-0.100534999072579
 31
0.0
  0
LINE
  5
10CD
330
10B5
100
AcDbEntity
  8
BLOCKS
  6
Continuous
100
AcDbLine
 10
-0.1611032915927808
 20
-0.100534999072579
 30
0.0
 11
-0.1608168583974816
 21
-0.0995622504532321
 31
0.0
  0
CIRCLE
  5
10CE
330
10B5
100
AcDbEntity
  8
BLOCKS
  6
Continuous
100
AcDbCircle
 10
-0.0800000000000409
 20
-0.1150000000000091
 30
0.0
 40
0.0075
  0
ARC
  5
10CF
330
10B5
100
AcDbEntity
  8
BLOCKS
  6
Continuous
100
AcDbCircle
 10
-0.1300040120156041
 20
-0.0020000000000664
 30
0.0
 40
0.0020000000000002
100
AcDbArc
 50
90.0
 51
163.5925357802351
  0
ARC
  5
10D0
330
10B5
100
AcDbEntity
  8
BLOCKS
  6
Continuous
100
AcDbCircle
 10
-0.0117243558270275
 20
-0.3804860843374627
 30
0.0
 40
0.2108000000000001
100
AcDbArc
 50
66.81603150282703
 51
86.81165595349046
  0
LINE
  5
10D1
330
10B5
100
AcDbEntity
  8
BLOCKS
  6
Continuous
100
AcDbLine
 10
0.037865583566429
 20
-0.3055774211579774
 30
0.0
 11
0.0381307268034448
 21
-0.3156361127529408
 31
0.0
  0
LWPOLYLINE
  5
10D2
330
10B5
100
AcDbEntity
  8
BLOCKS
  6
Continuous
100
AcDbPolyline
 90
       12
 70
   128
 43
0.0
 10
0.0381307268034448
 20
-0.3178216322115759
 10
0.0376853103514918
 20
-0.3228438357951973
 10
0.036613711187556
 20
-0.3277879215972916
 10
0.0349394169517154
 20
-0.3325192873447804
 10
0.032669086351973
 20
-0.3370084926016261
 10
0.0298281758977055
 20
-0.3411788659625472
 10
0.0264908314410377
 20
-0.3449166669844317
 10
0.022662658318211
 20
-0.3482121506365274
 10
0.0184612430372795
 20
-0.3509615497551977
 10
0.0139414233645425
 20
-0.3531386412552138
 10
0.0070862426139797
 20
-0.3552008391525305
 10
0.0000000013333761
 20
-0.3559904489574137
  0
LINE
  5
10D3
330
10B5
100
AcDbEntity
  8
BLOCKS
  6
Continuous
100
AcDbLine
 10
0.0
 20
-0.3559904489861765
 30
0.0
 11
0.0
 21
-0.3566045826997879
 31
0.0
  0
LINE
  5
10D4
330
10B5
100
AcDbEntity
  8
BLOCKS
  6
Continuous
100
AcDbLine
 10
0.0381307268034448
 20
-0.3156361127529408
 30
0.0
 11
0.0381307268034448
 21
-0.3178214465687006
 31
0.0
  0
ARC
  5
10D5
330
10B5
100
AcDbEntity
  8
BLOCKS
  6
Continuous
100
AcDbCircle
 10
0.0318959109051775
 20
-0.2786336797011017
 30
0.0
 40
0.1
100
AcDbArc
 50
356.8545467914495
 51
66.81603150282703
  0
LWPOLYLINE
  5
10D6
330
10B5
100
AcDbEntity
  8
BLOCKS
  6
Continuous
100
AcDbPolyline
 90
        9
 70
   128
 43
0.0
 10
0.0232293569612807
 20
-0.2869797018081499
 10
0.0262812655331573
 20
-0.288021627456942
 10
0.029117042944165
 20
-0.2895566796953517
 10
0.0316516430295906
 20
-0.2915514783871913
 10
0.0338180307257972
 20
-0.2939413405587174
 10
0.0355503998490576
 20
-0.2966556409234044
 10
0.0368191618177321
 20
-0.29961574476647
 10
0.0375627950729722
 20
-0.3025576515460671
 10
0.037865583566429
 20
-0.3055774211580911
  0
ARC
  5
10D7
330
10B5
100
AcDbEntity
  8
BLOCKS
  6
Continuous
100
AcDbCircle
 10
-0.0010000000000332
 20
-0.3840000000000145
 30
0.0
 40
0.1000000000000003
100
AcDbArc
 50
75.9780516709652
 51
89.42703265515639
  0
ARC
  5
10D8
330
10B5
100
AcDbEntity
  8
BLOCKS
  6
Continuous
100
AcDbCircle
 10
0.0009999999999764
 20
-0.3840000000000145
 30
0.0
 40
0.1000000000000003
100
AcDbArc
 50
90.57296734486966
 51
104.0219483290348
  0
ARC
  5
10D9
330
10B5
100
AcDbEntity
  8
BLOCKS
  6
Continuous
100
AcDbCircle
 10
0.0029900738308584
 20
-0.7240065173557469
 30
0.0
 40
0.6420000000000003
100
AcDbArc
 50
72.03207631086654
 51
75.60450488390464
  0
LINE
  5
10DA
330
10B5
100
AcDbEntity
  8
BLOCKS
  6
Continuous
100
AcDbLine
 10
0.1611787625421925
 20
-0.1007913040785979
 30
0.0
 11
0.1611452460351188
 21
-0.1006774795062029
 31
0.0
  0
LWPOLYLINE
  5
10DB
330
10B5
100
AcDbEntity
  8
BLOCKS
  6
Continuous
100
AcDbPolyline
 90
       11
 70
   128
 43
0.0
 10
0.1611452460351188
 20
-0.1006774795062029
 10
0.1478113343030714
 20
-0.096771725720032
 10
0.1410774142751734
 20
-0.0949956579601121
 10
0.1275211299443413
 20
-0.091775813058689
 10
0.1138718011227411
 20
-0.0889526513263945
 10
0.1001423082391284
 20
-0.0864943096419211
 10
0.0863498776907363
 20
-0.0843846417334362
 10
0.058623684853842
 20
-0.0811445443007415
 10
0.0391215194775327
 20
-0.0796203462375615
 10
0.0195702199661128
 20
-0.0787017064402562
 10
0.0
 20
-0.0783826454393193
  0
CIRCLE
  5
10DC
330
10B5
100
AcDbEntity
  8
BLOCKS
  6
Continuous
100
AcDbCircle
 10
0.0799999999999841
 20
-0.1150000000000091
 30
0.0
 40
0.0075000000000001
  0
ARC
  5
10DD
330
10B5
100
AcDbEntity
  8
BLOCKS
  6
Continuous
100
AcDbCircle
 10
0.1630973169107506
 20
-0.1002263712198328
 30
0.0
 40
0.0020000000000001
100
AcDbArc
 50
201.5062887784502
 51
255.6045048839046
  0
LINE
  5
10DE
330
10B5
100
AcDbEntity
  8
BLOCKS
  6
Continuous
100
AcDbLine
 10
0.1612365622402194
 20
-0.1009595779139545
 30
0.0
 11
0.1611787625421357
 21
-0.1007913040783706
 31
0.0
  0
LINE
  5
10DF
330
10B5
100
AcDbEntity
  8
BLOCKS
  6
Continuous
100
AcDbLine
 10
0.1611787625421357
 20
-0.1007913040783706
 30
0.0
 11
0.1611032915927808
 21
-0.100534999072579
 31
0.0
  0
LINE
  5
10E0
330
10B5
100
AcDbEntity
  8
BLOCKS
  6
Continuous
100
AcDbLine
 10
0.1611032915927808
 20
-0.100534999072579
 30
0.0
 11
0.1608168583974248
 21
-0.0995622504532321
 31
0.0
  0
LINE
  5
10E1
330
10B5
100
AcDbEntity
  8
BLOCKS
  6
Continuous
100
AcDbLine
 10
0.1300040120155472
 20
0.0
 30
0.0
 11
0.0
 21
0.0
 31
0.0
  0
ARC
  5
10E2
330
10B5
100
AcDbEntity
  8
BLOCKS
  6
Continuous
100
AcDbCircle
 10
0.1300040120155472
 20
-0.0020000000000664
 30
0.0
 40
0.0020000000000002
100
AcDbArc
 50
16.40746421974116
 51
90.0
  0
LINE
  5
10E3
330
10B5
100
AcDbEntity
  8
BLOCKS
  6
Continuous
100
AcDbLine
 10
0.2012594826327358
 20
-0.1133894194441609
 30
0.0
 11
0.2012893044275756
 21
-0.1133991024444185
 31
0.0
  0
LINE
  5
10E4
330
10B5
100
AcDbEntity
  8
BLOCKS
  6
Continuous
100
AcDbLine
 10
0.2012245997435684
 20
-0.1133793164000281
 30
0.0
 11
0.2012893044275756
 21
-0.1133991024444185
 31
0.0
  0
LINE
  5
10E5
330
10B5
100
AcDbEntity
  8
BLOCKS
  6
Continuous
100
AcDbLine
 10
0.2066584887481895
 20
-0.1151689554683344
 30
0.0
 11
0.2010371286892223
 21
-0.1133172640837756
 31
0.0
  0
LINE
  5
10E6
330
10B5
100
AcDbEntity
  8
BLOCKS
  6
Continuous
100
AcDbLine
 10
0.2004201596709549
 20
-0.1152197228167324
 30
0.0
 11
0.2010371286892223
 21
-0.1133172640837756
 31
0.0
  0
ARC
  5
10E7
330
10B5
100
AcDbEntity
  8
BLOCKS
  6
Continuous
100
AcDbCircle
 10
0.2081700535915161
 20
-0.1177877648369758
 30
0.0
 40
0.0019999999999999
100
AcDbArc
 50
5.712841103959533
 51
71.30116688780102
  0
LINE
  5
10E8
330
10B5
100
AcDbEntity
  8
BLOCKS
100
AcDbLine
 10
0.2088112409907126
 20
-0.1158933312226509
 30
0.0
 11
0.2068960690245944
 21
-0.1152833686282975
 31
0.0
  0
LWPOLYLINE
  5
10E9
330
10B5
100
AcDbEntity
  8
BLOCKS
  6
Continuous
100
AcDbPolyline
 90
        5
 70
   128
 43
0.0
 10
-0.2004201596709549
 20
-0.1152197228167324
 10
-0.1875604725274797
 20
-0.2206688944675079
 10
-0.1748621798655563
 20
-0.3261379655590417
 10
-0.1622353960123064
 20
-0.4316159141623075
 10
-0.1496451217250865
 20
-0.5370982428888738
  0
LWPOLYLINE
  5
10EA
330
10B5
100
AcDbEntity
  8
BLOCKS
  6
Continuous
100
AcDbPolyline
 90
        5
 70
   128
 43
0.0
 10
0.2004201596709549
 20
-0.1152197228167324
 10
0.1875604725274229
 20
-0.2206688944675079
 10
0.1748621798655563
 20
-0.3261379655590417
 10
0.1622353960123064
 20
-0.4316159141623075
 10
0.1496451217250865
 20
-0.5370982428888738
  0
LWPOLYLINE
  5
10EB
330
10B5
100
AcDbEntity
  8
BLOCKS
  6
Continuous
100
AcDbPolyline
 90
       10
 70
   128
 43
0.0
 10
-0.2101580867134203
 20
-0.117569305902407
 10
-0.2085603618766072
 20
-0.1335554974364186
 10
-0.2056601411611041
 20
-0.1615922793292839
 10
-0.2017053635040611
 20
-0.1982070219362413
 10
-0.1963654537340744
 20
-0.2457810617938776
 10
-0.1896216105909616
 20
-0.3039583646867641
 10
-0.183537419883919
 20
-0.3554689074051112
 10
-0.1770876762763578
 20
-0.4096205826783717
 10
-0.1698643367357704
 20
-0.4698996909199878
 10
-0.1620659381177916
 20
-0.5347262780416031
  0
LWPOLYLINE
  5
10EC
330
10B5
100
AcDbEntity
  8
BLOCKS
  6
Continuous
100
AcDbPolyline
 90
       10
 70
   128
 43
0.0
 10
0.1639279988177122
 20
-0.5192606871028147
 10
0.1717248330998586
 20
-0.4544021056923384
 10
0.1788625013937235
 20
-0.3947557946310098
 10
0.185406300019622
 20
-0.3397014193376435
 10
0.1914502689884898
 20
-0.2883338176649204
 10
0.1976716643574718
 20
-0.2342962583123835
 10
0.2033533673978809
 20
-0.1831373827325251
 10
0.2071419822781308
 20
-0.14740113029859
 10
0.2098420945621342
 20
-0.1208213272253715
 10
0.2101601201624703
 20
-0.1175886793197378
  0
LWPOLYLINE
  5
10ED
330
10B5
100
AcDbEntity
  8
BLOCKS
  6
Continuous
100
AcDbPolyline
 90
        4
 70
   128
 43
0.0
 10
0.1317452564011319
 20
-0.2841207740169693
 10
0.1311964475287368
 20
-0.2941057031019909
 10
0.1289994791315507
 20
-0.3340453241777368
 10
0.122095834017216
 20
-0.459374404742789
  0
LWPOLYLINE
  5
10EE
330
10B5
100
AcDbEntity
  8
BLOCKS
  6
Continuous
100
AcDbPolyline
 90
        6
 70
   128
 43
0.0
 10
-0.1317452564011887
 20
-0.2841207740169693
 10
-0.1311964475287368
 20
-0.2941057031019909
 10
-0.1300982792037075
 20
-0.3140755310045051
 10
-0.1289994791315507
 20
-0.3340453241777368
 10
-0.1255487233934218
 20
-0.3967099231637121
 10
-0.122095834003062
 20
-0.4593744050008582
  0
LWPOLYLINE
  5
10EF
330
10B5
100
AcDbEntity
  8
BLOCKS
  6
Continuous
100
AcDbPolyline
 90
       12
 70
   128
 43
0.0
 10
-0.1535849759051757
 20
-0.5528217136287595
 10
-0.1412359488827519
 20
-0.5553433017971657
 10
-0.1263184776890966
 20
-0.5580976900358792
 10
-0.11115715918163
 20
-0.5605874116517953
 10
-0.0959405626809371
 20
-0.5627648640771668
 10
-0.0808740270746285
 20
-0.5645974509918688
 10
-0.0659031039631941
 20
-0.5661070713076697
 10
-0.050661168033173
 20
-0.5673313805557428
 10
-0.0353578870582965
 20
-0.5682471478301068
 10
-0.0200091997803611
 20
-0.5688535275263576
 10
-0.0046320071650712
 20
-0.5691504793725244
 10
0.0000000051389293
 20
-0.5691526751054426
  0
LWPOLYLINE
  5
10F0
330
10B5
100
AcDbEntity
  8
BLOCKS
  6
Continuous
100
AcDbPolyline
 90
        9
 70
   128
 43
0.0
 10
-0.1434572265793008
 20
-0.5438012462240068
 10
-0.1258355426022604
 20
-0.5471733778977069
 10
-0.1081354600907503
 20
-0.5501063111220219
 10
-0.0903236766270084
 20
-0.552603736858714
 10
-0.0724551757624568
 20
-0.5546564039833584
 10
-0.054405320769888
 20
-0.5562733523603356
 10
-0.0363205497264403
 20
-0.5574364704159507
 10
-0.0181663308508178
 20
-0.5581460985370086
 10
0.0
 20
-0.5583984048442972
  0
LWPOLYLINE
  5
10F1
330
10B5
100
AcDbEntity
  8
BLOCKS
  6
Continuous
100
AcDbPolyline
 90
        5
 70
   128
 43
0.0
 10
-0.0775564537202627
 20
-0.5063322713971275
 10
-0.0676062159173512
 20
-0.5073316971357827
 10
-0.0476625787796365
 20
-0.5088642912525075
 10
-0.0276612941455028
 20
-0.5097741430967063
 10
0.0
 20
-0.5100021655798628
  0
LWPOLYLINE
  5
10F2
330
10B5
100
AcDbEntity
  8
BLOCKS
  6
Continuous
100
AcDbPolyline
 90
        5
 70
   128
 43
0.0
 10
-0.1496451217250865
 20
-0.5370982428888738
 10
-0.1489087779377201
 20
-0.5396062572132223
 10
-0.1473793988181455
 20
-0.5417280079069542
 10
-0.1452569596060016
 20
-0.5432035948892917
 10
-0.1434572265793008
 20
-0.5438012462240068
  0
ARC
  5
10F3
330
10B5
100
AcDbEntity
  8
BLOCKS
  6
Continuous
100
AcDbCircle
 10
-0.1505896284801338
 20
-0.5432808596940504
 30
0.0
 40
0.0100000000000004
100
AcDbArc
 50
202.3373449433501
 51
252.5703391682394
  0
ARC
  5
10F4
330
10B5
100
AcDbEntity
  8
BLOCKS
  6
Continuous
100
AcDbCircle
 10
-0.1510992254054599
 20
-0.5420411288715741
 30
0.0
 40
0.0099999999999999
100
AcDbArc
 50
186.8577590013254
 51
202.3534277021922
  0
LINE
  5
10F5
330
10B5
100
AcDbEntity
  8
BLOCKS
  6
Continuous
100
AcDbLine
 10
-0.1603484008729765
 20
-0.5458428062228223
 30
0.0
 11
-0.1598392504331514
 21
-0.5470814509278626
 31
0.0
  0
LINE
  5
10F6
330
10B5
100
AcDbEntity
  8
BLOCKS
100
AcDbLine
 10
-0.1610263017489615
 20
-0.5432414353140303
 30
0.0
 11
-0.1620659381177916
 21
-0.5347262780416031
 31
0.0
  0
ARC
  5
10F7
330
10B5
100
AcDbEntity
  8
BLOCKS
  6
Continuous
100
AcDbCircle
 10
-0.0721715890197743
 20
-0.4566230847998441
 30
0.0
 40
0.05
100
AcDbArc
 50
183.1543736160922
 51
263.8174083975882
  0
LWPOLYLINE
  5
10F8
330
10B5
100
AcDbEntity
  8
BLOCKS
  6
Continuous
100
AcDbPolyline
 90
        9
 70
   128
 43
0.0
 10
0.143457226579244
 20
-0.5438012462240068
 10
0.1258355426022604
 20
-0.5471733778977069
 10
0.1081354600907503
 20
-0.5501063111220219
 10
0.0903236766269515
 20
-0.552603736858714
 10
0.0724551757624568
 20
-0.5546564039833584
 10
0.054405320769888
 20
-0.5562733523603356
 10
0.0363205497263834
 20
-0.5574364704159507
 10
0.0181663308508178
 20
-0.5581460985370086
 10
0.0
 20
-0.5583984048442972
  0
LWPOLYLINE
  5
10F9
330
10B5
100
AcDbEntity
  8
BLOCKS
  6
Continuous
100
AcDbPolyline
 90
       13
 70
   128
 43
0.0
 10
-0.0000006800684673
 20
-0.5691778158343368
 10
0.0001932802061901
 20
-0.5691787322754181
 10
0.014195130543726
 20
-0.5690022105477511
 10
0.0295798874067828
 20
-0.5685119380744937
 10
0.0449482185628654
 20
-0.567709800301941
 10
0.0602818939503322
 20
-0.5665950958672284
 10
0.075563802707336
 20
-0.5651680004255013
 10
0.0907789353211683
 20
-0.5634290083502265
 10
0.1057927640963499
 20
-0.5613921719593691
 10
0.1206759618547153
 20
-0.5590611415213971
 10
0.135745672069504
 20
-0.556391737894046
 10
0.1508360649850147
 20
-0.5534141462153457
 10
0.153623636386385
 20
-0.5528094900271299
  0
ARC
  5
10FA
330
10B5
100
AcDbEntity
  8
BLOCKS
  6
Continuous
100
AcDbCircle
 10
0.0721715890197174
 20
-0.4566230847998441
 30
0.0
 40
0.05
100
AcDbArc
 50
276.1825916024118
 51
356.8456263839078
  0
LWPOLYLINE
  5
10FB
330
10B5
100
AcDbEntity
  8
BLOCKS
  6
Continuous
100
AcDbPolyline
 90
        5
 70
   128
 43
0.0
 10
0.077556453720149
 20
-0.5063322713971275
 10
0.0676062159173512
 20
-0.5073316971357827
 10
0.0476625787795797
 20
-0.5088642912525075
 10
0.0276612941455028
 20
-0.5097741430967063
 10
0.0
 20
-0.5100021655798628
  0
ARC
  5
10FC
330
10B5
100
AcDbEntity
  8
BLOCKS
  6
Continuous
100
AcDbCircle
 10
0.1510992254054599
 20
-0.5420411288715741
 30
0.0
 40
0.01
100
AcDbArc
 50
337.6465722978078
 51
353.1422409986746
  0
LINE
  5
10FD
330
10B5
100
AcDbEntity
  8
BLOCKS
100
AcDbLine
 10
0.1319018894438386
 20
-0.0015085176573848
 30
0.0
 11
0.1608168583974248
 21
-0.0995622504532321
 31
0.0
  0
LINE
  5
10FE
330
10B5
100
AcDbEntity
  8
BLOCKS
100
AcDbLine
 10
-0.2088112409907126
 20
-0.1158933312226509
 30
0.0
 11
-0.2086195307808225
 21
-0.1158284789208892
 31
0.0
  0
LINE
  5
10FF
330
10B5
100
AcDbEntity
  8
BLOCKS
100
AcDbLine
 10
0.2066584887481895
 20
-0.1151689554683344
 30
0.0
 11
0.2068960690245944
 21
-0.1152833686282975
 31
0.0
  0
ENDBLK
  5
1101
330
10B5
100
AcDbEntity
  8
0
100
AcDbBlockEnd
  0
BLOCK
  5
118E
330
1106
100
AcDbEntity
  8
0
100
AcDbBlockBegin
  2
105012CT
 70
     0
 10
0.0
 20
0.0
 30
0.0
  3
105012CT
  1

  0
LINE
  5
1107
330
1106
100
AcDbEntity
  8
BLOCKS
  6
Continuous
100
AcDbLine
 10
0.28439512873274
 20
0.4085644487764739
 30
0.0
 11
0.1821128991341538
 21
0.4085644487764739
 31
0.0
  0
LINE
  5
1108
330
1106
100
AcDbEntity
  8
BLOCKS
  6
Continuous
100
AcDbLine
 10
0.1821128991341538
 20
0.3585644487764057
 30
0.0
 11
0.28439512873274
 21
0.3585644487764057
 31
0.0
  0
LINE
  5
1109
330
1106
100
AcDbEntity
  8
BLOCKS
  6
Continuous
100
AcDbLine
 10
0.3311441152148404
 20
0.0
 30
0.0
 11
0.1067479987199817
 21
0.0
 31
0.0
  0
LWPOLYLINE
  5
110A
330
1106
100
AcDbEntity
  8
BLOCKS
  6
Continuous
100
AcDbPolyline
 90
       11
 70
   128
 43
0.0
 10
0.2270822895219453
 20
0.2316155775180277
 10
0.2209111979967133
 20
0.2463418545795548
 10
0.2135330672188047
 20
0.2605018704995246
 10
0.2134766744856051
 20
0.2605998223447159
 10
0.204999130128158
 20
0.2739969218233682
 10
0.1999592353010939
 20
0.2809332341392974
 10
0.1946103441625269
 20
0.2876341071403203
 10
0.1872223732241878
 20
0.2959534904886141
 10
0.1793199650427937
 20
0.3038426906480254
 10
0.1710123403124726
 20
0.3111841228204639
 10
0.1623286178538024
 20
0.3186288890581181
  0
LWPOLYLINE
  5
110B
330
1106
100
AcDbEntity
  8
BLOCKS
  6
Continuous
100
AcDbPolyline
 90
        5
 70
   128
 43
0.0
 10
0.093203862601456
 20
0.2305525652986944
 10
0.1225638357079788
 20
0.2299661148816767
 10
0.1519253183730598
 20
0.2294536826806279
 10
0.1885643527793377
 20
0.2290307678564432
 10
0.2252081835545141
 20
0.2289203310800758
  0
LINE
  5
110C
330
1106
100
AcDbEntity
  8
BLOCKS
  6
Continuous
100
AcDbLine
 10
0.2027282614578212
 20
0.0598762983375991
 30
0.0
 11
0.1830778876838508
 21
0.1300551453458638
 31
0.0
  0
LWPOLYLINE
  5
110D
330
1106
100
AcDbEntity
  8
BLOCKS
  6
Continuous
100
AcDbPolyline
 90
        5
 70
   128
 43
0.0
 10
0.0930000000000178
 20
0.2205522518402176
 10
0.1323582462239869
 20
0.2197791625377476
 10
0.1717201244536
 20
0.2191841427087411
 10
0.2016134779721028
 20
0.2189564755129822
 10
0.2315090347792648
 20
0.2189230121645096
  0
LINE
  5
110E
330
1106
100
AcDbEntity
  8
BLOCKS
  6
Continuous
100
AcDbLine
 10
0.2123607885294518
 20
0.0625689083825591
 30
0.0
 11
0.1906475136534027
 21
0.1401151481184115
 31
0.0
  0
LWPOLYLINE
  5
110F
330
1106
100
AcDbEntity
  8
BLOCKS
  6
Continuous
100
AcDbPolyline
 90
       16
 70
   128
 43
0.0
 10
0.2379394487462605
 20
0.2309590890555455
 10
0.2338317546414146
 20
0.2418040295106039
 10
0.2291016594855364
 20
0.2524029816225948
 10
0.2237740447315559
 20
0.2627036922949628
 10
0.2176638705681171
 20
0.2729900698814163
 10
0.2109465591904609
 20
0.2829034433055995
 10
0.2036549390448386
 20
0.2923886839741954
 10
0.193942602857021
 20
0.3033998458070073
 10
0.183432075439498
 20
0.3136512448944586
 10
0.1759933162745142
 20
0.3201443677085081
 10
0.1685513823416045
 20
0.3266339750786074
 10
0.1614579945901937
 20
0.3334814912581123
 10
0.1561682670840696
 20
0.3393330649594191
 10
0.1511869349026256
 20
0.345449236669765
 10
0.1464810101330158
 20
0.3518871271505759
 10
0.1421215549039516
 20
0.3585644487764057
  0
LINE
  5
1110
330
1106
100
AcDbEntity
  8
BLOCKS
  6
Continuous
100
AcDbLine
 10
0.0
 20
0.3325644487764521
 30
0.0
 11
0.0
 21
0.0099999999999909
 31
0.0
  0
LINE
  5
1111
330
1106
100
AcDbEntity
  8
BLOCKS
  6
Continuous
100
AcDbLine
 10
0.0010000000000332
 20
0.0
 30
0.0
 11
0.1059999999999945
 21
0.0
 31
0.0
  0
LINE
  5
1112
330
1106
100
AcDbEntity
  8
BLOCKS
  6
Continuous
100
AcDbLine
 10
0.0
 20
0.0099999999999909
 30
0.0
 11
0.105836759966337
 21
0.0099999999999909
 31
0.0
  0
LINE
  5
1113
330
1106
100
AcDbEntity
  8
BLOCKS
  6
Continuous
100
AcDbLine
 10
0.0
 20
0.0099999999999909
 30
0.0
 11
0.0
 21
0.0009999999999764
 31
0.0
  0
LWPOLYLINE
  5
1114
330
1106
100
AcDbEntity
  8
BLOCKS
  6
Continuous
100
AcDbPolyline
 90
        9
 70
   128
 43
0.0
 10
0.0010000000000332
 20
-0.0000000000001137
 10
0.0008049096780383
 20
0.0000192147194866
 10
0.0006173165676842
 20
0.0000761204673836
 10
0.0004444297670148
 20
0.0001685303876684
 10
0.0002928932188411
 20
0.0002928932187842
 10
0.0001685303877252
 20
0.0004444297669579
 10
0.0000761204674973
 20
0.0006173165675136
 10
0.0000192147196572
 20
0.0008049096778677
 10
0.0000000000000568
 20
0.0009999999999764
  0
LINE
  5
1115
330
1106
100
AcDbEntity
  8
BLOCKS
  6
Continuous
100
AcDbLine
 10
0.1583202353028241
 20
0.1257558725264971
 30
0.0
 11
0.1350405377438619
 21
0.0698012564637338
 31
0.0
  0
LINE
  5
1116
330
1106
100
AcDbEntity
  8
BLOCKS
  6
Continuous
100
AcDbLine
 10
0.1258077355069531
 20
0.0736425274583326
 30
0.0
 11
0.1491012021099323
 21
0.1296302385203489
 31
0.0
  0
LINE
  5
1117
330
1106
100
AcDbEntity
  8
BLOCKS
  6
Continuous
100
AcDbLine
 10
0.1059999999999945
 20
0.0
 30
0.0
 11
0.1350405377438619
 21
0.0698012564637338
 31
0.0
  0
LINE
  5
1118
330
1106
100
AcDbEntity
  8
BLOCKS
  6
Continuous
100
AcDbLine
 10
0.0998419756888325
 20
0.0112317458010694
 30
0.0
 11
0.1258077355069531
 21
0.0736425274583326
 31
0.0
  0
LINE
  5
1119
330
1106
100
AcDbEntity
  8
BLOCKS
  6
Continuous
100
AcDbLine
 10
0.1059999999999945
 20
0.0
 30
0.0
 11
0.105836759966337
 21
0.0099999999999909
 31
0.0
  0
LINE
  5
111A
330
1106
100
AcDbEntity
  8
BLOCKS
  6
Continuous
100
AcDbLine
 10
0.1059999999999945
 20
0.0
 30
0.0
 11
0.1067479987199817
 21
0.0
 31
0.0
  0
LWPOLYLINE
  5
111B
330
1106
100
AcDbEntity
  8
BLOCKS
  6
Continuous
100
AcDbPolyline
 90
        7
 70
   128
 43
0.0
 10
0.097995415241428
 20
0.0099999999999909
 10
0.0983850848436419
 20
0.0100383278557956
 10
0.0987598192455153
 20
0.0101518423988409
 10
0.0991052556809109
 20
0.0103361928599952
 10
0.0994081543119023
 20
0.010584313481445
 10
0.099656905683446
 20
0.0108866943315889
 10
0.0998419756888325
 20
0.0112317458009557
  0
LWPOLYLINE
  5
111C
330
1106
100
AcDbEntity
  8
BLOCKS
  6
Continuous
100
AcDbPolyline
 90
        7
 70
   128
 43
0.0
 10
0.1545671919761276
 20
0.1297151570603319
 10
0.1470130778223506
 20
0.1295977978334122
 10
0.1394590974584844
 20
0.1294714503100067
 10
0.1243514628227444
 20
0.1291968476886041
 10
0.116564471112099
 20
0.1290465488654036
 10
0.1087775579758272
 20
0.1288921093437239
 10
0.093203862601456
 20
0.1285763322540561
  0
LWPOLYLINE
  5
111D
330
1106
100
AcDbEntity
  8
BLOCKS
  6
Continuous
100
AcDbPolyline
 90
        5
 70
   128
 43
0.0
 10
0.1906475136534027
 20
0.1401151481184115
 10
0.182624102596435
 20
0.1400541624818743
 10
0.1746008010086371
 20
0.1399764711021589
 10
0.1337993420913222
 20
0.1393757468288186
 10
0.0930000000000178
 20
0.1385766457125328
  0
LINE
  5
111E
330
1106
100
AcDbEntity
  8
BLOCKS
  6
Continuous
100
AcDbLine
 10
0.0930000000000178
 20
0.1285721745948649
 30
0.0
 11
0.0930000000000178
 21
0.1385766457125328
 31
0.0
  0
LINE
  5
111F
330
1106
100
AcDbEntity
  8
BLOCKS
  6
Continuous
100
AcDbLine
 10
0.093203862601456
 20
0.1285763322540561
 30
0.0
 11
0.0930000000000178
 21
0.1285721745948649
 31
0.0
  0
LWPOLYLINE
  5
1120
330
1106
100
AcDbEntity
  8
BLOCKS
  6
Continuous
100
AcDbPolyline
 90
        4
 70
   128
 43
0.0
 10
0.1830778876838508
 20
0.1300551453458638
 10
0.1773003790339658
 20
0.1300013470340673
 10
0.1657455582353577
 20
0.1298696336103831
 10
0.1599682565749845
 20
0.1297928528765624
  0
ARC
  5
1121
330
1106
100
AcDbEntity
  8
BLOCKS
  6
Continuous
100
AcDbCircle
 10
0.1551717358576639
 20
0.1312047271657093
 30
0.0
 40
0.005
100
AcDbArc
 50
337.4104397824175
 51
343.598005088797
  0
LINE
  5
1122
330
1106
100
AcDbEntity
  8
BLOCKS
  6
Continuous
100
AcDbLine
 10
0.1597881369760898
 20
0.1292840916684099
 30
0.0
 11
0.1587832020250062
 21
0.1268686500925469
 31
0.0
  0
LINE
  5
1123
330
1106
100
AcDbEntity
  8
BLOCKS
  6
Continuous
100
AcDbLine
 10
0.1587832020250062
 20
0.1268686500925469
 30
0.0
 11
0.1545671919499227
 21
0.1297151570215647
 31
0.0
  0
LWPOLYLINE
  5
1124
330
1106
100
AcDbEntity
  8
BLOCKS
  6
Continuous
100
AcDbPolyline
 90
        3
 70
   128
 43
0.0
 10
0.0020001812076202
 20
0.4175643454435658
 10
0.0410067397976377
 20
0.4175643026960643
 10
0.0783826454392624
 20
0.4175643424588316
  0
LINE
  5
1125
330
1106
100
AcDbEntity
  8
BLOCKS
  6
Continuous
100
AcDbLine
 10
0.0
 20
0.3965644487764166
 30
0.0
 11
0.0300000000000296
 21
0.3980393401903939
 31
0.0
  0
LINE
  5
1126
330
1106
100
AcDbEntity
  8
BLOCKS
  6
Continuous
100
AcDbLine
 10
0.0
 20
0.3415644487764666
 30
0.0
 11
0.0289214462991367
 21
0.3392930848399374
 31
0.0
  0
LWPOLYLINE
  5
1127
330
1106
100
AcDbEntity
  8
BLOCKS
  6
Continuous
100
AcDbPolyline
 90
        5
 70
   128
 43
0.0
 10
0.0000000000000568
 20
0.3325644487763384
 10
0.0364463736225389
 20
0.3297175550710563
 10
0.0728905342991197
 20
0.3268421733502009
 10
0.1169854200102804
 20
0.3233298881535802
 10
0.1593539357436953
 20
0.3199251420911651
  0
LINE
  5
1128
330
1106
100
AcDbEntity
  8
BLOCKS
  6
Continuous
100
AcDbLine
 10
0.0
 20
0.3415644487764666
 30
0.0
 11
0.0
 21
0.3910682481293861
 31
0.0
  0
LINE
  5
1129
330
1106
100
AcDbEntity
  8
BLOCKS
  6
Continuous
100
AcDbLine
 10
0.0
 20
0.3325644487764521
 30
0.0
 11
0.0
 21
0.3415644487764666
 31
0.0
  0
LINE
  5
112A
330
1106
100
AcDbEntity
  8
BLOCKS
  6
Continuous
100
AcDbLine
 10
0.0
 20
0.3965644487764166
 30
0.0
 11
0.0
 21
0.4155643421795503
 31
0.0
  0
LINE
  5
112B
330
1106
100
AcDbEntity
  8
BLOCKS
  6
Continuous
100
AcDbLine
 10
0.0
 20
0.3910682481293861
 30
0.0
 11
0.0
 21
0.3965644487764166
 31
0.0
  0
LWPOLYLINE
  5
112C
330
1106
100
AcDbEntity
  8
BLOCKS
  6
Continuous
100
AcDbPolyline
 90
        6
 70
   128
 43
0.0
 10
0.0000000000000568
 20
0.4155643421795503
 10
0.0001127426992298
 20
0.4162263552569812
 10
0.0004382600354802
 20
0.4168137313866965
 10
0.0009398521568755
 20
0.417260247826107
 10
0.0015609675340329
 20
0.417515563067127
 10
0.0020001812076202
 20
0.4175643454435658
  0
LINE
  5
112D
330
1106
100
AcDbEntity
  8
BLOCKS
  6
Continuous
100
AcDbLine
 10
0.0930000000000178
 20
0.2305567229579992
 30
0.0
 11
0.093203862601456
 21
0.2305525652988081
 31
0.0
  0
LINE
  5
112E
330
1106
100
AcDbEntity
  8
BLOCKS
  6
Continuous
100
AcDbLine
 10
0.0930000000000178
 20
0.2205522518402176
 30
0.0
 11
0.0930000000000178
 21
0.2305567229579992
 31
0.0
  0
LINE
  5
112F
330
1106
100
AcDbEntity
  8
BLOCKS
  6
Continuous
100
AcDbLine
 10
0.1599975824140074
 20
0.3985644487763693
 30
0.0
 11
0.0406809609374932
 21
0.3985644487763693
 31
0.0
  0
LINE
  5
1130
330
1106
100
AcDbEntity
  8
BLOCKS
  6
Continuous
100
AcDbLine
 10
0.1650048102544588
 20
0.4085644487764739
 30
0.0
 11
0.0925913532508958
 21
0.4085644487764739
 31
0.0
  0
LWPOLYLINE
  5
1131
330
1106
100
AcDbEntity
  8
BLOCKS
  6
Continuous
100
AcDbPolyline
 90
        4
 70
   128
 43
0.0
 10
0.0409212621413531
 20
0.3383463959917208
 10
0.0549977856962301
 20
0.3372332019852138
 10
0.1032315273488962
 20
0.3334012793219472
 10
0.1514637026676269
 20
0.3295495736865632
  0
LINE
  5
1132
330
1106
100
AcDbEntity
  8
BLOCKS
  6
Continuous
100
AcDbLine
 10
0.0400000000000205
 20
0.33934329179624
 30
0.0
 11
0.0400000000000205
 21
0.3480644487764266
 31
0.0
  0
LINE
  5
1133
330
1106
100
AcDbEntity
  8
BLOCKS
  6
Continuous
100
AcDbLine
 10
0.0300000000000296
 20
0.3480644487764266
 30
0.0
 11
0.0300000000000296
 21
0.3402899950185656
 31
0.0
  0
LWPOLYLINE
  5
1134
330
1106
100
AcDbEntity
  8
BLOCKS
  6
Continuous
100
AcDbPolyline
 90
        6
 70
   128
 43
0.0
 10
0.0289214462991367
 20
0.3392930848398237
 10
0.0292558571309201
 20
0.339323280126564
 10
0.029561422011966
 20
0.3394624651205049
 10
0.0298036908592394
 20
0.3396949477806856
 10
0.0299553497264924
 20
0.3399945175184484
 10
0.0300000000000296
 20
0.3402899950184519
  0
LWPOLYLINE
  5
1135
330
1106
100
AcDbEntity
  8
BLOCKS
  6
Continuous
100
AcDbPolyline
 90
        6
 70
   128
 43
0.0
 10
0.0400000000000205
 20
0.33934329179624
 10
0.0400563712460667
 20
0.3390122859418625
 10
0.040219129572904
 20
0.3387185984859116
 10
0.0404699251763532
 20
0.3384953405403621
 10
0.0407804826421057
 20
0.3383676827619411
 10
0.0409212621413531
 20
0.3383463959917208
  0
ARC
  5
1136
330
1106
100
AcDbEntity
  8
BLOCKS
  6
Continuous
100
AcDbCircle
 10
0.0310000000000059
 20
0.3480644487764266
 30
0.0
 40
0.0010000000000001
100
AcDbArc
 50
90.0
 51
180.0
  0
LINE
  5
1137
330
1106
100
AcDbEntity
  8
BLOCKS
  6
Continuous
100
AcDbLine
 10
0.0390000000000441
 20
0.349064448776403
 30
0.0
 11
0.0310000000000059
 21
0.349064448776403
 31
0.0
  0
ARC
  5
1138
330
1106
100
AcDbEntity
  8
BLOCKS
  6
Continuous
100
AcDbCircle
 10
0.0390000000000441
 20
0.3480644487764266
 30
0.0
 40
0.0010000000000001
100
AcDbArc
 50
0.0
 51
90.0
  0
LINE
  5
1139
330
1106
100
AcDbEntity
  8
BLOCKS
  6
Continuous
100
AcDbLine
 10
0.0400000000000205
 20
0.3900644487764566
 30
0.0
 11
0.0400000000000205
 21
0.3985309706617954
 31
0.0
  0
LINE
  5
113A
330
1106
100
AcDbEntity
  8
BLOCKS
  6
Continuous
100
AcDbLine
 10
0.0300000000000296
 20
0.3980393401903939
 30
0.0
 11
0.0300000000000296
 21
0.3900644487764566
 31
0.0
  0
ARC
  5
113B
330
1106
100
AcDbEntity
  8
BLOCKS
  6
Continuous
100
AcDbCircle
 10
0.0390000000000441
 20
0.3900644487764566
 30
0.0
 40
0.0009999999999999
100
AcDbArc
 50
270.0
 51
0.0
  0
LINE
  5
113C
330
1106
100
AcDbEntity
  8
BLOCKS
  6
Continuous
100
AcDbLine
 10
0.0310000000000059
 20
0.3890644487763666
 30
0.0
 11
0.0390000000000441
 21
0.3890644487763666
 31
0.0
  0
ARC
  5
113D
330
1106
100
AcDbEntity
  8
BLOCKS
  6
Continuous
100
AcDbCircle
 10
0.0310000000000059
 20
0.3900644487764566
 30
0.0
 40
0.001
100
AcDbArc
 50
180.0
 51
270.0
  0
LINE
  5
113E
330
1106
100
AcDbEntity
  8
BLOCKS
  6
Continuous
100
AcDbLine
 10
0.0400000000000205
 20
0.3985309706617954
 30
0.0
 11
0.0406809609374932
 21
0.3985644487763693
 31
0.0
  0
ARC
  5
113F
330
1106
100
AcDbEntity
  8
BLOCKS
  6
Continuous
100
AcDbCircle
 10
0.0925913532508958
 20
0.4192806372969926
 30
0.0
 40
0.010716188520619
100
AcDbArc
 50
205.3011551902063
 51
270.0
  0
LWPOLYLINE
  5
1140
330
1106
100
AcDbEntity
  8
BLOCKS
  6
Continuous
100
AcDbPolyline
 90
        5
 70
   128
 43
0.0
 10
0.0783826454392624
 20
0.4175643424588316
 10
0.0800374435009985
 20
0.4172825388146748
 10
0.0815056835756991
 20
0.4164688961293451
 10
0.0826220608818744
 20
0.4152150326457332
 10
0.0829031265467961
 20
0.4147007945334736
  0
LINE
  5
1141
330
1106
100
AcDbEntity
  8
BLOCKS
  6
Continuous
100
AcDbLine
 10
0.1015802631107476
 20
0.4085791029818893
 30
0.0
 11
0.1016293488032716
 21
0.4085691413399673
 31
0.0
  0
LWPOLYLINE
  5
1142
330
1106
100
AcDbEntity
  8
BLOCKS
  6
Continuous
100
AcDbPolyline
 90
        9
 70
   128
 43
0.0
 10
0.1013105554220601
 20
0.4086060274501051
 10
0.1013342146852096
 20
0.4085963877556651
 10
0.1013583347850613
 20
0.4085879813670772
 10
0.1013828521668643
 20
0.4085808304346302
 10
0.1014077022291531
 20
0.4085749538003256
 10
0.1014328194939935
 20
0.4085703669488794
 10
0.1014581377791046
 20
0.4085670819661118
 10
0.1014835903728226
 20
0.408565107507684
 10
0.1015091102093493
 20
0.4085644487763603
  0
LINE
  5
1143
330
1106
100
AcDbEntity
  8
BLOCKS
  6
Continuous
100
AcDbLine
 10
0.101523604002125
 20
0.4085847591661605
 30
0.0
 11
0.1013105554220601
 21
0.4086060274502188
 31
0.0
  0
LWPOLYLINE
  5
1144
330
1106
100
AcDbEntity
  8
BLOCKS
  6
Continuous
100
AcDbPolyline
 90
        4
 70
   128
 43
0.0
 10
0.1013105554220601
 20
0.4086060274501051
 10
0.1012108636925859
 20
0.408604102687832
 10
0.1008336146832107
 20
0.4085929600695409
 10
0.1006960527100773
 20
0.4085883898628709
  0
LWPOLYLINE
  5
1145
330
1106
100
AcDbEntity
  8
BLOCKS
  6
Continuous
100
AcDbPolyline
 90
        3
 70
   128
 43
0.0
 10
0.1006494539363985
 20
0.4085664283073811
 10
0.1006644328937796
 20
0.4085647000785002
 10
0.1006731088787092
 20
0.4085644487763603
  0
LINE
  5
1146
330
1106
100
AcDbEntity
  8
BLOCKS
  6
Continuous
100
AcDbLine
 10
0.1700123817510075
 20
0.4035644487764785
 30
0.0
 11
0.1700123817510075
 21
0.3635644487764011
 31
0.0
  0
LINE
  5
1147
330
1106
100
AcDbEntity
  8
BLOCKS
  6
Continuous
100
AcDbLine
 10
0.1599975824140074
 20
0.3685644487763966
 30
0.0
 11
0.1599975824140074
 21
0.3985644487763693
 31
0.0
  0
LWPOLYLINE
  5
1148
330
1106
100
AcDbEntity
  8
BLOCKS
  6
Continuous
100
AcDbPolyline
 90
        5
 70
   128
 43
0.0
 10
0.151463707193102
 20
0.3295495733244707
 10
0.1452147088659217
 20
0.3368712904197082
 10
0.1393911728440003
 20
0.344578395349231
 10
0.1339840937870349
 20
0.3527106339349757
 10
0.1290653626160747
 20
0.3611894168257095
  0
LINE
  5
1149
330
1106
100
AcDbEntity
  8
BLOCKS
  6
Continuous
100
AcDbLine
 10
0.1650048102544588
 20
0.3585644487764057
 30
0.0
 11
0.1567314422812842
 21
0.3585644487764057
 31
0.0
  0
LINE
  5
114A
330
1106
100
AcDbEntity
  8
BLOCKS
  6
Continuous
100
AcDbLine
 10
0.1599975824140074
 20
0.3685644487763966
 30
0.0
 11
0.1567314422812274
 21
0.3685644487763966
 31
0.0
  0
LWPOLYLINE
  5
114B
330
1106
100
AcDbEntity
  8
BLOCKS
  6
Continuous
100
AcDbPolyline
 90
        8
 70
   128
 43
0.0
 10
0.1290653626160747
 20
0.3611894168257095
 10
0.1285272402252531
 20
0.3627796864362835
 10
0.1285458409266198
 20
0.3644584322693163
 10
0.1291190665315867
 20
0.3660363862218219
 10
0.1301822908451413
 20
0.3673356519810795
 10
0.1316156497441625
 20
0.3682097506687114
 10
0.1332575493872241
 20
0.3685601308463902
 10
0.1334653021484655
 20
0.3685644487763966
  0
LWPOLYLINE
  5
114C
330
1106
100
AcDbEntity
  8
BLOCKS
  6
Continuous
100
AcDbPolyline
 90
        5
 70
   128
 43
0.0
 10
0.1623286178538024
 20
0.3186288890581181
 10
0.1616717168010382
 20
0.3191368939269523
 10
0.1609175986360469
 20
0.319538728182124
 10
0.1601617661763157
 20
0.3197927436162899
 10
0.1593539357436953
 20
0.3199251420911651
  0
LINE
  5
114D
330
1106
100
AcDbEntity
  8
BLOCKS
  6
Continuous
100
AcDbLine
 10
0.1650048102544588
 20
0.3585644487764057
 30
0.0
 11
0.1821128991341538
 21
0.3585644487764057
 31
0.0
  0
LWPOLYLINE
  5
114E
330
1106
100
AcDbEntity
  8
BLOCKS
  6
Continuous
100
AcDbPolyline
 90
        6
 70
   128
 43
0.0
 10
0.1700123817510644
 20
0.3635644487764011
 10
0.1697307595194957
 20
0.3619113296552996
 10
0.1689179383973851
 20
0.3604445994189973
 10
0.1676649765287266
 20
0.3593283345785494
 10
0.1661112021674285
 20
0.3586880229606777
 10
0.1650048102544588
 20
0.3585644487764057
  0
LINE
  5
114F
330
1106
100
AcDbEntity
  8
BLOCKS
  6
Continuous
100
AcDbLine
 10
0.1821128991341538
 20
0.4085644487764739
 30
0.0
 11
0.1650048102544588
 21
0.4085644487764739
 31
0.0
  0
LWPOLYLINE
  5
1150
330
1106
100
AcDbEntity
  8
BLOCKS
  6
Continuous
100
AcDbPolyline
 90
        6
 70
   128
 43
0.0
 10
0.1650048102544588
 20
0.4085644487763603
 10
0.1666641993037388
 20
0.4082819288922792
 10
0.1681365141806737
 20
0.4074659619916475
 10
0.1692545669197329
 20
0.406209055911404
 10
0.1698918538654084
 20
0.40465483045773
 10
0.1700123817510644
 20
0.4035644487763648
  0
LINE
  5
1151
330
1106
100
AcDbEntity
  8
BLOCKS
  6
Continuous
100
AcDbLine
 10
0.5519920241638375
 20
0.3985644487763693
 30
0.0
 11
0.5200030427876641
 21
0.3985644487763693
 31
0.0
  0
LWPOLYLINE
  5
1152
330
1106
100
AcDbEntity
  8
BLOCKS
  6
Continuous
100
AcDbPolyline
 90
       12
 70
   128
 43
0.0
 10
0.3890428456167569
 20
0.192314149194317
 10
0.4114062096236922
 20
0.2090359927524332
 10
0.42240733516104
 20
0.2176459252325458
 10
0.4332691924080905
 20
0.226406946531597
 10
0.4546857084733347
 20
0.2444755959187432
 10
0.4766384770237551
 20
0.2641631878161661
 10
0.4873896639462032
 20
0.2742660640283248
 10
0.497970129765406
 20
0.2845221164973282
 10
0.5187387157639592
 20
0.3056152928941174
 10
0.5352480203358141
 20
0.3233609153427324
 10
0.551299452080059
 20
0.3415217469902245
 10
0.5669225609026967
 20
0.3601349450743783
  0
LINE
  5
1153
330
1106
100
AcDbEntity
  8
BLOCKS
  6
Continuous
100
AcDbLine
 10
0.5587114172722636
 20
0.3685644487763966
 30
0.0
 11
0.5391649501964935
 21
0.3685644487763966
 31
0.0
  0
LWPOLYLINE
  5
1154
330
1106
100
AcDbEntity
  8
BLOCKS
  6
Continuous
100
AcDbPolyline
 90
        9
 70
   128
 43
0.0
 10
0.4860988222058609
 20
0.3026332225269925
 10
0.4939711843322812
 20
0.3069007368159191
 10
0.5016338502255735
 20
0.3115342360130171
 10
0.5091355983013273
 20
0.3165704643554363
 10
0.5163895728938997
 20
0.3219574554018436
 10
0.5235753542406201
 20
0.32785241308477
 10
0.5304644310408549
 20
0.3340915316410928
 10
0.5371023891539722
 20
0.3407258215623869
 10
0.5434048558105929
 20
0.3476796122314454
  0
LINE
  5
1155
330
1106
100
AcDbEntity
  8
BLOCKS
  6
Continuous
100
AcDbLine
 10
0.5526476380601935
 20
0.3585644487764057
 30
0.0
 11
0.5391649501964367
 21
0.3585644487764057
 31
0.0
  0
LINE
  5
1156
330
1106
100
AcDbEntity
  8
BLOCKS
  6
Continuous
100
AcDbLine
 10
0.5583984048441835
 20
0.4085644487764739
 30
0.0
 11
0.5150026075785945
 21
0.4085644487764739
 31
0.0
  0
LWPOLYLINE
  5
1157
330
1106
100
AcDbEntity
  8
BLOCKS
  6
Continuous
100
AcDbPolyline
 90
        5
 70
   128
 43
0.0
 10
0.2315090347792648
 20
0.2189230121645096
 10
0.243633637473522
 20
0.1829956487100617
 10
0.25563876677802
 20
0.1461630718240485
 10
0.2646054353172644
 20
0.1177554891635282
 10
0.2733441110174795
 20
0.0892749250275529
  0
LWPOLYLINE
  5
1158
330
1106
100
AcDbEntity
  8
BLOCKS
  6
Continuous
100
AcDbPolyline
 90
        3
 70
   128
 43
0.0
 10
0.3566045826997879
 20
0.0912353372268626
 10
0.373621166562998
 20
0.1658553997193621
 10
0.3909551518503917
 20
0.2418647636071682
  0
LWPOLYLINE
  5
1159
330
1106
100
AcDbEntity
  8
BLOCKS
  6
Continuous
100
AcDbPolyline
 90
        5
 70
   128
 43
0.0
 10
0.2379394487461468
 20
0.2309590890557729
 10
0.2499919979825336
 20
0.1955458821583988
 10
0.2616871226558715
 20
0.1600130149194001
 10
0.2730255748689387
 20
0.1243468066307969
 10
0.2840050001250347
 20
0.0885644487764239
  0
LWPOLYLINE
  5
115A
330
1106
100
AcDbEntity
  8
BLOCKS
  6
Continuous
100
AcDbPolyline
 90
        5
 70
   128
 43
0.0
 10
0.3640294247391012
 20
0.079803487492768
 10
0.3619615403689522
 20
0.0736136926499285
 10
0.3594842267078775
 20
0.0675460277071807
 10
0.3565757926505739
 20
0.0615769467419796
 10
0.3532634647822306
 20
0.0557883769373575
  0
LWPOLYLINE
  5
115B
330
1106
100
AcDbEntity
  8
BLOCKS
  6
Continuous
100
AcDbPolyline
 90
        3
 70
   128
 43
0.0
 10
0.3521063969241709
 20
0.0099999999998772
 10
0.3585271284602527
 20
0.044810768346224
 10
0.3640294293633133
 20
0.0798034861186352
  0
ARC
  5
115C
330
1106
100
AcDbEntity
  8
BLOCKS
  6
Continuous
100
AcDbCircle
 10
0.2678952408874125
 20
0.1084796436093711
 30
0.0
 40
0.0903182189549467
100
AcDbArc
 50
275.4743219775146
 51
347.2615799917565
  0
LWPOLYLINE
  5
115D
330
1106
100
AcDbEntity
  8
BLOCKS
  6
Continuous
100
AcDbPolyline
 90
        9
 70
   128
 43
0.0
 10
0.3604576037241145
 20
0.000800315417564
 10
0.3649421711110676
 20
0.0238231185778659
 10
0.3690267949051531
 20
0.0469202256176686
 10
0.3727134083823103
 20
0.0701129227383035
 10
0.3759952688894828
 20
0.0933663441232966
 10
0.3789460685866288
 20
0.1173294079280822
 10
0.3814677170719278
 20
0.1413492272127996
 10
0.3833757003125129
 20
0.1630836259843136
 10
0.3849330947579688
 20
0.1848516586354663
  0
LINE
  5
115E
330
1106
100
AcDbEntity
  8
BLOCKS
  6
Continuous
100
AcDbLine
 10
0.2743013215462611
 20
0.0885644487764239
 30
0.0
 11
0.2840050001250347
 21
0.0885644487764239
 31
0.0
  0
LWPOLYLINE
  5
115F
330
1106
100
AcDbEntity
  8
BLOCKS
  6
Continuous
100
AcDbPolyline
 90
       11
 70
   128
 43
0.0
 10
0.3402580779899154
 20
0.0389978255493588
 10
0.3355091336981673
 20
0.0343684789077088
 10
0.3330155800496186
 20
0.0321681460362697
 10
0.3250498098568642
 20
0.0260329427634361
 10
0.3180312026049137
 20
0.0215860962246097
 10
0.3106164500705972
 20
0.0177106978163693
 10
0.3030127602199286
 20
0.014506971675587
 10
0.2945376188752107
 20
0.0117620809353412
 10
0.2889361706215254
 20
0.0103909974245653
 10
0.2832651941555468
 20
0.0093440406658374
 10
0.2774665028650247
 20
0.0086172674178897
  0
LWPOLYLINE
  5
1160
330
1106
100
AcDbEntity
  8
BLOCKS
  6
Continuous
100
AcDbPolyline
 90
       14
 70
   128
 43
0.0
 10
0.2774665028650247
 20
0.0086172674178897
 10
0.2703909821360071
 20
0.0082995753884916
 10
0.263301126200929
 20
0.0086906110174141
 10
0.256303460097115
 20
0.0097844989970781
 10
0.2486471964607517
 20
0.0118427072322902
 10
0.2412448586074447
 20
0.0147515717432043
 10
0.2342356554463549
 20
0.0184563882105522
 10
0.2276922630663876
 20
0.022932838832503
 10
0.221670054349886
 20
0.0281279423553542
 10
0.2162822833960831
 20
0.0339439992806092
 10
0.2115894801268041
 20
0.0403340064391387
 10
0.2076263588968459
 20
0.0472296404603867
 10
0.2044674504550699
 20
0.0545012215446832
 10
0.2027282617262358
 20
0.0598762984126324
  0
ARC
  5
1161
330
1106
100
AcDbEntity
  8
BLOCKS
  6
Continuous
100
AcDbCircle
 10
0.2707297524393653
 20
0.0789103167751364
 30
0.0
 40
0.0606133448686904
100
AcDbArc
 50
195.6405155998797
 51
275.4736788592099
  0
LWPOLYLINE
  5
1162
330
1106
100
AcDbEntity
  8
BLOCKS
  6
Continuous
100
AcDbPolyline
 90
        5
 70
   128
 43
0.0
 10
0.2743013215463179
 20
0.0885644487764239
 10
0.273970291877049
 20
0.0886208235864388
 10
0.2736765832268588
 20
0.0887835937943464
 10
0.2734533159826924
 20
0.0890344051279044
 10
0.2733441110174795
 20
0.0892749250275529
  0
LWPOLYLINE
  5
1163
330
1106
100
AcDbEntity
  8
BLOCKS
  6
Continuous
100
AcDbPolyline
 90
        3
 70
   128
 43
0.0
 10
0.3449696209918898
 20
0.0099999999998772
 10
0.3493155322432244
 20
0.0328545498110771
 10
0.3532634639340699
 20
0.0557883717392542
  0
LWPOLYLINE
  5
1164
330
1106
100
AcDbEntity
  8
BLOCKS
  6
Continuous
100
AcDbPolyline
 90
        3
 70
   128
 43
0.0
 10
0.3335528799975691
 20
0.0040004255583881
 10
0.33702270146307
 20
0.0214750311340595
 10
0.3402580778256379
 20
0.0389978253375603
  0
LINE
  5
1165
330
1106
100
AcDbEntity
  8
BLOCKS
  6
Continuous
100
AcDbLine
 10
0.3594777434954608
 20
0.0
 30
0.0
 11
0.3327306268363941
 21
0.0
 31
0.0
  0
LINE
  5
1166
330
1106
100
AcDbEntity
  8
BLOCKS
  6
Continuous
100
AcDbLine
 10
0.333552880370803
 20
0.0040004273744216
 30
0.0
 11
0.3327306268363941
 21
0.0
 31
0.0
  0
LINE
  5
1167
330
1106
100
AcDbEntity
  8
BLOCKS
  6
Continuous
100
AcDbLine
 10
0.3311441152148404
 20
0.0
 30
0.0
 11
0.3327306268363941
 21
0.0
 31
0.0
  0
ARC
  5
1168
330
1106
100
AcDbEntity
  8
BLOCKS
  6
Continuous
100
AcDbCircle
 10
0.3594777434954608
 20
0.0009999999999764
 30
0.0
 40
0.0010000000000001
100
AcDbArc
 50
270.0
 51
348.4814851216573
  0
LINE
  5
1169
330
1106
100
AcDbEntity
  8
BLOCKS
  6
Continuous
100
AcDbLine
 10
0.3449696209918898
 20
0.0099999999999909
 30
0.0
 11
0.3521063969241709
 21
0.0099999999999909
 31
0.0
  0
LINE
  5
116A
330
1106
100
AcDbEntity
  8
BLOCKS
  6
Continuous
100
AcDbLine
 10
0.3559904489861765
 20
0.0885644487764239
 30
0.0
 11
0.3566045826997879
 21
0.0912353372268626
 31
0.0
  0
LWPOLYLINE
  5
116B
330
1106
100
AcDbEntity
  8
BLOCKS
  6
Continuous
100
AcDbPolyline
 90
        7
 70
   128
 43
0.0
 10
0.3890428456167569
 20
0.192314149194317
 10
0.3877839314821472
 20
0.1912309715210085
 10
0.3866940190821424
 20
0.1899147186147729
 10
0.385864609329019
 20
0.1884758933606463
 10
0.3852718235681323
 20
0.1868730722212604
 10
0.3850514318069713
 20
0.1858764155994095
 10
0.3849330947579688
 20
0.1848516586354663
  0
LINE
  5
116C
330
1106
100
AcDbEntity
  8
BLOCKS
  6
Continuous
100
AcDbLine
 10
0.4596495367129024
 20
0.4085644487764739
 30
0.0
 11
0.28439512873274
 21
0.4085644487764739
 31
0.0
  0
LINE
  5
116D
330
1106
100
AcDbEntity
  8
BLOCKS
  6
Continuous
100
AcDbLine
 10
0.28439512873274
 20
0.3585644487764057
 30
0.0
 11
0.4596495367129024
 21
0.3585644487764057
 31
0.0
  0
LWPOLYLINE
  5
116E
330
1106
100
AcDbEntity
  8
BLOCKS
  6
Continuous
100
AcDbPolyline
 90
        7
 70
   128
 43
0.0
 10
0.2252081835545141
 20
0.2289203310800758
 10
0.2258700348742195
 20
0.2290333000368037
 10
0.2264571815701402
 20
0.2293589889401346
 10
0.2269033607230426
 20
0.2298606155442258
 10
0.2271583800380199
 20
0.2304816607343127
 10
0.2271935229566679
 20
0.2311522536687107
 10
0.2270822895219453
 20
0.2316155775180277
  0
LWPOLYLINE
  5
116F
330
1106
100
AcDbEntity
  8
BLOCKS
  6
Continuous
100
AcDbPolyline
 90
        5
 70
   128
 43
0.0
 10
0.4958148146422446
 20
0.2964686279755142
 10
0.471523857485181
 20
0.2730589762396676
 10
0.4463763188088592
 20
0.250506833518557
 10
0.4203329653295214
 20
0.2287893757974189
 10
0.3934888447050184
 20
0.2079977518417309
  0
LWPOLYLINE
  5
1170
330
1106
100
AcDbEntity
  8
BLOCKS
  6
Continuous
100
AcDbPolyline
 90
        4
 70
   128
 43
0.0
 10
0.4906558030447173
 20
0.2937316583413576
 10
0.4595040767612773
 20
0.2777832839497023
 10
0.4352972104313153
 20
0.2653902700408253
 10
0.4110903928429935
 20
0.2529971609253607
  0
LWPOLYLINE
  5
1171
330
1106
100
AcDbEntity
  8
BLOCKS
  6
Continuous
100
AcDbPolyline
 90
        3
 70
   128
 43
0.0
 10
0.4065329498050687
 20
0.2618983292505845
 10
0.4460539268692401
 20
0.2821318015447787
 10
0.4860988222058609
 20
0.3026332225269925
  0
LWPOLYLINE
  5
1172
330
1106
100
AcDbEntity
  8
BLOCKS
  6
Continuous
100
AcDbPolyline
 90
        6
 70
   128
 43
0.0
 10
0.4065329498050687
 20
0.2618983292505845
 10
0.4023018256949058
 20
0.259267316114915
 10
0.3984643114052346
 20
0.2558674917600001
 10
0.3953425785450122
 20
0.2519842670429853
 10
0.392846767289484
 20
0.2475058355628334
 10
0.3909551518503917
 20
0.2418647636071682
  0
LWPOLYLINE
  5
1173
330
1106
100
AcDbEntity
  8
BLOCKS
  6
Continuous
100
AcDbPolyline
 90
        6
 70
   128
 43
0.0
 10
0.4007052066924644
 20
0.2396414546316237
 10
0.401710079601628
 20
0.2428073094495176
 10
0.4032763380156439
 20
0.2458451399337491
 10
0.4052724812008251
 20
0.2484999119398026
 10
0.4077559705351064
 20
0.2508480633907766
 10
0.4110903928433914
 20
0.2529971609253607
  0
LINE
  5
1174
330
1106
100
AcDbEntity
  8
BLOCKS
  6
Continuous
100
AcDbLine
 10
0.4007052066924075
 20
0.2396414546316237
 30
0.0
 11
0.3934888448637252
 21
0.2079977518642408
 31
0.0
  0
LWPOLYLINE
  5
1175
330
1106
100
AcDbEntity
  8
BLOCKS
  6
Continuous
100
AcDbPolyline
 90
        3
 70
   128
 43
0.0
 10
0.4958148139072023
 20
0.2964686346098233
 10
0.4932455742149955
 20
0.2950814604746483
 10
0.4906558030447173
 20
0.2937316583413576
  0
LINE
  5
1176
330
1106
100
AcDbEntity
  8
BLOCKS
  6
Continuous
100
AcDbLine
 10
0.5200030427875504
 20
0.3685644487763966
 30
0.0
 11
0.5200030427875504
 21
0.3985644487763693
 31
0.0
  0
LINE
  5
1177
330
1106
100
AcDbEntity
  8
BLOCKS
  6
Continuous
100
AcDbLine
 10
0.510002165579806
 20
0.3635644487764011
 30
0.0
 11
0.510002165579806
 21
0.4035644487764785
 31
0.0
  0
LINE
  5
1178
330
1106
100
AcDbEntity
  8
BLOCKS
  6
Continuous
100
AcDbLine
 10
0.4596495367129024
 20
0.3585644487764057
 30
0.0
 11
0.5113031900567649
 21
0.3585644487764057
 31
0.0
  0
LINE
  5
1179
330
1106
100
AcDbEntity
  8
BLOCKS
  6
Continuous
100
AcDbLine
 10
0.5113031900567649
 20
0.3585644487764057
 30
0.0
 11
0.5150026075785945
 21
0.3585644487764057
 31
0.0
  0
LWPOLYLINE
  5
117A
330
1106
100
AcDbEntity
  8
BLOCKS
  6
Continuous
100
AcDbPolyline
 90
        6
 70
   128
 43
0.0
 10
0.5150026075785945
 20
0.3585644487764057
 10
0.5133473241446609
 20
0.3588463433728748
 10
0.5118786607255288
 20
0.3596602617690223
 10
0.5107622697567536
 20
0.3609144091715279
 10
0.5101240397166862
 20
0.3624672787062764
 10
0.510002165579806
 20
0.3635644487764011
  0
LINE
  5
117B
330
1106
100
AcDbEntity
  8
BLOCKS
  6
Continuous
100
AcDbLine
 10
0.5113031900567649
 20
0.4085644487764739
 30
0.0
 11
0.4596495367129024
 21
0.4085644487764739
 31
0.0
  0
LINE
  5
117C
330
1106
100
AcDbEntity
  8
BLOCKS
  6
Continuous
100
AcDbLine
 10
0.5146364793993144
 20
0.4085644487764739
 30
0.0
 11
0.5113031900567649
 21
0.4085644487764739
 31
0.0
  0
LWPOLYLINE
  5
117D
330
1106
100
AcDbEntity
  8
BLOCKS
  6
Continuous
100
AcDbPolyline
 90
        6
 70
   128
 43
0.0
 10
0.510002165579806
 20
0.4035644487763648
 10
0.5102840080069769
 20
0.4052193663889057
 10
0.511097742895629
 20
0.4066877039188057
 10
0.5123516609035619
 20
0.4078039911439646
 10
0.5139045040717179
 20
0.4084423971730758
 10
0.5150026075785945
 20
0.4085644487763603
  0
LINE
  5
117E
330
1106
100
AcDbEntity
  8
BLOCKS
  6
Continuous
100
AcDbLine
 10
0.5587114172722636
 20
0.3685644487763966
 30
0.0
 11
0.5519920241638375
 21
0.3985644487763693
 31
0.0
  0
LINE
  5
117F
330
1106
100
AcDbEntity
  8
BLOCKS
  6
Continuous
100
AcDbLine
 10
0.5603500515592259
 20
0.4070015774213971
 30
0.0
 11
0.5689397388835573
 21
0.3686512946864013
 31
0.0
  0
LINE
  5
1180
330
1106
100
AcDbEntity
  8
BLOCKS
  6
Continuous
100
AcDbLine
 10
0.5434048558105929
 20
0.3476796122315591
 30
0.0
 11
0.5526476380601367
 21
0.3585644487764057
 31
0.0
  0
LWPOLYLINE
  5
1181
330
1106
100
AcDbEntity
  8
BLOCKS
  6
Continuous
100
AcDbPolyline
 90
        7
 70
   128
 43
0.0
 10
0.5689397388835573
 20
0.3686512946864013
 10
0.5691669033151357
 20
0.3670060978388392
 10
0.5691131235599869
 20
0.3652979751783505
 10
0.5687829125886879
 20
0.3636703273140256
 10
0.5681667609779879
 20
0.3620762952684799
 10
0.5676049771587373
 20
0.3610761562033531
 10
0.5669225609026967
 20
0.3601349450743783
  0
LWPOLYLINE
  5
1182
330
1106
100
AcDbEntity
  8
BLOCKS
  6
Continuous
100
AcDbPolyline
 90
        5
 70
   128
 43
0.0
 10
0.5583984048441835
 20
0.4085644487763603
 10
0.5590604169929066
 20
0.4084517062169653
 10
0.5596477922962891
 20
0.4081261893439887
 10
0.5600943083679227
 20
0.4076245978397992
 10
0.5603500515592259
 20
0.4070015774213971
  0
LINE
  5
1183
330
1106
100
AcDbEntity
  8
BLOCKS
  6
Continuous
100
AcDbLine
 10
0.0932038469042027
 20
0.1285771254277961
 30
0.0
 11
0.0930000000000178
 21
0.1285721745948649
 31
0.0
  0
LINE
  5
1184
330
1106
100
AcDbEntity
  8
BLOCKS
100
AcDbLine
 10
0.1467314422812365
 20
0.3685644487763966
 30
0.0
 11
0.1467314422811796
 21
0.358564448776292
 31
0.0
  0
LINE
  5
1185
330
1106
100
AcDbEntity
  8
BLOCKS
  6
Continuous
100
AcDbLine
 10
0.1467314422811228
 20
0.3585644487764057
 30
0.0
 11
0.1421215549039516
 21
0.3585644487764057
 31
0.0
  0
LINE
  5
1186
330
1106
100
AcDbEntity
  8
BLOCKS
  6
Continuous
100
AcDbLine
 10
0.1467314422812365
 20
0.3685644487765103
 30
0.0
 11
0.1334653021484655
 21
0.3685644487763966
 31
0.0
  0
LINE
  5
1187
330
1106
100
AcDbEntity
  8
BLOCKS
100
AcDbLine
 10
0.1567314422812274
 20
0.3685644487763966
 30
0.0
 11
0.1567314422812842
 21
0.3585644487764057
 31
0.0
  0
LINE
  5
1188
330
1106
100
AcDbEntity
  8
BLOCKS
100
AcDbLine
 10
0.5291649501964458
 20
0.3685644487763966
 30
0.0
 11
0.5291649501965026
 21
0.3585644487764057
 31
0.0
  0
LINE
  5
1189
330
1106
100
AcDbEntity
  8
BLOCKS
100
AcDbLine
 10
0.5391649501964367
 20
0.3585644487764057
 30
0.0
 11
0.5391649501964367
 21
0.3685644487763966
 31
0.0
  0
LINE
  5
118A
330
1106
100
AcDbEntity
  8
BLOCKS
  6
Continuous
100
AcDbLine
 10
0.5291649501964458
 20
0.3685644487763966
 30
0.0
 11
0.5200030427875504
 21
0.3685644487763966
 31
0.0
  0
LINE
  5
118B
330
1106
100
AcDbEntity
  8
BLOCKS
  6
Continuous
100
AcDbLine
 10
0.5291649501963889
 20
0.3585644487764057
 30
0.0
 11
0.5150026075785945
 21
0.3585644487764057
 31
0.0
  0
LINE
  5
118C
330
1106
100
AcDbEntity
  8
BLOCKS
100
AcDbLine
 10
0.0930000000000178
 20
0.1385766457125328
 30
0.0
 11
0.0930000000000178
 21
0.2205522518402176
 31
0.0
  0
LINE
  5
118D
330
1106
100
AcDbEntity
  8
BLOCKS
100
AcDbLine
 10
0.0300000000000296
 20
0.3480644487764266
 30
0.0
 11
0.0300000000000296
 21
0.3900644487764566
 31
0.0
  0
ENDBLK
  5
118F
330
1106
100
AcDbEntity
  8
0
100
AcDbBlockEnd
  0
BLOCK
  5
11BC
330
1191
100
AcDbEntity
  8
0
100
AcDbBlockBegin
  2
105012AL
 70
     0
 10
0.0
 20
0.0
 30
0.0
  3
105012AL
  1

  0
LINE
  5
1192
330
1191
100
AcDbEntity
  8
BLOCKS
  6
Continuous
100
AcDbLine
 10
0.1152197228166756
 20
0.4085644487764739
 30
0.0
 11
0.537098242888817
 21
0.4085644487764739
 31
0.0
  0
LWPOLYLINE
  5
1193
330
1191
100
AcDbEntity
  8
BLOCKS
  6
Continuous
100
AcDbPolyline
 90
        8
 70
   128
 43
0.0
 10
0.5429478890574729
 20
0.3606957776282798
 10
0.4692562869738595
 20
0.3653566825729513
 10
0.3955892097527567
 20
0.3704264662203514
 10
0.3257941811848468
 20
0.3757053520780573
 10
0.2560203889561308
 20
0.3814929727385561
 10
0.1870211271021844
 20
0.3876548354855913
 10
0.1525025917924836
 20
0.3907745750695994
 10
0.1179541693944088
 20
0.3937447306997228
  0
LWPOLYLINE
  5
1194
330
1191
100
AcDbEntity
  8
BLOCKS
  6
Continuous
100
AcDbPolyline
 90
       11
 70
   128
 43
0.0
 10
0.3890428456167569
 20
0.192314149194317
 10
0.4058604870679688
 20
0.204793307695013
 10
0.4224073351609832
 20
0.2176459252325458
 10
0.438690623635921
 20
0.2308793975745402
 10
0.4546857084732779
 20
0.2444755959188569
 10
0.4712065490560349
 20
0.2591765602355736
 10
0.4873896639461464
 20
0.2742660640283248
 10
0.5032427171516361
 20
0.289753624782179
 10
0.5187387157639023
 20
0.3056152928942311
 10
0.5433348960844456
 20
0.3323938532163311
 10
0.5669225609026967
 20
0.3601349450744919
  0
LWPOLYLINE
  5
1195
330
1191
100
AcDbEntity
  8
BLOCKS
  6
Continuous
100
AcDbPolyline
 90
       11
 70
   128
 43
0.0
 10
0.5496818735531975
 20
0.3580482877813438
 10
0.5365572056602446
 20
0.3411222313875442
 10
0.5230796773523707
 20
0.3245275808230872
 10
0.509228842477171
 20
0.3082376986952795
 10
0.4950412524729018
 20
0.2922953913418951
 10
0.4783738479467275
 20
0.2744569364225526
 10
0.4612862420762554
 20
0.2570919000767162
 10
0.4437977813125827
 20
0.2402157055965972
 10
0.4258096559452156
 20
0.2237339543132748
 10
0.4074362028479755
 20
0.2077630419694287
 10
0.3886929208350693
 20
0.1923303359673127
  0
LINE
  5
1196
330
1191
100
AcDbEntity
  8
BLOCKS
  6
Continuous
100
AcDbLine
 10
0.0
 20
0.0009999999999764
 30
0.0
 11
0.0
 21
0.4151904190297273
 31
0.0
  0
LWPOLYLINE
  5
1197
330
1191
100
AcDbEntity
  8
BLOCKS
  6
Continuous
100
AcDbPolyline
 90
        9
 70
   128
 43
0.0
 10
0.1179541693944088
 20
0.3937447306997228
 10
0.1171590798901434
 20
0.3753748715801066
 10
0.116057581516543
 20
0.3571743756477872
 10
0.1146511982494189
 20
0.3389797924780851
 10
0.1129820903930749
 20
0.321062974894744
 10
0.1110058584259264
 20
0.3028174736771234
 10
0.1088203860992394
 20
0.2849758200030692
 10
0.1064388361205601
 20
0.267376465255893
 10
0.1039353925214073
 20
0.2502881974223783
  0
LWPOLYLINE
  5
1198
330
1191
100
AcDbEntity
  8
BLOCKS
  6
Continuous
100
AcDbPolyline
 90
        7
 70
   128
 43
0.0
 10
0.103743990562748
 20
0.2456786916210376
 10
0.1030879847086794
 20
0.2141724626411587
 10
0.1023832955319222
 20
0.182686973591899
 10
0.1016335631247216
 20
0.1512284766040466
 10
0.1008425277453853
 20
0.1197948338298147
 10
0.0992443022333305
 20
0.0602736606216468
 10
0.0975434002190809
 20
0.0008565633123681
  0
LWPOLYLINE
  5
1199
330
1191
100
AcDbEntity
  8
BLOCKS
  6
Continuous
100
AcDbPolyline
 90
        9
 70
   128
 43
0.0
 10
0.3849504955578027
 20
0.1851263323909507
 10
0.3832794362207323
 20
0.1618818774010151
 10
0.3812076833931996
 20
0.1386669061173507
 10
0.3787330772028099
 20
0.1154733143928297
 10
0.3758572285206583
 20
0.0923256860539823
 10
0.3725990851539791
 20
0.0693522216625979
 10
0.3689461198491699
 20
0.0464402572021072
 10
0.3648973395041821
 20
0.0235817974374868
 10
0.3604576037240577
 20
0.0008003154176777
  0
LINE
  5
119A
330
1191
100
AcDbEntity
  8
BLOCKS
  6
Continuous
100
AcDbLine
 10
0.35233915623553
 20
0.0
 30
0.0
 11
0.0973417751949342
 21
0.0
 31
0.0
  0
LINE
  5
119B
330
1191
100
AcDbEntity
  8
BLOCKS
  6
Continuous
100
AcDbLine
 10
0.0941841360528315
 20
0.0
 30
0.0
 11
0.0009999999999764
 21
0.0
 31
0.0
  0
LWPOLYLINE
  5
119C
330
1191
100
AcDbEntity
  8
BLOCKS
  6
Continuous
100
AcDbPolyline
 90
        4
 70
   128
 43
0.0
 10
0.0010000000000332
 20
0.0
 10
0.0009948360278145
 20
0.0000000133334197
 10
0.0004812712668354
 20
0.0001450611124483
 10
0.0001564913426364
 20
0.0004628844212675
  0
LWPOLYLINE
  5
119D
330
1191
100
AcDbEntity
  8
BLOCKS
  6
Continuous
100
AcDbPolyline
 90
        4
 70
   128
 43
0.0
 10
0.0001564913426364
 20
0.0004628844212675
 10
0.0000721897120002
 20
0.0006269476317584
 10
0.0000000133334197
 20
0.0009948360275303
 10
0.0
 20
0.0009999999999764
  0
LINE
  5
119E
330
1191
100
AcDbEntity
  8
BLOCKS
  6
Continuous
100
AcDbLine
 10
0.0971226978694517
 20
0.0
 30
0.0
 11
0.0941841360528315
 21
0.0
 31
0.0
  0
LINE
  5
119F
330
1191
100
AcDbEntity
  8
BLOCKS
  6
Continuous
100
AcDbLine
 10
0.0973403634018837
 20
0.0
 30
0.0
 11
0.0971226978699065
 21
0.0
 31
0.0
  0
LWPOLYLINE
  5
11A0
330
1191
100
AcDbEntity
  8
BLOCKS
  6
Continuous
100
AcDbPolyline
 90
        9
 70
   128
 43
0.0
 10
0.0975434002190809
 20
0.0008565633123681
 10
0.0975350172187746
 20
0.0006832595286141
 10
0.0975205031711539
 20
0.0005200050640042
 10
0.0975003185678247
 20
0.0003719795419102
 10
0.0974751038116324
 20
0.0002438794118689
 10
0.0974456588987209
 20
0.0001397689450187
 10
0.0974129180365822
 20
0.0000629512851447
 10
0.0973779200043055
 20
0.0000158636489687
 10
0.0973417751949342
 20
0.0
  0
LINE
  5
11A1
330
1191
100
AcDbEntity
  8
BLOCKS
  6
Continuous
100
AcDbLine
 10
0.3594777434954608
 20
0.0
 30
0.0
 11
0.35233915623553
 21
0.0
 31
0.0
  0
ARC
  5
11A2
330
1191
100
AcDbEntity
  8
BLOCKS
  6
Continuous
100
AcDbCircle
 10
0.3594777434954608
 20
0.0009999999999764
 30
0.0
 40
0.0010000000000002
100
AcDbArc
 50
270.0
 51
348.4814851216571
  0
LWPOLYLINE
  5
11A3
330
1191
100
AcDbEntity
  8
BLOCKS
  6
Continuous
100
AcDbPolyline
 90
        4
 70
   128
 43
0.0
 10
0.3777412981541488
 20
0.1881618472707487
 10
0.2649586357525209
 20
0.2118291360465037
 10
0.183393506839991
 20
0.2289487824698426
 10
0.103743990562748
 20
0.2456786916210376
  0
LWPOLYLINE
  5
11A4
330
1191
100
AcDbEntity
  8
BLOCKS
  6
Continuous
100
AcDbPolyline
 90
        3
 70
   128
 43
0.0
 10
0.1039353925214073
 20
0.2502881974223783
 10
0.1037410886420957
 20
0.2470140118200561
 10
0.103743990562748
 20
0.2456786916210376
  0
LWPOLYLINE
  5
11A5
330
1191
100
AcDbEntity
  8
BLOCKS
  6
Continuous
100
AcDbPolyline
 90
        4
 70
   128
 43
0.0
 10
0.3890428456167569
 20
0.192314149194317
 10
0.3866940190821424
 20
0.1899147186147729
 10
0.3852718235681323
 20
0.1868730722212604
 10
0.3849330947579119
 20
0.1848516586354663
  0
LWPOLYLINE
  5
11A6
330
1191
100
AcDbEntity
  8
BLOCKS
  6
Continuous
100
AcDbPolyline
 90
        9
 70
   128
 43
0.0
 10
0.3777412981541488
 20
0.1881618472707487
 10
0.3792741095749648
 20
0.1878390848278286
 10
0.3806993044552769
 20
0.1875353316164592
 10
0.3819778721442049
 20
0.1872589020158557
 10
0.3830748154924208
 20
0.1870173624990912
 10
0.3839601087998403
 20
0.186817324522508
 10
0.3846095196835222
 20
0.1866642635560538
 10
0.3850052723699377
 20
0.1865623692077634
 10
0.3851365342563326
 20
0.1865144305452304
  0
LWPOLYLINE
  5
11A7
330
1191
100
AcDbEntity
  8
BLOCKS
  6
Continuous
100
AcDbPolyline
 90
        3
 70
   128
 43
0.0
 10
0.0020001812076202
 20
0.4175643454435658
 10
0.0410067397976377
 20
0.4175643026960643
 10
0.0783826454392624
 20
0.4175643424588316
  0
LWPOLYLINE
  5
11A8
330
1191
100
AcDbEntity
  8
BLOCKS
  6
Continuous
100
AcDbPolyline
 90
        7
 70
   128
 43
0.0
 10
0.0023335768973993
 20
0.4171623902955162
 10
0.0061180697393297
 20
0.416530221835501
 10
0.0212938203998192
 20
0.4142443083032959
 10
0.0365257535195269
 20
0.4123515029309602
 10
0.0517996278197188
 20
0.4108549544702101
 10
0.0759156734924886
 20
0.4093071033233855
 10
0.1000755319280415
 20
0.4087492555931931
  0
LWPOLYLINE
  5
11A9
330
1191
100
AcDbEntity
  8
BLOCKS
  6
Continuous
100
AcDbPolyline
 90
        6
 70
   128
 43
0.0
 10
0.0
 20
0.4155643421795503
 10
0.0001127426991729
 20
0.4162263552569812
 10
0.0004382600354234
 20
0.4168137313866965
 10
0.0009398521568755
 20
0.417260247826107
 10
0.0015609675339761
 20
0.417515563067127
 10
0.0020001812076202
 20
0.4175643454435658
  0
LWPOLYLINE
  5
11AA
330
1191
100
AcDbEntity
  8
BLOCKS
  6
Continuous
100
AcDbPolyline
 90
        9
 70
   128
 43
0.0
 10
0.0
 20
0.4151904190297273
 10
0.0000470320478598
 20
0.4156215959204701
 10
0.0001859161779976
 20
0.416032493679154
 10
0.0004101203852542
 20
0.4164037869426238
 10
0.0007090998866488
 20
0.4167180130282305
 10
0.0010687930640074
 20
0.4169603932398332
 10
0.001472282810596
 20
0.4171195279396898
 10
0.0019005921772646
 20
0.4171879326968338
 10
0.0023335768973993
 20
0.4171623902955162
  0
LWPOLYLINE
  5
11AB
330
1191
100
AcDbEntity
  8
BLOCKS
  6
Continuous
100
AcDbPolyline
 90
        5
 70
   128
 43
0.0
 10
0.0783826454392624
 20
0.4175643424588316
 10
0.0800374435009417
 20
0.4172825388147885
 10
0.0815056835756991
 20
0.4164688961294587
 10
0.0826220608818176
 20
0.4152150326457332
 10
0.0829031265467961
 20
0.4147007945334736
  0
LINE
  5
11AC
330
1191
100
AcDbEntity
  8
BLOCKS
  6
Continuous
100
AcDbLine
 10
0.104100782065359
 20
0.4085644487764739
 30
0.0
 11
0.1152197228166756
 21
0.4085644487764739
 31
0.0
  0
LINE
  5
11AD
330
1191
100
AcDbEntity
  8
BLOCKS
  6
Continuous
100
AcDbLine
 10
0.1016927846080193
 20
0.4085644487764739
 30
0.0
 11
0.104100782065359
 21
0.4085644487764739
 31
0.0
  0
LWPOLYLINE
  5
11AE
330
1191
100
AcDbEntity
  8
BLOCKS
  6
Continuous
100
AcDbPolyline
 90
       14
 70
   128
 43
0.0
 10
0.1015534442128114
 20
0.4085978660862111
 10
0.100014622101412
 20
0.4090269668683959
 10
0.0976983996154672
 20
0.4097231047990136
 10
0.0951351893472747
 20
0.4105412881131088
 10
0.0927148705875993
 20
0.4113584999915929
 10
0.0903322021335385
 20
0.4122043924684249
 10
0.0882613633178835
 20
0.4129814750127708
 10
0.0864466837158489
 20
0.4137044777428401
 10
0.0848955270645888
 20
0.4143650422828387
 10
0.0838419574583327
 20
0.4148453013224298
 10
0.083024022380755
 20
0.4152508113683098
 10
0.0824671751204278
 20
0.4155616312459643
 10
0.0822009329963862
 20
0.4157337811676598
 10
0.0822024948211038
 20
0.4157311607888233
  0
LWPOLYLINE
  5
11AF
330
1191
100
AcDbEntity
  8
BLOCKS
  6
Continuous
100
AcDbPolyline
 90
        9
 70
   128
 43
0.0
 10
0.1152197228166756
 20
0.4085644487764739
 10
0.115244662957025
 20
0.4085540371678463
 10
0.115269343430441
 20
0.4085229107434998
 10
0.1152935072734067
 20
0.4084713935797027
 10
0.1153169029014975
 20
0.4084000220530016
 10
0.1153392867285561
 20
0.4083095392556971
 10
0.1153604257029883
 20
0.4082008872593406
 10
0.1153800997340113
 20
0.4080751973059478
 10
0.1153981039833525
 20
0.4079337780301558
  0
LWPOLYLINE
  5
11B0
330
1191
100
AcDbEntity
  8
BLOCKS
  6
Continuous
100
AcDbPolyline
 90
        4
 70
   128
 43
0.0
 10
0.1173075058609925
 20
0.4017821426324418
 10
0.1177958585450938
 20
0.398962070050743
 10
0.1179887719026738
 20
0.3956679073792202
 10
0.1179541693944088
 20
0.3937447306997228
  0
LINE
  5
11B1
330
1191
100
AcDbEntity
  8
BLOCKS
  6
Continuous
100
AcDbLine
 10
0.1153981039833525
 20
0.4079337780301558
 30
0.0
 11
0.1173075058609925
 21
0.4017821426325554
 31
0.0
  0
LINE
  5
11B2
330
1191
100
AcDbEntity
  8
BLOCKS
  6
Continuous
100
AcDbLine
 10
0.5603500515591691
 20
0.4070015774215108
 30
0.0
 11
0.5689397388835573
 21
0.368651294686515
 31
0.0
  0
LINE
  5
11B3
330
1191
100
AcDbEntity
  8
BLOCKS
  6
Continuous
100
AcDbLine
 10
0.5457133990560124
 20
0.4070015774215108
 30
0.0
 11
0.5528219865783513
 21
0.3678948253956378
 31
0.0
  0
LWPOLYLINE
  5
11B4
330
1191
100
AcDbEntity
  8
BLOCKS
  6
Continuous
100
AcDbPolyline
 90
        8
 70
   128
 43
0.0
 10
0.5669225609026967
 20
0.3601349450744919
 10
0.5665348793864951
 20
0.3602152800185649
 10
0.5654953551955942
 20
0.360235736381469
 10
0.5638067470756028
 20
0.3601962326554258
 10
0.5614677130238875
 20
0.3600963597970121
 10
0.5568909818187536
 20
0.3598407044921714
 10
0.5540827119505707
 20
0.3596627778090351
 10
0.55093226105231
 20
0.3594508729308927
  0
LWPOLYLINE
  5
11B5
330
1191
100
AcDbEntity
  8
BLOCKS
  6
Continuous
100
AcDbPolyline
 90
        9
 70
   128
 43
0.0
 10
0.5528219865783513
 20
0.3678948253955241
 10
0.5530048788839963
 20
0.3667898074160121
 10
0.5530657396564039
 20
0.365671228134488
 10
0.5530038051236375
 20
0.3645531251564762
 10
0.5528198525327071
 20
0.3634495301099605
 10
0.5525161903958633
 20
0.3623742925559554
 10
0.5520966295196672
 20
0.3613409061829316
 10
0.5515664351813712
 20
0.3603623394684519
 10
0.55093226105231
 20
0.3594508729308927
  0
LWPOLYLINE
  5
11B6
330
1191
100
AcDbEntity
  8
BLOCKS
  6
Continuous
100
AcDbPolyline
 90
        4
 70
   128
 43
0.0
 10
0.5689397388835573
 20
0.3686512946864013
 10
0.5691131235599869
 20
0.3652979751784642
 10
0.5681667609779879
 20
0.3620762952684799
 10
0.5669225609026967
 20
0.3601349450744919
  0
ARC
  5
11B7
330
1191
100
AcDbEntity
  8
BLOCKS
100
AcDbCircle
 10
0.5481646126232818
 20
0.3679270698180517
 30
0.0
 40
0.0089166020150925
100
AcDbArc
 50
234.1929582131212
 51
288.0828997242971
  0
LINE
  5
11B8
330
1191
100
AcDbEntity
  8
BLOCKS
  6
Continuous
100
AcDbLine
 10
0.5438012462239499
 20
0.4085644487764739
 30
0.0
 11
0.5583984048441835
 21
0.4085644487764739
 31
0.0
  0
LWPOLYLINE
  5
11B9
330
1191
100
AcDbEntity
  8
BLOCKS
  6
Continuous
100
AcDbPolyline
 90
        5
 70
   128
 43
0.0
 10
0.5583984048441835
 20
0.4085644487764739
 10
0.5590604169929066
 20
0.408451706217079
 10
0.5596477922962891
 20
0.4081261893439887
 10
0.5600943083679227
 20
0.4076245978399129
 10
0.5603500515592259
 20
0.4070015774213971
  0
LINE
  5
11BA
330
1191
100
AcDbEntity
  8
BLOCKS
  6
Continuous
100
AcDbLine
 10
0.537098242888817
 20
0.4085644487764739
 30
0.0
 11
0.5438012462239499
 21
0.4085644487764739
 31
0.0
  0
LWPOLYLINE
  5
11BB
330
1191
100
AcDbEntity
  8
BLOCKS
  6
Continuous
100
AcDbPolyline
 90
        9
 70
   128
 43
0.0
 10
0.5438012462239499
 20
0.4085644487764739
 10
0.5441304590926848
 20
0.4085360206878477
 10
0.5444503130688077
 20
0.4084515445784973
 10
0.5447517153152717
 20
0.4083134219425802
 10
0.5450260975421771
 20
0.408125579342709
 10
0.5452656595874146
 20
0.4078933567848253
 10
0.545463591159944
 20
0.4076233559125058
 10
0.5456142654434189
 20
0.4073232523343222
 10
0.5457133990560124
 20
0.4070015774213971
  0
ENDBLK
  5
11BD
330
1191
100
AcDbEntity
  8
0
100
AcDbBlockEnd
  0
BLOCK
  5
1202
330
11BF
100
AcDbEntity
  8
0
100
AcDbBlockBegin
  2
105012AF
 70
     0
 10
0.0
 20
0.0
 30
0.0
  3
105012AF
  1

  0
LWPOLYLINE
  5
11C0
330
11BF
100
AcDbEntity
  8
BLOCKS
  6
Continuous
100
AcDbPolyline
 90
       13
 70
   128
 43
0.0
 10
0.0926069823993316
 20
0.1946250684146662
 10
0.0986552741411515
 20
0.2064340845599872
 10
0.1046202690666291
 20
0.2185535315697962
 10
0.1105030009401275
 20
0.2309924380233497
 10
0.1162921120355804
 20
0.2437290880159253
 10
0.1221867981290643
 20
0.2572325602175169
 10
0.1279730417826954
 20
0.2710455544703336
 10
0.1336563340324233
 20
0.2851880434824352
 10
0.1392224106784852
 20
0.2996314922927468
 10
0.1446963412291211
 20
0.3144498708998071
 10
0.1500454010052294
 20
0.3295610034384708
 10
0.155276043437766
 20
0.3449872190346923
 10
0.1603754542795173
 20
0.3606957776282798
  0
LWPOLYLINE
  5
11C1
330
11BF
100
AcDbEntity
  8
BLOCKS
  6
Continuous
100
AcDbPolyline
 90
        9
 70
   128
 43
0.0
 10
0.2101032090071726
 20
0.3937447306997228
 10
0.2076550503893486
 20
0.3754024574409414
 10
0.2042390578470758
 20
0.3571743756477872
 10
0.1998305890627989
 20
0.3390064527121694
 10
0.1944631869348541
 20
0.321062974894744
 10
0.1879334853626346
 20
0.302844945292577
 10
0.1804062643922748
 20
0.2849758200030692
 10
0.1718429239121519
 20
0.2674023045607328
 10
0.1623040281932049
 20
0.2502881974222646
  0
LWPOLYLINE
  5
11C2
330
11BF
100
AcDbEntity
  8
BLOCKS
  6
Continuous
100
AcDbPolyline
 90
       13
 70
   128
 43
0.0
 10
-0.092606982399218
 20
0.1946250684146662
 10
-0.0986552741410378
 20
0.2064340845599872
 10
-0.1046202690665723
 20
0.2185535315697962
 10
-0.1105030009400707
 20
0.2309924380233497
 10
-0.1162921120355236
 20
0.2437290880159253
 10
-0.1221867981290075
 20
0.2572325602175169
 10
-0.1279730417826386
 20
0.2710455544703336
 10
-0.1336563340323664
 20
0.2851880434824352
 10
-0.1392224106784283
 20
0.2996314922927468
 10
-0.1446963412290074
 20
0.3144498708998071
 10
-0.1500454010051158
 20
0.3295610034384708
 10
-0.1552760434377092
 20
0.3449872190346923
 10
-0.1603754542794604
 20
0.3606957776282798
  0
LWPOLYLINE
  5
11C3
330
11BF
100
AcDbEntity
  8
BLOCKS
  6
Continuous
100
AcDbPolyline
 90
        9
 70
   128
 43
0.0
 10
-0.2101032090070589
 20
0.3937447306997228
 10
-0.2076498867072587
 20
0.3753748715801066
 10
-0.204239057847019
 20
0.3571743756477872
 10
-0.199823436125655
 20
0.3389797924779714
 10
-0.1944631869347972
 20
0.321062974894744
 10
-0.1879224337657206
 20
0.3028174736771234
 10
-0.1804062643922179
 20
0.2849758200030692
 10
-0.1718285347064352
 20
0.267376465255893
 10
-0.1623040281930912
 20
0.2502881974222646
  0
LWPOLYLINE
  5
11C4
330
11BF
100
AcDbEntity
  8
BLOCKS
  6
Continuous
100
AcDbPolyline
 90
        5
 70
   128
 43
0.0
 10
0.0000000000000568
 20
0.1848516586354663
 10
-0.0224999733655409
 20
0.1848890024019738
 10
-0.0449998800919502
 20
0.1849553014708363
 10
-0.0630429383273281
 20
0.1850304065631008
 10
-0.0810859211019306
 20
0.1851263323909507
  0
LINE
  5
11C5
330
11BF
100
AcDbEntity
  8
BLOCKS
  6
Continuous
100
AcDbLine
 10
0.0
 20
0.0
 30
0.0
 11
-0.0711881839941384
 21
0.0
 31
0.0
  0
LWPOLYLINE
  5
11C6
330
11BF
100
AcDbEntity
  8
BLOCKS
  6
Continuous
100
AcDbPolyline
 90
        7
 70
   128
 43
0.0
 10
-0.1608170774762243
 20
0.2456786916209239
 10
-0.158224945601205
 20
0.2141724626411587
 10
-0.155380191309348
 20
0.182686973591899
 10
-0.1522829731840716
 20
0.1512284766040466
 10
-0.1489325841302502
 20
0.1197948338298147
 10
-0.1418837698142852
 20
0.0602736606216468
 10
-0.1339184134251923
 20
0.0008565633123681
  0
LWPOLYLINE
  5
11C7
330
11BF
100
AcDbEntity
  8
BLOCKS
  6
Continuous
100
AcDbPolyline
 90
        7
 70
   128
 43
0.0
 10
-0.0808456392672383
 20
0.0008767148596007
 10
-0.0832649136401074
 20
0.0313939158223775
 10
-0.0853874323296964
 20
0.0620766944847446
 10
-0.0871965960001262
 20
0.0927072800625411
 10
-0.0887021765955183
 20
0.1234663207146696
 10
-0.089901245817714
 20
0.1543733544004908
 10
-0.0907883241964101
 20
0.1853719767192388
  0
LINE
  5
11C8
330
11BF
100
AcDbEntity
  8
BLOCKS
  6
Continuous
100
AcDbLine
 10
-0.0798741013005042
 20
0.0
 30
0.0
 11
-0.132949510299909
 21
0.0
 31
0.0
  0
LWPOLYLINE
  5
11C9
330
11BF
100
AcDbEntity
  8
BLOCKS
  6
Continuous
100
AcDbPolyline
 90
        9
 70
   128
 43
0.0
 10
-0.1329498040884687
 20
0.0
 10
-0.1331235492093015
 20
0.0000158638051744
 10
-0.1332917818448323
 20
0.0000629515330957
 10
-0.1334491644382183
 20
0.0001397692203682
 10
-0.1335907036744857
 20
0.0002438796540218
 10
-0.133711908904786
 20
0.0003719796974337
 10
-0.133808934621868
 20
0.0005200050901522
 10
-0.1338787024677686
 20
0.0006832593953732
 10
-0.1339189989016063
 20
0.0008565630050725
  0
LINE
  5
11CA
330
11BF
100
AcDbEntity
  8
BLOCKS
  6
Continuous
100
AcDbLine
 10
-0.0711881839941384
 20
0.0
 30
0.0
 11
-0.0798741013005042
 21
0.0
 31
0.0
  0
LWPOLYLINE
  5
11CB
330
11BF
100
AcDbEntity
  8
BLOCKS
  6
Continuous
100
AcDbPolyline
 90
        9
 70
   128
 43
0.0
 10
-0.0808456392672383
 20
0.0008767148596007
 10
-0.0808080708056878
 20
0.000700184555626
 10
-0.0807400217662462
 20
0.0005334388838492
 10
-0.0806437129645588
 20
0.0003819196753057
 10
-0.0805222874882361
 20
0.0002505718377961
 10
-0.0803797081204039
 20
0.0001436819760556
 10
-0.0802206280124551
 20
0.0000647384958938
 10
-0.080050238826118
 20
0.0000163177585364
 10
-0.0798741013005042
 20
0.0
  0
LWPOLYLINE
  5
11CC
330
11BF
100
AcDbEntity
  8
BLOCKS
  6
Continuous
100
AcDbPolyline
 90
        4
 70
   128
 43
0.0
 10
-0.0908033379673725
 20
0.1881618472707487
 10
-0.1196094811966759
 20
0.2118291360465037
 10
-0.1404538856873501
 20
0.2289487824698426
 10
-0.1608170774762243
 20
0.2456786916209239
  0
LWPOLYLINE
  5
11CD
330
11BF
100
AcDbEntity
  8
BLOCKS
  6
Continuous
100
AcDbPolyline
 90
        3
 70
   128
 43
0.0
 10
-0.1623040281930912
 20
0.2502881974222646
 10
-0.1610174755517733
 20
0.2470140118200561
 10
-0.1608170774762243
 20
0.2456786916209239
  0
ARC
  5
11CE
330
11BF
100
AcDbEntity
  8
BLOCKS
100
AcDbCircle
 10
-0.081889760133663
 20
0.1996247069139372
 30
0.0
 40
0.0145206412046843
100
AcDbArc
 50
229.0553841153062
 51
273.1734232360875
  0
LWPOLYLINE
  5
11CF
330
11BF
100
AcDbEntity
  8
BLOCKS
  6
Continuous
100
AcDbPolyline
 90
        3
 70
   128
 43
0.0
 10
-0.0907883241964101
 20
0.1853719767192388
 10
-0.0908086203459675
 20
0.1867698473798782
 10
-0.0908033379673725
 20
0.1881618472707487
  0
LWPOLYLINE
  5
11D0
330
11BF
100
AcDbEntity
  8
BLOCKS
  6
Continuous
100
AcDbPolyline
 90
        4
 70
   128
 43
0.0
 10
-0.0908033379673725
 20
0.1881618472707487
 10
-0.090888369731033
 20
0.1899733203365486
 10
-0.0911576631145863
 20
0.1914711538031497
 10
-0.0916448183510284
 20
0.192850428339284
  0
LINE
  5
11D1
330
11BF
100
AcDbEntity
  8
BLOCKS
  6
Continuous
100
AcDbLine
 10
-0.0916448183510284
 20
0.192850428339284
 30
0.0
 11
-0.092606982399218
 21
0.1946250684147799
 31
0.0
  0
LWPOLYLINE
  5
11D2
330
11BF
100
AcDbEntity
  8
BLOCKS
  6
Continuous
100
AcDbPolyline
 90
        5
 70
   128
 43
0.0
 10
0.160817077476338
 20
0.2456786916209239
 10
0.1553801913094048
 20
0.182686973591899
 10
0.1489325841303071
 20
0.1197948338298147
 10
0.141883769814342
 20
0.0602736606216468
 10
0.133918413425306
 20
0.0008565633123681
  0
LWPOLYLINE
  5
11D3
330
11BF
100
AcDbEntity
  8
BLOCKS
  6
Continuous
100
AcDbPolyline
 90
        7
 70
   128
 43
0.0
 10
0.080845639267352
 20
0.0008767148596007
 10
0.0832649136401642
 20
0.0313939158223775
 10
0.0853874323297532
 20
0.0620766944847446
 10
0.0871965960001831
 20
0.0927072800625411
 10
0.0887021765955751
 20
0.1234663207146696
 10
0.0899012458177708
 20
0.1543733544004908
 10
0.0907883241964669
 20
0.1853719767192388
  0
LINE
  5
11D4
330
11BF
100
AcDbEntity
  8
BLOCKS
  6
Continuous
100
AcDbLine
 10
0.0711881839941953
 20
0.0
 30
0.0
 11
0.0798741013005611
 21
0.0
 31
0.0
  0
LINE
  5
11D5
330
11BF
100
AcDbEntity
  8
BLOCKS
  6
Continuous
100
AcDbLine
 10
0.0
 20
0.0
 30
0.0
 11
0.0711881839941953
 21
0.0
 31
0.0
  0
LINE
  5
11D6
330
11BF
100
AcDbEntity
  8
BLOCKS
  6
Continuous
100
AcDbLine
 10
0.0798741013005611
 20
0.0
 30
0.0
 11
0.1329498040885255
 21
0.0
 31
0.0
  0
LWPOLYLINE
  5
11D7
330
11BF
100
AcDbEntity
  8
BLOCKS
  6
Continuous
100
AcDbPolyline
 90
        9
 70
   128
 43
0.0
 10
0.1329498040885255
 20
0.0
 10
0.1331235492094152
 20
0.0000158638051744
 10
0.1332917818448891
 20
0.0000629515330957
 10
0.1334491644382751
 20
0.0001397692203682
 10
0.1335907036745993
 20
0.0002438796540218
 10
0.1337119089048429
 20
0.0003719796974337
 10
0.1338089346219249
 20
0.0005200050901522
 10
0.1338787024678822
 20
0.0006832593953732
 10
0.1339189989016631
 20
0.0008565630050725
  0
LWPOLYLINE
  5
11D8
330
11BF
100
AcDbEntity
  8
BLOCKS
  6
Continuous
100
AcDbPolyline
 90
        9
 70
   128
 43
0.0
 10
0.080845639267352
 20
0.0008767148596007
 10
0.0808080708057446
 20
0.000700184555626
 10
0.0807400217663599
 20
0.0005334388838492
 10
0.0806437129646725
 20
0.0003819196753057
 10
0.080522287488293
 20
0.0002505718377961
 10
0.0803797081204607
 20
0.0001436819760556
 10
0.0802206280125688
 20
0.0000647384958938
 10
0.0800502388261748
 20
0.0000163177585364
 10
0.0798741013005611
 20
0.0
  0
LWPOLYLINE
  5
11D9
330
11BF
100
AcDbEntity
  8
BLOCKS
  6
Continuous
100
AcDbPolyline
 90
        5
 70
   128
 43
0.0
 10
0.0000000000000568
 20
0.1848516586354663
 10
0.0224999733655977
 20
0.1848890024019738
 10
0.0449998800920071
 20
0.1849553014708363
 10
0.063042938327385
 20
0.1850304065631008
 10
0.0810859211019874
 20
0.1851263323909507
  0
LWPOLYLINE
  5
11DA
330
11BF
100
AcDbEntity
  8
BLOCKS
  6
Continuous
100
AcDbPolyline
 90
        4
 70
   128
 43
0.0
 10
0.0908033379674294
 20
0.1881618472707487
 10
0.1196094811967896
 20
0.2118291360465037
 10
0.1404538856874069
 20
0.2289487824698426
 10
0.160817077476338
 20
0.2456786916209239
  0
LWPOLYLINE
  5
11DB
330
11BF
100
AcDbEntity
  8
BLOCKS
  6
Continuous
100
AcDbPolyline
 90
        5
 70
   128
 43
0.0
 10
0.0907883241964669
 20
0.1853719767192388
 10
0.0908016416161104
 20
0.1860716411482599
 10
0.0908086203460812
 20
0.1867698473798782
 10
0.0908092068878546
 20
0.187467496250747
 10
0.0908033379674294
 20
0.1881618472707487
  0
LWPOLYLINE
  5
11DC
330
11BF
100
AcDbEntity
  8
BLOCKS
  6
Continuous
100
AcDbPolyline
 90
        4
 70
   128
 43
0.0
 10
0.0908033379674294
 20
0.1881618472707487
 10
0.0908883697310898
 20
0.1899733203365486
 10
0.0911576631146431
 20
0.1914711538031497
 10
0.0916448183510852
 20
0.192850428339284
  0
LWPOLYLINE
  5
11DD
330
11BF
100
AcDbEntity
  8
BLOCKS
  6
Continuous
100
AcDbPolyline
 90
        5
 70
   128
 43
0.0
 10
0.0916448183510852
 20
0.192850428339284
 10
0.0919009446334371
 20
0.1933116032412272
 10
0.0921468417663505
 20
0.1937613132613478
 10
0.0923825584590077
 20
0.1941997783470697
 10
0.0926069823993316
 20
0.1946250684146662
  0
ARC
  5
11DE
330
11BF
100
AcDbEntity
  8
BLOCKS
100
AcDbCircle
 10
0.081095651252781
 20
0.2021668413913176
 30
0.0
 40
0.017040511778285
100
AcDbArc
 50
269.9672840457683
 51
304.7281104234252
  0
LWPOLYLINE
  5
11DF
330
11BF
100
AcDbEntity
  8
BLOCKS
  6
Continuous
100
AcDbPolyline
 90
        3
 70
   128
 43
0.0
 10
0.1623040281932049
 20
0.2502881974222646
 10
0.1610174755518301
 20
0.2470140118200561
 10
0.160817077476338
 20
0.2456786916209239
  0
LWPOLYLINE
  5
11E0
330
11BF
100
AcDbEntity
  8
BLOCKS
  6
Continuous
100
AcDbPolyline
 90
        5
 70
   128
 43
0.0
 10
0.0000000000000568
 20
0.4175643454435658
 10
-0.0039999866473863
 20
0.4175569369409687
 10
-0.0199999227473882
 20
0.417524096789748
 10
-0.0839994870212877
 20
0.4173426194978447
 10
-0.1300114806222155
 20
0.4171623902955162
  0
LINE
  5
11E1
330
11BF
100
AcDbEntity
  8
BLOCKS
  6
Continuous
100
AcDbLine
 10
-0.143457226579244
 20
0.4085644487764739
 30
0.0
 11
0.0
 21
0.4085644487764739
 31
0.0
  0
LWPOLYLINE
  5
11E2
330
11BF
100
AcDbEntity
  8
BLOCKS
  6
Continuous
100
AcDbPolyline
 90
        8
 70
   128
 43
0.0
 10
0.0000000000000568
 20
0.3601349450744919
 10
-0.0221119984063307
 20
0.3602152800184513
 10
-0.0442224619238232
 20
0.360235736381469
 10
-0.066273408711254
 20
0.3601962326553121
 10
-0.0882841396955314
 20
0.3600963597970121
 10
-0.1202775936762919
 20
0.3598407044921714
 10
-0.1362224274674304
 20
0.3596627778090351
 10
-0.1530678667174357
 20
0.3594379949483937
  0
LWPOLYLINE
  5
11E3
330
11BF
100
AcDbEntity
  8
BLOCKS
  6
Continuous
100
AcDbPolyline
 90
        6
 70
   128
 43
0.0
 10
-0.1310028170320265
 20
0.4169230788597816
 10
-0.131080746634268
 20
0.4168782145538899
 10
-0.1347876057776602
 20
0.4148817518861279
 10
-0.1387007544505536
 20
0.4130796832099577
 10
-0.1426132555358777
 20
0.411591689711031
 10
-0.1457180321423266
 20
0.4106472395105812
  0
LINE
  5
11E4
330
11BF
100
AcDbEntity
  8
BLOCKS
  6
Continuous
100
AcDbLine
 10
-0.1496451217250296
 20
0.4085644487764739
 30
0.0
 11
-0.143457226579244
 21
0.4085644487764739
 31
0.0
  0
LWPOLYLINE
  5
11E5
330
11BF
100
AcDbEntity
  8
BLOCKS
  6
Continuous
100
AcDbPolyline
 90
        8
 70
   128
 43
0.0
 10
-0.1603754542794604
 20
0.3606957776282798
 10
-0.1693350338821915
 20
0.3653566825729513
 10
-0.1782726822721088
 20
0.3704264662203514
 10
-0.1866812089116365
 20
0.3757053520780573
 10
-0.1949285442281052
 20
0.3814929727385561
 10
-0.2027796771535577
 20
0.3876548354855913
 10
-0.2065216082656889
 20
0.3907745750695994
 10
-0.2101032090070589
 20
0.3937447306997228
  0
LWPOLYLINE
  5
11E6
330
11BF
100
AcDbEntity
  8
BLOCKS
  6
Continuous
100
AcDbPolyline
 90
        9
 70
   128
 43
0.0
 10
-0.2004201596709549
 20
0.4085644487763603
 10
-0.2006224367638083
 20
0.4085540371677326
 10
-0.2008226078267512
 20
0.4085229107434998
 10
-0.2010185887569946
 20
0.4084713935797027
 10
-0.2012083390777661
 20
0.4084000220530016
 10
-0.2013898831830829
 20
0.4083095392556971
 10
-0.2015613309067135
 20
0.4082008872593406
 10
-0.2017208972020512
 20
0.4080751973059478
 10
-0.2018669207272978
 20
0.4079337780301558
  0
LWPOLYLINE
  5
11E7
330
11BF
100
AcDbEntity
  8
BLOCKS
  6
Continuous
100
AcDbPolyline
 90
        4
 70
   128
 43
0.0
 10
-0.2074552556121603
 20
0.4017821426324418
 10
-0.2092930876333412
 20
0.398962070050743
 10
-0.2101254324346655
 20
0.3956679073792202
 10
-0.2101032090070589
 20
0.3937447306997228
  0
LINE
  5
11E8
330
11BF
100
AcDbEntity
  8
BLOCKS
  6
Continuous
100
AcDbLine
 10
-0.2018669207272978
 20
0.4079337780301558
 30
0.0
 11
-0.2074552556121603
 21
0.4017821426324418
 31
0.0
  0
LINE
  5
11E9
330
11BF
100
AcDbEntity
  8
BLOCKS
  6
Continuous
100
AcDbLine
 10
-0.2004201596709549
 20
0.4085644487764739
 30
0.0
 11
-0.1496451217250296
 21
0.4085644487764739
 31
0.0
  0
LINE
  5
11EA
330
11BF
100
AcDbEntity
  8
BLOCKS
  6
Continuous
100
AcDbLine
 10
-0.1602177588001723
 20
0.3680833869455
 30
0.0
 11
-0.1515751164488961
 21
0.4070357849125231
 31
0.0
  0
LWPOLYLINE
  5
11EB
330
11BF
100
AcDbEntity
  8
BLOCKS
  6
Continuous
100
AcDbPolyline
 90
        9
 70
   128
 43
0.0
 10
-0.1496451217250296
 20
0.4085644487763603
 10
-0.1499744716029454
 20
0.4085367536073364
 10
-0.1502947000803374
 20
0.4084544351225077
 10
-0.1505969383753722
 20
0.4083197731463315
 10
-0.1508728159473094
 20
0.4081364971649464
 10
-0.1511146923202205
 20
0.4079096830377012
 10
-0.1513158686871066
 20
0.4076456124201969
 10
-0.1514707734343688
 20
0.4073515987927295
 10
-0.1515751164488392
 20
0.4070357849125231
  0
LWPOLYLINE
  5
11EC
330
11BF
100
AcDbEntity
  8
BLOCKS
  6
Continuous
100
AcDbPolyline
 90
        9
 70
   128
 43
0.0
 10
-0.1603754542794604
 20
0.3606957776282798
 10
-0.1606189037528907
 20
0.3614175093290441
 10
-0.1608066452157573
 20
0.3621562215146241
 10
-0.1609375800276211
 20
0.3629075913302131
 10
-0.1610109419737569
 20
0.3636672218502781
 10
-0.1610263017489046
 20
0.3644306678086195
 10
-0.1609835694694652
 20
0.3651934616113976
 10
-0.1608829951996427
 20
0.3659511394811261
 10
-0.1607251674879535
 20
0.3666992675783831
  0
ARC
  5
11ED
330
11BF
100
AcDbEntity
  8
BLOCKS
100
AcDbCircle
 10
-0.1517923459385315
 20
0.3887056951570002
 30
0.0
 40
0.0292954813708987
100
AcDbArc
 50
252.9633094151174
 51
267.5045616565801
  0
ARC
  5
11EE
330
11BF
100
AcDbEntity
  8
BLOCKS
100
AcDbCircle
 10
-0.1593947218350991
 20
0.4600716660842182
 30
0.0
 40
0.0512818270255859
100
AcDbArc
 50
278.9026452134446
 51
285.4677903602211
  0
ARC
  5
11EF
330
11BF
100
AcDbEntity
  8
BLOCKS
100
AcDbCircle
 10
-0.1589941810113942
 20
0.4070949367122694
 30
0.0
 40
0.0016571058656111
100
AcDbArc
 50
93.32346171243058
 51
117.5268541891195
  0
ARC
  5
11F0
330
11BF
100
AcDbEntity
  8
BLOCKS
100
AcDbCircle
 10
-0.1699663582284074
 20
0.5793796221261119
 30
0.0
 40
0.1709766409606663
100
AcDbArc
 50
273.6471428533353
 51
276.2143057677819
  0
LWPOLYLINE
  5
11F1
330
11BF
100
AcDbEntity
  8
BLOCKS
  6
Continuous
100
AcDbPolyline
 90
        4
 70
   128
 43
0.0
 10
-0.13100218757927
 20
0.4169235214922083
 10
-0.1307651737555489
 20
0.4170377029543034
 10
-0.1303962868817621
 20
0.4171395976242139
 10
-0.1300114806222155
 20
0.4171623902955162
  0
LINE
  5
11F2
330
11BF
100
AcDbEntity
  8
BLOCKS
  6
Continuous
100
AcDbLine
 10
0.2004201596710118
 20
0.4085644487764739
 30
0.0
 11
0.1496451217250865
 21
0.4085644487764739
 31
0.0
  0
LWPOLYLINE
  5
11F3
330
11BF
100
AcDbEntity
  8
BLOCKS
  6
Continuous
100
AcDbPolyline
 90
        8
 70
   128
 43
0.0
 10
0.1603754542795173
 20
0.3606957776282798
 10
0.1693337695666628
 20
0.3653571827049973
 10
0.1782726822722225
 20
0.3704264662203514
 10
0.1866780531638028
 20
0.3757001012248793
 10
0.1949285442281621
 20
0.3814929727385561
 10
0.2027796771536714
 20
0.3876548354855913
 10
0.2065216082658026
 20
0.3907745750695994
 10
0.2101032090071726
 20
0.3937447306997228
  0
LWPOLYLINE
  5
11F4
330
11BF
100
AcDbEntity
  8
BLOCKS
  6
Continuous
100
AcDbPolyline
 90
        5
 70
   128
 43
0.0
 10
0.0000000000000568
 20
0.4175643454435658
 10
0.0039999866475
 20
0.4175569369409687
 10
0.019999922747445
 20
0.417524096789748
 10
0.0839994870214014
 20
0.4173426194978447
 10
0.1300114806222723
 20
0.4171623902955162
  0
LINE
  5
11F5
330
11BF
100
AcDbEntity
  8
BLOCKS
  6
Continuous
100
AcDbLine
 10
0.1434572265793008
 20
0.4085644487764739
 30
0.0
 11
0.0
 21
0.4085644487764739
 31
0.0
  0
LWPOLYLINE
  5
11F6
330
11BF
100
AcDbEntity
  8
BLOCKS
  6
Continuous
100
AcDbPolyline
 90
        8
 70
   128
 43
0.0
 10
0.0000000000000568
 20
0.3601349450744919
 10
0.0221216687378387
 20
0.3602153098436247
 10
0.04422246192388
 20
0.360235736381469
 10
0.0662830356326367
 20
0.3601962103015239
 10
0.0882841396956451
 20
0.3600963597970121
 10
0.1202775936764056
 20
0.3598407044921714
 10
0.1362224274674872
 20
0.3596627778090351
 10
0.1530678667175493
 20
0.3594379949483937
  0
LWPOLYLINE
  5
11F7
330
11BF
100
AcDbEntity
  8
BLOCKS
  6
Continuous
100
AcDbPolyline
 90
        6
 70
   128
 43
0.0
 10
0.1300114806222723
 20
0.4171623902955162
 10
0.1311420220886248
 20
0.416530221835501
 10
0.135670822590555
 20
0.4142443083032959
 10
0.1402099778691763
 20
0.4123515029309602
 10
0.1447561109641242
 20
0.4108549544702101
 10
0.1514585515169529
 20
0.4094076454802007
  0
LINE
  5
11F8
330
11BF
100
AcDbEntity
  8
BLOCKS
  6
Continuous
100
AcDbLine
 10
0.1496451217250865
 20
0.4085644487764739
 30
0.0
 11
0.1434572265793008
 21
0.4085644487764739
 31
0.0
  0
LWPOLYLINE
  5
11F9
330
11BF
100
AcDbEntity
  8
BLOCKS
  6
Continuous
100
AcDbPolyline
 90
        9
 70
   128
 43
0.0
 10
0.1496451217251433
 20
0.4085644487763603
 10
0.1499744716030591
 20
0.4085367536073364
 10
0.1502947000804511
 20
0.4084544351225077
 10
0.1505969383754291
 20
0.4083197731463315
 10
0.1508728159474231
 20
0.4081364971649464
 10
0.1511146923203341
 20
0.4079096830377012
 10
0.1513158686871634
 20
0.4076456124201969
 10
0.1514707734344256
 20
0.4073515987927295
 10
0.1515751164489529
 20
0.4070357849125231
  0
LINE
  5
11FA
330
11BF
100
AcDbEntity
  8
BLOCKS
  6
Continuous
100
AcDbLine
 10
0.1602177588002291
 20
0.3680833869455
 30
0.0
 11
0.1515751164489529
 21
0.4070357849125231
 31
0.0
  0
LWPOLYLINE
  5
11FB
330
11BF
100
AcDbEntity
  8
BLOCKS
  6
Continuous
100
AcDbPolyline
 90
        9
 70
   128
 43
0.0
 10
0.1603754542795173
 20
0.3606957776282798
 10
0.1606189037529475
 20
0.3614175093290441
 10
0.1608066452158141
 20
0.3621562215146241
 10
0.160937580027678
 20
0.3629075913302131
 10
0.1610109419738137
 20
0.3636672218502781
 10
0.1610263017489615
 20
0.3644306678086195
 10
0.1609835694695789
 20
0.3651934616113976
 10
0.1608829951997563
 20
0.3659511394811261
 10
0.1607251674880104
 20
0.3666992675783831
  0
ARC
  5
11FC
330
11BF
100
AcDbEntity
  8
BLOCKS
100
AcDbCircle
 10
0.1533472126727702
 20
0.3796720798997057
 30
0.0
 40
0.0202360131443598
100
AcDbArc
 50
269.2090412018583
 51
290.3230877264765
  0
ARC
  5
11FD
330
11BF
100
AcDbEntity
  8
BLOCKS
100
AcDbCircle
 10
0.1589794483521132
 20
0.4070877112667404
 30
0.0
 40
0.0016652345594597
100
AcDbArc
 50
62.47440891453567
 51
86.18489010368957
  0
ARC
  5
11FE
330
11BF
100
AcDbEntity
  8
BLOCKS
100
AcDbCircle
 10
0.1599213069113148
 20
0.4629428639718754
 30
0.0
 40
0.0541999801458717
100
AcDbArc
 50
261.0171130859145
 51
269.1214382929913
  0
LWPOLYLINE
  5
11FF
330
11BF
100
AcDbEntity
  8
BLOCKS
  6
Continuous
100
AcDbPolyline
 90
        9
 70
   128
 43
0.0
 10
0.2004201596710118
 20
0.4085644487763603
 10
0.2006224367638651
 20
0.4085540371677326
 10
0.200822607826808
 20
0.4085229107434998
 10
0.2010185887570515
 20
0.4084713935797027
 10
0.2012083390778798
 20
0.4084000220530016
 10
0.2013898831831966
 20
0.4083095392556971
 10
0.2015613309067703
 20
0.4082008872593406
 10
0.2017208972021649
 20
0.4080751973059478
 10
0.2018669207274115
 20
0.4079337780301558
  0
LWPOLYLINE
  5
1200
330
11BF
100
AcDbEntity
  8
BLOCKS
  6
Continuous
100
AcDbPolyline
 90
        4
 70
   128
 43
0.0
 10
0.207455255612274
 20
0.4017821426324418
 10
0.209293087633398
 20
0.398962070050743
 10
0.2101254324347224
 20
0.3956679073792202
 10
0.2101032090071726
 20
0.3937447306997228
  0
LINE
  5
1201
330
11BF
100
AcDbEntity
  8
BLOCKS
  6
Continuous
100
AcDbLine
 10
0.2018669207273547
 20
0.4079337780301558
 30
0.0
 11
0.2074552556122171
 21
0.4017821426324418
 31
0.0
  0
ENDBLK
  5
1203
330
11BF
100
AcDbEntity
  8
0
100
AcDbBlockEnd
  0
ENDSEC
  0
SECTION
  2
ENTITIES
  0
INSERT
  5
1103
330
1F
100
AcDbEntity
  8
cotas
100
AcDbBlockReference
  2
105012PL
 10
3619.786430713144
 20
1766.109497465888
 30
0.0
  0
INSERT
  5
1190
330
1F
100
AcDbEntity
  8
cotas
100
AcDbBlockReference
  2
105012CT
 10
3621.682097173947
 20
1765.654090138172
 30
0.0
  0
INSERT
  5
11BE
330
1F
100
AcDbEntity
  8
cotas
100
AcDbBlockReference
  2
105012AL
 10
3620.978172079548
 20
1765.65561646683
 30
0.0
  0
INSERT
  5
1204
330
1F
100
AcDbEntity
  8
cotas
100
AcDbBlockReference
  2
105012AF
 10
3620.443738708548
 20
1765.660195451473
 30
0.0
  0
ENDSEC
  0
SECTION
  2
OBJECTS
  0
DICTIONARY
  5
C
330
0
100
AcDbDictionary
281
     1
  3
ACAD_2007HEADERVARS_RT
350
126E
  3
ACAD_COLOR
350
EE6
  3
ACAD_GROUP
350
D
  3
ACAD_LAYOUT
350
1A
  3
ACAD_MATERIAL
350
EE5
  3
ACAD_MLEADERSTYLE
350
10A8
  3
ACAD_MLINESTYLE
350
17
  3
ACAD_PLOTSETTINGS
350
19
  3
ACAD_PLOTSTYLENAME
350
E
  3
ACAD_SCALELIST
350
1096
  3
ACAD_TABLESTYLE
350
EE7
  3
ACAD_VISUALSTYLE
350
1082
  3
ACDB_RECOMPOSE_DATA
350
126C
  3
AcDbVariableDictionary
350
3D
  3
AEC_PROPERTY_SET_DEFS
350
1102
  3
ASE_INDEX_DICTIONARY
350
1066
  3
Autodesk_PNP
350
10B2
  3
DWGPROPS
350
126D
  0
DICTIONARY
  5
1051
330
2
100
AcDbDictionary
280
     1
281
     1
  3
ACAD_LAYERFILTERS
360
1065
  3
ACLYDICTIONARY
360
1064
  0
DICTIONARY
  5
1205
330
10
100
AcDbDictionary
280
     1
281
     1
  3
ADSK_XREC_LAYER_RECONCILED
360
1206
  0
DICTIONARY
  5
1207
330
2F
100
AcDbDictionary
280
     1
281
     1
  3
ADSK_XREC_LAYER_RECONCILED
360
1208
  0
DICTIONARY
  5
1209
330
30
100
AcDbDictionary
280
     1
281
     1
  3
ADSK_XREC_LAYER_RECONCILED
360
120A
  0
DICTIONARY
  5
120B
330
31
100
AcDbDictionary
280
     1
281
     1
  3
ADSK_XREC_LAYER_RECONCILED
360
120C
  0
DICTIONARY
  5
120D
330
32
100
AcDbDictionary
280
     1
281
     1
  3
ADSK_XREC_LAYER_RECONCILED
360
120E
  0
DICTIONARY
  5
120F
330
33
100
AcDbDictionary
280
     1
281
     1
  3
ADSK_XREC_LAYER_RECONCILED
360
1210
  0
DICTIONARY
  5
1211
330
34
100
AcDbDictionary
280
     1
281
     1
  3
ADSK_XREC_LAYER_RECONCILED
360
1212
  0
DICTIONARY
  5
1213
330
35
100
AcDbDictionary
280
     1
281
     1
  3
ADSK_XREC_LAYER_RECONCILED
360
1214
  0
DICTIONARY
  5
1215
330
36
100
AcDbDictionary
280
     1
281
     1
  3
ADSK_XREC_LAYER_RECONCILED
360
1216
  0
DICTIONARY
  5
1217
330
37
100
AcDbDictionary
280
     1
281
     1
  3
ADSK_XREC_LAYER_RECONCILED
360
1218
  0
DICTIONARY
  5
1219
330
5D6
100
AcDbDictionary
280
     1
281
     1
  3
ADSK_XREC_LAYER_RECONCILED
360
121A
  0
DICTIONARY
  5
121B
330
8AF
100
AcDbDictionary
280
     1
281
     1
  3
ADSK_XREC_LAYER_RECONCILED
360
121C
  0
DICTIONARY
  5
121D
330
8F8
100
AcDbDictionary
280
     1
281
     1
  3
ADSK_XREC_LAYER_RECONCILED
360
121E
  0
DICTIONARY
  5
121F
330
91D
100
AcDbDictionary
280
     1
281
     1
  3
ADSK_XREC_LAYER_RECONCILED
360
1220
  0
DICTIONARY
  5
1221
330
C7B
100
AcDbDictionary
280
     1
281
     1
  3
ADSK_XREC_LAYER_RECONCILED
360
1222
  0
DICTIONARY
  5
1223
330
1060
100
AcDbDictionary
280
     1
281
     1
  3
ADSK_XREC_LAYER_RECONCILED
360
1224
  0
DICTIONARY
  5
1225
330
10B3
100
AcDbDictionary
280
     1
281
     1
  3
ADSK_XREC_LAYER_RECONCILED
360
1226
  0
DICTIONARY
  5
126E
102
{ACAD_REACTORS
330
C
102
}
330
C
100
AcDbDictionary
281
     1
  3
DIMJOGANG
350
126F
  0
DICTIONARY
  5
EE6
102
{ACAD_REACTORS
330
C
102
}
330
C
100
AcDbDictionary
281
     1
  0
DICTIONARY
  5
D
102
{ACAD_REACTORS
330
C
102
}
330
C
100
AcDbDictionary
281
     1
  0
DICTIONARY
  5
1A
102
{ACAD_REACTORS
330
C
102
}
330
C
100
AcDbDictionary
281
     1
  3
Layout1
350
1E
  3
Layout2
350
26
  3
Model
350
22
  0
DICTIONARY
  5
EE5
102
{ACAD_REACTORS
330
C
102
}
330
C
100
AcDbDictionary
281
     1
  3
ByBlock
350
1072
  3
ByLayer
350
106A
  3
Global
350
107A
  0
DICTIONARY
  5
10A8
102
{ACAD_REACTORS
330
C
102
}
330
C
100
AcDbDictionary
281
     1
  3
Standard
350
10A9
  0
DICTIONARY
  5
17
102
{ACAD_REACTORS
330
C
102
}
330
C
100
AcDbDictionary
281
     1
  3
Standard
350
18
  0
DICTIONARY
  5
19
102
{ACAD_REACTORS
330
C
102
}
330
C
100
AcDbDictionary
281
     1
  0
ACDBDICTIONARYWDFLT
  5
E
102
{ACAD_REACTORS
330
C
102
}
330
C
100
AcDbDictionary
281
     1
  3
Normal
350
F
100
AcDbDictionaryWithDefault
340
F
  0
DICTIONARY
  5
1096
102
{ACAD_REACTORS
330
C
102
}
330
C
100
AcDbDictionary
281
     1
  3
A0
350
1097
  3
A1
350
1098
  3
A2
350
1099
  3
A3
350
109A
  3
A4
350
109B
  3
A5
350
109C
  3
A6
350
109D
  3
A7
350
109E
  3
A8
350
109F
  3
A9
350
10A0
  3
B0
350
10A1
  3
B1
350
10A2
  3
B2
350
10A3
  3
B3
350
10A4
  3
B4
350
10A5
  3
B5
350
10A6
  3
B6
350
10A7
  0
DICTIONARY
  5
EE7
102
{ACAD_REACTORS
330
C
102
}
330
C
100
AcDbDictionary
281
     1
  3
Standard
350
EE8
  0
DICTIONARY
  5
1082
102
{ACAD_REACTORS
330
C
102
}
330
C
100
AcDbDictionary
281
     1
  3
2dWireframe
350
1088
  3
3D Hidden
350
108A
  3
3dWireframe
350
1089
  3
Basic
350
1087
  3
Brighten
350
108E
  3
ColorChange
350
1092
  3
Conceptual
350
108B
  3
Dim
350
108D
  3
EdgeColorOff
350
1095
  3
Facepattern
350
1091
  3
Flat
350
1083
  3
FlatWithEdges
350
1084
  3
Gouraud
350
1085
  3
GouraudWithEdges
350
1086
  3
JitterOff
350
1093
  3
Linepattern
350
1090
  3
OverhangOff
350
1094
  3
Realistic
350
108C
  3
Thicken
350
108F
  0
XRECORD
  5
126C
102
{ACAD_REACTORS
330
C
102
}
330
C
100
AcDbXrecord
280
     1
 90
        1
330
EE8
  0
DICTIONARY
  5
3D
102
{ACAD_REACTORS
330
C
102
}
330
C
100
AcDbDictionary
281
     1
  3
CANNOSCALE
350
1266
  3
CMLEADERSTYLE
350
1265
  3
CTABLESTYLE
350
1049
  3
DIMASSOC
350
3F
  3
HIDETEXT
350
3E
  3
INDEXCTL
350
1268
  3
SORTENTS
350
1267
  3
XCLIPFRAME
350
1269
  0
DICTIONARY
  5
1102
102
{ACAD_REACTORS
330
C
102
}
330
C
100
AcDbDictionary
281
     1
  0
DICTIONARY
  5
1066
102
{ACAD_REACTORS
330
C
102
}
330
C
100
AcDbDictionary
281
     1
  3
ASEBlockHierarchyIndexRecord
350
1067
1001
DCO15
1040
1602247867.484
  0
DICTIONARY
  5
10B2
102
{ACAD_REACTORS
330
C
102
}
330
C
100
AcDbDictionary
281
     1
  0
XRECORD
  5
126D
102
{ACAD_REACTORS
330
C
102
}
330
C
100
AcDbXrecord
280
     1
  1
DWGPROPS COOKIE
  2

  3

  4

  6

  7

  8
Julio
  9

300
=
301
=
302
=
303
=
304
=
305
=
306
=
307
=
308
=
309
=
 40
0.0017845717592593
 41
2456146.525027488
 42
2456146.526812061
  1

 90
        0
  0
DICTIONARY
  5
1065
102
{ACAD_REACTORS
330
1051
102
}
330
1051
100
AcDbDictionary
281
     1
  0
DICTIONARY
  5
1064
102
{ACAD_REACTORS
330
1051
102
}
330
1051
100
AcDbDictionary
281
     1
1001
ACAD
1000
<All
  0
XRECORD
  5
1206
102
{ACAD_REACTORS
330
1205
102
}
330
1205
100
AcDbXrecord
280
     1
290
     1
  0
XRECORD
  5
1208
102
{ACAD_REACTORS
330
1207
102
}
330
1207
100
AcDbXrecord
280
     1
290
     1
  0
XRECORD
  5
120A
102
{ACAD_REACTORS
330
1209
102
}
330
1209
100
AcDbXrecord
280
     1
290
     1
  0
XRECORD
  5
120C
102
{ACAD_REACTORS
330
120B
102
}
330
120B
100
AcDbXrecord
280
     1
290
     1
  0
XRECORD
  5
120E
102
{ACAD_REACTORS
330
120D
102
}
330
120D
100
AcDbXrecord
280
     1
290
     1
  0
XRECORD
  5
1210
102
{ACAD_REACTORS
330
120F
102
}
330
120F
100
AcDbXrecord
280
     1
290
     1
  0
XRECORD
  5
1212
102
{ACAD_REACTORS
330
1211
102
}
330
1211
100
AcDbXrecord
280
     1
290
     1
  0
XRECORD
  5
1214
102
{ACAD_REACTORS
330
1213
102
}
330
1213
100
AcDbXrecord
280
     1
290
     1
  0
XRECORD
  5
1216
102
{ACAD_REACTORS
330
1215
102
}
330
1215
100
AcDbXrecord
280
     1
290
     1
  0
XRECORD
  5
1218
102
{ACAD_REACTORS
330
1217
102
}
330
1217
100
AcDbXrecord
280
     1
290
     1
  0
XRECORD
  5
121A
102
{ACAD_REACTORS
330
1219
102
}
330
1219
100
AcDbXrecord
280
     1
290
     1
  0
XRECORD
  5
121C
102
{ACAD_REACTORS
330
121B
102
}
330
121B
100
AcDbXrecord
280
     1
290
     1
  0
XRECORD
  5
121E
102
{ACAD_REACTORS
330
121D
102
}
330
121D
100
AcDbXrecord
280
     1
290
     1
  0
XRECORD
  5
1220
102
{ACAD_REACTORS
330
121F
102
}
330
121F
100
AcDbXrecord
280
     1
290
     1
  0
XRECORD
  5
1222
102
{ACAD_REACTORS
330
1221
102
}
330
1221
100
AcDbXrecord
280
     1
290
     1
  0
XRECORD
  5
1224
102
{ACAD_REACTORS
330
1223
102
}
330
1223
100
AcDbXrecord
280
     1
290
     1
  0
XRECORD
  5
1226
102
{ACAD_REACTORS
330
1225
102
}
330
1225
100
AcDbXrecord
280
     1
290
     1
  0
XRECORD
  5
126F
102
{ACAD_REACTORS
330
126E
102
}
330
126E
100
AcDbXrecord
280
     1
 40
1.570796326794896
  0
LAYOUT
  5
1E
102
{ACAD_XDICTIONARY
360
1270
102
}
102
{ACAD_REACTORS
330
1A
102
}
330
1A
100
AcDbPlotSettings
  1

  2
Ploter HP500
  4

  6

 40
0.0
 41
0.0
 42
0.0
 43
0.0
 44
0.0
 45
0.0
 46
0.0
 47
0.0
 48
0.0
 49
0.0
140
0.0
141
0.0
142
1.0
143
1.0
 70
   688
 72
     0
 73
     0
 74
     5
  7
sanindusa.ctb
 75
    16
147
1.0
148
0.0
149
0.0
100
AcDbLayout
  1
Layout1
 70
     1
 71
     1
 10
0.0
 20
0.0
 11
420.0
 21
297.0
 12
0.0
 22
0.0
 32
0.0
 14
1.000000000000000E+20
 24
1.000000000000000E+20
 34
1.000000000000000E+20
 15
-1.000000000000000E+20
 25
-1.000000000000000E+20
 35
-1.000000000000000E+20
146
0.0
 13
0.0
 23
0.0
 33
0.0
 16
1.0
 26
0.0
 36
0.0
 17
0.0
 27
1.0
 37
0.0
 76
     0
330
1B
  0
LAYOUT
  5
26
102
{ACAD_XDICTIONARY
360
1274
102
}
102
{ACAD_REACTORS
330
1A
102
}
330
1A
100
AcDbPlotSettings
  1

  2
Ploter HP500
  4

  6

 40
0.0
 41
0.0
 42
0.0
 43
0.0
 44
0.0
 45
0.0
 46
0.0
 47
0.0
 48
0.0
 49
0.0
140
0.0
141
0.0
142
1.0
143
1.0
 70
   688
 72
     0
 73
     0
 74
     5
  7
sanindusa.ctb
 75
    16
147
1.0
148
0.0
149
0.0
100
AcDbLayout
  1
Layout2
 70
     1
 71
     2
 10
0.0
 20
0.0
 11
12.0
 21
9.0
 12
0.0
 22
0.0
 32
0.0
 14
0.0
 24
0.0
 34
0.0
 15
0.0
 25
0.0
 35
0.0
146
0.0
 13
0.0
 23
0.0
 33
0.0
 16
1.0
 26
0.0
 36
0.0
 17
0.0
 27
1.0
 37
0.0
 76
     0
330
23
  0
LAYOUT
  5
22
102
{ACAD_XDICTIONARY
360
1272
102
}
102
{ACAD_REACTORS
330
1A
102
}
330
1A
100
AcDbPlotSettings
  1

  2
Ploter HP500
  4
User268
  6

 40
4.995333194732666
 41
16.97565841674804
 42
4.995330810546875
 43
16.97567749023437
 44
209.9733276367187
 45
296.9259948730469
 46
0.0
 47
0.0
 48
0.0
 49
0.0
140
0.0
141
0.0
142
1.0
143
1.0
 70
 11952
 72
     1
 73
     1
 74
     0
  7
sanindusa.ctb
 75
     0
147
1.0
148
-427.5957866592534
149
7.362384574453926
100
AcDbLayout
  1
Model
 70
     1
 71
     0
 10
0.0
 20
0.0
 11
12.0
 21
9.0
 12
0.0
 22
0.0
 32
0.0
 14
0.0
 24
0.0
 34
0.0
 15
0.0
 25
0.0
 35
0.0
146
0.0
 13
0.0
 23
0.0
 33
0.0
 16
1.0
 26
0.0
 36
0.0
 17
0.0
 27
1.0
 37
0.0
 76
     0
330
1F
331
1068
  0
MATERIAL
  5
1072
102
{ACAD_XDICTIONARY
360
1073
102
}
102
{ACAD_REACTORS
330
EE5
102
}
330
EE5
100
AcDbMaterial
  1
ByBlock
 72
     0
 43
0.0008202099737533
 43
0.0
 43
0.0
 43
0.0
 43
0.0
 43
0.0008202099737533
 43
0.0
 43
0.0
 43
0.0
 43
0.0
 43
1.0
 43
0.0
 43
0.0
 43
0.0
 43
0.0
 43
1.0
 77
     0
 47
0.0008202099737533
 47
0.0
 47
0.0
 47
0.0
 47
0.0
 47
0.0008202099737533
 47
0.0
 47
0.0
 47
0.0
 47
0.0
 47
1.0
 47
0.0
 47
0.0
 47
0.0
 47
0.0
 47
1.0
171
     0
 49
0.0008202099737533
 49
0.0
 49
0.0
 49
0.0
 49
0.0
 49
0.0008202099737533
 49
0.0
 49
0.0
 49
0.0
 49
0.0
 49
1.0
 49
0.0
 49
0.0
 49
0.0
 49
0.0
 49
1.0
175
     0
142
0.0008202099737533
142
0.0
142
0.0
142
0.0
142
0.0
142
0.0008202099737533
142
0.0
142
0.0
142
0.0
142
0.0
142
1.0
142
0.0
142
0.0
142
0.0
142
0.0
142
1.0
179
     0
144
0.0008202099737533
144
0.0
144
0.0
144
0.0
144
0.0
144
0.0008202099737533
144
0.0
144
0.0
144
0.0
144
0.0
144
1.0
144
0.0
144
0.0
144
0.0
144
0.0
144
1.0
147
0.0008202099737533
147
0.0
147
0.0
147
0.0
147
0.0
147
0.0008202099737533
147
0.0
147
0.0
147
0.0
147
0.0
147
1.0
147
0.0
147
0.0
147
0.0
147
0.0
147
1.0
  0
MATERIAL
  5
106A
102
{ACAD_XDICTIONARY
360
106B
102
}
102
{ACAD_REACTORS
330
EE5
102
}
330
EE5
100
AcDbMaterial
  1
ByLayer
 72
     0
 43
0.0008202099737533
 43
0.0
 43
0.0
 43
0.0
 43
0.0
 43
0.0008202099737533
 43
0.0
 43
0.0
 43
0.0
 43
0.0
 43
1.0
 43
0.0
 43
0.0
 43
0.0
 43
0.0
 43
1.0
 77
     0
 47
0.0008202099737533
 47
0.0
 47
0.0
 47
0.0
 47
0.0
 47
0.0008202099737533
 47
0.0
 47
0.0
 47
0.0
 47
0.0
 47
1.0
 47
0.0
 47
0.0
 47
0.0
 47
0.0
 47
1.0
171
     0
 49
0.0008202099737533
 49
0.0
 49
0.0
 49
0.0
 49
0.0
 49
0.0008202099737533
 49
0.0
 49
0.0
 49
0.0
 49
0.0
 49
1.0
 49
0.0
 49
0.0
 49
0.0
 49
0.0
 49
1.0
175
     0
142
0.0008202099737533
142
0.0
142
0.0
142
0.0
142
0.0
142
0.0008202099737533
142
0.0
142
0.0
142
0.0
142
0.0
142
1.0
142
0.0
142
0.0
142
0.0
142
0.0
142
1.0
179
     0
144
0.0008202099737533
144
0.0
144
0.0
144
0.0
144
0.0
144
0.0008202099737533
144
0.0
144
0.0
144
0.0
144
0.0
144
1.0
144
0.0
144
0.0
144
0.0
144
0.0
144
1.0
147
0.0008202099737533
147
0.0
147
0.0
147
0.0
147
0.0
147
0.0008202099737533
147
0.0
147
0.0
147
0.0
147
0.0
147
1.0
147
0.0
147
0.0
147
0.0
147
0.0
147
1.0
  0
MATERIAL
  5
107A
102
{ACAD_XDICTIONARY
360
107B
102
}
102
{ACAD_REACTORS
330
EE5
102
}
330
EE5
100
AcDbMaterial
  1
Global
 72
     0
 43
0.0008202099737533
 43
0.0
 43
0.0
 43
0.0
 43
0.0
 43
0.0008202099737533
 43
0.0
 43
0.0
 43
0.0
 43
0.0
 43
1.0
 43
0.0
 43
0.0
 43
0.0
 43
0.0
 43
1.0
 77
     0
 47
0.0008202099737533
 47
0.0
 47
0.0
 47
0.0
 47
0.0
 47
0.0008202099737533
 47
0.0
 47
0.0
 47
0.0
 47
0.0
 47
1.0
 47
0.0
 47
0.0
 47
0.0
 47
0.0
 47
1.0
171
     0
 49
0.0008202099737533
 49
0.0
 49
0.0
 49
0.0
 49
0.0
 49
0.0008202099737533
 49
0.0
 49
0.0
 49
0.0
 49
0.0
 49
1.0
 49
0.0
 49
0.0
 49
0.0
 49
0.0
 49
1.0
175
     0
142
0.0008202099737533
142
0.0
142
0.0
142
0.0
142
0.0
142
0.0008202099737533
142
0.0
142
0.0
142
0.0
142
0.0
142
1.0
142
0.0
142
0.0
142
0.0
142
0.0
142
1.0
179
     0
144
0.0008202099737533
144
0.0
144
0.0
144
0.0
144
0.0
144
0.0008202099737533
144
0.0
144
0.0
144
0.0
144
0.0
144
1.0
144
0.0
144
0.0
144
0.0
144
0.0
144
1.0
147
0.0008202099737533
147
0.0
147
0.0
147
0.0
147
0.0
147
0.0008202099737533
147
0.0
147
0.0
147
0.0
147
0.0
147
1.0
147
0.0
147
0.0
147
0.0
147
0.0
147
1.0
  0
MLEADERSTYLE
  5
10A9
102
{ACAD_REACTORS
330
10A8
102
}
330
10A8
100
AcDbMLeaderStyle
170
     2
171
     1
172
     0
 90
        2
 40
0.0
 41
0.0
173
     1
 91
-1056964608
340
14
 92
       -2
290
     1
 42
2.0
291
     1
 43
0.36
  3
Standard
 44
4.0
300

342
11
174
     1
178
     6
175
     1
176
     0
 93
-1056964608
 45
4.0
292
     0
297
     0
 46
4.0
 94
-1056964608
 47
1.0
 49
1.0
140
1.0
293
     1
141
0.0
294
     1
177
     0
142
1.0
295
     0
296
     0
143
0.125
1001
ACAD_MLEADERVER
1070
     2
  0
MLINESTYLE
  5
18
102
{ACAD_REACTORS
330
17
102
}
330
17
100
AcDbMlineStyle
  2
STANDARD
 70
     0
  3

 62
   256
 51
90.0
 52
90.0
 71
     2
 49
0.5
 62
   256
  6
BYLAYER
 49
-0.5
 62
   256
  6
BYLAYER
  0
ACDBPLACEHOLDER
  5
F
102
{ACAD_REACTORS
330
E
102
}
330
E
  0
SCALE
  5
1097
102
{ACAD_REACTORS
330
1096
102
}
330
1096
100
AcDbScale
 70
     0
300
1:1
140
1.0
141
1.0
290
     1
  0
SCALE
  5
1098
102
{ACAD_REACTORS
330
1096
102
}
330
1096
100
AcDbScale
 70
     0
300
1:2
140
1.0
141
2.0
290
     0
  0
SCALE
  5
1099
102
{ACAD_REACTORS
330
1096
102
}
330
1096
100
AcDbScale
 70
     0
300
1:4
140
1.0
141
4.0
290
     0
  0
SCALE
  5
109A
102
{ACAD_REACTORS
330
1096
102
}
330
1096
100
AcDbScale
 70
     0
300
1:5
140
1.0
141
5.0
290
     0
  0
SCALE
  5
109B
102
{ACAD_REACTORS
330
1096
102
}
330
1096
100
AcDbScale
 70
     0
300
1:8
140
1.0
141
8.0
290
     0
  0
SCALE
  5
109C
102
{ACAD_REACTORS
330
1096
102
}
330
1096
100
AcDbScale
 70
     0
300
1:10
140
1.0
141
10.0
290
     0
  0
SCALE
  5
109D
102
{ACAD_REACTORS
330
1096
102
}
330
1096
100
AcDbScale
 70
     0
300
1:16
140
1.0
141
16.0
290
     0
  0
SCALE
  5
109E
102
{ACAD_REACTORS
330
1096
102
}
330
1096
100
AcDbScale
 70
     0
300
1:20
140
1.0
141
20.0
290
     0
  0
SCALE
  5
109F
102
{ACAD_REACTORS
330
1096
102
}
330
1096
100
AcDbScale
 70
     0
300
1:30
140
1.0
141
30.0
290
     0
  0
SCALE
  5
10A0
102
{ACAD_REACTORS
330
1096
102
}
330
1096
100
AcDbScale
 70
     0
300
1:40
140
1.0
141
40.0
290
     0
  0
SCALE
  5
10A1
102
{ACAD_REACTORS
330
1096
102
}
330
1096
100
AcDbScale
 70
     0
300
1:50
140
1.0
141
50.0
290
     0
  0
SCALE
  5
10A2
102
{ACAD_REACTORS
330
1096
102
}
330
1096
100
AcDbScale
 70
     0
300
1:100
140
1.0
141
100.0
290
     0
  0
SCALE
  5
10A3
102
{ACAD_REACTORS
330
1096
102
}
330
1096
100
AcDbScale
 70
     0
300
2:1
140
2.0
141
1.0
290
     0
  0
SCALE
  5
10A4
102
{ACAD_REACTORS
330
1096
102
}
330
1096
100
AcDbScale
 70
     0
300
4:1
140
4.0
141
1.0
290
     0
  0
SCALE
  5
10A5
102
{ACAD_REACTORS
330
1096
102
}
330
1096
100
AcDbScale
 70
     0
300
8:1
140
8.0
141
1.0
290
     0
  0
SCALE
  5
10A6
102
{ACAD_REACTORS
330
1096
102
}
330
1096
100
AcDbScale
 70
     0
300
10:1
140
10.0
141
1.0
290
     0
  0
SCALE
  5
10A7
102
{ACAD_REACTORS
330
1096
102
}
330
1096
100
AcDbScale
 70
     0
300
100:1
140
100.0
141
1.0
290
     0
  0
TABLESTYLE
  5
EE8
102
{ACAD_XDICTIONARY
360
126A
102
}
102
{ACAD_REACTORS
330
EE7
102
}
330
EE7
100
AcDbTableStyle
  3
Standard
 70
     0
 71
     0
 40
1.5
 41
1.5
280
     0
281
     0
  7
Standard
140
4.5
170
     2
 62
     0
 63
     7
283
     0
274
    -2
284
     1
 64
     0
275
    -2
285
     1
 65
     0
276
    -2
286
     1
 66
     0
277
    -2
287
     1
 67
     0
278
    -2
288
     1
 68
     0
279
    -2
289
     1
 69
     0
  7
Standard
140
6.0
170
     5
 62
     0
 63
     7
283
     0
274
    -2
284
     1
 64
     0
275
    -2
285
     1
 65
     0
276
    -2
286
     1
 66
     0
277
    -2
287
     1
 67
     0
278
    -2
288
     1
 68
     0
279
    -2
289
     1
 69
     0
  7
Standard
140
4.5
170
     5
 62
     0
 63
     7
283
     0
274
    -2
284
     1
 64
     0
275
    -2
285
     1
 65
     0
276
    -2
286
     1
 66
     0
277
    -2
287
     1
 67
     0
278
    -2
288
     1
 68
     0
279
    -2
289
     1
 69
     0
  0
VISUALSTYLE
  5
1088
102
{ACAD_XDICTIONARY
360
1284
102
}
102
{ACAD_REACTORS
330
1082
102
}
330
1082
100
AcDbVisualStyle
  2
2dWireframe
 70
     4
 71
     0
 72
     2
 73
     0
 90
        0
 40
-0.6
 41
-30.0
 62
     5
 63
     7
 74
     1
 91
        4
 64
     7
 65
   257
 75
     1
175
     1
 42
1.0
 92
        0
 66
   257
 43
1.0
 76
     1
 77
     6
 78
     2
 67
     7
 79
     5
170
     0
171
     0
290
     0
174
     0
 93
        1
 44
0.0
173
     0
291
     0
 45
0.0
1001
ACAD
1000
AcDbSavedByObjectVersion
1070
     0
  0
VISUALSTYLE
  5
108A
102
{ACAD_XDICTIONARY
360
1288
102
}
102
{ACAD_REACTORS
330
1082
102
}
330
1082
100
AcDbVisualStyle
  2
3D Hidden
 70
     6
 71
     1
 72
     2
 73
     2
 90
        0
 40
-0.6
 41
-30.0
 62
     5
 63
     7
 74
     2
 91
        2
 64
     7
 65
   257
 75
     2
175
     1
 42
179.0
 92
        0
 66
   257
 43
1.0
 76
     1
 77
     6
 78
     2
 67
     7
 79
     3
170
     0
171
     0
290
     0
174
     0
 93
        1
 44
0.0
173
     0
291
     0
 45
0.0
1001
ACAD
1000
AcDbSavedByObjectVersion
1070
     0
  0
VISUALSTYLE
  5
1089
102
{ACAD_XDICTIONARY
360
1286
102
}
102
{ACAD_REACTORS
330
1082
102
}
330
1082
100
AcDbVisualStyle
  2
3dWireframe
 70
     5
 71
     0
 72
     2
 73
     0
 90
        0
 40
-0.6
 41
-30.0
 62
     5
 63
     7
 74
     1
 91
        4
 64
     7
 65
   257
 75
     1
175
     1
 42
1.0
 92
        0
 66
   257
 43
1.0
 76
     1
 77
     6
 78
     2
 67
     7
 79
     5
170
     0
171
     0
290
     0
174
     0
 93
        1
 44
0.0
173
     0
291
     0
 45
0.0
1001
ACAD
1000
AcDbSavedByObjectVersion
1070
     0
  0
VISUALSTYLE
  5
1087
102
{ACAD_XDICTIONARY
360
1282
102
}
102
{ACAD_REACTORS
330
1082
102
}
330
1082
100
AcDbVisualStyle
  2
Basic
 70
     7
 71
     1
 72
     0
 73
     1
 90
        0
 40
-0.6
 41
-30.0
 62
     5
 63
     7
 74
     0
 91
        4
 64
     7
 65
   257
 75
     1
175
     1
 42
1.0
 92
        8
 66
     7
 43
1.0
 76
     1
 77
     6
 78
     2
 67
     7
 79
     5
170
     0
171
     0
290
     0
174
     0
 93
        1
 44
0.0
173
     0
291
     1
 45
0.0
1001
ACAD
1000
AcDbSavedByObjectVersion
1070
     0
  0
VISUALSTYLE
  5
108E
102
{ACAD_XDICTIONARY
360
1290
102
}
102
{ACAD_REACTORS
330
1082
102
}
330
1082
100
AcDbVisualStyle
  2
Brighten
 70
    12
 71
     2
 72
     2
 73
     0
 90
        0
 40
-0.6
 41
-30.0
 62
     5
 63
     7
 74
     1
 91
        4
 64
     7
 65
   257
 75
     1
175
     1
 42
1.0
 92
        8
 66
     7
 43
1.0
 76
     1
 77
     6
 78
     2
 67
     7
 79
     5
170
     0
171
     0
290
     0
174
     0
 93
        1
 44
50.0
173
     0
291
     1
 45
0.0
1001
ACAD
1000
AcDbSavedByObjectVersion
1070
     0
  0
VISUALSTYLE
  5
1092
102
{ACAD_XDICTIONARY
360
1298
102
}
102
{ACAD_REACTORS
330
1082
102
}
330
1082
100
AcDbVisualStyle
  2
ColorChange
 70
    16
 71
     2
 72
     2
 73
     3
 90
        0
 40
-0.6
 41
-30.0
 62
     5
 63
     8
 74
     1
 91
        4
 64
     7
 65
   257
 75
     1
175
     1
 42
1.0
 92
        8
 66
     8
 43
1.0
 76
     1
 77
     6
 78
     2
 67
     7
 79
     5
170
     0
171
     0
290
     0
174
     0
 93
        1
 44
0.0
173
     0
291
     1
 45
0.0
1001
ACAD
1000
AcDbSavedByObjectVersion
1070
     0
  0
VISUALSTYLE
  5
108B
102
{ACAD_XDICTIONARY
360
128A
102
}
102
{ACAD_REACTORS
330
1082
102
}
330
1082
100
AcDbVisualStyle
  2
Conceptual
 70
     9
 71
     3
 72
     2
 73
     0
 90
        0
 40
-0.6
 41
-30.0
 62
     5
 63
     7
 74
     2
 91
        2
 64
     7
 65
   257
 75
     1
175
     1
 42
179.0
 92
        8
 66
     7
 43
1.0
 76
     1
 77
     6
 78
     2
 67
     7
 79
     3
170
     0
171
     0
290
     0
174
     0
 93
        1
 44
0.0
173
     0
291
     0
 45
0.0
1001
ACAD
1000
AcDbSavedByObjectVersion
1070
     0
  0
VISUALSTYLE
  5
108D
102
{ACAD_XDICTIONARY
360
128E
102
}
102
{ACAD_REACTORS
330
1082
102
}
330
1082
100
AcDbVisualStyle
  2
Dim
 70
    11
 71
     2
 72
     2
 73
     0
 90
        0
 40
-0.6
 41
-30.0
 62
     5
 63
     7
 74
     1
 91
        4
 64
     7
 65
   257
 75
     1
175
     1
 42
1.0
 92
        8
 66
     7
 43
1.0
 76
     1
 77
     6
 78
     2
 67
     7
 79
     5
170
     0
171
     0
290
     0
174
     0
 93
        1
 44
-50.0
173
     0
291
     1
 45
0.0
1001
ACAD
1000
AcDbSavedByObjectVersion
1070
     0
  0
VISUALSTYLE
  5
1095
102
{ACAD_XDICTIONARY
360
129E
102
}
102
{ACAD_REACTORS
330
1082
102
}
330
1082
100
AcDbVisualStyle
  2
EdgeColorOff
 70
    22
 71
     2
 72
     2
 73
     0
 90
        0
 40
-0.6
 41
-30.0
 62
     5
 63
     7
 74
     1
 91
        4
 64
     7
 65
   257
 75
     1
175
     1
 42
1.0
 92
        8
 66
     7
 43
1.0
 76
     1
 77
     6
 78
     2
 67
     7
 79
     5
170
     0
171
     0
290
     0
174
     0
 93
        1
 44
0.0
173
     0
291
     1
 45
0.0
1001
ACAD
1000
AcDbSavedByObjectVersion
1070
     0
  0
VISUALSTYLE
  5
1091
102
{ACAD_XDICTIONARY
360
1296
102
}
102
{ACAD_REACTORS
330
1082
102
}
330
1082
100
AcDbVisualStyle
  2
Facepattern
 70
    15
 71
     2
 72
     2
 73
     0
 90
        0
 40
-0.6
 41
-30.0
 62
     5
 63
     7
 74
     1
 91
        4
 64
     7
 65
   257
 75
     1
175
     1
 42
1.0
 92
        8
 66
     7
 43
1.0
 76
     1
 77
     6
 78
     2
 67
     7
 79
     5
170
     0
171
     0
290
     0
174
     0
 93
        1
 44
0.0
173
     0
291
     1
 45
0.0
1001
ACAD
1000
AcDbSavedByObjectVersion
1070
     0
  0
VISUALSTYLE
  5
1083
102
{ACAD_XDICTIONARY
360
127A
102
}
102
{ACAD_REACTORS
330
1082
102
}
330
1082
100
AcDbVisualStyle
  2
Flat
 70
     0
 71
     2
 72
     1
 73
     1
 90
        2
 40
-0.6
 41
30.0
 62
     5
 63
     7
 74
     0
 91
        4
 64
     7
 65
   257
 75
     1
175
     1
 42
1.0
 92
        8
 66
     7
 43
1.0
 76
     1
 77
     6
 78
     2
 67
     7
 79
     5
170
     0
171
     0
290
     0
174
     0
 93
       13
 44
0.0
173
     0
291
     1
 45
0.0
1001
ACAD
1000
AcDbSavedByObjectVersion
1070
     0
  0
VISUALSTYLE
  5
1084
102
{ACAD_XDICTIONARY
360
127C
102
}
102
{ACAD_REACTORS
330
1082
102
}
330
1082
100
AcDbVisualStyle
  2
FlatWithEdges
 70
     1
 71
     2
 72
     1
 73
     1
 90
        2
 40
-0.6
 41
30.0
 62
     5
 63
     7
 74
     1
 91
        4
 64
     7
 65
   257
 75
     1
175
     1
 42
1.0
 92
        0
 66
   257
 43
1.0
 76
     1
 77
     6
 78
     2
 67
     7
 79
     5
170
     0
171
     0
290
     0
174
     0
 93
       13
 44
0.0
173
     0
291
     1
 45
0.0
1001
ACAD
1000
AcDbSavedByObjectVersion
1070
     0
  0
VISUALSTYLE
  5
1085
102
{ACAD_XDICTIONARY
360
127E
102
}
102
{ACAD_REACTORS
330
1082
102
}
330
1082
100
AcDbVisualStyle
  2
Gouraud
 70
     2
 71
     2
 72
     2
 73
     1
 90
        2
 40
-0.6
 41
30.0
 62
     5
 63
     7
 74
     0
 91
        4
 64
     7
 65
   257
 75
     1
175
     1
 42
1.0
 92
        0
 66
     7
 43
1.0
 76
     1
 77
     6
 78
     2
 67
     7
 79
     5
170
     0
171
     0
290
     0
174
     0
 93
       13
 44
0.0
173
     0
291
     1
 45
0.0
1001
ACAD
1000
AcDbSavedByObjectVersion
1070
     0
  0
VISUALSTYLE
  5
1086
102
{ACAD_XDICTIONARY
360
1280
102
}
102
{ACAD_REACTORS
330
1082
102
}
330
1082
100
AcDbVisualStyle
  2
GouraudWithEdges
 70
     3
 71
     2
 72
     2
 73
     1
 90
        2
 40
-0.6
 41
30.0
 62
     5
 63
     7
 74
     1
 91
        4
 64
     7
 65
   257
 75
     1
175
     1
 42
1.0
 92
        0
 66
   257
 43
1.0
 76
     1
 77
     6
 78
     2
 67
     7
 79
     5
170
     0
171
     0
290
     0
174
     0
 93
       13
 44
0.0
173
     0
291
     1
 45
0.0
1001
ACAD
1000
AcDbSavedByObjectVersion
1070
     0
  0
VISUALSTYLE
  5
1093
102
{ACAD_XDICTIONARY
360
129A
102
}
102
{ACAD_REACTORS
330
1082
102
}
330
1082
100
AcDbVisualStyle
  2
JitterOff
 70
    20
 71
     2
 72
     2
 73
     0
 90
        0
 40
-0.6
 41
-30.0
 62
     5
 63
     7
 74
     1
 91
        4
 64
     7
 65
   257
 75
     1
175
     1
 42
1.0
 92
       10
 66
     7
 43
1.0
 76
     1
 77
     6
 78
     2
 67
     7
 79
     5
170
     0
171
     0
290
     0
174
     0
 93
        1
 44
0.0
173
     0
291
     1
 45
0.0
1001
ACAD
1000
AcDbSavedByObjectVersion
1070
     0
  0
VISUALSTYLE
  5
1090
102
{ACAD_XDICTIONARY
360
1294
102
}
102
{ACAD_REACTORS
330
1082
102
}
330
1082
100
AcDbVisualStyle
  2
Linepattern
 70
    14
 71
     2
 72
     2
 73
     0
 90
        0
 40
-0.6
 41
-30.0
 62
     5
 63
     7
 74
     1
 91
        4
 64
     7
 65
   257
 75
     7
175
     7
 42
1.0
 92
        8
 66
     7
 43
1.0
 76
     1
 77
     6
 78
     2
 67
     7
 79
     5
170
     0
171
     0
290
     0
174
     0
 93
        1
 44
0.0
173
     0
291
     1
 45
0.0
1001
ACAD
1000
AcDbSavedByObjectVersion
1070
     0
  0
VISUALSTYLE
  5
1094
102
{ACAD_XDICTIONARY
360
129C
102
}
102
{ACAD_REACTORS
330
1082
102
}
330
1082
100
AcDbVisualStyle
  2
OverhangOff
 70
    21
 71
     2
 72
     2
 73
     0
 90
        0
 40
-0.6
 41
-30.0
 62
     5
 63
     7
 74
     1
 91
        4
 64
     7
 65
   257
 75
     1
175
     1
 42
1.0
 92
        9
 66
     7
 43
1.0
 76
     1
 77
     6
 78
     2
 67
     7
 79
     5
170
     0
171
     0
290
     0
174
     0
 93
        1
 44
0.0
173
     0
291
     1
 45
0.0
1001
ACAD
1000
AcDbSavedByObjectVersion
1070
     0
  0
VISUALSTYLE
  5
108C
102
{ACAD_XDICTIONARY
360
128C
102
}
102
{ACAD_REACTORS
330
1082
102
}
330
1082
100
AcDbVisualStyle
  2
Realistic
 70
     8
 71
     2
 72
     2
 73
     0
 90
        0
 40
-0.6
 41
-30.0
 62
     5
 63
     7
 74
     1
 91
        0
 64
     7
 65
   257
 75
     1
175
     1
 42
1.0
 92
        8
 66
     8
 43
1.0
 76
     1
 77
     6
 78
     2
 67
     7
 79
     5
170
     0
171
     0
290
     0
174
     0
 93
       13
 44
0.0
173
     0
291
     0
 45
0.0
1001
ACAD
1000
AcDbSavedByObjectVersion
1070
     0
  0
VISUALSTYLE
  5
108F
102
{ACAD_XDICTIONARY
360
1292
102
}
102
{ACAD_REACTORS
330
1082
102
}
330
1082
100
AcDbVisualStyle
  2
Thicken
 70
    13
 71
     2
 72
     2
 73
     0
 90
        0
 40
-0.6
 41
-30.0
 62
     5
 63
     7
 74
     1
 91
        4
 64
     7
 65
   257
 75
     1
175
     1
 42
1.0
 92
       12
 66
     7
 43
1.0
 76
     1
 77
     6
 78
     2
 67
     7
 79
     5
170
     0
171
     0
290
     0
174
     0
 93
        1
 44
0.0
173
     0
291
     1
 45
0.0
1001
ACAD
1000
AcDbSavedByObjectVersion
1070
     0
  0
DICTIONARYVAR
  5
1266
102
{ACAD_REACTORS
330
3D
102
}
330
3D
100
DictionaryVariables
280
     0
  1
1:1
  0
DICTIONARYVAR
  5
1265
102
{ACAD_REACTORS
330
3D
102
}
330
3D
100
DictionaryVariables
280
     0
  1
STANDARD
  0
DICTIONARYVAR
  5
1049
102
{ACAD_REACTORS
330
3D
102
}
330
3D
100
DictionaryVariables
280
     0
  1
STANDARD
  0
DICTIONARYVAR
  5
3F
102
{ACAD_REACTORS
330
3D
102
}
330
3D
100
DictionaryVariables
280
     0
  1
2
  0
DICTIONARYVAR
  5
3E
102
{ACAD_REACTORS
330
3D
102
}
330
3D
100
DictionaryVariables
280
     0
  1
1
  0
DICTIONARYVAR
  5
1268
102
{ACAD_REACTORS
330
3D
102
}
330
3D
100
DictionaryVariables
280
     0
  1
0
  0
DICTIONARYVAR
  5
1267
102
{ACAD_REACTORS
330
3D
102
}
330
3D
100
DictionaryVariables
280
     0
  1
127
  0
DICTIONARYVAR
  5
1269
102
{ACAD_REACTORS
330
3D
102
}
330
3D
100
DictionaryVariables
280
     0
  1
0
  0
XRECORD
  5
1067
102
{ACAD_REACTORS
330
1066
102
}
330
1066
100
AcDbXrecord
280
     1
  0
DICTIONARY
  5
1270
330
1E
100
AcDbDictionary
280
     1
281
     1
  3
ACAD_XREC_ROUNDTRIP
360
1271
  0
DICTIONARY
  5
1274
330
26
100
AcDbDictionary
280
     1
281
     1
  3
ACAD_XREC_ROUNDTRIP
360
1275
  0
DICTIONARY
  5
1272
330
22
100
AcDbDictionary
280
     1
281
     1
  3
ACAD_XREC_ROUNDTRIP
360
1273
  0
DICTIONARY
  5
1073
330
1072
100
AcDbDictionary
280
     1
281
     1
  3
ACAD_XREC_ROUNDTRIP
360
1278
  3
BUMPTILE
360
1075
  3
DIFFUSETILE
360
1074
  3
OPACITYTILE
360
1078
  3
REFLECTIONTILE
360
1077
  3
REFRACTIONTILE
360
1079
  3
SPECULARTILE
360
1076
  0
DICTIONARY
  5
106B
330
106A
100
AcDbDictionary
280
     1
281
     1
  3
ACAD_XREC_ROUNDTRIP
360
1277
  3
BUMPTILE
360
106D
  3
DIFFUSETILE
360
106C
  3
OPACITYTILE
360
1070
  3
REFLECTIONTILE
360
106F
  3
REFRACTIONTILE
360
1071
  3
SPECULARTILE
360
106E
  0
DICTIONARY
  5
107B
330
107A
100
AcDbDictionary
280
     1
281
     1
  3
ACAD_XREC_ROUNDTRIP
360
1279
  3
BUMPTILE
360
107D
  3
DIFFUSETILE
360
107C
  3
OPACITYTILE
360
1080
  3
REFLECTIONTILE
360
107F
  3
REFRACTIONTILE
360
1081
  3
SPECULARTILE
360
107E
  0
DICTIONARY
  5
126A
330
EE8
100
AcDbDictionary
280
     1
281
     1
  3
ACAD_ROUNDTRIP_2008_TABLESTYLE_CELLSTYLEMAP
360
126B
  3
ACAD_XREC_ROUNDTRIP
360
1276
  0
DICTIONARY
  5
1284
330
1088
100
AcDbDictionary
280
     1
281
     1
  3
ACAD_XREC_ROUNDTRIP
360
1285
  0
DICTIONARY
  5
1288
330
108A
100
AcDbDictionary
280
     1
281
     1
  3
ACAD_XREC_ROUNDTRIP
360
1289
  0
DICTIONARY
  5
1286
330
1089
100
AcDbDictionary
280
     1
281
     1
  3
ACAD_XREC_ROUNDTRIP
360
1287
  0
DICTIONARY
  5
1282
330
1087
100
AcDbDictionary
280
     1
281
     1
  3
ACAD_XREC_ROUNDTRIP
360
1283
  0
DICTIONARY
  5
1290
330
108E
100
AcDbDictionary
280
     1
281
     1
  3
ACAD_XREC_ROUNDTRIP
360
1291
  0
DICTIONARY
  5
1298
330
1092
100
AcDbDictionary
280
     1
281
     1
  3
ACAD_XREC_ROUNDTRIP
360
1299
  0
DICTIONARY
  5
128A
330
108B
100
AcDbDictionary
280
     1
281
     1
  3
ACAD_XREC_ROUNDTRIP
360
128B
  0
DICTIONARY
  5
128E
330
108D
100
AcDbDictionary
280
     1
281
     1
  3
ACAD_XREC_ROUNDTRIP
360
128F
  0
DICTIONARY
  5
129E
330
1095
100
AcDbDictionary
280
     1
281
     1
  3
ACAD_XREC_ROUNDTRIP
360
129F
  0
DICTIONARY
  5
1296
330
1091
100
AcDbDictionary
280
     1
281
     1
  3
ACAD_XREC_ROUNDTRIP
360
1297
  0
DICTIONARY
  5
127A
330
1083
100
AcDbDictionary
280
     1
281
     1
  3
ACAD_XREC_ROUNDTRIP
360
127B
  0
DICTIONARY
  5
127C
330
1084
100
AcDbDictionary
280
     1
281
     1
  3
ACAD_XREC_ROUNDTRIP
360
127D
  0
DICTIONARY
  5
127E
330
1085
100
AcDbDictionary
280
     1
281
     1
  3
ACAD_XREC_ROUNDTRIP
360
127F
  0
DICTIONARY
  5
1280
330
1086
100
AcDbDictionary
280
     1
281
     1
  3
ACAD_XREC_ROUNDTRIP
360
1281
  0
DICTIONARY
  5
129A
330
1093
100
AcDbDictionary
280
     1
281
     1
  3
ACAD_XREC_ROUNDTRIP
360
129B
  0
DICTIONARY
  5
1294
330
1090
100
AcDbDictionary
280
     1
281
     1
  3
ACAD_XREC_ROUNDTRIP
360
1295
  0
DICTIONARY
  5
129C
330
1094
100
AcDbDictionary
280
     1
281
     1
  3
ACAD_XREC_ROUNDTRIP
360
129D
  0
DICTIONARY
  5
128C
330
108C
100
AcDbDictionary
280
     1
281
     1
  3
ACAD_XREC_ROUNDTRIP
360
128D
  0
DICTIONARY
  5
1292
330
108F
100
AcDbDictionary
280
     1
281
     1
  3
ACAD_XREC_ROUNDTRIP
360
1293
  0
XRECORD
  5
1271
102
{ACAD_REACTORS
330
1270
102
}
330
1270
100
AcDbXrecord
280
     1
102
SHADEPLOT
 70
     0
102
SHADEPLOTRESLEVEL
 70
     2
102
SHADEPLOTCUSTOMDPI
 70
   300
  0
XRECORD
  5
1275
102
{ACAD_REACTORS
330
1274
102
}
330
1274
100
AcDbXrecord
280
     1
102
SHADEPLOT
 70
     0
102
SHADEPLOTRESLEVEL
 70
     2
102
SHADEPLOTCUSTOMDPI
 70
   300
  0
XRECORD
  5
1273
102
{ACAD_REACTORS
330
1272
102
}
330
1272
100
AcDbXrecord
280
     1
102
SHADEPLOT
 70
     0
102
SHADEPLOTRESLEVEL
 70
     2
102
SHADEPLOTCUSTOMDPI
 70
   300
  0
XRECORD
  5
1278
102
{ACAD_REACTORS
330
1073
102
}
330
1073
100
AcDbXrecord
280
     1
102
MATERIAL
148
0.0
149
0.0
149
0.0
 93
        0
 94
      127
282
     0
 72
     0
 77
     0
171
     0
175
     0
179
     0
273
     0
  0
XRECORD
  5
1075
102
{ACAD_REACTORS
330
1073
102
}
330
1073
100
AcDbXrecord
280
     1
270
     1
271
     1
  0
XRECORD
  5
1074
102
{ACAD_REACTORS
330
1073
102
}
330
1073
100
AcDbXrecord
280
     1
270
     1
271
     1
  0
XRECORD
  5
1078
102
{ACAD_REACTORS
330
1073
102
}
330
1073
100
AcDbXrecord
280
     1
270
     1
271
     1
  0
XRECORD
  5
1077
102
{ACAD_REACTORS
330
1073
102
}
330
1073
100
AcDbXrecord
280
     1
270
     1
271
     1
  0
XRECORD
  5
1079
102
{ACAD_REACTORS
330
1073
102
}
330
1073
100
AcDbXrecord
280
     1
270
     1
271
     1
  0
XRECORD
  5
1076
102
{ACAD_REACTORS
330
1073
102
}
330
1073
100
AcDbXrecord
280
     1
270
     1
271
     1
  0
XRECORD
  5
1277
102
{ACAD_REACTORS
330
106B
102
}
330
106B
100
AcDbXrecord
280
     1
102
MATERIAL
148
0.0
149
0.0
149
0.0
 93
        0
 94
      127
282
     0
 72
     0
 77
     0
171
     0
175
     0
179
     0
273
     0
  0
XRECORD
  5
106D
102
{ACAD_REACTORS
330
106B
102
}
330
106B
100
AcDbXrecord
280
     1
270
     1
271
     1
  0
XRECORD
  5
106C
102
{ACAD_REACTORS
330
106B
102
}
330
106B
100
AcDbXrecord
280
     1
270
     1
271
     1
  0
XRECORD
  5
1070
102
{ACAD_REACTORS
330
106B
102
}
330
106B
100
AcDbXrecord
280
     1
270
     1
271
     1
  0
XRECORD
  5
106F
102
{ACAD_REACTORS
330
106B
102
}
330
106B
100
AcDbXrecord
280
     1
270
     1
271
     1
  0
XRECORD
  5
1071
102
{ACAD_REACTORS
330
106B
102
}
330
106B
100
AcDbXrecord
280
     1
270
     1
271
     1
  0
XRECORD
  5
106E
102
{ACAD_REACTORS
330
106B
102
}
330
106B
100
AcDbXrecord
280
     1
270
     1
271
     1
  0
XRECORD
  5
1279
102
{ACAD_REACTORS
330
107B
102
}
330
107B
100
AcDbXrecord
280
     1
102
MATERIAL
148
0.0
149
0.0
149
0.0
 93
        0
 94
      127
282
     0
 72
     0
 77
     0
171
     0
175
     0
179
     0
273
     0
  0
XRECORD
  5
107D
102
{ACAD_REACTORS
330
107B
102
}
330
107B
100
AcDbXrecord
280
     1
270
     1
271
     1
  0
XRECORD
  5
107C
102
{ACAD_REACTORS
330
107B
102
}
330
107B
100
AcDbXrecord
280
     1
270
     1
271
     1
  0
XRECORD
  5
1080
102
{ACAD_REACTORS
330
107B
102
}
330
107B
100
AcDbXrecord
280
     1
270
     1
271
     1
  0
XRECORD
  5
107F
102
{ACAD_REACTORS
330
107B
102
}
330
107B
100
AcDbXrecord
280
     1
270
     1
271
     1
  0
XRECORD
  5
1081
102
{ACAD_REACTORS
330
107B
102
}
330
107B
100
AcDbXrecord
280
     1
270
     1
271
     1
  0
XRECORD
  5
107E
102
{ACAD_REACTORS
330
107B
102
}
330
107B
100
AcDbXrecord
280
     1
270
     1
271
     1
  0
CELLSTYLEMAP
  5
126B
102
{ACAD_REACTORS
330
126A
102
}
330
126A
100
AcDbCellStyleMap
 90
        3
300
CELLSTYLE
  1
TABLEFORMAT_BEGIN
 90
        5
170
     1
 91
        0
 92
    32768
 62
   257
 93
        1
300
CONTENTFORMAT
  1
CONTENTFORMAT_BEGIN
 90
        0
 91
        0
 92
        4
 93
        0
300

 40
0.0
140
1.0
 94
        5
 62
     0
340
11
144
6.0
309
CONTENTFORMAT_END
171
     1
301
MARGIN
  1
CELLMARGIN_BEGIN
 40
1.5
 40
1.5
 40
1.5
 40
1.5
 40
0.18
 40
0.18
309
CELLMARGIN_END
 94
        6
 95
        1
302
GRIDFORMAT
  1
GRIDFORMAT_BEGIN
 90
        0
 91
        1
 62
     0
 92
       -2
340
0
 93
        0
 40
0.045
309
GRIDFORMAT_END
 95
        2
302
GRIDFORMAT
  1
GRIDFORMAT_BEGIN
 90
        0
 91
        1
 62
     0
 92
       -2
340
0
 93
        0
 40
0.045
309
GRIDFORMAT_END
 95
        4
302
GRIDFORMAT
  1
GRIDFORMAT_BEGIN
 90
        0
 91
        1
 62
     0
 92
       -2
340
0
 93
        0
 40
0.045
309
GRIDFORMAT_END
 95
        8
302
GRIDFORMAT
  1
GRIDFORMAT_BEGIN
 90
        0
 91
        1
 62
     0
 92
       -2
340
0
 93
        0
 40
0.045
309
GRIDFORMAT_END
 95
       16
302
GRIDFORMAT
  1
GRIDFORMAT_BEGIN
 90
        0
 91
        1
 62
     0
 92
       -2
340
0
 93
        0
 40
0.045
309
GRIDFORMAT_END
 95
       32
302
GRIDFORMAT
  1
GRIDFORMAT_BEGIN
 90
        0
 91
        1
 62
     0
 92
       -2
340
0
 93
        0
 40
0.045
309
GRIDFORMAT_END
309
TABLEFORMAT_END
  1
CELLSTYLE_BEGIN
 90
        1
 91
        1
300
_TITLE
309
CELLSTYLE_END
300
CELLSTYLE
  1
TABLEFORMAT_BEGIN
 90
        5
170
     1
 91
        0
 92
        0
 62
   257
 93
        1
300
CONTENTFORMAT
  1
CONTENTFORMAT_BEGIN
 90
        0
 91
        0
 92
        4
 93
        0
300

 40
0.0
140
1.0
 94
        5
 62
     0
340
11
144
4.5
309
CONTENTFORMAT_END
171
     1
301
MARGIN
  1
CELLMARGIN_BEGIN
 40
1.5
 40
1.5
 40
1.5
 40
1.5
 40
0.18
 40
0.18
309
CELLMARGIN_END
 94
        6
 95
        1
302
GRIDFORMAT
  1
GRIDFORMAT_BEGIN
 90
        0
 91
        1
 62
     0
 92
       -2
340
0
 93
        0
 40
0.045
309
GRIDFORMAT_END
 95
        2
302
GRIDFORMAT
  1
GRIDFORMAT_BEGIN
 90
        0
 91
        1
 62
     0
 92
       -2
340
0
 93
        0
 40
0.045
309
GRIDFORMAT_END
 95
        4
302
GRIDFORMAT
  1
GRIDFORMAT_BEGIN
 90
        0
 91
        1
 62
     0
 92
       -2
340
0
 93
        0
 40
0.045
309
GRIDFORMAT_END
 95
        8
302
GRIDFORMAT
  1
GRIDFORMAT_BEGIN
 90
        0
 91
        1
 62
     0
 92
       -2
340
0
 93
        0
 40
0.045
309
GRIDFORMAT_END
 95
       16
302
GRIDFORMAT
  1
GRIDFORMAT_BEGIN
 90
        0
 91
        1
 62
     0
 92
       -2
340
0
 93
        0
 40
0.045
309
GRIDFORMAT_END
 95
       32
302
GRIDFORMAT
  1
GRIDFORMAT_BEGIN
 90
        0
 91
        1
 62
     0
 92
       -2
340
0
 93
        0
 40
0.045
309
GRIDFORMAT_END
309
TABLEFORMAT_END
  1
CELLSTYLE_BEGIN
 90
        2
 91
        1
300
_HEADER
309
CELLSTYLE_END
300
CELLSTYLE
  1
TABLEFORMAT_BEGIN
 90
        5
170
     1
 91
        0
 92
        0
 62
   257
 93
        1
300
CONTENTFORMAT
  1
CONTENTFORMAT_BEGIN
 90
        0
 91
        0
 92
        4
 93
        0
300

 40
0.0
140
1.0
 94
        2
 62
     0
340
11
144
4.5
309
CONTENTFORMAT_END
171
     1
301
MARGIN
  1
CELLMARGIN_BEGIN
 40
1.5
 40
1.5
 40
1.5
 40
1.5
 40
0.18
 40
0.18
309
CELLMARGIN_END
 94
        6
 95
        1
302
GRIDFORMAT
  1
GRIDFORMAT_BEGIN
 90
        0
 91
        1
 62
     0
 92
       -2
340
0
 93
        0
 40
0.045
309
GRIDFORMAT_END
 95
        2
302
GRIDFORMAT
  1
GRIDFORMAT_BEGIN
 90
        0
 91
        1
 62
     0
 92
       -2
340
0
 93
        0
 40
0.045
309
GRIDFORMAT_END
 95
        4
302
GRIDFORMAT
  1
GRIDFORMAT_BEGIN
 90
        0
 91
        1
 62
     0
 92
       -2
340
0
 93
        0
 40
0.045
309
GRIDFORMAT_END
 95
        8
302
GRIDFORMAT
  1
GRIDFORMAT_BEGIN
 90
        0
 91
        1
 62
     0
 92
       -2
340
0
 93
        0
 40
0.045
309
GRIDFORMAT_END
 95
       16
302
GRIDFORMAT
  1
GRIDFORMAT_BEGIN
 90
        0
 91
        1
 62
     0
 92
       -2
340
0
 93
        0
 40
0.045
309
GRIDFORMAT_END
 95
       32
302
GRIDFORMAT
  1
GRIDFORMAT_BEGIN
 90
        0
 91
        1
 62
     0
 92
       -2
340
0
 93
        0
 40
0.045
309
GRIDFORMAT_END
309
TABLEFORMAT_END
  1
CELLSTYLE_BEGIN
 90
        3
 91
        2
300
_DATA
309
CELLSTYLE_END
  0
XRECORD
  5
1276
102
{ACAD_REACTORS
330
126A
102
}
330
126A
100
AcDbXrecord
280
     1
102
ACAD_ROUNDTRIP_PRE2007_TABLESTYLE
 90
        4
 91
        0
  1

 92
        4
 93
        0
  2

 94
        4
 95
        0
  3

  0
XRECORD
  5
1285
102
{ACAD_REACTORS
330
1284
102
}
330
1284
100
AcDbXrecord
280
     1
102
RTVSPropertyOp0
 70
     1
102
RTVSPropertyOp1
 70
     1
102
RTVSPropertyOp2
 70
     1
102
RTVSPropertyOp3
 70
     1
102
RTVSPropertyOp4
 70
     1
102
RTVSPropertyOp5
 70
     1
102
RTVSPropertyOp6
 70
     1
102
RTVSPropertyOp7
 70
     1
102
RTVSPropertyOp8
 70
     1
102
RTVSPropertyOp9
 70
     1
102
RTVSPropertyOp10
 70
     1
102
RTVSPropertyOp11
 70
     1
102
RTVSPropertyOp12
 70
     1
102
RTVSPropertyOp13
 70
     1
102
RTVSPropertyOp14
 70
     1
102
RTVSPropertyOp15
 70
     1
102
RTVSPropertyOp16
 70
     1
102
RTVSPropertyOp17
 70
     1
102
RTVSPropertyOp18
 70
     1
102
RTVSPropertyOp19
 70
     1
102
RTVSPropertyOp20
 70
     1
102
RTVSPropertyOp21
 70
     1
102
RTVSPropertyOp22
 70
     1
102
RTVSPropertyOp23
 70
     1
102
RTVSPropertyOp24
 70
     1
102
RTVSPropertyOp25
 70
     1
102
RTVSPropertyOp26
 70
     1
102
RTVSPropertyOp27
 70
     1
  0
XRECORD
  5
1289
102
{ACAD_REACTORS
330
1288
102
}
330
1288
100
AcDbXrecord
280
     1
102
RTVSPropertyOp0
 70
     1
102
RTVSPropertyOp1
 70
     1
102
RTVSPropertyOp2
 70
     1
102
RTVSPropertyOp3
 70
     1
102
RTVSPropertyOp4
 70
     1
102
RTVSPropertyOp5
 70
     1
102
RTVSPropertyOp6
 70
     1
102
RTVSPropertyOp7
 70
     1
102
RTVSPropertyOp8
 70
     1
102
RTVSPropertyOp9
 70
     1
102
RTVSPropertyOp10
 70
     1
102
RTVSPropertyOp11
 70
     1
102
RTVSPropertyOp12
 70
     1
102
RTVSPropertyOp13
 70
     1
102
RTVSPropertyOp14
 70
     1
102
RTVSPropertyOp15
 70
     1
102
RTVSPropertyOp16
 70
     1
102
RTVSPropertyOp17
 70
     1
102
RTVSPropertyOp18
 70
     1
102
RTVSPropertyOp19
 70
     1
102
RTVSPropertyOp20
 70
     1
102
RTVSPropertyOp21
 70
     1
102
RTVSPropertyOp22
 70
     1
102
RTVSPropertyOp23
 70
     1
102
RTVSPropertyOp24
 70
     1
102
RTVSPropertyOp25
 70
     1
102
RTVSPropertyOp26
 70
     1
102
RTVSPropertyOp27
 70
     1
  0
XRECORD
  5
1287
102
{ACAD_REACTORS
330
1286
102
}
330
1286
100
AcDbXrecord
280
     1
102
RTVSPropertyOp0
 70
     1
102
RTVSPropertyOp1
 70
     1
102
RTVSPropertyOp2
 70
     1
102
RTVSPropertyOp3
 70
     1
102
RTVSPropertyOp4
 70
     1
102
RTVSPropertyOp5
 70
     1
102
RTVSPropertyOp6
 70
     1
102
RTVSPropertyOp7
 70
     1
102
RTVSPropertyOp8
 70
     1
102
RTVSPropertyOp9
 70
     1
102
RTVSPropertyOp10
 70
     1
102
RTVSPropertyOp11
 70
     1
102
RTVSPropertyOp12
 70
     1
102
RTVSPropertyOp13
 70
     1
102
RTVSPropertyOp14
 70
     1
102
RTVSPropertyOp15
 70
     1
102
RTVSPropertyOp16
 70
     1
102
RTVSPropertyOp17
 70
     1
102
RTVSPropertyOp18
 70
     1
102
RTVSPropertyOp19
 70
     1
102
RTVSPropertyOp20
 70
     1
102
RTVSPropertyOp21
 70
     1
102
RTVSPropertyOp22
 70
     1
102
RTVSPropertyOp23
 70
     1
102
RTVSPropertyOp24
 70
     1
102
RTVSPropertyOp25
 70
     1
102
RTVSPropertyOp26
 70
     1
102
RTVSPropertyOp27
 70
     1
  0
XRECORD
  5
1283
102
{ACAD_REACTORS
330
1282
102
}
330
1282
100
AcDbXrecord
280
     1
102
RTVSPropertyOp0
 70
     1
102
RTVSPropertyOp1
 70
     1
102
RTVSPropertyOp2
 70
     1
102
RTVSPropertyOp3
 70
     1
102
RTVSPropertyOp4
 70
     1
102
RTVSPropertyOp5
 70
     1
102
RTVSPropertyOp6
 70
     1
102
RTVSPropertyOp7
 70
     1
102
RTVSPropertyOp8
 70
     1
102
RTVSPropertyOp9
 70
     1
102
RTVSPropertyOp10
 70
     1
102
RTVSPropertyOp11
 70
     1
102
RTVSPropertyOp12
 70
     1
102
RTVSPropertyOp13
 70
     1
102
RTVSPropertyOp14
 70
     1
102
RTVSPropertyOp15
 70
     1
102
RTVSPropertyOp16
 70
     1
102
RTVSPropertyOp17
 70
     1
102
RTVSPropertyOp18
 70
     1
102
RTVSPropertyOp19
 70
     1
102
RTVSPropertyOp20
 70
     1
102
RTVSPropertyOp21
 70
     1
102
RTVSPropertyOp22
 70
     1
102
RTVSPropertyOp23
 70
     1
102
RTVSPropertyOp24
 70
     1
102
RTVSPropertyOp25
 70
     1
102
RTVSPropertyOp26
 70
     1
102
RTVSPropertyOp27
 70
     1
  0
XRECORD
  5
1291
102
{ACAD_REACTORS
330
1290
102
}
330
1290
100
AcDbXrecord
280
     1
102
RTVSPropertyOp0
 70
     1
102
RTVSPropertyOp1
 70
     1
102
RTVSPropertyOp2
 70
     1
102
RTVSPropertyOp3
 70
     1
102
RTVSPropertyOp4
 70
     1
102
RTVSPropertyOp5
 70
     1
102
RTVSPropertyOp6
 70
     1
102
RTVSPropertyOp7
 70
     1
102
RTVSPropertyOp8
 70
     1
102
RTVSPropertyOp9
 70
     1
102
RTVSPropertyOp10
 70
     1
102
RTVSPropertyOp11
 70
     1
102
RTVSPropertyOp12
 70
     1
102
RTVSPropertyOp13
 70
     1
102
RTVSPropertyOp14
 70
     1
102
RTVSPropertyOp15
 70
     1
102
RTVSPropertyOp16
 70
     1
102
RTVSPropertyOp17
 70
     1
102
RTVSPropertyOp18
 70
     1
102
RTVSPropertyOp19
 70
     1
102
RTVSPropertyOp20
 70
     1
102
RTVSPropertyOp21
 70
     1
102
RTVSPropertyOp22
 70
     1
102
RTVSPropertyOp23
 70
     1
102
RTVSPropertyOp24
 70
     1
102
RTVSPropertyOp25
 70
     1
102
RTVSPropertyOp26
 70
     1
102
RTVSPropertyOp27
 70
     1
  0
XRECORD
  5
1299
102
{ACAD_REACTORS
330
1298
102
}
330
1298
100
AcDbXrecord
280
     1
102
RTVSPropertyOp0
 70
     1
102
RTVSPropertyOp1
 70
     1
102
RTVSPropertyOp2
 70
     1
102
RTVSPropertyOp3
 70
     1
102
RTVSPropertyOp4
 70
     1
102
RTVSPropertyOp5
 70
     1
102
RTVSPropertyOp6
 70
     1
102
RTVSPropertyOp7
 70
     1
102
RTVSPropertyOp8
 70
     1
102
RTVSPropertyOp9
 70
     1
102
RTVSPropertyOp10
 70
     1
102
RTVSPropertyOp11
 70
     1
102
RTVSPropertyOp12
 70
     1
102
RTVSPropertyOp13
 70
     1
102
RTVSPropertyOp14
 70
     1
102
RTVSPropertyOp15
 70
     1
102
RTVSPropertyOp16
 70
     1
102
RTVSPropertyOp17
 70
     1
102
RTVSPropertyOp18
 70
     1
102
RTVSPropertyOp19
 70
     1
102
RTVSPropertyOp20
 70
     1
102
RTVSPropertyOp21
 70
     1
102
RTVSPropertyOp22
 70
     1
102
RTVSPropertyOp23
 70
     1
102
RTVSPropertyOp24
 70
     1
102
RTVSPropertyOp25
 70
     1
102
RTVSPropertyOp26
 70
     1
102
RTVSPropertyOp27
 70
     1
  0
XRECORD
  5
128B
102
{ACAD_REACTORS
330
128A
102
}
330
128A
100
AcDbXrecord
280
     1
102
RTVSPropertyOp0
 70
     1
102
RTVSPropertyOp1
 70
     1
102
RTVSPropertyOp2
 70
     1
102
RTVSPropertyOp3
 70
     1
102
RTVSPropertyOp4
 70
     1
102
RTVSPropertyOp5
 70
     1
102
RTVSPropertyOp6
 70
     1
102
RTVSPropertyOp7
 70
     1
102
RTVSPropertyOp8
 70
     1
102
RTVSPropertyOp9
 70
     1
102
RTVSPropertyOp10
 70
     1
102
RTVSPropertyOp11
 70
     1
102
RTVSPropertyOp12
 70
     1
102
RTVSPropertyOp13
 70
     1
102
RTVSPropertyOp14
 70
     1
102
RTVSPropertyOp15
 70
     1
102
RTVSPropertyOp16
 70
     1
102
RTVSPropertyOp17
 70
     1
102
RTVSPropertyOp18
 70
     1
102
RTVSPropertyOp19
 70
     1
102
RTVSPropertyOp20
 70
     1
102
RTVSPropertyOp21
 70
     1
102
RTVSPropertyOp22
 70
     1
102
RTVSPropertyOp23
 70
     1
102
RTVSPropertyOp24
 70
     1
102
RTVSPropertyOp25
 70
     1
102
RTVSPropertyOp26
 70
     1
102
RTVSPropertyOp27
 70
     1
  0
XRECORD
  5
128F
102
{ACAD_REACTORS
330
128E
102
}
330
128E
100
AcDbXrecord
280
     1
102
RTVSPropertyOp0
 70
     1
102
RTVSPropertyOp1
 70
     1
102
RTVSPropertyOp2
 70
     1
102
RTVSPropertyOp3
 70
     1
102
RTVSPropertyOp4
 70
     1
102
RTVSPropertyOp5
 70
     1
102
RTVSPropertyOp6
 70
     1
102
RTVSPropertyOp7
 70
     1
102
RTVSPropertyOp8
 70
     1
102
RTVSPropertyOp9
 70
     1
102
RTVSPropertyOp10
 70
     1
102
RTVSPropertyOp11
 70
     1
102
RTVSPropertyOp12
 70
     1
102
RTVSPropertyOp13
 70
     1
102
RTVSPropertyOp14
 70
     1
102
RTVSPropertyOp15
 70
     1
102
RTVSPropertyOp16
 70
     1
102
RTVSPropertyOp17
 70
     1
102
RTVSPropertyOp18
 70
     1
102
RTVSPropertyOp19
 70
     1
102
RTVSPropertyOp20
 70
     1
102
RTVSPropertyOp21
 70
     1
102
RTVSPropertyOp22
 70
     1
102
RTVSPropertyOp23
 70
     1
102
RTVSPropertyOp24
 70
     1
102
RTVSPropertyOp25
 70
     1
102
RTVSPropertyOp26
 70
     1
102
RTVSPropertyOp27
 70
     1
  0
XRECORD
  5
129F
102
{ACAD_REACTORS
330
129E
102
}
330
129E
100
AcDbXrecord
280
     1
102
RTVSPropertyOp0
 70
     0
102
RTVSPropertyOp1
 70
     0
102
RTVSPropertyOp2
 70
     0
102
RTVSPropertyOp3
 70
     0
102
RTVSPropertyOp4
 70
     0
102
RTVSPropertyOp5
 70
     0
102
RTVSPropertyOp6
 70
     0
102
RTVSPropertyOp7
 70
     0
102
RTVSPropertyOp8
 70
     0
102
RTVSPropertyOp9
 70
     0
102
RTVSPropertyOp10
 70
     0
102
RTVSPropertyOp11
 70
     0
102
RTVSPropertyOp12
 70
     0
102
RTVSPropertyOp13
 70
     0
102
RTVSPropertyOp14
 70
     2
102
RTVSPropertyOp15
 70
     0
102
RTVSPropertyOp16
 70
     0
102
RTVSPropertyOp17
 70
     0
102
RTVSPropertyOp18
 70
     0
102
RTVSPropertyOp19
 70
     0
102
RTVSPropertyOp20
 70
     0
102
RTVSPropertyOp21
 70
     0
102
RTVSPropertyOp22
 70
     0
102
RTVSPropertyOp23
 70
     0
102
RTVSPropertyOp24
 70
     0
102
RTVSPropertyOp25
 70
     0
102
RTVSPropertyOp26
 70
     0
102
RTVSPropertyOp27
 70
     0
  0
XRECORD
  5
1297
102
{ACAD_REACTORS
330
1296
102
}
330
1296
100
AcDbXrecord
280
     1
102
RTVSPropertyOp0
 70
     1
102
RTVSPropertyOp1
 70
     1
102
RTVSPropertyOp2
 70
     1
102
RTVSPropertyOp3
 70
     1
102
RTVSPropertyOp4
 70
     1
102
RTVSPropertyOp5
 70
     1
102
RTVSPropertyOp6
 70
     1
102
RTVSPropertyOp7
 70
     1
102
RTVSPropertyOp8
 70
     1
102
RTVSPropertyOp9
 70
     1
102
RTVSPropertyOp10
 70
     1
102
RTVSPropertyOp11
 70
     1
102
RTVSPropertyOp12
 70
     1
102
RTVSPropertyOp13
 70
     1
102
RTVSPropertyOp14
 70
     1
102
RTVSPropertyOp15
 70
     1
102
RTVSPropertyOp16
 70
     1
102
RTVSPropertyOp17
 70
     1
102
RTVSPropertyOp18
 70
     1
102
RTVSPropertyOp19
 70
     1
102
RTVSPropertyOp20
 70
     1
102
RTVSPropertyOp21
 70
     1
102
RTVSPropertyOp22
 70
     1
102
RTVSPropertyOp23
 70
     1
102
RTVSPropertyOp24
 70
     1
102
RTVSPropertyOp25
 70
     1
102
RTVSPropertyOp26
 70
     1
102
RTVSPropertyOp27
 70
     1
  0
XRECORD
  5
127B
102
{ACAD_REACTORS
330
127A
102
}
330
127A
100
AcDbXrecord
280
     1
102
RTVSPropertyOp0
 70
     1
102
RTVSPropertyOp1
 70
     1
102
RTVSPropertyOp2
 70
     1
102
RTVSPropertyOp3
 70
     1
102
RTVSPropertyOp4
 70
     1
102
RTVSPropertyOp5
 70
     1
102
RTVSPropertyOp6
 70
     1
102
RTVSPropertyOp7
 70
     1
102
RTVSPropertyOp8
 70
     1
102
RTVSPropertyOp9
 70
     1
102
RTVSPropertyOp10
 70
     1
102
RTVSPropertyOp11
 70
     1
102
RTVSPropertyOp12
 70
     1
102
RTVSPropertyOp13
 70
     1
102
RTVSPropertyOp14
 70
     1
102
RTVSPropertyOp15
 70
     1
102
RTVSPropertyOp16
 70
     1
102
RTVSPropertyOp17
 70
     1
102
RTVSPropertyOp18
 70
     1
102
RTVSPropertyOp19
 70
     1
102
RTVSPropertyOp20
 70
     1
102
RTVSPropertyOp21
 70
     1
102
RTVSPropertyOp22
 70
     1
102
RTVSPropertyOp23
 70
     1
102
RTVSPropertyOp24
 70
     1
102
RTVSPropertyOp25
 70
     1
102
RTVSPropertyOp26
 70
     1
102
RTVSPropertyOp27
 70
     1
  0
XRECORD
  5
127D
102
{ACAD_REACTORS
330
127C
102
}
330
127C
100
AcDbXrecord
280
     1
102
RTVSPropertyOp0
 70
     1
102
RTVSPropertyOp1
 70
     1
102
RTVSPropertyOp2
 70
     1
102
RTVSPropertyOp3
 70
     1
102
RTVSPropertyOp4
 70
     1
102
RTVSPropertyOp5
 70
     1
102
RTVSPropertyOp6
 70
     1
102
RTVSPropertyOp7
 70
     1
102
RTVSPropertyOp8
 70
     1
102
RTVSPropertyOp9
 70
     1
102
RTVSPropertyOp10
 70
     1
102
RTVSPropertyOp11
 70
     1
102
RTVSPropertyOp12
 70
     1
102
RTVSPropertyOp13
 70
     1
102
RTVSPropertyOp14
 70
     1
102
RTVSPropertyOp15
 70
     1
102
RTVSPropertyOp16
 70
     1
102
RTVSPropertyOp17
 70
     1
102
RTVSPropertyOp18
 70
     1
102
RTVSPropertyOp19
 70
     1
102
RTVSPropertyOp20
 70
     1
102
RTVSPropertyOp21
 70
     1
102
RTVSPropertyOp22
 70
     1
102
RTVSPropertyOp23
 70
     1
102
RTVSPropertyOp24
 70
     1
102
RTVSPropertyOp25
 70
     1
102
RTVSPropertyOp26
 70
     1
102
RTVSPropertyOp27
 70
     1
  0
XRECORD
  5
127F
102
{ACAD_REACTORS
330
127E
102
}
330
127E
100
AcDbXrecord
280
     1
102
RTVSPropertyOp0
 70
     1
102
RTVSPropertyOp1
 70
     1
102
RTVSPropertyOp2
 70
     1
102
RTVSPropertyOp3
 70
     1
102
RTVSPropertyOp4
 70
     1
102
RTVSPropertyOp5
 70
     1
102
RTVSPropertyOp6
 70
     1
102
RTVSPropertyOp7
 70
     1
102
RTVSPropertyOp8
 70
     1
102
RTVSPropertyOp9
 70
     1
102
RTVSPropertyOp10
 70
     1
102
RTVSPropertyOp11
 70
     1
102
RTVSPropertyOp12
 70
     1
102
RTVSPropertyOp13
 70
     1
102
RTVSPropertyOp14
 70
     1
102
RTVSPropertyOp15
 70
     1
102
RTVSPropertyOp16
 70
     1
102
RTVSPropertyOp17
 70
     1
102
RTVSPropertyOp18
 70
     1
102
RTVSPropertyOp19
 70
     1
102
RTVSPropertyOp20
 70
     1
102
RTVSPropertyOp21
 70
     1
102
RTVSPropertyOp22
 70
     1
102
RTVSPropertyOp23
 70
     1
102
RTVSPropertyOp24
 70
     1
102
RTVSPropertyOp25
 70
     1
102
RTVSPropertyOp26
 70
     1
102
RTVSPropertyOp27
 70
     1
  0
XRECORD
  5
1281
102
{ACAD_REACTORS
330
1280
102
}
330
1280
100
AcDbXrecord
280
     1
102
RTVSPropertyOp0
 70
     1
102
RTVSPropertyOp1
 70
     1
102
RTVSPropertyOp2
 70
     1
102
RTVSPropertyOp3
 70
     1
102
RTVSPropertyOp4
 70
     1
102
RTVSPropertyOp5
 70
     1
102
RTVSPropertyOp6
 70
     1
102
RTVSPropertyOp7
 70
     1
102
RTVSPropertyOp8
 70
     1
102
RTVSPropertyOp9
 70
     1
102
RTVSPropertyOp10
 70
     1
102
RTVSPropertyOp11
 70
     1
102
RTVSPropertyOp12
 70
     1
102
RTVSPropertyOp13
 70
     1
102
RTVSPropertyOp14
 70
     1
102
RTVSPropertyOp15
 70
     1
102
RTVSPropertyOp16
 70
     1
102
RTVSPropertyOp17
 70
     1
102
RTVSPropertyOp18
 70
     1
102
RTVSPropertyOp19
 70
     1
102
RTVSPropertyOp20
 70
     1
102
RTVSPropertyOp21
 70
     1
102
RTVSPropertyOp22
 70
     1
102
RTVSPropertyOp23
 70
     1
102
RTVSPropertyOp24
 70
     1
102
RTVSPropertyOp25
 70
     1
102
RTVSPropertyOp26
 70
     1
102
RTVSPropertyOp27
 70
     1
  0
XRECORD
  5
129B
102
{ACAD_REACTORS
330
129A
102
}
330
129A
100
AcDbXrecord
280
     1
102
RTVSPropertyOp0
 70
     0
102
RTVSPropertyOp1
 70
     0
102
RTVSPropertyOp2
 70
     0
102
RTVSPropertyOp3
 70
     0
102
RTVSPropertyOp4
 70
     0
102
RTVSPropertyOp5
 70
     0
102
RTVSPropertyOp6
 70
     0
102
RTVSPropertyOp7
 70
     0
102
RTVSPropertyOp8
 70
     0
102
RTVSPropertyOp9
 70
     0
102
RTVSPropertyOp10
 70
     0
102
RTVSPropertyOp11
 70
     0
102
RTVSPropertyOp12
 70
     0
102
RTVSPropertyOp13
 70
     0
102
RTVSPropertyOp14
 70
     2
102
RTVSPropertyOp15
 70
     0
102
RTVSPropertyOp16
 70
     0
102
RTVSPropertyOp17
 70
     0
102
RTVSPropertyOp18
 70
     0
102
RTVSPropertyOp19
 70
     0
102
RTVSPropertyOp20
 70
     0
102
RTVSPropertyOp21
 70
     0
102
RTVSPropertyOp22
 70
     0
102
RTVSPropertyOp23
 70
     0
102
RTVSPropertyOp24
 70
     0
102
RTVSPropertyOp25
 70
     0
102
RTVSPropertyOp26
 70
     0
102
RTVSPropertyOp27
 70
     0
  0
XRECORD
  5
1295
102
{ACAD_REACTORS
330
1294
102
}
330
1294
100
AcDbXrecord
280
     1
102
RTVSPropertyOp0
 70
     1
102
RTVSPropertyOp1
 70
     1
102
RTVSPropertyOp2
 70
     1
102
RTVSPropertyOp3
 70
     1
102
RTVSPropertyOp4
 70
     1
102
RTVSPropertyOp5
 70
     1
102
RTVSPropertyOp6
 70
     1
102
RTVSPropertyOp7
 70
     1
102
RTVSPropertyOp8
 70
     1
102
RTVSPropertyOp9
 70
     1
102
RTVSPropertyOp10
 70
     1
102
RTVSPropertyOp11
 70
     1
102
RTVSPropertyOp12
 70
     1
102
RTVSPropertyOp13
 70
     1
102
RTVSPropertyOp14
 70
     1
102
RTVSPropertyOp15
 70
     1
102
RTVSPropertyOp16
 70
     1
102
RTVSPropertyOp17
 70
     1
102
RTVSPropertyOp18
 70
     1
102
RTVSPropertyOp19
 70
     1
102
RTVSPropertyOp20
 70
     1
102
RTVSPropertyOp21
 70
     1
102
RTVSPropertyOp22
 70
     1
102
RTVSPropertyOp23
 70
     1
102
RTVSPropertyOp24
 70
     1
102
RTVSPropertyOp25
 70
     1
102
RTVSPropertyOp26
 70
     1
102
RTVSPropertyOp27
 70
     1
  0
XRECORD
  5
129D
102
{ACAD_REACTORS
330
129C
102
}
330
129C
100
AcDbXrecord
280
     1
102
RTVSPropertyOp0
 70
     0
102
RTVSPropertyOp1
 70
     0
102
RTVSPropertyOp2
 70
     0
102
RTVSPropertyOp3
 70
     0
102
RTVSPropertyOp4
 70
     0
102
RTVSPropertyOp5
 70
     0
102
RTVSPropertyOp6
 70
     0
102
RTVSPropertyOp7
 70
     0
102
RTVSPropertyOp8
 70
     0
102
RTVSPropertyOp9
 70
     0
102
RTVSPropertyOp10
 70
     0
102
RTVSPropertyOp11
 70
     0
102
RTVSPropertyOp12
 70
     0
102
RTVSPropertyOp13
 70
     0
102
RTVSPropertyOp14
 70
     2
102
RTVSPropertyOp15
 70
     0
102
RTVSPropertyOp16
 70
     0
102
RTVSPropertyOp17
 70
     0
102
RTVSPropertyOp18
 70
     0
102
RTVSPropertyOp19
 70
     0
102
RTVSPropertyOp20
 70
     0
102
RTVSPropertyOp21
 70
     0
102
RTVSPropertyOp22
 70
     0
102
RTVSPropertyOp23
 70
     0
102
RTVSPropertyOp24
 70
     0
102
RTVSPropertyOp25
 70
     0
102
RTVSPropertyOp26
 70
     0
102
RTVSPropertyOp27
 70
     0
  0
XRECORD
  5
128D
102
{ACAD_REACTORS
330
128C
102
}
330
128C
100
AcDbXrecord
280
     1
102
RTVSPropertyOp0
 70
     1
102
RTVSPropertyOp1
 70
     1
102
RTVSPropertyOp2
 70
     1
102
RTVSPropertyOp3
 70
     1
102
RTVSPropertyOp4
 70
     1
102
RTVSPropertyOp5
 70
     1
102
RTVSPropertyOp6
 70
     1
102
RTVSPropertyOp7
 70
     1
102
RTVSPropertyOp8
 70
     1
102
RTVSPropertyOp9
 70
     1
102
RTVSPropertyOp10
 70
     1
102
RTVSPropertyOp11
 70
     1
102
RTVSPropertyOp12
 70
     1
102
RTVSPropertyOp13
 70
     1
102
RTVSPropertyOp14
 70
     1
102
RTVSPropertyOp15
 70
     1
102
RTVSPropertyOp16
 70
     1
102
RTVSPropertyOp17
 70
     1
102
RTVSPropertyOp18
 70
     1
102
RTVSPropertyOp19
 70
     1
102
RTVSPropertyOp20
 70
     1
102
RTVSPropertyOp21
 70
     1
102
RTVSPropertyOp22
 70
     1
102
RTVSPropertyOp23
 70
     1
102
RTVSPropertyOp24
 70
     1
102
RTVSPropertyOp25
 70
     1
102
RTVSPropertyOp26
 70
     1
102
RTVSPropertyOp27
 70
     1
  0
XRECORD
  5
1293
102
{ACAD_REACTORS
330
1292
102
}
330
1292
100
AcDbXrecord
280
     1
102
RTVSPropertyOp0
 70
     1
102
RTVSPropertyOp1
 70
     1
102
RTVSPropertyOp2
 70
     1
102
RTVSPropertyOp3
 70
     1
102
RTVSPropertyOp4
 70
     1
102
RTVSPropertyOp5
 70
     1
102
RTVSPropertyOp6
 70
     1
102
RTVSPropertyOp7
 70
     1
102
RTVSPropertyOp8
 70
     1
102
RTVSPropertyOp9
 70
     1
102
RTVSPropertyOp10
 70
     1
102
RTVSPropertyOp11
 70
     1
102
RTVSPropertyOp12
 70
     1
102
RTVSPropertyOp13
 70
     1
102
RTVSPropertyOp14
 70
     1
102
RTVSPropertyOp15
 70
     1
102
RTVSPropertyOp16
 70
     1
102
RTVSPropertyOp17
 70
     1
102
RTVSPropertyOp18
 70
     1
102
RTVSPropertyOp19
 70
     1
102
RTVSPropertyOp20
 70
     1
102
RTVSPropertyOp21
 70
     1
102
RTVSPropertyOp22
 70
     1
102
RTVSPropertyOp23
 70
     1
102
RTVSPropertyOp24
 70
     1
102
RTVSPropertyOp25
 70
     1
102
RTVSPropertyOp26
 70
     1
102
RTVSPropertyOp27
 70
     1
  0
ENDSEC
  0
EOF
