  0
SECTION
  2
HEADER
  9
$ACADVER
  1
AC1015
  9
$ACADMAINTVER
 70
    20
  9
$DWGCODEPAGE
  3
ANSI_1252
  9
$INSBASE
 10
0.0
 20
0.0
 30
0.0
  9
$EXTMIN
 10
4742.68405242848
 20
1985.825697476664
 30
0.0
  9
$EXTMAX
 10
4745.41617853675
 20
1986.380863368285
 30
0.0
  9
$LIMMIN
 10
0.0
 20
0.0
  9
$LIMMAX
 10
420.0
 20
297.0
  9
$ORTHOMODE
 70
     1
  9
$REGENMODE
 70
     1
  9
$FILLMODE
 70
     1
  9
$QTEXTMODE
 70
     0
  9
$MIRRTEXT
 70
     1
  9
$LTSCALE
 40
1.0
  9
$ATTMODE
 70
     1
  9
$TEXTSIZE
 40
2.5
  9
$TRACEWID
 40
1.0
  9
$TEXTSTYLE
  7
SANINDUSA
  9
$CLAYER
  8
cotas
  9
$CELTYPE
  6
ByLayer
  9
$CECOLOR
 62
   256
  9
$CELTSCALE
 40
1.0
  9
$DISPSILH
 70
     0
  9
$DIMSCALE
 40
1.0
  9
$DIMASZ
 40
2.0
  9
$DIMEXO
 40
1.0
  9
$DIMDLI
 40
1.0
  9
$DIMRND
 40
0.0
  9
$DIMDLE
 40
0.0
  9
$DIMEXE
 40
1.0
  9
$DIMTP
 40
0.0
  9
$DIMTM
 40
0.0
  9
$DIMTXT
 40
2.0
  9
$DIMCEN
 40
0.0
  9
$DIMTSZ
 40
0.0
  9
$DIMTOL
 70
     0
  9
$DIMLIM
 70
     0
  9
$DIMTIH
 70
     0
  9
$DIMTOH
 70
     0
  9
$DIMSE1
 70
     0
  9
$DIMSE2
 70
     0
  9
$DIMTAD
 70
     1
  9
$DIMZIN
 70
     8
  9
$DIMBLK
  1

  9
$DIMASO
 70
     1
  9
$DIMSHO
 70
     1
  9
$DIMPOST
  1

  9
$DIMAPOST
  1

  9
$DIMALT
 70
     0
  9
$DIMALTD
 70
     3
  9
$DIMALTF
 40
0.03937007874016
  9
$DIMLFAC
 40
1.0
  9
$DIMTOFL
 70
     1
  9
$DIMTVP
 40
0.0
  9
$DIMTIX
 70
     0
  9
$DIMSOXD
 70
     0
  9
$DIMSAH
 70
     0
  9
$DIMBLK1
  1

  9
$DIMBLK2
  1

  9
$DIMSTYLE
  2
SANINDUSA
  9
$DIMCLRD
 70
   256
  9
$DIMCLRE
 70
   256
  9
$DIMCLRT
 70
   256
  9
$DIMTFAC
 40
1.0
  9
$DIMGAP
 40
1.0
  9
$DIMJUST
 70
     0
  9
$DIMSD1
 70
     0
  9
$DIMSD2
 70
     0
  9
$DIMTOLJ
 70
     0
  9
$DIMTZIN
 70
     8
  9
$DIMALTZ
 70
     0
  9
$DIMALTTZ
 70
     0
  9
$DIMUPT
 70
     0
  9
$DIMDEC
 70
     1
  9
$DIMTDEC
 70
     1
  9
$DIMALTU
 70
     2
  9
$DIMALTTD
 70
     3
  9
$DIMTXSTY
  7
SANINDUSA
  9
$DIMAUNIT
 70
     0
  9
$DIMADEC
 70
     1
  9
$DIMALTRND
 40
0.0
  9
$DIMAZIN
 70
     0
  9
$DIMDSEP
 70
    44
  9
$DIMATFIT
 70
     3
  9
$DIMFRAC
 70
     0
  9
$DIMLDRBLK
  1

  9
$DIMLUNIT
 70
     2
  9
$DIMLWD
 70
    -1
  9
$DIMLWE
 70
    -1
  9
$DIMTMOVE
 70
     0
  9
$LUNITS
 70
     2
  9
$LUPREC
 70
     4
  9
$SKETCHINC
 40
1.0
  9
$FILLETRAD
 40
0.0
  9
$AUNITS
 70
     0
  9
$AUPREC
 70
     0
  9
$MENU
  1
.
  9
$ELEVATION
 40
0.0
  9
$PELEVATION
 40
0.0
  9
$THICKNESS
 40
0.0
  9
$LIMCHECK
 70
     0
  9
$CHAMFERA
 40
10.0
  9
$CHAMFERB
 40
10.0
  9
$CHAMFERC
 40
20.0
  9
$CHAMFERD
 40
0.0
  9
$SKPOLY
 70
     0
  9
$TDCREATE
 40
2453125.620890290
  9
$TDUCREATE
 40
2453125.579223623
  9
$TDUPDATE
 40
2456146.462495290
  9
$TDUUPDATE
 40
2456146.420828623
  9
$TDINDWG
 40
0.0136509028
  9
$TDUSRTIMER
 40
0.0136509028
  9
$USRTIMER
 70
     1
  9
$ANGBASE
 50
0.0
  9
$ANGDIR
 70
     0
  9
$PDMODE
 70
     0
  9
$PDSIZE
 40
0.0
  9
$PLINEWID
 40
0.0
  9
$SPLFRAME
 70
     0
  9
$SPLINETYPE
 70
     6
  9
$SPLINESEGS
 70
     8
  9
$HANDSEED
  5
18B8
  9
$SURFTAB1
 70
     6
  9
$SURFTAB2
 70
     6
  9
$SURFTYPE
 70
     6
  9
$SURFU
 70
     6
  9
$SURFV
 70
     6
  9
$UCSBASE
  2

  9
$UCSNAME
  2

  9
$UCSORG
 10
0.0
 20
0.0
 30
0.0
  9
$UCSXDIR
 10
1.0
 20
0.0
 30
0.0
  9
$UCSYDIR
 10
0.0
 20
1.0
 30
0.0
  9
$UCSORTHOREF
  2

  9
$UCSORTHOVIEW
 70
     0
  9
$UCSORGTOP
 10
0.0
 20
0.0
 30
0.0
  9
$UCSORGBOTTOM
 10
0.0
 20
0.0
 30
0.0
  9
$UCSORGLEFT
 10
0.0
 20
0.0
 30
0.0
  9
$UCSORGRIGHT
 10
0.0
 20
0.0
 30
0.0
  9
$UCSORGFRONT
 10
0.0
 20
0.0
 30
0.0
  9
$UCSORGBACK
 10
0.0
 20
0.0
 30
0.0
  9
$PUCSBASE
  2

  9
$PUCSNAME
  2

  9
$PUCSORG
 10
0.0
 20
0.0
 30
0.0
  9
$PUCSXDIR
 10
1.0
 20
0.0
 30
0.0
  9
$PUCSYDIR
 10
0.0
 20
1.0
 30
0.0
  9
$PUCSORTHOREF
  2

  9
$PUCSORTHOVIEW
 70
     0
  9
$PUCSORGTOP
 10
0.0
 20
0.0
 30
0.0
  9
$PUCSORGBOTTOM
 10
0.0
 20
0.0
 30
0.0
  9
$PUCSORGLEFT
 10
0.0
 20
0.0
 30
0.0
  9
$PUCSORGRIGHT
 10
0.0
 20
0.0
 30
0.0
  9
$PUCSORGFRONT
 10
0.0
 20
0.0
 30
0.0
  9
$PUCSORGBACK
 10
0.0
 20
0.0
 30
0.0
  9
$USERI1
 70
     0
  9
$USERI2
 70
     0
  9
$USERI3
 70
     0
  9
$USERI4
 70
     0
  9
$USERI5
 70
     0
  9
$USERR1
 40
0.0
  9
$USERR2
 40
0.0
  9
$USERR3
 40
0.0
  9
$USERR4
 40
0.0
  9
$USERR5
 40
0.0
  9
$WORLDVIEW
 70
     1
  9
$SHADEDGE
 70
     3
  9
$SHADEDIF
 70
    70
  9
$TILEMODE
 70
     1
  9
$MAXACTVP
 70
    64
  9
$PINSBASE
 10
0.0
 20
0.0
 30
0.0
  9
$PLIMCHECK
 70
     0
  9
$PEXTMIN
 10
1.000000000000000E+20
 20
1.000000000000000E+20
 30
1.000000000000000E+20
  9
$PEXTMAX
 10
-1.000000000000000E+20
 20
-1.000000000000000E+20
 30
-1.000000000000000E+20
  9
$PLIMMIN
 10
0.0
 20
0.0
  9
$PLIMMAX
 10
420.0
 20
297.0
  9
$UNITMODE
 70
     0
  9
$VISRETAIN
 70
     1
  9
$PLINEGEN
 70
     0
  9
$PSLTSCALE
 70
     1
  9
$TREEDEPTH
 70
  3020
  9
$CMLSTYLE
  2
Standard
  9
$CMLJUST
 70
     0
  9
$CMLSCALE
 40
20.0
  9
$PROXYGRAPHICS
 70
     1
  9
$MEASUREMENT
 70
     1
  9
$CELWEIGHT
370
    -1
  9
$ENDCAPS
280
     0
  9
$JOINSTYLE
280
     0
  9
$LWDISPLAY
290
     0
  9
$INSUNITS
 70
     4
  9
$HYPERLINKBASE
  1

  9
$STYLESHEET
  1
monochrome.ctb
  9
$XEDIT
290
     1
  9
$CEPSNTYPE
380
     0
  9
$PSTYLEMODE
290
     1
  9
$FINGERPRINTGUID
  2
{B98A73AA-52AA-4C10-B469-C0E7150AC31F}
  9
$VERSIONGUID
  2
{2EDE1959-595F-4212-A7F2-DAF4AD825CE5}
  9
$EXTNAMES
290
     1
  9
$PSVPSCALE
 40
0.0
  9
$OLESTARTUP
290
     0
  0
ENDSEC
  0
SECTION
  2
CLASSES
  0
CLASS
  1
ACDBDICTIONARYWDFLT
  2
AcDbDictionaryWithDefault
  3
ObjectDBX Classes
 90
        0
280
     0
281
     0
  0
CLASS
  1
ACDBPLACEHOLDER
  2
AcDbPlaceHolder
  3
ObjectDBX Classes
 90
        0
280
     0
281
     0
  0
CLASS
  1
LAYOUT
  2
AcDbLayout
  3
ObjectDBX Classes
 90
        0
280
     0
281
     0
  0
CLASS
  1
DICTIONARYVAR
  2
AcDbDictionaryVar
  3
ObjectDBX Classes
 90
        0
280
     0
281
     0
  0
CLASS
  1
DIMASSOC
  2
AcDbDimAssoc
  3
"AcDbDimAssoc|Product Desc:     AcDim ARX App For Dimension|Company:          Autodesk, Inc.|WEB Address:      www.autodesk.com"
 90
    32768
280
     0
281
     0
  0
CLASS
  1
MATERIAL
  2
AcDbMaterial
  3
ObjectDBX Classes
 90
     1153
280
     0
281
     0
  0
CLASS
  1
VISUALSTYLE
  2
AcDbVisualStyle
  3
ObjectDBX Classes
 90
     4095
280
     0
281
     0
  0
CLASS
  1
TABLESTYLE
  2
AcDbTableStyle
  3
ObjectDBX Classes
 90
     4095
280
     0
281
     0
  0
CLASS
  1
SCALE
  2
AcDbScale
  3
ObjectDBX Classes
 90
     1153
280
     0
281
     0
  0
CLASS
  1
MLEADERSTYLE
  2
AcDbMLeaderStyle
  3
ACDB_MLEADERSTYLE_CLASS
 90
     4095
280
     0
281
     0
  0
CLASS
  1
CELLSTYLEMAP
  2
AcDbCellStyleMap
  3
ObjectDBX Classes
 90
     1152
280
     0
281
     0
  0
ENDSEC
  0
SECTION
  2
TABLES
  0
TABLE
  2
VPORT
  5
8
330
0
100
AcDbSymbolTable
 70
     1
  0
VPORT
  5
17F2
330
8
100
AcDbSymbolTableRecord
100
AcDbViewportTableRecord
  2
*Active
 70
     0
 10
0.0
 20
0.0
 11
1.0
 21
1.0
 12
4744.226719434884
 22
1986.064712901578
 13
0.0
 23
0.0
 14
10.0
 24
10.0
 15
10.0
 25
10.0
 16
0.0
 26
0.0
 36
1.0
 17
0.0
 27
0.0
 37
0.0
 40
2.726946331837488
 41
1.645464025026068
 42
50.0
 43
0.0
 44
0.0
 50
0.0
 51
0.0
 71
     0
 72
   100
 73
     1
 74
     2
 75
     0
 76
     0
 77
     0
 78
     0
281
     0
 65
     1
110
0.0
120
0.0
130
0.0
111
1.0
121
0.0
131
0.0
112
0.0
122
1.0
132
0.0
 79
     0
146
0.0
  0
ENDTAB
  0
TABLE
  2
LTYPE
  5
5
330
0
100
AcDbSymbolTable
 70
     3
  0
LTYPE
  5
14
330
5
100
AcDbSymbolTableRecord
100
AcDbLinetypeTableRecord
  2
ByBlock
 70
     0
  3

 72
    65
 73
     0
 40
0.0
  0
LTYPE
  5
15
330
5
100
AcDbSymbolTableRecord
100
AcDbLinetypeTableRecord
  2
ByLayer
 70
     0
  3

 72
    65
 73
     0
 40
0.0
  0
LTYPE
  5
16
330
5
100
AcDbSymbolTableRecord
100
AcDbLinetypeTableRecord
  2
Continuous
 70
     0
  3
Solid line
 72
    65
 73
     0
 40
0.0
  0
LTYPE
  5
2D
330
5
100
AcDbSymbolTableRecord
100
AcDbLinetypeTableRecord
  2
DASHDOT
 70
     0
  3
Dash dot __ . __ . __ . __ . __ . __ . __ . __
 72
    65
 73
     4
 40
25.4
 49
12.7
 74
     0
 49
-6.349999999999999
 74
     0
 49
0.0
 74
     0
 49
-6.349999999999999
 74
     0
  0
LTYPE
  5
2E
330
5
100
AcDbSymbolTableRecord
100
AcDbLinetypeTableRecord
  2
HIDDEN
 70
     0
  3
Hidden __ __ __ __ __ __ __ __ __ __ __ __ __ _
 72
    65
 73
     2
 40
9.524999999999998
 49
6.349999999999999
 74
     0
 49
-3.174999999999999
 74
     0
  0
ENDTAB
  0
TABLE
  2
LAYER
  5
2
330
0
100
AcDbSymbolTable
 70
    17
  0
LAYER
  5
10
102
{ACAD_XDICTIONARY
360
183D
102
}
330
2
100
AcDbSymbolTableRecord
100
AcDbLayerTableRecord
  2
0
 70
     0
 62
     7
  6
Continuous
370
    -3
390
F
  0
LAYER
  5
2F
102
{ACAD_XDICTIONARY
360
183F
102
}
330
2
100
AcDbSymbolTableRecord
100
AcDbLayerTableRecord
  2
1
 70
     0
 62
     1
  6
Continuous
370
    -3
390
F
  0
LAYER
  5
30
102
{ACAD_XDICTIONARY
360
1841
102
}
330
2
100
AcDbSymbolTableRecord
100
AcDbLayerTableRecord
  2
2
 70
     0
 62
     2
  6
Continuous
370
    -3
390
F
  0
LAYER
  5
31
102
{ACAD_XDICTIONARY
360
1843
102
}
330
2
100
AcDbSymbolTableRecord
100
AcDbLayerTableRecord
  2
3
 70
     0
 62
     3
  6
Continuous
370
    -3
390
F
  0
LAYER
  5
32
102
{ACAD_XDICTIONARY
360
1845
102
}
330
2
100
AcDbSymbolTableRecord
100
AcDbLayerTableRecord
  2
4
 70
     0
 62
     4
  6
Continuous
370
    -3
390
F
  0
LAYER
  5
33
102
{ACAD_XDICTIONARY
360
1847
102
}
330
2
100
AcDbSymbolTableRecord
100
AcDbLayerTableRecord
  2
5
 70
     0
 62
     5
  6
Continuous
370
    -3
390
F
  0
LAYER
  5
34
102
{ACAD_XDICTIONARY
360
1849
102
}
330
2
100
AcDbSymbolTableRecord
100
AcDbLayerTableRecord
  2
6
 70
     0
 62
     6
  6
Continuous
370
    -3
390
F
  0
LAYER
  5
35
102
{ACAD_XDICTIONARY
360
184B
102
}
330
2
100
AcDbSymbolTableRecord
100
AcDbLayerTableRecord
  2
7
 70
     0
 62
     7
  6
Continuous
370
    -3
390
F
  0
LAYER
  5
36
102
{ACAD_XDICTIONARY
360
184D
102
}
330
2
100
AcDbSymbolTableRecord
100
AcDbLayerTableRecord
  2
cen
 70
     0
 62
     7
  6
DASHDOT
370
    -3
390
F
  0
LAYER
  5
37
102
{ACAD_XDICTIONARY
360
184F
102
}
330
2
100
AcDbSymbolTableRecord
100
AcDbLayerTableRecord
  2
hid
 70
     0
 62
     7
  6
HIDDEN
370
    -3
390
F
  0
LAYER
  5
5D6
102
{ACAD_XDICTIONARY
360
1851
102
}
330
2
100
AcDbSymbolTableRecord
100
AcDbLayerTableRecord
  2
hatch
 70
     0
 62
     9
  6
Continuous
370
    -3
390
F
  0
LAYER
  5
8AF
102
{ACAD_XDICTIONARY
360
1853
102
}
330
2
100
AcDbSymbolTableRecord
100
AcDbLayerTableRecord
  2
9
 70
     0
 62
     9
  6
Continuous
370
    -3
390
F
  0
LAYER
  5
8F8
102
{ACAD_XDICTIONARY
360
1855
102
}
330
2
100
AcDbSymbolTableRecord
100
AcDbLayerTableRecord
  2
leg fin
 70
     0
 62
     9
  6
Continuous
370
    -3
390
F
  0
LAYER
  5
91D
102
{ACAD_XDICTIONARY
360
1857
102
}
330
2
100
AcDbSymbolTableRecord
100
AcDbLayerTableRecord
  2
cotas
 70
     0
 62
     1
  6
Continuous
370
    -3
390
F
  0
LAYER
  5
92F
330
2
100
AcDbSymbolTableRecord
100
AcDbLayerTableRecord
  2
Defpoints
 70
     0
 62
     7
  6
Continuous
290
     0
370
    -3
390
F
  0
LAYER
  5
B5B
102
{ACAD_XDICTIONARY
360
1859
102
}
330
2
100
AcDbSymbolTableRecord
100
AcDbLayerTableRecord
  2
indusa
 70
     0
 62
     3
  6
Continuous
370
    -3
390
F
  0
LAYER
  5
DAA
102
{ACAD_XDICTIONARY
360
185B
102
}
330
2
100
AcDbSymbolTableRecord
100
AcDbLayerTableRecord
  2
Sanindusa
 70
     0
 62
     3
  6
Continuous
370
    -3
390
F
  0
ENDTAB
  0
TABLE
  2
STYLE
  5
3
330
0
100
AcDbSymbolTable
 70
     3
  0
STYLE
  5
11
330
3
100
AcDbSymbolTableRecord
100
AcDbTextStyleTableRecord
  2
Standard
 70
     0
 40
0.0
 41
1.0
 50
0.0
 71
     0
 42
2.5
  3
Avgardn.ttf
  4

1001
ACAD
1000
AvantGarde Bk BT
1071
       34
  0
STYLE
  5
2C
330
3
100
AcDbSymbolTableRecord
100
AcDbTextStyleTableRecord
  2

 70
     1
 40
0.0
 41
1.0
 50
0.0
 71
     0
 42
2.5
  3
ltypeshp.shx
  4

  0
STYLE
  5
91F
330
3
100
AcDbSymbolTableRecord
100
AcDbTextStyleTableRecord
  2
SANINDUSA
 70
     0
 40
0.0
 41
1.0
 50
0.0
 71
     0
 42
2.5
  3
verdana.TTF
  4

1001
ACAD
1000
Verdana
1071
       34
  0
ENDTAB
  0
TABLE
  2
VIEW
  5
6
330
0
100
AcDbSymbolTable
 70
     0
  0
ENDTAB
  0
TABLE
  2
UCS
  5
7
330
0
100
AcDbSymbolTable
 70
     0
  0
ENDTAB
  0
TABLE
  2
APPID
  5
9
330
0
100
AcDbSymbolTable
 70
     3
  0
APPID
  5
12
330
9
100
AcDbSymbolTableRecord
100
AcDbRegAppTableRecord
  2
ACAD
 70
     0
  0
APPID
  5
3A
330
9
100
AcDbSymbolTableRecord
100
AcDbRegAppTableRecord
  2
DCO15
 70
     0
  0
APPID
  5
18B7
330
9
100
AcDbSymbolTableRecord
100
AcDbRegAppTableRecord
  2
ACAD_MLEADERVER
 70
     0
  0
ENDTAB
  0
TABLE
  2
DIMSTYLE
  5
A
330
0
100
AcDbSymbolTable
 70
     2
100
AcDbDimStyleTable
 71
     1
340
921
  0
DIMSTYLE
105
45
330
A
100
AcDbSymbolTableRecord
100
AcDbDimStyleTableRecord
  2
STANDARD
 70
     0
289
     0
340
11
  0
DIMSTYLE
105
921
330
A
100
AcDbSymbolTableRecord
100
AcDbDimStyleTableRecord
  2
SANINDUSA
 70
     0
 41
2.0
 42
1.0
 43
1.0
 44
1.0
 73
     0
 74
     0
 77
     1
 78
     8
140
2.0
141
0.0
143
0.03937007874016
147
1.0
171
     3
172
     1
176
   256
177
   256
178
   256
179
     1
271
     1
272
     1
274
     3
278
    44
283
     0
284
     8
340
91F
371
    -1
372
    -1
  0
ENDTAB
  0
TABLE
  2
BLOCK_RECORD
  5
1
330
0
100
AcDbSymbolTable
 70
    94
  0
BLOCK_RECORD
  5
1F
330
1
100
AcDbSymbolTableRecord
100
AcDbBlockTableRecord
  2
*Model_Space
340
22
  0
BLOCK_RECORD
  5
1B
330
1
100
AcDbSymbolTableRecord
100
AcDbBlockTableRecord
  2
*Paper_Space
340
1E
  0
BLOCK_RECORD
  5
23
330
1
100
AcDbSymbolTableRecord
100
AcDbBlockTableRecord
  2
*Paper_Space0
340
26
  0
BLOCK_RECORD
  5
919
330
1
100
AcDbSymbolTableRecord
100
AcDbBlockTableRecord
  2
_DotSmall
340
0
  0
BLOCK_RECORD
  5
922
330
1
100
AcDbSymbolTableRecord
100
AcDbBlockTableRecord
  2
base para cotas
340
0
310
2800000020000000200000000100080000000000000400000000000000000000000000000000000000000000000080000080000000808000800000008000800080800000C0C0C000C0DCC000F0CAA6000020400000206000002080000020A0000020C0000020E00000400000004020000040400000406000004080000040A0
310
000040C0000040E00000600000006020000060400000606000006080000060A0000060C0000060E00000800000008020000080400000806000008080000080A0000080C0000080E00000A0000000A0200000A0400000A0600000A0800000A0A00000A0C00000A0E00000C0000000C0200000C0400000C0600000C0800000C0
310
A00000C0C00000C0E00000E0000000E0200000E0400000E0600000E0800000E0A00000E0C00000E0E00040000000400020004000400040006000400080004000A0004000C0004000E00040200000402020004020400040206000402080004020A0004020C0004020E000404000004040200040404000404060004040800040
310
40A0004040C0004040E00040600000406020004060400040606000406080004060A0004060C0004060E00040800000408020004080400040806000408080004080A0004080C0004080E00040A0000040A0200040A0400040A0600040A0800040A0A00040A0C00040A0E00040C0000040C0200040C0400040C0600040C08000
310
40C0A00040C0C00040C0E00040E0000040E0200040E0400040E0600040E0800040E0A00040E0C00040E0E00080000000800020008000400080006000800080008000A0008000C0008000E00080200000802020008020400080206000802080008020A0008020C0008020E00080400000804020008040400080406000804080
310
008040A0008040C0008040E00080600000806020008060400080606000806080008060A0008060C0008060E00080800000808020008080400080806000808080008080A0008080C0008080E00080A0000080A0200080A0400080A0600080A0800080A0A00080A0C00080A0E00080C0000080C0200080C0400080C0600080C0
310
800080C0A00080C0C00080C0E00080E0000080E0200080E0400080E0600080E0800080E0A00080E0C00080E0E000C0000000C0002000C0004000C0006000C0008000C000A000C000C000C000E000C0200000C0202000C0204000C0206000C0208000C020A000C020C000C020E000C0400000C0402000C0404000C0406000C0
310
408000C040A000C040C000C040E000C0600000C0602000C0604000C0606000C0608000C060A000C060C000C060E000C0800000C0802000C0804000C0806000C0808000C080A000C080C000C080E000C0A00000C0A02000C0A04000C0A06000C0A08000C0A0A000C0A0C000C0A0E000C0C00000C0C02000C0C04000C0C06000
310
C0C08000C0C0A000F0FBFF00A4A0A000808080000000FF0000FF000000FFFF00FF000000FF00FF00FFFF0000FFFFFF00A4A4A4A4A4A4A4A4A4A4A4A4A4A4A4A4A4A4A4A4A4A4A4A4A4A4A4A4A4A4A4A4A4A4A4A4A4A4A4A4A4A4A4A4A4A4A4A4A4A4A4A4A4A4A4A4A4A4A4A4A4A4A4A4A4A4A4A4A4A4A4A4A4A4A4A4A4A4A4
310
A4A4A4A4A4A4A4A4A4A4A4A4A4A4A4A4A4A4A4A4A4A4A4A4A4A4A4A4A4A4A4A4A4A4A4A4A4A4A4A4A4A4A4A4A4A4A4A4A4A4A4A4A4A4A4A4A4A4A4A4A4A4A4A4A4A4A4A4A4A4A4A4A4A4A4A4A4A4A4A4A4A4A4A4A4A4A4A4A4A4A4A4A4A4A4A4A4A4A4A4A4A4A4A4A4A4A4A4A4A4A4A4A4A4A4A4A4A4A4A4A4A4A4A4A4A4A4
310
A4A4A4A4A4A4A4A4A4A4A4A4A4A4A4A4A4A4A4A4A4A4A4A4A4A4A4A4A4A4A4A4A4A4A4A4A4A4A4A4A4A4A4A4A4A4A4A4A4A4A4A4A4A4A4A4A4A4A4A4A4A4A4A4A4A4A4A4A4A4A4A4A4A4A4A4A4A4A4A4A4A4A4A4A4A4A4A4A4A4A4A4A4A4A4A4A4A4A4A4A4A4A4A4A4A4A4A4A4A4A4A4A4A4A4A4A4A4A4A4A4A4A4A4A4A4A4
310
A4A4A4A4A4A4A4A4A4A4A4A4A4A4A4A4A4A4A4A4A4A4A4A4A4A4A4A4A4A4A4A4A4A4A4A4A4A4A4A4A4A4A4A4A4A4A4A4A4A4A4A4A4A4A4A4A4A4A4A4A4A4A4A4A4A4A4A4A4A4A4A4A4A4A4A4A4A4A4A4A4A4A4A4A4A4A4A4A4A4A4A4A4A4A4A4A4A4A4A4A4A4A4A4A4A4A4A4A4A4A4A4A4A4A4A4F9F9F9F9F9F9F9F9F9F9F9
310
F9F9F9F9F9F9F9F9F9F9F9F9F9F9F9F9F9F9F9A4A4F9F9F9F9F9F9F9F9F9F9F9F9F9F9F9F9F9F9F9F9F9F9F9F9F9F9F9F9F9F9A4A4F9F9F9F9F9F9F9F9F9F9F9F9F9F9F9F9F9F9F9F9F9F9F9F9F9F9F9F9F9F9A4A4F9A4A4A4A4A4A4A4A4A4A4A4A4A4A4A4A4A4A4A4A4A4A4A4A4A4A4A4A4F9A4A4A4A4A4A4A4A4A4A4A4A4
310
A4A4A4A4A4A4A4A4A4A4A4A4A4A4A4A4A4A4A4A4A4A4A4A4A4A4A4A4A4A4A4A4A4A4A4A4A4A4A4A4A4A4A4A4A4A4A4A4A4A4A4A4A4A4A4A4A4A4A4A4A4A4A4A4A4A4A4A4A4A4A4A4A4A4A4A4A4A4A4A4A4A4A4A4A4A4A4A4A4A4A4A4A4A4A4A4A4A4A4A4A4A4A4A4A4A4A4A4A4A4A4A4A4A4A4A4A4A4A4A4A4A4A4A4A4A4A4
310
A4A4A4A4A4A4A4A4A4A4A4A4A4A4A4A4A4A4A4A4A4A4A4A4A4A4A4A4A4A4A4A4A4A4A4A4A4A4A4A4A4A4A4A4A4A4A4A4A4A4A4A4A4A4A4A4A4A4A4A4A4A4A4A4A4A4A4A4A4A4A4A4A4A4A4A4A4A4A4A4A4A4A4A4A4A4A4A4A4A4A4A4A4A4A4A4A4A4A4A4A4A4A4A4A4A4A4A4A4A4A4A4A4A4A4A4A4A4A4A4A4A4A4A4A4A4A4
310
A4A4A4A4A4A4A4A4A4A4A4A4A4A4A4A4A4A4A4A4A4A4A4A4A4A4A4A4A4A4A4A4A4A4A4A4A4A4A4A4A4A4A4A4A4A4A4A4A4A4A4A4A4A4A4A4A4A4A4A4A4A4A4A4A4A4A4A4A4A4A4A4A4A4A4A4A4A4A4A4A4A4A4A4A4A4A4A4A4A4A4A4A4A4A4A4A4A4A4A4A4A4A4A4A4A4A4A4A4A4A4A4A4A4A4A4A4A4A4A4A4A4A4A4A4A4A4
310
A4A4A4A4A4A4A4A4A4A4A4A4A4A4A4A4A4A4A4A4A4A4A4A4A4A4A4A4A4A4A4A4A4A4A4A4A4A4A4A4A4A4A4A4A4A4A4A4A4A4A4A4A4A4A4A4
1001
ACAD
1000
DesignCenter Data
1002
{
1070
     1
1070
     4
1002
}
  0
BLOCK_RECORD
  5
AA8
330
1
100
AcDbSymbolTableRecord
100
AcDbBlockTableRecord
  2
_CLOSED
340
0
  0
ENDTAB
  0
ENDSEC
  0
SECTION
  2
BLOCKS
  0
BLOCK
  5
20
330
1F
100
AcDbEntity
  8
0
100
AcDbBlockBegin
  2
*Model_Space
 70
     0
 10
0.0
 20
0.0
 30
0.0
  3
*Model_Space
  1

  0
ENDBLK
  5
21
330
1F
100
AcDbEntity
  8
0
100
AcDbBlockEnd
  0
BLOCK
  5
1C
330
1B
100
AcDbEntity
 67
     1
  8
0
100
AcDbBlockBegin
  2
*Paper_Space
 70
     0
 10
0.0
 20
0.0
 30
0.0
  3
*Paper_Space
  1

  0
ENDBLK
  5
1D
330
1B
100
AcDbEntity
 67
     1
  8
0
100
AcDbBlockEnd
  0
BLOCK
  5
24
330
23
100
AcDbEntity
 67
     1
  8
0
100
AcDbBlockBegin
  2
*Paper_Space0
 70
     0
 10
0.0
 20
0.0
 30
0.0
  3
*Paper_Space0
  1

  0
ENDBLK
  5
25
330
23
100
AcDbEntity
 67
     1
  8
0
100
AcDbBlockEnd
  0
BLOCK
  5
91B
330
919
100
AcDbEntity
  8
0
100
AcDbBlockBegin
  2
_DotSmall
 70
     0
 10
0.0
 20
0.0
 30
0.0
  3
_DotSmall
  1

  0
LWPOLYLINE
  5
91A
330
919
100
AcDbEntity
  8
0
  6
ByBlock
 62
     0
100
AcDbPolyline
 90
        2
 70
     1
 43
0.5
 10
-0.0625
 20
0.0
 42
1.0
 10
0.0625
 20
0.0
 42
1.0
  0
ENDBLK
  5
91C
330
919
100
AcDbEntity
  8
0
100
AcDbBlockEnd
  0
BLOCK
  5
92A
330
922
100
AcDbEntity
  8
0
100
AcDbBlockBegin
  2
base para cotas
 70
     0
 10
0.0
 20
0.0
 30
0.0
  3
base para cotas
  1

  0
LINE
  5
B36
330
922
100
AcDbEntity
  8
cotas
100
AcDbLine
 10
0.0
 20
-30.0
 30
0.0
 11
327.1260136525398
 21
-30.0
 31
0.0
  0
LINE
  5
B37
330
922
100
AcDbEntity
  8
cotas
100
AcDbLine
 10
0.0
 20
-25.0
 30
0.0
 11
327.1260136525398
 21
-25.0
 31
0.0
  0
LINE
  5
B38
330
922
100
AcDbEntity
  8
cotas
100
AcDbLine
 10
0.0
 20
-20.0
 30
0.0
 11
327.1260136525398
 21
-20.0
 31
0.0
  0
LINE
  5
B39
330
922
100
AcDbEntity
  8
cotas
100
AcDbLine
 10
0.0
 20
-15.0
 30
0.0
 11
327.1260136525398
 21
-15.0
 31
0.0
  0
LINE
  5
B3A
330
922
100
AcDbEntity
  8
cotas
100
AcDbLine
 10
0.0
 20
-10.0
 30
0.0
 11
327.1260136525398
 21
-10.0
 31
0.0
  0
LINE
  5
B3B
330
922
100
AcDbEntity
  8
cotas
100
AcDbLine
 10
0.0
 20
0.0
 30
0.0
 11
0.0
 21
-30.0
 31
0.0
  0
LINE
  5
B3C
330
922
100
AcDbEntity
  8
cotas
100
AcDbLine
 10
327.1260136525398
 20
-30.0
 30
0.0
 11
327.1260136525398
 21
0.0
 31
0.0
  0
ENDBLK
  5
92B
330
922
100
AcDbEntity
  8
0
100
AcDbBlockEnd
  0
BLOCK
  5
AAD
330
AA8
100
AcDbEntity
  8
0
100
AcDbBlockBegin
  2
_CLOSED
 70
     0
 10
0.0
 20
0.0
 30
0.0
  3
_CLOSED
  1

  0
LINE
  5
AA9
330
AA8
100
AcDbEntity
  8
0
100
AcDbLine
 10
-1.0
 20
0.166667
 30
0.0
 11
0.0
 21
0.0
 31
0.0
  0
LINE
  5
AAA
330
AA8
100
AcDbEntity
  8
0
100
AcDbLine
 10
0.0
 20
0.0
 30
0.0
 11
-1.0
 21
-0.166667
 31
0.0
  0
LINE
  5
AAB
330
AA8
100
AcDbEntity
  8
0
100
AcDbLine
 10
-1.0
 20
0.166667
 30
0.0
 11
-1.0
 21
-0.166667
 31
0.0
  0
LINE
  5
AAC
330
AA8
100
AcDbEntity
  8
0
100
AcDbLine
 10
0.0
 20
0.0
 30
0.0
 11
-1.0
 21
0.0
 31
0.0
  0
ENDBLK
  5
AAE
330
AA8
100
AcDbEntity
  8
0
100
AcDbBlockEnd
  0
ENDSEC
  0
SECTION
  2
ENTITIES
  0
LWPOLYLINE
  5
1143
330
1F
100
AcDbEntity
  8
Sanindusa
100
AcDbPolyline
 90
        5
 70
   128
 43
0.0
 10
4744.498261572383
 20
1986.055080179809
 10
4744.500021208787
 20
1986.064816253569
 10
4744.503973157533
 20
1986.084249410643
 10
4744.508146602888
 20
1986.103630533016
 10
4744.51289774455
 20
1986.124048720377
  0
LWPOLYLINE
  5
1144
330
1F
100
AcDbEntity
  8
Sanindusa
100
AcDbPolyline
 90
        5
 70
   128
 43
0.0
 10
4744.2180866173
 20
1986.055080179809
 10
4744.216487649312
 20
1986.064816253569
 10
4744.21308823165
 20
1986.084249410643
 10
4744.20942019996
 20
1986.103630533016
 10
4744.20525371312
 20
1986.124048720377
  0
LWPOLYLINE
  5
1148
330
1F
100
AcDbEntity
  8
Sanindusa
100
AcDbPolyline
 90
       24
 70
   128
 43
0.0
 10
4744.359075728834
 20
1985.961867857998
 10
4744.346478148209
 20
1985.961769967312
 10
4744.335708975436
 20
1985.961519492746
 10
4744.325173860326
 20
1985.961106438566
 10
4744.316420775279
 20
1985.960625728156
 10
4744.307925622991
 20
1985.960030481388
 10
4744.299776446811
 20
1985.959327597272
 10
4744.292061290091
 20
1985.958523974819
 10
4744.284828719144
 20
1985.957623729835
 10
4744.278081039561
 20
1985.956630048862
 10
4744.271886771489
 20
1985.955554123616
 10
4744.266314435078
 20
1985.954407145811
 10
4744.261388985897
 20
1985.953191813011
 10
4744.257125129072
 20
1985.951914585024
 10
4744.253565133507
 20
1985.950589849712
 10
4744.250751268112
 20
1985.949231994937
 10
4744.248318114412
 20
1985.947480917681
 10
4744.24689813682
 20
1985.945686240334
 10
4744.246142547846
 20
1985.943861432176
 10
4744.245702560001
 20
1985.942019962485
 10
4744.245229385795
 20
1985.940175300542
 10
4744.244857047832
 20
1985.939043664024
 10
4744.243367019577
 20
1985.93451486362
 10
4744.2404263147
 20
1985.925595731742
  0
LINE
  5
1149
330
1F
100
AcDbEntity
  8
Sanindusa
100
AcDbLine
 10
4744.403482652287
 20
1985.935814514696
 30
0.0
 11
4744.314668805382
 21
1985.935814514696
 31
0.0
  0
LWPOLYLINE
  5
114C
330
1F
100
AcDbEntity
  8
Sanindusa
100
AcDbPolyline
 90
       13
 70
   128
 43
0.0
 10
4744.359075728834
 20
1985.956294571885
 10
4744.350480511679
 20
1985.956202430669
 10
4744.343683011591
 20
1985.956064871137
 10
4744.336785182339
 20
1985.955829110781
 10
4744.330040294348
 20
1985.9554989485
 10
4744.323716543404
 20
1985.955092759975
 10
4744.317624132871
 20
1985.954604346934
 10
4744.311643718765
 20
1985.954018392675
 10
4744.305997500955
 20
1985.953352824764
 10
4744.301858130236
 20
1985.952782608503
 10
4744.297965346396
 20
1985.95216951272
 10
4744.294272864744
 20
1985.951503852134
 10
4744.290869708281
 20
1985.950799786553
  0
LINE
  5
114D
330
1F
100
AcDbEntity
  8
Sanindusa
100
AcDbLine
 10
4744.418478141994
 20
1985.904554621625
 30
0.0
 11
4744.299673315675
 21
1985.904554621625
 31
0.0
  0
LINE
  5
1150
330
1F
100
AcDbEntity
  8
Sanindusa
100
AcDbLine
 10
4744.273416467721
 20
1985.900240455003
 30
0.0
 11
4744.444713367416
 21
1985.900240455003
 31
0.0
  0
LWPOLYLINE
  5
1152
330
1F
100
AcDbEntity
  8
Sanindusa
100
AcDbPolyline
 90
        8
 70
   128
 43
0.0
 10
4744.220689423858
 20
1986.038660447839
 10
4744.222159632237
 20
1986.029578796692
 10
4744.225269264361
 20
1986.008775107774
 10
4744.227717899586
 20
1985.991045826013
 10
4744.230922236892
 20
1985.972496173024
 10
4744.234059576546
 20
1985.953288533035
 10
4744.238600958953
 20
1985.930407925745
 10
4744.240224849542
 20
1985.924498583196
  0
LWPOLYLINE
  5
1154
330
1F
100
AcDbEntity
  8
Sanindusa
100
AcDbPolyline
 90
        6
 70
   128
 43
0.0
 10
4744.240224849542
 20
1985.924498583196
 10
4744.240532599113
 20
1985.923461587042
 10
4744.241037962479
 20
1985.922391375658
 10
4744.241808594329
 20
1985.921368802878
 10
4744.242896880956
 20
1985.920349079629
 10
4744.243821585782
 20
1985.919666076927
  0
LWPOLYLINE
  5
1156
330
1F
100
AcDbEntity
  8
Sanindusa
100
AcDbPolyline
 90
        3
 70
   128
 43
0.0
 10
4744.2404263147
 20
1985.925595731742
 10
4744.240295976637
 20
1985.924958957944
 10
4744.240224849542
 20
1985.924498583196
  0
LWPOLYLINE
  5
1157
330
1F
100
AcDbEntity
  8
Sanindusa
100
AcDbPolyline
 90
        6
 70
   128
 43
0.0
 10
4744.274638794774
 20
1985.941375254363
 10
4744.273938789254
 20
1985.939331575921
 10
4744.272782198787
 20
1985.935902295643
 10
4744.271645314159
 20
1985.932472843414
 10
4744.270205288818
 20
1985.92811230082
 10
4744.268765420286
 20
1985.923751756898
  0
LWPOLYLINE
  5
115D
330
1F
100
AcDbEntity
  8
Sanindusa
100
AcDbPolyline
 90
        5
 70
   128
 43
0.0
 10
4744.270671873779
 20
1985.920425640905
 10
4744.274531190913
 20
1985.917852380642
 10
4744.278390193137
 20
1985.915279108277
 10
4744.285767963746
 20
1985.910358794535
 10
4744.293144469247
 20
1985.905438432182
  0
LWPOLYLINE
  5
115F
330
1F
100
AcDbEntity
  8
Sanindusa
100
AcDbPolyline
 90
        6
 70
   128
 43
0.0
 10
4744.268765420286
 20
1985.923751756898
 10
4744.26872383643
 20
1985.92360933348
 10
4744.268702675276
 20
1985.922759583311
 10
4744.269070745132
 20
1985.921911885881
 10
4744.269885687895
 20
1985.921016627237
 10
4744.270671873779
 20
1985.920425640905
  0
ARC
  5
1162
330
1F
100
AcDbEntity
  8
Sanindusa
100
AcDbCircle
 10
4744.273427278987
 20
1985.902167466861
 30
0.0
 40
0.0019270421852285
100
AcDbArc
 50
235.595505777293
 51
270.3214476541027
  0
LWPOLYLINE
  5
1167
330
1F
100
AcDbEntity
  8
Sanindusa
100
AcDbPolyline
 90
        3
 70
   128
 43
0.0
 10
4744.243821585782
 20
1985.919666076927
 10
4744.249674482034
 20
1985.91572635361
 10
4744.272338439022
 20
1985.900577523744
  0
LWPOLYLINE
  5
1169
330
1F
100
AcDbEntity
  8
Sanindusa
100
AcDbPolyline
 90
        5
 70
   128
 43
0.0
 10
4744.293144469247
 20
1985.905438432182
 10
4744.294141164983
 20
1985.905058563135
 10
4744.295895912796
 20
1985.904755229857
 10
4744.298022097111
 20
1985.90458989396
 10
4744.299673315675
 20
1985.904554621625
  0
LWPOLYLINE
  5
116E
330
1F
100
AcDbEntity
  8
Sanindusa
100
AcDbPolyline
 90
        8
 70
   128
 43
0.0
 10
4744.290869708281
 20
1985.950799786553
 10
4744.290864929762
 20
1985.950798725482
 10
4744.287111625535
 20
1985.94988741817
 10
4744.283843397254
 20
1985.948929421527
 10
4744.281011212313
 20
1985.947901766395
 10
4744.278736307653
 20
1985.946839229733
 10
4744.277050194468
 20
1985.945759627721
 10
4744.275934176614
 20
1985.944653062731
  0
LWPOLYLINE
  5
1172
330
1F
100
AcDbEntity
  8
Sanindusa
100
AcDbPolyline
 90
       12
 70
   128
 43
0.0
 10
4744.275934176614
 20
1985.944653062731
 10
4744.275705926982
 20
1985.944302970001
 10
4744.275613466501
 20
1985.944127608217
 10
4744.27557259481
 20
1985.944039860585
 10
4744.275553489598
 20
1985.943995971582
 10
4744.275544268469
 20
1985.94397402347
 10
4744.275541997711
 20
1985.943968536075
 10
4744.275533064361
 20
1985.943946584913
 10
4744.275498226472
 20
1985.943858771004
 10
4744.27536982424
 20
1985.943507406215
 10
4744.275132947413
 20
1985.942804501443
 10
4744.274638794774
 20
1985.941375254363
  0
LINE
  5
117D
330
1F
100
AcDbEntity
  8
Sanindusa
100
AcDbLine
 10
4744.304825728835
 20
1985.947277472383
 30
0.0
 11
4744.304825728835
 21
1985.953147703699
 31
0.0
  0
LWPOLYLINE
  5
117F
330
1F
100
AcDbEntity
  8
Sanindusa
100
AcDbPolyline
 90
        4
 70
   128
 43
0.0
 10
4744.30578910431
 20
1985.942248206715
 10
4744.305257804895
 20
1985.943862680108
 10
4744.304934337644
 20
1985.945551328805
 10
4744.304825728835
 20
1985.947277472383
  0
LWPOLYLINE
  5
1184
330
1F
100
AcDbEntity
  8
Sanindusa
100
AcDbPolyline
 90
        5
 70
   128
 43
0.0
 10
4744.314825728834
 20
1985.935788725651
 10
4744.311891841582
 20
1985.936270885249
 10
4744.309291084092
 20
1985.937631510729
 10
4744.307241697259
 20
1985.939667221935
 10
4744.30578910431
 20
1985.942248206715
  0
LINE
  5
1186
330
1F
100
AcDbEntity
  8
Sanindusa
100
AcDbLine
 10
4744.220689423858
 20
1986.038660447839
 30
0.0
 11
4744.2180866173
 21
1986.055080179809
 31
0.0
  0
LWPOLYLINE
  5
118D
330
1F
100
AcDbEntity
  8
Sanindusa
100
AcDbPolyline
 90
        3
 70
   128
 43
0.0
 10
4744.44582242533
 20
1985.900576764931
 10
4744.449981021735
 20
1985.903350685999
 10
4744.474333340758
 20
1985.919665975724
  0
LWPOLYLINE
  5
1190
330
1F
100
AcDbEntity
  8
Sanindusa
100
AcDbPolyline
 90
       24
 70
   128
 43
0.0
 10
4744.359075728834
 20
1985.961867857998
 10
4744.371673309461
 20
1985.961769967312
 10
4744.382442482232
 20
1985.961519492746
 10
4744.392977597343
 20
1985.961106438566
 10
4744.40173068239
 20
1985.960625728156
 10
4744.410225834678
 20
1985.960030481388
 10
4744.418375010858
 20
1985.959327597272
 10
4744.426090167578
 20
1985.958523974819
 10
4744.433322738525
 20
1985.957623729835
 10
4744.440070418109
 20
1985.956630048862
 10
4744.446264686181
 20
1985.955554123616
 10
4744.451837022591
 20
1985.954407145811
 10
4744.456762471772
 20
1985.953191813011
 10
4744.461026328599
 20
1985.951914585024
 10
4744.464586324162
 20
1985.950589849712
 10
4744.467400189557
 20
1985.949231994937
 10
4744.469833343257
 20
1985.947480917681
 10
4744.471253320849
 20
1985.945686240334
 10
4744.472008909824
 20
1985.943861432176
 10
4744.472448897669
 20
1985.942019962485
 10
4744.472922071874
 20
1985.940175300542
 10
4744.473294409837
 20
1985.939043664024
 10
4744.474784438092
 20
1985.93451486362
 10
4744.47772514297
 20
1985.925595731742
  0
LWPOLYLINE
  5
1191
330
1F
100
AcDbEntity
  8
Sanindusa
100
AcDbPolyline
 90
       13
 70
   128
 43
0.0
 10
4744.359075728834
 20
1985.956294571885
 10
4744.36767094599
 20
1985.956202430669
 10
4744.374468446078
 20
1985.956064871137
 10
4744.381366275332
 20
1985.955829110781
 10
4744.388111163322
 20
1985.9554989485
 10
4744.394434914265
 20
1985.955092759975
 10
4744.400527324799
 20
1985.954604346934
 10
4744.406507738906
 20
1985.954018392675
 10
4744.412153956715
 20
1985.953352824764
 10
4744.416293327434
 20
1985.952782608503
 10
4744.420186111274
 20
1985.95216951272
 10
4744.423878592925
 20
1985.951503852134
 10
4744.427281749388
 20
1985.950799786553
  0
LWPOLYLINE
  5
1192
330
1F
100
AcDbEntity
  8
Sanindusa
100
AcDbPolyline
 90
        6
 70
   128
 43
0.0
 10
4744.443512662895
 20
1985.941375254363
 10
4744.444212668414
 20
1985.939331575921
 10
4744.445369258882
 20
1985.935902295643
 10
4744.44650614351
 20
1985.932472843414
 10
4744.447946168852
 20
1985.92811230082
 10
4744.449386037383
 20
1985.923751756898
  0
LWPOLYLINE
  5
1198
330
1F
100
AcDbEntity
  8
Sanindusa
100
AcDbPolyline
 90
        5
 70
   128
 43
0.0
 10
4744.44747958389
 20
1985.920425640905
 10
4744.443620266757
 20
1985.917852380642
 10
4744.439761264533
 20
1985.915279108277
 10
4744.432383493923
 20
1985.910358794535
 10
4744.425006988424
 20
1985.905438432182
  0
LWPOLYLINE
  5
119C
330
1F
100
AcDbEntity
  8
Sanindusa
100
AcDbPolyline
 90
        5
 70
   128
 43
0.0
 10
4744.425006988424
 20
1985.905438432182
 10
4744.424010292687
 20
1985.905058563135
 10
4744.422255544874
 20
1985.904755229857
 10
4744.420129360558
 20
1985.90458989396
 10
4744.418478141994
 20
1985.904554621625
  0
ARC
  5
119E
330
1F
100
AcDbEntity
  8
Sanindusa
100
AcDbCircle
 10
4744.44484564329
 20
1985.901801084837
 30
0.0
 40
0.001566225521595
100
AcDbArc
 50
265.155303057124
 51
308.5834265851507
  0
LWPOLYLINE
  5
119F
330
1F
100
AcDbEntity
  8
Sanindusa
100
AcDbPolyline
 90
        6
 70
   128
 43
0.0
 10
4744.449386037383
 20
1985.923751756898
 10
4744.44942762124
 20
1985.92360933348
 10
4744.449448782393
 20
1985.922759583311
 10
4744.449080712537
 20
1985.921911885881
 10
4744.448265769775
 20
1985.921016627237
 10
4744.44747958389
 20
1985.920425640905
  0
LWPOLYLINE
  5
11A5
330
1F
100
AcDbEntity
  8
Sanindusa
100
AcDbPolyline
 90
        8
 70
   128
 43
0.0
 10
4744.427281749388
 20
1985.950799786553
 10
4744.427286527908
 20
1985.950798725482
 10
4744.431039832134
 20
1985.94988741817
 10
4744.434308060415
 20
1985.948929421527
 10
4744.437140245357
 20
1985.947901766395
 10
4744.439415150018
 20
1985.946839229733
 10
4744.441101263201
 20
1985.945759627721
 10
4744.442217281055
 20
1985.944653062731
  0
LINE
  5
11AF
330
1F
100
AcDbEntity
  8
Sanindusa
100
AcDbLine
 10
4744.413325728834
 20
1985.947277472383
 30
0.0
 11
4744.413325728834
 21
1985.953155046285
 31
0.0
  0
LWPOLYLINE
  5
11B1
330
1F
100
AcDbEntity
  8
Sanindusa
100
AcDbPolyline
 90
        4
 70
   128
 43
0.0
 10
4744.412362353361
 20
1985.942248206715
 10
4744.412893652775
 20
1985.943862680108
 10
4744.413217120026
 20
1985.945551328805
 10
4744.413325728834
 20
1985.947277472383
  0
LWPOLYLINE
  5
11B4
330
1F
100
AcDbEntity
  8
Sanindusa
100
AcDbPolyline
 90
        5
 70
   128
 43
0.0
 10
4744.403325728835
 20
1985.935788725651
 10
4744.406259616087
 20
1985.936270885249
 10
4744.408860373577
 20
1985.937631510729
 10
4744.41090976041
 20
1985.939667221935
 10
4744.412362353361
 20
1985.942248206715
  0
LWPOLYLINE
  5
11BB
330
1F
100
AcDbEntity
  8
Sanindusa
100
AcDbPolyline
 90
       12
 70
   128
 43
0.0
 10
4744.442217281055
 20
1985.944653062731
 10
4744.442445530688
 20
1985.944302970001
 10
4744.442537991168
 20
1985.944127608217
 10
4744.442578862861
 20
1985.944039860585
 10
4744.442597968071
 20
1985.943995971582
 10
4744.442607189201
 20
1985.94397402347
 10
4744.442609459959
 20
1985.943968536075
 10
4744.442618393308
 20
1985.943946584913
 10
4744.442653231197
 20
1985.943858771004
 10
4744.442781633429
 20
1985.943507406215
 10
4744.443018510256
 20
1985.942804501443
 10
4744.443512662895
 20
1985.941375254363
  0
LWPOLYLINE
  5
11BE
330
1F
100
AcDbEntity
  8
Sanindusa
100
AcDbPolyline
 90
        7
 70
   128
 43
0.0
 10
4744.477937603167
 20
1985.924497564144
 10
4744.480922282992
 20
1985.944513501525
 10
4744.483795107385
 20
1985.965933191434
 10
4744.48639904619
 20
1985.984333080268
 10
4744.489076761879
 20
1986.001799567172
 10
4744.492215885621
 20
1986.020198837711
 10
4744.495429145831
 20
1986.038613940602
  0
LWPOLYLINE
  5
11C1
330
1F
100
AcDbEntity
  8
Sanindusa
100
AcDbPolyline
 90
        3
 70
   128
 43
0.0
 10
4744.47772514297
 20
1985.925595731742
 10
4744.477855481032
 20
1985.924958957944
 10
4744.477937603167
 20
1985.924497564144
  0
LWPOLYLINE
  5
11C2
330
1F
100
AcDbEntity
  8
Sanindusa
100
AcDbPolyline
 90
        6
 70
   128
 43
0.0
 10
4744.474333340758
 20
1985.919665975724
 10
4744.475150517771
 20
1985.920265970502
 10
4744.476412157188
 20
1985.921446493286
 10
4744.477186679906
 20
1985.922514684841
 10
4744.477663521052
 20
1985.923599667451
 10
4744.477937603167
 20
1985.924497564144
  0
LINE
  5
11C5
330
1F
100
AcDbEntity
  8
Sanindusa
100
AcDbLine
 10
4744.495429145831
 20
1986.038613940602
 30
0.0
 11
4744.498261572383
 21
1986.055080179809
 31
0.0
  0
LINE
  5
11C9
330
1F
100
AcDbEntity
  8
Sanindusa
100
AcDbLine
 10
4744.301414816198
 20
1986.250700815564
 30
0.0
 11
4744.416736641471
 21
1986.250700815564
 31
0.0
  0
LWPOLYLINE
  5
11CA
330
1F
100
AcDbEntity
  8
Sanindusa
100
AcDbPolyline
 90
       21
 70
   128
 43
0.0
 10
4744.359075728834
 20
1986.24490421953
 10
4744.340373029467
 20
1986.244910605858
 10
4744.328462195496
 20
1986.244912647008
 10
4744.31667679866
 20
1986.244916932569
 10
4744.30260655999
 20
1986.24492685669
 10
4744.288833423897
 20
1986.244939858664
 10
4744.275501150309
 20
1986.24495563289
 10
4744.262753499153
 20
1986.244973873764
 10
4744.253742242263
 20
1986.24498883031
 10
4744.245103686545
 20
1986.24500487981
 10
4744.236889260369
 20
1986.245021793835
 10
4744.226721868471
 20
1986.245045363562
 10
4744.217386183384
 20
1986.245070081097
 10
4744.208981882418
 20
1986.245095410582
 10
4744.20160864289
 20
1986.245120816156
 10
4744.195320337185
 20
1986.245145912487
 10
4744.190121302341
 20
1986.245170475355
 10
4744.186067525354
 20
1986.245194097243
 10
4744.183214993225
 20
1986.245216370633
 10
4744.18181825611
 20
1986.245234211263
 10
4744.181200222649
 20
1986.245247935195
  0
LWPOLYLINE
  5
11CD
330
1F
100
AcDbEntity
  8
Sanindusa
100
AcDbPolyline
 90
        5
 70
   128
 43
0.0
 10
4744.182360945651
 20
1986.214394959401
 10
4744.183012165286
 20
1986.212347240965
 10
4744.183762793008
 20
1986.209936261434
 10
4744.184621713753
 20
1986.206895377773
 10
4744.185325199798
 20
1986.204368691632
  0
LINE
  5
11CF
330
1F
100
AcDbEntity
  8
Sanindusa
100
AcDbLine
 10
4744.185325199798
 20
1986.204368691632
 30
0.0
 11
4744.19949581864
 21
1986.152102643184
 31
0.0
  0
LWPOLYLINE
  5
11D0
330
1F
100
AcDbEntity
  8
Sanindusa
100
AcDbPolyline
 90
        7
 70
   128
 43
0.0
 10
4744.20525371312
 20
1986.124048720377
 10
4744.204416034702
 20
1986.128019330211
 10
4744.203609405478
 20
1986.13186962887
 10
4744.202901947521
 20
1986.1352752244
 10
4744.202273621795
 20
1986.138337773845
 10
4744.201743535921
 20
1986.140979432292
 10
4744.201354527272
 20
1986.143010395094
  0
LWPOLYLINE
  5
11D1
330
1F
100
AcDbEntity
  8
Sanindusa
100
AcDbPolyline
 90
        2
 70
   128
 43
0.0
 10
4744.201354527272
 20
1986.143010395094
 10
4744.19949581864
 20
1986.152102643184
  0
LINE
  5
11D8
330
1F
100
AcDbEntity
  8
Sanindusa
100
AcDbLine
 10
4744.297061908592
 20
1986.250700815564
 30
0.0
 11
4744.178980961009
 21
1986.250700815564
 31
0.0
  0
LWPOLYLINE
  5
11DA
330
1F
100
AcDbEntity
  8
Sanindusa
100
AcDbPolyline
 90
        4
 70
   128
 43
0.0
 10
4744.174109118275
 20
1986.244346418762
 10
4744.177818221408
 20
1986.23103578094
 10
4744.181767374072
 20
1986.216605959821
 10
4744.182360945651
 20
1986.214394959401
  0
ARC
  5
11DB
330
1F
100
AcDbEntity
  8
Sanindusa
100
AcDbCircle
 10
4744.178929246872
 20
1986.245695463103
 30
0.0
 40
0.0050053531674227
100
AcDbArc
 50
90.03044374540975
 51
195.6357245500969
  0
LWPOLYLINE
  5
11DC
330
1F
100
AcDbEntity
  8
Sanindusa
100
AcDbPolyline
 90
        9
 70
   128
 43
0.0
 10
4744.176131196121
 20
1986.238726650752
 10
4744.175902739573
 20
1986.239916938161
 10
4744.175967346138
 20
1986.241127240444
 10
4744.176321219521
 20
1986.242286439962
 10
4744.176943566039
 20
1986.243326421887
 10
4744.177797816471
 20
1986.244186076642
 10
4744.178833774864
 20
1986.244814890718
 10
4744.179990568068
 20
1986.245175914856
 10
4744.181200222649
 20
1986.245247935195
  0
LINE
  5
11FC
330
1F
100
AcDbEntity
  8
Sanindusa
100
AcDbLine
 10
4744.301414816198
 20
1986.250700815564
 30
0.0
 11
4744.297061908592
 21
1986.250700815564
 31
0.0
  0
LWPOLYLINE
  5
11FF
330
1F
100
AcDbEntity
  8
Sanindusa
100
AcDbPolyline
 90
       21
 70
   128
 43
0.0
 10
4744.359075728835
 20
1986.24490421953
 10
4744.377778428201
 20
1986.244910605858
 10
4744.389689262173
 20
1986.244912647008
 10
4744.401474659009
 20
1986.244916932569
 10
4744.41554489768
 20
1986.24492685669
 10
4744.429318033772
 20
1986.244939858664
 10
4744.44265030736
 20
1986.24495563289
 10
4744.455397958517
 20
1986.244973873764
 10
4744.464409215408
 20
1986.24498883031
 10
4744.473047771124
 20
1986.24500487981
 10
4744.4812621973
 20
1986.245021793835
 10
4744.491429589198
 20
1986.245045363562
 10
4744.500765274286
 20
1986.245070081097
 10
4744.509169575251
 20
1986.245095410582
 10
4744.516542814779
 20
1986.245120816156
 10
4744.522831120486
 20
1986.245145912487
 10
4744.52803015533
 20
1986.245170475355
 10
4744.532083932315
 20
1986.245194097243
 10
4744.534936464446
 20
1986.245216370633
 10
4744.53633320156
 20
1986.245234211263
 10
4744.536951235022
 20
1986.245247935195
  0
LINE
  5
1201
330
1F
100
AcDbEntity
  8
Sanindusa
100
AcDbLine
 10
4744.421089549077
 20
1986.250700815564
 30
0.0
 11
4744.539170496661
 21
1986.250700815564
 31
0.0
  0
LINE
  5
120D
330
1F
100
AcDbEntity
  8
Sanindusa
100
AcDbLine
 10
4744.416736641471
 20
1986.250700815564
 30
0.0
 11
4744.421089549077
 21
1986.250700815564
 31
0.0
  0
LWPOLYLINE
  5
120F
330
1F
100
AcDbEntity
  8
Sanindusa
100
AcDbPolyline
 90
        2
 70
   128
 43
0.0
 10
4744.516796930397
 20
1986.143010395094
 10
4744.518655639029
 20
1986.152102643184
  0
LWPOLYLINE
  5
1210
330
1F
100
AcDbEntity
  8
Sanindusa
100
AcDbPolyline
 90
        7
 70
   128
 43
0.0
 10
4744.51289774455
 20
1986.124048720377
 10
4744.513735422969
 20
1986.128019330211
 10
4744.514542052191
 20
1986.13186962887
 10
4744.515249510148
 20
1986.1352752244
 10
4744.515877835874
 20
1986.138337773845
 10
4744.516407921749
 20
1986.140979432292
 10
4744.516796930397
 20
1986.143010395094
  0
LWPOLYLINE
  5
1218
330
1F
100
AcDbEntity
  8
Sanindusa
100
AcDbPolyline
 90
        5
 70
   128
 43
0.0
 10
4744.535790512852
 20
1986.214394955076
 10
4744.535069499344
 20
1986.2123095219
 10
4744.534388664662
 20
1986.209936261434
 10
4744.533529743915
 20
1986.206895377773
 10
4744.532826257873
 20
1986.204368691632
  0
LINE
  5
121A
330
1F
100
AcDbEntity
  8
Sanindusa
100
AcDbLine
 10
4744.532826257873
 20
1986.204368691632
 30
0.0
 11
4744.518655639029
 21
1986.152102643184
 31
0.0
  0
ARC
  5
1220
330
1F
100
AcDbEntity
  8
Sanindusa
100
AcDbCircle
 10
4744.539224871512
 20
1986.245700815564
 30
0.0
 40
0.0050000000000001
100
AcDbArc
 50
344.2833675735528
 51
90.00001319878611
  0
LINE
  5
1221
330
1F
100
AcDbEntity
  8
Sanindusa
100
AcDbLine
 10
4744.539224870361
 20
1986.250700815564
 30
0.0
 11
4744.539170496661
 21
1986.250700815564
 31
0.0
  0
LWPOLYLINE
  5
1231
330
1F
100
AcDbEntity
  8
Sanindusa
100
AcDbPolyline
 90
        4
 70
   128
 43
0.0
 10
4744.535790512852
 20
1986.214394955076
 10
4744.536384159018
 20
1986.216606237982
 10
4744.540336634987
 20
1986.231048086981
 10
4744.544037937277
 20
1986.244346416089
  0
LWPOLYLINE
  5
1232
330
1F
100
AcDbEntity
  8
Sanindusa
100
AcDbPolyline
 90
        9
 70
   128
 43
0.0
 10
4744.542020261548
 20
1986.238726650752
 10
4744.542248718097
 20
1986.239916938161
 10
4744.542184111532
 20
1986.241127240444
 10
4744.54183023815
 20
1986.242286439962
 10
4744.54120789163
 20
1986.243326421887
 10
4744.540353641198
 20
1986.244186076642
 10
4744.539317682805
 20
1986.244814890718
 10
4744.538160889601
 20
1986.245175914856
 10
4744.536951235022
 20
1986.245247935195
  0
LINE
  5
123A
330
1F
100
AcDbEntity
  8
Sanindusa
100
AcDbLine
 10
4745.091778269026
 20
1986.091612589357
 30
0.0
 11
4745.091122939564
 21
1986.064068789643
 31
0.0
  0
LINE
  5
123B
330
1F
100
AcDbEntity
  8
Sanindusa
100
AcDbLine
 10
4745.079105789132
 20
1986.06408624205
 30
0.0
 11
4745.079105789132
 21
1986.100843628519
 31
0.0
  0
LINE
  5
123C
330
1F
100
AcDbEntity
  8
Sanindusa
100
AcDbLine
 10
4745.033105789132
 20
1986.076069153219
 30
0.0
 11
4745.033105789132
 21
1986.06408624205
 31
0.0
  0
ARC
  5
123D
330
1F
100
AcDbEntity
  8
Sanindusa
100
AcDbCircle
 10
4745.016083449837
 20
1986.063630114591
 30
0.0
 40
0.005
100
AcDbArc
 50
4.359902764401927
 51
84.17860422515488
  0
LINE
  5
123E
330
1F
100
AcDbEntity
  8
Sanindusa
100
AcDbLine
 10
4744.995372367569
 20
1986.06872160452
 30
0.0
 11
4744.988195549493
 21
1986.058496269374
 31
0.0
  0
LINE
  5
123F
330
1F
100
AcDbEntity
  8
Sanindusa
100
AcDbLine
 10
4744.976649666708
 20
1986.059452840297
 30
0.0
 11
4744.986642687359
 21
1986.073690624252
 31
0.0
  0
LINE
  5
1243
330
1F
100
AcDbEntity
  8
Sanindusa
100
AcDbLine
 10
4744.861105789132
 20
1985.936597012777
 30
0.0
 11
4744.861105789132
 21
1986.133185540171
 31
0.0
  0
LWPOLYLINE
  5
1245
330
1F
100
AcDbEntity
  8
Sanindusa
100
AcDbPolyline
 90
       17
 70
   128
 43
0.0
 10
4745.362460251522
 20
1986.22758250813
 10
4745.354527431426
 20
1986.215822707233
 10
4745.343350653917
 20
1986.201126048307
 10
4745.331345918368
 20
1986.187075870476
 10
4745.318574038462
 20
1986.17373958398
 10
4745.308075180453
 20
1986.163834138544
 10
4745.297175002987
 20
1986.154426862369
 10
4745.285891966857
 20
1986.145528413775
 10
4745.273729954299
 20
1986.137105009073
 10
4745.260792996029
 20
1986.129668372177
 10
4745.247212576639
 20
1986.123356286513
 10
4745.236870997028
 20
1986.119461783868
 10
4745.226332553335
 20
1986.116234769309
 10
4745.215651610302
 20
1986.113683660665
 10
4745.209609330006
 20
1986.112584971359
 42
0.3827622019141006
 10
4745.205516536347
 20
1986.107309407668
 10
4745.215687993233
 20
1985.96490587775
  0
ARC
  5
1246
330
1F
100
AcDbEntity
  8
Sanindusa
100
AcDbCircle
 10
4745.846671111529
 20
1985.758095262651
 30
0.0
 40
0.6544846237044127
100
AcDbArc
 50
133.9557489653508
 51
161.4206055242706
  0
ARC
  5
1247
330
1F
100
AcDbEntity
  8
Sanindusa
100
AcDbCircle
 10
4745.846667005652
 20
1985.758097478078
 30
0.0
 40
0.6424799790982764
100
AcDbArc
 50
132.2597798191716
 51
161.755565320144
  0
LWPOLYLINE
  5
1248
330
1F
100
AcDbEntity
  8
Sanindusa
100
AcDbPolyline
 90
        6
 70
   128
 43
0.0
 10
4745.205777309641
 20
1985.96329873987
 10
4745.195666630922
 20
1986.104851356723
 42
0.4328361008131618
 10
4745.19000903067
 20
1986.109449994518
 10
4745.16415551525
 20
1986.105952468204
 10
4745.132856753456
 20
1986.103040142813
 10
4745.10147332205
 20
1986.101433460928
  0
LINE
  5
1257
330
1F
100
AcDbEntity
  8
Sanindusa
100
AcDbLine
 10
4745.137144646664
 20
1985.942038489217
 30
0.0
 11
4745.116931495061
 21
1985.938760680849
 31
0.0
  0
LINE
  5
125C
330
1F
100
AcDbEntity
  8
Sanindusa
100
AcDbLine
 10
4744.987742212073
 20
1985.917811067391
 30
0.0
 11
4744.895321091614
 21
1985.902823858668
 31
0.0
  0
ARC
  5
1265
330
1F
100
AcDbEntity
  8
Sanindusa
100
AcDbCircle
 10
4744.897801376989
 20
1985.931199941182
 30
0.0
 40
0.0020000000000001
100
AcDbArc
 50
340.2842247720669
 51
99.21102654085212
  0
LINE
  5
1269
330
1F
100
AcDbEntity
  8
Sanindusa
100
AcDbLine
 10
4744.899742622858
 20
1985.930718729712
 30
0.0
 11
4744.89146605484
 21
1985.903338291753
 31
0.0
  0
ARC
  5
126E
330
1F
100
AcDbEntity
  8
Sanindusa
100
AcDbCircle
 10
4744.863105789132
 20
1985.925573629637
 30
0.0
 40
0.002
100
AcDbArc
 50
99.21102654085212
 51
180.0
  0
ARC
  5
126F
330
1F
100
AcDbEntity
  8
Sanindusa
100
AcDbCircle
 10
4744.863105789132
 20
1985.899625881489
 30
0.0
 40
0.002
100
AcDbArc
 50
180.0
 51
279.2110265408521
  0
LINE
  5
1270
330
1F
100
AcDbEntity
  8
Sanindusa
100
AcDbLine
 10
4744.861105789132
 20
1985.925573629637
 30
0.0
 11
4744.861105789132
 21
1985.936597012777
 31
0.0
  0
LINE
  5
1271
330
1F
100
AcDbEntity
  8
Sanindusa
100
AcDbLine
 10
4744.861105789132
 20
1985.925573629637
 30
0.0
 11
4744.861105789132
 21
1985.899625881489
 31
0.0
  0
LINE
  5
1272
330
1F
100
AcDbEntity
  8
Sanindusa
100
AcDbLine
 10
4744.871105789132
 20
1985.90902768249
 30
0.0
 11
4744.871105789132
 21
1985.918766423231
 31
0.0
  0
LINE
  5
1273
330
1F
100
AcDbEntity
  8
Sanindusa
100
AcDbLine
 10
4744.886409576136
 20
1985.921248118421
 30
0.0
 11
4744.883330764434
 21
1985.911010110917
 31
0.0
  0
LINE
  5
1274
330
1F
100
AcDbEntity
  8
Sanindusa
100
AcDbLine
 10
4744.883330764434
 20
1985.911010110917
 30
0.0
 11
4744.871105789132
 21
1985.90902768249
 31
0.0
  0
LINE
  5
127D
330
1F
100
AcDbEntity
  8
Sanindusa
100
AcDbLine
 10
4744.871105789132
 20
1985.918766423231
 30
0.0
 11
4744.886409576136
 21
1985.921248118421
 31
0.0
  0
LINE
  5
1283
330
1F
100
AcDbEntity
  8
Sanindusa
100
AcDbLine
 10
4744.862785646815
 20
1985.927547840593
 30
0.0
 11
4744.897481234672
 21
1985.933174152138
 31
0.0
  0
LINE
  5
1284
330
1F
100
AcDbEntity
  8
Sanindusa
100
AcDbLine
 10
4744.895321091614
 20
1985.902823858668
 30
0.0
 11
4744.889870926509
 21
1985.901940048111
 31
0.0
  0
ARC
  5
1287
330
1F
100
AcDbEntity
  8
Sanindusa
100
AcDbCircle
 10
4744.889550784193
 20
1985.903914259067
 30
0.0
 40
0.0020000000000001
100
AcDbArc
 50
279.2110265408521
 51
343.2627210547972
  0
LINE
  5
1288
330
1F
100
AcDbEntity
  8
Sanindusa
100
AcDbLine
 10
4744.889870926509
 20
1985.901940048111
 30
0.0
 11
4744.863425931449
 21
1985.897651670534
 31
0.0
  0
LINE
  5
1292
330
1F
100
AcDbEntity
  8
Sanindusa
100
AcDbLine
 10
4745.116931495061
 20
1985.938760680849
 30
0.0
 11
4745.008253260695
 21
1985.921137183384
 31
0.0
  0
LINE
  5
1294
330
1F
100
AcDbEntity
  8
Sanindusa
100
AcDbLine
 10
4745.008253260695
 20
1985.921137183384
 30
0.0
 11
4744.987742212073
 21
1985.917811067391
 31
0.0
  0
LINE
  5
129D
330
1F
100
AcDbEntity
  8
Sanindusa
100
AcDbLine
 10
4745.080105789132
 20
1986.06308624205
 30
0.0
 11
4745.032105789132
 21
1986.06308624205
 31
0.0
  0
ARC
  5
12A1
330
1F
100
AcDbEntity
  8
Sanindusa
100
AcDbCircle
 10
4744.98655852225
 20
1986.059645243616
 30
0.0
 40
0.002
100
AcDbArc
 50
279.2110265408521
 51
324.9362771121504
  0
LINE
  5
12A2
330
1F
100
AcDbEntity
  8
Sanindusa
100
AcDbLine
 10
4744.986878664567
 20
1986.057671032661
 30
0.0
 11
4744.978606836266
 21
1986.056329655099
 31
0.0
  0
ARC
  5
12A3
330
1F
100
AcDbEntity
  8
Sanindusa
100
AcDbCircle
 10
4744.978286693949
 20
1986.058303866054
 30
0.0
 40
0.002
100
AcDbArc
 50
144.9362771121503
 51
279.2110265408521
  0
ARC
  5
12A4
330
1F
100
AcDbEntity
  8
Sanindusa
100
AcDbCircle
 10
4745.032105789132
 20
1986.06408624205
 30
0.0
 40
0.0010000000000002
100
AcDbArc
 50
270.0
 51
0.0
  0
LINE
  5
12A5
330
1F
100
AcDbEntity
  8
Sanindusa
100
AcDbLine
 10
4745.032105789132
 20
1986.06308624205
 30
0.0
 11
4745.022066087027
 21
1986.06308624205
 31
0.0
  0
ARC
  5
12A6
330
1F
100
AcDbEntity
  8
Sanindusa
100
AcDbCircle
 10
4745.022066087027
 20
1986.06408624205
 30
0.0
 40
0.0009999999999999
100
AcDbArc
 50
184.3599027644019
 51
270.0
  0
LINE
  5
12A7
330
1F
100
AcDbEntity
  8
Sanindusa
100
AcDbLine
 10
4745.090123091869
 20
1986.06308624205
 30
0.0
 11
4745.080105789132
 21
1986.06308624205
 31
0.0
  0
ARC
  5
12A8
330
1F
100
AcDbEntity
  8
Sanindusa
100
AcDbCircle
 10
4745.080105789132
 20
1986.06408624205
 30
0.0
 40
0.0009999999999999
100
AcDbArc
 50
180.0
 51
270.0
  0
ARC
  5
12A9
330
1F
100
AcDbEntity
  8
Sanindusa
100
AcDbCircle
 10
4745.090123091869
 20
1986.06408624205
 30
0.0
 40
0.0010000000000002
100
AcDbArc
 50
270.0
 51
358.9999999999982
  0
LINE
  5
12AA
330
1F
100
AcDbEntity
  8
Sanindusa
100
AcDbLine
 10
4745.208651840804
 20
1985.953634250429
 30
0.0
 11
4745.175049443567
 21
1985.94818521304
 31
0.0
  0
LINE
  5
12AC
330
1F
100
AcDbEntity
  8
Sanindusa
100
AcDbLine
 10
4745.175049443567
 20
1985.94818521304
 30
0.0
 11
4745.137144646664
 21
1985.942038489217
 31
0.0
  0
LINE
  5
12AF
330
1F
100
AcDbEntity
  8
Sanindusa
100
AcDbLine
 10
4745.215687993233
 20
1985.96490587775
 30
0.0
 11
4745.226296225387
 21
1985.966626131612
 31
0.0
  0
LINE
  5
12B0
330
1F
100
AcDbEntity
  8
Sanindusa
100
AcDbLine
 10
4745.205777309641
 20
1985.96329873987
 30
0.0
 11
4745.206336780864
 21
1985.955465970404
 31
0.0
  0
ARC
  5
12B1
330
1F
100
AcDbEntity
  8
Sanindusa
100
AcDbCircle
 10
4745.23458532377
 20
1985.959865806025
 30
0.0
 40
0.002
100
AcDbArc
 50
279.2110265408521
 51
341.7562601442364
  0
LINE
  5
12B2
330
1F
100
AcDbEntity
  8
Sanindusa
100
AcDbLine
 10
4745.234905466086
 20
1985.957891595069
 30
0.0
 11
4745.208651840804
 21
1985.953634250429
 31
0.0
  0
ARC
  5
12B3
330
1F
100
AcDbEntity
  8
Sanindusa
100
AcDbCircle
 10
4745.208331698486
 20
1985.955608461384
 30
0.0
 40
0.0019999999999999
100
AcDbArc
 50
184.0855271829764
 51
279.2110265408521
  0
LWPOLYLINE
  5
12BF
330
1F
100
AcDbEntity
  8
Sanindusa
100
AcDbPolyline
 90
        6
 70
   128
 43
0.0
 10
4745.247073725084
 20
1986.242633361682
 10
4745.22774055608
 20
1986.242636739296
 10
4745.208405569996
 20
1986.242631395316
 10
4745.169736308783
 20
1986.242627732263
 10
4745.08081486564
 20
1986.242626573583
 10
4744.996965090077
 20
1986.242635821542
  0
LWPOLYLINE
  5
12C1
330
1F
100
AcDbEntity
  8
Sanindusa
100
AcDbPolyline
 90
       20
 70
   128
 43
0.0
 10
4745.354405410938
 20
1986.237065361713
 10
4745.343596560349
 20
1986.221181304677
 10
4745.331799916029
 20
1986.205950038644
 10
4745.319079326655
 20
1986.191462735574
 10
4745.30551305239
 20
1986.177805016587
 10
4745.291176734183
 20
1986.165044723361
 10
4745.28140599999
 20
1986.157195972313
 10
4745.271280109609
 20
1986.149839429211
 10
4745.260617651936
 20
1986.143224748682
 10
4745.249419964305
 20
1986.13743748115
 10
4745.237784258943
 20
1986.132534904576
 10
4745.225821921426
 20
1986.128556262936
 10
4745.21364000194
 20
1986.125521738891
 10
4745.201325971833
 20
1986.123299117836
 10
4745.188962074332
 20
1986.121333961371
 10
4745.176560101071
 20
1986.119576600968
 10
4745.164125303464
 20
1986.118028135328
 10
4745.151662942586
 20
1986.116689712869
 10
4745.122208951547
 20
1986.114368677346
 10
4745.092701438121
 20
1986.113220352796
  0
ARC
  5
12C2
330
1F
100
AcDbEntity
  8
Sanindusa
100
AcDbCircle
 10
4745.199277901499
 20
2301.962549430029
 30
0.0
 40
315.7221445718664
100
AcDbArc
 50
269.9756951427596
 51
269.9955780168095
  0
LINE
  5
12C5
330
1F
100
AcDbEntity
  8
Sanindusa
100
AcDbLine
 10
4744.980674348279
 20
1986.23608624205
 30
0.0
 11
4744.969566244981
 21
1986.23608624205
 31
0.0
  0
LINE
  5
12C6
330
1F
100
AcDbEntity
  8
Sanindusa
100
AcDbLine
 10
4744.969566244981
 20
1986.23608624205
 30
0.0
 11
4744.989147970128
 21
1986.096755027823
 31
0.0
  0
LINE
  5
12C7
330
1F
100
AcDbEntity
  8
Sanindusa
100
AcDbLine
 10
4744.960072875911
 20
1986.231782107555
 30
0.0
 11
4744.979245289441
 21
1986.095363296813
 31
0.0
  0
LINE
  5
12C8
330
1F
100
AcDbEntity
  8
Sanindusa
100
AcDbLine
 10
4744.986759355444
 20
1986.24808624205
 30
0.0
 11
4744.939605789133
 21
1986.24808624205
 31
0.0
  0
LINE
  5
12C9
330
1F
100
AcDbEntity
  8
Sanindusa
100
AcDbLine
 10
4744.861105789132
 20
1986.142819205704
 30
0.0
 11
4744.861105789132
 21
1986.21308624205
 31
0.0
  0
LINE
  5
12CD
330
1F
100
AcDbEntity
  8
Sanindusa
100
AcDbLine
 10
4744.861105789132
 20
1986.133185540171
 30
0.0
 11
4744.861105789132
 21
1986.142819205704
 31
0.0
  0
LWPOLYLINE
  5
12CF
330
1F
100
AcDbEntity
  8
Sanindusa
100
AcDbPolyline
 90
       38
 70
   128
 43
0.0
 10
4744.918605795345
 20
1986.158100988169
 10
4744.919003461593
 20
1986.154376741717
 10
4744.919867742281
 20
1986.151565923384
 10
4744.921187414586
 20
1986.148937903353
 10
4744.922926814021
 20
1986.146575243603
 10
4744.925033466594
 20
1986.144534353856
 10
4744.927477325775
 20
1986.142863367282
 10
4744.930163087795
 20
1986.141626160008
 10
4744.933032529544
 20
1986.140860035104
 10
4744.935986373307
 20
1986.140586649487
 10
4744.938949691786
 20
1986.140820680458
 10
4744.941829134737
 20
1986.141548608752
 10
4744.944532801389
 20
1986.14275083714
 10
4744.946996512512
 20
1986.144387988721
 10
4744.949124072729
 20
1986.146393616046
 10
4744.950892321515
 20
1986.148726302942
 10
4744.952237387116
 20
1986.151306702761
 10
4744.953140631849
 20
1986.154078233368
 10
4744.953568141324
 20
1986.156966565738
 10
4744.953512743051
 20
1986.159888450496
 10
4744.952738250422
 20
1986.163527862345
 10
4744.951580129232
 20
1986.166255093504
 10
4744.949984172131
 20
1986.168746471191
 10
4744.94797782913
 20
1986.170940901864
 10
4744.94563467386
 20
1986.172764469322
 10
4744.943023682575
 20
1986.174158972407
 10
4744.94021687892
 20
1986.175096501917
 10
4744.937307242509
 20
1986.175543235493
 10
4744.934361411611
 20
1986.175499086362
 10
4744.93147298221
 20
1986.174960069683
 10
4744.92871123268
 20
1986.173947217268
 10
4744.926159883569
 20
1986.172483011537
 10
4744.923885885754
 20
1986.170613171499
 10
4744.921959217809
 20
1986.168384902495
 10
4744.920430079515
 20
1986.165865838955
 10
4744.919348577069
 20
1986.163124497273
 10
4744.918738934351
 20
1986.160240854543
 10
4744.918605795345
 20
1986.158100988169
  0
LINE
  5
12D4
330
1F
100
AcDbEntity
  8
Sanindusa
100
AcDbLine
 10
4744.902605789132
 20
1986.24808624205
 30
0.0
 11
4744.863105789132
 21
1986.24808624205
 31
0.0
  0
LINE
  5
12D5
330
1F
100
AcDbEntity
  8
Sanindusa
100
AcDbLine
 10
4744.902605789132
 20
1986.23608624205
 30
0.0
 11
4744.893176856944
 21
1986.23608624205
 31
0.0
  0
LINE
  5
12D6
330
1F
100
AcDbEntity
  8
Sanindusa
100
AcDbLine
 10
4744.861105789132
 20
1986.24608624205
 30
0.0
 11
4744.861105789132
 21
1986.22008624205
 31
0.0
  0
ARC
  5
12D8
330
1F
100
AcDbEntity
  8
Sanindusa
100
AcDbCircle
 10
4744.863105789132
 20
1986.22008624205
 30
0.0
 40
0.0019999999999999
100
AcDbArc
 50
180.0
 51
270.0
  0
LINE
  5
12D9
330
1F
100
AcDbEntity
  8
Sanindusa
100
AcDbLine
 10
4744.861105789132
 20
1986.21308624205
 30
0.0
 11
4744.861105789132
 21
1986.22008624205
 31
0.0
  0
LINE
  5
12DB
330
1F
100
AcDbEntity
  8
Sanindusa
100
AcDbLine
 10
4744.889641323038
 20
1986.234621775956
 30
0.0
 11
4744.874570255226
 21
1986.219550708144
 31
0.0
  0
LINE
  5
12E1
330
1F
100
AcDbEntity
  8
Sanindusa
100
AcDbLine
 10
4744.863105789132
 20
1986.21808624205
 30
0.0
 11
4744.871034721319
 21
1986.21808624205
 31
0.0
  0
ARC
  5
12E2
330
1F
100
AcDbEntity
  8
Sanindusa
100
AcDbCircle
 10
4744.871034721319
 20
1986.22308624205
 30
0.0
 40
0.005
100
AcDbArc
 50
270.0
 51
315.0000000000092
  0
ARC
  5
12E7
330
1F
100
AcDbEntity
  8
Sanindusa
100
AcDbCircle
 10
4744.893176856944
 20
1986.23108624205
 30
0.0
 40
0.005
100
AcDbArc
 50
90.0
 51
135.0000000000092
  0
LINE
  5
12E8
330
1F
100
AcDbEntity
  8
Sanindusa
100
AcDbLine
 10
4744.878963653508
 20
1986.23808624205
 30
0.0
 11
4744.871105789132
 21
1986.230228377674
 31
0.0
  0
LINE
  5
12E9
330
1F
100
AcDbEntity
  8
Sanindusa
100
AcDbLine
 10
4744.871105789132
 20
1986.23808624205
 30
0.0
 11
4744.871105789132
 21
1986.230228377674
 31
0.0
  0
LINE
  5
12EA
330
1F
100
AcDbEntity
  8
Sanindusa
100
AcDbLine
 10
4744.878963653508
 20
1986.23808624205
 30
0.0
 11
4744.871105789132
 21
1986.23808624205
 31
0.0
  0
ARC
  5
12EB
330
1F
100
AcDbEntity
  8
Sanindusa
100
AcDbCircle
 10
4744.863105789132
 20
1986.24608624205
 30
0.0
 40
0.0019999999999999
100
AcDbArc
 50
90.0
 51
180.0
  0
LINE
  5
12EC
330
1F
100
AcDbEntity
  8
Sanindusa
100
AcDbLine
 10
4744.938605789132
 20
1986.23708624205
 30
0.0
 11
4744.938605789132
 21
1986.24708624205
 31
0.0
  0
LINE
  5
12ED
330
1F
100
AcDbEntity
  8
Sanindusa
100
AcDbLine
 10
4744.903605789132
 20
1986.24708624205
 30
0.0
 11
4744.903605789132
 21
1986.23708624205
 31
0.0
  0
ARC
  5
12F0
330
1F
100
AcDbEntity
  8
Sanindusa
100
AcDbCircle
 10
4744.902605789132
 20
1986.23708624205
 30
0.0
 40
0.0009999999999999
100
AcDbArc
 50
270.0
 51
0.0
  0
ARC
  5
12F1
330
1F
100
AcDbEntity
  8
Sanindusa
100
AcDbCircle
 10
4744.955121535567
 20
1986.23108624205
 30
0.0
 40
0.005
100
AcDbArc
 50
8.000000000001781
 51
90.0
  0
LINE
  5
12F2
330
1F
100
AcDbEntity
  8
Sanindusa
100
AcDbLine
 10
4744.955121535567
 20
1986.23608624205
 30
0.0
 11
4744.939605789133
 21
1986.23608624205
 31
0.0
  0
ARC
  5
12F3
330
1F
100
AcDbEntity
  8
Sanindusa
100
AcDbCircle
 10
4744.939605789133
 20
1986.23708624205
 30
0.0
 40
0.0010000000000002
100
AcDbArc
 50
180.0
 51
270.0
  0
LINE
  5
12F4
330
1F
100
AcDbEntity
  8
Sanindusa
100
AcDbLine
 10
4744.902605789132
 20
1986.24808624205
 30
0.0
 11
4744.939605789133
 21
1986.24808624205
 31
0.0
  0
ARC
  5
12F5
330
1F
100
AcDbEntity
  8
Sanindusa
100
AcDbCircle
 10
4744.902605789132
 20
1986.24708624205
 30
0.0
 40
0.0009999999999999
100
AcDbArc
 50
0.0
 51
90.0
  0
ARC
  5
12F6
330
1F
100
AcDbEntity
  8
Sanindusa
100
AcDbCircle
 10
4744.939605789133
 20
1986.24708624205
 30
0.0
 40
0.0010000000000002
100
AcDbArc
 50
90.0
 51
180.0
  0
LWPOLYLINE
  5
12F8
330
1F
100
AcDbEntity
  8
Sanindusa
100
AcDbPolyline
 90
       10
 70
   128
 43
0.0
 10
4745.065341330596
 20
1986.236739654801
 10
4745.065233000587
 20
1986.220893676578
 10
4745.06501336717
 20
1986.18586689609
 10
4745.064838814025
 20
1986.178110744019
 10
4745.064255332015
 20
1986.170510076485
 10
4745.063101392923
 20
1986.163248042912
 10
4745.061294740356
 20
1986.156328842247
 10
4745.058942164797
 20
1986.149879065282
 10
4745.05610581163
 20
1986.143983352231
 10
4745.056105789132
 20
1986.143983311094
  0
LWPOLYLINE
  5
12F9
330
1F
100
AcDbEntity
  8
Sanindusa
100
AcDbPolyline
 90
       11
 70
   128
 43
0.0
 10
4745.0488750302
 20
1986.148977417997
 10
4745.050969033533
 20
1986.15279280988
 10
4745.052817235685
 20
1986.156884936769
 10
4745.054431308032
 20
1986.161365920438
 10
4745.055735056094
 20
1986.166106141173
 10
4745.05668996059
 20
1986.170949315372
 10
4745.057318745383
 20
1986.175976483962
 10
4745.057596834524
 20
1986.181307050025
 10
4745.057657647676
 20
1986.186715024103
 10
4745.057897939012
 20
1986.213359245098
 10
4745.058086402693
 20
1986.236010474064
  0
LINE
  5
12FE
330
1F
100
AcDbEntity
  8
Sanindusa
100
AcDbLine
 10
4745.008868988508
 20
1986.121694511041
 30
0.0
 11
4744.99874570512
 21
1986.193725415151
 31
0.0
  0
LINE
  5
12FF
330
1F
100
AcDbEntity
  8
Sanindusa
100
AcDbLine
 10
4744.997334808281
 20
1986.117540909393
 30
0.0
 11
4744.986666893256
 21
1986.193447068949
 31
0.0
  0
LWPOLYLINE
  5
1300
330
1F
100
AcDbEntity
  8
Sanindusa
100
AcDbPolyline
 90
       13
 70
   128
 43
0.0
 10
4745.056104808647
 20
1986.112604389004
 10
4745.054631123712
 20
1986.112603228491
 10
4745.048965486375
 20
1986.11257758316
 10
4745.043494235504
 20
1986.112508252892
 10
4745.038426120025
 20
1986.11242391772
 10
4745.033866362763
 20
1986.112350043378
 10
4745.032606322069
 20
1986.112327283194
 10
4745.028841486454
 20
1986.112231872863
 10
4745.025855816982
 20
1986.112115117277
 10
4745.023790344078
 20
1986.112004547458
 10
4745.022683712675
 20
1986.111932500491
 10
4745.0225152161
 20
1986.111920060732
 10
4745.022515216081
 20
1986.111920060733
  0
LWPOLYLINE
  5
1304
330
1F
100
AcDbEntity
  8
Sanindusa
100
AcDbPolyline
 90
        8
 70
   128
 43
0.0
 10
4745.056105789132
 20
1986.143983311094
 10
4745.056105764274
 20
1986.143983270769
 10
4745.052560611151
 20
1986.138907651017
 10
4745.048659739268
 20
1986.134459943929
 10
4745.044513642278
 20
1986.130600678551
 10
4745.038745079035
 20
1986.126227266131
 10
4745.032770242931
 20
1986.122558559791
 10
4745.032770208989
 20
1986.122558540959
  0
ARC
  5
130B
330
1F
100
AcDbEntity
  8
Sanindusa
100
AcDbCircle
 10
4745.018771669196
 20
1986.12308624205
 30
0.0
 40
0.0100000000000002
100
AcDbArc
 50
188.0000000000018
 51
270.0
  0
ARC
  5
130C
330
1F
100
AcDbEntity
  8
Sanindusa
100
AcDbCircle
 10
4745.009498235653
 20
1986.089568824869
 30
0.0
 40
0.0116998493105633
100
AcDbArc
 50
18.7385359707875
 51
74.24979010320132
  0
LINE
  5
130D
330
1F
100
AcDbEntity
  8
Sanindusa
100
AcDbLine
 10
4745.005910497348
 20
1986.069693202772
 30
0.0
 11
4745.016590588863
 21
1986.068604329102
 31
0.0
  0
LINE
  5
130E
330
1F
100
AcDbEntity
  8
Sanindusa
100
AcDbLine
 10
4745.0069247754
 20
1986.079641631795
 30
0.0
 11
4745.032207216937
 21
1986.077063996122
 31
0.0
  0
ARC
  5
130F
330
1F
100
AcDbEntity
  8
Sanindusa
100
AcDbCircle
 10
4745.008953331502
 20
1986.099538489842
 30
0.0
 40
0.03
100
AcDbArc
 50
188.0000000000018
 51
221.0289938403272
  0
ARC
  5
1310
330
1F
100
AcDbEntity
  8
Sanindusa
100
AcDbCircle
 10
4745.017140169655
 20
1986.120324371412
 30
0.0
 40
0.02
100
AcDbArc
 50
188.0000000000018
 51
257.0968315717071
  0
ARC
  5
1311
330
1F
100
AcDbEntity
  8
Sanindusa
100
AcDbCircle
 10
4745.008953331502
 20
1986.099538489842
 30
0.0
 40
0.03
100
AcDbArc
 50
254.2704434251093
 51
264.1786042251549
  0
ARC
  5
1312
330
1F
100
AcDbEntity
  8
Sanindusa
100
AcDbCircle
 10
4744.999464935675
 20
1986.065849168914
 30
0.0
 40
0.005
100
AcDbArc
 50
74.27044342510931
 51
144.9362771121343
  0
ARC
  5
1313
330
1F
100
AcDbEntity
  8
Sanindusa
100
AcDbCircle
 10
4745.008953331502
 20
1986.099538489842
 30
0.0
 40
0.02
100
AcDbArc
 50
188.0000000000018
 51
264.1786042251549
  0
ARC
  5
1314
330
1F
100
AcDbEntity
  8
Sanindusa
100
AcDbCircle
 10
4744.982550119254
 20
1986.076563059858
 30
0.0
 40
0.005
100
AcDbArc
 50
324.936277112176
 51
41.02899384032722
  0
LWPOLYLINE
  5
1315
330
1F
100
AcDbEntity
  8
Sanindusa
100
AcDbPolyline
 90
        6
 70
   128
 43
0.0
 10
4745.032770208989
 20
1986.122558540959
 10
4745.032770175624
 20
1986.122558521909
 10
4745.030521755054
 20
1986.121426534571
 10
4745.028138875557
 20
1986.120470561403
 10
4745.021475815292
 20
1986.118665294274
 10
4745.014316151969
 20
1986.117938496278
  0
LWPOLYLINE
  5
1316
330
1F
100
AcDbEntity
  8
Sanindusa
100
AcDbPolyline
 90
        6
 70
   128
 43
0.0
 10
4745.014316151969
 20
1986.117938496278
 10
4745.015289998123
 20
1986.11640678996
 10
4745.016269621088
 20
1986.115209683816
 10
4745.017287474046
 20
1986.114334281943
 10
4745.01793346295
 20
1986.113807598442
 10
4745.017933464739
 20
1986.113807593988
  0
LINE
  5
131E
330
1F
100
AcDbEntity
  8
Sanindusa
100
AcDbLine
 10
4745.019305568872
 20
1986.11308624205
 30
0.0
 11
4745.018771669196
 21
1986.11308624205
 31
0.0
  0
ARC
  5
131F
330
1F
100
AcDbEntity
  8
Sanindusa
100
AcDbCircle
 10
4745.019305568887
 20
1986.108086241703
 30
0.0
 40
0.0050000003465986
100
AcDbArc
 50
50.0641595086613
 51
90.00000016617944
  0
LINE
  5
1320
330
1F
100
AcDbEntity
  8
Sanindusa
100
AcDbLine
 10
4745.031315436078
 20
1986.104552576397
 30
0.0
 11
4745.022515216081
 21
1986.111920060733
 31
0.0
  0
ARC
  5
1321
330
1F
100
AcDbEntity
  8
Sanindusa
100
AcDbCircle
 10
4745.028105788956
 20
1986.100718757528
 30
0.0
 40
0.0050000001759753
100
AcDbArc
 50
0.0
 51
50.06415896374782
  0
LINE
  5
1322
330
1F
100
AcDbEntity
  8
Sanindusa
100
AcDbLine
 10
4745.033105789132
 20
1986.100718757493
 30
0.0
 11
4745.033105789132
 21
1986.093157278349
 31
0.0
  0
ARC
  5
1323
330
1F
100
AcDbEntity
  8
Sanindusa
100
AcDbCircle
 10
4745.032105789132
 20
1986.093157278349
 30
0.0
 40
0.0010000000000002
100
AcDbArc
 50
264.1786042251549
 51
0.0
  0
LINE
  5
1324
330
1F
100
AcDbEntity
  8
Sanindusa
100
AcDbLine
 10
4745.020577927733
 20
1986.093327401371
 30
0.0
 11
4745.032004361327
 21
1986.092162435447
 31
0.0
  0
ARC
  5
132B
330
1F
100
AcDbEntity
  8
Sanindusa
100
AcDbCircle
 10
4745.032105789132
 20
1986.076069153219
 30
0.0
 40
0.0010000000000002
100
AcDbArc
 50
0.0
 51
84.17860422515488
  0
LWPOLYLINE
  5
132E
330
1F
100
AcDbEntity
  8
Sanindusa
100
AcDbPolyline
 90
        9
 70
   128
 43
0.0
 10
4745.009530254303
 20
1986.125537109418
 10
4745.015909758079
 20
1986.126262001513
 10
4745.022085073778
 20
1986.127914744882
 10
4745.027659486248
 20
1986.130384032783
 10
4745.033052773889
 20
1986.133419149785
 10
4745.038211602656
 20
1986.137025371843
 10
4745.042101469885
 20
1986.140432949396
 10
4745.045693414823
 20
1986.144403987163
 10
4745.0488750302
 20
1986.148977417997
  0
LWPOLYLINE
  5
132F
330
1F
100
AcDbEntity
  8
Sanindusa
100
AcDbPolyline
 90
        3
 70
   128
 43
0.0
 10
4745.008331418765
 20
1986.125519518505
 10
4745.008887558713
 20
1986.125519470303
 10
4745.009530254303
 20
1986.125537109418
  0
LWPOLYLINE
  5
1330
330
1F
100
AcDbEntity
  8
Sanindusa
100
AcDbPolyline
 90
       11
 70
   128
 43
0.0
 10
4745.089560707698
 20
1986.112033008699
 10
4745.089255200784
 20
1986.112038704234
 10
4745.088079995255
 20
1986.112058483286
 10
4745.086059667852
 20
1986.112095417361
 10
4745.083247055017
 20
1986.112158209186
 10
4745.079713137577
 20
1986.112251780333
 10
4745.076959517443
 20
1986.112327478216
 10
4745.072186630267
 20
1986.112441349679
 10
4745.066970463235
 20
1986.112532822829
 10
4745.06160515273
 20
1986.112586578558
 10
4745.056099368805
 20
1986.112604343026
  0
LINE
  5
1332
330
1F
100
AcDbEntity
  8
Sanindusa
100
AcDbLine
 10
4745.089560706492
 20
1986.112033008605
 30
0.0
 11
4745.080869967659
 21
1986.104655382163
 31
0.0
  0
ARC
  5
1334
330
1F
100
AcDbEntity
  8
Sanindusa
100
AcDbCircle
 10
4745.084105790662
 20
1986.100843628657
 30
0.0
 40
0.0050000015296689
100
AcDbArc
 50
130.3281506076853
 51
180.0
  0
ARC
  5
1336
330
1F
100
AcDbEntity
  8
Sanindusa
100
AcDbCircle
 10
4745.101776745978
 20
1986.091438065292
 30
0.0
 40
0.0099999999999998
100
AcDbArc
 50
91.73875791149864
 51
178.9999999999982
  0
ARC
  5
1337
330
1F
100
AcDbEntity
  8
Sanindusa
100
AcDbCircle
 10
4745.092796530932
 20
1986.108221253343
 30
0.0
 40
0.005000003797955
100
AcDbArc
 50
91.08974822244695
 51
130.3281378834644
  0
LWPOLYLINE
  5
1338
330
1F
100
AcDbEntity
  8
Sanindusa
100
AcDbPolyline
 90
        4
 70
   128
 43
0.0
 10
4745.049470858739
 20
1986.23979815551
 10
4745.051263354318
 20
1986.239916852597
 10
4745.052159575748
 20
1986.239976540014
 10
4745.053055749827
 20
1986.240036438224
  0
LINE
  5
133A
330
1F
100
AcDbEntity
  8
Sanindusa
100
AcDbLine
 10
4744.994670020914
 20
1986.222725415151
 30
0.0
 11
4744.991710695788
 21
1986.243782107555
 31
0.0
  0
LWPOLYLINE
  5
133C
330
1F
100
AcDbEntity
  8
Sanindusa
100
AcDbPolyline
 90
       20
 70
   128
 43
0.0
 10
4744.994670020914
 20
1986.222725415151
 10
4744.994681059512
 20
1986.222629072328
 10
4744.994736912365
 20
1986.222143580133
 10
4744.994838931574
 20
1986.221266870861
 10
4744.994987647333
 20
1986.220009372473
 10
4744.995179928687
 20
1986.218418062519
 10
4744.995415235981
 20
1986.216520441962
 10
4744.995687450123
 20
1986.214386946048
 10
4744.995992546669
 20
1986.212069347027
 10
4744.99632205708
 20
1986.209643671217
 10
4744.996667752366
 20
1986.207179441333
 10
4744.997019618127
 20
1986.204746149376
 10
4744.997383181791
 20
1986.202306380398
 10
4744.997728541513
 20
1986.200051208378
 10
4744.998022369236
 20
1986.198177970315
 10
4744.998278006167
 20
1986.19657939518
 10
4744.998483670396
 20
1986.195313453207
 10
4744.998634029794
 20
1986.194398940523
 10
4744.998717339079
 20
1986.193895895829
 10
4744.99874570512
 20
1986.193725415151
  0
ARC
  5
133F
330
1F
100
AcDbEntity
  8
Sanindusa
100
AcDbCircle
 10
4744.993679752844
 20
1986.22258624205
 30
0.0
 40
0.0009999999999999
100
AcDbArc
 50
270.0
 51
8.000000000008231
  0
LINE
  5
1340
330
1F
100
AcDbEntity
  8
Sanindusa
100
AcDbLine
 10
4744.993679752844
 20
1986.22158624205
 30
0.0
 11
4744.98358147712
 21
1986.22158624205
 31
0.0
  0
ARC
  5
1341
330
1F
100
AcDbEntity
  8
Sanindusa
100
AcDbCircle
 10
4744.98358147712
 20
1986.22258624205
 30
0.0
 40
0.0010000000000002
100
AcDbArc
 50
188.0000000000082
 51
270.0
  0
LINE
  5
1342
330
1F
100
AcDbEntity
  8
Sanindusa
100
AcDbLine
 10
4744.98259120905
 20
1986.222447068949
 30
0.0
 11
4744.980674348279
 21
1986.23608624205
 31
0.0
  0
ARC
  5
1343
330
1F
100
AcDbEntity
  8
Sanindusa
100
AcDbCircle
 10
4744.987657161326
 20
1986.19358624205
 30
0.0
 40
0.0009999999999999
100
AcDbArc
 50
90.0
 51
188.0000000000082
  0
LINE
  5
1344
330
1F
100
AcDbEntity
  8
Sanindusa
100
AcDbLine
 10
4744.987657161326
 20
1986.19458624205
 30
0.0
 11
4744.99775543705
 21
1986.19458624205
 31
0.0
  0
ARC
  5
1345
330
1F
100
AcDbEntity
  8
Sanindusa
100
AcDbCircle
 10
4744.99775543705
 20
1986.19358624205
 30
0.0
 40
0.0009999999999999
100
AcDbArc
 50
8.000000000008231
 51
90.0
  0
LWPOLYLINE
  5
1346
330
1F
100
AcDbEntity
  8
Sanindusa
100
AcDbPolyline
 90
        5
 70
   128
 43
0.0
 10
4744.996965090077
 20
1986.242635821542
 10
4745.008434107392
 20
1986.242022868253
 10
4745.024709707478
 20
1986.241110379138
 10
4745.035514183852
 20
1986.240473013193
 10
4745.046321718161
 20
1986.2398003082
  0
LWPOLYLINE
  5
134A
330
1F
100
AcDbEntity
  8
Sanindusa
100
AcDbPolyline
 90
        2
 70
   128
 43
0.0
 10
4744.992162448236
 20
1986.242892495242
 10
4744.996965090077
 20
1986.242635821542
  0
ARC
  5
1350
330
1F
100
AcDbEntity
  8
Sanindusa
100
AcDbCircle
 10
4744.986759355444
 20
1986.24308624205
 30
0.0
 40
0.005
100
AcDbArc
 50
8.000000000008231
 51
90.0
  0
LINE
  5
1351
330
1F
100
AcDbEntity
  8
Sanindusa
100
AcDbLine
 10
4745.046321718161
 20
1986.2398003082
 30
0.0
 11
4745.049470858739
 21
1986.23979815551
 31
0.0
  0
LWPOLYLINE
  5
1352
330
1F
100
AcDbEntity
  8
Sanindusa
100
AcDbPolyline
 90
        9
 70
   128
 43
0.0
 10
4745.058086402693
 20
1986.236010474064
 10
4745.057900975807
 20
1986.236826535264
 10
4745.057617545201
 20
1986.237594471056
 10
4745.057244209312
 20
1986.238292339279
 10
4745.056791635432
 20
1986.238900199811
 10
4745.056272754912
 20
1986.239400684306
 10
4745.055702393678
 20
1986.239779492469
 10
4745.05509684861
 20
1986.240025800649
 10
4745.05447342189
 20
1986.240132571103
  0
LWPOLYLINE
  5
1353
330
1F
100
AcDbEntity
  8
Sanindusa
100
AcDbPolyline
 90
        9
 70
   128
 43
0.0
 10
4745.065341330596
 20
1986.236739654801
 10
4745.065341965954
 20
1986.237472947329
 10
4745.065342722658
 20
1986.238157110306
 10
4745.065343582388
 20
1986.238775584802
 10
4745.06534452434
 20
1986.239313401755
 10
4745.065345525715
 20
1986.239757544277
 10
4745.065346562276
 20
1986.240097262696
 10
4745.065347608933
 20
1986.240324334742
 10
4745.065348640356
 20
1986.240433264545
  0
LWPOLYLINE
  5
1359
330
1F
100
AcDbEntity
  8
Sanindusa
100
AcDbPolyline
 90
        4
 70
   128
 43
0.0
 10
4745.053073804374
 20
1986.240037620309
 10
4745.053773620155
 20
1986.240085063907
 10
4745.054123522751
 20
1986.240108809688
 10
4745.05447342189
 20
1986.240132571103
  0
LWPOLYLINE
  5
135A
330
1F
100
AcDbEntity
  8
Sanindusa
100
AcDbPolyline
 90
        7
 70
   128
 43
0.0
 10
4745.05447342189
 20
1986.240132571103
 10
4745.056302013877
 20
1986.240238151362
 10
4745.058450182817
 20
1986.240325798422
 10
4745.060745657634
 20
1986.240387580509
 10
4745.063257836952
 20
1986.240424490946
 10
4745.064297605864
 20
1986.240431273747
 10
4745.065348640356
 20
1986.240433264545
  0
LWPOLYLINE
  5
135E
330
1F
100
AcDbEntity
  8
Sanindusa
100
AcDbPolyline
 90
       20
 70
   128
 43
0.0
 10
4745.220733902784
 20
1986.240404677412
 10
4745.174911045395
 20
1986.240405798458
 10
4745.251936101397
 20
1986.240407922295
 10
4745.263930005069
 20
1986.240402907428
 10
4745.275725412371
 20
1986.240384110482
 10
4745.287106799374
 20
1986.240351447471
 10
4745.295304647874
 20
1986.240317530484
 10
4745.303174875324
 20
1986.240275379049
 10
4745.310633410804
 20
1986.240225166266
 10
4745.317596183391
 20
1986.240167065238
 10
4745.32399768235
 20
1986.240101547636
 10
4745.329859490629
 20
1986.240028352842
 10
4745.335115417179
 20
1986.239947600812
 10
4745.339699270954
 20
1986.239859411505
 10
4745.345280492116
 20
1986.239728888112
 10
4745.349793077746
 20
1986.23960955623
 10
4745.353310712006
 20
1986.239509315643
 10
4745.355907079052
 20
1986.239436066131
 10
4745.357731469783
 20
1986.239390318273
 10
4745.358346375691
 20
1986.239372725164
  0
LWPOLYLINE
  5
135F
330
1F
100
AcDbEntity
  8
Sanindusa
100
AcDbPolyline
 90
       21
 70
   128
 43
0.0
 10
4745.410599938018
 20
1986.242295603444
 10
4745.41055715999
 20
1986.242296032344
 10
4745.40932987752
 20
1986.242298073494
 10
4745.407294318244
 20
1986.242302359055
 10
4745.403737134711
 20
1986.242312283176
 10
4745.399002653632
 20
1986.24232528515
 10
4745.393142226324
 20
1986.242341059376
 10
4745.3862072041
 20
1986.24235930025
 10
4745.380399220478
 20
1986.242374256796
 10
4745.374032325204
 20
1986.242390306296
 10
4745.367143401562
 20
1986.242407220321
 10
4745.357247448256
 20
1986.242430790048
 10
4745.346496033279
 20
1986.242455507583
 10
4745.335003198244
 20
1986.242480837067
 10
4745.322882984765
 20
1986.242506242643
 10
4745.310186679363
 20
1986.242531338974
 10
4745.296950211531
 20
1986.242555901841
 10
4745.283320191813
 20
1986.242579523728
 10
4745.269443230752
 20
1986.242601797119
 10
4745.258293244617
 20
1986.242619637749
 10
4745.247073725084
 20
1986.242633361682
  0
ARC
  5
1362
330
1F
100
AcDbEntity
  8
Sanindusa
100
AcDbCircle
 10
4745.358623348765
 20
1986.234380401238
 30
0.0
 40
0.0050000012266581
100
AcDbArc
 50
93.17550230568629
 51
147.5208974332011
  0
LWPOLYLINE
  5
1363
330
1F
100
AcDbEntity
  8
Sanindusa
100
AcDbPolyline
 90
        9
 70
   128
 43
0.0
 10
4745.414603623584
 20
1986.233599063163
 10
4745.415638988346
 20
1986.234920646807
 10
4745.41617853675
 20
1986.236510442726
 10
4745.416161438694
 20
1986.238189213219
 10
4745.415589622065
 20
1986.23976768931
 10
4745.414527555213
 20
1986.241067909853
 10
4745.413094978272
 20
1986.241943285173
 10
4745.411453403226
 20
1986.242295123649
 10
4745.410964238931
 20
1986.242291950908
  0
LINE
  5
1364
330
1F
100
AcDbEntity
  8
Sanindusa
100
AcDbLine
 10
4745.392391633653
 20
1986.22924309364
 30
0.0
 11
4745.362460251522
 21
1986.22758250813
 31
0.0
  0
LINE
  5
1365
330
1F
100
AcDbEntity
  8
Sanindusa
100
AcDbLine
 10
4745.410964238931
 20
1986.242291950908
 30
0.0
 11
4745.358346375691
 21
1986.239372725164
 31
0.0
  0
LWPOLYLINE
  5
1371
330
1F
100
AcDbEntity
  8
Sanindusa
100
AcDbPolyline
 90
       39
 70
   128
 43
0.0
 10
4742.685994497287
 20
1985.994794190206
 10
4742.686186687729
 20
1985.991594088354
 10
4742.686609075788
 20
1985.984318959479
 10
4742.687247802432
 20
1985.977698549733
 10
4742.688138362678
 20
1985.971340538981
 10
4742.689347175054
 20
1985.964728461577
 10
4742.690950681713
 20
1985.957632294136
 10
4742.692858968714
 20
1985.950608979045
 10
4742.695071428285
 20
1985.943660302448
 10
4742.697593126082
 20
1985.936779030684
 10
4742.700397467682
 20
1985.930047536297
 10
4742.70349496948
 20
1985.923427080906
 10
4742.706893743386
 20
1985.91690167256
 10
4742.710583909678
 20
1985.910496499221
 10
4742.714553640258
 20
1985.904236746377
 10
4742.718788932785
 20
1985.898147684472
 10
4742.723271362099
 20
1985.892257126034
 10
4742.727983545597
 20
1985.886587594741
 10
4742.732915853909
 20
1985.881149879674
 10
4742.738076098551
 20
1985.875928454165
 10
4742.743498245634
 20
1985.870886392479
 10
4742.74917102278
 20
1985.866038788594
 10
4742.755072214984
 20
1985.861409153676
 10
4742.761177264255
 20
1985.857020157757
 10
4742.767456811043
 20
1985.852894935811
 10
4742.773879542314
 20
1985.849054464655
 10
4742.780416333382
 20
1985.845515244309
 10
4742.78704563565
 20
1985.842281413257
 10
4742.793883683762
 20
1985.83929308662
 10
4742.800867721272
 20
1985.836583350994
 10
4742.80798072875
 20
1985.834160637318
 10
4742.81520456746
 20
1985.832032694855
 10
4742.822520283211
 20
1985.830206390946
 10
4742.829907468869
 20
1985.828687746335
 10
4742.837344563199
 20
1985.827481650551
 10
4742.843940372753
 20
1985.826681656327
 10
4742.850976790866
 20
1985.826136182469
 10
4742.857975284491
 20
1985.825853102782
 10
4742.869181500515
 20
1985.825697476664
  0
LWPOLYLINE
  5
1372
330
1F
100
AcDbEntity
  8
Sanindusa
100
AcDbPolyline
 90
       39
 70
   128
 43
0.0
 10
4742.869181500515
 20
1985.82570716131
 10
4742.880652735908
 20
1985.825860086415
 10
4742.887936650358
 20
1985.82616835304
 10
4742.894455918197
 20
1985.826684989957
 10
4742.901450591568
 20
1985.827542972551
 10
4742.90843776327
 20
1985.828684481212
 10
4742.915807436723
 20
1985.830198367557
 10
4742.923120909252
 20
1985.832022492932
 10
4742.930358728782
 20
1985.834153165373
 10
4742.937499492107
 20
1985.836584884855
 10
4742.944522950864
 20
1985.839311083077
 10
4742.951410346056
 20
1985.842324426345
 10
4742.958143795944
 20
1985.845616717838
 10
4742.96471700674
 20
1985.849187685817
 10
4742.971069097669
 20
1985.852997217902
 10
4742.977303452099
 20
1985.857101158418
 10
4742.983390769686
 20
1985.861484320099
 10
4742.989302495288
 20
1985.866129370979
 10
4742.995007959868
 20
1985.871014201709
 10
4743.000478697721
 20
1985.876114779416
 10
4743.005690886827
 20
1985.881407760227
 10
4743.01062403289
 20
1985.886869879475
 10
4743.015291280717
 20
1985.892508604542
 10
4743.01973415688
 20
1985.898368038034
 10
4743.023945042975
 20
1985.904441278408
 10
4743.027906092597
 20
1985.910706840458
 10
4743.031600570176
 20
1985.917141675086
 10
4743.035011011638
 20
1985.92371715273
 10
4743.038124281677
 20
1985.930407759084
 10
4743.040929359887
 20
1985.937188026488
 10
4743.043417877713
 20
1985.944030860947
 10
4743.04561097772
 20
1985.950973093521
 10
4743.047518907301
 20
1985.958063248903
 10
4743.04911530094
 20
1985.965221192705
 10
4743.050400814774
 20
1985.972448699389
 10
4743.051233878914
 20
1985.978739139145
 10
4743.051827830949
 20
1985.985317993747
 10
4743.052209847163
 20
1985.992449767694
 10
4743.052348848666
 20
1985.994795594803
  0
LINE
  5
1385
330
1F
100
AcDbEntity
  8
Sanindusa
100
AcDbLine
 10
4742.998892249027
 20
1986.184001823632
 30
0.0
 11
4742.920550191455
 21
1986.252638215306
 31
0.0
  0
LINE
  5
1386
330
1F
100
AcDbEntity
  8
Sanindusa
100
AcDbLine
 10
4742.809299268392
 20
1986.244640175683
 30
0.0
 11
4742.73744330567
 21
1986.182172993014
 31
0.0
  0
LWPOLYLINE
  5
1389
330
1F
100
AcDbEntity
  8
Sanindusa
100
AcDbPolyline
 90
        6
 70
   128
 43
0.0
 10
4742.685751405342
 20
1986.250061136473
 10
4742.685878683381
 20
1986.195773809683
 10
4742.685954439081
 20
1986.055452506812
 10
4742.685883569217
 20
1986.003453214028
 10
4742.68597523947
 20
1985.995261410861
 10
4742.685994497287
 20
1985.994794190206
  0
LWPOLYLINE
  5
138B
330
1F
100
AcDbEntity
  8
Sanindusa
100
AcDbPolyline
 90
       11
 70
   128
 43
0.0
 10
4742.773191835121
 20
1986.193094127217
 10
4742.769936220452
 20
1986.191000123885
 10
4742.766874564871
 20
1986.189151921732
 10
4742.763965125027
 20
1986.187537849386
 10
4742.761323970639
 20
1986.186234101323
 10
4742.759033350973
 20
1986.185279196828
 10
4742.757047641864
 20
1986.184650412035
 10
4742.755362410303
 20
1986.184372322894
 10
4742.75389205793
 20
1986.184311509742
 10
4742.746712027902
 20
1986.184071218405
 10
4742.739365169171
 20
1986.183843743691
  0
LWPOLYLINE
  5
138F
330
1F
100
AcDbEntity
  8
Sanindusa
100
AcDbPolyline
 90
       11
 70
   128
 43
0.0
 10
4742.846181500744
 20
1986.185866607154
 10
4742.846181505368
 20
1986.185878307413
 10
4742.846485693734
 20
1986.189579431412
 10
4742.847377564784
 20
1986.193183777193
 10
4742.848913164792
 20
1986.196730276679
 10
4742.851017197052
 20
1986.199972162695
 10
4742.853645824549
 20
1986.20282023571
 10
4742.856712020067
 20
1986.205189828317
 10
4742.860133212122
 20
1986.207006296584
 10
4742.863809750655
 20
1986.20822727455
 10
4742.869181500515
 20
1986.208863368285
  0
LWPOLYLINE
  5
1392
330
1F
100
AcDbEntity
  8
Sanindusa
100
AcDbPolyline
 90
       11
 70
   128
 43
0.0
 10
4742.965171165911
 20
1986.193094127217
 10
4742.96842678058
 20
1986.191000123885
 10
4742.97148843616
 20
1986.189151921732
 10
4742.974397876004
 20
1986.187537849386
 10
4742.977039030392
 20
1986.186234101323
 10
4742.979329650059
 20
1986.185279196828
 10
4742.981315359166
 20
1986.184650412035
 10
4742.983000590728
 20
1986.184372322894
 10
4742.984470943102
 20
1986.184311509742
 10
4742.991650973129
 20
1986.184071218405
 10
4742.998892249027
 20
1986.184001823632
  0
LWPOLYLINE
  5
1396
330
1F
100
AcDbEntity
  8
Sanindusa
100
AcDbPolyline
 90
       11
 70
   128
 43
0.0
 10
4742.892181500288
 20
1986.185866607154
 10
4742.892181495664
 20
1986.185878307413
 10
4742.891877307298
 20
1986.189579431412
 10
4742.890985436248
 20
1986.193183777193
 10
4742.88944983624
 20
1986.196730276679
 10
4742.887345803978
 20
1986.199972162695
 10
4742.884717176482
 20
1986.20282023571
 10
4742.881650980964
 20
1986.205189828317
 10
4742.878229788909
 20
1986.207006296584
 10
4742.874553250376
 20
1986.20822727455
 10
4742.869181500515
 20
1986.208863368285
  0
LWPOLYLINE
  5
1397
330
1F
100
AcDbEntity
  8
Sanindusa
100
AcDbPolyline
 90
        8
 70
   128
 43
0.0
 10
4743.052348848666
 20
1985.994795594803
 10
4743.052439009559
 20
1985.997830451372
 10
4743.052474991197
 20
1986.00602786735
 10
4743.052421661878
 20
1986.01677366154
 10
4743.052414002277
 20
1986.037682177559
 10
4743.052406202343
 20
1986.105997219505
 10
4743.052573598605
 20
1986.238838743151
 10
4743.052603327707
 20
1986.250061132414
  0
LWPOLYLINE
  5
1399
330
1F
100
AcDbEntity
  8
Sanindusa
100
AcDbPolyline
 90
       20
 70
   128
 43
0.0
 10
4742.869181500515
 20
1985.88985664676
 10
4742.88825655082
 20
1985.890655075974
 10
4742.902248178562
 20
1985.892405370803
 10
4742.914621731332
 20
1985.894888039097
 10
4742.926818155615
 20
1985.898249538695
 10
4742.938666197324
 20
1985.902560805831
 10
4742.950002152543
 20
1985.907890880053
 10
4742.959653302477
 20
1985.91377830336
 10
4742.968588668261
 20
1985.920757751328
 10
4742.976644529251
 20
1985.928681588322
 10
4742.983767694459
 20
1985.937530641652
 10
4742.989859968731
 20
1985.947168535768
 10
4742.994806084182
 20
1985.957399290778
 10
4742.998547319485
 20
1985.968107564288
 10
4743.001089812335
 20
1985.979204792969
 10
4743.002399107327
 20
1985.99050613788
 10
4743.002671222359
 20
1986.00051189427
 10
4743.002678102859
 20
1986.010645867718
 10
4743.003248114905
 20
1986.091802160258
 10
4743.003635300894
 20
1986.176538167802
  0
LINE
  5
139D
330
1F
100
AcDbEntity
  8
Sanindusa
100
AcDbLine
 10
4743.000919776052
 20
1986.182157017615
 30
0.0
 11
4742.998892249027
 21
1986.184001823632
 31
0.0
  0
LWPOLYLINE
  5
139E
330
1F
100
AcDbEntity
  8
Sanindusa
100
AcDbPolyline
 90
        4
 70
   128
 43
0.0
 10
4743.003635300894
 20
1986.176538167802
 10
4743.003561318519
 20
1986.177506505374
 10
4743.002696261278
 20
1986.179987392287
 10
4743.000919776053
 20
1986.182157017615
  0
LWPOLYLINE
  5
13A2
330
1F
100
AcDbEntity
  8
Sanindusa
100
AcDbPolyline
 90
       20
 70
   128
 43
0.0
 10
4742.869181500515
 20
1985.88985664676
 10
4742.850106450211
 20
1985.890655075974
 10
4742.836114822469
 20
1985.892405370803
 10
4742.8237412697
 20
1985.894888039097
 10
4742.811544845415
 20
1985.898249538695
 10
4742.799696803706
 20
1985.902560805831
 10
4742.788360848488
 20
1985.907890880053
 10
4742.778709698554
 20
1985.91377830336
 10
4742.76977433277
 20
1985.920757751328
 10
4742.76171847178
 20
1985.928681588322
 10
4742.754595306573
 20
1985.937530641652
 10
4742.7485030323
 20
1985.947168535768
 10
4742.74355691685
 20
1985.957399290778
 10
4742.739815681546
 20
1985.968107564288
 10
4742.737273188696
 20
1985.979204792969
 10
4742.735963893704
 20
1985.99050613788
 10
4742.735691778673
 20
1986.00051189427
 10
4742.735684898172
 20
1986.010645867718
 10
4742.735114886126
 20
1986.091802160258
 10
4742.734727635814
 20
1986.176552245118
  0
LWPOLYLINE
  5
13A5
330
1F
100
AcDbEntity
  8
Sanindusa
100
AcDbPolyline
 90
       10
 70
   128
 43
0.0
 10
4742.869181500515
 20
1986.162863368285
 10
4742.863917735643
 20
1986.163473799746
 10
4742.860234944656
 20
1986.164677237956
 10
4742.856804559726
 20
1986.16647751425
 10
4742.853727469001
 20
1986.168832008591
 10
4742.851086425582
 20
1986.171665894456
 10
4742.848965469097
 20
1986.174899475188
 10
4742.847411882527
 20
1986.178441526693
 10
4742.846493035826
 20
1986.182103505441
 10
4742.846181500744
 20
1986.185866605852
  0
LWPOLYLINE
  5
13AB
330
1F
100
AcDbEntity
  8
Sanindusa
100
AcDbPolyline
 90
       10
 70
   128
 43
0.0
 10
4742.869181500515
 20
1986.162863368285
 10
4742.874445265388
 20
1986.163473799746
 10
4742.878128056375
 20
1986.164677237956
 10
4742.881558441306
 20
1986.16647751425
 10
4742.88463553203
 20
1986.168832008591
 10
4742.88727657545
 20
1986.171665894456
 10
4742.889397531934
 20
1986.174899475188
 10
4742.890951118504
 20
1986.178441526693
 10
4742.891869965204
 20
1986.182103505441
 10
4742.892181500288
 20
1986.185866605852
  0
LWPOLYLINE
  5
13AD
330
1F
100
AcDbEntity
  8
Sanindusa
100
AcDbPolyline
 90
        4
 70
   128
 43
0.0
 10
4742.734727635814
 20
1986.176552245118
 10
4742.734801763204
 20
1986.177522480772
 10
4742.735666820446
 20
1986.180003367685
 10
4742.737443305671
 20
1986.182172993014
  0
LINE
  5
13B7
330
1F
100
AcDbEntity
  8
Sanindusa
100
AcDbLine
 10
4742.689106972599
 20
1986.380863368285
 30
0.0
 11
4743.049256028432
 21
1986.380863368285
 31
0.0
  0
ARC
  5
13B9
330
1F
100
AcDbEntity
  8
Sanindusa
100
AcDbCircle
 10
4742.869181500515
 20
1986.805863368285
 30
0.0
 40
0.5556049066546262
100
AcDbArc
 50
264.6951179485452
 51
275.3048820514548
  0
LWPOLYLINE
  5
13BB
330
1F
100
AcDbEntity
  8
Sanindusa
100
AcDbPolyline
 90
        7
 70
   128
 43
0.0
 10
4742.869181500515
 20
1986.23310016891
 10
4742.876599824005
 20
1986.233158839046
 10
4742.884018147493
 20
1986.23333825596
 10
4742.890344235369
 20
1986.233590884586
 10
4742.896637188461
 20
1986.233952777199
 10
4742.902960024734
 20
1986.234452994242
 10
4742.909154105602
 20
1986.235086630115
  0
LWPOLYLINE
  5
13BF
330
1F
100
AcDbEntity
  8
Sanindusa
100
AcDbPolyline
 90
        4
 70
   128
 43
0.0
 10
4743.054289857728
 20
1986.291445885078
 10
4743.054305559179
 20
1986.299784942948
 10
4743.054296854898
 20
1986.364338108233
 10
4743.054248346877
 20
1986.378870352488
  0
ARC
  5
13C2
330
1F
100
AcDbEntity
  8
Sanindusa
100
AcDbCircle
 10
4742.834692888916
 20
1987.029513155338
 30
0.0
 40
0.7817620956641714
100
AcDbArc
 50
276.6249892012146
 51
285.7011086845214
  0
LWPOLYLINE
  5
13C4
330
1F
100
AcDbEntity
  8
Sanindusa
100
AcDbPolyline
 90
        4
 70
   128
 43
0.0
 10
4743.052656424391
 20
1986.263940795432
 10
4743.052655995945
 20
1986.264705233669
 10
4743.052733243667
 20
1986.272099909711
 10
4743.052753234711
 20
1986.273222826116
  0
LINE
  5
13C6
330
1F
100
AcDbEntity
  8
Sanindusa
100
AcDbLine
 10
4743.052639421493
 20
1986.260564570349
 30
0.0
 11
4743.05265255881
 21
1986.263940536915
 31
0.0
  0
LINE
  5
13C7
330
1F
100
AcDbEntity
  8
Sanindusa
100
AcDbLine
 10
4743.052638170428
 20
1986.260212627744
 30
0.0
 11
4743.052639421493
 21
1986.260564570349
 31
0.0
  0
LINE
  5
13CB
330
1F
100
AcDbEntity
  8
Sanindusa
100
AcDbLine
 10
4743.052607117811
 20
1986.250063032561
 30
0.0
 11
4743.052638170428
 21
1986.260212627744
 31
0.0
  0
LINE
  5
13CE
330
1F
100
AcDbEntity
  8
Sanindusa
100
AcDbLine
 10
4743.054276258883
 20
1986.282521125906
 30
0.0
 11
4743.054292411359
 21
1986.291445895832
 31
0.0
  0
ARC
  5
13CF
330
1F
100
AcDbEntity
  8
Sanindusa
100
AcDbCircle
 10
4743.049276268341
 20
1986.282530676481
 30
0.0
 40
0.0050000000000066
100
AcDbArc
 50
337.0785819529782
 51
359.8905583882586
  0
LWPOLYLINE
  5
13D2
330
1F
100
AcDbEntity
  8
Sanindusa
100
AcDbPolyline
 90
        3
 70
   128
 43
0.0
 10
4743.046252623488
 20
1986.276921331755
 10
4743.049443784466
 20
1986.277975017371
 10
4743.05064951963
 20
1986.278386578755
  0
LWPOLYLINE
  5
13D7
330
1F
100
AcDbEntity
  8
Sanindusa
100
AcDbPolyline
 90
        8
 70
   128
 43
0.0
 10
4743.052757658889
 20
1986.273221135769
 10
4743.052796761769
 20
1986.274476247272
 10
4743.052918214043
 20
1986.276023518444
 10
4743.053105849649
 20
1986.277482704501
 10
4743.05334358086
 20
1986.27876018446
 10
4743.053576585011
 20
1986.279692828936
 10
4743.053793774399
 20
1986.280361564457
 10
4743.053874075932
 20
1986.280554431117
  0
LWPOLYLINE
  5
13D9
330
1F
100
AcDbEntity
  8
Sanindusa
100
AcDbPolyline
 90
        7
 70
   128
 43
0.0
 10
4743.053881467745
 20
1986.2805833351
 10
4743.053784276844
 20
1986.280374601691
 10
4743.053384800278
 20
1986.279768660918
 10
4743.052852594291
 20
1986.279251949273
 10
4743.052204852225
 20
1986.278841159539
 10
4743.051462499909
 20
1986.278549562609
 10
4743.05064951963
 20
1986.278386578755
  0
LWPOLYLINE
  5
13DC
330
1F
100
AcDbEntity
  8
Sanindusa
100
AcDbPolyline
 90
        9
 70
   128
 43
0.0
 10
4742.916531777605
 20
1986.232438903116
 10
4742.923619481905
 20
1986.226059399338
 10
4742.930727342478
 20
1986.219884083639
 10
4742.937397402881
 20
1986.214309671169
 10
4742.944018536454
 20
1986.208916383529
 10
4742.950534432734
 20
1986.203757554762
 10
4742.955626354523
 20
1986.199867687533
 10
4742.960542417789
 20
1986.196275742595
 10
4742.965171165911
 20
1986.193094127217
  0
LINE
  5
13DE
330
1F
100
AcDbEntity
  8
Sanindusa
100
AcDbLine
 10
4742.924885089093
 20
1986.25297124324
 30
0.0
 11
4742.920550191455
 21
1986.252638215306
 31
0.0
  0
LWPOLYLINE
  5
13E4
330
1F
100
AcDbEntity
  8
Sanindusa
100
AcDbPolyline
 90
        9
 70
   128
 43
0.0
 10
4742.909154105602
 20
1986.235086630115
 10
4742.910156444573
 20
1986.235091269565
 10
4742.911155632142
 20
1986.234995610209
 10
4742.912141528059
 20
1986.234800622846
 10
4742.91310412697
 20
1986.234508286302
 10
4742.914033659949
 20
1986.234121567353
 10
4742.914920693641
 20
1986.233644390613
 10
4742.915756225989
 20
1986.233081598704
 10
4742.916531777605
 20
1986.232438903116
  0
LWPOLYLINE
  5
13E5
330
1F
100
AcDbEntity
  8
Sanindusa
100
AcDbPolyline
 90
        5
 70
   128
 43
0.0
 10
4742.909154105602
 20
1986.235086630115
 10
4742.910392794621
 20
1986.236959444316
 10
4742.914222489633
 20
1986.242802565174
 10
4742.918018443854
 20
1986.248675185887
 10
4742.920550191456
 20
1986.252638215306
  0
LWPOLYLINE
  5
13E8
330
1F
100
AcDbEntity
  8
Sanindusa
100
AcDbPolyline
 90
        9
 70
   128
 43
0.0
 10
4743.052256044136
 20
1986.380863368285
 10
4743.052643947988
 20
1986.380825390611
 10
4743.053017345296
 20
1986.380712806682
 10
4743.053361794036
 20
1986.380529897509
 10
4743.053664196479
 20
1986.380283618248
 10
4743.053913053718
 20
1986.379983333715
 10
4743.054098902907
 20
1986.379640462284
 10
4743.054214677096
 20
1986.379268041707
 10
4743.054248346877
 20
1986.378870352488
  0
LINE
  5
13EB
330
1F
100
AcDbEntity
  8
Sanindusa
100
AcDbLine
 10
4743.052256044136
 20
1986.380863368285
 30
0.0
 11
4743.049256028432
 21
1986.380863368285
 31
0.0
  0
LWPOLYLINE
  5
13F0
330
1F
100
AcDbEntity
  8
Sanindusa
100
AcDbPolyline
 90
        4
 70
   128
 43
0.0
 10
4742.684109245596
 20
1986.378870381624
 10
4742.684086944362
 20
1986.372531357921
 10
4742.68405242848
 20
1986.303411243949
 10
4742.68407441492
 20
1986.291445891137
  0
LWPOLYLINE
  5
13F2
330
1F
100
AcDbEntity
  8
Sanindusa
100
AcDbPolyline
 90
        9
 70
   128
 43
0.0
 10
4742.821831223426
 20
1986.232438903116
 10
4742.814743519125
 20
1986.226059399338
 10
4742.807635658554
 20
1986.219884083639
 10
4742.80096559815
 20
1986.214309671169
 10
4742.794344464576
 20
1986.208916383529
 10
4742.787828568297
 20
1986.203757554762
 10
4742.782736646509
 20
1986.199867687533
 10
4742.777820583241
 20
1986.196275742595
 10
4742.773191835121
 20
1986.193094127217
  0
ARC
  5
13F4
330
1F
100
AcDbEntity
  8
Sanindusa
100
AcDbCircle
 10
4742.903934497638
 20
1987.030852934062
 30
0.0
 40
0.7831234377874661
100
AcDbArc
 50
254.3067965430386
 51
263.3671055712231
  0
LWPOLYLINE
  5
13F7
330
1F
100
AcDbEntity
  8
Sanindusa
100
AcDbPolyline
 90
        7
 70
   128
 43
0.0
 10
4742.869181500515
 20
1986.23310016891
 10
4742.861763177026
 20
1986.233158839046
 10
4742.854344853538
 20
1986.23333825596
 10
4742.848018765662
 20
1986.233590884586
 10
4742.841725812571
 20
1986.233952777199
 10
4742.835402976298
 20
1986.234452994242
 10
4742.829208895429
 20
1986.235086630115
  0
LWPOLYLINE
  5
13F9
330
1F
100
AcDbEntity
  8
Sanindusa
100
AcDbPolyline
 90
       39
 70
   128
 43
0.0
 10
4742.869181500515
 20
1986.247299136504
 10
4742.870853194186
 20
1986.247288097905
 10
4742.873249713476
 20
1986.247232245053
 10
4742.875530767791
 20
1986.247130225844
 10
4742.877643067717
 20
1986.246981510085
 10
4742.879512892558
 20
1986.24678922873
 10
4742.881093694129
 20
1986.246553921437
 10
4742.882330521894
 20
1986.246281707295
 10
4742.883185917395
 20
1986.245976610749
 10
4742.883637518194
 20
1986.245647100338
 10
4742.883667841948
 20
1986.245301405051
 10
4742.883282776193
 20
1986.244949539291
 10
4742.88243983964
 20
1986.244585975626
 10
4742.881178974249
 20
1986.244240615904
 10
4742.879652646066
 20
1986.243946788183
 10
4742.877835041483
 20
1986.243691151251
 10
4742.875787873934
 20
1986.243485487023
 10
4742.873557108656
 20
1986.243335127623
 10
4742.871395584075
 20
1986.243251818339
 10
4742.869181500515
 20
1986.243223452298
 10
4742.868786403499
 20
1986.243224345005
 10
4742.866384241429
 20
1986.243268825633
 10
4742.864060602488
 20
1986.243377601168
 10
4742.861844753931
 20
1986.243550653849
 10
4742.859839953577
 20
1986.243778388233
 10
4742.857837198623
 20
1986.244103097995
 10
4742.856462564617
 20
1986.244421487901
 10
4742.855455666229
 20
1986.244762276146
 10
4742.854851356801
 20
1986.245112363812
 10
4742.854656112478
 20
1986.245461961409
 10
4742.854878322776
 20
1986.245798029638
 10
4742.855504082224
 20
1986.246114571308
 10
4742.856513765519
 20
1986.246401476311
 10
4742.857878389758
 20
1986.246655454052
 10
4742.859559258469
 20
1986.246870459515
 10
4742.861509931816
 20
1986.247044403563
 10
4742.863681065091
 20
1986.247174296047
 10
4742.866007423934
 20
1986.247258907456
 10
4742.869181500515
 20
1986.247299136504
  0
LINE
  5
1401
330
1F
100
AcDbEntity
  8
Sanindusa
100
AcDbLine
 10
4742.813477911939
 20
1986.25297124324
 30
0.0
 11
4742.817812809575
 21
1986.252638215306
 31
0.0
  0
LINE
  5
1404
330
1F
100
AcDbEntity
  8
Sanindusa
100
AcDbLine
 10
4742.809299268392
 20
1986.244640175683
 30
0.0
 11
4742.817812809575
 21
1986.252638215306
 31
0.0
  0
LWPOLYLINE
  5
1407
330
1F
100
AcDbEntity
  8
Sanindusa
100
AcDbPolyline
 90
        5
 70
   128
 43
0.0
 10
4742.829208895429
 20
1986.235086630115
 10
4742.827970206411
 20
1986.236959444316
 10
4742.824140511398
 20
1986.242802565174
 10
4742.820344557177
 20
1986.248675185887
 10
4742.817812809575
 20
1986.252638215306
  0
LWPOLYLINE
  5
1408
330
1F
100
AcDbEntity
  8
Sanindusa
100
AcDbPolyline
 90
        9
 70
   128
 43
0.0
 10
4742.829208895429
 20
1986.235086630115
 10
4742.828206556458
 20
1986.235091269565
 10
4742.82720736889
 20
1986.234995610209
 10
4742.826221472973
 20
1986.234800622846
 10
4742.825258874062
 20
1986.234508286302
 10
4742.824329341082
 20
1986.234121567353
 10
4742.823442307391
 20
1986.233644390613
 10
4742.822606775042
 20
1986.233081598704
 10
4742.821831223426
 20
1986.232438903116
  0
CIRCLE
  5
140D
330
1F
100
AcDbEntity
  8
Sanindusa
100
AcDbCircle
 10
4742.869181500515
 20
1986.320863368285
 30
0.0
 40
0.0175
  0
LWPOLYLINE
  5
140E
330
1F
100
AcDbEntity
  8
Sanindusa
100
AcDbPolyline
 90
        3
 70
   128
 43
0.0
 10
4742.685608328929
 20
1986.273222597608
 10
4742.685645900807
 20
1986.27102054946
 10
4742.68570654215
 20
1986.263940237004
  0
LWPOLYLINE
  5
1410
330
1F
100
AcDbEntity
  8
Sanindusa
100
AcDbPolyline
 90
        3
 70
   128
 43
0.0
 10
4742.685710423401
 20
1986.263940540757
 10
4742.68571616303
 20
1986.262463542937
 10
4742.68572360463
 20
1986.26056457046
  0
LINE
  5
1411
330
1F
100
AcDbEntity
  8
Sanindusa
100
AcDbLine
 10
4742.685723579539
 20
1986.260564570348
 30
0.0
 11
4742.685724830303
 21
1986.260212627863
 31
0.0
  0
LWPOLYLINE
  5
1415
330
1F
100
AcDbEntity
  8
Sanindusa
100
AcDbPolyline
 90
        3
 70
   128
 43
0.0
 10
4742.685724795612
 20
1986.26021263009
 10
4742.685733071479
 20
1986.257604765983
 10
4742.685755415063
 20
1986.250063028574
  0
LINE
  5
1417
330
1F
100
AcDbEntity
  8
Sanindusa
100
AcDbLine
 10
4742.684070589633
 20
1986.291445895832
 30
0.0
 11
4742.684086742159
 21
1986.282521125906
 31
0.0
  0
ARC
  5
1418
330
1F
100
AcDbEntity
  8
Sanindusa
100
AcDbCircle
 10
4742.689086732689
 20
1986.282530676481
 30
0.0
 40
0.0050000000000067
100
AcDbArc
 50
180.1094416117414
 51
202.9214180470217
  0
LWPOLYLINE
  5
141B
330
1F
100
AcDbEntity
  8
Sanindusa
100
AcDbPolyline
 90
        3
 70
   128
 43
0.0
 10
4742.692110377544
 20
1986.276921331755
 10
4742.688919216567
 20
1986.277975017371
 10
4742.687713481402
 20
1986.278386578755
  0
LWPOLYLINE
  5
1420
330
1F
100
AcDbEntity
  8
Sanindusa
100
AcDbPolyline
 90
        8
 70
   128
 43
0.0
 10
4742.684488576172
 20
1986.280555592586
 10
4742.684570230001
 20
1986.280358866507
 10
4742.684776210678
 20
1986.279728239274
 10
4742.685012517065
 20
1986.278791613033
 10
4742.685237827081
 20
1986.27760400845
 10
4742.685429916679
 20
1986.276164917446
 10
4742.685559850935
 20
1986.274589318201
 10
4742.685605567984
 20
1986.273221050469
  0
LWPOLYLINE
  5
1422
330
1F
100
AcDbEntity
  8
Sanindusa
100
AcDbPolyline
 90
        7
 70
   128
 43
0.0
 10
4742.684481533286
 20
1986.2805833351
 10
4742.684578724186
 20
1986.280374601691
 10
4742.684978200753
 20
1986.279768660918
 10
4742.68551040674
 20
1986.279251949273
 10
4742.686158148806
 20
1986.278841159539
 10
4742.686900501122
 20
1986.278549562609
 10
4742.687713481402
 20
1986.278386578755
  0
LWPOLYLINE
  5
1423
330
1F
100
AcDbEntity
  8
Sanindusa
100
AcDbPolyline
 90
        9
 70
   128
 43
0.0
 10
4742.684106958819
 20
1986.378859994538
 10
4742.684144817556
 20
1986.379250683231
 10
4742.684258253404
 20
1986.379626453429
 10
4742.684442897068
 20
1986.379972831316
 10
4742.684691636495
 20
1986.380276475201
 10
4742.684994890804
 20
1986.380525689408
 10
4742.685340979327
 20
1986.380710874771
 10
4742.685716571518
 20
1986.380824898368
 10
4742.686106956895
 20
1986.380863368285
  0
LINE
  5
1426
330
1F
100
AcDbEntity
  8
Sanindusa
100
AcDbLine
 10
4742.689106972599
 20
1986.380863368285
 30
0.0
 11
4742.68614498459
 21
1986.380863368285
 31
0.0
  0
LINE
  5
1762
330
1F
100
AcDbEntity
  8
Sanindusa
100
AcDbLine
 10
4743.370931205488
 20
1985.900266244047
 30
0.0
 11
4743.488616859657
 21
1985.919350404183
 31
0.0
  0
LINE
  5
1764
330
1F
100
AcDbEntity
  8
Sanindusa
100
AcDbLine
 10
4743.36861106317
 20
1986.244858322222
 30
0.0
 11
4743.36861106317
 21
1985.902240455003
 31
0.0
  0
ARC
  5
1767
330
1F
100
AcDbEntity
  8
Sanindusa
100
AcDbCircle
 10
4743.370611063171
 20
1985.902240455003
 30
0.0
 40
0.002
100
AcDbArc
 50
180.0
 51
279.2110265408521
  0
ARC
  5
1769
330
1F
100
AcDbEntity
  8
Sanindusa
100
AcDbCircle
 10
4744.354172279691
 20
1985.760712051592
 30
0.0
 40
0.6424799790982883
100
AcDbArc
 50
132.2597798191716
 51
161.755565320144
  0
LWPOLYLINE
  5
176A
330
1F
100
AcDbEntity
  8
Sanindusa
100
AcDbPolyline
 90
       21
 70
   128
 43
0.0
 10
4743.918373208842
 20
1986.244907489982
 10
4743.918062434029
 20
1986.244910605858
 10
4743.916835151558
 20
1986.244912647008
 10
4743.914799592283
 20
1986.244916932569
 10
4743.911242408748
 20
1986.24492685669
 10
4743.906507927671
 20
1986.244939858664
 10
4743.900647500362
 20
1986.24495563289
 10
4743.893712478139
 20
1986.244973873764
 10
4743.887904494516
 20
1986.24498883031
 10
4743.881537599243
 20
1986.24500487981
 10
4743.874648675601
 20
1986.245021793835
 10
4743.864752722295
 20
1986.245045363562
 10
4743.854001307318
 20
1986.245070081097
 10
4743.842508472281
 20
1986.245095410582
 10
4743.830388258803
 20
1986.245120816156
 10
4743.817691953402
 20
1986.245145912487
 10
4743.80445548557
 20
1986.245170475355
 10
4743.790825465851
 20
1986.245194097243
 10
4743.77694850479
 20
1986.245216370633
 10
4743.765798518656
 20
1986.245234211263
 10
4743.754578999124
 20
1986.245247935195
  0
LWPOLYLINE
  5
176C
330
1F
100
AcDbEntity
  8
Sanindusa
100
AcDbPolyline
 90
        9
 70
   128
 43
0.0
 10
4743.922108897623
 20
1986.236213636678
 10
4743.923144262384
 20
1986.237535220321
 10
4743.923683810788
 20
1986.23912501624
 10
4743.923666712732
 20
1986.240803786733
 10
4743.923094896103
 20
1986.242382262824
 10
4743.922032829251
 20
1986.243682483366
 10
4743.920600252311
 20
1986.244557858686
 10
4743.918958677265
 20
1986.244909697163
 10
4743.91846951297
 20
1986.244906524422
  0
LINE
  5
1770
330
1F
100
AcDbEntity
  8
Sanindusa
100
AcDbLine
 10
4743.39861106317
 20
1985.951964324571
 30
0.0
 11
4743.39861106317
 21
1986.205700815564
 31
0.0
  0
LINE
  5
1778
330
1F
100
AcDbEntity
  8
Sanindusa
100
AcDbLine
 10
4743.50709679303
 20
1986.125781980683
 30
0.0
 11
4743.488675003351
 21
1985.962142662044
 31
0.0
  0
LINE
  5
177A
330
1F
100
AcDbEntity
  8
Sanindusa
100
AcDbLine
 10
4743.516030170566
 20
1985.923795805952
 30
0.0
 11
4743.742410740125
 21
1985.960506168584
 31
0.0
  0
ARC
  5
177B
330
1F
100
AcDbEntity
  8
Sanindusa
100
AcDbCircle
 10
4743.742090597808
 20
1985.962480379539
 30
0.0
 40
0.002
100
AcDbArc
 50
279.2110265408521
 51
341.7562601442693
  0
LINE
  5
177E
330
1F
100
AcDbEntity
  8
Sanindusa
100
AcDbLine
 10
4743.479284484597
 20
1985.953425230175
 30
0.0
 11
4743.410211774756
 21
1985.942093269794
 31
0.0
  0
LWPOLYLINE
  5
1781
330
1F
100
AcDbEntity
  8
Sanindusa
100
AcDbPolyline
 90
        7
 70
   128
 43
0.0
 10
4743.488675003351
 20
1985.962142662044
 10
4743.488174741888
 20
1985.960394549586
 10
4743.487301788809
 20
1985.958655869136
 10
4743.486140461938
 20
1985.957117934322
 10
4743.484689860107
 20
1985.955773595933
 10
4743.483037041164
 20
1985.954697513437
 10
4743.479284484597
 20
1985.953425230175
  0
LINE
  5
1783
330
1F
100
AcDbEntity
  8
Sanindusa
100
AcDbLine
 10
4743.488616859657
 20
1985.919350404183
 30
0.0
 11
4743.516030170566
 21
1985.923795805952
 31
0.0
  0
LWPOLYLINE
  5
178E
330
1F
100
AcDbEntity
  8
Sanindusa
100
AcDbPolyline
 90
        7
 70
   128
 43
0.0
 10
4743.410211774756
 20
1985.942093269793
 10
4743.40935113063
 20
1985.941991747163
 10
4743.406162436978
 20
1985.942268746725
 10
4743.403219092837
 20
1985.943542528093
 10
4743.400779413848
 20
1985.945746184263
 10
4743.399160571299
 20
1985.948695042786
 10
4743.398611063171
 20
1985.951964324571
  0
LWPOLYLINE
  5
1797
330
1F
100
AcDbEntity
  8
Sanindusa
100
AcDbPolyline
 90
       10
 70
   128
 43
0.0
 10
4743.649772929649
 20
1986.194565653764
 10
4743.639347583431
 20
1986.190920719545
 10
4743.629090223321
 20
1986.187196785917
 10
4743.617778439666
 20
1986.183059129567
 10
4743.612849094181
 20
1986.181291335154
 10
4743.610687408082
 20
1986.180530504752
 10
4743.609737442524
 20
1986.180199716943
 10
4743.609319663722
 20
1986.180055005013
 10
4743.609135878974
 20
1986.179991499148
 10
4743.60899139267
 20
1986.179941556212
  0
LINE
  5
179B
330
1F
100
AcDbEntity
  8
Sanindusa
100
AcDbLine
 10
4743.49015298229
 20
1986.210700815564
 30
0.0
 11
4743.658574592033
 21
1986.210700815564
 31
0.0
  0
LWPOLYLINE
  5
17A2
330
1F
100
AcDbEntity
  8
Sanindusa
100
AcDbPolyline
 90
       39
 70
   128
 43
0.0
 10
4743.426111069577
 20
1986.160685841676
 10
4743.426111478187
 20
1986.1608213368
 10
4743.426381799815
 20
1986.163757068151
 10
4743.427137623797
 20
1986.166606388797
 10
4743.428364330222
 20
1986.169287145302
 10
4743.430020234625
 20
1986.17172530555
 10
4743.432069750038
 20
1986.173853200492
 10
4743.434444316136
 20
1986.175607885994
 10
4743.437093972466
 20
1986.176940091868
 10
4743.439926499741
 20
1986.177808532896
 10
4743.442873271468
 20
1986.178183469081
 10
4743.445838250025
 20
1986.178058512379
 10
4743.448726528649
 20
1986.17743467599
 10
4743.451469567554
 20
1986.176337116561
 10
4743.453962507994
 20
1986.174808954284
 10
4743.456170509855
 20
1986.172887295736
 10
4743.45801556755
 20
1986.170635640485
 10
4743.459466630937
 20
1986.16810695969
 10
4743.460475566126
 20
1986.165367292386
 10
4743.461018659906
 20
1986.162496804406
 10
4743.461003624257
 20
1986.158764628876
 10
4743.460425240452
 20
1986.155856352864
 10
4743.459369576425
 20
1986.153090345144
 10
4743.457851464774
 20
1986.150532313166
 10
4743.455928031439
 20
1986.148269311524
 10
4743.453654425056
 20
1986.146371822135
 10
4743.451095100211
 20
1986.144881865232
 10
4743.448332052315
 20
1986.143851435979
 10
4743.445433871602
 20
1986.143296006762
 10
4743.442503713602
 20
1986.143237595127
 10
4743.439601449727
 20
1986.143666350499
 10
4743.436819594408
 20
1986.144574265989
 10
4743.434223377802
 20
1986.145931883191
 10
4743.431882530914
 20
1986.147715127127
 10
4743.42986993239
 20
1986.14986424208
 10
4743.428247567381
 20
1986.152325197874
 10
4743.427058018382
 20
1986.155022197052
 10
4743.426352231941
 20
1986.15781525475
 10
4743.426111069577
 20
1986.160685841676
  0
LWPOLYLINE
  5
17A8
330
1F
100
AcDbEntity
  8
Sanindusa
100
AcDbPolyline
 90
        8
 70
   128
 43
0.0
 10
4743.608991392407
 20
1986.179941608321
 10
4743.596588819822
 20
1986.17528875226
 10
4743.584647966609
 20
1986.170802799858
 10
4743.573168832766
 20
1986.166483751116
 10
4743.561434569589
 20
1986.162061210392
 10
4743.549350052724
 20
1986.157497911571
 10
4743.537600422761
 20
1986.153051828254
 10
4743.526185679699
 20
1986.148722960443
  0
LWPOLYLINE
  5
17AC
330
1F
100
AcDbEntity
  8
Sanindusa
100
AcDbPolyline
 90
        7
 70
   128
 43
0.0
 10
4743.526185679699
 20
1986.148722960443
 10
4743.521324290133
 20
1986.14634683652
 10
4743.516824902452
 20
1986.143052014718
 10
4743.513361741975
 20
1986.139454237518
 10
4743.510474390972
 20
1986.135226840216
 10
4743.508402525561
 20
1986.130710960713
 10
4743.50709679303
 20
1986.125781980682
  0
LINE
  5
17B9
330
1F
100
AcDbEntity
  8
Sanindusa
100
AcDbLine
 10
4743.403611063171
 20
1986.210700815564
 30
0.0
 11
4743.489884131243
 21
1986.210700815564
 31
0.0
  0
ARC
  5
17C8
330
1F
100
AcDbEntity
  8
Sanindusa
100
AcDbCircle
 10
4743.403611063171
 20
1986.205700815564
 30
0.0
 40
0.0049999999999991
100
AcDbArc
 50
90.0
 51
180.0
  0
LWPOLYLINE
  5
17CC
330
1F
100
AcDbEntity
  8
Sanindusa
100
AcDbPolyline
 90
        6
 70
   128
 43
0.0
 10
4743.754578999124
 20
1986.245247935195
 10
4743.735245830118
 20
1986.24525131281
 10
4743.715910844034
 20
1986.24524596883
 10
4743.677241582822
 20
1986.245242305777
 10
4743.588320139678
 20
1986.245241147097
 10
4743.504294763281
 20
1986.245259779915
  0
LINE
  5
17CD
330
1F
100
AcDbEntity
  8
Sanindusa
100
AcDbLine
 10
4743.49213933975
 20
1986.250700815564
 30
0.0
 11
4743.466943754975
 21
1986.250700815564
 31
0.0
  0
ARC
  5
17D1
330
1F
100
AcDbEntity
  8
Sanindusa
100
AcDbCircle
 10
4743.494264629481
 20
1986.245700815564
 30
0.0
 40
0.005
100
AcDbArc
 50
8.000000000008236
 51
90.0
  0
LINE
  5
17D5
330
1F
100
AcDbEntity
  8
Sanindusa
100
AcDbLine
 10
4743.499667722274
 20
1986.245507068756
 30
0.0
 11
4743.504294763281
 21
1986.245259779915
 31
0.0
  0
LINE
  5
17D6
330
1F
100
AcDbEntity
  8
Sanindusa
100
AcDbLine
 10
4743.499215969825
 20
1986.246396681069
 30
0.0
 11
4743.499327935809
 21
1986.245600001704
 31
0.0
  0
LINE
  5
17D7
330
1F
100
AcDbEntity
  8
Sanindusa
100
AcDbLine
 10
4743.494264629481
 20
1986.250700815564
 30
0.0
 11
4743.492161988837
 21
1986.250700867645
 31
0.0
  0
LINE
  5
17DA
330
1F
100
AcDbEntity
  8
Sanindusa
100
AcDbLine
 10
4743.499327935809
 20
1986.245600001704
 30
0.0
 11
4743.499667722274
 21
1986.245507068756
 31
0.0
  0
LINE
  5
17DF
330
1F
100
AcDbEntity
  8
Sanindusa
100
AcDbLine
 10
4743.458020040747
 20
1986.250700815564
 30
0.0
 11
4743.370611063171
 21
1986.250700815564
 31
0.0
  0
LINE
  5
17E5
330
1F
100
AcDbEntity
  8
Sanindusa
100
AcDbLine
 10
4743.466943754975
 20
1986.250700815564
 30
0.0
 11
4743.458020040747
 21
1986.250700815564
 31
0.0
  0
LINE
  5
17E8
330
1F
100
AcDbEntity
  8
Sanindusa
100
AcDbLine
 10
4743.36861106317
 20
1986.248700815564
 30
0.0
 11
4743.36861106317
 21
1986.244858322222
 31
0.0
  0
ARC
  5
17EB
330
1F
100
AcDbEntity
  8
Sanindusa
100
AcDbCircle
 10
4743.370611063171
 20
1986.248700815564
 30
0.0
 40
0.0019999999999999
100
AcDbArc
 50
90.0
 51
180.0
  0
ENDSEC
  0
SECTION
  2
OBJECTS
  0
DICTIONARY
  5
C
330
0
100
AcDbDictionary
281
     1
  3
ACAD_COLOR
350
1821
  3
ACAD_GROUP
350
D
  3
ACAD_LAYOUT
350
1A
  3
ACAD_MATERIAL
350
17F4
  3
ACAD_MLEADERSTYLE
350
1836
  3
ACAD_MLINESTYLE
350
17
  3
ACAD_PLOTSETTINGS
350
19
  3
ACAD_PLOTSTYLENAME
350
E
  3
ACAD_SCALELIST
350
1824
  3
ACAD_TABLESTYLE
350
1822
  3
ACAD_VISUALSTYLE
350
180D
  3
ACDB_RECOMPOSE_DATA
350
1865
  3
AcDbVariableDictionary
350
3D
  3
ASE_INDEX_DICTIONARY
350
17EC
  3
DWGPROPS
350
1866
  0
DICTIONARY
  5
183D
330
10
100
AcDbDictionary
280
     1
281
     1
  3
ADSK_XREC_LAYER_RECONCILED
360
183E
  0
DICTIONARY
  5
183F
330
2F
100
AcDbDictionary
280
     1
281
     1
  3
ADSK_XREC_LAYER_RECONCILED
360
1840
  0
DICTIONARY
  5
1841
330
30
100
AcDbDictionary
280
     1
281
     1
  3
ADSK_XREC_LAYER_RECONCILED
360
1842
  0
DICTIONARY
  5
1843
330
31
100
AcDbDictionary
280
     1
281
     1
  3
ADSK_XREC_LAYER_RECONCILED
360
1844
  0
DICTIONARY
  5
1845
330
32
100
AcDbDictionary
280
     1
281
     1
  3
ADSK_XREC_LAYER_RECONCILED
360
1846
  0
DICTIONARY
  5
1847
330
33
100
AcDbDictionary
280
     1
281
     1
  3
ADSK_XREC_LAYER_RECONCILED
360
1848
  0
DICTIONARY
  5
1849
330
34
100
AcDbDictionary
280
     1
281
     1
  3
ADSK_XREC_LAYER_RECONCILED
360
184A
  0
DICTIONARY
  5
184B
330
35
100
AcDbDictionary
280
     1
281
     1
  3
ADSK_XREC_LAYER_RECONCILED
360
184C
  0
DICTIONARY
  5
184D
330
36
100
AcDbDictionary
280
     1
281
     1
  3
ADSK_XREC_LAYER_RECONCILED
360
184E
  0
DICTIONARY
  5
184F
330
37
100
AcDbDictionary
280
     1
281
     1
  3
ADSK_XREC_LAYER_RECONCILED
360
1850
  0
DICTIONARY
  5
1851
330
5D6
100
AcDbDictionary
280
     1
281
     1
  3
ADSK_XREC_LAYER_RECONCILED
360
1852
  0
DICTIONARY
  5
1853
330
8AF
100
AcDbDictionary
280
     1
281
     1
  3
ADSK_XREC_LAYER_RECONCILED
360
1854
  0
DICTIONARY
  5
1855
330
8F8
100
AcDbDictionary
280
     1
281
     1
  3
ADSK_XREC_LAYER_RECONCILED
360
1856
  0
DICTIONARY
  5
1857
330
91D
100
AcDbDictionary
280
     1
281
     1
  3
ADSK_XREC_LAYER_RECONCILED
360
1858
  0
DICTIONARY
  5
1859
330
B5B
100
AcDbDictionary
280
     1
281
     1
  3
ADSK_XREC_LAYER_RECONCILED
360
185A
  0
DICTIONARY
  5
185B
330
DAA
100
AcDbDictionary
280
     1
281
     1
  3
ADSK_XREC_LAYER_RECONCILED
360
185C
  0
DICTIONARY
  5
1821
102
{ACAD_REACTORS
330
C
102
}
330
C
100
AcDbDictionary
281
     1
  0
DICTIONARY
  5
D
102
{ACAD_REACTORS
330
C
102
}
330
C
100
AcDbDictionary
281
     1
  0
DICTIONARY
  5
1A
102
{ACAD_REACTORS
330
C
102
}
330
C
100
AcDbDictionary
281
     1
  3
Layout1
350
1E
  3
Layout2
350
26
  3
Model
350
22
  0
DICTIONARY
  5
17F4
102
{ACAD_REACTORS
330
C
102
}
330
C
100
AcDbDictionary
281
     1
  3
ByBlock
350
17FD
  3
ByLayer
350
17F5
  3
Global
350
1805
  0
DICTIONARY
  5
1836
102
{ACAD_REACTORS
330
C
102
}
330
C
100
AcDbDictionary
281
     1
  3
Standard
350
1837
  0
DICTIONARY
  5
17
102
{ACAD_REACTORS
330
C
102
}
330
C
100
AcDbDictionary
281
     1
  3
Standard
350
18
  0
DICTIONARY
  5
19
102
{ACAD_REACTORS
330
C
102
}
330
C
100
AcDbDictionary
281
     1
  0
ACDBDICTIONARYWDFLT
  5
E
102
{ACAD_REACTORS
330
C
102
}
330
C
100
AcDbDictionary
281
     1
  3
Normal
350
F
100
AcDbDictionaryWithDefault
340
F
  0
DICTIONARY
  5
1824
102
{ACAD_REACTORS
330
C
102
}
330
C
100
AcDbDictionary
281
     1
  3
A0
350
1825
  3
A1
350
1826
  3
A2
350
1827
  3
A3
350
1828
  3
A4
350
1829
  3
A5
350
182A
  3
A6
350
182B
  3
A7
350
182C
  3
A8
350
182D
  3
A9
350
182E
  3
B0
350
182F
  3
B1
350
1830
  3
B2
350
1831
  3
B3
350
1832
  3
B4
350
1833
  3
B5
350
1834
  3
B6
350
1835
  0
DICTIONARY
  5
1822
102
{ACAD_REACTORS
330
C
102
}
330
C
100
AcDbDictionary
281
     1
  3
Standard
350
1823
  0
DICTIONARY
  5
180D
102
{ACAD_REACTORS
330
C
102
}
330
C
100
AcDbDictionary
281
     1
  3
2dWireframe
350
1813
  3
3D Hidden
350
1815
  3
3dWireframe
350
1814
  3
Basic
350
1812
  3
Brighten
350
1819
  3
ColorChange
350
181D
  3
Conceptual
350
1816
  3
Dim
350
1818
  3
EdgeColorOff
350
1820
  3
Facepattern
350
181C
  3
Flat
350
180E
  3
FlatWithEdges
350
180F
  3
Gouraud
350
1810
  3
GouraudWithEdges
350
1811
  3
JitterOff
350
181E
  3
Linepattern
350
181B
  3
OverhangOff
350
181F
  3
Realistic
350
1817
  3
Thicken
350
181A
  0
XRECORD
  5
1865
102
{ACAD_REACTORS
330
C
102
}
330
C
100
AcDbXrecord
280
     1
 90
        1
330
1823
  0
DICTIONARY
  5
3D
102
{ACAD_REACTORS
330
C
102
}
330
C
100
AcDbDictionary
281
     1
  3
CANNOSCALE
350
185F
  3
CMLEADERSTYLE
350
185E
  3
CTABLESTYLE
350
185D
  3
DIMASSOC
350
3F
  3
HIDETEXT
350
3E
  3
INDEXCTL
350
1861
  3
SORTENTS
350
1860
  3
XCLIPFRAME
350
1862
  0
DICTIONARY
  5
17EC
102
{ACAD_REACTORS
330
C
102
}
330
C
100
AcDbDictionary
281
     1
  3
ASEBlockHierarchyIndexRecord
350
17ED
1001
DCO15
1040
1496657302.781
  0
XRECORD
  5
1866
102
{ACAD_REACTORS
330
C
102
}
330
C
100
AcDbXrecord
280
     1
  1
DWGPROPS COOKIE
  2

  3

  4

  6

  7

  8
Julio
  9

300
=
301
=
302
=
303
=
304
=
305
=
306
=
307
=
308
=
309
=
 40
0.0136505439814815
 41
2453125.62089029
 42
2456146.46249529
  1

 90
        0
  0
XRECORD
  5
183E
102
{ACAD_REACTORS
330
183D
102
}
330
183D
100
AcDbXrecord
280
     1
290
     1
  0
XRECORD
  5
1840
102
{ACAD_REACTORS
330
183F
102
}
330
183F
100
AcDbXrecord
280
     1
290
     1
  0
XRECORD
  5
1842
102
{ACAD_REACTORS
330
1841
102
}
330
1841
100
AcDbXrecord
280
     1
290
     1
  0
XRECORD
  5
1844
102
{ACAD_REACTORS
330
1843
102
}
330
1843
100
AcDbXrecord
280
     1
290
     1
  0
XRECORD
  5
1846
102
{ACAD_REACTORS
330
1845
102
}
330
1845
100
AcDbXrecord
280
     1
290
     1
  0
XRECORD
  5
1848
102
{ACAD_REACTORS
330
1847
102
}
330
1847
100
AcDbXrecord
280
     1
290
     1
  0
XRECORD
  5
184A
102
{ACAD_REACTORS
330
1849
102
}
330
1849
100
AcDbXrecord
280
     1
290
     1
  0
XRECORD
  5
184C
102
{ACAD_REACTORS
330
184B
102
}
330
184B
100
AcDbXrecord
280
     1
290
     1
  0
XRECORD
  5
184E
102
{ACAD_REACTORS
330
184D
102
}
330
184D
100
AcDbXrecord
280
     1
290
     1
  0
XRECORD
  5
1850
102
{ACAD_REACTORS
330
184F
102
}
330
184F
100
AcDbXrecord
280
     1
290
     1
  0
XRECORD
  5
1852
102
{ACAD_REACTORS
330
1851
102
}
330
1851
100
AcDbXrecord
280
     1
290
     1
  0
XRECORD
  5
1854
102
{ACAD_REACTORS
330
1853
102
}
330
1853
100
AcDbXrecord
280
     1
290
     1
  0
XRECORD
  5
1856
102
{ACAD_REACTORS
330
1855
102
}
330
1855
100
AcDbXrecord
280
     1
290
     1
  0
XRECORD
  5
1858
102
{ACAD_REACTORS
330
1857
102
}
330
1857
100
AcDbXrecord
280
     1
290
     1
  0
XRECORD
  5
185A
102
{ACAD_REACTORS
330
1859
102
}
330
1859
100
AcDbXrecord
280
     1
290
     1
  0
XRECORD
  5
185C
102
{ACAD_REACTORS
330
185B
102
}
330
185B
100
AcDbXrecord
280
     1
290
     1
  0
LAYOUT
  5
1E
102
{ACAD_XDICTIONARY
360
1867
102
}
102
{ACAD_REACTORS
330
1A
102
}
330
1A
100
AcDbPlotSettings
  1

  2
Ploter HP500
  4

  6

 40
0.0
 41
0.0
 42
0.0
 43
0.0
 44
0.0
 45
0.0
 46
0.0
 47
0.0
 48
0.0
 49
0.0
140
0.0
141
0.0
142
1.0
143
1.0
 70
   688
 72
     0
 73
     0
 74
     5
  7
monochrome.ctb
 75
    16
147
1.0
148
0.0
149
0.0
100
AcDbLayout
  1
Layout1
 70
     1
 71
     1
 10
0.0
 20
0.0
 11
420.0
 21
297.0
 12
0.0
 22
0.0
 32
0.0
 14
1.000000000000000E+20
 24
1.000000000000000E+20
 34
1.000000000000000E+20
 15
-1.000000000000000E+20
 25
-1.000000000000000E+20
 35
-1.000000000000000E+20
146
0.0
 13
0.0
 23
0.0
 33
0.0
 16
1.0
 26
0.0
 36
0.0
 17
0.0
 27
1.0
 37
0.0
 76
     0
330
1B
  0
LAYOUT
  5
26
102
{ACAD_XDICTIONARY
360
186B
102
}
102
{ACAD_REACTORS
330
1A
102
}
330
1A
100
AcDbPlotSettings
  1

  2
Ploter HP500
  4

  6

 40
0.0
 41
0.0
 42
0.0
 43
0.0
 44
0.0
 45
0.0
 46
0.0
 47
0.0
 48
0.0
 49
0.0
140
0.0
141
0.0
142
1.0
143
1.0
 70
   688
 72
     0
 73
     0
 74
     5
  7
monochrome.ctb
 75
    16
147
1.0
148
0.0
149
0.0
100
AcDbLayout
  1
Layout2
 70
     1
 71
     2
 10
0.0
 20
0.0
 11
12.0
 21
9.0
 12
0.0
 22
0.0
 32
0.0
 14
0.0
 24
0.0
 34
0.0
 15
0.0
 25
0.0
 35
0.0
146
0.0
 13
0.0
 23
0.0
 33
0.0
 16
1.0
 26
0.0
 36
0.0
 17
0.0
 27
1.0
 37
0.0
 76
     0
330
23
  0
LAYOUT
  5
22
102
{ACAD_XDICTIONARY
360
1869
102
}
102
{ACAD_REACTORS
330
1A
102
}
330
1A
100
AcDbPlotSettings
  1

  2
Ploter HP500
  4
User268
  6

 40
4.995333194732666
 41
16.97565841674804
 42
4.995330810546875
 43
16.97567749023437
 44
209.9733276367187
 45
296.9259948730469
 46
0.0
 47
0.0
 48
0.0
 49
0.0
140
0.0
141
0.0
142
1.0
143
1.0
 70
 11952
 72
     1
 73
     1
 74
     0
  7

 75
     0
147
1.0
148
-427.5957866592534
149
7.362384574453926
100
AcDbLayout
  1
Model
 70
     1
 71
     0
 10
0.0
 20
0.0
 11
12.0
 21
9.0
 12
0.0
 22
0.0
 32
0.0
 14
0.0
 24
0.0
 34
0.0
 15
0.0
 25
0.0
 35
0.0
146
0.0
 13
0.0
 23
0.0
 33
0.0
 16
1.0
 26
0.0
 36
0.0
 17
0.0
 27
1.0
 37
0.0
 76
     0
330
1F
331
17F2
  0
MATERIAL
  5
17FD
102
{ACAD_XDICTIONARY
360
17FE
102
}
102
{ACAD_REACTORS
330
17F4
102
}
330
17F4
100
AcDbMaterial
  1
ByBlock
 72
     0
 43
0.0008202099737533
 43
0.0
 43
0.0
 43
0.0
 43
0.0
 43
0.0008202099737533
 43
0.0
 43
0.0
 43
0.0
 43
0.0
 43
1.0
 43
0.0
 43
0.0
 43
0.0
 43
0.0
 43
1.0
 77
     0
 47
0.0008202099737533
 47
0.0
 47
0.0
 47
0.0
 47
0.0
 47
0.0008202099737533
 47
0.0
 47
0.0
 47
0.0
 47
0.0
 47
1.0
 47
0.0
 47
0.0
 47
0.0
 47
0.0
 47
1.0
171
     0
 49
0.0008202099737533
 49
0.0
 49
0.0
 49
0.0
 49
0.0
 49
0.0008202099737533
 49
0.0
 49
0.0
 49
0.0
 49
0.0
 49
1.0
 49
0.0
 49
0.0
 49
0.0
 49
0.0
 49
1.0
175
     0
142
0.0008202099737533
142
0.0
142
0.0
142
0.0
142
0.0
142
0.0008202099737533
142
0.0
142
0.0
142
0.0
142
0.0
142
1.0
142
0.0
142
0.0
142
0.0
142
0.0
142
1.0
179
     0
144
0.0008202099737533
144
0.0
144
0.0
144
0.0
144
0.0
144
0.0008202099737533
144
0.0
144
0.0
144
0.0
144
0.0
144
1.0
144
0.0
144
0.0
144
0.0
144
0.0
144
1.0
147
0.0008202099737533
147
0.0
147
0.0
147
0.0
147
0.0
147
0.0008202099737533
147
0.0
147
0.0
147
0.0
147
0.0
147
1.0
147
0.0
147
0.0
147
0.0
147
0.0
147
1.0
  0
MATERIAL
  5
17F5
102
{ACAD_XDICTIONARY
360
17F6
102
}
102
{ACAD_REACTORS
330
17F4
102
}
330
17F4
100
AcDbMaterial
  1
ByLayer
 72
     0
 43
0.0008202099737533
 43
0.0
 43
0.0
 43
0.0
 43
0.0
 43
0.0008202099737533
 43
0.0
 43
0.0
 43
0.0
 43
0.0
 43
1.0
 43
0.0
 43
0.0
 43
0.0
 43
0.0
 43
1.0
 77
     0
 47
0.0008202099737533
 47
0.0
 47
0.0
 47
0.0
 47
0.0
 47
0.0008202099737533
 47
0.0
 47
0.0
 47
0.0
 47
0.0
 47
1.0
 47
0.0
 47
0.0
 47
0.0
 47
0.0
 47
1.0
171
     0
 49
0.0008202099737533
 49
0.0
 49
0.0
 49
0.0
 49
0.0
 49
0.0008202099737533
 49
0.0
 49
0.0
 49
0.0
 49
0.0
 49
1.0
 49
0.0
 49
0.0
 49
0.0
 49
0.0
 49
1.0
175
     0
142
0.0008202099737533
142
0.0
142
0.0
142
0.0
142
0.0
142
0.0008202099737533
142
0.0
142
0.0
142
0.0
142
0.0
142
1.0
142
0.0
142
0.0
142
0.0
142
0.0
142
1.0
179
     0
144
0.0008202099737533
144
0.0
144
0.0
144
0.0
144
0.0
144
0.0008202099737533
144
0.0
144
0.0
144
0.0
144
0.0
144
1.0
144
0.0
144
0.0
144
0.0
144
0.0
144
1.0
147
0.0008202099737533
147
0.0
147
0.0
147
0.0
147
0.0
147
0.0008202099737533
147
0.0
147
0.0
147
0.0
147
0.0
147
1.0
147
0.0
147
0.0
147
0.0
147
0.0
147
1.0
  0
MATERIAL
  5
1805
102
{ACAD_XDICTIONARY
360
1806
102
}
102
{ACAD_REACTORS
330
17F4
102
}
330
17F4
100
AcDbMaterial
  1
Global
 72
     0
 43
0.0008202099737533
 43
0.0
 43
0.0
 43
0.0
 43
0.0
 43
0.0008202099737533
 43
0.0
 43
0.0
 43
0.0
 43
0.0
 43
1.0
 43
0.0
 43
0.0
 43
0.0
 43
0.0
 43
1.0
 77
     0
 47
0.0008202099737533
 47
0.0
 47
0.0
 47
0.0
 47
0.0
 47
0.0008202099737533
 47
0.0
 47
0.0
 47
0.0
 47
0.0
 47
1.0
 47
0.0
 47
0.0
 47
0.0
 47
0.0
 47
1.0
171
     0
 49
0.0008202099737533
 49
0.0
 49
0.0
 49
0.0
 49
0.0
 49
0.0008202099737533
 49
0.0
 49
0.0
 49
0.0
 49
0.0
 49
1.0
 49
0.0
 49
0.0
 49
0.0
 49
0.0
 49
1.0
175
     0
142
0.0008202099737533
142
0.0
142
0.0
142
0.0
142
0.0
142
0.0008202099737533
142
0.0
142
0.0
142
0.0
142
0.0
142
1.0
142
0.0
142
0.0
142
0.0
142
0.0
142
1.0
179
     0
144
0.0008202099737533
144
0.0
144
0.0
144
0.0
144
0.0
144
0.0008202099737533
144
0.0
144
0.0
144
0.0
144
0.0
144
1.0
144
0.0
144
0.0
144
0.0
144
0.0
144
1.0
147
0.0008202099737533
147
0.0
147
0.0
147
0.0
147
0.0
147
0.0008202099737533
147
0.0
147
0.0
147
0.0
147
0.0
147
1.0
147
0.0
147
0.0
147
0.0
147
0.0
147
1.0
  0
MLEADERSTYLE
  5
1837
102
{ACAD_REACTORS
330
1836
102
}
330
1836
100
AcDbMLeaderStyle
170
     2
171
     1
172
     0
 90
        2
 40
0.0
 41
0.0
173
     1
 91
-1056964608
340
14
 92
       -2
290
     1
 42
2.0
291
     1
 43
0.36
  3
Standard
 44
4.0
300

342
11
174
     1
178
     6
175
     1
176
     0
 93
-1056964608
 45
4.0
292
     0
297
     0
 46
4.0
 94
-1056964608
 47
1.0
 49
1.0
140
1.0
293
     1
141
0.0
294
     1
177
     0
142
1.0
295
     0
296
     0
143
0.125
1001
ACAD_MLEADERVER
1070
     2
  0
MLINESTYLE
  5
18
102
{ACAD_REACTORS
330
17
102
}
330
17
100
AcDbMlineStyle
  2
STANDARD
 70
     0
  3

 62
   256
 51
90.0
 52
90.0
 71
     2
 49
0.5
 62
   256
  6
BYLAYER
 49
-0.5
 62
   256
  6
BYLAYER
  0
ACDBPLACEHOLDER
  5
F
102
{ACAD_REACTORS
330
E
102
}
330
E
  0
SCALE
  5
1825
102
{ACAD_REACTORS
330
1824
102
}
330
1824
100
AcDbScale
 70
     0
300
1:1
140
1.0
141
1.0
290
     1
  0
SCALE
  5
1826
102
{ACAD_REACTORS
330
1824
102
}
330
1824
100
AcDbScale
 70
     0
300
1:2
140
1.0
141
2.0
290
     0
  0
SCALE
  5
1827
102
{ACAD_REACTORS
330
1824
102
}
330
1824
100
AcDbScale
 70
     0
300
1:4
140
1.0
141
4.0
290
     0
  0
SCALE
  5
1828
102
{ACAD_REACTORS
330
1824
102
}
330
1824
100
AcDbScale
 70
     0
300
1:5
140
1.0
141
5.0
290
     0
  0
SCALE
  5
1829
102
{ACAD_REACTORS
330
1824
102
}
330
1824
100
AcDbScale
 70
     0
300
1:8
140
1.0
141
8.0
290
     0
  0
SCALE
  5
182A
102
{ACAD_REACTORS
330
1824
102
}
330
1824
100
AcDbScale
 70
     0
300
1:10
140
1.0
141
10.0
290
     0
  0
SCALE
  5
182B
102
{ACAD_REACTORS
330
1824
102
}
330
1824
100
AcDbScale
 70
     0
300
1:16
140
1.0
141
16.0
290
     0
  0
SCALE
  5
182C
102
{ACAD_REACTORS
330
1824
102
}
330
1824
100
AcDbScale
 70
     0
300
1:20
140
1.0
141
20.0
290
     0
  0
SCALE
  5
182D
102
{ACAD_REACTORS
330
1824
102
}
330
1824
100
AcDbScale
 70
     0
300
1:30
140
1.0
141
30.0
290
     0
  0
SCALE
  5
182E
102
{ACAD_REACTORS
330
1824
102
}
330
1824
100
AcDbScale
 70
     0
300
1:40
140
1.0
141
40.0
290
     0
  0
SCALE
  5
182F
102
{ACAD_REACTORS
330
1824
102
}
330
1824
100
AcDbScale
 70
     0
300
1:50
140
1.0
141
50.0
290
     0
  0
SCALE
  5
1830
102
{ACAD_REACTORS
330
1824
102
}
330
1824
100
AcDbScale
 70
     0
300
1:100
140
1.0
141
100.0
290
     0
  0
SCALE
  5
1831
102
{ACAD_REACTORS
330
1824
102
}
330
1824
100
AcDbScale
 70
     0
300
2:1
140
2.0
141
1.0
290
     0
  0
SCALE
  5
1832
102
{ACAD_REACTORS
330
1824
102
}
330
1824
100
AcDbScale
 70
     0
300
4:1
140
4.0
141
1.0
290
     0
  0
SCALE
  5
1833
102
{ACAD_REACTORS
330
1824
102
}
330
1824
100
AcDbScale
 70
     0
300
8:1
140
8.0
141
1.0
290
     0
  0
SCALE
  5
1834
102
{ACAD_REACTORS
330
1824
102
}
330
1824
100
AcDbScale
 70
     0
300
10:1
140
10.0
141
1.0
290
     0
  0
SCALE
  5
1835
102
{ACAD_REACTORS
330
1824
102
}
330
1824
100
AcDbScale
 70
     0
300
100:1
140
100.0
141
1.0
290
     0
  0
TABLESTYLE
  5
1823
102
{ACAD_XDICTIONARY
360
1863
102
}
102
{ACAD_REACTORS
330
1822
102
}
330
1822
100
AcDbTableStyle
  3
Standard
 70
     0
 71
     0
 40
1.5
 41
1.5
280
     0
281
     0
  7
Standard
140
4.5
170
     2
 62
     0
 63
     7
283
     0
274
    -2
284
     1
 64
     0
275
    -2
285
     1
 65
     0
276
    -2
286
     1
 66
     0
277
    -2
287
     1
 67
     0
278
    -2
288
     1
 68
     0
279
    -2
289
     1
 69
     0
  7
Standard
140
6.0
170
     5
 62
     0
 63
     7
283
     0
274
    -2
284
     1
 64
     0
275
    -2
285
     1
 65
     0
276
    -2
286
     1
 66
     0
277
    -2
287
     1
 67
     0
278
    -2
288
     1
 68
     0
279
    -2
289
     1
 69
     0
  7
Standard
140
4.5
170
     5
 62
     0
 63
     7
283
     0
274
    -2
284
     1
 64
     0
275
    -2
285
     1
 65
     0
276
    -2
286
     1
 66
     0
277
    -2
287
     1
 67
     0
278
    -2
288
     1
 68
     0
279
    -2
289
     1
 69
     0
  0
VISUALSTYLE
  5
1813
102
{ACAD_XDICTIONARY
360
189A
102
}
102
{ACAD_REACTORS
330
180D
102
}
330
180D
100
AcDbVisualStyle
  2
2dWireframe
 70
     4
 71
     0
 72
     2
 73
     0
 90
        0
 40
-0.6
 41
-30.0
 62
     5
 63
     7
 74
     1
 91
        4
 64
     7
 65
   257
 75
     1
175
     1
 42
1.0
 92
        0
 66
   257
 43
1.0
 76
     1
 77
     6
 78
     2
 67
     7
 79
     5
170
     0
171
     0
290
     0
174
     0
 93
        1
 44
0.0
173
     0
291
     0
 45
0.0
1001
ACAD
1000
AcDbSavedByObjectVersion
1070
     0
  0
VISUALSTYLE
  5
1815
102
{ACAD_XDICTIONARY
360
189E
102
}
102
{ACAD_REACTORS
330
180D
102
}
330
180D
100
AcDbVisualStyle
  2
3D Hidden
 70
     6
 71
     1
 72
     2
 73
     2
 90
        0
 40
-0.6
 41
-30.0
 62
     5
 63
     7
 74
     2
 91
        2
 64
     7
 65
   257
 75
     2
175
     1
 42
179.0
 92
        0
 66
   257
 43
1.0
 76
     1
 77
     6
 78
     2
 67
     7
 79
     3
170
     0
171
     0
290
     0
174
     0
 93
        1
 44
0.0
173
     0
291
     0
 45
0.0
1001
ACAD
1000
AcDbSavedByObjectVersion
1070
     0
  0
VISUALSTYLE
  5
1814
102
{ACAD_XDICTIONARY
360
189C
102
}
102
{ACAD_REACTORS
330
180D
102
}
330
180D
100
AcDbVisualStyle
  2
3dWireframe
 70
     5
 71
     0
 72
     2
 73
     0
 90
        0
 40
-0.6
 41
-30.0
 62
     5
 63
     7
 74
     1
 91
        4
 64
     7
 65
   257
 75
     1
175
     1
 42
1.0
 92
        0
 66
   257
 43
1.0
 76
     1
 77
     6
 78
     2
 67
     7
 79
     5
170
     0
171
     0
290
     0
174
     0
 93
        1
 44
0.0
173
     0
291
     0
 45
0.0
1001
ACAD
1000
AcDbSavedByObjectVersion
1070
     0
  0
VISUALSTYLE
  5
1812
102
{ACAD_XDICTIONARY
360
1898
102
}
102
{ACAD_REACTORS
330
180D
102
}
330
180D
100
AcDbVisualStyle
  2
Basic
 70
     7
 71
     1
 72
     0
 73
     1
 90
        0
 40
-0.6
 41
-30.0
 62
     5
 63
     7
 74
     0
 91
        4
 64
     7
 65
   257
 75
     1
175
     1
 42
1.0
 92
        8
 66
     7
 43
1.0
 76
     1
 77
     6
 78
     2
 67
     7
 79
     5
170
     0
171
     0
290
     0
174
     0
 93
        1
 44
0.0
173
     0
291
     1
 45
0.0
1001
ACAD
1000
AcDbSavedByObjectVersion
1070
     0
  0
VISUALSTYLE
  5
1819
102
{ACAD_XDICTIONARY
360
18A6
102
}
102
{ACAD_REACTORS
330
180D
102
}
330
180D
100
AcDbVisualStyle
  2
Brighten
 70
    12
 71
     2
 72
     2
 73
     0
 90
        0
 40
-0.6
 41
-30.0
 62
     5
 63
     7
 74
     1
 91
        4
 64
     7
 65
   257
 75
     1
175
     1
 42
1.0
 92
        8
 66
     7
 43
1.0
 76
     1
 77
     6
 78
     2
 67
     7
 79
     5
170
     0
171
     0
290
     0
174
     0
 93
        1
 44
50.0
173
     0
291
     1
 45
0.0
1001
ACAD
1000
AcDbSavedByObjectVersion
1070
     0
  0
VISUALSTYLE
  5
181D
102
{ACAD_XDICTIONARY
360
18AE
102
}
102
{ACAD_REACTORS
330
180D
102
}
330
180D
100
AcDbVisualStyle
  2
ColorChange
 70
    16
 71
     2
 72
     2
 73
     3
 90
        0
 40
-0.6
 41
-30.0
 62
     5
 63
     8
 74
     1
 91
        4
 64
     7
 65
   257
 75
     1
175
     1
 42
1.0
 92
        8
 66
     8
 43
1.0
 76
     1
 77
     6
 78
     2
 67
     7
 79
     5
170
     0
171
     0
290
     0
174
     0
 93
        1
 44
0.0
173
     0
291
     1
 45
0.0
1001
ACAD
1000
AcDbSavedByObjectVersion
1070
     0
  0
VISUALSTYLE
  5
1816
102
{ACAD_XDICTIONARY
360
18A0
102
}
102
{ACAD_REACTORS
330
180D
102
}
330
180D
100
AcDbVisualStyle
  2
Conceptual
 70
     9
 71
     3
 72
     2
 73
     0
 90
        0
 40
-0.6
 41
-30.0
 62
     5
 63
     7
 74
     2
 91
        2
 64
     7
 65
   257
 75
     1
175
     1
 42
179.0
 92
        8
 66
     7
 43
1.0
 76
     1
 77
     6
 78
     2
 67
     7
 79
     3
170
     0
171
     0
290
     0
174
     0
 93
        1
 44
0.0
173
     0
291
     0
 45
0.0
1001
ACAD
1000
AcDbSavedByObjectVersion
1070
     0
  0
VISUALSTYLE
  5
1818
102
{ACAD_XDICTIONARY
360
18A4
102
}
102
{ACAD_REACTORS
330
180D
102
}
330
180D
100
AcDbVisualStyle
  2
Dim
 70
    11
 71
     2
 72
     2
 73
     0
 90
        0
 40
-0.6
 41
-30.0
 62
     5
 63
     7
 74
     1
 91
        4
 64
     7
 65
   257
 75
     1
175
     1
 42
1.0
 92
        8
 66
     7
 43
1.0
 76
     1
 77
     6
 78
     2
 67
     7
 79
     5
170
     0
171
     0
290
     0
174
     0
 93
        1
 44
-50.0
173
     0
291
     1
 45
0.0
1001
ACAD
1000
AcDbSavedByObjectVersion
1070
     0
  0
VISUALSTYLE
  5
1820
102
{ACAD_XDICTIONARY
360
18B4
102
}
102
{ACAD_REACTORS
330
180D
102
}
330
180D
100
AcDbVisualStyle
  2
EdgeColorOff
 70
    22
 71
     2
 72
     2
 73
     0
 90
        0
 40
-0.6
 41
-30.0
 62
     5
 63
     7
 74
     1
 91
        4
 64
     7
 65
   257
 75
     1
175
     1
 42
1.0
 92
        8
 66
     7
 43
1.0
 76
     1
 77
     6
 78
     2
 67
     7
 79
     5
170
     0
171
     0
290
     0
174
     0
 93
        1
 44
0.0
173
     0
291
     1
 45
0.0
1001
ACAD
1000
AcDbSavedByObjectVersion
1070
     0
  0
VISUALSTYLE
  5
181C
102
{ACAD_XDICTIONARY
360
18AC
102
}
102
{ACAD_REACTORS
330
180D
102
}
330
180D
100
AcDbVisualStyle
  2
Facepattern
 70
    15
 71
     2
 72
     2
 73
     0
 90
        0
 40
-0.6
 41
-30.0
 62
     5
 63
     7
 74
     1
 91
        4
 64
     7
 65
   257
 75
     1
175
     1
 42
1.0
 92
        8
 66
     7
 43
1.0
 76
     1
 77
     6
 78
     2
 67
     7
 79
     5
170
     0
171
     0
290
     0
174
     0
 93
        1
 44
0.0
173
     0
291
     1
 45
0.0
1001
ACAD
1000
AcDbSavedByObjectVersion
1070
     0
  0
VISUALSTYLE
  5
180E
102
{ACAD_XDICTIONARY
360
1890
102
}
102
{ACAD_REACTORS
330
180D
102
}
330
180D
100
AcDbVisualStyle
  2
Flat
 70
     0
 71
     2
 72
     1
 73
     1
 90
        2
 40
-0.6
 41
30.0
 62
     5
 63
     7
 74
     0
 91
        4
 64
     7
 65
   257
 75
     1
175
     1
 42
1.0
 92
        8
 66
     7
 43
1.0
 76
     1
 77
     6
 78
     2
 67
     7
 79
     5
170
     0
171
     0
290
     0
174
     0
 93
       13
 44
0.0
173
     0
291
     1
 45
0.0
1001
ACAD
1000
AcDbSavedByObjectVersion
1070
     0
  0
VISUALSTYLE
  5
180F
102
{ACAD_XDICTIONARY
360
1892
102
}
102
{ACAD_REACTORS
330
180D
102
}
330
180D
100
AcDbVisualStyle
  2
FlatWithEdges
 70
     1
 71
     2
 72
     1
 73
     1
 90
        2
 40
-0.6
 41
30.0
 62
     5
 63
     7
 74
     1
 91
        4
 64
     7
 65
   257
 75
     1
175
     1
 42
1.0
 92
        0
 66
   257
 43
1.0
 76
     1
 77
     6
 78
     2
 67
     7
 79
     5
170
     0
171
     0
290
     0
174
     0
 93
       13
 44
0.0
173
     0
291
     1
 45
0.0
1001
ACAD
1000
AcDbSavedByObjectVersion
1070
     0
  0
VISUALSTYLE
  5
1810
102
{ACAD_XDICTIONARY
360
1894
102
}
102
{ACAD_REACTORS
330
180D
102
}
330
180D
100
AcDbVisualStyle
  2
Gouraud
 70
     2
 71
     2
 72
     2
 73
     1
 90
        2
 40
-0.6
 41
30.0
 62
     5
 63
     7
 74
     0
 91
        4
 64
     7
 65
   257
 75
     1
175
     1
 42
1.0
 92
        0
 66
     7
 43
1.0
 76
     1
 77
     6
 78
     2
 67
     7
 79
     5
170
     0
171
     0
290
     0
174
     0
 93
       13
 44
0.0
173
     0
291
     1
 45
0.0
1001
ACAD
1000
AcDbSavedByObjectVersion
1070
     0
  0
VISUALSTYLE
  5
1811
102
{ACAD_XDICTIONARY
360
1896
102
}
102
{ACAD_REACTORS
330
180D
102
}
330
180D
100
AcDbVisualStyle
  2
GouraudWithEdges
 70
     3
 71
     2
 72
     2
 73
     1
 90
        2
 40
-0.6
 41
30.0
 62
     5
 63
     7
 74
     1
 91
        4
 64
     7
 65
   257
 75
     1
175
     1
 42
1.0
 92
        0
 66
   257
 43
1.0
 76
     1
 77
     6
 78
     2
 67
     7
 79
     5
170
     0
171
     0
290
     0
174
     0
 93
       13
 44
0.0
173
     0
291
     1
 45
0.0
1001
ACAD
1000
AcDbSavedByObjectVersion
1070
     0
  0
VISUALSTYLE
  5
181E
102
{ACAD_XDICTIONARY
360
18B0
102
}
102
{ACAD_REACTORS
330
180D
102
}
330
180D
100
AcDbVisualStyle
  2
JitterOff
 70
    20
 71
     2
 72
     2
 73
     0
 90
        0
 40
-0.6
 41
-30.0
 62
     5
 63
     7
 74
     1
 91
        4
 64
     7
 65
   257
 75
     1
175
     1
 42
1.0
 92
       10
 66
     7
 43
1.0
 76
     1
 77
     6
 78
     2
 67
     7
 79
     5
170
     0
171
     0
290
     0
174
     0
 93
        1
 44
0.0
173
     0
291
     1
 45
0.0
1001
ACAD
1000
AcDbSavedByObjectVersion
1070
     0
  0
VISUALSTYLE
  5
181B
102
{ACAD_XDICTIONARY
360
18AA
102
}
102
{ACAD_REACTORS
330
180D
102
}
330
180D
100
AcDbVisualStyle
  2
Linepattern
 70
    14
 71
     2
 72
     2
 73
     0
 90
        0
 40
-0.6
 41
-30.0
 62
     5
 63
     7
 74
     1
 91
        4
 64
     7
 65
   257
 75
     7
175
     7
 42
1.0
 92
        8
 66
     7
 43
1.0
 76
     1
 77
     6
 78
     2
 67
     7
 79
     5
170
     0
171
     0
290
     0
174
     0
 93
        1
 44
0.0
173
     0
291
     1
 45
0.0
1001
ACAD
1000
AcDbSavedByObjectVersion
1070
     0
  0
VISUALSTYLE
  5
181F
102
{ACAD_XDICTIONARY
360
18B2
102
}
102
{ACAD_REACTORS
330
180D
102
}
330
180D
100
AcDbVisualStyle
  2
OverhangOff
 70
    21
 71
     2
 72
     2
 73
     0
 90
        0
 40
-0.6
 41
-30.0
 62
     5
 63
     7
 74
     1
 91
        4
 64
     7
 65
   257
 75
     1
175
     1
 42
1.0
 92
        9
 66
     7
 43
1.0
 76
     1
 77
     6
 78
     2
 67
     7
 79
     5
170
     0
171
     0
290
     0
174
     0
 93
        1
 44
0.0
173
     0
291
     1
 45
0.0
1001
ACAD
1000
AcDbSavedByObjectVersion
1070
     0
  0
VISUALSTYLE
  5
1817
102
{ACAD_XDICTIONARY
360
18A2
102
}
102
{ACAD_REACTORS
330
180D
102
}
330
180D
100
AcDbVisualStyle
  2
Realistic
 70
     8
 71
     2
 72
     2
 73
     0
 90
        0
 40
-0.6
 41
-30.0
 62
     5
 63
     7
 74
     1
 91
        0
 64
     7
 65
   257
 75
     1
175
     1
 42
1.0
 92
        8
 66
     8
 43
1.0
 76
     1
 77
     6
 78
     2
 67
     7
 79
     5
170
     0
171
     0
290
     0
174
     0
 93
       13
 44
0.0
173
     0
291
     0
 45
0.0
1001
ACAD
1000
AcDbSavedByObjectVersion
1070
     0
  0
VISUALSTYLE
  5
181A
102
{ACAD_XDICTIONARY
360
18A8
102
}
102
{ACAD_REACTORS
330
180D
102
}
330
180D
100
AcDbVisualStyle
  2
Thicken
 70
    13
 71
     2
 72
     2
 73
     0
 90
        0
 40
-0.6
 41
-30.0
 62
     5
 63
     7
 74
     1
 91
        4
 64
     7
 65
   257
 75
     1
175
     1
 42
1.0
 92
       12
 66
     7
 43
1.0
 76
     1
 77
     6
 78
     2
 67
     7
 79
     5
170
     0
171
     0
290
     0
174
     0
 93
        1
 44
0.0
173
     0
291
     1
 45
0.0
1001
ACAD
1000
AcDbSavedByObjectVersion
1070
     0
  0
DICTIONARYVAR
  5
185F
102
{ACAD_REACTORS
330
3D
102
}
330
3D
100
DictionaryVariables
280
     0
  1
1:1
  0
DICTIONARYVAR
  5
185E
102
{ACAD_REACTORS
330
3D
102
}
330
3D
100
DictionaryVariables
280
     0
  1
STANDARD
  0
DICTIONARYVAR
  5
185D
102
{ACAD_REACTORS
330
3D
102
}
330
3D
100
DictionaryVariables
280
     0
  1
STANDARD
  0
DICTIONARYVAR
  5
3F
102
{ACAD_REACTORS
330
3D
102
}
330
3D
100
DictionaryVariables
280
     0
  1
2
  0
DICTIONARYVAR
  5
3E
102
{ACAD_REACTORS
330
3D
102
}
330
3D
100
DictionaryVariables
280
     0
  1
1
  0
DICTIONARYVAR
  5
1861
102
{ACAD_REACTORS
330
3D
102
}
330
3D
100
DictionaryVariables
280
     0
  1
0
  0
DICTIONARYVAR
  5
1860
102
{ACAD_REACTORS
330
3D
102
}
330
3D
100
DictionaryVariables
280
     0
  1
127
  0
DICTIONARYVAR
  5
1862
102
{ACAD_REACTORS
330
3D
102
}
330
3D
100
DictionaryVariables
280
     0
  1
2
  0
XRECORD
  5
17ED
102
{ACAD_REACTORS
330
17EC
102
}
330
17EC
100
AcDbXrecord
280
     1
  0
DICTIONARY
  5
1867
330
1E
100
AcDbDictionary
280
     1
281
     1
  3
ACAD_XREC_ROUNDTRIP
360
1868
  0
DICTIONARY
  5
186B
330
26
100
AcDbDictionary
280
     1
281
     1
  3
ACAD_XREC_ROUNDTRIP
360
186C
  0
DICTIONARY
  5
1869
330
22
100
AcDbDictionary
280
     1
281
     1
  3
ACAD_XREC_ROUNDTRIP
360
186A
  0
DICTIONARY
  5
17FE
330
17FD
100
AcDbDictionary
280
     1
281
     1
  3
ACAD_XREC_ROUNDTRIP
360
188E
  3
BUMPTILE
360
1800
  3
DIFFUSETILE
360
17FF
  3
OPACITYTILE
360
1803
  3
REFLECTIONTILE
360
1802
  3
REFRACTIONTILE
360
1804
  3
SPECULARTILE
360
1801
  0
DICTIONARY
  5
17F6
330
17F5
100
AcDbDictionary
280
     1
281
     1
  3
ACAD_XREC_ROUNDTRIP
360
188D
  3
BUMPTILE
360
17F8
  3
DIFFUSETILE
360
17F7
  3
OPACITYTILE
360
17FB
  3
REFLECTIONTILE
360
17FA
  3
REFRACTIONTILE
360
17FC
  3
SPECULARTILE
360
17F9
  0
DICTIONARY
  5
1806
330
1805
100
AcDbDictionary
280
     1
281
     1
  3
ACAD_XREC_ROUNDTRIP
360
188F
  3
BUMPTILE
360
1808
  3
DIFFUSETILE
360
1807
  3
OPACITYTILE
360
180B
  3
REFLECTIONTILE
360
180A
  3
REFRACTIONTILE
360
180C
  3
SPECULARTILE
360
1809
  0
DICTIONARY
  5
1863
330
1823
100
AcDbDictionary
280
     1
281
     1
  3
ACAD_ROUNDTRIP_2008_TABLESTYLE_CELLSTYLEMAP
360
1864
  3
ACAD_XREC_ROUNDTRIP
360
18B6
  0
DICTIONARY
  5
189A
330
1813
100
AcDbDictionary
280
     1
281
     1
  3
ACAD_XREC_ROUNDTRIP
360
189B
  0
DICTIONARY
  5
189E
330
1815
100
AcDbDictionary
280
     1
281
     1
  3
ACAD_XREC_ROUNDTRIP
360
189F
  0
DICTIONARY
  5
189C
330
1814
100
AcDbDictionary
280
     1
281
     1
  3
ACAD_XREC_ROUNDTRIP
360
189D
  0
DICTIONARY
  5
1898
330
1812
100
AcDbDictionary
280
     1
281
     1
  3
ACAD_XREC_ROUNDTRIP
360
1899
  0
DICTIONARY
  5
18A6
330
1819
100
AcDbDictionary
280
     1
281
     1
  3
ACAD_XREC_ROUNDTRIP
360
18A7
  0
DICTIONARY
  5
18AE
330
181D
100
AcDbDictionary
280
     1
281
     1
  3
ACAD_XREC_ROUNDTRIP
360
18AF
  0
DICTIONARY
  5
18A0
330
1816
100
AcDbDictionary
280
     1
281
     1
  3
ACAD_XREC_ROUNDTRIP
360
18A1
  0
DICTIONARY
  5
18A4
330
1818
100
AcDbDictionary
280
     1
281
     1
  3
ACAD_XREC_ROUNDTRIP
360
18A5
  0
DICTIONARY
  5
18B4
330
1820
100
AcDbDictionary
280
     1
281
     1
  3
ACAD_XREC_ROUNDTRIP
360
18B5
  0
DICTIONARY
  5
18AC
330
181C
100
AcDbDictionary
280
     1
281
     1
  3
ACAD_XREC_ROUNDTRIP
360
18AD
  0
DICTIONARY
  5
1890
330
180E
100
AcDbDictionary
280
     1
281
     1
  3
ACAD_XREC_ROUNDTRIP
360
1891
  0
DICTIONARY
  5
1892
330
180F
100
AcDbDictionary
280
     1
281
     1
  3
ACAD_XREC_ROUNDTRIP
360
1893
  0
DICTIONARY
  5
1894
330
1810
100
AcDbDictionary
280
     1
281
     1
  3
ACAD_XREC_ROUNDTRIP
360
1895
  0
DICTIONARY
  5
1896
330
1811
100
AcDbDictionary
280
     1
281
     1
  3
ACAD_XREC_ROUNDTRIP
360
1897
  0
DICTIONARY
  5
18B0
330
181E
100
AcDbDictionary
280
     1
281
     1
  3
ACAD_XREC_ROUNDTRIP
360
18B1
  0
DICTIONARY
  5
18AA
330
181B
100
AcDbDictionary
280
     1
281
     1
  3
ACAD_XREC_ROUNDTRIP
360
18AB
  0
DICTIONARY
  5
18B2
330
181F
100
AcDbDictionary
280
     1
281
     1
  3
ACAD_XREC_ROUNDTRIP
360
18B3
  0
DICTIONARY
  5
18A2
330
1817
100
AcDbDictionary
280
     1
281
     1
  3
ACAD_XREC_ROUNDTRIP
360
18A3
  0
DICTIONARY
  5
18A8
330
181A
100
AcDbDictionary
280
     1
281
     1
  3
ACAD_XREC_ROUNDTRIP
360
18A9
  0
XRECORD
  5
1868
102
{ACAD_REACTORS
330
1867
102
}
330
1867
100
AcDbXrecord
280
     1
102
SHADEPLOT
 70
     0
102
SHADEPLOTRESLEVEL
 70
     2
102
SHADEPLOTCUSTOMDPI
 70
   300
  0
XRECORD
  5
186C
102
{ACAD_REACTORS
330
186B
102
}
330
186B
100
AcDbXrecord
280
     1
102
SHADEPLOT
 70
     0
102
SHADEPLOTRESLEVEL
 70
     2
102
SHADEPLOTCUSTOMDPI
 70
   300
  0
XRECORD
  5
186A
102
{ACAD_REACTORS
330
1869
102
}
330
1869
100
AcDbXrecord
280
     1
102
SHADEPLOT
 70
     0
102
SHADEPLOTRESLEVEL
 70
     2
102
SHADEPLOTCUSTOMDPI
 70
   300
  0
XRECORD
  5
188E
102
{ACAD_REACTORS
330
17FE
102
}
330
17FE
100
AcDbXrecord
280
     1
102
MATERIAL
148
0.0
149
0.0
149
0.0
 93
        0
 94
      127
282
     0
 72
     0
 77
     0
171
     0
175
     0
179
     0
273
     0
  0
XRECORD
  5
1800
102
{ACAD_REACTORS
330
17FE
102
}
330
17FE
100
AcDbXrecord
280
     1
270
     1
271
     1
  0
XRECORD
  5
17FF
102
{ACAD_REACTORS
330
17FE
102
}
330
17FE
100
AcDbXrecord
280
     1
270
     1
271
     1
  0
XRECORD
  5
1803
102
{ACAD_REACTORS
330
17FE
102
}
330
17FE
100
AcDbXrecord
280
     1
270
     1
271
     1
  0
XRECORD
  5
1802
102
{ACAD_REACTORS
330
17FE
102
}
330
17FE
100
AcDbXrecord
280
     1
270
     1
271
     1
  0
XRECORD
  5
1804
102
{ACAD_REACTORS
330
17FE
102
}
330
17FE
100
AcDbXrecord
280
     1
270
     1
271
     1
  0
XRECORD
  5
1801
102
{ACAD_REACTORS
330
17FE
102
}
330
17FE
100
AcDbXrecord
280
     1
270
     1
271
     1
  0
XRECORD
  5
188D
102
{ACAD_REACTORS
330
17F6
102
}
330
17F6
100
AcDbXrecord
280
     1
102
MATERIAL
148
0.0
149
0.0
149
0.0
 93
        0
 94
      127
282
     0
 72
     0
 77
     0
171
     0
175
     0
179
     0
273
     0
  0
XRECORD
  5
17F8
102
{ACAD_REACTORS
330
17F6
102
}
330
17F6
100
AcDbXrecord
280
     1
270
     1
271
     1
  0
XRECORD
  5
17F7
102
{ACAD_REACTORS
330
17F6
102
}
330
17F6
100
AcDbXrecord
280
     1
270
     1
271
     1
  0
XRECORD
  5
17FB
102
{ACAD_REACTORS
330
17F6
102
}
330
17F6
100
AcDbXrecord
280
     1
270
     1
271
     1
  0
XRECORD
  5
17FA
102
{ACAD_REACTORS
330
17F6
102
}
330
17F6
100
AcDbXrecord
280
     1
270
     1
271
     1
  0
XRECORD
  5
17FC
102
{ACAD_REACTORS
330
17F6
102
}
330
17F6
100
AcDbXrecord
280
     1
270
     1
271
     1
  0
XRECORD
  5
17F9
102
{ACAD_REACTORS
330
17F6
102
}
330
17F6
100
AcDbXrecord
280
     1
270
     1
271
     1
  0
XRECORD
  5
188F
102
{ACAD_REACTORS
330
1806
102
}
330
1806
100
AcDbXrecord
280
     1
102
MATERIAL
148
0.0
149
0.0
149
0.0
 93
        0
 94
      127
282
     0
 72
     0
 77
     0
171
     0
175
     0
179
     0
273
     0
  0
XRECORD
  5
1808
102
{ACAD_REACTORS
330
1806
102
}
330
1806
100
AcDbXrecord
280
     1
270
     1
271
     1
  0
XRECORD
  5
1807
102
{ACAD_REACTORS
330
1806
102
}
330
1806
100
AcDbXrecord
280
     1
270
     1
271
     1
  0
XRECORD
  5
180B
102
{ACAD_REACTORS
330
1806
102
}
330
1806
100
AcDbXrecord
280
     1
270
     1
271
     1
  0
XRECORD
  5
180A
102
{ACAD_REACTORS
330
1806
102
}
330
1806
100
AcDbXrecord
280
     1
270
     1
271
     1
  0
XRECORD
  5
180C
102
{ACAD_REACTORS
330
1806
102
}
330
1806
100
AcDbXrecord
280
     1
270
     1
271
     1
  0
XRECORD
  5
1809
102
{ACAD_REACTORS
330
1806
102
}
330
1806
100
AcDbXrecord
280
     1
270
     1
271
     1
  0
CELLSTYLEMAP
  5
1864
102
{ACAD_REACTORS
330
1863
102
}
330
1863
100
AcDbCellStyleMap
 90
        3
300
CELLSTYLE
  1
TABLEFORMAT_BEGIN
 90
        5
170
     1
 91
        0
 92
    32768
 62
   257
 93
        1
300
CONTENTFORMAT
  1
CONTENTFORMAT_BEGIN
 90
        0
 91
        0
 92
      512
 93
        0
300

 40
0.0
140
1.0
 94
        5
 62
     0
340
11
144
6.0
309
CONTENTFORMAT_END
171
     1
301
MARGIN
  1
CELLMARGIN_BEGIN
 40
1.5
 40
1.5
 40
1.5
 40
1.5
 40
4.5
 40
4.5
309
CELLMARGIN_END
 94
        6
 95
        1
302
GRIDFORMAT
  1
GRIDFORMAT_BEGIN
 90
        0
 91
        1
 62
     0
 92
       -2
340
0
 93
        0
 40
1.125
309
GRIDFORMAT_END
 95
        2
302
GRIDFORMAT
  1
GRIDFORMAT_BEGIN
 90
        0
 91
        1
 62
     0
 92
       -2
340
0
 93
        0
 40
1.125
309
GRIDFORMAT_END
 95
        4
302
GRIDFORMAT
  1
GRIDFORMAT_BEGIN
 90
        0
 91
        1
 62
     0
 92
       -2
340
0
 93
        0
 40
1.125
309
GRIDFORMAT_END
 95
        8
302
GRIDFORMAT
  1
GRIDFORMAT_BEGIN
 90
        0
 91
        1
 62
     0
 92
       -2
340
0
 93
        0
 40
1.125
309
GRIDFORMAT_END
 95
       16
302
GRIDFORMAT
  1
GRIDFORMAT_BEGIN
 90
        0
 91
        1
 62
     0
 92
       -2
340
0
 93
        0
 40
1.125
309
GRIDFORMAT_END
 95
       32
302
GRIDFORMAT
  1
GRIDFORMAT_BEGIN
 90
        0
 91
        1
 62
     0
 92
       -2
340
0
 93
        0
 40
1.125
309
GRIDFORMAT_END
309
TABLEFORMAT_END
  1
CELLSTYLE_BEGIN
 90
        1
 91
        1
300
_TITLE
309
CELLSTYLE_END
300
CELLSTYLE
  1
TABLEFORMAT_BEGIN
 90
        5
170
     1
 91
        0
 92
        0
 62
   257
 93
        1
300
CONTENTFORMAT
  1
CONTENTFORMAT_BEGIN
 90
        0
 91
        0
 92
      512
 93
        0
300

 40
0.0
140
1.0
 94
        5
 62
     0
340
11
144
4.5
309
CONTENTFORMAT_END
171
     1
301
MARGIN
  1
CELLMARGIN_BEGIN
 40
1.5
 40
1.5
 40
1.5
 40
1.5
 40
4.5
 40
4.5
309
CELLMARGIN_END
 94
        6
 95
        1
302
GRIDFORMAT
  1
GRIDFORMAT_BEGIN
 90
        0
 91
        1
 62
     0
 92
       -2
340
0
 93
        0
 40
1.125
309
GRIDFORMAT_END
 95
        2
302
GRIDFORMAT
  1
GRIDFORMAT_BEGIN
 90
        0
 91
        1
 62
     0
 92
       -2
340
0
 93
        0
 40
1.125
309
GRIDFORMAT_END
 95
        4
302
GRIDFORMAT
  1
GRIDFORMAT_BEGIN
 90
        0
 91
        1
 62
     0
 92
       -2
340
0
 93
        0
 40
1.125
309
GRIDFORMAT_END
 95
        8
302
GRIDFORMAT
  1
GRIDFORMAT_BEGIN
 90
        0
 91
        1
 62
     0
 92
       -2
340
0
 93
        0
 40
1.125
309
GRIDFORMAT_END
 95
       16
302
GRIDFORMAT
  1
GRIDFORMAT_BEGIN
 90
        0
 91
        1
 62
     0
 92
       -2
340
0
 93
        0
 40
1.125
309
GRIDFORMAT_END
 95
       32
302
GRIDFORMAT
  1
GRIDFORMAT_BEGIN
 90
        0
 91
        1
 62
     0
 92
       -2
340
0
 93
        0
 40
1.125
309
GRIDFORMAT_END
309
TABLEFORMAT_END
  1
CELLSTYLE_BEGIN
 90
        2
 91
        1
300
_HEADER
309
CELLSTYLE_END
300
CELLSTYLE
  1
TABLEFORMAT_BEGIN
 90
        5
170
     1
 91
        0
 92
        0
 62
   257
 93
        1
300
CONTENTFORMAT
  1
CONTENTFORMAT_BEGIN
 90
        0
 91
        0
 92
      512
 93
        0
300

 40
0.0
140
1.0
 94
        2
 62
     0
340
11
144
4.5
309
CONTENTFORMAT_END
171
     1
301
MARGIN
  1
CELLMARGIN_BEGIN
 40
1.5
 40
1.5
 40
1.5
 40
1.5
 40
4.5
 40
4.5
309
CELLMARGIN_END
 94
        6
 95
        1
302
GRIDFORMAT
  1
GRIDFORMAT_BEGIN
 90
        0
 91
        1
 62
     0
 92
       -2
340
0
 93
        0
 40
1.125
309
GRIDFORMAT_END
 95
        2
302
GRIDFORMAT
  1
GRIDFORMAT_BEGIN
 90
        0
 91
        1
 62
     0
 92
       -2
340
0
 93
        0
 40
1.125
309
GRIDFORMAT_END
 95
        4
302
GRIDFORMAT
  1
GRIDFORMAT_BEGIN
 90
        0
 91
        1
 62
     0
 92
       -2
340
0
 93
        0
 40
1.125
309
GRIDFORMAT_END
 95
        8
302
GRIDFORMAT
  1
GRIDFORMAT_BEGIN
 90
        0
 91
        1
 62
     0
 92
       -2
340
0
 93
        0
 40
1.125
309
GRIDFORMAT_END
 95
       16
302
GRIDFORMAT
  1
GRIDFORMAT_BEGIN
 90
        0
 91
        1
 62
     0
 92
       -2
340
0
 93
        0
 40
1.125
309
GRIDFORMAT_END
 95
       32
302
GRIDFORMAT
  1
GRIDFORMAT_BEGIN
 90
        0
 91
        1
 62
     0
 92
       -2
340
0
 93
        0
 40
1.125
309
GRIDFORMAT_END
309
TABLEFORMAT_END
  1
CELLSTYLE_BEGIN
 90
        3
 91
        2
300
_DATA
309
CELLSTYLE_END
  0
XRECORD
  5
18B6
102
{ACAD_REACTORS
330
1863
102
}
330
1863
100
AcDbXrecord
280
     1
102
ACAD_ROUNDTRIP_PRE2007_TABLESTYLE
 90
      512
 91
        0
  1

 92
      512
 93
        0
  2

 94
      512
 95
        0
  3

  0
XRECORD
  5
189B
102
{ACAD_REACTORS
330
189A
102
}
330
189A
100
AcDbXrecord
280
     1
102
RTVSPropertyOp0
 70
     1
102
RTVSPropertyOp1
 70
     1
102
RTVSPropertyOp2
 70
     1
102
RTVSPropertyOp3
 70
     1
102
RTVSPropertyOp4
 70
     1
102
RTVSPropertyOp5
 70
     1
102
RTVSPropertyOp6
 70
     1
102
RTVSPropertyOp7
 70
     1
102
RTVSPropertyOp8
 70
     1
102
RTVSPropertyOp9
 70
     1
102
RTVSPropertyOp10
 70
     1
102
RTVSPropertyOp11
 70
     1
102
RTVSPropertyOp12
 70
     1
102
RTVSPropertyOp13
 70
     1
102
RTVSPropertyOp14
 70
     1
102
RTVSPropertyOp15
 70
     1
102
RTVSPropertyOp16
 70
     1
102
RTVSPropertyOp17
 70
     1
102
RTVSPropertyOp18
 70
     1
102
RTVSPropertyOp19
 70
     1
102
RTVSPropertyOp20
 70
     1
102
RTVSPropertyOp21
 70
     1
102
RTVSPropertyOp22
 70
     1
102
RTVSPropertyOp23
 70
     1
102
RTVSPropertyOp24
 70
     1
102
RTVSPropertyOp25
 70
     1
102
RTVSPropertyOp26
 70
     1
102
RTVSPropertyOp27
 70
     1
  0
XRECORD
  5
189F
102
{ACAD_REACTORS
330
189E
102
}
330
189E
100
AcDbXrecord
280
     1
102
RTVSPropertyOp0
 70
     1
102
RTVSPropertyOp1
 70
     1
102
RTVSPropertyOp2
 70
     1
102
RTVSPropertyOp3
 70
     1
102
RTVSPropertyOp4
 70
     1
102
RTVSPropertyOp5
 70
     1
102
RTVSPropertyOp6
 70
     1
102
RTVSPropertyOp7
 70
     1
102
RTVSPropertyOp8
 70
     1
102
RTVSPropertyOp9
 70
     1
102
RTVSPropertyOp10
 70
     1
102
RTVSPropertyOp11
 70
     1
102
RTVSPropertyOp12
 70
     1
102
RTVSPropertyOp13
 70
     1
102
RTVSPropertyOp14
 70
     1
102
RTVSPropertyOp15
 70
     1
102
RTVSPropertyOp16
 70
     1
102
RTVSPropertyOp17
 70
     1
102
RTVSPropertyOp18
 70
     1
102
RTVSPropertyOp19
 70
     1
102
RTVSPropertyOp20
 70
     1
102
RTVSPropertyOp21
 70
     1
102
RTVSPropertyOp22
 70
     1
102
RTVSPropertyOp23
 70
     1
102
RTVSPropertyOp24
 70
     1
102
RTVSPropertyOp25
 70
     1
102
RTVSPropertyOp26
 70
     1
102
RTVSPropertyOp27
 70
     1
  0
XRECORD
  5
189D
102
{ACAD_REACTORS
330
189C
102
}
330
189C
100
AcDbXrecord
280
     1
102
RTVSPropertyOp0
 70
     1
102
RTVSPropertyOp1
 70
     1
102
RTVSPropertyOp2
 70
     1
102
RTVSPropertyOp3
 70
     1
102
RTVSPropertyOp4
 70
     1
102
RTVSPropertyOp5
 70
     1
102
RTVSPropertyOp6
 70
     1
102
RTVSPropertyOp7
 70
     1
102
RTVSPropertyOp8
 70
     1
102
RTVSPropertyOp9
 70
     1
102
RTVSPropertyOp10
 70
     1
102
RTVSPropertyOp11
 70
     1
102
RTVSPropertyOp12
 70
     1
102
RTVSPropertyOp13
 70
     1
102
RTVSPropertyOp14
 70
     1
102
RTVSPropertyOp15
 70
     1
102
RTVSPropertyOp16
 70
     1
102
RTVSPropertyOp17
 70
     1
102
RTVSPropertyOp18
 70
     1
102
RTVSPropertyOp19
 70
     1
102
RTVSPropertyOp20
 70
     1
102
RTVSPropertyOp21
 70
     1
102
RTVSPropertyOp22
 70
     1
102
RTVSPropertyOp23
 70
     1
102
RTVSPropertyOp24
 70
     1
102
RTVSPropertyOp25
 70
     1
102
RTVSPropertyOp26
 70
     1
102
RTVSPropertyOp27
 70
     1
  0
XRECORD
  5
1899
102
{ACAD_REACTORS
330
1898
102
}
330
1898
100
AcDbXrecord
280
     1
102
RTVSPropertyOp0
 70
     1
102
RTVSPropertyOp1
 70
     1
102
RTVSPropertyOp2
 70
     1
102
RTVSPropertyOp3
 70
     1
102
RTVSPropertyOp4
 70
     1
102
RTVSPropertyOp5
 70
     1
102
RTVSPropertyOp6
 70
     1
102
RTVSPropertyOp7
 70
     1
102
RTVSPropertyOp8
 70
     1
102
RTVSPropertyOp9
 70
     1
102
RTVSPropertyOp10
 70
     1
102
RTVSPropertyOp11
 70
     1
102
RTVSPropertyOp12
 70
     1
102
RTVSPropertyOp13
 70
     1
102
RTVSPropertyOp14
 70
     1
102
RTVSPropertyOp15
 70
     1
102
RTVSPropertyOp16
 70
     1
102
RTVSPropertyOp17
 70
     1
102
RTVSPropertyOp18
 70
     1
102
RTVSPropertyOp19
 70
     1
102
RTVSPropertyOp20
 70
     1
102
RTVSPropertyOp21
 70
     1
102
RTVSPropertyOp22
 70
     1
102
RTVSPropertyOp23
 70
     1
102
RTVSPropertyOp24
 70
     1
102
RTVSPropertyOp25
 70
     1
102
RTVSPropertyOp26
 70
     1
102
RTVSPropertyOp27
 70
     1
  0
XRECORD
  5
18A7
102
{ACAD_REACTORS
330
18A6
102
}
330
18A6
100
AcDbXrecord
280
     1
102
RTVSPropertyOp0
 70
     1
102
RTVSPropertyOp1
 70
     1
102
RTVSPropertyOp2
 70
     1
102
RTVSPropertyOp3
 70
     1
102
RTVSPropertyOp4
 70
     1
102
RTVSPropertyOp5
 70
     1
102
RTVSPropertyOp6
 70
     1
102
RTVSPropertyOp7
 70
     1
102
RTVSPropertyOp8
 70
     1
102
RTVSPropertyOp9
 70
     1
102
RTVSPropertyOp10
 70
     1
102
RTVSPropertyOp11
 70
     1
102
RTVSPropertyOp12
 70
     1
102
RTVSPropertyOp13
 70
     1
102
RTVSPropertyOp14
 70
     1
102
RTVSPropertyOp15
 70
     1
102
RTVSPropertyOp16
 70
     1
102
RTVSPropertyOp17
 70
     1
102
RTVSPropertyOp18
 70
     1
102
RTVSPropertyOp19
 70
     1
102
RTVSPropertyOp20
 70
     1
102
RTVSPropertyOp21
 70
     1
102
RTVSPropertyOp22
 70
     1
102
RTVSPropertyOp23
 70
     1
102
RTVSPropertyOp24
 70
     1
102
RTVSPropertyOp25
 70
     1
102
RTVSPropertyOp26
 70
     1
102
RTVSPropertyOp27
 70
     1
  0
XRECORD
  5
18AF
102
{ACAD_REACTORS
330
18AE
102
}
330
18AE
100
AcDbXrecord
280
     1
102
RTVSPropertyOp0
 70
     1
102
RTVSPropertyOp1
 70
     1
102
RTVSPropertyOp2
 70
     1
102
RTVSPropertyOp3
 70
     1
102
RTVSPropertyOp4
 70
     1
102
RTVSPropertyOp5
 70
     1
102
RTVSPropertyOp6
 70
     1
102
RTVSPropertyOp7
 70
     1
102
RTVSPropertyOp8
 70
     1
102
RTVSPropertyOp9
 70
     1
102
RTVSPropertyOp10
 70
     1
102
RTVSPropertyOp11
 70
     1
102
RTVSPropertyOp12
 70
     1
102
RTVSPropertyOp13
 70
     1
102
RTVSPropertyOp14
 70
     1
102
RTVSPropertyOp15
 70
     1
102
RTVSPropertyOp16
 70
     1
102
RTVSPropertyOp17
 70
     1
102
RTVSPropertyOp18
 70
     1
102
RTVSPropertyOp19
 70
     1
102
RTVSPropertyOp20
 70
     1
102
RTVSPropertyOp21
 70
     1
102
RTVSPropertyOp22
 70
     1
102
RTVSPropertyOp23
 70
     1
102
RTVSPropertyOp24
 70
     1
102
RTVSPropertyOp25
 70
     1
102
RTVSPropertyOp26
 70
     1
102
RTVSPropertyOp27
 70
     1
  0
XRECORD
  5
18A1
102
{ACAD_REACTORS
330
18A0
102
}
330
18A0
100
AcDbXrecord
280
     1
102
RTVSPropertyOp0
 70
     1
102
RTVSPropertyOp1
 70
     1
102
RTVSPropertyOp2
 70
     1
102
RTVSPropertyOp3
 70
     1
102
RTVSPropertyOp4
 70
     1
102
RTVSPropertyOp5
 70
     1
102
RTVSPropertyOp6
 70
     1
102
RTVSPropertyOp7
 70
     1
102
RTVSPropertyOp8
 70
     1
102
RTVSPropertyOp9
 70
     1
102
RTVSPropertyOp10
 70
     1
102
RTVSPropertyOp11
 70
     1
102
RTVSPropertyOp12
 70
     1
102
RTVSPropertyOp13
 70
     1
102
RTVSPropertyOp14
 70
     1
102
RTVSPropertyOp15
 70
     1
102
RTVSPropertyOp16
 70
     1
102
RTVSPropertyOp17
 70
     1
102
RTVSPropertyOp18
 70
     1
102
RTVSPropertyOp19
 70
     1
102
RTVSPropertyOp20
 70
     1
102
RTVSPropertyOp21
 70
     1
102
RTVSPropertyOp22
 70
     1
102
RTVSPropertyOp23
 70
     1
102
RTVSPropertyOp24
 70
     1
102
RTVSPropertyOp25
 70
     1
102
RTVSPropertyOp26
 70
     1
102
RTVSPropertyOp27
 70
     1
  0
XRECORD
  5
18A5
102
{ACAD_REACTORS
330
18A4
102
}
330
18A4
100
AcDbXrecord
280
     1
102
RTVSPropertyOp0
 70
     1
102
RTVSPropertyOp1
 70
     1
102
RTVSPropertyOp2
 70
     1
102
RTVSPropertyOp3
 70
     1
102
RTVSPropertyOp4
 70
     1
102
RTVSPropertyOp5
 70
     1
102
RTVSPropertyOp6
 70
     1
102
RTVSPropertyOp7
 70
     1
102
RTVSPropertyOp8
 70
     1
102
RTVSPropertyOp9
 70
     1
102
RTVSPropertyOp10
 70
     1
102
RTVSPropertyOp11
 70
     1
102
RTVSPropertyOp12
 70
     1
102
RTVSPropertyOp13
 70
     1
102
RTVSPropertyOp14
 70
     1
102
RTVSPropertyOp15
 70
     1
102
RTVSPropertyOp16
 70
     1
102
RTVSPropertyOp17
 70
     1
102
RTVSPropertyOp18
 70
     1
102
RTVSPropertyOp19
 70
     1
102
RTVSPropertyOp20
 70
     1
102
RTVSPropertyOp21
 70
     1
102
RTVSPropertyOp22
 70
     1
102
RTVSPropertyOp23
 70
     1
102
RTVSPropertyOp24
 70
     1
102
RTVSPropertyOp25
 70
     1
102
RTVSPropertyOp26
 70
     1
102
RTVSPropertyOp27
 70
     1
  0
XRECORD
  5
18B5
102
{ACAD_REACTORS
330
18B4
102
}
330
18B4
100
AcDbXrecord
280
     1
102
RTVSPropertyOp0
 70
     0
102
RTVSPropertyOp1
 70
     0
102
RTVSPropertyOp2
 70
     0
102
RTVSPropertyOp3
 70
     0
102
RTVSPropertyOp4
 70
     0
102
RTVSPropertyOp5
 70
     0
102
RTVSPropertyOp6
 70
     0
102
RTVSPropertyOp7
 70
     0
102
RTVSPropertyOp8
 70
     0
102
RTVSPropertyOp9
 70
     0
102
RTVSPropertyOp10
 70
     0
102
RTVSPropertyOp11
 70
     0
102
RTVSPropertyOp12
 70
     0
102
RTVSPropertyOp13
 70
     0
102
RTVSPropertyOp14
 70
     2
102
RTVSPropertyOp15
 70
     0
102
RTVSPropertyOp16
 70
     0
102
RTVSPropertyOp17
 70
     0
102
RTVSPropertyOp18
 70
     0
102
RTVSPropertyOp19
 70
     0
102
RTVSPropertyOp20
 70
     0
102
RTVSPropertyOp21
 70
     0
102
RTVSPropertyOp22
 70
     0
102
RTVSPropertyOp23
 70
     0
102
RTVSPropertyOp24
 70
     0
102
RTVSPropertyOp25
 70
     0
102
RTVSPropertyOp26
 70
     0
102
RTVSPropertyOp27
 70
     0
  0
XRECORD
  5
18AD
102
{ACAD_REACTORS
330
18AC
102
}
330
18AC
100
AcDbXrecord
280
     1
102
RTVSPropertyOp0
 70
     1
102
RTVSPropertyOp1
 70
     1
102
RTVSPropertyOp2
 70
     1
102
RTVSPropertyOp3
 70
     1
102
RTVSPropertyOp4
 70
     1
102
RTVSPropertyOp5
 70
     1
102
RTVSPropertyOp6
 70
     1
102
RTVSPropertyOp7
 70
     1
102
RTVSPropertyOp8
 70
     1
102
RTVSPropertyOp9
 70
     1
102
RTVSPropertyOp10
 70
     1
102
RTVSPropertyOp11
 70
     1
102
RTVSPropertyOp12
 70
     1
102
RTVSPropertyOp13
 70
     1
102
RTVSPropertyOp14
 70
     1
102
RTVSPropertyOp15
 70
     1
102
RTVSPropertyOp16
 70
     1
102
RTVSPropertyOp17
 70
     1
102
RTVSPropertyOp18
 70
     1
102
RTVSPropertyOp19
 70
     1
102
RTVSPropertyOp20
 70
     1
102
RTVSPropertyOp21
 70
     1
102
RTVSPropertyOp22
 70
     1
102
RTVSPropertyOp23
 70
     1
102
RTVSPropertyOp24
 70
     1
102
RTVSPropertyOp25
 70
     1
102
RTVSPropertyOp26
 70
     1
102
RTVSPropertyOp27
 70
     1
  0
XRECORD
  5
1891
102
{ACAD_REACTORS
330
1890
102
}
330
1890
100
AcDbXrecord
280
     1
102
RTVSPropertyOp0
 70
     1
102
RTVSPropertyOp1
 70
     1
102
RTVSPropertyOp2
 70
     1
102
RTVSPropertyOp3
 70
     1
102
RTVSPropertyOp4
 70
     1
102
RTVSPropertyOp5
 70
     1
102
RTVSPropertyOp6
 70
     1
102
RTVSPropertyOp7
 70
     1
102
RTVSPropertyOp8
 70
     1
102
RTVSPropertyOp9
 70
     1
102
RTVSPropertyOp10
 70
     1
102
RTVSPropertyOp11
 70
     1
102
RTVSPropertyOp12
 70
     1
102
RTVSPropertyOp13
 70
     1
102
RTVSPropertyOp14
 70
     1
102
RTVSPropertyOp15
 70
     1
102
RTVSPropertyOp16
 70
     1
102
RTVSPropertyOp17
 70
     1
102
RTVSPropertyOp18
 70
     1
102
RTVSPropertyOp19
 70
     1
102
RTVSPropertyOp20
 70
     1
102
RTVSPropertyOp21
 70
     1
102
RTVSPropertyOp22
 70
     1
102
RTVSPropertyOp23
 70
     1
102
RTVSPropertyOp24
 70
     1
102
RTVSPropertyOp25
 70
     1
102
RTVSPropertyOp26
 70
     1
102
RTVSPropertyOp27
 70
     1
  0
XRECORD
  5
1893
102
{ACAD_REACTORS
330
1892
102
}
330
1892
100
AcDbXrecord
280
     1
102
RTVSPropertyOp0
 70
     1
102
RTVSPropertyOp1
 70
     1
102
RTVSPropertyOp2
 70
     1
102
RTVSPropertyOp3
 70
     1
102
RTVSPropertyOp4
 70
     1
102
RTVSPropertyOp5
 70
     1
102
RTVSPropertyOp6
 70
     1
102
RTVSPropertyOp7
 70
     1
102
RTVSPropertyOp8
 70
     1
102
RTVSPropertyOp9
 70
     1
102
RTVSPropertyOp10
 70
     1
102
RTVSPropertyOp11
 70
     1
102
RTVSPropertyOp12
 70
     1
102
RTVSPropertyOp13
 70
     1
102
RTVSPropertyOp14
 70
     1
102
RTVSPropertyOp15
 70
     1
102
RTVSPropertyOp16
 70
     1
102
RTVSPropertyOp17
 70
     1
102
RTVSPropertyOp18
 70
     1
102
RTVSPropertyOp19
 70
     1
102
RTVSPropertyOp20
 70
     1
102
RTVSPropertyOp21
 70
     1
102
RTVSPropertyOp22
 70
     1
102
RTVSPropertyOp23
 70
     1
102
RTVSPropertyOp24
 70
     1
102
RTVSPropertyOp25
 70
     1
102
RTVSPropertyOp26
 70
     1
102
RTVSPropertyOp27
 70
     1
  0
XRECORD
  5
1895
102
{ACAD_REACTORS
330
1894
102
}
330
1894
100
AcDbXrecord
280
     1
102
RTVSPropertyOp0
 70
     1
102
RTVSPropertyOp1
 70
     1
102
RTVSPropertyOp2
 70
     1
102
RTVSPropertyOp3
 70
     1
102
RTVSPropertyOp4
 70
     1
102
RTVSPropertyOp5
 70
     1
102
RTVSPropertyOp6
 70
     1
102
RTVSPropertyOp7
 70
     1
102
RTVSPropertyOp8
 70
     1
102
RTVSPropertyOp9
 70
     1
102
RTVSPropertyOp10
 70
     1
102
RTVSPropertyOp11
 70
     1
102
RTVSPropertyOp12
 70
     1
102
RTVSPropertyOp13
 70
     1
102
RTVSPropertyOp14
 70
     1
102
RTVSPropertyOp15
 70
     1
102
RTVSPropertyOp16
 70
     1
102
RTVSPropertyOp17
 70
     1
102
RTVSPropertyOp18
 70
     1
102
RTVSPropertyOp19
 70
     1
102
RTVSPropertyOp20
 70
     1
102
RTVSPropertyOp21
 70
     1
102
RTVSPropertyOp22
 70
     1
102
RTVSPropertyOp23
 70
     1
102
RTVSPropertyOp24
 70
     1
102
RTVSPropertyOp25
 70
     1
102
RTVSPropertyOp26
 70
     1
102
RTVSPropertyOp27
 70
     1
  0
XRECORD
  5
1897
102
{ACAD_REACTORS
330
1896
102
}
330
1896
100
AcDbXrecord
280
     1
102
RTVSPropertyOp0
 70
     1
102
RTVSPropertyOp1
 70
     1
102
RTVSPropertyOp2
 70
     1
102
RTVSPropertyOp3
 70
     1
102
RTVSPropertyOp4
 70
     1
102
RTVSPropertyOp5
 70
     1
102
RTVSPropertyOp6
 70
     1
102
RTVSPropertyOp7
 70
     1
102
RTVSPropertyOp8
 70
     1
102
RTVSPropertyOp9
 70
     1
102
RTVSPropertyOp10
 70
     1
102
RTVSPropertyOp11
 70
     1
102
RTVSPropertyOp12
 70
     1
102
RTVSPropertyOp13
 70
     1
102
RTVSPropertyOp14
 70
     1
102
RTVSPropertyOp15
 70
     1
102
RTVSPropertyOp16
 70
     1
102
RTVSPropertyOp17
 70
     1
102
RTVSPropertyOp18
 70
     1
102
RTVSPropertyOp19
 70
     1
102
RTVSPropertyOp20
 70
     1
102
RTVSPropertyOp21
 70
     1
102
RTVSPropertyOp22
 70
     1
102
RTVSPropertyOp23
 70
     1
102
RTVSPropertyOp24
 70
     1
102
RTVSPropertyOp25
 70
     1
102
RTVSPropertyOp26
 70
     1
102
RTVSPropertyOp27
 70
     1
  0
XRECORD
  5
18B1
102
{ACAD_REACTORS
330
18B0
102
}
330
18B0
100
AcDbXrecord
280
     1
102
RTVSPropertyOp0
 70
     0
102
RTVSPropertyOp1
 70
     0
102
RTVSPropertyOp2
 70
     0
102
RTVSPropertyOp3
 70
     0
102
RTVSPropertyOp4
 70
     0
102
RTVSPropertyOp5
 70
     0
102
RTVSPropertyOp6
 70
     0
102
RTVSPropertyOp7
 70
     0
102
RTVSPropertyOp8
 70
     0
102
RTVSPropertyOp9
 70
     0
102
RTVSPropertyOp10
 70
     0
102
RTVSPropertyOp11
 70
     0
102
RTVSPropertyOp12
 70
     0
102
RTVSPropertyOp13
 70
     0
102
RTVSPropertyOp14
 70
     2
102
RTVSPropertyOp15
 70
     0
102
RTVSPropertyOp16
 70
     0
102
RTVSPropertyOp17
 70
     0
102
RTVSPropertyOp18
 70
     0
102
RTVSPropertyOp19
 70
     0
102
RTVSPropertyOp20
 70
     0
102
RTVSPropertyOp21
 70
     0
102
RTVSPropertyOp22
 70
     0
102
RTVSPropertyOp23
 70
     0
102
RTVSPropertyOp24
 70
     0
102
RTVSPropertyOp25
 70
     0
102
RTVSPropertyOp26
 70
     0
102
RTVSPropertyOp27
 70
     0
  0
XRECORD
  5
18AB
102
{ACAD_REACTORS
330
18AA
102
}
330
18AA
100
AcDbXrecord
280
     1
102
RTVSPropertyOp0
 70
     1
102
RTVSPropertyOp1
 70
     1
102
RTVSPropertyOp2
 70
     1
102
RTVSPropertyOp3
 70
     1
102
RTVSPropertyOp4
 70
     1
102
RTVSPropertyOp5
 70
     1
102
RTVSPropertyOp6
 70
     1
102
RTVSPropertyOp7
 70
     1
102
RTVSPropertyOp8
 70
     1
102
RTVSPropertyOp9
 70
     1
102
RTVSPropertyOp10
 70
     1
102
RTVSPropertyOp11
 70
     1
102
RTVSPropertyOp12
 70
     1
102
RTVSPropertyOp13
 70
     1
102
RTVSPropertyOp14
 70
     1
102
RTVSPropertyOp15
 70
     1
102
RTVSPropertyOp16
 70
     1
102
RTVSPropertyOp17
 70
     1
102
RTVSPropertyOp18
 70
     1
102
RTVSPropertyOp19
 70
     1
102
RTVSPropertyOp20
 70
     1
102
RTVSPropertyOp21
 70
     1
102
RTVSPropertyOp22
 70
     1
102
RTVSPropertyOp23
 70
     1
102
RTVSPropertyOp24
 70
     1
102
RTVSPropertyOp25
 70
     1
102
RTVSPropertyOp26
 70
     1
102
RTVSPropertyOp27
 70
     1
  0
XRECORD
  5
18B3
102
{ACAD_REACTORS
330
18B2
102
}
330
18B2
100
AcDbXrecord
280
     1
102
RTVSPropertyOp0
 70
     0
102
RTVSPropertyOp1
 70
     0
102
RTVSPropertyOp2
 70
     0
102
RTVSPropertyOp3
 70
     0
102
RTVSPropertyOp4
 70
     0
102
RTVSPropertyOp5
 70
     0
102
RTVSPropertyOp6
 70
     0
102
RTVSPropertyOp7
 70
     0
102
RTVSPropertyOp8
 70
     0
102
RTVSPropertyOp9
 70
     0
102
RTVSPropertyOp10
 70
     0
102
RTVSPropertyOp11
 70
     0
102
RTVSPropertyOp12
 70
     0
102
RTVSPropertyOp13
 70
     0
102
RTVSPropertyOp14
 70
     2
102
RTVSPropertyOp15
 70
     0
102
RTVSPropertyOp16
 70
     0
102
RTVSPropertyOp17
 70
     0
102
RTVSPropertyOp18
 70
     0
102
RTVSPropertyOp19
 70
     0
102
RTVSPropertyOp20
 70
     0
102
RTVSPropertyOp21
 70
     0
102
RTVSPropertyOp22
 70
     0
102
RTVSPropertyOp23
 70
     0
102
RTVSPropertyOp24
 70
     0
102
RTVSPropertyOp25
 70
     0
102
RTVSPropertyOp26
 70
     0
102
RTVSPropertyOp27
 70
     0
  0
XRECORD
  5
18A3
102
{ACAD_REACTORS
330
18A2
102
}
330
18A2
100
AcDbXrecord
280
     1
102
RTVSPropertyOp0
 70
     1
102
RTVSPropertyOp1
 70
     1
102
RTVSPropertyOp2
 70
     1
102
RTVSPropertyOp3
 70
     1
102
RTVSPropertyOp4
 70
     1
102
RTVSPropertyOp5
 70
     1
102
RTVSPropertyOp6
 70
     1
102
RTVSPropertyOp7
 70
     1
102
RTVSPropertyOp8
 70
     1
102
RTVSPropertyOp9
 70
     1
102
RTVSPropertyOp10
 70
     1
102
RTVSPropertyOp11
 70
     1
102
RTVSPropertyOp12
 70
     1
102
RTVSPropertyOp13
 70
     1
102
RTVSPropertyOp14
 70
     1
102
RTVSPropertyOp15
 70
     1
102
RTVSPropertyOp16
 70
     1
102
RTVSPropertyOp17
 70
     1
102
RTVSPropertyOp18
 70
     1
102
RTVSPropertyOp19
 70
     1
102
RTVSPropertyOp20
 70
     1
102
RTVSPropertyOp21
 70
     1
102
RTVSPropertyOp22
 70
     1
102
RTVSPropertyOp23
 70
     1
102
RTVSPropertyOp24
 70
     1
102
RTVSPropertyOp25
 70
     1
102
RTVSPropertyOp26
 70
     1
102
RTVSPropertyOp27
 70
     1
  0
XRECORD
  5
18A9
102
{ACAD_REACTORS
330
18A8
102
}
330
18A8
100
AcDbXrecord
280
     1
102
RTVSPropertyOp0
 70
     1
102
RTVSPropertyOp1
 70
     1
102
RTVSPropertyOp2
 70
     1
102
RTVSPropertyOp3
 70
     1
102
RTVSPropertyOp4
 70
     1
102
RTVSPropertyOp5
 70
     1
102
RTVSPropertyOp6
 70
     1
102
RTVSPropertyOp7
 70
     1
102
RTVSPropertyOp8
 70
     1
102
RTVSPropertyOp9
 70
     1
102
RTVSPropertyOp10
 70
     1
102
RTVSPropertyOp11
 70
     1
102
RTVSPropertyOp12
 70
     1
102
RTVSPropertyOp13
 70
     1
102
RTVSPropertyOp14
 70
     1
102
RTVSPropertyOp15
 70
     1
102
RTVSPropertyOp16
 70
     1
102
RTVSPropertyOp17
 70
     1
102
RTVSPropertyOp18
 70
     1
102
RTVSPropertyOp19
 70
     1
102
RTVSPropertyOp20
 70
     1
102
RTVSPropertyOp21
 70
     1
102
RTVSPropertyOp22
 70
     1
102
RTVSPropertyOp23
 70
     1
102
RTVSPropertyOp24
 70
     1
102
RTVSPropertyOp25
 70
     1
102
RTVSPropertyOp26
 70
     1
102
RTVSPropertyOp27
 70
     1
  0
ENDSEC
  0
EOF
