  0
SECTION
  2
HEADER
  9
$ACADVER
  1
AC1015
  9
$ACADMAINTVER
 70
    20
  9
$DWGCODEPAGE
  3
ANSI_1252
  9
$INSBASE
 10
0.0
 20
0.0
 30
0.0
  9
$EXTMIN
 10
23.02204589756852
 20
153.5453753242548
 30
0.0
  9
$EXTMAX
 10
25.89724754008129
 20
154.1353753242549
 30
0.0
  9
$LIMMIN
 10
0.0
 20
0.0
  9
$LIMMAX
 10
420.0
 20
297.0
  9
$ORTHOMODE
 70
     1
  9
$REGENMODE
 70
     1
  9
$FILLMODE
 70
     1
  9
$QTEXTMODE
 70
     0
  9
$MIRRTEXT
 70
     1
  9
$LTSCALE
 40
1.0
  9
$ATTMODE
 70
     1
  9
$TEXTSIZE
 40
2.5
  9
$TRACEWID
 40
1.0
  9
$TEXTSTYLE
  7
SANINDUSA
  9
$CLAYER
  8
cotas
  9
$CELTYPE
  6
ByLayer
  9
$CECOLOR
 62
   256
  9
$CELTSCALE
 40
1.0
  9
$DISPSILH
 70
     0
  9
$DIMSCALE
 40
1.0
  9
$DIMASZ
 40
2.0
  9
$DIMEXO
 40
1.0
  9
$DIMDLI
 40
1.0
  9
$DIMRND
 40
0.0
  9
$DIMDLE
 40
0.0
  9
$DIMEXE
 40
1.0
  9
$DIMTP
 40
0.0
  9
$DIMTM
 40
0.0
  9
$DIMTXT
 40
2.0
  9
$DIMCEN
 40
0.0
  9
$DIMTSZ
 40
0.0
  9
$DIMTOL
 70
     0
  9
$DIMLIM
 70
     0
  9
$DIMTIH
 70
     0
  9
$DIMTOH
 70
     0
  9
$DIMSE1
 70
     0
  9
$DIMSE2
 70
     0
  9
$DIMTAD
 70
     1
  9
$DIMZIN
 70
     8
  9
$DIMBLK
  1

  9
$DIMASO
 70
     1
  9
$DIMSHO
 70
     1
  9
$DIMPOST
  1

  9
$DIMAPOST
  1

  9
$DIMALT
 70
     0
  9
$DIMALTD
 70
     3
  9
$DIMALTF
 40
0.03937007874016
  9
$DIMLFAC
 40
1.0
  9
$DIMTOFL
 70
     1
  9
$DIMTVP
 40
0.0
  9
$DIMTIX
 70
     0
  9
$DIMSOXD
 70
     0
  9
$DIMSAH
 70
     0
  9
$DIMBLK1
  1

  9
$DIMBLK2
  1

  9
$DIMSTYLE
  2
SANINDUSA
  9
$DIMCLRD
 70
   256
  9
$DIMCLRE
 70
   256
  9
$DIMCLRT
 70
   256
  9
$DIMTFAC
 40
1.0
  9
$DIMGAP
 40
1.0
  9
$DIMJUST
 70
     0
  9
$DIMSD1
 70
     0
  9
$DIMSD2
 70
     0
  9
$DIMTOLJ
 70
     0
  9
$DIMTZIN
 70
     8
  9
$DIMALTZ
 70
     0
  9
$DIMALTTZ
 70
     0
  9
$DIMUPT
 70
     0
  9
$DIMDEC
 70
     1
  9
$DIMTDEC
 70
     1
  9
$DIMALTU
 70
     2
  9
$DIMALTTD
 70
     3
  9
$DIMTXSTY
  7
SANINDUSA
  9
$DIMAUNIT
 70
     0
  9
$DIMADEC
 70
     1
  9
$DIMALTRND
 40
0.0
  9
$DIMAZIN
 70
     0
  9
$DIMDSEP
 70
    44
  9
$DIMATFIT
 70
     3
  9
$DIMFRAC
 70
     0
  9
$DIMLDRBLK
  1

  9
$DIMLUNIT
 70
     2
  9
$DIMLWD
 70
    -1
  9
$DIMLWE
 70
    -1
  9
$DIMTMOVE
 70
     0
  9
$LUNITS
 70
     2
  9
$LUPREC
 70
     4
  9
$SKETCHINC
 40
1.0
  9
$FILLETRAD
 40
0.0
  9
$AUNITS
 70
     0
  9
$AUPREC
 70
     0
  9
$MENU
  1
.
  9
$ELEVATION
 40
0.0
  9
$PELEVATION
 40
0.0
  9
$THICKNESS
 40
0.0
  9
$LIMCHECK
 70
     0
  9
$CHAMFERA
 40
10.0
  9
$CHAMFERB
 40
10.0
  9
$CHAMFERC
 40
20.0
  9
$CHAMFERD
 40
0.0
  9
$SKPOLY
 70
     0
  9
$TDCREATE
 40
2453528.458075440
  9
$TDUCREATE
 40
2453528.416408773
  9
$TDUPDATE
 40
2456146.445597512
  9
$TDUUPDATE
 40
2456146.403930845
  9
$TDINDWG
 40
0.0026719792
  9
$TDUSRTIMER
 40
0.0026718056
  9
$USRTIMER
 70
     1
  9
$ANGBASE
 50
0.0
  9
$ANGDIR
 70
     0
  9
$PDMODE
 70
     0
  9
$PDSIZE
 40
0.0
  9
$PLINEWID
 40
0.0
  9
$SPLFRAME
 70
     0
  9
$SPLINETYPE
 70
     6
  9
$SPLINESEGS
 70
     8
  9
$HANDSEED
  5
E76
  9
$SURFTAB1
 70
     6
  9
$SURFTAB2
 70
     6
  9
$SURFTYPE
 70
     6
  9
$SURFU
 70
     6
  9
$SURFV
 70
     6
  9
$UCSBASE
  2

  9
$UCSNAME
  2

  9
$UCSORG
 10
0.0
 20
0.0
 30
0.0
  9
$UCSXDIR
 10
1.0
 20
0.0
 30
0.0
  9
$UCSYDIR
 10
0.0
 20
1.0
 30
0.0
  9
$UCSORTHOREF
  2

  9
$UCSORTHOVIEW
 70
     0
  9
$UCSORGTOP
 10
0.0
 20
0.0
 30
0.0
  9
$UCSORGBOTTOM
 10
0.0
 20
0.0
 30
0.0
  9
$UCSORGLEFT
 10
0.0
 20
0.0
 30
0.0
  9
$UCSORGRIGHT
 10
0.0
 20
0.0
 30
0.0
  9
$UCSORGFRONT
 10
0.0
 20
0.0
 30
0.0
  9
$UCSORGBACK
 10
0.0
 20
0.0
 30
0.0
  9
$PUCSBASE
  2

  9
$PUCSNAME
  2

  9
$PUCSORG
 10
0.0
 20
0.0
 30
0.0
  9
$PUCSXDIR
 10
1.0
 20
0.0
 30
0.0
  9
$PUCSYDIR
 10
0.0
 20
1.0
 30
0.0
  9
$PUCSORTHOREF
  2

  9
$PUCSORTHOVIEW
 70
     0
  9
$PUCSORGTOP
 10
0.0
 20
0.0
 30
0.0
  9
$PUCSORGBOTTOM
 10
0.0
 20
0.0
 30
0.0
  9
$PUCSORGLEFT
 10
0.0
 20
0.0
 30
0.0
  9
$PUCSORGRIGHT
 10
0.0
 20
0.0
 30
0.0
  9
$PUCSORGFRONT
 10
0.0
 20
0.0
 30
0.0
  9
$PUCSORGBACK
 10
0.0
 20
0.0
 30
0.0
  9
$USERI1
 70
     0
  9
$USERI2
 70
     0
  9
$USERI3
 70
     0
  9
$USERI4
 70
     0
  9
$USERI5
 70
     0
  9
$USERR1
 40
0.0
  9
$USERR2
 40
0.0
  9
$USERR3
 40
0.0
  9
$USERR4
 40
0.0
  9
$USERR5
 40
0.0
  9
$WORLDVIEW
 70
     1
  9
$SHADEDGE
 70
     3
  9
$SHADEDIF
 70
    70
  9
$TILEMODE
 70
     1
  9
$MAXACTVP
 70
    64
  9
$PINSBASE
 10
0.0
 20
0.0
 30
0.0
  9
$PLIMCHECK
 70
     0
  9
$PEXTMIN
 10
1.000000000000000E+20
 20
1.000000000000000E+20
 30
1.000000000000000E+20
  9
$PEXTMAX
 10
-1.000000000000000E+20
 20
-1.000000000000000E+20
 30
-1.000000000000000E+20
  9
$PLIMMIN
 10
0.0
 20
0.0
  9
$PLIMMAX
 10
420.0
 20
297.0
  9
$UNITMODE
 70
     0
  9
$VISRETAIN
 70
     1
  9
$PLINEGEN
 70
     0
  9
$PSLTSCALE
 70
     1
  9
$TREEDEPTH
 70
  3020
  9
$CMLSTYLE
  2
Standard
  9
$CMLJUST
 70
     0
  9
$CMLSCALE
 40
20.0
  9
$PROXYGRAPHICS
 70
     1
  9
$MEASUREMENT
 70
     1
  9
$CELWEIGHT
370
    -1
  9
$ENDCAPS
280
     0
  9
$JOINSTYLE
280
     0
  9
$LWDISPLAY
290
     0
  9
$INSUNITS
 70
     4
  9
$HYPERLINKBASE
  1

  9
$STYLESHEET
  1
monochrome.ctb
  9
$XEDIT
290
     1
  9
$CEPSNTYPE
380
     0
  9
$PSTYLEMODE
290
     1
  9
$FINGERPRINTGUID
  2
{437B2326-8F81-43CC-9D43-4E1687DC83B1}
  9
$VERSIONGUID
  2
{EEF27457-C528-4414-B683-5D8A2A86F32E}
  9
$EXTNAMES
290
     1
  9
$PSVPSCALE
 40
0.0
  9
$OLESTARTUP
290
     0
  0
ENDSEC
  0
SECTION
  2
CLASSES
  0
CLASS
  1
ACDBDICTIONARYWDFLT
  2
AcDbDictionaryWithDefault
  3
ObjectDBX Classes
 90
        0
280
     0
281
     0
  0
CLASS
  1
ACDBPLACEHOLDER
  2
AcDbPlaceHolder
  3
ObjectDBX Classes
 90
        0
280
     0
281
     0
  0
CLASS
  1
LAYOUT
  2
AcDbLayout
  3
ObjectDBX Classes
 90
        0
280
     0
281
     0
  0
CLASS
  1
DICTIONARYVAR
  2
AcDbDictionaryVar
  3
ObjectDBX Classes
 90
        0
280
     0
281
     0
  0
CLASS
  1
DIMASSOC
  2
AcDbDimAssoc
  3
"AcDbDimAssoc|Product Desc:     AcDim ARX App For Dimension|Company:          Autodesk, Inc.|WEB Address:      www.autodesk.com"
 90
    32768
280
     0
281
     0
  0
CLASS
  1
TABLESTYLE
  2
AcDbTableStyle
  3
ObjectDBX Classes
 90
     4095
280
     0
281
     0
  0
CLASS
  1
MATERIAL
  2
AcDbMaterial
  3
ObjectDBX Classes
 90
     1153
280
     0
281
     0
  0
CLASS
  1
VISUALSTYLE
  2
AcDbVisualStyle
  3
ObjectDBX Classes
 90
     4095
280
     0
281
     0
  0
CLASS
  1
SCALE
  2
AcDbScale
  3
ObjectDBX Classes
 90
     1153
280
     0
281
     0
  0
CLASS
  1
MLEADERSTYLE
  2
AcDbMLeaderStyle
  3
ACDB_MLEADERSTYLE_CLASS
 90
     4095
280
     0
281
     0
  0
CLASS
  1
CELLSTYLEMAP
  2
AcDbCellStyleMap
  3
ObjectDBX Classes
 90
     1152
280
     0
281
     0
  0
ENDSEC
  0
SECTION
  2
TABLES
  0
TABLE
  2
VPORT
  5
8
330
0
100
AcDbSymbolTable
 70
     1
  0
VPORT
  5
DCD
330
8
100
AcDbSymbolTableRecord
100
AcDbViewportTableRecord
  2
*Active
 70
     0
 10
0.0
 20
0.0
 11
1.0
 21
1.0
 12
24.47047416425143
 22
154.0534975275065
 13
0.0
 23
0.0
 14
10.0
 24
10.0
 15
10.0
 25
10.0
 16
0.0
 26
0.0
 36
1.0
 17
0.0
 27
0.0
 37
0.0
 40
2.117208636149655
 41
1.645464025026068
 42
50.0
 43
0.0
 44
0.0
 50
0.0
 51
0.0
 71
     0
 72
   100
 73
     1
 74
     2
 75
     0
 76
     0
 77
     0
 78
     0
281
     0
 65
     1
110
0.0
120
0.0
130
0.0
111
1.0
121
0.0
131
0.0
112
0.0
122
1.0
132
0.0
 79
     0
146
0.0
  0
ENDTAB
  0
TABLE
  2
LTYPE
  5
5
330
0
100
AcDbSymbolTable
 70
     3
  0
LTYPE
  5
14
330
5
100
AcDbSymbolTableRecord
100
AcDbLinetypeTableRecord
  2
ByBlock
 70
     0
  3

 72
    65
 73
     0
 40
0.0
  0
LTYPE
  5
15
330
5
100
AcDbSymbolTableRecord
100
AcDbLinetypeTableRecord
  2
ByLayer
 70
     0
  3

 72
    65
 73
     0
 40
0.0
  0
LTYPE
  5
16
330
5
100
AcDbSymbolTableRecord
100
AcDbLinetypeTableRecord
  2
Continuous
 70
     0
  3
Solid line
 72
    65
 73
     0
 40
0.0
  0
LTYPE
  5
2D
330
5
100
AcDbSymbolTableRecord
100
AcDbLinetypeTableRecord
  2
DASHDOT
 70
     0
  3
Dash dot __ . __ . __ . __ . __ . __ . __ . __
 72
    65
 73
     4
 40
25.4
 49
12.7
 74
     0
 49
-6.349999999999999
 74
     0
 49
0.0
 74
     0
 49
-6.349999999999999
 74
     0
  0
LTYPE
  5
2E
330
5
100
AcDbSymbolTableRecord
100
AcDbLinetypeTableRecord
  2
HIDDEN
 70
     0
  3
Hidden __ __ __ __ __ __ __ __ __ __ __ __ __ _
 72
    65
 73
     2
 40
9.524999999999998
 49
6.349999999999999
 74
     0
 49
-3.174999999999999
 74
     0
  0
ENDTAB
  0
TABLE
  2
LAYER
  5
2
330
0
100
AcDbSymbolTable
 70
    17
  0
LAYER
  5
10
102
{ACAD_XDICTIONARY
360
E1C
102
}
330
2
100
AcDbSymbolTableRecord
100
AcDbLayerTableRecord
  2
0
 70
     0
 62
     7
  6
Continuous
370
    -3
390
F
  0
LAYER
  5
2F
102
{ACAD_XDICTIONARY
360
E1E
102
}
330
2
100
AcDbSymbolTableRecord
100
AcDbLayerTableRecord
  2
1
 70
     0
 62
     1
  6
Continuous
370
    -3
390
F
  0
LAYER
  5
30
102
{ACAD_XDICTIONARY
360
E20
102
}
330
2
100
AcDbSymbolTableRecord
100
AcDbLayerTableRecord
  2
2
 70
     0
 62
     2
  6
Continuous
370
    -3
390
F
  0
LAYER
  5
31
102
{ACAD_XDICTIONARY
360
E22
102
}
330
2
100
AcDbSymbolTableRecord
100
AcDbLayerTableRecord
  2
3
 70
     0
 62
     3
  6
Continuous
370
    -3
390
F
  0
LAYER
  5
32
102
{ACAD_XDICTIONARY
360
E24
102
}
330
2
100
AcDbSymbolTableRecord
100
AcDbLayerTableRecord
  2
4
 70
     0
 62
     4
  6
Continuous
370
    -3
390
F
  0
LAYER
  5
33
102
{ACAD_XDICTIONARY
360
E26
102
}
330
2
100
AcDbSymbolTableRecord
100
AcDbLayerTableRecord
  2
5
 70
     0
 62
     5
  6
Continuous
370
    -3
390
F
  0
LAYER
  5
34
102
{ACAD_XDICTIONARY
360
E28
102
}
330
2
100
AcDbSymbolTableRecord
100
AcDbLayerTableRecord
  2
6
 70
     0
 62
     6
  6
Continuous
370
    -3
390
F
  0
LAYER
  5
35
102
{ACAD_XDICTIONARY
360
E2A
102
}
330
2
100
AcDbSymbolTableRecord
100
AcDbLayerTableRecord
  2
7
 70
     0
 62
     7
  6
Continuous
370
    -3
390
F
  0
LAYER
  5
36
102
{ACAD_XDICTIONARY
360
E2C
102
}
330
2
100
AcDbSymbolTableRecord
100
AcDbLayerTableRecord
  2
cen
 70
     0
 62
     7
  6
DASHDOT
370
    -3
390
F
  0
LAYER
  5
37
102
{ACAD_XDICTIONARY
360
E2E
102
}
330
2
100
AcDbSymbolTableRecord
100
AcDbLayerTableRecord
  2
hid
 70
     0
 62
     7
  6
HIDDEN
370
    -3
390
F
  0
LAYER
  5
5D6
102
{ACAD_XDICTIONARY
360
E30
102
}
330
2
100
AcDbSymbolTableRecord
100
AcDbLayerTableRecord
  2
hatch
 70
     0
 62
     9
  6
Continuous
370
    -3
390
F
  0
LAYER
  5
8AF
102
{ACAD_XDICTIONARY
360
E32
102
}
330
2
100
AcDbSymbolTableRecord
100
AcDbLayerTableRecord
  2
9
 70
     0
 62
     9
  6
Continuous
370
    -3
390
F
  0
LAYER
  5
8F8
102
{ACAD_XDICTIONARY
360
E34
102
}
330
2
100
AcDbSymbolTableRecord
100
AcDbLayerTableRecord
  2
leg fin
 70
     0
 62
     9
  6
Continuous
370
    -3
390
F
  0
LAYER
  5
91D
102
{ACAD_XDICTIONARY
360
E36
102
}
330
2
100
AcDbSymbolTableRecord
100
AcDbLayerTableRecord
  2
cotas
 70
     0
 62
     1
  6
Continuous
370
    -3
390
F
  0
LAYER
  5
92F
330
2
100
AcDbSymbolTableRecord
100
AcDbLayerTableRecord
  2
Defpoints
 70
     0
 62
     7
  6
Continuous
290
     0
370
    -3
390
F
  0
LAYER
  5
BA5
102
{ACAD_XDICTIONARY
360
E38
102
}
330
2
100
AcDbSymbolTableRecord
100
AcDbLayerTableRecord
  2
SANINDUSA
 70
     0
 62
     3
  6
Continuous
370
    -3
390
F
  0
LAYER
  5
BB0
102
{ACAD_XDICTIONARY
360
E3A
102
}
330
2
100
AcDbSymbolTableRecord
100
AcDbLayerTableRecord
  2
BLOCKS
 70
     0
 62
     3
  6
Continuous
370
    -3
390
F
  0
ENDTAB
  0
TABLE
  2
STYLE
  5
3
330
0
100
AcDbSymbolTable
 70
     4
  0
STYLE
  5
11
330
3
100
AcDbSymbolTableRecord
100
AcDbTextStyleTableRecord
  2
Standard
 70
     0
 40
0.0
 41
1.0
 50
0.0
 71
     0
 42
2.5
  3
Avgardn.ttf
  4

1001
ACAD
1000
AvantGarde Bk BT
1071
       34
  0
STYLE
  5
2C
330
3
100
AcDbSymbolTableRecord
100
AcDbTextStyleTableRecord
  2

 70
     1
 40
0.0
 41
1.0
 50
0.0
 71
     0
 42
2.5
  3
ltypeshp.shx
  4

  0
STYLE
  5
91F
330
3
100
AcDbSymbolTableRecord
100
AcDbTextStyleTableRecord
  2
SANINDUSA
 70
     0
 40
0.0
 41
1.0
 50
0.0
 71
     0
 42
2.5
  3
verdana.TTF
  4

1001
ACAD
1000
Verdana
1071
       34
  0
STYLE
  5
BB1
330
3
100
AcDbSymbolTableRecord
100
AcDbTextStyleTableRecord
  2
cotas
 70
     0
 40
2.0
 41
0.8
 50
0.0
 71
     0
 42
4.0
  3
ISOCP.shx
  4

  0
ENDTAB
  0
TABLE
  2
VIEW
  5
6
330
0
100
AcDbSymbolTable
 70
     0
  0
ENDTAB
  0
TABLE
  2
UCS
  5
7
330
0
100
AcDbSymbolTable
 70
     0
  0
ENDTAB
  0
TABLE
  2
APPID
  5
9
330
0
100
AcDbSymbolTable
 70
     3
  0
APPID
  5
12
330
9
100
AcDbSymbolTableRecord
100
AcDbRegAppTableRecord
  2
ACAD
 70
     0
  0
APPID
  5
3A
330
9
100
AcDbSymbolTableRecord
100
AcDbRegAppTableRecord
  2
DCO15
 70
     0
  0
APPID
  5
E75
330
9
100
AcDbSymbolTableRecord
100
AcDbRegAppTableRecord
  2
ACAD_MLEADERVER
 70
     0
  0
ENDTAB
  0
TABLE
  2
DIMSTYLE
  5
A
330
0
100
AcDbSymbolTable
 70
     3
100
AcDbDimStyleTable
 71
     1
340
921
  0
DIMSTYLE
105
45
330
A
100
AcDbSymbolTableRecord
100
AcDbDimStyleTableRecord
  2
STANDARD
 70
     0
289
     0
340
11
  0
DIMSTYLE
105
921
330
A
100
AcDbSymbolTableRecord
100
AcDbDimStyleTableRecord
  2
SANINDUSA
 70
     0
 41
2.0
 42
1.0
 43
1.0
 44
1.0
 73
     0
 74
     0
 77
     1
 78
     8
140
2.0
141
0.0
143
0.03937007874016
147
1.0
171
     3
172
     1
176
   256
177
   256
178
   256
179
     1
271
     1
272
     1
274
     3
278
    44
283
     0
284
     8
340
91F
371
    -1
372
    -1
  0
DIMSTYLE
105
BB2
330
A
100
AcDbSymbolTableRecord
100
AcDbDimStyleTableRecord
  2
ISO-25
 70
     0
 41
2.5
 42
0.625
 43
3.75
 44
1.25
 73
     0
 74
     0
 77
     1
 78
     8
140
2.5
141
2.5
143
0.03937007874016
147
0.625
171
     3
172
     1
271
     2
272
     2
274
     3
278
    44
283
     0
284
     8
340
11
  0
ENDTAB
  0
TABLE
  2
BLOCK_RECORD
  5
1
330
0
100
AcDbSymbolTable
 70
    13
  0
BLOCK_RECORD
  5
1F
330
1
100
AcDbSymbolTableRecord
100
AcDbBlockTableRecord
  2
*Model_Space
340
22
  0
BLOCK_RECORD
  5
1B
330
1
100
AcDbSymbolTableRecord
100
AcDbBlockTableRecord
  2
*Paper_Space
340
1E
  0
BLOCK_RECORD
  5
23
330
1
100
AcDbSymbolTableRecord
100
AcDbBlockTableRecord
  2
*Paper_Space0
340
26
  0
BLOCK_RECORD
  5
919
330
1
100
AcDbSymbolTableRecord
100
AcDbBlockTableRecord
  2
_DotSmall
340
0
  0
BLOCK_RECORD
  5
922
330
1
100
AcDbSymbolTableRecord
100
AcDbBlockTableRecord
  2
base para cotas
340
0
310
2800000020000000200000000100080000000000000400000000000000000000000000000000000000000000000080000080000000808000800000008000800080800000C0C0C000C0DCC000F0CAA6000020400000206000002080000020A0000020C0000020E00000400000004020000040400000406000004080000040A0
310
000040C0000040E00000600000006020000060400000606000006080000060A0000060C0000060E00000800000008020000080400000806000008080000080A0000080C0000080E00000A0000000A0200000A0400000A0600000A0800000A0A00000A0C00000A0E00000C0000000C0200000C0400000C0600000C0800000C0
310
A00000C0C00000C0E00000E0000000E0200000E0400000E0600000E0800000E0A00000E0C00000E0E00040000000400020004000400040006000400080004000A0004000C0004000E00040200000402020004020400040206000402080004020A0004020C0004020E000404000004040200040404000404060004040800040
310
40A0004040C0004040E00040600000406020004060400040606000406080004060A0004060C0004060E00040800000408020004080400040806000408080004080A0004080C0004080E00040A0000040A0200040A0400040A0600040A0800040A0A00040A0C00040A0E00040C0000040C0200040C0400040C0600040C08000
310
40C0A00040C0C00040C0E00040E0000040E0200040E0400040E0600040E0800040E0A00040E0C00040E0E00080000000800020008000400080006000800080008000A0008000C0008000E00080200000802020008020400080206000802080008020A0008020C0008020E00080400000804020008040400080406000804080
310
008040A0008040C0008040E00080600000806020008060400080606000806080008060A0008060C0008060E00080800000808020008080400080806000808080008080A0008080C0008080E00080A0000080A0200080A0400080A0600080A0800080A0A00080A0C00080A0E00080C0000080C0200080C0400080C0600080C0
310
800080C0A00080C0C00080C0E00080E0000080E0200080E0400080E0600080E0800080E0A00080E0C00080E0E000C0000000C0002000C0004000C0006000C0008000C000A000C000C000C000E000C0200000C0202000C0204000C0206000C0208000C020A000C020C000C020E000C0400000C0402000C0404000C0406000C0
310
408000C040A000C040C000C040E000C0600000C0602000C0604000C0606000C0608000C060A000C060C000C060E000C0800000C0802000C0804000C0806000C0808000C080A000C080C000C080E000C0A00000C0A02000C0A04000C0A06000C0A08000C0A0A000C0A0C000C0A0E000C0C00000C0C02000C0C04000C0C06000
310
C0C08000C0C0A000F0FBFF00A4A0A000808080000000FF0000FF000000FFFF00FF000000FF00FF00FFFF0000FFFFFF00A4A4A4A4A4A4A4A4A4A4A4A4A4A4A4A4A4A4A4A4A4A4A4A4A4A4A4A4A4A4A4A4A4A4A4A4A4A4A4A4A4A4A4A4A4A4A4A4A4A4A4A4A4A4A4A4A4A4A4A4A4A4A4A4A4A4A4A4A4A4A4A4A4A4A4A4A4A4A4
310
A4A4A4A4A4A4A4A4A4A4A4A4A4A4A4A4A4A4A4A4A4A4A4A4A4A4A4A4A4A4A4A4A4A4A4A4A4A4A4A4A4A4A4A4A4A4A4A4A4A4A4A4A4A4A4A4A4A4A4A4A4A4A4A4A4A4A4A4A4A4A4A4A4A4A4A4A4A4A4A4A4A4A4A4A4A4A4A4A4A4A4A4A4A4A4A4A4A4A4A4A4A4A4A4A4A4A4A4A4A4A4A4A4A4A4A4A4A4A4A4A4A4A4A4A4A4A4
310
A4A4A4A4A4A4A4A4A4A4A4A4A4A4A4A4A4A4A4A4A4A4A4A4A4A4A4A4A4A4A4A4A4A4A4A4A4A4A4A4A4A4A4A4A4A4A4A4A4A4A4A4A4A4A4A4A4A4A4A4A4A4A4A4A4A4A4A4A4A4A4A4A4A4A4A4A4A4A4A4A4A4A4A4A4A4A4A4A4A4A4A4A4A4A4A4A4A4A4A4A4A4A4A4A4A4A4A4A4A4A4A4A4A4A4A4A4A4A4A4A4A4A4A4A4A4A4
310
A4A4A4A4A4A4A4A4A4A4A4A4A4A4A4A4A4A4A4A4A4A4A4A4A4A4A4A4A4A4A4A4A4A4A4A4A4A4A4A4A4A4A4A4A4A4A4A4A4A4A4A4A4A4A4A4A4A4A4A4A4A4A4A4A4A4A4A4A4A4A4A4A4A4A4A4A4A4A4A4A4A4A4A4A4A4A4A4A4A4A4A4A4A4A4A4A4A4A4A4A4A4A4A4A4A4A4A4A4A4A4A4A4A4A4A4F9F9F9F9F9F9F9F9F9F9F9
310
F9F9F9F9F9F9F9F9F9F9F9F9F9F9F9F9F9F9F9A4A4F9F9F9F9F9F9F9F9F9F9F9F9F9F9F9F9F9F9F9F9F9F9F9F9F9F9F9F9F9F9A4A4F9F9F9F9F9F9F9F9F9F9F9F9F9F9F9F9F9F9F9F9F9F9F9F9F9F9F9F9F9F9A4A4F9A4A4A4A4A4A4A4A4A4A4A4A4A4A4A4A4A4A4A4A4A4A4A4A4A4A4A4A4F9A4A4A4A4A4A4A4A4A4A4A4A4
310
A4A4A4A4A4A4A4A4A4A4A4A4A4A4A4A4A4A4A4A4A4A4A4A4A4A4A4A4A4A4A4A4A4A4A4A4A4A4A4A4A4A4A4A4A4A4A4A4A4A4A4A4A4A4A4A4A4A4A4A4A4A4A4A4A4A4A4A4A4A4A4A4A4A4A4A4A4A4A4A4A4A4A4A4A4A4A4A4A4A4A4A4A4A4A4A4A4A4A4A4A4A4A4A4A4A4A4A4A4A4A4A4A4A4A4A4A4A4A4A4A4A4A4A4A4A4A4
310
A4A4A4A4A4A4A4A4A4A4A4A4A4A4A4A4A4A4A4A4A4A4A4A4A4A4A4A4A4A4A4A4A4A4A4A4A4A4A4A4A4A4A4A4A4A4A4A4A4A4A4A4A4A4A4A4A4A4A4A4A4A4A4A4A4A4A4A4A4A4A4A4A4A4A4A4A4A4A4A4A4A4A4A4A4A4A4A4A4A4A4A4A4A4A4A4A4A4A4A4A4A4A4A4A4A4A4A4A4A4A4A4A4A4A4A4A4A4A4A4A4A4A4A4A4A4A4
310
A4A4A4A4A4A4A4A4A4A4A4A4A4A4A4A4A4A4A4A4A4A4A4A4A4A4A4A4A4A4A4A4A4A4A4A4A4A4A4A4A4A4A4A4A4A4A4A4A4A4A4A4A4A4A4A4A4A4A4A4A4A4A4A4A4A4A4A4A4A4A4A4A4A4A4A4A4A4A4A4A4A4A4A4A4A4A4A4A4A4A4A4A4A4A4A4A4A4A4A4A4A4A4A4A4A4A4A4A4A4A4A4A4A4A4A4A4A4A4A4A4A4A4A4A4A4A4
310
A4A4A4A4A4A4A4A4A4A4A4A4A4A4A4A4A4A4A4A4A4A4A4A4A4A4A4A4A4A4A4A4A4A4A4A4A4A4A4A4A4A4A4A4A4A4A4A4A4A4A4A4A4A4A4A4
1001
ACAD
1000
DesignCenter Data
1002
{
1070
     1
1070
     4
1002
}
  0
BLOCK_RECORD
  5
AA8
330
1
100
AcDbSymbolTableRecord
100
AcDbBlockTableRecord
  2
_CLOSED
340
0
  0
BLOCK_RECORD
  5
BB3
330
1
100
AcDbSymbolTableRecord
100
AcDbBlockTableRecord
  2
104022PL
340
0
1001
ACAD
1000
DesignCenter Data
1002
{
1070
     1
1070
     4
1002
}
  0
BLOCK_RECORD
  5
BD2
330
1
100
AcDbSymbolTableRecord
100
AcDbBlockTableRecord
  2
104021PL
340
0
1001
ACAD
1000
DesignCenter Data
1002
{
1070
     1
1070
     4
1002
}
  0
BLOCK_RECORD
  5
BF0
330
1
100
AcDbSymbolTableRecord
100
AcDbBlockTableRecord
  2
104022AL
340
0
1001
ACAD
1000
DesignCenter Data
1002
{
1070
     1
1070
     4
1002
}
  0
BLOCK_RECORD
  5
C22
330
1
100
AcDbSymbolTableRecord
100
AcDbBlockTableRecord
  2
104022AF
340
0
1001
ACAD
1000
DesignCenter Data
1002
{
1070
     1
1070
     4
1002
}
  0
BLOCK_RECORD
  5
C46
330
1
100
AcDbSymbolTableRecord
100
AcDbBlockTableRecord
  2
104022CT
340
0
1001
ACAD
1000
DesignCenter Data
1002
{
1070
     1
1070
     4
1002
}
  0
BLOCK_RECORD
  5
D31
330
1
100
AcDbSymbolTableRecord
100
AcDbBlockTableRecord
  2
104410PL
340
0
102
{BLKREFS
331
D47
102
}
1001
ACAD
1000
DesignCenter Data
1002
{
1070
     1
1070
     4
1002
}
  0
BLOCK_RECORD
  5
D48
330
1
100
AcDbSymbolTableRecord
100
AcDbBlockTableRecord
  2
104410AL
340
0
102
{BLKREFS
331
D64
102
}
1001
ACAD
1000
DesignCenter Data
1002
{
1070
     1
1070
     4
1002
}
  0
BLOCK_RECORD
  5
D65
330
1
100
AcDbSymbolTableRecord
100
AcDbBlockTableRecord
  2
104410AF
340
0
102
{BLKREFS
331
D75
102
}
1001
ACAD
1000
DesignCenter Data
1002
{
1070
     1
1070
     4
1002
}
  0
BLOCK_RECORD
  5
D76
330
1
100
AcDbSymbolTableRecord
100
AcDbBlockTableRecord
  2
104410CT
340
0
102
{BLKREFS
331
DCC
102
}
1001
ACAD
1000
DesignCenter Data
1002
{
1070
     1
1070
     4
1002
}
  0
ENDTAB
  0
ENDSEC
  0
SECTION
  2
BLOCKS
  0
BLOCK
  5
20
330
1F
100
AcDbEntity
  8
0
100
AcDbBlockBegin
  2
*Model_Space
 70
     0
 10
0.0
 20
0.0
 30
0.0
  3
*Model_Space
  1

  0
ENDBLK
  5
21
330
1F
100
AcDbEntity
  8
0
100
AcDbBlockEnd
  0
BLOCK
  5
1C
330
1B
100
AcDbEntity
 67
     1
  8
0
100
AcDbBlockBegin
  2
*Paper_Space
 70
     0
 10
0.0
 20
0.0
 30
0.0
  3
*Paper_Space
  1

  0
ENDBLK
  5
1D
330
1B
100
AcDbEntity
 67
     1
  8
0
100
AcDbBlockEnd
  0
BLOCK
  5
24
330
23
100
AcDbEntity
 67
     1
  8
0
100
AcDbBlockBegin
  2
*Paper_Space0
 70
     0
 10
0.0
 20
0.0
 30
0.0
  3
*Paper_Space0
  1

  0
ENDBLK
  5
25
330
23
100
AcDbEntity
 67
     1
  8
0
100
AcDbBlockEnd
  0
BLOCK
  5
91B
330
919
100
AcDbEntity
  8
0
100
AcDbBlockBegin
  2
_DotSmall
 70
     0
 10
0.0
 20
0.0
 30
0.0
  3
_DotSmall
  1

  0
LWPOLYLINE
  5
91A
330
919
100
AcDbEntity
  8
0
  6
ByBlock
 62
     0
100
AcDbPolyline
 90
        2
 70
     1
 43
0.5
 10
-0.0625
 20
0.0
 42
1.0
 10
0.0625
 20
0.0
 42
1.0
  0
ENDBLK
  5
91C
330
919
100
AcDbEntity
  8
0
100
AcDbBlockEnd
  0
BLOCK
  5
92A
330
922
100
AcDbEntity
  8
0
100
AcDbBlockBegin
  2
base para cotas
 70
     0
 10
0.0
 20
0.0
 30
0.0
  3
base para cotas
  1

  0
LINE
  5
B36
330
922
100
AcDbEntity
  8
cotas
100
AcDbLine
 10
0.0
 20
-30.0
 30
0.0
 11
327.1260136525398
 21
-30.0
 31
0.0
  0
LINE
  5
B37
330
922
100
AcDbEntity
  8
cotas
100
AcDbLine
 10
0.0
 20
-25.0
 30
0.0
 11
327.1260136525398
 21
-25.0
 31
0.0
  0
LINE
  5
B38
330
922
100
AcDbEntity
  8
cotas
100
AcDbLine
 10
0.0
 20
-20.0
 30
0.0
 11
327.1260136525398
 21
-20.0
 31
0.0
  0
LINE
  5
B39
330
922
100
AcDbEntity
  8
cotas
100
AcDbLine
 10
0.0
 20
-15.0
 30
0.0
 11
327.1260136525398
 21
-15.0
 31
0.0
  0
LINE
  5
B3A
330
922
100
AcDbEntity
  8
cotas
100
AcDbLine
 10
0.0
 20
-10.0
 30
0.0
 11
327.1260136525398
 21
-10.0
 31
0.0
  0
LINE
  5
B3B
330
922
100
AcDbEntity
  8
cotas
100
AcDbLine
 10
0.0
 20
0.0
 30
0.0
 11
0.0
 21
-30.0
 31
0.0
  0
LINE
  5
B3C
330
922
100
AcDbEntity
  8
cotas
100
AcDbLine
 10
327.1260136525398
 20
-30.0
 30
0.0
 11
327.1260136525398
 21
0.0
 31
0.0
  0
ENDBLK
  5
92B
330
922
100
AcDbEntity
  8
0
100
AcDbBlockEnd
  0
BLOCK
  5
AAD
330
AA8
100
AcDbEntity
  8
0
100
AcDbBlockBegin
  2
_CLOSED
 70
     0
 10
0.0
 20
0.0
 30
0.0
  3
_CLOSED
  1

  0
LINE
  5
AA9
330
AA8
100
AcDbEntity
  8
0
100
AcDbLine
 10
-1.0
 20
0.166667
 30
0.0
 11
0.0
 21
0.0
 31
0.0
  0
LINE
  5
AAA
330
AA8
100
AcDbEntity
  8
0
100
AcDbLine
 10
0.0
 20
0.0
 30
0.0
 11
-1.0
 21
-0.166667
 31
0.0
  0
LINE
  5
AAB
330
AA8
100
AcDbEntity
  8
0
100
AcDbLine
 10
-1.0
 20
0.166667
 30
0.0
 11
-1.0
 21
-0.166667
 31
0.0
  0
LINE
  5
AAC
330
AA8
100
AcDbEntity
  8
0
100
AcDbLine
 10
0.0
 20
0.0
 30
0.0
 11
-1.0
 21
0.0
 31
0.0
  0
ENDBLK
  5
AAE
330
AA8
100
AcDbEntity
  8
0
100
AcDbBlockEnd
  0
BLOCK
  5
BCE
330
BB3
100
AcDbEntity
  8
0
100
AcDbBlockBegin
  2
104022PL
 70
     0
 10
0.0
 20
0.0
 30
0.0
  3
104022PL
  1

  0
ARC
  5
BB4
330
BB3
100
AcDbEntity
  8
BLOCKS
100
AcDbCircle
 10
0.1725000000000136
 20
-0.1233160000000453
 30
0.0
 40
0.01
100
AcDbArc
 50
298.1491100000008
 51
0.0
  0
LINE
  5
BB5
330
BB3
100
AcDbEntity
  8
BLOCKS
100
AcDbLine
 10
0.1825000000000045
 20
-0.0099999999999909
 30
0.0
 11
0.1825000000000045
 21
-0.1233160000000453
 31
0.0
  0
ARC
  5
BB6
330
BB3
100
AcDbEntity
  8
BLOCKS
100
AcDbCircle
 10
-0.1725000000000136
 20
-0.0099999999999909
 30
0.0
 40
0.01
100
AcDbArc
 50
90.0
 51
180.0
  0
LINE
  5
BB7
330
BB3
100
AcDbEntity
  8
BLOCKS
100
AcDbLine
 10
-0.1725000000000136
 20
0.0
 30
0.0
 11
0.1725000000000136
 21
0.0
 31
0.0
  0
CIRCLE
  5
BB8
330
BB3
100
AcDbEntity
  8
BLOCKS
100
AcDbCircle
 10
0.091293999999948
 20
-0.2508380000000443
 30
0.0
 40
0.007203
  0
LINE
  5
BB9
330
BB3
100
AcDbEntity
  8
BLOCKS
100
AcDbLine
 10
0.0793830000000071
 20
-0.1677329999999984
 30
0.0
 11
0.1147760000000062
 21
-0.2259649999999738
 31
0.0
  0
CIRCLE
  5
BBA
330
BB3
100
AcDbEntity
  8
BLOCKS
100
AcDbCircle
 10
-0.0904450000000452
 20
-0.2508380000000443
 30
0.0
 40
0.007203
  0
LINE
  5
BBB
330
BB3
100
AcDbEntity
  8
BLOCKS
100
AcDbLine
 10
-0.0793830000000071
 20
-0.1677329999999984
 30
0.0
 11
-0.1147760000000062
 21
-0.2259649999999738
 31
0.0
  0
ARC
  5
BBC
330
BB3
100
AcDbEntity
  8
BLOCKS
100
AcDbCircle
 10
0.0471109999999726
 20
-0.4326240000000331
 30
0.0
 40
0.01
100
AcDbArc
 50
19.57349800000054
 51
90.0
  0
LINE
  5
BBD
330
BB3
100
AcDbEntity
  8
BLOCKS
100
AcDbLine
 10
0.1253219999999828
 20
-0.4282660000000084
 30
0.0
 11
0.1248470000000452
 21
-0.4782659999999629
 31
0.0
  0
ARC
  5
BBE
330
BB3
100
AcDbEntity
  8
BLOCKS
100
AcDbCircle
 10
-0.0471109999999726
 20
-0.4326240000000331
 30
0.0
 40
0.01
100
AcDbArc
 50
90.0
 51
160.4265019999994
  0
LINE
  5
BBF
330
BB3
100
AcDbEntity
  8
BLOCKS
100
AcDbLine
 10
-0.1248970000000327
 20
-0.4282660000000084
 30
0.0
 11
-0.1244219999999814
 21
-0.4782659999999629
 31
0.0
  0
ARC
  5
BC0
330
BB3
100
AcDbEntity
  8
BLOCKS
100
AcDbCircle
 10
0.0
 20
-0.4493750000000324
 30
0.0
 40
0.06
100
AcDbArc
 50
160.4265019999994
 51
19.57349800000054
  0
LINE
  5
BC1
330
BB3
100
AcDbEntity
  8
BLOCKS
100
AcDbLine
 10
0.0471109999999726
 20
-0.4226240000000422
 30
0.0
 11
-0.0471109999999726
 21
-0.4226240000000422
 31
0.0
  0
ARC
  5
BC2
330
BB3
100
AcDbEntity
  8
BLOCKS
100
AcDbCircle
 10
0.0002120000000332
 20
-0.4321559999999641
 30
0.0
 40
0.12517
100
AcDbArc
 50
1.780768000000537
 51
178.2192319999994
  0
LINE
  5
BC3
330
BB3
100
AcDbEntity
  8
BLOCKS
100
AcDbLine
 10
0.1749999999999545
 20
-0.4897590000000497
 30
0.0
 11
0.1749999999999545
 21
-0.1333100000000513
 31
0.0
  0
ARC
  5
BC4
330
BB3
100
AcDbEntity
  8
BLOCKS
100
AcDbCircle
 10
-0.1725000000000136
 20
-0.1221229999999878
 30
0.0
 40
0.01
100
AcDbArc
 50
180.0
 51
241.4547369999985
  0
LINE
  5
BC5
330
BB3
100
AcDbEntity
  8
BLOCKS
100
AcDbLine
 10
-0.1749999999999545
 20
-0.4897590000000497
 30
0.0
 11
-0.1749999999999545
 21
-0.1321369999999433
 31
0.0
  0
LINE
  5
BC6
330
BB3
100
AcDbEntity
  8
BLOCKS
100
AcDbLine
 10
0.1749999999999545
 20
-0.2259649999999738
 30
0.0
 11
-0.1749999999999545
 21
-0.2259649999999738
 31
0.0
  0
CIRCLE
  5
BC7
330
BB3
100
AcDbEntity
  8
BLOCKS
100
AcDbCircle
 10
0.0
 20
-0.088141999999948
 30
0.0
 40
0.06
  0
LINE
  5
BC8
330
BB3
100
AcDbEntity
  8
BLOCKS
100
AcDbLine
 10
-0.1825000000000045
 20
-0.0099999999999909
 30
0.0
 11
-0.1825000000000045
 21
-0.1221229999999878
 31
0.0
  0
CIRCLE
  5
BC9
330
BB3
100
AcDbEntity
  8
BLOCKS
100
AcDbCircle
 10
0.0
 20
-0.088141999999948
 30
0.0
 40
0.03
  0
ARC
  5
BCA
330
BB3
100
AcDbEntity
  8
BLOCKS
100
AcDbCircle
 10
0.0
 20
-0.4900020000000046
 30
0.0
 40
0.175
100
AcDbArc
 50
179.9203320000021
 51
0.0796679999978939
  0
ARC
  5
BCB
330
BB3
100
AcDbEntity
  8
BLOCKS
100
AcDbCircle
 10
0.0002120000000332
 20
-0.4898299999999841
 30
0.0
 40
0.12517
100
AcDbArc
 50
174.6989770000022
 51
5.301022999997709
  0
ARC
  5
BCC
330
BB3
100
AcDbEntity
  8
BLOCKS
100
AcDbCircle
 10
0.0011050000000523
 20
0.1970169999999598
 30
0.0
 40
0.373303
100
AcDbArc
 50
241.4547369999985
 51
298.1491100000008
  0
ARC
  5
BCD
330
BB3
100
AcDbEntity
  8
BLOCKS
100
AcDbCircle
 10
0.1725000000000136
 20
-0.0099999999999909
 30
0.0
 40
0.01
100
AcDbArc
 50
0.0
 51
90.0
  0
ENDBLK
  5
BCF
330
BB3
100
AcDbEntity
  8
0
100
AcDbBlockEnd
  0
BLOCK
  5
BED
330
BD2
100
AcDbEntity
  8
0
100
AcDbBlockBegin
  2
104021PL
 70
     0
 10
0.0
 20
0.0
 30
0.0
  3
104021PL
  1

  0
ARC
  5
BD3
330
BD2
100
AcDbEntity
  8
BLOCKS
100
AcDbCircle
 10
0.1725000000000136
 20
-0.1233160000000453
 30
0.0
 40
0.01
100
AcDbArc
 50
298.1491100000008
 51
0.0
  0
LINE
  5
BD4
330
BD2
100
AcDbEntity
  8
BLOCKS
100
AcDbLine
 10
0.1825000000000045
 20
-0.0099999999999909
 30
0.0
 11
0.1825000000000045
 21
-0.1233160000000453
 31
0.0
  0
ARC
  5
BD5
330
BD2
100
AcDbEntity
  8
BLOCKS
100
AcDbCircle
 10
-0.1725000000000136
 20
-0.0099999999999909
 30
0.0
 40
0.01
100
AcDbArc
 50
90.0
 51
180.0
  0
LINE
  5
BD6
330
BD2
100
AcDbEntity
  8
BLOCKS
100
AcDbLine
 10
-0.1725000000000136
 20
0.0
 30
0.0
 11
0.1725000000000136
 21
0.0
 31
0.0
  0
CIRCLE
  5
BD7
330
BD2
100
AcDbEntity
  8
BLOCKS
100
AcDbCircle
 10
0.091293999999948
 20
-0.2508380000000443
 30
0.0
 40
0.007203
  0
LINE
  5
BD8
330
BD2
100
AcDbEntity
  8
BLOCKS
100
AcDbLine
 10
0.0793830000000071
 20
-0.1677329999999984
 30
0.0
 11
0.1147760000000062
 21
-0.2259649999999738
 31
0.0
  0
CIRCLE
  5
BD9
330
BD2
100
AcDbEntity
  8
BLOCKS
100
AcDbCircle
 10
-0.0904450000000452
 20
-0.2508380000000443
 30
0.0
 40
0.007203
  0
LINE
  5
BDA
330
BD2
100
AcDbEntity
  8
BLOCKS
100
AcDbLine
 10
-0.0793830000000071
 20
-0.1677329999999984
 30
0.0
 11
-0.1147760000000062
 21
-0.2259649999999738
 31
0.0
  0
ARC
  5
BDB
330
BD2
100
AcDbEntity
  8
BLOCKS
100
AcDbCircle
 10
0.0471109999999726
 20
-0.4326240000000331
 30
0.0
 40
0.01
100
AcDbArc
 50
19.57349800000054
 51
90.0
  0
LINE
  5
BDC
330
BD2
100
AcDbEntity
  8
BLOCKS
100
AcDbLine
 10
0.1253219999999828
 20
-0.4282660000000084
 30
0.0
 11
0.1248470000000452
 21
-0.4782659999999629
 31
0.0
  0
ARC
  5
BDD
330
BD2
100
AcDbEntity
  8
BLOCKS
100
AcDbCircle
 10
-0.0471109999999726
 20
-0.4326240000000331
 30
0.0
 40
0.01
100
AcDbArc
 50
90.0
 51
160.4265019999994
  0
LINE
  5
BDE
330
BD2
100
AcDbEntity
  8
BLOCKS
100
AcDbLine
 10
-0.1248970000000327
 20
-0.4282660000000084
 30
0.0
 11
-0.1244219999999814
 21
-0.4782659999999629
 31
0.0
  0
ARC
  5
BDF
330
BD2
100
AcDbEntity
  8
BLOCKS
100
AcDbCircle
 10
0.0
 20
-0.4493750000000324
 30
0.0
 40
0.06
100
AcDbArc
 50
160.4265019999994
 51
19.57349800000054
  0
LINE
  5
BE0
330
BD2
100
AcDbEntity
  8
BLOCKS
100
AcDbLine
 10
0.0471109999999726
 20
-0.4226240000000422
 30
0.0
 11
-0.0471109999999726
 21
-0.4226240000000422
 31
0.0
  0
ARC
  5
BE1
330
BD2
100
AcDbEntity
  8
BLOCKS
100
AcDbCircle
 10
0.0002120000000332
 20
-0.4321559999999641
 30
0.0
 40
0.12517
100
AcDbArc
 50
1.780768000000537
 51
178.2192319999994
  0
LINE
  5
BE2
330
BD2
100
AcDbEntity
  8
BLOCKS
100
AcDbLine
 10
0.1749999999999545
 20
-0.4897590000000497
 30
0.0
 11
0.1749999999999545
 21
-0.1333100000000513
 31
0.0
  0
ARC
  5
BE3
330
BD2
100
AcDbEntity
  8
BLOCKS
100
AcDbCircle
 10
-0.1725000000000136
 20
-0.1221229999999878
 30
0.0
 40
0.01
100
AcDbArc
 50
180.0
 51
241.4547369999985
  0
LINE
  5
BE4
330
BD2
100
AcDbEntity
  8
BLOCKS
100
AcDbLine
 10
-0.1749999999999545
 20
-0.4897590000000497
 30
0.0
 11
-0.1749999999999545
 21
-0.1321369999999433
 31
0.0
  0
LINE
  5
BE5
330
BD2
100
AcDbEntity
  8
BLOCKS
100
AcDbLine
 10
0.1749999999999545
 20
-0.2259649999999738
 30
0.0
 11
-0.1749999999999545
 21
-0.2259649999999738
 31
0.0
  0
CIRCLE
  5
BE6
330
BD2
100
AcDbEntity
  8
BLOCKS
100
AcDbCircle
 10
0.0
 20
-0.088141999999948
 30
0.0
 40
0.06
  0
LINE
  5
BE7
330
BD2
100
AcDbEntity
  8
BLOCKS
100
AcDbLine
 10
-0.1825000000000045
 20
-0.0099999999999909
 30
0.0
 11
-0.1825000000000045
 21
-0.1221229999999878
 31
0.0
  0
CIRCLE
  5
BE8
330
BD2
100
AcDbEntity
  8
BLOCKS
100
AcDbCircle
 10
0.0
 20
-0.088141999999948
 30
0.0
 40
0.03
  0
ARC
  5
BE9
330
BD2
100
AcDbEntity
  8
BLOCKS
100
AcDbCircle
 10
0.0
 20
-0.4900020000000046
 30
0.0
 40
0.175
100
AcDbArc
 50
179.9203320000021
 51
0.0796679999978939
  0
ARC
  5
BEA
330
BD2
100
AcDbEntity
  8
BLOCKS
100
AcDbCircle
 10
0.0002120000000332
 20
-0.4898299999999841
 30
0.0
 40
0.12517
100
AcDbArc
 50
174.6989770000022
 51
5.301022999997709
  0
ARC
  5
BEB
330
BD2
100
AcDbEntity
  8
BLOCKS
100
AcDbCircle
 10
0.0011050000000523
 20
0.1970169999999598
 30
0.0
 40
0.373303
100
AcDbArc
 50
241.4547369999985
 51
298.1491100000008
  0
ARC
  5
BEC
330
BD2
100
AcDbEntity
  8
BLOCKS
100
AcDbCircle
 10
0.1725000000000136
 20
-0.0099999999999909
 30
0.0
 40
0.01
100
AcDbArc
 50
0.0
 51
90.0
  0
ENDBLK
  5
BEE
330
BD2
100
AcDbEntity
  8
0
100
AcDbBlockEnd
  0
BLOCK
  5
C1F
330
BF0
100
AcDbEntity
  8
0
100
AcDbBlockBegin
  2
104022AL
 70
     0
 10
0.0
 20
0.0
 30
0.0
  3
104022AL
  1

  0
ARC
  5
BF1
330
BF0
100
AcDbEntity
  8
BLOCKS
100
AcDbCircle
 10
0.1662850000000162
 20
0.825000000000046
 30
0.0
 40
0.01
100
AcDbArc
 50
0.0
 51
90.0
  0
ARC
  5
BF2
330
BF0
100
AcDbEntity
  8
BLOCKS
100
AcDbCircle
 10
0.6436179999999468
 20
0.3818850000000111
 30
0.0
 40
0.021274
100
AcDbArc
 50
318.0731159999996
 51
53.70030199999851
  0
ARC
  5
BF3
330
BF0
100
AcDbEntity
  8
BLOCKS
100
AcDbCircle
 10
0.6532529999999497
 20
0.3949999999999818
 30
0.0
 40
0.005
100
AcDbArc
 50
53.70030199999851
 51
90.0
  0
ARC
  5
BF4
330
BF0
100
AcDbEntity
  8
BLOCKS
100
AcDbCircle
 10
0.2209649999999783
 20
0.4288739999999507
 30
0.0
 40
0.005
100
AcDbArc
 50
0.0
 51
90.0
  0
ARC
  5
BF5
330
BF0
100
AcDbEntity
  8
BLOCKS
100
AcDbCircle
 10
0.155285000000049
 20
0.4358740000000126
 30
0.0
 40
0.001
100
AcDbArc
 50
0.0
 51
90.0
  0
LINE
  5
BF6
330
BF0
100
AcDbEntity
  8
BLOCKS
100
AcDbLine
 10
0.1762850000000071
 20
0.4438740000000508
 30
0.0
 11
0.1762850000000071
 21
0.4338739999999462
 31
0.0
  0
LINE
  5
BF7
330
BF0
100
AcDbEntity
  8
BLOCKS
100
AcDbLine
 10
0.2209649999999783
 20
0.4338739999999462
 30
0.0
 11
0.1762850000000071
 21
0.4338739999999462
 31
0.0
  0
ARC
  5
BF8
330
BF0
100
AcDbEntity
  8
BLOCKS
100
AcDbCircle
 10
0.205964999999992
 20
0.4038739999999735
 30
0.0
 40
0.01
100
AcDbArc
 50
0.0
 51
90.0
  0
ARC
  5
BF9
330
BF0
100
AcDbEntity
  8
BLOCKS
100
AcDbCircle
 10
0.2259649999999738
 20
0.3999999999999772
 30
0.0
 40
0.01
100
AcDbArc
 50
180.0
 51
270.0
  0
LINE
  5
BFA
330
BF0
100
AcDbEntity
  8
BLOCKS
100
AcDbLine
 10
0.2159649999999829
 20
0.4038739999999735
 30
0.0
 11
0.2159649999999829
 21
0.3999999999999772
 31
0.0
  0
ARC
  5
BFB
330
BF0
100
AcDbEntity
  8
BLOCKS
100
AcDbCircle
 10
0.2309649999999692
 20
0.4049999999999728
 30
0.0
 40
0.005
100
AcDbArc
 50
180.0
 51
270.0
  0
ARC
  5
BFC
330
BF0
100
AcDbEntity
  8
BLOCKS
100
AcDbCircle
 10
0.1662850000000162
 20
0.4238739999999553
 30
0.0
 40
0.01
100
AcDbArc
 50
180.0
 51
270.0
  0
ARC
  5
BFD
330
BF0
100
AcDbEntity
  8
BLOCKS
100
AcDbCircle
 10
0.0597830000000386
 20
0.3598030000000563
 30
0.0
 40
0.005
100
AcDbArc
 50
90.0
 51
183.8998890000029
  0
LINE
  5
BFE
330
BF0
100
AcDbEntity
  8
BLOCKS
100
AcDbLine
 10
0.205964999999992
 20
0.4138739999999644
 30
0.0
 11
0.1662850000000162
 21
0.4138739999999644
 31
0.0
  0
LINE
  5
BFF
330
BF0
100
AcDbEntity
  8
BLOCKS
100
AcDbLine
 10
0.2259649999999738
 20
0.4288739999999507
 30
0.0
 11
0.2259649999999738
 21
0.4049999999999728
 31
0.0
  0
LINE
  5
C00
330
BF0
100
AcDbEntity
  8
BLOCKS
100
AcDbLine
 10
0.1562850000000253
 20
0.4358740000000126
 30
0.0
 11
0.1562850000000253
 21
0.4238739999999553
 31
0.0
  0
LINE
  5
C01
330
BF0
100
AcDbEntity
  8
BLOCKS
100
AcDbLine
 10
0.6532529999999497
 20
0.3999999999999772
 30
0.0
 11
0.2309649999999692
 21
0.3999999999999772
 31
0.0
  0
LINE
  5
C02
330
BF0
100
AcDbEntity
  8
BLOCKS
100
AcDbLine
 10
0.4312869999999976
 20
0.3648030000000517
 30
0.0
 11
0.0597830000000386
 21
0.3648030000000517
 31
0.0
  0
ARC
  5
C03
330
BF0
100
AcDbEntity
  8
BLOCKS
100
AcDbCircle
 10
0.4992640000000393
 20
0.3958999999999833
 30
0.0
 40
0.219776
100
AcDbArc
 50
188.1344880000004
 51
236.9694860000027
  0
LINE
  5
C04
330
BF0
100
AcDbEntity
  8
BLOCKS
100
AcDbLine
 10
0.1762850000000071
 20
0.825000000000046
 30
0.0
 11
0.1762850000000071
 21
0.4438740000000508
 31
0.0
  0
ARC
  5
C05
330
BF0
100
AcDbEntity
  8
BLOCKS
100
AcDbCircle
 10
0.0099999999999909
 20
0.825000000000046
 30
0.0
 40
0.01
100
AcDbArc
 50
90.0
 51
180.0
  0
ARC
  5
C06
330
BF0
100
AcDbEntity
  8
BLOCKS
100
AcDbCircle
 10
0.0099999999999909
 20
0.4368739999999889
 30
0.0
 40
0.01
100
AcDbArc
 50
105.5109510000026
 51
180.0
  0
LINE
  5
C07
330
BF0
100
AcDbEntity
  8
BLOCKS
100
AcDbLine
 10
0.0
 20
0.4368739999999889
 30
0.0
 11
0.0
 21
0.4366690000000517
 31
0.0
  0
LINE
  5
C08
330
BF0
100
AcDbEntity
  8
BLOCKS
100
AcDbLine
 10
0.0
 20
0.4368739999999889
 30
0.0
 11
0.0
 21
0.4368090000000393
 31
0.0
  0
ARC
  5
C09
330
BF0
100
AcDbEntity
  8
BLOCKS
100
AcDbCircle
 10
0.0067910000000211
 20
0.4484370000000127
 30
0.0
 40
0.002
100
AcDbArc
 50
285.5109510000026
 51
74.48904899999734
  0
ARC
  5
C0A
330
BF0
100
AcDbEntity
  8
BLOCKS
100
AcDbCircle
 10
0.0099999999999909
 20
0.4600000000000364
 30
0.0
 40
0.01
100
AcDbArc
 50
180.0
 51
254.4890489999973
  0
ARC
  5
C0B
330
BF0
100
AcDbEntity
  8
BLOCKS
100
AcDbCircle
 10
0.1176510000000235
 20
0.3579190000000381
 30
0.0
 40
0.117746
100
AcDbArc
 50
182.3034090000029
 51
206.7459829999976
  0
LINE
  5
C0C
330
BF0
100
AcDbEntity
  8
BLOCKS
100
AcDbLine
 10
0.0
 20
0.4368739999999889
 30
0.0
 11
0.0
 21
0.3531860000000506
 31
0.0
  0
LINE
  5
C0D
330
BF0
100
AcDbEntity
  8
BLOCKS
100
AcDbLine
 10
0.0
 20
0.825000000000046
 30
0.0
 11
0.0
 21
0.4600000000000364
 31
0.0
  0
LINE
  5
C0E
330
BF0
100
AcDbEntity
  8
BLOCKS
100
AcDbLine
 10
0.6532529999999497
 20
0.3899999999999863
 30
0.0
 11
0.0
 21
0.3899999999999863
 31
0.0
  0
LINE
  5
C0F
330
BF0
100
AcDbEntity
  8
BLOCKS
100
AcDbLine
 10
0.155285000000049
 20
0.4368739999999889
 30
0.0
 11
0.0
 21
0.4368739999999889
 31
0.0
  0
LINE
  5
C10
330
BF0
100
AcDbEntity
  8
BLOCKS
100
AcDbLine
 10
0.1762850000000071
 20
0.4468739999999798
 30
0.0
 11
0.0080390000000534
 21
0.4468739999999798
 31
0.0
  0
ARC
  5
C11
330
BF0
100
AcDbEntity
  8
BLOCKS
100
AcDbCircle
 10
0.9959310000000414
 20
0.7834110000000015
 30
0.0
 40
1.093652999999999
100
AcDbArc
 50
205.944992000001
 51
211.617934000003
  0
LINE
  5
C12
330
BF0
100
AcDbEntity
  8
BLOCKS
100
AcDbLine
 10
0.1762850000000071
 20
0.783171000000039
 30
0.0
 11
0.0
 21
0.783171000000039
 31
0.0
  0
LINE
  5
C13
330
BF0
100
AcDbEntity
  8
BLOCKS
100
AcDbLine
 10
0.1662850000000162
 20
0.8350000000000369
 30
0.0
 11
0.0099999999999909
 21
0.8350000000000369
 31
0.0
  0
LINE
  5
C14
330
BF0
100
AcDbEntity
  8
BLOCKS
100
AcDbLine
 10
0.2823590000000422
 20
0.0299999999999727
 30
0.0
 11
0.3423589999999876
 21
0.0299999999999727
 31
0.0
  0
LINE
  5
C15
330
BF0
100
AcDbEntity
  8
BLOCKS
100
AcDbLine
 10
0.2823590000000422
 20
0.0299999999999727
 30
0.0
 11
0.2877670000000307
 21
0.169695000000047
 31
0.0
  0
LINE
  5
C16
330
BF0
100
AcDbEntity
  8
BLOCKS
100
AcDbLine
 10
0.3423589999999876
 20
0.0299999999999727
 30
0.0
 11
0.3369509999999991
 21
0.169695000000047
 31
0.0
  0
ARC
  5
C17
330
BF0
100
AcDbEntity
  8
BLOCKS
100
AcDbCircle
 10
0.0674209999999675
 20
0.1805970000000343
 30
0.0
 40
0.032006
100
AcDbArc
 50
22.39978799999996
 51
25.28331999999744
  0
ARC
  5
C18
330
BF0
100
AcDbEntity
  8
BLOCKS
100
AcDbCircle
 10
-0.5519090000000233
 20
-0.0053560000000061
 30
0.0
 40
0.678565
100
AcDbArc
 50
9.692853000002154
 51
17.10855899999848
  0
ARC
  5
C19
330
BF0
100
AcDbEntity
  8
BLOCKS
100
AcDbCircle
 10
-0.2224179999999478
 20
0.0025170000000117
 30
0.0
 40
0.355668
100
AcDbArc
 50
1.29848899999924
 51
17.40262399999983
  0
LINE
  5
C1A
330
BF0
100
AcDbEntity
  8
BLOCKS
100
AcDbLine
 10
0.5199999999999818
 20
0.0
 30
0.0
 11
0.1100000000000136
 21
0.0
 31
0.0
  0
ARC
  5
C1B
330
BF0
100
AcDbEntity
  8
BLOCKS
100
AcDbCircle
 10
1.180287000000021
 20
-0.0401480000000447
 30
0.0
 40
0.6615070000000002
100
AcDbArc
 50
141.939108999998
 51
176.520490000003
  0
ARC
  5
C1C
330
BF0
100
AcDbEntity
  8
BLOCKS
100
AcDbCircle
 10
0.3123590000000149
 20
0.1746150000000171
 30
0.0
 40
0.025079
100
AcDbArc
 50
348.6852989999986
 51
191.3147010000014
  0
ARC
  5
C1D
330
BF0
100
AcDbEntity
  8
BLOCKS
100
AcDbCircle
 10
-0.2104990000000271
 20
0.0406900000000405
 30
0.0
 40
0.323072
100
AcDbArc
 50
352.764619000002
 51
31.61793400000307
  0
ARC
  5
C1E
330
BF0
100
AcDbEntity
  8
BLOCKS
100
AcDbCircle
 10
0.5297329999999647
 20
0.391840000000002
 30
0.0
 40
0.47604
100
AcDbArc
 50
183.8998890000029
 51
204.521556000002
  0
ENDBLK
  5
C20
330
BF0
100
AcDbEntity
  8
0
100
AcDbBlockEnd
  0
BLOCK
  5
C43
330
C22
100
AcDbEntity
  8
0
100
AcDbBlockBegin
  2
104022AF
 70
     0
 10
0.0
 20
0.0
 30
0.0
  3
104022AF
  1

  0
LINE
  5
C23
330
C22
100
AcDbEntity
  8
BLOCKS
100
AcDbLine
 10
0.1749999999999545
 20
0.8300000000000409
 30
0.0
 11
0.1749999999999545
 21
0.7906709999999748
 31
0.0
  0
ARC
  5
C24
330
C22
100
AcDbEntity
  8
BLOCKS
100
AcDbCircle
 10
-0.1699999999999591
 20
0.7906709999999748
 30
0.0
 40
0.005
100
AcDbArc
 50
180.0
 51
270.0
  0
LINE
  5
C25
330
C22
100
AcDbEntity
  8
BLOCKS
100
AcDbLine
 10
-0.1749999999999545
 20
0.8300000000000409
 30
0.0
 11
-0.1749999999999545
 21
0.7906709999999748
 31
0.0
  0
ARC
  5
C26
330
C22
100
AcDbEntity
  8
BLOCKS
100
AcDbCircle
 10
-0.1699999999999591
 20
0.8300000000000409
 30
0.0
 40
0.005
100
AcDbArc
 50
90.0
 51
180.0
  0
ARC
  5
C27
330
C22
100
AcDbEntity
  8
BLOCKS
100
AcDbCircle
 10
-0.1699999999999591
 20
0.7756709999999885
 30
0.0
 40
0.005
100
AcDbArc
 50
90.0
 51
180.0
  0
LINE
  5
C28
330
C22
100
AcDbEntity
  8
BLOCKS
100
AcDbLine
 10
0.1699999999999591
 20
0.7806709999999839
 30
0.0
 11
-0.1699999999999591
 21
0.7806709999999839
 31
0.0
  0
LINE
  5
C29
330
C22
100
AcDbEntity
  8
BLOCKS
100
AcDbLine
 10
0.1699999999999591
 20
0.7856709999999794
 30
0.0
 11
-0.1699999999999591
 21
0.7856709999999794
 31
0.0
  0
LINE
  5
C2A
330
C22
100
AcDbEntity
  8
BLOCKS
100
AcDbLine
 10
0.1699999999999591
 20
0.8350000000000363
 30
0.0
 11
-0.1699999999999591
 21
0.8350000000000363
 31
0.0
  0
LINE
  5
C2B
330
C22
100
AcDbEntity
  8
BLOCKS
100
AcDbLine
 10
0.1660799999999654
 20
0.3999999999999772
 30
0.0
 11
0.0
 21
0.3999999999999772
 31
0.0
  0
LINE
  5
C2C
330
C22
100
AcDbEntity
  8
BLOCKS
100
AcDbLine
 10
0.1749999999999545
 20
0.4368739999999889
 30
0.0
 11
0.1749999999999545
 21
0.3945200000000568
 31
0.0
  0
ARC
  5
C2D
330
C22
100
AcDbEntity
  8
BLOCKS
100
AcDbCircle
 10
-0.1649999999999636
 20
0.4368739999999889
 30
0.0
 40
0.01
100
AcDbArc
 50
90.0
 51
180.0
  0
ARC
  5
C2E
330
C22
100
AcDbEntity
  8
BLOCKS
100
AcDbCircle
 10
-0.1699999999999591
 20
0.4518739999999753
 30
0.0
 40
0.005
100
AcDbArc
 50
180.0
 51
270.0
  0
ARC
  5
C2F
330
C22
100
AcDbEntity
  8
BLOCKS
100
AcDbCircle
 10
-0.1660799999999654
 20
0.3899999999999863
 30
0.0
 40
0.01
100
AcDbArc
 50
90.0
 51
206.3186889999986
  0
LINE
  5
C30
330
C22
100
AcDbEntity
  8
BLOCKS
100
AcDbLine
 10
-0.1749999999999545
 20
0.4368739999999889
 30
0.0
 11
-0.1749999999999545
 21
0.3945200000000568
 31
0.0
  0
ARC
  5
C31
330
C22
100
AcDbEntity
  8
BLOCKS
100
AcDbCircle
 10
-0.1649999999999636
 20
0.4238739999999553
 30
0.0
 40
0.01
100
AcDbArc
 50
90.0
 51
180.0
  0
LINE
  5
C32
330
C22
100
AcDbEntity
  8
BLOCKS
100
AcDbLine
 10
0.1699999999999591
 20
0.4468739999999798
 30
0.0
 11
-0.1699999999999591
 21
0.4468739999999798
 31
0.0
  0
LINE
  5
C33
330
C22
100
AcDbEntity
  8
BLOCKS
100
AcDbLine
 10
0.1649999999999636
 20
0.4338739999999462
 30
0.0
 11
-0.1649999999999636
 21
0.4338739999999462
 31
0.0
  0
LINE
  5
C34
330
C22
100
AcDbEntity
  8
BLOCKS
100
AcDbLine
 10
-0.1660799999999654
 20
0.3999999999999772
 30
0.0
 11
0.0
 21
0.3999999999999772
 31
0.0
  0
ARC
  5
C35
330
C22
100
AcDbEntity
  8
BLOCKS
100
AcDbCircle
 10
0.0852609999999459
 20
0.0099999999999909
 30
0.0
 40
0.01
100
AcDbArc
 50
270.0
 51
2.304969999997592
  0
ARC
  5
C36
330
C22
100
AcDbEntity
  8
BLOCKS
100
AcDbCircle
 10
-0.0852609999999459
 20
0.0099999999999909
 30
0.0
 40
0.01
100
AcDbArc
 50
177.6950300000024
 51
270.0
  0
LINE
  5
C37
330
C22
100
AcDbEntity
  8
BLOCKS
100
AcDbLine
 10
0.0852609999999459
 20
0.0
 30
0.0
 11
-0.0852609999999459
 21
0.0
 31
0.0
  0
ARC
  5
C38
330
C22
100
AcDbEntity
  8
BLOCKS
100
AcDbCircle
 10
-0.8704269999999496
 20
0.0416040000000066
 30
0.0
 40
0.7758030000000002
100
AcDbArc
 50
357.6950300000024
 51
26.3186889999986
  0
LINE
  5
C39
330
C22
100
AcDbEntity
  8
BLOCKS
100
AcDbLine
 10
-0.1749999999999545
 20
0.7756709999999885
 30
0.0
 11
-0.1749999999999545
 21
0.4518739999999753
 31
0.0
  0
LINE
  5
C3A
330
C22
100
AcDbEntity
  8
BLOCKS
100
AcDbLine
 10
0.1749999999999545
 20
0.7756709999999885
 30
0.0
 11
0.1749999999999545
 21
0.4518739999999753
 31
0.0
  0
ARC
  5
C3B
330
C22
100
AcDbEntity
  8
BLOCKS
100
AcDbCircle
 10
0.8704269999999496
 20
0.0416040000000066
 30
0.0
 40
0.7758030000000002
100
AcDbArc
 50
153.6813110000014
 51
182.3049699999975
  0
ARC
  5
C3C
330
C22
100
AcDbEntity
  8
BLOCKS
100
AcDbCircle
 10
0.1660799999999654
 20
0.3899999999999863
 30
0.0
 40
0.01
100
AcDbArc
 50
333.6813110000014
 51
90.0
  0
ARC
  5
C3D
330
C22
100
AcDbEntity
  8
BLOCKS
100
AcDbCircle
 10
0.1649999999999636
 20
0.4238739999999553
 30
0.0
 40
0.01
100
AcDbArc
 50
0.0
 51
90.0
  0
ARC
  5
C3E
330
C22
100
AcDbEntity
  8
BLOCKS
100
AcDbCircle
 10
0.1649999999999636
 20
0.4368739999999889
 30
0.0
 40
0.01
100
AcDbArc
 50
0.0
 51
90.0
  0
ARC
  5
C3F
330
C22
100
AcDbEntity
  8
BLOCKS
100
AcDbCircle
 10
0.1699999999999591
 20
0.4518739999999753
 30
0.0
 40
0.005
100
AcDbArc
 50
270.0
 51
0.0
  0
ARC
  5
C40
330
C22
100
AcDbEntity
  8
BLOCKS
100
AcDbCircle
 10
0.1699999999999591
 20
0.7756709999999885
 30
0.0
 40
0.005
100
AcDbArc
 50
0.0
 51
90.0
  0
ARC
  5
C41
330
C22
100
AcDbEntity
  8
BLOCKS
100
AcDbCircle
 10
0.1699999999999591
 20
0.7906709999999748
 30
0.0
 40
0.005
100
AcDbArc
 50
270.0
 51
0.0
  0
ARC
  5
C42
330
C22
100
AcDbEntity
  8
BLOCKS
100
AcDbCircle
 10
0.1699999999999591
 20
0.8300000000000409
 30
0.0
 40
0.005
100
AcDbArc
 50
0.0
 51
90.0
  0
ENDBLK
  5
C44
330
C22
100
AcDbEntity
  8
0
100
AcDbBlockEnd
  0
BLOCK
  5
D22
330
C46
100
AcDbEntity
  8
0
100
AcDbBlockBegin
  2
104022CT
 70
     0
 10
0.0
 20
0.0
 30
0.0
  3
104022CT
  1

  0
ARC
  5
C47
330
C46
100
AcDbEntity
  8
BLOCKS
100
AcDbCircle
 10
0.1351120000000492
 20
0.8150000000000545
 30
0.0
 40
0.01
100
AcDbArc
 50
8.324689999998044
 51
90.0
  0
LINE
  5
C48
330
C46
100
AcDbEntity
  8
BLOCKS
100
AcDbLine
 10
0.1081420000000435
 20
0.8350000000000363
 30
0.0
 11
0.1081420000000435
 21
0.8250000000000454
 31
0.0
  0
ARC
  5
C49
330
C46
100
AcDbEntity
  8
BLOCKS
100
AcDbCircle
 10
0.1612010000000055
 20
0.8045069999999441
 30
0.0
 40
0.003
100
AcDbArc
 50
188.324689999998
 51
270.0
  0
ARC
  5
C4A
330
C46
100
AcDbEntity
  8
BLOCKS
100
AcDbCircle
 10
0.1606610000000046
 20
0.8220079999999825
 30
0.0
 40
0.005
100
AcDbArc
 50
90.0
 51
188.324689999998
  0
ARC
  5
C4B
330
C46
100
AcDbEntity
  8
BLOCKS
100
AcDbCircle
 10
0.1612850000000208
 20
0.8220079999999825
 30
0.0
 40
0.005
100
AcDbArc
 50
0.0
 51
90.0
  0
ARC
  5
C4C
330
C46
100
AcDbEntity
  8
BLOCKS
100
AcDbCircle
 10
0.1612850000000208
 20
0.8065070000000105
 30
0.0
 40
0.005
100
AcDbArc
 50
270.0
 51
0.0
  0
LINE
  5
C4D
330
C46
100
AcDbEntity
  8
BLOCKS
100
AcDbLine
 10
0.1606610000000046
 20
0.8270079999999779
 30
0.0
 11
0.1612850000000208
 21
0.8270079999999779
 31
0.0
  0
LINE
  5
C4E
330
C46
100
AcDbEntity
  8
BLOCKS
100
AcDbLine
 10
0.1612010000000055
 20
0.801507000000015
 30
0.0
 11
0.1612850000000208
 21
0.801507000000015
 31
0.0
  0
LINE
  5
C4F
330
C46
100
AcDbEntity
  8
BLOCKS
100
AcDbLine
 10
0.1582319999999981
 20
0.8040720000000192
 30
0.0
 11
0.155713999999989
 21
0.8212839999999914
 31
0.0
  0
ARC
  5
C50
330
C46
100
AcDbEntity
  8
BLOCKS
100
AcDbCircle
 10
0.1670070000000123
 20
0.7868230000000267
 30
0.0
 40
0.005
100
AcDbArc
 50
146.2926409999973
 51
170.5869030000024
  0
ARC
  5
C51
330
C46
100
AcDbEntity
  8
BLOCKS
100
AcDbCircle
 10
0.1676139999999577
 20
0.7877340000000004
 30
0.0
 40
0.005
100
AcDbArc
 50
90.0
 51
146.2926409999973
  0
LINE
  5
C52
330
C46
100
AcDbEntity
  8
BLOCKS
100
AcDbLine
 10
0.1628470000000561
 20
0.7895979999999554
 30
0.0
 11
0.163454999999999
 21
0.7905090000000428
 31
0.0
  0
LINE
  5
C53
330
C46
100
AcDbEntity
  8
BLOCKS
100
AcDbLine
 10
0.1615040000000363
 20
0.7842000000000553
 30
0.0
 11
0.1620739999999614
 21
0.7876410000000078
 31
0.0
  0
LINE
  5
C54
330
C46
100
AcDbEntity
  8
BLOCKS
100
AcDbLine
 10
0.1676139999999577
 20
0.7927339999999959
 30
0.0
 11
0.1762850000000071
 21
0.7927339999999959
 31
0.0
  0
LINE
  5
C55
330
C46
100
AcDbEntity
  8
BLOCKS
100
AcDbLine
 10
0.1662850000000162
 20
0.7907340000000432
 30
0.0
 11
0.1762850000000071
 21
0.7907340000000432
 31
0.0
  0
ARC
  5
C56
330
C46
100
AcDbEntity
  8
BLOCKS
100
AcDbCircle
 10
0.1662850000000162
 20
0.8250000000000454
 30
0.0
 40
0.01
100
AcDbArc
 50
0.0
 51
90.0
  0
LINE
  5
C57
330
C46
100
AcDbEntity
  8
BLOCKS
100
AcDbLine
 10
0.1662850000000162
 20
0.8220079999999825
 30
0.0
 11
0.1662850000000162
 21
0.8065070000000105
 31
0.0
  0
ARC
  5
C58
330
C46
100
AcDbEntity
  8
BLOCKS
100
AcDbCircle
 10
0.0411729999999579
 20
0.8150000000000545
 30
0.0
 40
0.01
100
AcDbArc
 50
90.0
 51
171.6753100000019
  0
LINE
  5
C59
330
C46
100
AcDbEntity
  8
BLOCKS
100
AcDbLine
 10
0.0681419999999662
 20
0.8350000000000363
 30
0.0
 11
0.0681419999999662
 21
0.8250000000000454
 31
0.0
  0
LINE
  5
C5A
330
C46
100
AcDbEntity
  8
BLOCKS
100
AcDbLine
 10
0.1351120000000492
 20
0.8250000000000454
 30
0.0
 11
0.0411729999999579
 21
0.8250000000000454
 31
0.0
  0
ARC
  5
C5B
330
C46
100
AcDbEntity
  8
BLOCKS
100
AcDbCircle
 10
0.1599390000000085
 20
0.7841710000000149
 30
0.0
 40
0.001
100
AcDbArc
 50
270.0
 51
288.4282079999999
  0
LINE
  5
C5C
330
C46
100
AcDbEntity
  8
BLOCKS
100
AcDbLine
 10
0.1602550000000065
 20
0.7832220000000234
 30
0.0
 11
0.1608330000000251
 21
0.7834149999999909
 31
0.0
  0
LINE
  5
C5D
330
C46
100
AcDbEntity
  8
BLOCKS
100
AcDbLine
 10
0.1498759999999493
 20
0.7831710000000385
 30
0.0
 11
0.1450059999999667
 21
0.8164480000000366
 31
0.0
  0
LINE
  5
C5E
330
C46
100
AcDbEntity
  8
BLOCKS
100
AcDbLine
 10
0.0264089999999442
 20
0.7831710000000385
 30
0.0
 11
0.031278000000043
 21
0.8164480000000366
 31
0.0
  0
ARC
  5
C5F
330
C46
100
AcDbEntity
  8
BLOCKS
100
AcDbCircle
 10
0.1605170000000271
 20
0.7843639999999823
 30
0.0
 40
0.001
100
AcDbArc
 50
288.4282079999999
 51
350.5869030000024
  0
ARC
  5
C60
330
C46
100
AcDbEntity
  8
BLOCKS
100
AcDbCircle
 10
0.6540529999999763
 20
0.3435779999999795
 30
0.0
 40
0.056427
100
AcDbArc
 50
90.81257999999822
 51
139.8093130000011
  0
LINE
  5
C61
330
C46
100
AcDbEntity
  8
BLOCKS
100
AcDbLine
 10
0.6145539999999983
 20
0.3510730000000422
 30
0.0
 11
0.6319529999999532
 21
0.3510730000000422
 31
0.0
  0
ARC
  5
C62
330
C46
100
AcDbEntity
  8
BLOCKS
100
AcDbCircle
 10
0.6540529999999763
 20
0.3435779999999795
 30
0.0
 40
0.046427
100
AcDbArc
 50
96.70801699999733
 51
162.4465859999996
  0
ARC
  5
C63
330
C46
100
AcDbEntity
  8
BLOCKS
100
AcDbCircle
 10
0.6415040000000545
 20
0.3541790000000446
 30
0.0
 40
0.04
100
AcDbArc
 50
139.8093130000011
 51
153.3184469999976
  0
ARC
  5
C64
330
C46
100
AcDbEntity
  8
BLOCKS
100
AcDbCircle
 10
0.6145539999999983
 20
0.3560730000000376
 30
0.0
 40
0.005
100
AcDbArc
 50
162.4465859999996
 51
270.0
  0
ARC
  5
C65
330
C46
100
AcDbEntity
  8
BLOCKS
100
AcDbCircle
 10
0.6180419999999458
 20
0.3360730000000558
 30
0.0
 40
0.005
100
AcDbArc
 50
326.2119429999986
 51
90.0
  0
ARC
  5
C66
330
C46
100
AcDbEntity
  8
BLOCKS
100
AcDbCircle
 10
0.6319529999999532
 20
0.3560730000000376
 30
0.0
 40
0.005
100
AcDbArc
 50
270.0
 51
324.1485300000008
  0
ARC
  5
C67
330
C46
100
AcDbEntity
  8
BLOCKS
100
AcDbCircle
 10
0.6492140000000291
 20
0.3847220000000107
 30
0.0
 40
0.005
100
AcDbArc
 50
26.89049300000294
 51
96.70801699999733
  0
ARC
  5
C68
330
C46
100
AcDbEntity
  8
BLOCKS
100
AcDbCircle
 10
0.6436179999999468
 20
0.3818850000000111
 30
0.0
 40
0.011274
100
AcDbArc
 50
318.0731159999996
 51
26.89049300000294
  0
ARC
  5
C69
330
C46
100
AcDbEntity
  8
BLOCKS
100
AcDbCircle
 10
1.180287000000021
 20
-0.0401480000000447
 30
0.0
 40
0.6715070000000001
100
AcDbArc
 50
141.939108999998
 51
144.1485300000009
  0
ARC
  5
C6A
330
C46
100
AcDbEntity
  8
BLOCKS
100
AcDbCircle
 10
0.6532529999999497
 20
0.3949999999999818
 30
0.0
 40
0.005
100
AcDbArc
 50
53.70030199999851
 51
90.0
  0
ARC
  5
C6B
330
C46
100
AcDbEntity
  8
BLOCKS
100
AcDbCircle
 10
0.6436179999999468
 20
0.3818850000000111
 30
0.0
 40
0.021274
100
AcDbArc
 50
318.0731159999996
 51
53.70030199999851
  0
LINE
  5
C6C
330
C46
100
AcDbEntity
  8
BLOCKS
100
AcDbLine
 10
0.5901499999999942
 20
0.3410730000000512
 30
0.0
 11
0.6057630000000245
 21
0.372141000000056
 31
0.0
  0
ARC
  5
C6D
330
C46
100
AcDbEntity
  8
BLOCKS
100
AcDbCircle
 10
0.553309000000013
 20
0.2139369999999872
 30
0.0
 40
0.005
100
AcDbArc
 50
337.9395699999975
 51
126.3013319999986
  0
ARC
  5
C6E
330
C46
100
AcDbEntity
  8
BLOCKS
100
AcDbCircle
 10
0.4615740000000415
 20
0.3386410000000524
 30
0.0
 40
0.140867
100
AcDbArc
 50
296.2901010000032
 51
329.6840249999986
  0
LINE
  5
C6F
330
C46
100
AcDbEntity
  8
BLOCKS
100
AcDbLine
 10
0.5831789999999728
 20
0.2675349999999526
 30
0.0
 11
0.6221980000000258
 21
0.3332920000000286
 31
0.0
  0
ARC
  5
C70
330
C46
100
AcDbEntity
  8
BLOCKS
100
AcDbCircle
 10
0.3317409999999654
 20
0.576960999999983
 30
0.0
 40
0.4121850000000002
100
AcDbArc
 50
295.5706760000001
 51
297.7980629999974
  0
LINE
  5
C71
330
C46
100
AcDbEntity
  8
BLOCKS
100
AcDbLine
 10
0.1347660000000133
 20
0.437404000000015
 30
0.0
 11
0.1376800000000458
 21
0.4468739999999798
 31
0.0
  0
ARC
  5
C72
330
C46
100
AcDbEntity
  8
BLOCKS
100
AcDbCircle
 10
0.1732849999999644
 20
0.4438740000000508
 30
0.0
 40
0.003
100
AcDbArc
 50
0.0
 51
90.0
  0
LINE
  5
C73
330
C46
100
AcDbEntity
  8
BLOCKS
100
AcDbLine
 10
0.1181420000000344
 20
0.4616590000000543
 30
0.0
 11
0.1181420000000344
 21
0.4500000000000455
 31
0.0
  0
ARC
  5
C74
330
C46
100
AcDbEntity
  8
BLOCKS
100
AcDbCircle
 10
0.1562850000000253
 20
0.4716590000000452
 30
0.0
 40
0.01
100
AcDbArc
 50
270.0
 51
0.0
  0
ARC
  5
C75
330
C46
100
AcDbEntity
  8
BLOCKS
100
AcDbCircle
 10
0.1662850000000162
 20
0.4600000000000364
 30
0.0
 40
0.01
100
AcDbArc
 50
270.0
 51
0.0
  0
LINE
  5
C76
330
C46
100
AcDbEntity
  8
BLOCKS
100
AcDbLine
 10
0.0415189999999939
 20
0.437404000000015
 30
0.0
 11
0.0386049999999614
 21
0.4468739999999798
 31
0.0
  0
LINE
  5
C77
330
C46
100
AcDbEntity
  8
BLOCKS
100
AcDbLine
 10
0.0581419999999753
 20
0.4616590000000543
 30
0.0
 11
0.0581419999999753
 21
0.4500000000000455
 31
0.0
  0
LINE
  5
C78
330
C46
100
AcDbEntity
  8
BLOCKS
100
AcDbLine
 10
0.1562850000000253
 20
0.4616590000000543
 30
0.0
 11
0.0199999999999818
 21
0.4616590000000543
 31
0.0
  0
ARC
  5
C79
330
C46
100
AcDbEntity
  8
BLOCKS
100
AcDbCircle
 10
0.28937499999995
 20
0.3310729999999467
 30
0.0
 40
0.01
100
AcDbArc
 50
90.0
 51
198.6307840000016
  0
ARC
  5
C7A
330
C46
100
AcDbEntity
  8
BLOCKS
100
AcDbCircle
 10
0.3015699999999697
 20
0.3460730000000467
 30
0.0
 40
0.005
100
AcDbArc
 50
270.0
 51
15.21406900000003
  0
ARC
  5
C7B
330
C46
100
AcDbEntity
  8
BLOCKS
100
AcDbCircle
 10
0.2884870000000319
 20
0.3560730000000376
 30
0.0
 40
0.005
100
AcDbArc
 50
270.0
 51
15.21406900000003
  0
ARC
  5
C7C
330
C46
100
AcDbEntity
  8
BLOCKS
100
AcDbCircle
 10
0.2882640000000265
 20
0.3949999999999818
 30
0.0
 40
0.005
100
AcDbArc
 50
15.21406900000003
 51
90.0
  0
ARC
  5
C7D
330
C46
100
AcDbEntity
  8
BLOCKS
100
AcDbCircle
 10
0.280619999999999
 20
0.3849999999999909
 30
0.0
 40
0.005
100
AcDbArc
 50
15.21406900000003
 51
90.0
  0
LINE
  5
C7E
330
C46
100
AcDbEntity
  8
BLOCKS
100
AcDbLine
 10
0.3063949999999522
 20
0.3473850000000311
 30
0.0
 11
0.293089000000009
 21
0.3963119999999662
 31
0.0
  0
LINE
  5
C7F
330
C46
100
AcDbEntity
  8
BLOCKS
100
AcDbLine
 10
0.2933120000000144
 20
0.357385000000022
 30
0.0
 11
0.2854449999999815
 21
0.3863119999999753
 31
0.0
  0
LINE
  5
C80
330
C46
100
AcDbEntity
  8
BLOCKS
100
AcDbLine
 10
0.2933359999999538
 20
0.3410730000000512
 30
0.0
 11
0.290616
 21
0.3510730000000422
 31
0.0
  0
LINE
  5
C81
330
C46
100
AcDbEntity
  8
BLOCKS
100
AcDbLine
 10
0.2880410000000211
 20
0.3410730000000512
 30
0.0
 11
0.2853209999999535
 21
0.3510730000000422
 31
0.0
  0
ARC
  5
C82
330
C46
100
AcDbEntity
  8
BLOCKS
100
AcDbCircle
 10
0.2309649999999692
 20
0.4049999999999728
 30
0.0
 40
0.005
100
AcDbArc
 50
180.0
 51
270.0
  0
ARC
  5
C83
330
C46
100
AcDbEntity
  8
BLOCKS
100
AcDbCircle
 10
0.2209649999999783
 20
0.3949999999999818
 30
0.0
 40
0.005
100
AcDbArc
 50
180.0
 51
270.0
  0
ARC
  5
C84
330
C46
100
AcDbEntity
  8
BLOCKS
100
AcDbCircle
 10
0.2109649999999874
 20
0.4088739999999689
 30
0.0
 40
0.005
100
AcDbArc
 50
0.0
 51
90.0
  0
LINE
  5
C85
330
C46
100
AcDbEntity
  8
BLOCKS
100
AcDbLine
 10
0.2159649999999829
 20
0.4088739999999689
 30
0.0
 11
0.2159649999999829
 21
0.3949999999999818
 31
0.0
  0
ARC
  5
C86
330
C46
100
AcDbEntity
  8
BLOCKS
100
AcDbCircle
 10
0.2209649999999783
 20
0.4288739999999507
 30
0.0
 40
0.005
100
AcDbArc
 50
0.0
 51
90.0
  0
LINE
  5
C87
330
C46
100
AcDbEntity
  8
BLOCKS
100
AcDbLine
 10
0.2259649999999738
 20
0.4288739999999507
 30
0.0
 11
0.2259649999999738
 21
0.4049999999999728
 31
0.0
  0
ARC
  5
C88
330
C46
100
AcDbEntity
  8
BLOCKS
100
AcDbCircle
 10
0.2398080000000391
 20
0.371073000000024
 30
0.0
 40
0.03
100
AcDbArc
 50
257.8010629999978
 51
270.0
  0
ARC
  5
C89
330
C46
100
AcDbEntity
  8
BLOCKS
100
AcDbCircle
 10
0.2408769999999549
 20
0.3810730000000149
 30
0.0
 40
0.03
100
AcDbArc
 50
257.8010629999978
 51
270.0
  0
LINE
  5
C8A
330
C46
100
AcDbEntity
  8
BLOCKS
100
AcDbLine
 10
0.2398080000000391
 20
0.3410730000000512
 30
0.0
 11
0.2579170000000204
 21
0.3410730000000512
 31
0.0
  0
LINE
  5
C8B
330
C46
100
AcDbEntity
  8
BLOCKS
100
AcDbLine
 10
0.280619999999999
 20
0.3899999999999863
 30
0.0
 11
0.2209649999999783
 21
0.3899999999999863
 31
0.0
  0
ARC
  5
C8C
330
C46
100
AcDbEntity
  8
BLOCKS
100
AcDbCircle
 10
0.2579170000000204
 20
0.3310729999999467
 30
0.0
 40
0.01
100
AcDbArc
 50
16.46752800000199
 51
90.0
  0
LINE
  5
C8D
330
C46
100
AcDbEntity
  8
BLOCKS
100
AcDbLine
 10
0.2408769999999549
 20
0.3510730000000422
 30
0.0
 11
0.2884870000000319
 21
0.3510730000000422
 31
0.0
  0
ARC
  5
C8E
330
C46
100
AcDbEntity
  8
BLOCKS
100
AcDbCircle
 10
0.3143700000000535
 20
0.197035000000028
 30
0.0
 40
0.03
100
AcDbArc
 50
43.45381100000001
 51
107.2142259999978
  0
ARC
  5
C8F
330
C46
100
AcDbEntity
  8
BLOCKS
100
AcDbCircle
 10
0.282703999999967
 20
0.2992420000000493
 30
0.0
 40
0.077
100
AcDbArc
 50
272.8675439999969
 51
287.2142259999979
  0
ARC
  5
C90
330
C46
100
AcDbEntity
  8
BLOCKS
100
AcDbCircle
 10
0.282703999999967
 20
0.2992420000000493
 30
0.0
 40
0.067
100
AcDbArc
 50
271.9683619999982
 51
296.9206680000026
  0
ARC
  5
C91
330
C46
100
AcDbEntity
  8
BLOCKS
100
AcDbCircle
 10
0.311523999999963
 20
0.2427589999999782
 30
0.0
 40
0.003592
100
AcDbArc
 50
294.9395680000003
 51
39.07498699999875
  0
ARC
  5
C92
330
C46
100
AcDbEntity
  8
BLOCKS
100
AcDbCircle
 10
0.2195209999999861
 20
0.2371570000000247
 30
0.0
 40
0.02
100
AcDbArc
 50
270.0
 51
281.5989100000018
  0
ARC
  5
C93
330
C46
100
AcDbEntity
  8
BLOCKS
100
AcDbCircle
 10
0.2205340000000433
 20
0.2271570000000338
 30
0.0
 40
0.02
100
AcDbArc
 50
270.0
 51
281.5381889999998
  0
ARC
  5
C94
330
C46
100
AcDbEntity
  8
BLOCKS
100
AcDbCircle
 10
0.0283419999999524
 20
1.168596999999977
 30
0.0
 40
0.9708580000000001
100
AcDbArc
 50
281.5989100000018
 51
285.3293499999988
  0
ARC
  5
C95
330
C46
100
AcDbEntity
  8
BLOCKS
100
AcDbCircle
 10
0.0283419999999524
 20
1.168596999999977
 30
0.0
 40
0.980858
100
AcDbArc
 50
281.5381889999998
 51
285.263167000002
  0
ARC
  5
C96
330
C46
100
AcDbEntity
  8
BLOCKS
100
AcDbCircle
 10
0.5132439999999861
 20
0.406547000000046
 30
0.0
 40
0.246249
100
AcDbArc
 50
198.6307840000016
 51
219.0749869999988
  0
ARC
  5
C97
330
C46
100
AcDbEntity
  8
BLOCKS
100
AcDbCircle
 10
0.5132439999999861
 20
0.406547000000046
 30
0.0
 40
0.256249
100
AcDbArc
 50
196.467528000002
 51
219.0749869999988
  0
LINE
  5
C98
330
C46
100
AcDbEntity
  8
BLOCKS
100
AcDbLine
 10
0.1662850000000162
 20
0.4238739999999553
 30
0.0
 11
0.1662850000000162
 21
0.426513
 31
0.0
  0
ARC
  5
C99
330
C46
100
AcDbEntity
  8
BLOCKS
100
AcDbCircle
 10
0.1762850000000071
 20
0.4238739999999553
 30
0.0
 40
0.01
100
AcDbArc
 50
180.0
 51
270.0
  0
ARC
  5
C9A
330
C46
100
AcDbEntity
  8
BLOCKS
100
AcDbCircle
 10
0.133006000000023
 20
0.4338739999999462
 30
0.0
 40
0.01
100
AcDbArc
 50
270.0
 51
317.1826249999974
  0
LINE
  5
C9B
330
C46
100
AcDbEntity
  8
BLOCKS
100
AcDbLine
 10
0.1403410000000349
 20
0.4270770000000539
 30
0.0
 11
0.1456369999999651
 21
0.4318009999999504
 31
0.0
  0
ARC
  5
C9C
330
C46
100
AcDbEntity
  8
BLOCKS
100
AcDbCircle
 10
0.1792850000000499
 20
0.426873999999998
 30
0.0
 40
0.003
100
AcDbArc
 50
180.0
 51
270.0
  0
LINE
  5
C9D
330
C46
100
AcDbEntity
  8
BLOCKS
100
AcDbLine
 10
0.1201419999999871
 20
0.4239479999999958
 30
0.0
 11
0.1221420000000535
 21
0.4338739999999462
 31
0.0
  0
ARC
  5
C9E
330
C46
100
AcDbEntity
  8
BLOCKS
100
AcDbCircle
 10
0.0544609999999466
 20
0.3748030000000426
 30
0.0
 40
0.01
100
AcDbArc
 50
270.0
 51
328.5601199999983
  0
ARC
  5
C9F
330
C46
100
AcDbEntity
  8
BLOCKS
100
AcDbCircle
 10
0.050974999999994
 20
0.3769340000000056
 30
0.0
 40
0.014086
100
AcDbArc
 50
328.5601199999983
 51
5.952442000001849
  0
ARC
  5
CA0
330
C46
100
AcDbEntity
  8
BLOCKS
100
AcDbCircle
 10
0.0391419999999698
 20
0.4308740000000171
 30
0.0
 40
0.007
100
AcDbArc
 50
180.0
 51
270.0
  0
ARC
  5
CA1
330
C46
100
AcDbEntity
  8
BLOCKS
100
AcDbCircle
 10
0.0311420000000453
 20
0.4318319999999858
 30
0.0
 40
0.001
100
AcDbArc
 50
0.0
 51
47.68405499999877
  0
LINE
  5
CA2
330
C46
100
AcDbEntity
  8
BLOCKS
100
AcDbLine
 10
0.0321420000000217
 20
0.4318319999999858
 30
0.0
 11
0.0321420000000217
 21
0.4308740000000171
 31
0.0
  0
ARC
  5
CA3
330
C46
100
AcDbEntity
  8
BLOCKS
100
AcDbCircle
 10
0.0880750000000035
 20
0.4550309999999627
 30
0.0
 40
0.07
100
AcDbArc
 50
205.9538900000036
 51
257.8010629999978
  0
ARC
  5
CA4
330
C46
100
AcDbEntity
  8
BLOCKS
100
AcDbCircle
 10
0.0284500000000207
 20
0.4288739999999507
 30
0.0
 40
0.005
100
AcDbArc
 50
47.68405499999877
 51
197.1027290000004
  0
LINE
  5
CA5
330
C46
100
AcDbEntity
  8
BLOCKS
100
AcDbLine
 10
0.0251349999999775
 20
0.4243950000000041
 30
0.0
 11
0.0236710000000358
 21
0.4274040000000241
 31
0.0
  0
LINE
  5
CA6
330
C46
100
AcDbEntity
  8
BLOCKS
100
AcDbLine
 10
0.0561420000000226
 20
0.4239479999999958
 30
0.0
 11
0.0541419999999562
 21
0.4338739999999462
 31
0.0
  0
LINE
  5
CA7
330
C46
100
AcDbEntity
  8
BLOCKS
100
AcDbLine
 10
0.133006000000023
 20
0.4238739999999553
 30
0.0
 11
0.0391419999999698
 21
0.4238739999999553
 31
0.0
  0
LINE
  5
CA8
330
C46
100
AcDbEntity
  8
BLOCKS
100
AcDbLine
 10
0.1299870000000283
 20
0.4338739999999462
 30
0.0
 11
0.0462979999999789
 21
0.4338739999999462
 31
0.0
  0
ARC
  5
CA9
330
C46
100
AcDbEntity
  8
BLOCKS
100
AcDbCircle
 10
0.1460200000000213
 20
0.2121570000000474
 30
0.0
 40
0.005
100
AcDbArc
 50
90.0
 51
180.0
  0
LINE
  5
CAA
330
C46
100
AcDbEntity
  8
BLOCKS
100
AcDbLine
 10
0.0732839999999442
 20
0.3866110000000162
 30
0.0
 11
0.2345380000000432
 21
0.3517500000000382
 31
0.0
  0
LINE
  5
CAB
330
C46
100
AcDbEntity
  8
BLOCKS
100
AcDbLine
 10
0.0664199999999937
 20
0.377864000000045
 30
0.0
 11
0.2334690000000137
 21
0.3417500000000473
 31
0.0
  0
LINE
  5
CAC
330
C46
100
AcDbEntity
  8
BLOCKS
100
AcDbLine
 10
0.2209649999999783
 20
0.4338739999999462
 30
0.0
 11
0.1762850000000071
 21
0.4338739999999462
 31
0.0
  0
LINE
  5
CAD
330
C46
100
AcDbEntity
  8
BLOCKS
100
AcDbLine
 10
0.2109649999999874
 20
0.4138739999999644
 30
0.0
 11
0.1762850000000071
 21
0.4138739999999644
 31
0.0
  0
LINE
  5
CAE
330
C46
100
AcDbEntity
  8
BLOCKS
100
AcDbLine
 10
0.2259649999999738
 20
0.4238739999999553
 30
0.0
 11
0.1792850000000499
 21
0.4238739999999553
 31
0.0
  0
LINE
  5
CAF
330
C46
100
AcDbEntity
  8
BLOCKS
100
AcDbLine
 10
0.1410200000000259
 20
0.207157000000052
 30
0.0
 11
0.2205340000000433
 21
0.207157000000052
 31
0.0
  0
LINE
  5
CB0
330
C46
100
AcDbEntity
  8
BLOCKS
100
AcDbLine
 10
0.1460200000000213
 20
0.2171570000000429
 30
0.0
 11
0.2195209999999861
 21
0.2171570000000429
 31
0.0
  0
ARC
  5
CB1
330
C46
100
AcDbEntity
  8
BLOCKS
100
AcDbCircle
 10
0.1562850000000253
 20
0.426513
 30
0.0
 40
0.01
100
AcDbArc
 50
0.0
 51
105.4480620000008
  0
ARC
  5
CB2
330
C46
100
AcDbEntity
  8
BLOCKS
100
AcDbCircle
 10
0.1589480000000094
 20
0.4168740000000071
 30
0.0
 40
0.02
100
AcDbArc
 50
105.4480620000008
 51
131.7273439999969
  0
ARC
  5
CB3
330
C46
100
AcDbEntity
  8
BLOCKS
100
AcDbCircle
 10
0.1299870000000283
 20
0.4388740000000553
 30
0.0
 40
0.005
100
AcDbArc
 50
270.0
 51
342.8972709999995
  0
ARC
  5
CB4
330
C46
100
AcDbEntity
  8
BLOCKS
100
AcDbCircle
 10
0.0462979999999789
 20
0.4388740000000553
 30
0.0
 40
0.005
100
AcDbArc
 50
197.1027290000004
 51
270.0
  0
LINE
  5
CB5
330
C46
100
AcDbEntity
  8
BLOCKS
100
AcDbLine
 10
0.1762850000000071
 20
0.4438740000000508
 30
0.0
 11
0.1762850000000071
 21
0.426873999999998
 31
0.0
  0
LINE
  5
CB6
330
C46
100
AcDbEntity
  8
BLOCKS
100
AcDbLine
 10
0.6532529999999497
 20
0.3999999999999772
 30
0.0
 11
0.2309649999999692
 21
0.3999999999999772
 31
0.0
  0
LINE
  5
CB7
330
C46
100
AcDbEntity
  8
BLOCKS
100
AcDbLine
 10
0.28937499999995
 20
0.3410730000000512
 30
0.0
 11
0.6180419999999458
 21
0.3410730000000512
 31
0.0
  0
ARC
  5
CB8
330
C46
100
AcDbEntity
  8
BLOCKS
100
AcDbCircle
 10
0.7292290000000321
 20
0.556824000000006
 30
0.0
 40
0.5090209999999999
100
AcDbArc
 50
216.8817780000021
 51
222.1951259999989
  0
ARC
  5
CB9
330
C46
100
AcDbEntity
  8
BLOCKS
100
AcDbCircle
 10
0.5239659999999731
 20
0.189879000000019
 30
0.0
 40
0.01
100
AcDbArc
 50
116.4089669999969
 51
180.0
  0
ARC
  5
CBA
330
C46
100
AcDbEntity
  8
BLOCKS
100
AcDbCircle
 10
0.3317409999999654
 20
0.576960999999983
 30
0.0
 40
0.422185
100
AcDbArc
 50
296.4089669999969
 51
297.7980629999974
  0
ARC
  5
CBB
330
C46
100
AcDbEntity
  8
BLOCKS
100
AcDbCircle
 10
0.453738000000044
 20
0.0530320000000302
 30
0.0
 40
0.03
100
AcDbArc
 50
283.7659009999971
 51
313.4987040000029
  0
ARC
  5
CBC
330
C46
100
AcDbEntity
  8
BLOCKS
100
AcDbCircle
 10
0.4658210000000054
 20
0.0045129999999745
 30
0.0
 40
0.01
100
AcDbArc
 50
31.07919499999682
 51
103.8194669999985
  0
ARC
  5
CBD
330
C46
100
AcDbEntity
  8
BLOCKS
100
AcDbCircle
 10
0.4915150000000495
 20
0.0199999999999818
 30
0.0
 40
0.02
100
AcDbArc
 50
211.0791949999968
 51
270.0
  0
ARC
  5
CBE
330
C46
100
AcDbEntity
  8
BLOCKS
100
AcDbCircle
 10
0.4915150000000495
 20
0.0199999999999818
 30
0.0
 40
0.01
100
AcDbArc
 50
135.5002220000006
 51
270.0
  0
LINE
  5
CBF
330
C46
100
AcDbEntity
  8
BLOCKS
100
AcDbLine
 10
0.5014400000000024
 20
0.0099999999999909
 30
0.0
 11
0.4915150000000495
 21
0.0099999999999909
 31
0.0
  0
ARC
  5
CC0
330
C46
100
AcDbEntity
  8
BLOCKS
100
AcDbCircle
 10
0.4958500000000186
 20
0.0676770000000033
 30
0.0
 40
0.01
100
AcDbArc
 50
339.4878460000005
 51
0.0
  0
ARC
  5
CC1
330
C46
100
AcDbEntity
  8
BLOCKS
100
AcDbCircle
 10
0.4958500000000186
 20
0.0676770000000033
 30
0.0
 40
0.01
100
AcDbArc
 50
339.4878460000005
 51
0.0
  0
ARC
  5
CC2
330
C46
100
AcDbEntity
  8
BLOCKS
100
AcDbCircle
 10
0.4265249999999697
 20
0.0838649999999461
 30
0.0
 40
0.081118
100
AcDbArc
 50
315.5002220000006
 51
345.9507319999977
  0
ARC
  5
CC3
330
C46
100
AcDbEntity
  8
BLOCKS
100
AcDbCircle
 10
0.4845330000000559
 20
0.0666009999999915
 30
0.0
 40
0.01
100
AcDbArc
 50
334.3614999999973
 51
353.8305520000023
  0
ARC
  5
CC4
330
C46
100
AcDbEntity
  8
BLOCKS
100
AcDbCircle
 10
0.2289500000000544
 20
0.0942280000000437
 30
0.0
 40
0.2670710000000001
100
AcDbArc
 50
353.8305520000023
 51
357.9471650000019
  0
ARC
  5
CC5
330
C46
100
AcDbEntity
  8
BLOCKS
100
AcDbCircle
 10
0.4252350000000434
 20
0.0830690000000232
 30
0.0
 40
0.071409
100
AcDbArc
 50
313.4987040000029
 51
343.069341999998
  0
ARC
  5
CC6
330
C46
100
AcDbEntity
  8
BLOCKS
100
AcDbCircle
 10
0.4169289999999819
 20
0.2032749999999623
 30
0.0
 40
0.184686
100
AcDbArc
 50
274.0542359999994
 51
283.7659009999971
  0
ARC
  5
CC7
330
C46
100
AcDbEntity
  8
BLOCKS
100
AcDbCircle
 10
0.4169289999999819
 20
0.2032749999999623
 30
0.0
 40
0.194686
100
AcDbArc
 50
274.0542359999994
 51
283.8194669999986
  0
ARC
  5
CC8
330
C46
100
AcDbEntity
  8
BLOCKS
100
AcDbCircle
 10
0.4092570000000251
 20
0.0874919999999975
 30
0.0
 40
0.003
100
AcDbArc
 50
192.9635500000003
 51
224.6579369999975
  0
ARC
  5
CC9
330
C46
100
AcDbEntity
  8
BLOCKS
100
AcDbCircle
 10
0.410933
 20
0.0891470000000254
 30
0.0
 40
0.005355
100
AcDbArc
 50
224.6579369999975
 51
340.9251990000011
  0
ARC
  5
CCA
330
C46
100
AcDbEntity
  8
BLOCKS
100
AcDbCircle
 10
0.3954989999999725
 20
0.0587500000000318
 30
0.0
 40
0.03
100
AcDbArc
 50
212.7983490000005
 51
232.3392140000015
  0
ARC
  5
CCB
330
C46
100
AcDbEntity
  8
BLOCKS
100
AcDbCircle
 10
0.3879799999999704
 20
0.0519560000000183
 30
0.0
 40
0.03
100
AcDbArc
 50
212.7983490000005
 51
230.5431660000001
  0
ARC
  5
CCC
330
C46
100
AcDbEntity
  8
BLOCKS
100
AcDbCircle
 10
0.4245089999999437
 20
0.0963369999999486
 30
0.0
 40
0.077481
100
AcDbArc
 50
232.3392140000015
 51
274.0542359999994
  0
ARC
  5
CCD
330
C46
100
AcDbEntity
  8
BLOCKS
100
AcDbCircle
 10
0.4245089999999437
 20
0.0963369999999486
 30
0.0
 40
0.087481
100
AcDbArc
 50
230.5431660000001
 51
274.0542359999994
  0
LINE
  5
CCE
330
C46
100
AcDbEntity
  8
BLOCKS
100
AcDbLine
 10
0.5039659999999913
 20
0.1961280000000443
 30
0.0
 11
0.4958500000000186
 21
0.0846609999999828
 31
0.0
  0
ARC
  5
CCF
330
C46
100
AcDbEntity
  8
BLOCKS
100
AcDbCircle
 10
0.4131579999999531
 20
0.0883770000000368
 30
0.0
 40
0.003
100
AcDbArc
 50
340.9251990000011
 51
12.96117200000132
  0
ARC
  5
CD0
330
C46
100
AcDbEntity
  8
BLOCKS
100
AcDbCircle
 10
0.5014400000000024
 20
0.0199999999999818
 30
0.0
 40
0.01
100
AcDbArc
 50
270.0
 51
354.9366460000004
  0
LINE
  5
CD1
330
C46
100
AcDbEntity
  8
BLOCKS
100
AcDbLine
 10
0.5139659999999822
 20
0.189879000000019
 30
0.0
 11
0.5058500000000095
 21
0.0676770000000033
 31
0.0
  0
ARC
  5
CD2
330
C46
100
AcDbEntity
  8
BLOCKS
100
AcDbCircle
 10
0.2925520000000006
 20
0.1077350000000479
 30
0.0
 40
0.02
100
AcDbArc
 50
32.79834900000053
 51
104.1979299999976
  0
ARC
  5
CD3
330
C46
100
AcDbEntity
  8
BLOCKS
100
AcDbCircle
 10
0.2970659999999725
 20
0.1191919999999982
 30
0.0
 40
0.02
100
AcDbArc
 50
32.79834900000053
 51
104.1979299999976
  0
LINE
  5
CD4
330
C46
100
AcDbEntity
  8
BLOCKS
100
AcDbLine
 10
0.223814999999945
 20
0.1112900000000536
 30
0.0
 11
0.2009600000000091
 21
0.1112900000000536
 31
0.0
  0
ARC
  5
CD5
330
C46
100
AcDbEntity
  8
BLOCKS
100
AcDbCircle
 10
0.223814999999945
 20
0.1212900000000445
 30
0.0
 40
0.01
100
AcDbArc
 50
270.0
 51
284.1979299999976
  0
ARC
  5
CD6
330
C46
100
AcDbEntity
  8
BLOCKS
100
AcDbCircle
 10
0.223814999999945
 20
0.1212900000000445
 30
0.0
 40
0.01
100
AcDbArc
 50
270.0
 51
284.1979299999976
  0
ARC
  5
CD7
330
C46
100
AcDbEntity
  8
BLOCKS
100
AcDbCircle
 10
0.2213040000000319
 20
0.1309700000000475
 30
0.0
 40
0.01
100
AcDbArc
 50
270.6725110000022
 51
284.1979299999976
  0
ARC
  5
CD8
330
C46
100
AcDbEntity
  8
BLOCKS
100
AcDbCircle
 10
0.2009600000000091
 20
0.101289999999949
 30
0.0
 40
0.01
100
AcDbArc
 50
90.0
 51
172.9161169999969
  0
LINE
  5
CD9
330
C46
100
AcDbEntity
  8
BLOCKS
100
AcDbLine
 10
0.2237569999999778
 20
0.1212749999999687
 30
0.0
 11
0.2921599999999671
 21
0.1385820000000422
 31
0.0
  0
LINE
  5
CDA
330
C46
100
AcDbEntity
  8
BLOCKS
100
AcDbLine
 10
0.2262670000000071
 20
0.1115959999999632
 30
0.0
 11
0.2876469999999926
 21
0.1271249999999782
 31
0.0
  0
ARC
  5
CDB
330
C46
100
AcDbEntity
  8
BLOCKS
100
AcDbCircle
 10
0.2260270000000446
 20
0.0672839999999724
 30
0.0
 40
0.01
100
AcDbArc
 50
270.0
 51
350.7789800000032
  0
ARC
  5
CDC
330
C46
100
AcDbEntity
  8
BLOCKS
100
AcDbCircle
 10
0.2725930000000289
 20
0.0528890000000502
 30
0.0
 40
0.040762
100
AcDbArc
 50
170.5766310000028
 51
345.368352000002
  0
LINE
  5
CDD
330
C46
100
AcDbEntity
  8
BLOCKS
100
AcDbLine
 10
0.1910370000000512
 20
0.1025230000000192
 30
0.0
 11
0.1866629999999532
 21
0.06732599999998
 31
0.0
  0
LINE
  5
CDE
330
C46
100
AcDbEntity
  8
BLOCKS
100
AcDbLine
 10
0.244083000000046
 20
0.1161029999999528
 30
0.0
 11
0.2358980000000201
 21
0.065682000000038
 31
0.0
  0
LINE
  5
CDF
330
C46
100
AcDbEntity
  8
BLOCKS
100
AcDbLine
 10
0.3120330000000422
 20
0.0425920000000133
 30
0.0
 11
0.3120330000000422
 21
0.1144279999999753
 31
0.0
  0
LINE
  5
CE0
330
C46
100
AcDbEntity
  8
BLOCKS
100
AcDbLine
 10
0.1460200000000213
 20
0.1100269999999455
 30
0.0
 11
0.1762320000000273
 21
0.1100269999999455
 31
0.0
  0
ARC
  5
CE1
330
C46
100
AcDbEntity
  8
BLOCKS
100
AcDbCircle
 10
0.1460200000000213
 20
0.1150270000000546
 30
0.0
 40
0.005
100
AcDbArc
 50
180.0
 51
270.0
  0
ARC
  5
CE2
330
C46
100
AcDbEntity
  8
BLOCKS
100
AcDbCircle
 10
0.1762320000000273
 20
0.10502699999995
 30
0.0
 40
0.005
100
AcDbArc
 50
352.9161169999969
 51
90.0
  0
ARC
  5
CE3
330
C46
100
AcDbEntity
  8
BLOCKS
100
AcDbCircle
 10
-0.5732600000000048
 20
-0.1113239999999678
 30
0.0
 40
0.7363
100
AcDbArc
 50
17.40262399999986
 51
24.52155600000205
  0
ARC
  5
CE4
330
C46
100
AcDbEntity
  8
BLOCKS
100
AcDbCircle
 10
0.1196240000000444
 20
-0.0035329999999476
 30
0.0
 40
0.01
100
AcDbArc
 50
106.7825210000027
 51
159.3105009999974
  0
ARC
  5
CE5
330
C46
100
AcDbEntity
  8
BLOCKS
100
AcDbCircle
 10
0.1565829999999551
 20
0.0125880000000507
 30
0.0
 40
0.001
100
AcDbArc
 50
177.400592999998
 51
276.1725820000014
  0
ARC
  5
CE6
330
C46
100
AcDbEntity
  8
BLOCKS
100
AcDbCircle
 10
0.2162839999999733
 20
0.0098779999999579
 30
0.0
 40
0.060762
100
AcDbArc
 50
123.9759630000005
 51
189.3556280000032
  0
ARC
  5
CE7
330
C46
100
AcDbEntity
  8
BLOCKS
100
AcDbCircle
 10
0.2162839999999733
 20
0.0098779999999579
 30
0.0
 40
0.070762
100
AcDbArc
 50
127.2898849999975
 51
179.4340679999972
  0
ARC
  5
CE8
330
C46
100
AcDbEntity
  8
BLOCKS
100
AcDbCircle
 10
0.1476229999999532
 20
-0.0963729999999714
 30
0.0
 40
0.10697
100
AcDbArc
 50
91.12364699999824
 51
106.7825210000027
  0
ARC
  5
CE9
330
C46
100
AcDbEntity
  8
BLOCKS
100
AcDbCircle
 10
0.1673550000000432
 20
0.0741309999999658
 30
0.0
 40
0.01
100
AcDbArc
 50
307.2898849999976
 51
352.9161169999969
  0
LINE
  5
CEA
330
C46
100
AcDbEntity
  8
BLOCKS
100
AcDbLine
 10
0.1811940000000049
 20
0.1044100000000299
 30
0.0
 11
0.1772780000000012
 21
0.0728970000000118
 31
0.0
  0
ARC
  5
CEB
330
C46
100
AcDbEntity
  8
BLOCKS
100
AcDbCircle
 10
-0.2100510000000213
 20
0.0025170000000117
 30
0.0
 40
0.355668
100
AcDbArc
 50
1.29848899999924
 51
17.40262399999986
  0
ARC
  5
CEC
330
C46
100
AcDbEntity
  8
BLOCKS
100
AcDbCircle
 10
0.121436000000017
 20
0.1295000000000073
 30
0.0
 40
0.123064
100
AcDbArc
 50
286.6472280000004
 51
324.0688059999998
  0
LINE
  5
CED
330
C46
100
AcDbEntity
  8
BLOCKS
100
AcDbLine
 10
0.1410200000000259
 20
0.1200270000000501
 30
0.0
 11
0.2214219999999614
 21
0.1209710000000541
 31
0.0
  0
ARC
  5
CEE
330
C46
100
AcDbEntity
  8
BLOCKS
100
AcDbCircle
 10
0.1767389999999978
 20
0.0685590000000502
 30
0.0
 40
0.01
100
AcDbArc
 50
303.9759630000006
 51
352.9161169999969
  0
LINE
  5
CEF
330
C46
100
AcDbEntity
  8
BLOCKS
100
AcDbLine
 10
0.2260270000000446
 20
0.0572839999999815
 30
0.0
 11
0.1782749999999851
 21
0.0572839999999815
 31
0.0
  0
LINE
  5
CF0
330
C46
100
AcDbEntity
  8
BLOCKS
100
AcDbLine
 10
0.5199999999999818
 20
0.0
 30
0.0
 11
0.1100000000000136
 21
0.0
 31
0.0
  0
LINE
  5
CF1
330
C46
100
AcDbEntity
  8
BLOCKS
100
AcDbLine
 10
0.3138780000000452
 20
0.1300260000000435
 30
0.0
 11
0.3702809999999772
 21
0.0424990000000207
 31
0.0
  0
LINE
  5
CF2
330
C46
100
AcDbEntity
  8
BLOCKS
100
AcDbLine
 10
0.3093639999999596
 20
0.1185689999999795
 30
0.0
 11
0.3627629999999726
 21
0.0357060000000047
 31
0.0
  0
ARC
  5
CF3
330
C46
100
AcDbEntity
  8
BLOCKS
100
AcDbCircle
 10
-0.2104990000000271
 20
0.0406900000000405
 30
0.0
 40
0.323072
100
AcDbArc
 50
352.764619000002
 51
31.61793400000307
  0
LINE
  5
CF4
330
C46
100
AcDbEntity
  8
BLOCKS
100
AcDbLine
 10
0.1410200000000259
 20
0.1150270000000546
 30
0.0
 11
0.1410200000000259
 21
0.2121570000000474
 31
0.0
  0
ARC
  5
CF5
330
C46
100
AcDbEntity
  8
BLOCKS
100
AcDbCircle
 10
0.5297329999999647
 20
0.391840000000002
 30
0.0
 40
0.47604
100
AcDbArc
 50
183.2559039999987
 51
204.521556000002
  0
ARC
  5
CF6
330
C46
100
AcDbEntity
  8
BLOCKS
100
AcDbCircle
 10
1.180287000000021
 20
-0.0401480000000447
 30
0.0
 40
0.6615070000000002
100
AcDbArc
 50
141.939108999998
 51
176.520490000003
  0
ARC
  5
CF7
330
C46
100
AcDbEntity
  8
BLOCKS
100
AcDbCircle
 10
0.470931999999948
 20
0.3136899999999514
 30
0.0
 40
0.124378
100
AcDbArc
 50
297.4639609999988
 51
309.680724000001
  0
ARC
  5
CF8
330
C46
100
AcDbEntity
  8
BLOCKS
100
AcDbCircle
 10
1.180287000000021
 20
-0.0401480000000447
 30
0.0
 40
0.6715070000000001
100
AcDbArc
 50
157.9395699999975
 51
174.9366460000003
  0
ARC
  5
CF9
330
C46
100
AcDbEntity
  8
BLOCKS
100
AcDbCircle
 10
0.5139659999999822
 20
0.1961280000000443
 30
0.0
 40
0.01
100
AcDbArc
 50
115.5706760000001
 51
180.0
  0
ARC
  5
CFA
330
C46
100
AcDbEntity
  8
BLOCKS
100
AcDbCircle
 10
0.131844000000001
 20
0.0237240000000156
 30
0.0
 40
0.291649
100
AcDbArc
 50
12.94345399999851
 51
41.9888470000007
  0
ARC
  5
CFB
330
C46
100
AcDbEntity
  8
BLOCKS
100
AcDbCircle
 10
0.1311859999999569
 20
0.0234799999999496
 30
0.0
 40
0.282344
100
AcDbArc
 50
12.96355000000035
 51
43.45381100000001
  0
LINE
  5
CFC
330
C46
100
AcDbEntity
  8
BLOCKS
100
AcDbLine
 10
0.1662850000000162
 20
0.7907340000000432
 30
0.0
 11
0.1662850000000162
 21
0.4716590000000452
 31
0.0
  0
LINE
  5
CFD
330
C46
100
AcDbEntity
  8
BLOCKS
100
AcDbLine
 10
0.1762850000000071
 20
0.8250000000000454
 30
0.0
 11
0.1762850000000071
 21
0.4600000000000364
 31
0.0
  0
ARC
  5
CFE
330
C46
100
AcDbEntity
  8
BLOCKS
100
AcDbCircle
 10
0.0149999999999864
 20
0.8065070000000105
 30
0.0
 40
0.005
100
AcDbArc
 50
180.0
 51
270.0
  0
LINE
  5
CFF
330
C46
100
AcDbEntity
  8
BLOCKS
100
AcDbLine
 10
0.0099999999999909
 20
0.8220079999999825
 30
0.0
 11
0.0099999999999909
 21
0.8065070000000105
 31
0.0
  0
ARC
  5
D00
330
C46
100
AcDbEntity
  8
BLOCKS
100
AcDbCircle
 10
0.0149999999999864
 20
0.8220079999999825
 30
0.0
 40
0.005
100
AcDbArc
 50
90.0
 51
180.0
  0
LINE
  5
D01
330
C46
100
AcDbEntity
  8
BLOCKS
100
AcDbLine
 10
0.0150840000000017
 20
0.801507000000015
 30
0.0
 11
0.0149999999999864
 21
0.801507000000015
 31
0.0
  0
ARC
  5
D02
330
C46
100
AcDbEntity
  8
BLOCKS
100
AcDbCircle
 10
0.0150840000000017
 20
0.8045069999999441
 30
0.0
 40
0.003
100
AcDbArc
 50
270.0
 51
351.675310000002
  0
LINE
  5
D03
330
C46
100
AcDbEntity
  8
BLOCKS
100
AcDbLine
 10
0.0099999999999909
 20
0.7907340000000432
 30
0.0
 11
0.0
 21
0.7907340000000432
 31
0.0
  0
LINE
  5
D04
330
C46
100
AcDbEntity
  8
BLOCKS
100
AcDbLine
 10
0.0086700000000519
 20
0.7927339999999959
 30
0.0
 11
0.0
 21
0.7927339999999959
 31
0.0
  0
LINE
  5
D05
330
C46
100
AcDbEntity
  8
BLOCKS
100
AcDbLine
 10
0.013437999999951
 20
0.7895979999999554
 30
0.0
 11
0.0128300000000081
 21
0.7905090000000428
 31
0.0
  0
ARC
  5
D06
330
C46
100
AcDbEntity
  8
BLOCKS
100
AcDbCircle
 10
0.0086700000000519
 20
0.7877340000000004
 30
0.0
 40
0.005
100
AcDbArc
 50
33.70735900000263
 51
90.0
  0
ARC
  5
D07
330
C46
100
AcDbEntity
  8
BLOCKS
100
AcDbCircle
 10
0.0092779999999948
 20
0.7868230000000267
 30
0.0
 40
0.005
100
AcDbArc
 50
9.413096999997565
 51
33.70735900000263
  0
LINE
  5
D08
330
C46
100
AcDbEntity
  8
BLOCKS
100
AcDbLine
 10
0.0147809999999709
 20
0.7842000000000553
 30
0.0
 11
0.0142110000000457
 21
0.7876410000000078
 31
0.0
  0
ARC
  5
D09
330
C46
100
AcDbEntity
  8
BLOCKS
100
AcDbCircle
 10
0.0099999999999909
 20
0.8250000000000454
 30
0.0
 40
0.01
100
AcDbArc
 50
90.0
 51
180.0
  0
ARC
  5
D0A
330
C46
100
AcDbEntity
  8
BLOCKS
100
AcDbCircle
 10
0.0163459999999987
 20
0.7841710000000149
 30
0.0
 40
0.001
100
AcDbArc
 50
251.5717920000001
 51
270.0
  0
LINE
  5
D0B
330
C46
100
AcDbEntity
  8
BLOCKS
100
AcDbLine
 10
0.0160300000000007
 20
0.7832220000000234
 30
0.0
 11
0.015451999999982
 21
0.7834149999999909
 31
0.0
  0
ARC
  5
D0C
330
C46
100
AcDbEntity
  8
BLOCKS
100
AcDbCircle
 10
0.01576799999998
 20
0.7843639999999823
 30
0.0
 40
0.001
100
AcDbArc
 50
189.4130969999975
 51
251.5717920000001
  0
LINE
  5
D0D
330
C46
100
AcDbEntity
  8
BLOCKS
100
AcDbLine
 10
0.0
 20
0.4368739999999889
 30
0.0
 11
0.0
 21
0.4368090000000393
 31
0.0
  0
ARC
  5
D0E
330
C46
100
AcDbEntity
  8
BLOCKS
100
AcDbCircle
 10
0.0099999999999909
 20
0.4368739999999889
 30
0.0
 40
0.01
100
AcDbArc
 50
90.0
 51
180.0
  0
LINE
  5
D0F
330
C46
100
AcDbEntity
  8
BLOCKS
100
AcDbLine
 10
0.0
 20
0.4368739999999889
 30
0.0
 11
0.0
 21
0.4366690000000517
 31
0.0
  0
ARC
  5
D10
330
C46
100
AcDbEntity
  8
BLOCKS
100
AcDbCircle
 10
0.0099999999999909
 20
0.4600000000000364
 30
0.0
 40
0.01
100
AcDbArc
 50
180.0
 51
270.0
  0
ARC
  5
D11
330
C46
100
AcDbEntity
  8
BLOCKS
100
AcDbCircle
 10
0.0069999999999482
 20
0.4228090000000293
 30
0.0
 40
0.007
100
AcDbArc
 50
25.95389000000362
 51
90.0
  0
LINE
  5
D12
330
C46
100
AcDbEntity
  8
BLOCKS
100
AcDbLine
 10
0.018271000000027
 20
0.4156480000000329
 30
0.0
 11
0.0132939999999735
 21
0.4258730000000242
 31
0.0
  0
ARC
  5
D13
330
C46
100
AcDbEntity
  8
BLOCKS
100
AcDbCircle
 10
0.1176510000000235
 20
0.3579190000000381
 30
0.0
 40
0.117746
100
AcDbArc
 50
182.3034090000029
 51
206.7459829999976
  0
LINE
  5
D14
330
C46
100
AcDbEntity
  8
BLOCKS
100
AcDbLine
 10
0.0
 20
0.4368739999999889
 30
0.0
 11
0.0
 21
0.3531860000000506
 31
0.0
  0
ARC
  5
D15
330
C46
100
AcDbEntity
  8
BLOCKS
100
AcDbCircle
 10
0.0069999999999482
 20
0.4368090000000393
 30
0.0
 40
0.007
100
AcDbArc
 50
180.0
 51
270.0
  0
LINE
  5
D16
330
C46
100
AcDbEntity
  8
BLOCKS
100
AcDbLine
 10
0.0
 20
0.8350000000000363
 30
0.0
 11
0.0
 21
0.3531860000000506
 31
0.0
  0
LINE
  5
D17
330
C46
100
AcDbEntity
  8
BLOCKS
100
AcDbLine
 10
0.0099999999999909
 20
0.7907340000000432
 30
0.0
 11
0.0099999999999909
 21
0.4716590000000452
 31
0.0
  0
LINE
  5
D18
330
C46
100
AcDbEntity
  8
BLOCKS
100
AcDbLine
 10
0.0544609999999466
 20
0.3648030000000517
 30
0.0
 11
0.0
 21
0.3648030000000517
 31
0.0
  0
ARC
  5
D19
330
C46
100
AcDbEntity
  8
BLOCKS
100
AcDbCircle
 10
0.9959310000000414
 20
0.783411000000001
 30
0.0
 40
1.093652999999999
100
AcDbArc
 50
205.944992000001
 51
211.617934000003
  0
ARC
  5
D1A
330
C46
100
AcDbEntity
  8
BLOCKS
100
AcDbCircle
 10
0.081211000000053
 20
0.4462839999999915
 30
0.0
 40
0.07
100
AcDbArc
 50
205.9538900000036
 51
257.8010629999978
  0
LINE
  5
D1B
330
C46
100
AcDbEntity
  8
BLOCKS
100
AcDbLine
 10
0.1732849999999644
 20
0.4468739999999798
 30
0.0
 11
0.0099999999999909
 21
0.4468739999999798
 31
0.0
  0
ARC
  5
D1C
330
C46
100
AcDbEntity
  8
BLOCKS
100
AcDbCircle
 10
0.0199999999999818
 20
0.4716590000000452
 30
0.0
 40
0.01
100
AcDbArc
 50
180.0
 51
270.0
  0
LINE
  5
D1D
330
C46
100
AcDbEntity
  8
BLOCKS
100
AcDbLine
 10
0.1662850000000162
 20
0.4500000000000455
 30
0.0
 11
0.0099999999999909
 21
0.4500000000000455
 31
0.0
  0
ARC
  5
D1E
330
C46
100
AcDbEntity
  8
BLOCKS
100
AcDbCircle
 10
0.0156240000000025
 20
0.8220079999999825
 30
0.0
 40
0.005
100
AcDbArc
 50
351.675310000002
 51
90.0
  0
LINE
  5
D1F
330
C46
100
AcDbEntity
  8
BLOCKS
100
AcDbLine
 10
0.0180520000000115
 20
0.8040720000000192
 30
0.0
 11
0.0205710000000181
 21
0.8212839999999914
 31
0.0
  0
LINE
  5
D20
330
C46
100
AcDbEntity
  8
BLOCKS
100
AcDbLine
 10
0.1599390000000085
 20
0.7831710000000385
 30
0.0
 11
0.0163459999999987
 21
0.7831710000000385
 31
0.0
  0
LINE
  5
D21
330
C46
100
AcDbEntity
  8
BLOCKS
100
AcDbLine
 10
0.1662850000000162
 20
0.8350000000000363
 30
0.0
 11
0.0
 21
0.8350000000000363
 31
0.0
  0
ENDBLK
  5
D23
330
C46
100
AcDbEntity
  8
0
100
AcDbBlockEnd
  0
BLOCK
  5
D45
330
D31
100
AcDbEntity
  8
0
100
AcDbBlockBegin
  2
104410PL
 70
     0
 10
0.0
 20
0.0
 30
0.0
  3
104410PL
  1

  0
ARC
  5
D32
330
D31
100
AcDbEntity
  8
BLOCKS
100
AcDbCircle
 10
0.1775000000000091
 20
-0.0099999999999909
 30
0.0
 40
0.01
100
AcDbArc
 50
0.0
 51
90.0
  0
ARC
  5
D33
330
D31
100
AcDbEntity
  8
BLOCKS
100
AcDbCircle
 10
0.0874999999999773
 20
-0.4167770000000258
 30
0.0
 40
0.1
100
AcDbArc
 50
349.8474130000019
 51
0.0
  0
LINE
  5
D34
330
D31
100
AcDbEntity
  8
BLOCKS
100
AcDbLine
 10
0.1875
 20
-0.4167770000000258
 30
0.0
 11
0.1875
 21
-0.0099999999999909
 31
0.0
  0
ARC
  5
D35
330
D31
100
AcDbEntity
  8
BLOCKS
100
AcDbCircle
 10
-0.1775000000000091
 20
-0.0099999999999909
 30
0.0
 40
0.01
100
AcDbArc
 50
90.0
 51
180.0
  0
ARC
  5
D36
330
D31
100
AcDbEntity
  8
BLOCKS
100
AcDbCircle
 10
0.1192969999999605
 20
-0.2291390000000331
 30
0.0
 40
0.02
100
AcDbArc
 50
0.0
 51
49.11811900000041
  0
LINE
  5
D37
330
D31
100
AcDbEntity
  8
BLOCKS
100
AcDbLine
 10
0.1323869999999943
 20
-0.2140180000000112
 30
0.0
 11
0.050314999999955
 21
-0.1429709999999886
 31
0.0
  0
ARC
  5
D38
330
D31
100
AcDbEntity
  8
BLOCKS
100
AcDbCircle
 10
-0.1192969999999605
 20
-0.2291390000000331
 30
0.0
 40
0.02
100
AcDbArc
 50
130.8818809999996
 51
180.0
  0
LINE
  5
D39
330
D31
100
AcDbEntity
  8
BLOCKS
100
AcDbLine
 10
-0.1323869999999943
 20
-0.2140180000000112
 30
0.0
 11
-0.050314999999955
 21
-0.1429709999999886
 31
0.0
  0
CIRCLE
  5
D3A
330
D31
100
AcDbEntity
  8
BLOCKS
100
AcDbCircle
 10
0.0
 20
-0.2200000000000284
 30
0.0
 40
0.0225
  0
LINE
  5
D3B
330
D31
100
AcDbEntity
  8
BLOCKS
100
AcDbLine
 10
-0.139297000000056
 20
-0.4239970000001006
 30
0.0
 11
-0.139297000000056
 21
-0.2291390000000331
 31
0.0
  0
LINE
  5
D3C
330
D31
100
AcDbEntity
  8
BLOCKS
100
AcDbLine
 10
0.139297000000056
 20
-0.4239970000001006
 30
0.0
 11
0.139297000000056
 21
-0.2291390000000331
 31
0.0
  0
ARC
  5
D3D
330
D31
100
AcDbEntity
  8
BLOCKS
100
AcDbCircle
 10
-0.0874999999999773
 20
-0.4167770000000258
 30
0.0
 40
0.1
100
AcDbArc
 50
180.0
 51
190.152586999998
  0
LINE
  5
D3E
330
D31
100
AcDbEntity
  8
BLOCKS
100
AcDbLine
 10
-0.1875
 20
-0.4167770000000258
 30
0.0
 11
-0.1875
 21
-0.0099999999999909
 31
0.0
  0
CIRCLE
  5
D3F
330
D31
100
AcDbEntity
  8
BLOCKS
100
AcDbCircle
 10
0.0
 20
-0.0656380000000354
 30
0.0
 40
0.0175
  0
ARC
  5
D40
330
D31
100
AcDbEntity
  8
BLOCKS
100
AcDbCircle
 10
-0.0039789999999584
 20
-0.4056030000000431
 30
0.0
 40
0.144452
100
AcDbArc
 50
271.5785720000004
 51
352.6842630000011
  0
ARC
  5
D41
330
D31
100
AcDbEntity
  8
BLOCKS
100
AcDbCircle
 10
0.0039789999999584
 20
-0.4056030000000431
 30
0.0
 40
0.144452
100
AcDbArc
 50
187.3157369999989
 51
268.4214279999996
  0
ARC
  5
D42
330
D31
100
AcDbEntity
  8
BLOCKS
100
AcDbCircle
 10
0.0
 20
-0.4011080000000232
 30
0.0
 40
0.188892
100
AcDbArc
 50
190.152586999998
 51
349.8474130000019
  0
LINE
  5
D43
330
D31
100
AcDbEntity
  8
BLOCKS
100
AcDbLine
 10
0.1775000000000091
 20
0.0
 30
0.0
 11
-0.1775000000000091
 21
0.0
 31
0.0
  0
ARC
  5
D44
330
D31
100
AcDbEntity
  8
BLOCKS
100
AcDbCircle
 10
0.0
 20
0.2880349999999225
 30
0.0
 40
0.4339330000000001
100
AcDbArc
 50
244.399427
 51
295.6005730000001
  0
ENDBLK
  5
D46
330
D31
100
AcDbEntity
  8
0
100
AcDbBlockEnd
  0
BLOCK
  5
D62
330
D48
100
AcDbEntity
  8
0
100
AcDbBlockBegin
  2
104410AL
 70
     0
 10
0.0
 20
0.0
 30
0.0
  3
104410AL
  1

  0
ARC
  5
D49
330
D48
100
AcDbEntity
  8
BLOCKS
100
AcDbCircle
 10
0.5677840000000743
 20
0.3849999999999921
 30
0.0
 40
0.02
100
AcDbArc
 50
314.4555730000003
 51
90.0
  0
ARC
  5
D4A
330
D48
100
AcDbEntity
  8
BLOCKS
100
AcDbCircle
 10
1.770811000000094
 20
-0.8411089999999603
 30
0.0
 40
1.697735
100
AcDbArc
 50
134.4555730000003
 51
135.686546999998
  0
ARC
  5
D4B
330
D48
100
AcDbEntity
  8
BLOCKS
100
AcDbCircle
 10
1.101826000000073
 20
-0.0996209999999565
 30
0.0
 40
0.7039109999999999
100
AcDbArc
 50
140.8388779999968
 51
171.8638650000011
  0
ARC
  5
D4C
330
D48
100
AcDbEntity
  8
BLOCKS
100
AcDbCircle
 10
0.1478870000000825
 20
0.4059999999999503
 30
0.0
 40
0.001
100
AcDbArc
 50
190.1488329999966
 51
270.0
  0
LINE
  5
D4D
330
D48
100
AcDbEntity
  8
BLOCKS
100
AcDbLine
 10
0.1469030000000657
 20
0.4058240000000536
 30
0.0
 11
0.1459970000000794
 21
0.4108810000000188
 31
0.0
  0
LINE
  5
D4E
330
D48
100
AcDbEntity
  8
BLOCKS
100
AcDbLine
 10
0.0
 20
0.4049999999999739
 30
0.0
 11
0.0
 21
0.3724449999999718
 31
0.0
  0
ARC
  5
D4F
330
D48
100
AcDbEntity
  8
BLOCKS
100
AcDbCircle
 10
0.0099999999999909
 20
0.4049999999999739
 30
0.0
 40
0.01
100
AcDbArc
 50
90.0
 51
180.0
  0
ARC
  5
D50
330
D48
100
AcDbEntity
  8
BLOCKS
100
AcDbCircle
 10
0.0424090000000206
 20
0.3524449999999899
 30
0.0
 40
0.02
100
AcDbArc
 50
90.0
 51
187.745350999998
  0
LINE
  5
D51
330
D48
100
AcDbEntity
  8
BLOCKS
100
AcDbLine
 10
0.1410759999999982
 20
0.4149999999999648
 30
0.0
 11
0.0099999999999909
 21
0.4149999999999648
 31
0.0
  0
ARC
  5
D52
330
D48
100
AcDbEntity
  8
BLOCKS
100
AcDbCircle
 10
1.334842000000094
 20
0.5116080000000249
 30
0.0
 40
1.318694
100
AcDbArc
 50
189.7788990000035
 51
192.5419599999967
  0
ARC
  5
D53
330
D48
100
AcDbEntity
  8
BLOCKS
100
AcDbCircle
 10
1.334842000000094
 20
0.5116080000000249
 30
0.0
 40
1.338694
100
AcDbArc
 50
189.7788990000035
 51
192.5419599999967
  0
ARC
  5
D54
330
D48
100
AcDbEntity
  8
BLOCKS
100
AcDbCircle
 10
0.4829150000000482
 20
0.4123590000000389
 30
0.0
 40
0.464561
100
AcDbArc
 50
187.745350999998
 51
195.3318870000026
  0
ARC
  5
D55
330
D48
100
AcDbEntity
  8
BLOCKS
100
AcDbCircle
 10
0.4829150000000482
 20
0.4123590000000389
 30
0.0
 40
0.484561
100
AcDbArc
 50
184.7248599999975
 51
195.3318870000026
  0
ARC
  5
D56
330
D48
100
AcDbEntity
  8
BLOCKS
100
AcDbCircle
 10
0.1410759999999982
 20
0.4099999999999694
 30
0.0
 40
0.005
100
AcDbArc
 50
10.14883299999668
 51
90.0
  0
LINE
  5
D57
330
D48
100
AcDbEntity
  8
BLOCKS
100
AcDbLine
 10
0.0424090000000206
 20
0.3724449999999718
 30
0.0
 11
0.299137000000087
 21
0.3724449999999718
 31
0.0
  0
LINE
  5
D58
330
D48
100
AcDbEntity
  8
BLOCKS
100
AcDbLine
 10
0.2172050000000354
 20
0.1902649999999539
 30
0.0
 11
0.2172050000000354
 21
0.06116499999996
 31
0.0
  0
LINE
  5
D59
330
D48
100
AcDbEntity
  8
BLOCKS
100
AcDbLine
 10
0.0600000000000591
 20
0.1262349999999515
 30
0.0
 11
0.0600000000000591
 21
0.0199999999999818
 31
0.0
  0
LINE
  5
D5A
330
D48
100
AcDbEntity
  8
BLOCKS
100
AcDbLine
 10
0.0400000000000773
 20
0.1262349999999515
 30
0.0
 11
0.0400000000000773
 21
0.0
 31
0.0
  0
ARC
  5
D5B
330
D48
100
AcDbEntity
  8
BLOCKS
100
AcDbCircle
 10
0.1800410000000738
 20
0.0663110000000415
 30
0.0
 40
0.037519
100
AcDbArc
 50
187.8839009999987
 51
352.1160990000013
  0
LINE
  5
D5C
330
D48
100
AcDbEntity
  8
BLOCKS
100
AcDbLine
 10
0.1428760000000011
 20
0.2756259999999884
 30
0.0
 11
0.1428760000000011
 21
0.06116499999996
 31
0.0
  0
ARC
  5
D5D
330
D48
100
AcDbEntity
  8
BLOCKS
100
AcDbCircle
 10
-0.8441429999999172
 20
0.0631170000000339
 30
0.0
 40
0.8863929999999999
100
AcDbArc
 50
4.083320000002033
 51
10.25391200000143
  0
ARC
  5
D5E
330
D48
100
AcDbEntity
  8
BLOCKS
100
AcDbCircle
 10
-0.8441429999999172
 20
0.0631170000000339
 30
0.0
 40
0.9063929999999999
100
AcDbArc
 50
4.083320000002033
 51
10.25391200000143
  0
ARC
  5
D5F
330
D48
100
AcDbEntity
  8
BLOCKS
100
AcDbCircle
 10
0.2748139999999921
 20
0.3560220000000538
 30
0.0
 40
0.12941
100
AcDbArc
 50
172.7093220000001
 51
262.3840870000007
  0
LINE
  5
D60
330
D48
100
AcDbEntity
  8
BLOCKS
100
AcDbLine
 10
0.4050000000000864
 20
0.0
 30
0.0
 11
0.0400000000000773
 21
0.0
 31
0.0
  0
LINE
  5
D61
330
D48
100
AcDbEntity
  8
BLOCKS
100
AcDbLine
 10
0.5677840000000743
 20
0.4049999999999739
 30
0.0
 11
0.1478870000000825
 21
0.4049999999999739
 31
0.0
  0
ENDBLK
  5
D63
330
D48
100
AcDbEntity
  8
0
100
AcDbBlockEnd
  0
BLOCK
  5
D73
330
D65
100
AcDbEntity
  8
0
100
AcDbBlockBegin
  2
104410AF
 70
     0
 10
0.0
 20
0.0
 30
0.0
  3
104410AF
  1

  0
ARC
  5
D66
330
D65
100
AcDbEntity
  8
BLOCKS
100
AcDbCircle
 10
0.1765589999999975
 20
0.4049999999999728
 30
0.0
 40
0.01
100
AcDbArc
 50
336.1765490000014
 51
90.0
  0
LINE
  5
D67
330
D65
100
AcDbEntity
  8
BLOCKS
100
AcDbLine
 10
0.1025499999999511
 20
0.0813010000000532
 30
0.0
 11
0.1025499999999511
 21
0.0099999999999909
 31
0.0
  0
ARC
  5
D68
330
D65
100
AcDbEntity
  8
BLOCKS
100
AcDbCircle
 10
0.0925499999999602
 20
0.0099999999999909
 30
0.0
 40
0.01
100
AcDbArc
 50
270.0
 51
0.0
  0
ARC
  5
D69
330
D65
100
AcDbEntity
  8
BLOCKS
100
AcDbCircle
 10
0.4025500000000193
 20
0.0813010000000532
 30
0.0
 40
0.3
100
AcDbArc
 50
171.4607289999984
 51
180.0
  0
ARC
  5
D6A
330
D65
100
AcDbEntity
  8
BLOCKS
100
AcDbCircle
 10
-0.0925499999999602
 20
0.0099999999999909
 30
0.0
 40
0.01
100
AcDbArc
 50
180.0
 51
270.0
  0
LINE
  5
D6B
330
D65
100
AcDbEntity
  8
BLOCKS
100
AcDbLine
 10
-0.1025499999999511
 20
0.0813010000000532
 30
0.0
 11
-0.1025499999999511
 21
0.0099999999999909
 31
0.0
  0
ARC
  5
D6C
330
D65
100
AcDbEntity
  8
BLOCKS
100
AcDbCircle
 10
-0.4025500000000193
 20
0.0813010000000532
 30
0.0
 40
0.3
100
AcDbArc
 50
0.0
 51
8.539271000001605
  0
LINE
  5
D6D
330
D65
100
AcDbEntity
  8
BLOCKS
100
AcDbLine
 10
0.0925499999999602
 20
0.0
 30
0.0
 11
-0.0925499999999602
 21
0.0
 31
0.0
  0
ARC
  5
D6E
330
D65
100
AcDbEntity
  8
BLOCKS
100
AcDbCircle
 10
-0.1765589999999975
 20
0.4049999999999728
 30
0.0
 40
0.01
100
AcDbArc
 50
90.0
 51
203.8234509999985
  0
ARC
  5
D6F
330
D65
100
AcDbEntity
  8
BLOCKS
100
AcDbCircle
 10
-1.170986999999968
 20
-0.0340810000000147
 30
0.0
 40
1.077050999999999
100
AcDbArc
 50
8.539271000001605
 51
23.82345099999856
  0
ARC
  5
D70
330
D65
100
AcDbEntity
  8
BLOCKS
100
AcDbCircle
 10
1.170986999999968
 20
-0.0340810000000147
 30
0.0
 40
1.077050999999999
100
AcDbArc
 50
156.1765490000014
 51
171.4607289999984
  0
LINE
  5
D71
330
D65
100
AcDbEntity
  8
BLOCKS
100
AcDbLine
 10
0.1765589999999975
 20
0.4149999999999637
 30
0.0
 11
-0.1765589999999975
 21
0.4149999999999637
 31
0.0
  0
LINE
  5
D72
330
D65
100
AcDbEntity
  8
BLOCKS
100
AcDbLine
 10
0.1865589999999884
 20
0.4049999999999728
 30
0.0
 11
-0.1865589999999884
 21
0.4049999999999728
 31
0.0
  0
ENDBLK
  5
D74
330
D65
100
AcDbEntity
  8
0
100
AcDbBlockEnd
  0
BLOCK
  5
DCA
330
D76
100
AcDbEntity
  8
0
100
AcDbBlockBegin
  2
104410CT
 70
     0
 10
0.0
 20
0.0
 30
0.0
  3
104410CT
  1

  0
ARC
  5
D77
330
D76
100
AcDbEntity
  8
BLOCKS
100
AcDbCircle
 10
0.5677840000000743
 20
0.3849999999999909
 30
0.0
 40
0.02
100
AcDbArc
 50
314.4555730000003
 51
110.3301470000025
  0
ARC
  5
D78
330
D76
100
AcDbEntity
  8
BLOCKS
100
AcDbCircle
 10
0.5670530000001009
 20
0.3931549999999788
 30
0.0
 40
0.003
100
AcDbArc
 50
109.2626949999984
 51
153.3471549999988
  0
ARC
  5
D79
330
D76
100
AcDbEntity
  8
BLOCKS
100
AcDbCircle
 10
0.5693620000000692
 20
0.386545999999953
 30
0.0
 40
0.01
100
AcDbArc
 50
314.3818739999992
 51
109.2626949999984
  0
ARC
  5
D7A
330
D76
100
AcDbEntity
  8
BLOCKS
100
AcDbCircle
 10
1.770811000000094
 20
-0.8411089999999603
 30
0.0
 40
1.697735
100
AcDbArc
 50
134.4555730000003
 51
135.686546999998
  0
ARC
  5
D7B
330
D76
100
AcDbEntity
  8
BLOCKS
100
AcDbCircle
 10
0.5508310000000165
 20
0.3495930000000271
 30
0.0
 40
0.003
100
AcDbArc
 50
135.6958299999993
 51
140.7077600000001
  0
ARC
  5
D7C
330
D76
100
AcDbEntity
  8
BLOCKS
100
AcDbCircle
 10
0.5643100000000914
 20
0.3943769999999631
 30
0.0
 40
0.01
100
AcDbArc
 50
110.3301470000025
 51
153.3126030000022
  0
ARC
  5
D7D
330
D76
100
AcDbEntity
  8
BLOCKS
100
AcDbCircle
 10
1.770811000000094
 20
-0.8411089999999603
 30
0.0
 40
1.707735
100
AcDbArc
 50
134.3818739999992
 51
135.6958299999993
  0
ARC
  5
D7E
330
D76
100
AcDbEntity
  8
BLOCKS
100
AcDbCircle
 10
0.3600030000000061
 20
0.4970759999999928
 30
0.0
 40
0.218667
100
AcDbArc
 50
305.3838269999979
 51
333.3126030000022
  0
ARC
  5
D7F
330
D76
100
AcDbEntity
  8
BLOCKS
100
AcDbCircle
 10
0.3980300000000625
 20
0.4692489999999907
 30
0.0
 40
0.209591
100
AcDbArc
 50
253.1061100000002
 51
260.6310780000027
  0
ARC
  5
D80
330
D76
100
AcDbEntity
  8
BLOCKS
100
AcDbCircle
 10
0.3842270000000099
 20
0.2596419999999853
 30
0.0
 40
0.01
100
AcDbArc
 50
95.82527099999873
 51
184.9270569999994
  0
ARC
  5
D81
330
D76
100
AcDbEntity
  8
BLOCKS
100
AcDbCircle
 10
0.3708120000000008
 20
0.4818579999999884
 30
0.0
 40
0.2
100
AcDbArc
 50
270.0
 51
305.3838269999979
  0
ARC
  5
D82
330
D76
100
AcDbEntity
  8
BLOCKS
100
AcDbCircle
 10
0.3600030000000061
 20
0.4970759999999928
 30
0.0
 40
0.228667
100
AcDbArc
 50
275.8252709999988
 51
333.3471549999988
  0
ARC
  5
D83
330
D76
100
AcDbEntity
  8
BLOCKS
100
AcDbCircle
 10
0.396614999999997
 20
0.034434000000033
 30
0.0
 40
0.003
100
AcDbArc
 50
184.9270569999994
 51
350.8078509999983
  0
ARC
  5
D84
330
D76
100
AcDbEntity
  8
BLOCKS
100
AcDbCircle
 10
0.689106000000038
 20
0.0744039999999586
 30
0.0
 40
0.308194
100
AcDbArc
 50
187.6611840000002
 51
193.9704140000022
  0
LINE
  5
D85
330
D76
100
AcDbEntity
  8
BLOCKS
100
AcDbLine
 10
0.3639100000000326
 20
0.2624540000000479
 30
0.0
 11
0.3836630000000696
 21
0.0333180000000084
 31
0.0
  0
LINE
  5
D86
330
D76
100
AcDbEntity
  8
BLOCKS
100
AcDbLine
 10
0.3742640000000392
 20
0.258782999999994
 30
0.0
 11
0.3936260000000402
 21
0.0341769999999997
 31
0.0
  0
ARC
  5
D87
330
D76
100
AcDbEntity
  8
BLOCKS
100
AcDbCircle
 10
1.103124000000093
 20
-0.1023290000000543
 30
0.0
 40
0.716626
100
AcDbArc
 50
140.7077600000001
 51
169.0370599999992
  0
ARC
  5
D88
330
D76
100
AcDbEntity
  8
BLOCKS
100
AcDbCircle
 10
1.101826000000073
 20
-0.0996209999999565
 30
0.0
 40
0.7039109999999999
100
AcDbArc
 50
140.8388779999968
 51
171.8638650000011
  0
LINE
  5
D89
330
D76
100
AcDbEntity
  8
BLOCKS
100
AcDbLine
 10
0.2845290000000204
 20
0.2687029999999595
 30
0.0
 11
0.2764700000000175
 21
0.260644999999954
 31
0.0
  0
LINE
  5
D8A
330
D76
100
AcDbEntity
  8
BLOCKS
100
AcDbLine
 10
0.2764700000000175
 20
0.260644999999954
 30
0.0
 11
0.2764700000000175
 21
0.2318579999999883
 31
0.0
  0
LWPOLYLINE
  5
D8B
330
D76
100
AcDbEntity
  8
BLOCKS
100
AcDbPolyline
 90
        3
 70
     0
 43
0.0
 10
0.2614700000000312
 20
0.2318579999999883
 10
0.2614700000000312
 20
0.2668579999999565
 10
0.2764700000000175
 20
0.2818580000000565
  0
ARC
  5
D8C
330
D76
100
AcDbEntity
  8
BLOCKS
100
AcDbCircle
 10
0.1942150000000993
 20
0.311774000000014
 30
0.0
 40
0.04
100
AcDbArc
 50
190.1488329999966
 51
264.1415139999996
  0
ARC
  5
D8D
330
D76
100
AcDbEntity
  8
BLOCKS
100
AcDbCircle
 10
0.1942000000000235
 20
0.3118580000000293
 30
0.0
 40
0.03
100
AcDbArc
 50
190.1488329999966
 51
270.0
  0
LINE
  5
D8E
330
D76
100
AcDbEntity
  8
BLOCKS
100
AcDbLine
 10
0.2014700000000857
 20
0.2318579999999883
 30
0.0
 11
0.2014700000000857
 21
0.2356170000000475
 31
0.0
  0
LINE
  5
D8F
330
D76
100
AcDbEntity
  8
BLOCKS
100
AcDbLine
 10
0.1508929999999964
 20
0.2356170000000475
 30
0.0
 11
0.2014700000000857
 21
0.2356170000000475
 31
0.0
  0
LINE
  5
D90
330
D76
100
AcDbEntity
  8
BLOCKS
100
AcDbLine
 10
0.2014700000000857
 20
0.2562420000000429
 30
0.0
 11
0.2164700000000721
 21
0.2562420000000429
 31
0.0
  0
LWPOLYLINE
  5
D91
330
D76
100
AcDbEntity
  8
BLOCKS
100
AcDbPolyline
 90
        2
 70
     0
 43
0.0
 10
0.2164700000000721
 20
0.2456170000000384
 10
0.2164700000000721
 20
0.2318579999999883
  0
LWPOLYLINE
  5
D92
330
D76
100
AcDbEntity
  8
BLOCKS
100
AcDbPolyline
 90
        3
 70
     0
 43
0.0
 10
0.2014700000000857
 20
0.281880000000001
 10
0.2164700000000721
 20
0.2668579999999565
 10
0.2164700000000721
 20
0.2562420000000429
  0
LINE
  5
D93
330
D76
100
AcDbEntity
  8
BLOCKS
100
AcDbLine
 10
0.2014700000000857
 20
0.2562420000000429
 30
0.0
 11
0.2014700000000857
 21
0.260644999999954
 31
0.0
  0
LINE
  5
D94
330
D76
100
AcDbEntity
  8
BLOCKS
100
AcDbLine
 10
0.1587450000000672
 20
0.2456170000000384
 30
0.0
 11
0.2164700000000721
 21
0.2456170000000384
 31
0.0
  0
LINE
  5
D95
330
D76
100
AcDbEntity
  8
BLOCKS
100
AcDbLine
 10
0.1901320000000623
 20
0.2719829999999774
 30
0.0
 11
0.2014700000000857
 21
0.260644999999954
 31
0.0
  0
ARC
  5
D96
330
D76
100
AcDbEntity
  8
BLOCKS
100
AcDbCircle
 10
0.1942300000000614
 20
0.3322480000000496
 30
0.0
 40
0.03
100
AcDbArc
 50
180.0
 51
180.0
  0
LINE
  5
D97
330
D76
100
AcDbEntity
  8
BLOCKS
100
AcDbLine
 10
0.2764700000000175
 20
0.2818580000000565
 30
0.0
 11
0.1942000000000235
 21
0.2818580000000565
 31
0.0
  0
LINE
  5
D98
330
D76
100
AcDbEntity
  8
BLOCKS
100
AcDbLine
 10
0.2764700000000175
 20
0.2318579999999883
 30
0.0
 11
0.2014700000000857
 21
0.2318579999999883
 31
0.0
  0
LWPOLYLINE
  5
D99
330
D76
100
AcDbEntity
  8
BLOCKS
100
AcDbPolyline
 90
        2
 70
     0
 43
0.0
 10
0.2614700000000312
 20
0.2668579999999565
 10
0.2164700000000721
 20
0.2668579999999565
  0
LINE
  5
D9A
330
D76
100
AcDbEntity
  8
BLOCKS
100
AcDbLine
 10
0.1646690000000035
 20
0.3065709999999626
 30
0.0
 11
0.1459970000000794
 21
0.4108810000000176
 31
0.0
  0
LINE
  5
D9B
330
D76
100
AcDbEntity
  8
BLOCKS
100
AcDbLine
 10
0.1405280000000175
 20
0.3846849999999904
 30
0.0
 11
0.1380710000000818
 21
0.3984100000000126
 31
0.0
  0
LINE
  5
D9C
330
D76
100
AcDbEntity
  8
BLOCKS
100
AcDbLine
 10
0.130196000000069
 20
0.4049999999999728
 30
0.0
 11
0.1272200000000794
 21
0.4049999999999728
 31
0.0
  0
ARC
  5
D9D
330
D76
100
AcDbEntity
  8
BLOCKS
100
AcDbCircle
 10
0.1272200000000794
 20
0.3970000000000482
 30
0.0
 40
0.008
100
AcDbArc
 50
90.0
 51
190.1488329999966
  0
ARC
  5
D9E
330
D76
100
AcDbEntity
  8
BLOCKS
100
AcDbCircle
 10
0.130196000000069
 20
0.3970000000000482
 30
0.0
 40
0.008
100
AcDbArc
 50
10.14883299999668
 51
90.0
  0
ARC
  5
D9F
330
D76
100
AcDbEntity
  8
BLOCKS
100
AcDbCircle
 10
0.1033170000000609
 20
0.3999999999999772
 30
0.0
 40
0.005
100
AcDbArc
 50
10.14883299999668
 51
90.0
  0
LINE
  5
DA0
330
D76
100
AcDbEntity
  8
BLOCKS
100
AcDbLine
 10
0.0825000000000955
 20
0.4149999999999637
 30
0.0
 11
0.0825000000000955
 21
0.4049999999999728
 31
0.0
  0
LINE
  5
DA1
330
D76
100
AcDbEntity
  8
BLOCKS
100
AcDbLine
 10
0.0650000000000546
 20
0.4149999999999637
 30
0.0
 11
0.0650000000000546
 21
0.4049999999999728
 31
0.0
  0
ARC
  5
DA2
330
D76
100
AcDbEntity
  8
BLOCKS
100
AcDbCircle
 10
0.018807000000038
 20
0.3774449999999661
 30
0.0
 40
0.005
100
AcDbArc
 50
270.0
 51
341.8801010000012
  0
ARC
  5
DA3
330
D76
100
AcDbEntity
  8
BLOCKS
100
AcDbCircle
 10
0.0367090000000872
 20
0.3999999999999772
 30
0.0
 40
0.005
100
AcDbArc
 50
90.0
 51
161.8801010000012
  0
ARC
  5
DA4
330
D76
100
AcDbEntity
  8
BLOCKS
100
AcDbCircle
 10
0.0120000000000573
 20
0.3844450000000279
 30
0.0
 40
0.002
100
AcDbArc
 50
180.0
 51
270.0
  0
ARC
  5
DA5
330
D76
100
AcDbEntity
  8
BLOCKS
100
AcDbCircle
 10
0.0127909999999929
 20
0.3874449999999569
 30
0.0
 40
0.005
100
AcDbArc
 50
270.0
 51
346.5682979999974
  0
ARC
  5
DA6
330
D76
100
AcDbEntity
  8
BLOCKS
100
AcDbCircle
 10
0.0157900000000382
 20
0.3999999999999772
 30
0.0
 40
0.005
100
AcDbArc
 50
346.5682979999974
 51
90.0
  0
ARC
  5
DA7
330
D76
100
AcDbEntity
  8
BLOCKS
100
AcDbCircle
 10
0.0150000000001001
 20
0.3999999999999772
 30
0.0
 40
0.005
100
AcDbArc
 50
90.0
 51
180.0
  0
LINE
  5
DA8
330
D76
100
AcDbEntity
  8
BLOCKS
100
AcDbLine
 10
0.0157900000000382
 20
0.4049999999999728
 30
0.0
 11
0.0150000000001001
 21
0.4049999999999728
 31
0.0
  0
LINE
  5
DA9
330
D76
100
AcDbEntity
  8
BLOCKS
100
AcDbLine
 10
0.0120000000000573
 20
0.3824449999999615
 30
0.0
 11
0.0127909999999929
 21
0.3824449999999615
 31
0.0
  0
LINE
  5
DAA
330
D76
100
AcDbEntity
  8
BLOCKS
100
AcDbLine
 10
0.0176549999999907
 20
0.3862830000000485
 30
0.0
 11
0.0206530000000385
 21
0.3988389999999526
 31
0.0
  0
LINE
  5
DAB
330
D76
100
AcDbEntity
  8
BLOCKS
100
AcDbLine
 10
0.0235590000000912
 20
0.3758900000000267
 30
0.0
 11
0.031957000000034
 21
0.4015550000000303
 31
0.0
  0
LINE
  5
DAC
330
D76
100
AcDbEntity
  8
BLOCKS
100
AcDbLine
 10
0.0099999999999909
 20
0.3999999999999772
 30
0.0
 11
0.0099999999999909
 21
0.3844450000000279
 31
0.0
  0
LINE
  5
DAD
330
D76
100
AcDbEntity
  8
BLOCKS
100
AcDbLine
 10
0.0475000000000137
 20
0.4149999999999637
 30
0.0
 11
0.0475000000000137
 21
0.4049999999999728
 31
0.0
  0
LINE
  5
DAE
330
D76
100
AcDbEntity
  8
BLOCKS
100
AcDbLine
 10
0.0
 20
0.3724449999999706
 30
0.0
 11
0.018807000000038
 21
0.3724449999999706
 31
0.0
  0
ARC
  5
DAF
330
D76
100
AcDbEntity
  8
BLOCKS
100
AcDbCircle
 10
0.0099999999999909
 20
0.4049999999999728
 30
0.0
 40
0.01
100
AcDbArc
 50
90.0
 51
180.0
  0
LINE
  5
DB0
330
D76
100
AcDbEntity
  8
BLOCKS
100
AcDbLine
 10
0.0
 20
0.4049999999999728
 30
0.0
 11
0.0
 21
0.3724449999999706
 31
0.0
  0
LINE
  5
DB1
330
D76
100
AcDbEntity
  8
BLOCKS
100
AcDbLine
 10
0.1033170000000609
 20
0.4049999999999728
 30
0.0
 11
0.0367090000000872
 21
0.4049999999999728
 31
0.0
  0
LINE
  5
DB2
330
D76
100
AcDbEntity
  8
BLOCKS
100
AcDbLine
 10
0.1410759999999982
 20
0.4149999999999637
 30
0.0
 11
0.0099999999999909
 21
0.4149999999999637
 31
0.0
  0
ARC
  5
DB3
330
D76
100
AcDbEntity
  8
BLOCKS
100
AcDbCircle
 10
0.1322020000000066
 20
0.2386390000000347
 30
0.0
 40
0.005
100
AcDbArc
 50
347.2519340000031
 51
10.14883299999668
  0
LINE
  5
DB4
330
D76
100
AcDbEntity
  8
BLOCKS
100
AcDbLine
 10
0.1371240000000853
 20
0.2395199999999704
 30
0.0
 11
0.1082390000000259
 21
0.4008810000000267
 31
0.0
  0
LINE
  5
DB5
330
D76
100
AcDbEntity
  8
BLOCKS
100
AcDbLine
 10
0.1257669999999962
 20
0.302962999999977
 30
0.0
 11
0.1082390000000259
 21
0.4008810000000267
 31
0.0
  0
LINE
  5
DB6
330
D76
100
AcDbEntity
  8
BLOCKS
100
AcDbLine
 10
0.1439790000000585
 20
0.2579739999999902
 30
0.0
 11
0.1193450000000666
 21
0.3955899999999701
 31
0.0
  0
ARC
  5
DB7
330
D76
100
AcDbEntity
  8
BLOCKS
100
AcDbCircle
 10
0.4829150000000482
 20
0.4123590000000377
 30
0.0
 40
0.484561
100
AcDbArc
 50
184.7248599999975
 51
195.3318870000026
  0
LINE
  5
DB8
330
D76
100
AcDbEntity
  8
BLOCKS
100
AcDbLine
 10
0.1439540000000079
 20
0.3655439999999999
 30
0.0
 11
0.1539750000000595
 21
0.3663139999999885
 31
0.0
  0
LINE
  5
DB9
330
D76
100
AcDbEntity
  8
BLOCKS
100
AcDbLine
 10
0.1405280000000175
 20
0.3846849999999904
 30
0.0
 11
0.1505490000000691
 21
0.3854559999999765
 31
0.0
  0
LINE
  5
DBA
330
D76
100
AcDbEntity
  8
BLOCKS
100
AcDbLine
 10
0.1548410000000331
 20
0.3047249999999622
 30
0.0
 11
0.1439540000000079
 21
0.3655439999999999
 31
0.0
  0
ARC
  5
DBB
330
D76
100
AcDbEntity
  8
BLOCKS
100
AcDbCircle
 10
0.1587450000000672
 20
0.2606170000000247
 30
0.0
 40
0.015
100
AcDbArc
 50
190.1488329999966
 51
270.0
  0
ARC
  5
DBC
330
D76
100
AcDbEntity
  8
BLOCKS
100
AcDbCircle
 10
0.1410759999999982
 20
0.4099999999999682
 30
0.0
 40
0.005
100
AcDbArc
 50
10.14883299999668
 51
90.0
  0
ARC
  5
DBD
330
D76
100
AcDbEntity
  8
BLOCKS
100
AcDbCircle
 10
0.1508929999999964
 20
0.230617000000052
 30
0.0
 40
0.005
100
AcDbArc
 50
90.0
 51
167.2519340000031
  0
ARC
  5
DBE
330
D76
100
AcDbEntity
  8
BLOCKS
100
AcDbCircle
 10
0.1949309999999968
 20
0.0732510000000275
 30
0.0
 40
0.044459
100
AcDbArc
 50
187.8839009999987
 51
352.1160990000013
  0
ARC
  5
DBF
330
D76
100
AcDbEntity
  8
BLOCKS
100
AcDbCircle
 10
-0.8441429999999172
 20
0.0631170000000339
 30
0.0
 40
0.8863929999999999
100
AcDbArc
 50
4.083320000002033
 51
10.25391200000139
  0
LINE
  5
DC0
330
D76
100
AcDbEntity
  8
BLOCKS
100
AcDbLine
 10
0.0400000000000773
 20
0.1262349999999515
 30
0.0
 11
0.0400000000000773
 21
0.0
 31
0.0
  0
LINE
  5
DC1
330
D76
100
AcDbEntity
  8
BLOCKS
100
AcDbLine
 10
0.0778250000000753
 20
0.0
 30
0.0
 11
0.1460160000000314
 21
0.2317199999999957
 31
0.0
  0
LINE
  5
DC2
330
D76
100
AcDbEntity
  8
BLOCKS
100
AcDbLine
 10
0.0674220000000787
 20
0.0
 30
0.0
 11
0.1370790000000852
 21
0.2375349999999798
 31
0.0
  0
ARC
  5
DC3
330
D76
100
AcDbEntity
  8
BLOCKS
100
AcDbCircle
 10
1.334842000000094
 20
0.5116080000000239
 30
0.0
 40
1.338694
100
AcDbArc
 50
189.7788990000035
 51
192.5419599999967
  0
LINE
  5
DC4
330
D76
100
AcDbEntity
  8
BLOCKS
100
AcDbLine
 10
0.2389699999999948
 20
0.2260599999999613
 30
0.0
 11
0.2389699999999948
 21
0.0671529999999621
 31
0.0
  0
LINE
  5
DC5
330
D76
100
AcDbEntity
  8
BLOCKS
100
AcDbLine
 10
0.1508929999999964
 20
0.2356170000000475
 30
0.0
 11
0.1508929999999964
 21
0.0671529999999621
 31
0.0
  0
LINE
  5
DC6
330
D76
100
AcDbEntity
  8
BLOCKS
100
AcDbLine
 10
0.5677840000000743
 20
0.4049999999999728
 30
0.0
 11
0.1470500000000356
 21
0.4049999999999728
 31
0.0
  0
LINE
  5
DC7
330
D76
100
AcDbEntity
  8
BLOCKS
100
AcDbLine
 10
0.4050000000000864
 20
0.0
 30
0.0
 11
0.0400000000000773
 21
0.0
 31
0.0
  0
LINE
  5
DC8
330
D76
100
AcDbEntity
  8
BLOCKS
100
AcDbLine
 10
0.3708120000000008
 20
0.2818580000000565
 30
0.0
 11
0.2764700000000175
 21
0.2818580000000565
 31
0.0
  0
LINE
  5
DC9
330
D76
100
AcDbEntity
  8
BLOCKS
100
AcDbLine
 10
0.2845290000000204
 20
0.2687029999999595
 30
0.0
 11
0.3371220000000221
 21
0.2687029999999595
 31
0.0
  0
ENDBLK
  5
DCB
330
D76
100
AcDbEntity
  8
0
100
AcDbBlockEnd
  0
ENDSEC
  0
SECTION
  2
ENTITIES
  0
INSERT
  5
D47
330
1F
100
AcDbEntity
  8
cotas
100
AcDbBlockReference
  2
104410PL
 10
23.20954607643124
 20
154.1353753242549
 30
0.0
  0
INSERT
  5
D64
330
1F
100
AcDbEntity
  8
cotas
100
AcDbBlockReference
  2
104410AL
 10
23.78225083874407
 20
153.6931325761793
 30
0.0
  0
INSERT
  5
D75
330
1F
100
AcDbEntity
  8
cotas
100
AcDbBlockReference
  2
104410AF
 10
24.81554355939
 20
153.6931329934901
 30
0.0
  0
INSERT
  5
DCC
330
1F
100
AcDbEntity
  8
cotas
100
AcDbBlockReference
  2
104410CT
 10
25.30946354008122
 20
153.6931329934901
 30
0.0
  0
ENDSEC
  0
SECTION
  2
OBJECTS
  0
DICTIONARY
  5
C
330
0
100
AcDbDictionary
281
     1
  3
ACAD_COLOR
350
BA9
  3
ACAD_GROUP
350
D
  3
ACAD_LAYOUT
350
1A
  3
ACAD_MATERIAL
350
BA8
  3
ACAD_MLEADERSTYLE
350
E16
  3
ACAD_MLINESTYLE
350
17
  3
ACAD_PLOTSETTINGS
350
19
  3
ACAD_PLOTSTYLENAME
350
E
  3
ACAD_SCALELIST
350
E04
  3
ACAD_TABLESTYLE
350
BAA
  3
ACAD_VISUALSTYLE
350
DF0
  3
ACDB_RECOMPOSE_DATA
350
E43
  3
AcDbVariableDictionary
350
3D
  3
ASE_INDEX_DICTIONARY
350
D25
  3
DWGPROPS
350
E44
  0
DICTIONARY
  5
E1C
330
10
100
AcDbDictionary
280
     1
281
     1
  3
ADSK_XREC_LAYER_RECONCILED
360
E1D
  0
DICTIONARY
  5
E1E
330
2F
100
AcDbDictionary
280
     1
281
     1
  3
ADSK_XREC_LAYER_RECONCILED
360
E1F
  0
DICTIONARY
  5
E20
330
30
100
AcDbDictionary
280
     1
281
     1
  3
ADSK_XREC_LAYER_RECONCILED
360
E21
  0
DICTIONARY
  5
E22
330
31
100
AcDbDictionary
280
     1
281
     1
  3
ADSK_XREC_LAYER_RECONCILED
360
E23
  0
DICTIONARY
  5
E24
330
32
100
AcDbDictionary
280
     1
281
     1
  3
ADSK_XREC_LAYER_RECONCILED
360
E25
  0
DICTIONARY
  5
E26
330
33
100
AcDbDictionary
280
     1
281
     1
  3
ADSK_XREC_LAYER_RECONCILED
360
E27
  0
DICTIONARY
  5
E28
330
34
100
AcDbDictionary
280
     1
281
     1
  3
ADSK_XREC_LAYER_RECONCILED
360
E29
  0
DICTIONARY
  5
E2A
330
35
100
AcDbDictionary
280
     1
281
     1
  3
ADSK_XREC_LAYER_RECONCILED
360
E2B
  0
DICTIONARY
  5
E2C
330
36
100
AcDbDictionary
280
     1
281
     1
  3
ADSK_XREC_LAYER_RECONCILED
360
E2D
  0
DICTIONARY
  5
E2E
330
37
100
AcDbDictionary
280
     1
281
     1
  3
ADSK_XREC_LAYER_RECONCILED
360
E2F
  0
DICTIONARY
  5
E30
330
5D6
100
AcDbDictionary
280
     1
281
     1
  3
ADSK_XREC_LAYER_RECONCILED
360
E31
  0
DICTIONARY
  5
E32
330
8AF
100
AcDbDictionary
280
     1
281
     1
  3
ADSK_XREC_LAYER_RECONCILED
360
E33
  0
DICTIONARY
  5
E34
330
8F8
100
AcDbDictionary
280
     1
281
     1
  3
ADSK_XREC_LAYER_RECONCILED
360
E35
  0
DICTIONARY
  5
E36
330
91D
100
AcDbDictionary
280
     1
281
     1
  3
ADSK_XREC_LAYER_RECONCILED
360
E37
  0
DICTIONARY
  5
E38
330
BA5
100
AcDbDictionary
280
     1
281
     1
  3
ADSK_XREC_LAYER_RECONCILED
360
E39
  0
DICTIONARY
  5
E3A
330
BB0
100
AcDbDictionary
280
     1
281
     1
  3
ADSK_XREC_LAYER_RECONCILED
360
E3B
  0
DICTIONARY
  5
BA9
102
{ACAD_REACTORS
330
C
102
}
330
C
100
AcDbDictionary
281
     1
  0
DICTIONARY
  5
D
102
{ACAD_REACTORS
330
C
102
}
330
C
100
AcDbDictionary
281
     1
  0
DICTIONARY
  5
1A
102
{ACAD_REACTORS
330
C
102
}
330
C
100
AcDbDictionary
281
     1
  3
Layout1
350
1E
  3
Layout2
350
26
  3
Model
350
22
  0
DICTIONARY
  5
BA8
102
{ACAD_REACTORS
330
C
102
}
330
C
100
AcDbDictionary
281
     1
  3
ByBlock
350
DE0
  3
ByLayer
350
DD8
  3
Global
350
DE8
  0
DICTIONARY
  5
E16
102
{ACAD_REACTORS
330
C
102
}
330
C
100
AcDbDictionary
281
     1
  3
Standard
350
E17
  0
DICTIONARY
  5
17
102
{ACAD_REACTORS
330
C
102
}
330
C
100
AcDbDictionary
281
     1
  3
Standard
350
18
  0
DICTIONARY
  5
19
102
{ACAD_REACTORS
330
C
102
}
330
C
100
AcDbDictionary
281
     1
  0
ACDBDICTIONARYWDFLT
  5
E
102
{ACAD_REACTORS
330
C
102
}
330
C
100
AcDbDictionary
281
     1
  3
Normal
350
F
100
AcDbDictionaryWithDefault
340
F
  0
DICTIONARY
  5
E04
102
{ACAD_REACTORS
330
C
102
}
330
C
100
AcDbDictionary
281
     1
  3
A0
350
E05
  3
A1
350
E06
  3
A2
350
E07
  3
A3
350
E08
  3
A4
350
E09
  3
A5
350
E0A
  3
A6
350
E0B
  3
A7
350
E0C
  3
A8
350
E0D
  3
A9
350
E0E
  3
B0
350
E0F
  3
B1
350
E10
  3
B2
350
E11
  3
B3
350
E12
  3
B4
350
E13
  3
B5
350
E14
  3
B6
350
E15
  0
DICTIONARY
  5
BAA
102
{ACAD_REACTORS
330
C
102
}
330
C
100
AcDbDictionary
281
     1
  3
Standard
350
BAB
  0
DICTIONARY
  5
DF0
102
{ACAD_REACTORS
330
C
102
}
330
C
100
AcDbDictionary
281
     1
  3
2dWireframe
350
DF6
  3
3D Hidden
350
DF8
  3
3dWireframe
350
DF7
  3
Basic
350
DF5
  3
Brighten
350
DFC
  3
ColorChange
350
E00
  3
Conceptual
350
DF9
  3
Dim
350
DFB
  3
EdgeColorOff
350
E03
  3
Facepattern
350
DFF
  3
Flat
350
DF1
  3
FlatWithEdges
350
DF2
  3
Gouraud
350
DF3
  3
GouraudWithEdges
350
DF4
  3
JitterOff
350
E01
  3
Linepattern
350
DFE
  3
OverhangOff
350
E02
  3
Realistic
350
DFA
  3
Thicken
350
DFD
  0
XRECORD
  5
E43
102
{ACAD_REACTORS
330
C
102
}
330
C
100
AcDbXrecord
280
     1
 90
        1
330
BAB
  0
DICTIONARY
  5
3D
102
{ACAD_REACTORS
330
C
102
}
330
C
100
AcDbDictionary
281
     1
  3
CANNOSCALE
350
E3D
  3
CMLEADERSTYLE
350
E3C
  3
CTABLESTYLE
350
DD5
  3
DIMASSOC
350
3F
  3
HIDETEXT
350
3E
  3
INDEXCTL
350
E3F
  3
PROJECTNAME
350
DD6
  3
SORTENTS
350
E3E
  3
XCLIPFRAME
350
E40
  0
DICTIONARY
  5
D25
102
{ACAD_REACTORS
330
C
102
}
330
C
100
AcDbDictionary
281
     1
  3
ASEBlockHierarchyIndexRecord
350
D26
1001
DCO15
1040
1531461490.234
  0
XRECORD
  5
E44
102
{ACAD_REACTORS
330
C
102
}
330
C
100
AcDbXrecord
280
     1
  1
DWGPROPS COOKIE
  2

  3

  4

  6

  7

  8
Julio
  9

300
=
301
=
302
=
303
=
304
=
305
=
306
=
307
=
308
=
309
=
 40
0.0026718055555556
 41
2453528.45807544
 42
2456146.445597512
  1

 90
        0
  0
XRECORD
  5
E1D
102
{ACAD_REACTORS
330
E1C
102
}
330
E1C
100
AcDbXrecord
280
     1
290
     1
  0
XRECORD
  5
E1F
102
{ACAD_REACTORS
330
E1E
102
}
330
E1E
100
AcDbXrecord
280
     1
290
     1
  0
XRECORD
  5
E21
102
{ACAD_REACTORS
330
E20
102
}
330
E20
100
AcDbXrecord
280
     1
290
     1
  0
XRECORD
  5
E23
102
{ACAD_REACTORS
330
E22
102
}
330
E22
100
AcDbXrecord
280
     1
290
     1
  0
XRECORD
  5
E25
102
{ACAD_REACTORS
330
E24
102
}
330
E24
100
AcDbXrecord
280
     1
290
     1
  0
XRECORD
  5
E27
102
{ACAD_REACTORS
330
E26
102
}
330
E26
100
AcDbXrecord
280
     1
290
     1
  0
XRECORD
  5
E29
102
{ACAD_REACTORS
330
E28
102
}
330
E28
100
AcDbXrecord
280
     1
290
     1
  0
XRECORD
  5
E2B
102
{ACAD_REACTORS
330
E2A
102
}
330
E2A
100
AcDbXrecord
280
     1
290
     1
  0
XRECORD
  5
E2D
102
{ACAD_REACTORS
330
E2C
102
}
330
E2C
100
AcDbXrecord
280
     1
290
     1
  0
XRECORD
  5
E2F
102
{ACAD_REACTORS
330
E2E
102
}
330
E2E
100
AcDbXrecord
280
     1
290
     1
  0
XRECORD
  5
E31
102
{ACAD_REACTORS
330
E30
102
}
330
E30
100
AcDbXrecord
280
     1
290
     1
  0
XRECORD
  5
E33
102
{ACAD_REACTORS
330
E32
102
}
330
E32
100
AcDbXrecord
280
     1
290
     1
  0
XRECORD
  5
E35
102
{ACAD_REACTORS
330
E34
102
}
330
E34
100
AcDbXrecord
280
     1
290
     1
  0
XRECORD
  5
E37
102
{ACAD_REACTORS
330
E36
102
}
330
E36
100
AcDbXrecord
280
     1
290
     1
  0
XRECORD
  5
E39
102
{ACAD_REACTORS
330
E38
102
}
330
E38
100
AcDbXrecord
280
     1
290
     1
  0
XRECORD
  5
E3B
102
{ACAD_REACTORS
330
E3A
102
}
330
E3A
100
AcDbXrecord
280
     1
290
     1
  0
LAYOUT
  5
1E
102
{ACAD_XDICTIONARY
360
E45
102
}
102
{ACAD_REACTORS
330
1A
102
}
330
1A
100
AcDbPlotSettings
  1

  2
Ploter HP500
  4

  6

 40
0.0
 41
0.0
 42
0.0
 43
0.0
 44
0.0
 45
0.0
 46
0.0
 47
0.0
 48
0.0
 49
0.0
140
0.0
141
0.0
142
1.0
143
1.0
 70
   688
 72
     0
 73
     0
 74
     5
  7
monochrome.ctb
 75
    16
147
1.0
148
0.0
149
0.0
100
AcDbLayout
  1
Layout1
 70
     1
 71
     1
 10
0.0
 20
0.0
 11
420.0
 21
297.0
 12
0.0
 22
0.0
 32
0.0
 14
1.000000000000000E+20
 24
1.000000000000000E+20
 34
1.000000000000000E+20
 15
-1.000000000000000E+20
 25
-1.000000000000000E+20
 35
-1.000000000000000E+20
146
0.0
 13
0.0
 23
0.0
 33
0.0
 16
1.0
 26
0.0
 36
0.0
 17
0.0
 27
1.0
 37
0.0
 76
     0
330
1B
  0
LAYOUT
  5
26
102
{ACAD_XDICTIONARY
360
E49
102
}
102
{ACAD_REACTORS
330
1A
102
}
330
1A
100
AcDbPlotSettings
  1

  2
Ploter HP500
  4

  6

 40
0.0
 41
0.0
 42
0.0
 43
0.0
 44
0.0
 45
0.0
 46
0.0
 47
0.0
 48
0.0
 49
0.0
140
0.0
141
0.0
142
1.0
143
1.0
 70
   688
 72
     0
 73
     0
 74
     5
  7
monochrome.ctb
 75
    16
147
1.0
148
0.0
149
0.0
100
AcDbLayout
  1
Layout2
 70
     1
 71
     2
 10
0.0
 20
0.0
 11
12.0
 21
9.0
 12
0.0
 22
0.0
 32
0.0
 14
0.0
 24
0.0
 34
0.0
 15
0.0
 25
0.0
 35
0.0
146
0.0
 13
0.0
 23
0.0
 33
0.0
 16
1.0
 26
0.0
 36
0.0
 17
0.0
 27
1.0
 37
0.0
 76
     0
330
23
  0
LAYOUT
  5
22
102
{ACAD_XDICTIONARY
360
E47
102
}
102
{ACAD_REACTORS
330
1A
102
}
330
1A
100
AcDbPlotSettings
  1

  2
Ploter HP500
  4
User268
  6

 40
4.995333194732666
 41
16.97565841674804
 42
4.995330810546875
 43
16.97567749023437
 44
209.9733276367187
 45
296.9259948730469
 46
0.0
 47
0.0
 48
0.0
 49
0.0
140
0.0
141
0.0
142
1.0
143
1.0
 70
 11952
 72
     1
 73
     1
 74
     0
  7

 75
     0
147
1.0
148
-427.5957866592534
149
7.362384574453926
100
AcDbLayout
  1
Model
 70
     1
 71
     0
 10
0.0
 20
0.0
 11
12.0
 21
9.0
 12
0.0
 22
0.0
 32
0.0
 14
0.0
 24
0.0
 34
0.0
 15
0.0
 25
0.0
 35
0.0
146
0.0
 13
0.0
 23
0.0
 33
0.0
 16
1.0
 26
0.0
 36
0.0
 17
0.0
 27
1.0
 37
0.0
 76
     0
330
1F
331
DCD
  0
MATERIAL
  5
DE0
102
{ACAD_XDICTIONARY
360
DE1
102
}
102
{ACAD_REACTORS
330
BA8
102
}
330
BA8
100
AcDbMaterial
  1
ByBlock
 72
     0
 43
0.0008202099737533
 43
0.0
 43
0.0
 43
0.0
 43
0.0
 43
0.0008202099737533
 43
0.0
 43
0.0
 43
0.0
 43
0.0
 43
1.0
 43
0.0
 43
0.0
 43
0.0
 43
0.0
 43
1.0
 77
     0
 47
0.0008202099737533
 47
0.0
 47
0.0
 47
0.0
 47
0.0
 47
0.0008202099737533
 47
0.0
 47
0.0
 47
0.0
 47
0.0
 47
1.0
 47
0.0
 47
0.0
 47
0.0
 47
0.0
 47
1.0
171
     0
 49
0.0008202099737533
 49
0.0
 49
0.0
 49
0.0
 49
0.0
 49
0.0008202099737533
 49
0.0
 49
0.0
 49
0.0
 49
0.0
 49
1.0
 49
0.0
 49
0.0
 49
0.0
 49
0.0
 49
1.0
175
     0
142
0.0008202099737533
142
0.0
142
0.0
142
0.0
142
0.0
142
0.0008202099737533
142
0.0
142
0.0
142
0.0
142
0.0
142
1.0
142
0.0
142
0.0
142
0.0
142
0.0
142
1.0
179
     0
144
0.0008202099737533
144
0.0
144
0.0
144
0.0
144
0.0
144
0.0008202099737533
144
0.0
144
0.0
144
0.0
144
0.0
144
1.0
144
0.0
144
0.0
144
0.0
144
0.0
144
1.0
147
0.0008202099737533
147
0.0
147
0.0
147
0.0
147
0.0
147
0.0008202099737533
147
0.0
147
0.0
147
0.0
147
0.0
147
1.0
147
0.0
147
0.0
147
0.0
147
0.0
147
1.0
  0
MATERIAL
  5
DD8
102
{ACAD_XDICTIONARY
360
DD9
102
}
102
{ACAD_REACTORS
330
BA8
102
}
330
BA8
100
AcDbMaterial
  1
ByLayer
 72
     0
 43
0.0008202099737533
 43
0.0
 43
0.0
 43
0.0
 43
0.0
 43
0.0008202099737533
 43
0.0
 43
0.0
 43
0.0
 43
0.0
 43
1.0
 43
0.0
 43
0.0
 43
0.0
 43
0.0
 43
1.0
 77
     0
 47
0.0008202099737533
 47
0.0
 47
0.0
 47
0.0
 47
0.0
 47
0.0008202099737533
 47
0.0
 47
0.0
 47
0.0
 47
0.0
 47
1.0
 47
0.0
 47
0.0
 47
0.0
 47
0.0
 47
1.0
171
     0
 49
0.0008202099737533
 49
0.0
 49
0.0
 49
0.0
 49
0.0
 49
0.0008202099737533
 49
0.0
 49
0.0
 49
0.0
 49
0.0
 49
1.0
 49
0.0
 49
0.0
 49
0.0
 49
0.0
 49
1.0
175
     0
142
0.0008202099737533
142
0.0
142
0.0
142
0.0
142
0.0
142
0.0008202099737533
142
0.0
142
0.0
142
0.0
142
0.0
142
1.0
142
0.0
142
0.0
142
0.0
142
0.0
142
1.0
179
     0
144
0.0008202099737533
144
0.0
144
0.0
144
0.0
144
0.0
144
0.0008202099737533
144
0.0
144
0.0
144
0.0
144
0.0
144
1.0
144
0.0
144
0.0
144
0.0
144
0.0
144
1.0
147
0.0008202099737533
147
0.0
147
0.0
147
0.0
147
0.0
147
0.0008202099737533
147
0.0
147
0.0
147
0.0
147
0.0
147
1.0
147
0.0
147
0.0
147
0.0
147
0.0
147
1.0
  0
MATERIAL
  5
DE8
102
{ACAD_XDICTIONARY
360
DE9
102
}
102
{ACAD_REACTORS
330
BA8
102
}
330
BA8
100
AcDbMaterial
  1
Global
 72
     0
 43
0.0008202099737533
 43
0.0
 43
0.0
 43
0.0
 43
0.0
 43
0.0008202099737533
 43
0.0
 43
0.0
 43
0.0
 43
0.0
 43
1.0
 43
0.0
 43
0.0
 43
0.0
 43
0.0
 43
1.0
 77
     0
 47
0.0008202099737533
 47
0.0
 47
0.0
 47
0.0
 47
0.0
 47
0.0008202099737533
 47
0.0
 47
0.0
 47
0.0
 47
0.0
 47
1.0
 47
0.0
 47
0.0
 47
0.0
 47
0.0
 47
1.0
171
     0
 49
0.0008202099737533
 49
0.0
 49
0.0
 49
0.0
 49
0.0
 49
0.0008202099737533
 49
0.0
 49
0.0
 49
0.0
 49
0.0
 49
1.0
 49
0.0
 49
0.0
 49
0.0
 49
0.0
 49
1.0
175
     0
142
0.0008202099737533
142
0.0
142
0.0
142
0.0
142
0.0
142
0.0008202099737533
142
0.0
142
0.0
142
0.0
142
0.0
142
1.0
142
0.0
142
0.0
142
0.0
142
0.0
142
1.0
179
     0
144
0.0008202099737533
144
0.0
144
0.0
144
0.0
144
0.0
144
0.0008202099737533
144
0.0
144
0.0
144
0.0
144
0.0
144
1.0
144
0.0
144
0.0
144
0.0
144
0.0
144
1.0
147
0.0008202099737533
147
0.0
147
0.0
147
0.0
147
0.0
147
0.0008202099737533
147
0.0
147
0.0
147
0.0
147
0.0
147
1.0
147
0.0
147
0.0
147
0.0
147
0.0
147
1.0
  0
MLEADERSTYLE
  5
E17
102
{ACAD_REACTORS
330
E16
102
}
330
E16
100
AcDbMLeaderStyle
170
     2
171
     1
172
     0
 90
        2
 40
0.0
 41
0.0
173
     1
 91
-1056964608
340
14
 92
       -2
290
     1
 42
2.0
291
     1
 43
0.36
  3
Standard
 44
4.0
300

342
11
174
     1
178
     6
175
     1
176
     0
 93
-1056964608
 45
4.0
292
     0
297
     0
 46
4.0
 94
-1056964608
 47
1.0
 49
1.0
140
1.0
293
     1
141
0.0
294
     1
177
     0
142
1.0
295
     0
296
     0
143
0.125
1001
ACAD_MLEADERVER
1070
     2
  0
MLINESTYLE
  5
18
102
{ACAD_REACTORS
330
17
102
}
330
17
100
AcDbMlineStyle
  2
STANDARD
 70
     0
  3

 62
   256
 51
90.0
 52
90.0
 71
     2
 49
0.5
 62
   256
  6
BYLAYER
 49
-0.5
 62
   256
  6
BYLAYER
  0
ACDBPLACEHOLDER
  5
F
102
{ACAD_REACTORS
330
E
102
}
330
E
  0
SCALE
  5
E05
102
{ACAD_REACTORS
330
E04
102
}
330
E04
100
AcDbScale
 70
     0
300
1:1
140
1.0
141
1.0
290
     1
  0
SCALE
  5
E06
102
{ACAD_REACTORS
330
E04
102
}
330
E04
100
AcDbScale
 70
     0
300
1:2
140
1.0
141
2.0
290
     0
  0
SCALE
  5
E07
102
{ACAD_REACTORS
330
E04
102
}
330
E04
100
AcDbScale
 70
     0
300
1:4
140
1.0
141
4.0
290
     0
  0
SCALE
  5
E08
102
{ACAD_REACTORS
330
E04
102
}
330
E04
100
AcDbScale
 70
     0
300
1:5
140
1.0
141
5.0
290
     0
  0
SCALE
  5
E09
102
{ACAD_REACTORS
330
E04
102
}
330
E04
100
AcDbScale
 70
     0
300
1:8
140
1.0
141
8.0
290
     0
  0
SCALE
  5
E0A
102
{ACAD_REACTORS
330
E04
102
}
330
E04
100
AcDbScale
 70
     0
300
1:10
140
1.0
141
10.0
290
     0
  0
SCALE
  5
E0B
102
{ACAD_REACTORS
330
E04
102
}
330
E04
100
AcDbScale
 70
     0
300
1:16
140
1.0
141
16.0
290
     0
  0
SCALE
  5
E0C
102
{ACAD_REACTORS
330
E04
102
}
330
E04
100
AcDbScale
 70
     0
300
1:20
140
1.0
141
20.0
290
     0
  0
SCALE
  5
E0D
102
{ACAD_REACTORS
330
E04
102
}
330
E04
100
AcDbScale
 70
     0
300
1:30
140
1.0
141
30.0
290
     0
  0
SCALE
  5
E0E
102
{ACAD_REACTORS
330
E04
102
}
330
E04
100
AcDbScale
 70
     0
300
1:40
140
1.0
141
40.0
290
     0
  0
SCALE
  5
E0F
102
{ACAD_REACTORS
330
E04
102
}
330
E04
100
AcDbScale
 70
     0
300
1:50
140
1.0
141
50.0
290
     0
  0
SCALE
  5
E10
102
{ACAD_REACTORS
330
E04
102
}
330
E04
100
AcDbScale
 70
     0
300
1:100
140
1.0
141
100.0
290
     0
  0
SCALE
  5
E11
102
{ACAD_REACTORS
330
E04
102
}
330
E04
100
AcDbScale
 70
     0
300
2:1
140
2.0
141
1.0
290
     0
  0
SCALE
  5
E12
102
{ACAD_REACTORS
330
E04
102
}
330
E04
100
AcDbScale
 70
     0
300
4:1
140
4.0
141
1.0
290
     0
  0
SCALE
  5
E13
102
{ACAD_REACTORS
330
E04
102
}
330
E04
100
AcDbScale
 70
     0
300
8:1
140
8.0
141
1.0
290
     0
  0
SCALE
  5
E14
102
{ACAD_REACTORS
330
E04
102
}
330
E04
100
AcDbScale
 70
     0
300
10:1
140
10.0
141
1.0
290
     0
  0
SCALE
  5
E15
102
{ACAD_REACTORS
330
E04
102
}
330
E04
100
AcDbScale
 70
     0
300
100:1
140
100.0
141
1.0
290
     0
  0
TABLESTYLE
  5
BAB
102
{ACAD_XDICTIONARY
360
E41
102
}
102
{ACAD_REACTORS
330
BAA
102
}
330
BAA
100
AcDbTableStyle
  3
Standard
 70
     0
 71
     0
 40
1.5
 41
1.5
280
     0
281
     0
  7
Standard
140
4.5
170
     2
 62
     0
 63
     7
283
     0
274
    -2
284
     1
 64
     0
275
    -2
285
     1
 65
     0
276
    -2
286
     1
 66
     0
277
    -2
287
     1
 67
     0
278
    -2
288
     1
 68
     0
279
    -2
289
     1
 69
     0
  7
Standard
140
6.0
170
     5
 62
     0
 63
     7
283
     0
274
    -2
284
     1
 64
     0
275
    -2
285
     1
 65
     0
276
    -2
286
     1
 66
     0
277
    -2
287
     1
 67
     0
278
    -2
288
     1
 68
     0
279
    -2
289
     1
 69
     0
  7
Standard
140
4.5
170
     5
 62
     0
 63
     7
283
     0
274
    -2
284
     1
 64
     0
275
    -2
285
     1
 65
     0
276
    -2
286
     1
 66
     0
277
    -2
287
     1
 67
     0
278
    -2
288
     1
 68
     0
279
    -2
289
     1
 69
     0
  0
VISUALSTYLE
  5
DF6
102
{ACAD_XDICTIONARY
360
E59
102
}
102
{ACAD_REACTORS
330
DF0
102
}
330
DF0
100
AcDbVisualStyle
  2
2dWireframe
 70
     4
 71
     0
 72
     2
 73
     0
 90
        0
 40
-0.6
 41
-30.0
 62
     5
 63
     7
 74
     1
 91
        4
 64
     7
 65
   257
 75
     1
175
     1
 42
1.0
 92
        0
 66
   257
 43
1.0
 76
     1
 77
     6
 78
     2
 67
     7
 79
     5
170
     0
171
     0
290
     0
174
     0
 93
        1
 44
0.0
173
     0
291
     0
 45
0.0
1001
ACAD
1000
AcDbSavedByObjectVersion
1070
     0
  0
VISUALSTYLE
  5
DF8
102
{ACAD_XDICTIONARY
360
E5D
102
}
102
{ACAD_REACTORS
330
DF0
102
}
330
DF0
100
AcDbVisualStyle
  2
3D Hidden
 70
     6
 71
     1
 72
     2
 73
     2
 90
        0
 40
-0.6
 41
-30.0
 62
     5
 63
     7
 74
     2
 91
        2
 64
     7
 65
   257
 75
     2
175
     1
 42
179.0
 92
        0
 66
   257
 43
1.0
 76
     1
 77
     6
 78
     2
 67
     7
 79
     3
170
     0
171
     0
290
     0
174
     0
 93
        1
 44
0.0
173
     0
291
     0
 45
0.0
1001
ACAD
1000
AcDbSavedByObjectVersion
1070
     0
  0
VISUALSTYLE
  5
DF7
102
{ACAD_XDICTIONARY
360
E5B
102
}
102
{ACAD_REACTORS
330
DF0
102
}
330
DF0
100
AcDbVisualStyle
  2
3dWireframe
 70
     5
 71
     0
 72
     2
 73
     0
 90
        0
 40
-0.6
 41
-30.0
 62
     5
 63
     7
 74
     1
 91
        4
 64
     7
 65
   257
 75
     1
175
     1
 42
1.0
 92
        0
 66
   257
 43
1.0
 76
     1
 77
     6
 78
     2
 67
     7
 79
     5
170
     0
171
     0
290
     0
174
     0
 93
        1
 44
0.0
173
     0
291
     0
 45
0.0
1001
ACAD
1000
AcDbSavedByObjectVersion
1070
     0
  0
VISUALSTYLE
  5
DF5
102
{ACAD_XDICTIONARY
360
E57
102
}
102
{ACAD_REACTORS
330
DF0
102
}
330
DF0
100
AcDbVisualStyle
  2
Basic
 70
     7
 71
     1
 72
     0
 73
     1
 90
        0
 40
-0.6
 41
-30.0
 62
     5
 63
     7
 74
     0
 91
        4
 64
     7
 65
   257
 75
     1
175
     1
 42
1.0
 92
        8
 66
     7
 43
1.0
 76
     1
 77
     6
 78
     2
 67
     7
 79
     5
170
     0
171
     0
290
     0
174
     0
 93
        1
 44
0.0
173
     0
291
     1
 45
0.0
1001
ACAD
1000
AcDbSavedByObjectVersion
1070
     0
  0
VISUALSTYLE
  5
DFC
102
{ACAD_XDICTIONARY
360
E65
102
}
102
{ACAD_REACTORS
330
DF0
102
}
330
DF0
100
AcDbVisualStyle
  2
Brighten
 70
    12
 71
     2
 72
     2
 73
     0
 90
        0
 40
-0.6
 41
-30.0
 62
     5
 63
     7
 74
     1
 91
        4
 64
     7
 65
   257
 75
     1
175
     1
 42
1.0
 92
        8
 66
     7
 43
1.0
 76
     1
 77
     6
 78
     2
 67
     7
 79
     5
170
     0
171
     0
290
     0
174
     0
 93
        1
 44
50.0
173
     0
291
     1
 45
0.0
1001
ACAD
1000
AcDbSavedByObjectVersion
1070
     0
  0
VISUALSTYLE
  5
E00
102
{ACAD_XDICTIONARY
360
E6D
102
}
102
{ACAD_REACTORS
330
DF0
102
}
330
DF0
100
AcDbVisualStyle
  2
ColorChange
 70
    16
 71
     2
 72
     2
 73
     3
 90
        0
 40
-0.6
 41
-30.0
 62
     5
 63
     8
 74
     1
 91
        4
 64
     7
 65
   257
 75
     1
175
     1
 42
1.0
 92
        8
 66
     8
 43
1.0
 76
     1
 77
     6
 78
     2
 67
     7
 79
     5
170
     0
171
     0
290
     0
174
     0
 93
        1
 44
0.0
173
     0
291
     1
 45
0.0
1001
ACAD
1000
AcDbSavedByObjectVersion
1070
     0
  0
VISUALSTYLE
  5
DF9
102
{ACAD_XDICTIONARY
360
E5F
102
}
102
{ACAD_REACTORS
330
DF0
102
}
330
DF0
100
AcDbVisualStyle
  2
Conceptual
 70
     9
 71
     3
 72
     2
 73
     0
 90
        0
 40
-0.6
 41
-30.0
 62
     5
 63
     7
 74
     2
 91
        2
 64
     7
 65
   257
 75
     1
175
     1
 42
179.0
 92
        8
 66
     7
 43
1.0
 76
     1
 77
     6
 78
     2
 67
     7
 79
     3
170
     0
171
     0
290
     0
174
     0
 93
        1
 44
0.0
173
     0
291
     0
 45
0.0
1001
ACAD
1000
AcDbSavedByObjectVersion
1070
     0
  0
VISUALSTYLE
  5
DFB
102
{ACAD_XDICTIONARY
360
E63
102
}
102
{ACAD_REACTORS
330
DF0
102
}
330
DF0
100
AcDbVisualStyle
  2
Dim
 70
    11
 71
     2
 72
     2
 73
     0
 90
        0
 40
-0.6
 41
-30.0
 62
     5
 63
     7
 74
     1
 91
        4
 64
     7
 65
   257
 75
     1
175
     1
 42
1.0
 92
        8
 66
     7
 43
1.0
 76
     1
 77
     6
 78
     2
 67
     7
 79
     5
170
     0
171
     0
290
     0
174
     0
 93
        1
 44
-50.0
173
     0
291
     1
 45
0.0
1001
ACAD
1000
AcDbSavedByObjectVersion
1070
     0
  0
VISUALSTYLE
  5
E03
102
{ACAD_XDICTIONARY
360
E73
102
}
102
{ACAD_REACTORS
330
DF0
102
}
330
DF0
100
AcDbVisualStyle
  2
EdgeColorOff
 70
    22
 71
     2
 72
     2
 73
     0
 90
        0
 40
-0.6
 41
-30.0
 62
     5
 63
     7
 74
     1
 91
        4
 64
     7
 65
   257
 75
     1
175
     1
 42
1.0
 92
        8
 66
     7
 43
1.0
 76
     1
 77
     6
 78
     2
 67
     7
 79
     5
170
     0
171
     0
290
     0
174
     0
 93
        1
 44
0.0
173
     0
291
     1
 45
0.0
1001
ACAD
1000
AcDbSavedByObjectVersion
1070
     0
  0
VISUALSTYLE
  5
DFF
102
{ACAD_XDICTIONARY
360
E6B
102
}
102
{ACAD_REACTORS
330
DF0
102
}
330
DF0
100
AcDbVisualStyle
  2
Facepattern
 70
    15
 71
     2
 72
     2
 73
     0
 90
        0
 40
-0.6
 41
-30.0
 62
     5
 63
     7
 74
     1
 91
        4
 64
     7
 65
   257
 75
     1
175
     1
 42
1.0
 92
        8
 66
     7
 43
1.0
 76
     1
 77
     6
 78
     2
 67
     7
 79
     5
170
     0
171
     0
290
     0
174
     0
 93
        1
 44
0.0
173
     0
291
     1
 45
0.0
1001
ACAD
1000
AcDbSavedByObjectVersion
1070
     0
  0
VISUALSTYLE
  5
DF1
102
{ACAD_XDICTIONARY
360
E4F
102
}
102
{ACAD_REACTORS
330
DF0
102
}
330
DF0
100
AcDbVisualStyle
  2
Flat
 70
     0
 71
     2
 72
     1
 73
     1
 90
        2
 40
-0.6
 41
30.0
 62
     5
 63
     7
 74
     0
 91
        4
 64
     7
 65
   257
 75
     1
175
     1
 42
1.0
 92
        8
 66
     7
 43
1.0
 76
     1
 77
     6
 78
     2
 67
     7
 79
     5
170
     0
171
     0
290
     0
174
     0
 93
       13
 44
0.0
173
     0
291
     1
 45
0.0
1001
ACAD
1000
AcDbSavedByObjectVersion
1070
     0
  0
VISUALSTYLE
  5
DF2
102
{ACAD_XDICTIONARY
360
E51
102
}
102
{ACAD_REACTORS
330
DF0
102
}
330
DF0
100
AcDbVisualStyle
  2
FlatWithEdges
 70
     1
 71
     2
 72
     1
 73
     1
 90
        2
 40
-0.6
 41
30.0
 62
     5
 63
     7
 74
     1
 91
        4
 64
     7
 65
   257
 75
     1
175
     1
 42
1.0
 92
        0
 66
   257
 43
1.0
 76
     1
 77
     6
 78
     2
 67
     7
 79
     5
170
     0
171
     0
290
     0
174
     0
 93
       13
 44
0.0
173
     0
291
     1
 45
0.0
1001
ACAD
1000
AcDbSavedByObjectVersion
1070
     0
  0
VISUALSTYLE
  5
DF3
102
{ACAD_XDICTIONARY
360
E53
102
}
102
{ACAD_REACTORS
330
DF0
102
}
330
DF0
100
AcDbVisualStyle
  2
Gouraud
 70
     2
 71
     2
 72
     2
 73
     1
 90
        2
 40
-0.6
 41
30.0
 62
     5
 63
     7
 74
     0
 91
        4
 64
     7
 65
   257
 75
     1
175
     1
 42
1.0
 92
        0
 66
     7
 43
1.0
 76
     1
 77
     6
 78
     2
 67
     7
 79
     5
170
     0
171
     0
290
     0
174
     0
 93
       13
 44
0.0
173
     0
291
     1
 45
0.0
1001
ACAD
1000
AcDbSavedByObjectVersion
1070
     0
  0
VISUALSTYLE
  5
DF4
102
{ACAD_XDICTIONARY
360
E55
102
}
102
{ACAD_REACTORS
330
DF0
102
}
330
DF0
100
AcDbVisualStyle
  2
GouraudWithEdges
 70
     3
 71
     2
 72
     2
 73
     1
 90
        2
 40
-0.6
 41
30.0
 62
     5
 63
     7
 74
     1
 91
        4
 64
     7
 65
   257
 75
     1
175
     1
 42
1.0
 92
        0
 66
   257
 43
1.0
 76
     1
 77
     6
 78
     2
 67
     7
 79
     5
170
     0
171
     0
290
     0
174
     0
 93
       13
 44
0.0
173
     0
291
     1
 45
0.0
1001
ACAD
1000
AcDbSavedByObjectVersion
1070
     0
  0
VISUALSTYLE
  5
E01
102
{ACAD_XDICTIONARY
360
E6F
102
}
102
{ACAD_REACTORS
330
DF0
102
}
330
DF0
100
AcDbVisualStyle
  2
JitterOff
 70
    20
 71
     2
 72
     2
 73
     0
 90
        0
 40
-0.6
 41
-30.0
 62
     5
 63
     7
 74
     1
 91
        4
 64
     7
 65
   257
 75
     1
175
     1
 42
1.0
 92
       10
 66
     7
 43
1.0
 76
     1
 77
     6
 78
     2
 67
     7
 79
     5
170
     0
171
     0
290
     0
174
     0
 93
        1
 44
0.0
173
     0
291
     1
 45
0.0
1001
ACAD
1000
AcDbSavedByObjectVersion
1070
     0
  0
VISUALSTYLE
  5
DFE
102
{ACAD_XDICTIONARY
360
E69
102
}
102
{ACAD_REACTORS
330
DF0
102
}
330
DF0
100
AcDbVisualStyle
  2
Linepattern
 70
    14
 71
     2
 72
     2
 73
     0
 90
        0
 40
-0.6
 41
-30.0
 62
     5
 63
     7
 74
     1
 91
        4
 64
     7
 65
   257
 75
     7
175
     7
 42
1.0
 92
        8
 66
     7
 43
1.0
 76
     1
 77
     6
 78
     2
 67
     7
 79
     5
170
     0
171
     0
290
     0
174
     0
 93
        1
 44
0.0
173
     0
291
     1
 45
0.0
1001
ACAD
1000
AcDbSavedByObjectVersion
1070
     0
  0
VISUALSTYLE
  5
E02
102
{ACAD_XDICTIONARY
360
E71
102
}
102
{ACAD_REACTORS
330
DF0
102
}
330
DF0
100
AcDbVisualStyle
  2
OverhangOff
 70
    21
 71
     2
 72
     2
 73
     0
 90
        0
 40
-0.6
 41
-30.0
 62
     5
 63
     7
 74
     1
 91
        4
 64
     7
 65
   257
 75
     1
175
     1
 42
1.0
 92
        9
 66
     7
 43
1.0
 76
     1
 77
     6
 78
     2
 67
     7
 79
     5
170
     0
171
     0
290
     0
174
     0
 93
        1
 44
0.0
173
     0
291
     1
 45
0.0
1001
ACAD
1000
AcDbSavedByObjectVersion
1070
     0
  0
VISUALSTYLE
  5
DFA
102
{ACAD_XDICTIONARY
360
E61
102
}
102
{ACAD_REACTORS
330
DF0
102
}
330
DF0
100
AcDbVisualStyle
  2
Realistic
 70
     8
 71
     2
 72
     2
 73
     0
 90
        0
 40
-0.6
 41
-30.0
 62
     5
 63
     7
 74
     1
 91
        0
 64
     7
 65
   257
 75
     1
175
     1
 42
1.0
 92
        8
 66
     8
 43
1.0
 76
     1
 77
     6
 78
     2
 67
     7
 79
     5
170
     0
171
     0
290
     0
174
     0
 93
       13
 44
0.0
173
     0
291
     0
 45
0.0
1001
ACAD
1000
AcDbSavedByObjectVersion
1070
     0
  0
VISUALSTYLE
  5
DFD
102
{ACAD_XDICTIONARY
360
E67
102
}
102
{ACAD_REACTORS
330
DF0
102
}
330
DF0
100
AcDbVisualStyle
  2
Thicken
 70
    13
 71
     2
 72
     2
 73
     0
 90
        0
 40
-0.6
 41
-30.0
 62
     5
 63
     7
 74
     1
 91
        4
 64
     7
 65
   257
 75
     1
175
     1
 42
1.0
 92
       12
 66
     7
 43
1.0
 76
     1
 77
     6
 78
     2
 67
     7
 79
     5
170
     0
171
     0
290
     0
174
     0
 93
        1
 44
0.0
173
     0
291
     1
 45
0.0
1001
ACAD
1000
AcDbSavedByObjectVersion
1070
     0
  0
DICTIONARYVAR
  5
E3D
102
{ACAD_REACTORS
330
3D
102
}
330
3D
100
DictionaryVariables
280
     0
  1
1:1
  0
DICTIONARYVAR
  5
E3C
102
{ACAD_REACTORS
330
3D
102
}
330
3D
100
DictionaryVariables
280
     0
  1
STANDARD
  0
DICTIONARYVAR
  5
DD5
102
{ACAD_REACTORS
330
3D
102
}
330
3D
100
DictionaryVariables
280
     0
  1
STANDARD
  0
DICTIONARYVAR
  5
3F
102
{ACAD_REACTORS
330
3D
102
}
330
3D
100
DictionaryVariables
280
     0
  1
2
  0
DICTIONARYVAR
  5
3E
102
{ACAD_REACTORS
330
3D
102
}
330
3D
100
DictionaryVariables
280
     0
  1
1
  0
DICTIONARYVAR
  5
E3F
102
{ACAD_REACTORS
330
3D
102
}
330
3D
100
DictionaryVariables
280
     0
  1
0
  0
DICTIONARYVAR
  5
DD6
102
{ACAD_REACTORS
330
3D
102
}
330
3D
100
DictionaryVariables
280
     0
  1

  0
DICTIONARYVAR
  5
E3E
102
{ACAD_REACTORS
330
3D
102
}
330
3D
100
DictionaryVariables
280
     0
  1
127
  0
DICTIONARYVAR
  5
E40
102
{ACAD_REACTORS
330
3D
102
}
330
3D
100
DictionaryVariables
280
     0
  1
2
  0
XRECORD
  5
D26
102
{ACAD_REACTORS
330
D25
102
}
330
D25
100
AcDbXrecord
280
     1
330
D64
330
D75
330
DCC
330
D47
  0
DICTIONARY
  5
E45
330
1E
100
AcDbDictionary
280
     1
281
     1
  3
ACAD_XREC_ROUNDTRIP
360
E46
  0
DICTIONARY
  5
E49
330
26
100
AcDbDictionary
280
     1
281
     1
  3
ACAD_XREC_ROUNDTRIP
360
E4A
  0
DICTIONARY
  5
E47
330
22
100
AcDbDictionary
280
     1
281
     1
  3
ACAD_XREC_ROUNDTRIP
360
E48
  0
DICTIONARY
  5
DE1
330
DE0
100
AcDbDictionary
280
     1
281
     1
  3
ACAD_XREC_ROUNDTRIP
360
E4D
  3
BUMPTILE
360
DE3
  3
DIFFUSETILE
360
DE2
  3
OPACITYTILE
360
DE6
  3
REFLECTIONTILE
360
DE5
  3
REFRACTIONTILE
360
DE7
  3
SPECULARTILE
360
DE4
  0
DICTIONARY
  5
DD9
330
DD8
100
AcDbDictionary
280
     1
281
     1
  3
ACAD_XREC_ROUNDTRIP
360
E4C
  3
BUMPTILE
360
DDB
  3
DIFFUSETILE
360
DDA
  3
OPACITYTILE
360
DDE
  3
REFLECTIONTILE
360
DDD
  3
REFRACTIONTILE
360
DDF
  3
SPECULARTILE
360
DDC
  0
DICTIONARY
  5
DE9
330
DE8
100
AcDbDictionary
280
     1
281
     1
  3
ACAD_XREC_ROUNDTRIP
360
E4E
  3
BUMPTILE
360
DEB
  3
DIFFUSETILE
360
DEA
  3
OPACITYTILE
360
DEE
  3
REFLECTIONTILE
360
DED
  3
REFRACTIONTILE
360
DEF
  3
SPECULARTILE
360
DEC
  0
DICTIONARY
  5
E41
330
BAB
100
AcDbDictionary
280
     1
281
     1
  3
ACAD_ROUNDTRIP_2008_TABLESTYLE_CELLSTYLEMAP
360
E42
  3
ACAD_XREC_ROUNDTRIP
360
E4B
  0
DICTIONARY
  5
E59
330
DF6
100
AcDbDictionary
280
     1
281
     1
  3
ACAD_XREC_ROUNDTRIP
360
E5A
  0
DICTIONARY
  5
E5D
330
DF8
100
AcDbDictionary
280
     1
281
     1
  3
ACAD_XREC_ROUNDTRIP
360
E5E
  0
DICTIONARY
  5
E5B
330
DF7
100
AcDbDictionary
280
     1
281
     1
  3
ACAD_XREC_ROUNDTRIP
360
E5C
  0
DICTIONARY
  5
E57
330
DF5
100
AcDbDictionary
280
     1
281
     1
  3
ACAD_XREC_ROUNDTRIP
360
E58
  0
DICTIONARY
  5
E65
330
DFC
100
AcDbDictionary
280
     1
281
     1
  3
ACAD_XREC_ROUNDTRIP
360
E66
  0
DICTIONARY
  5
E6D
330
E00
100
AcDbDictionary
280
     1
281
     1
  3
ACAD_XREC_ROUNDTRIP
360
E6E
  0
DICTIONARY
  5
E5F
330
DF9
100
AcDbDictionary
280
     1
281
     1
  3
ACAD_XREC_ROUNDTRIP
360
E60
  0
DICTIONARY
  5
E63
330
DFB
100
AcDbDictionary
280
     1
281
     1
  3
ACAD_XREC_ROUNDTRIP
360
E64
  0
DICTIONARY
  5
E73
330
E03
100
AcDbDictionary
280
     1
281
     1
  3
ACAD_XREC_ROUNDTRIP
360
E74
  0
DICTIONARY
  5
E6B
330
DFF
100
AcDbDictionary
280
     1
281
     1
  3
ACAD_XREC_ROUNDTRIP
360
E6C
  0
DICTIONARY
  5
E4F
330
DF1
100
AcDbDictionary
280
     1
281
     1
  3
ACAD_XREC_ROUNDTRIP
360
E50
  0
DICTIONARY
  5
E51
330
DF2
100
AcDbDictionary
280
     1
281
     1
  3
ACAD_XREC_ROUNDTRIP
360
E52
  0
DICTIONARY
  5
E53
330
DF3
100
AcDbDictionary
280
     1
281
     1
  3
ACAD_XREC_ROUNDTRIP
360
E54
  0
DICTIONARY
  5
E55
330
DF4
100
AcDbDictionary
280
     1
281
     1
  3
ACAD_XREC_ROUNDTRIP
360
E56
  0
DICTIONARY
  5
E6F
330
E01
100
AcDbDictionary
280
     1
281
     1
  3
ACAD_XREC_ROUNDTRIP
360
E70
  0
DICTIONARY
  5
E69
330
DFE
100
AcDbDictionary
280
     1
281
     1
  3
ACAD_XREC_ROUNDTRIP
360
E6A
  0
DICTIONARY
  5
E71
330
E02
100
AcDbDictionary
280
     1
281
     1
  3
ACAD_XREC_ROUNDTRIP
360
E72
  0
DICTIONARY
  5
E61
330
DFA
100
AcDbDictionary
280
     1
281
     1
  3
ACAD_XREC_ROUNDTRIP
360
E62
  0
DICTIONARY
  5
E67
330
DFD
100
AcDbDictionary
280
     1
281
     1
  3
ACAD_XREC_ROUNDTRIP
360
E68
  0
XRECORD
  5
E46
102
{ACAD_REACTORS
330
E45
102
}
330
E45
100
AcDbXrecord
280
     1
102
SHADEPLOT
 70
     0
102
SHADEPLOTRESLEVEL
 70
     2
102
SHADEPLOTCUSTOMDPI
 70
   300
  0
XRECORD
  5
E4A
102
{ACAD_REACTORS
330
E49
102
}
330
E49
100
AcDbXrecord
280
     1
102
SHADEPLOT
 70
     0
102
SHADEPLOTRESLEVEL
 70
     2
102
SHADEPLOTCUSTOMDPI
 70
   300
  0
XRECORD
  5
E48
102
{ACAD_REACTORS
330
E47
102
}
330
E47
100
AcDbXrecord
280
     1
102
SHADEPLOT
 70
     0
102
SHADEPLOTRESLEVEL
 70
     2
102
SHADEPLOTCUSTOMDPI
 70
   300
  0
XRECORD
  5
E4D
102
{ACAD_REACTORS
330
DE1
102
}
330
DE1
100
AcDbXrecord
280
     1
102
MATERIAL
148
0.0
149
0.0
149
0.0
 93
        0
 94
      127
282
     0
 72
     0
 77
     0
171
     0
175
     0
179
     0
273
     0
  0
XRECORD
  5
DE3
102
{ACAD_REACTORS
330
DE1
102
}
330
DE1
100
AcDbXrecord
280
     1
270
     1
271
     1
  0
XRECORD
  5
DE2
102
{ACAD_REACTORS
330
DE1
102
}
330
DE1
100
AcDbXrecord
280
     1
270
     1
271
     1
  0
XRECORD
  5
DE6
102
{ACAD_REACTORS
330
DE1
102
}
330
DE1
100
AcDbXrecord
280
     1
270
     1
271
     1
  0
XRECORD
  5
DE5
102
{ACAD_REACTORS
330
DE1
102
}
330
DE1
100
AcDbXrecord
280
     1
270
     1
271
     1
  0
XRECORD
  5
DE7
102
{ACAD_REACTORS
330
DE1
102
}
330
DE1
100
AcDbXrecord
280
     1
270
     1
271
     1
  0
XRECORD
  5
DE4
102
{ACAD_REACTORS
330
DE1
102
}
330
DE1
100
AcDbXrecord
280
     1
270
     1
271
     1
  0
XRECORD
  5
E4C
102
{ACAD_REACTORS
330
DD9
102
}
330
DD9
100
AcDbXrecord
280
     1
102
MATERIAL
148
0.0
149
0.0
149
0.0
 93
        0
 94
      127
282
     0
 72
     0
 77
     0
171
     0
175
     0
179
     0
273
     0
  0
XRECORD
  5
DDB
102
{ACAD_REACTORS
330
DD9
102
}
330
DD9
100
AcDbXrecord
280
     1
270
     1
271
     1
  0
XRECORD
  5
DDA
102
{ACAD_REACTORS
330
DD9
102
}
330
DD9
100
AcDbXrecord
280
     1
270
     1
271
     1
  0
XRECORD
  5
DDE
102
{ACAD_REACTORS
330
DD9
102
}
330
DD9
100
AcDbXrecord
280
     1
270
     1
271
     1
  0
XRECORD
  5
DDD
102
{ACAD_REACTORS
330
DD9
102
}
330
DD9
100
AcDbXrecord
280
     1
270
     1
271
     1
  0
XRECORD
  5
DDF
102
{ACAD_REACTORS
330
DD9
102
}
330
DD9
100
AcDbXrecord
280
     1
270
     1
271
     1
  0
XRECORD
  5
DDC
102
{ACAD_REACTORS
330
DD9
102
}
330
DD9
100
AcDbXrecord
280
     1
270
     1
271
     1
  0
XRECORD
  5
E4E
102
{ACAD_REACTORS
330
DE9
102
}
330
DE9
100
AcDbXrecord
280
     1
102
MATERIAL
148
0.0
149
0.0
149
0.0
 93
        0
 94
      127
282
     0
 72
     0
 77
     0
171
     0
175
     0
179
     0
273
     0
  0
XRECORD
  5
DEB
102
{ACAD_REACTORS
330
DE9
102
}
330
DE9
100
AcDbXrecord
280
     1
270
     1
271
     1
  0
XRECORD
  5
DEA
102
{ACAD_REACTORS
330
DE9
102
}
330
DE9
100
AcDbXrecord
280
     1
270
     1
271
     1
  0
XRECORD
  5
DEE
102
{ACAD_REACTORS
330
DE9
102
}
330
DE9
100
AcDbXrecord
280
     1
270
     1
271
     1
  0
XRECORD
  5
DED
102
{ACAD_REACTORS
330
DE9
102
}
330
DE9
100
AcDbXrecord
280
     1
270
     1
271
     1
  0
XRECORD
  5
DEF
102
{ACAD_REACTORS
330
DE9
102
}
330
DE9
100
AcDbXrecord
280
     1
270
     1
271
     1
  0
XRECORD
  5
DEC
102
{ACAD_REACTORS
330
DE9
102
}
330
DE9
100
AcDbXrecord
280
     1
270
     1
271
     1
  0
CELLSTYLEMAP
  5
E42
102
{ACAD_REACTORS
330
E41
102
}
330
E41
100
AcDbCellStyleMap
 90
        3
300
CELLSTYLE
  1
TABLEFORMAT_BEGIN
 90
        5
170
     1
 91
        0
 92
    32768
 62
   257
 93
        1
300
CONTENTFORMAT
  1
CONTENTFORMAT_BEGIN
 90
        0
 91
        0
 92
        4
 93
        0
300

 40
0.0
140
1.0
 94
        5
 62
     0
340
11
144
6.0
309
CONTENTFORMAT_END
171
     1
301
MARGIN
  1
CELLMARGIN_BEGIN
 40
1.5
 40
1.5
 40
1.5
 40
1.5
 40
0.18
 40
0.18
309
CELLMARGIN_END
 94
        6
 95
        1
302
GRIDFORMAT
  1
GRIDFORMAT_BEGIN
 90
        0
 91
        1
 62
     0
 92
       -2
340
0
 93
        0
 40
0.045
309
GRIDFORMAT_END
 95
        2
302
GRIDFORMAT
  1
GRIDFORMAT_BEGIN
 90
        0
 91
        1
 62
     0
 92
       -2
340
0
 93
        0
 40
0.045
309
GRIDFORMAT_END
 95
        4
302
GRIDFORMAT
  1
GRIDFORMAT_BEGIN
 90
        0
 91
        1
 62
     0
 92
       -2
340
0
 93
        0
 40
0.045
309
GRIDFORMAT_END
 95
        8
302
GRIDFORMAT
  1
GRIDFORMAT_BEGIN
 90
        0
 91
        1
 62
     0
 92
       -2
340
0
 93
        0
 40
0.045
309
GRIDFORMAT_END
 95
       16
302
GRIDFORMAT
  1
GRIDFORMAT_BEGIN
 90
        0
 91
        1
 62
     0
 92
       -2
340
0
 93
        0
 40
0.045
309
GRIDFORMAT_END
 95
       32
302
GRIDFORMAT
  1
GRIDFORMAT_BEGIN
 90
        0
 91
        1
 62
     0
 92
       -2
340
0
 93
        0
 40
0.045
309
GRIDFORMAT_END
309
TABLEFORMAT_END
  1
CELLSTYLE_BEGIN
 90
        1
 91
        1
300
_TITLE
309
CELLSTYLE_END
300
CELLSTYLE
  1
TABLEFORMAT_BEGIN
 90
        5
170
     1
 91
        0
 92
        0
 62
   257
 93
        1
300
CONTENTFORMAT
  1
CONTENTFORMAT_BEGIN
 90
        0
 91
        0
 92
        4
 93
        0
300

 40
0.0
140
1.0
 94
        5
 62
     0
340
11
144
4.5
309
CONTENTFORMAT_END
171
     1
301
MARGIN
  1
CELLMARGIN_BEGIN
 40
1.5
 40
1.5
 40
1.5
 40
1.5
 40
0.18
 40
0.18
309
CELLMARGIN_END
 94
        6
 95
        1
302
GRIDFORMAT
  1
GRIDFORMAT_BEGIN
 90
        0
 91
        1
 62
     0
 92
       -2
340
0
 93
        0
 40
0.045
309
GRIDFORMAT_END
 95
        2
302
GRIDFORMAT
  1
GRIDFORMAT_BEGIN
 90
        0
 91
        1
 62
     0
 92
       -2
340
0
 93
        0
 40
0.045
309
GRIDFORMAT_END
 95
        4
302
GRIDFORMAT
  1
GRIDFORMAT_BEGIN
 90
        0
 91
        1
 62
     0
 92
       -2
340
0
 93
        0
 40
0.045
309
GRIDFORMAT_END
 95
        8
302
GRIDFORMAT
  1
GRIDFORMAT_BEGIN
 90
        0
 91
        1
 62
     0
 92
       -2
340
0
 93
        0
 40
0.045
309
GRIDFORMAT_END
 95
       16
302
GRIDFORMAT
  1
GRIDFORMAT_BEGIN
 90
        0
 91
        1
 62
     0
 92
       -2
340
0
 93
        0
 40
0.045
309
GRIDFORMAT_END
 95
       32
302
GRIDFORMAT
  1
GRIDFORMAT_BEGIN
 90
        0
 91
        1
 62
     0
 92
       -2
340
0
 93
        0
 40
0.045
309
GRIDFORMAT_END
309
TABLEFORMAT_END
  1
CELLSTYLE_BEGIN
 90
        2
 91
        1
300
_HEADER
309
CELLSTYLE_END
300
CELLSTYLE
  1
TABLEFORMAT_BEGIN
 90
        5
170
     1
 91
        0
 92
        0
 62
   257
 93
        1
300
CONTENTFORMAT
  1
CONTENTFORMAT_BEGIN
 90
        0
 91
        0
 92
        4
 93
        0
300

 40
0.0
140
1.0
 94
        2
 62
     0
340
11
144
4.5
309
CONTENTFORMAT_END
171
     1
301
MARGIN
  1
CELLMARGIN_BEGIN
 40
1.5
 40
1.5
 40
1.5
 40
1.5
 40
0.18
 40
0.18
309
CELLMARGIN_END
 94
        6
 95
        1
302
GRIDFORMAT
  1
GRIDFORMAT_BEGIN
 90
        0
 91
        1
 62
     0
 92
       -2
340
0
 93
        0
 40
0.045
309
GRIDFORMAT_END
 95
        2
302
GRIDFORMAT
  1
GRIDFORMAT_BEGIN
 90
        0
 91
        1
 62
     0
 92
       -2
340
0
 93
        0
 40
0.045
309
GRIDFORMAT_END
 95
        4
302
GRIDFORMAT
  1
GRIDFORMAT_BEGIN
 90
        0
 91
        1
 62
     0
 92
       -2
340
0
 93
        0
 40
0.045
309
GRIDFORMAT_END
 95
        8
302
GRIDFORMAT
  1
GRIDFORMAT_BEGIN
 90
        0
 91
        1
 62
     0
 92
       -2
340
0
 93
        0
 40
0.045
309
GRIDFORMAT_END
 95
       16
302
GRIDFORMAT
  1
GRIDFORMAT_BEGIN
 90
        0
 91
        1
 62
     0
 92
       -2
340
0
 93
        0
 40
0.045
309
GRIDFORMAT_END
 95
       32
302
GRIDFORMAT
  1
GRIDFORMAT_BEGIN
 90
        0
 91
        1
 62
     0
 92
       -2
340
0
 93
        0
 40
0.045
309
GRIDFORMAT_END
309
TABLEFORMAT_END
  1
CELLSTYLE_BEGIN
 90
        3
 91
        2
300
_DATA
309
CELLSTYLE_END
  0
XRECORD
  5
E4B
102
{ACAD_REACTORS
330
E41
102
}
330
E41
100
AcDbXrecord
280
     1
102
ACAD_ROUNDTRIP_PRE2007_TABLESTYLE
 90
        4
 91
        0
  1

 92
        4
 93
        0
  2

 94
        4
 95
        0
  3

  0
XRECORD
  5
E5A
102
{ACAD_REACTORS
330
E59
102
}
330
E59
100
AcDbXrecord
280
     1
102
RTVSPropertyOp0
 70
     1
102
RTVSPropertyOp1
 70
     1
102
RTVSPropertyOp2
 70
     1
102
RTVSPropertyOp3
 70
     1
102
RTVSPropertyOp4
 70
     1
102
RTVSPropertyOp5
 70
     1
102
RTVSPropertyOp6
 70
     1
102
RTVSPropertyOp7
 70
     1
102
RTVSPropertyOp8
 70
     1
102
RTVSPropertyOp9
 70
     1
102
RTVSPropertyOp10
 70
     1
102
RTVSPropertyOp11
 70
     1
102
RTVSPropertyOp12
 70
     1
102
RTVSPropertyOp13
 70
     1
102
RTVSPropertyOp14
 70
     1
102
RTVSPropertyOp15
 70
     1
102
RTVSPropertyOp16
 70
     1
102
RTVSPropertyOp17
 70
     1
102
RTVSPropertyOp18
 70
     1
102
RTVSPropertyOp19
 70
     1
102
RTVSPropertyOp20
 70
     1
102
RTVSPropertyOp21
 70
     1
102
RTVSPropertyOp22
 70
     1
102
RTVSPropertyOp23
 70
     1
102
RTVSPropertyOp24
 70
     1
102
RTVSPropertyOp25
 70
     1
102
RTVSPropertyOp26
 70
     1
102
RTVSPropertyOp27
 70
     1
  0
XRECORD
  5
E5E
102
{ACAD_REACTORS
330
E5D
102
}
330
E5D
100
AcDbXrecord
280
     1
102
RTVSPropertyOp0
 70
     1
102
RTVSPropertyOp1
 70
     1
102
RTVSPropertyOp2
 70
     1
102
RTVSPropertyOp3
 70
     1
102
RTVSPropertyOp4
 70
     1
102
RTVSPropertyOp5
 70
     1
102
RTVSPropertyOp6
 70
     1
102
RTVSPropertyOp7
 70
     1
102
RTVSPropertyOp8
 70
     1
102
RTVSPropertyOp9
 70
     1
102
RTVSPropertyOp10
 70
     1
102
RTVSPropertyOp11
 70
     1
102
RTVSPropertyOp12
 70
     1
102
RTVSPropertyOp13
 70
     1
102
RTVSPropertyOp14
 70
     1
102
RTVSPropertyOp15
 70
     1
102
RTVSPropertyOp16
 70
     1
102
RTVSPropertyOp17
 70
     1
102
RTVSPropertyOp18
 70
     1
102
RTVSPropertyOp19
 70
     1
102
RTVSPropertyOp20
 70
     1
102
RTVSPropertyOp21
 70
     1
102
RTVSPropertyOp22
 70
     1
102
RTVSPropertyOp23
 70
     1
102
RTVSPropertyOp24
 70
     1
102
RTVSPropertyOp25
 70
     1
102
RTVSPropertyOp26
 70
     1
102
RTVSPropertyOp27
 70
     1
  0
XRECORD
  5
E5C
102
{ACAD_REACTORS
330
E5B
102
}
330
E5B
100
AcDbXrecord
280
     1
102
RTVSPropertyOp0
 70
     1
102
RTVSPropertyOp1
 70
     1
102
RTVSPropertyOp2
 70
     1
102
RTVSPropertyOp3
 70
     1
102
RTVSPropertyOp4
 70
     1
102
RTVSPropertyOp5
 70
     1
102
RTVSPropertyOp6
 70
     1
102
RTVSPropertyOp7
 70
     1
102
RTVSPropertyOp8
 70
     1
102
RTVSPropertyOp9
 70
     1
102
RTVSPropertyOp10
 70
     1
102
RTVSPropertyOp11
 70
     1
102
RTVSPropertyOp12
 70
     1
102
RTVSPropertyOp13
 70
     1
102
RTVSPropertyOp14
 70
     1
102
RTVSPropertyOp15
 70
     1
102
RTVSPropertyOp16
 70
     1
102
RTVSPropertyOp17
 70
     1
102
RTVSPropertyOp18
 70
     1
102
RTVSPropertyOp19
 70
     1
102
RTVSPropertyOp20
 70
     1
102
RTVSPropertyOp21
 70
     1
102
RTVSPropertyOp22
 70
     1
102
RTVSPropertyOp23
 70
     1
102
RTVSPropertyOp24
 70
     1
102
RTVSPropertyOp25
 70
     1
102
RTVSPropertyOp26
 70
     1
102
RTVSPropertyOp27
 70
     1
  0
XRECORD
  5
E58
102
{ACAD_REACTORS
330
E57
102
}
330
E57
100
AcDbXrecord
280
     1
102
RTVSPropertyOp0
 70
     1
102
RTVSPropertyOp1
 70
     1
102
RTVSPropertyOp2
 70
     1
102
RTVSPropertyOp3
 70
     1
102
RTVSPropertyOp4
 70
     1
102
RTVSPropertyOp5
 70
     1
102
RTVSPropertyOp6
 70
     1
102
RTVSPropertyOp7
 70
     1
102
RTVSPropertyOp8
 70
     1
102
RTVSPropertyOp9
 70
     1
102
RTVSPropertyOp10
 70
     1
102
RTVSPropertyOp11
 70
     1
102
RTVSPropertyOp12
 70
     1
102
RTVSPropertyOp13
 70
     1
102
RTVSPropertyOp14
 70
     1
102
RTVSPropertyOp15
 70
     1
102
RTVSPropertyOp16
 70
     1
102
RTVSPropertyOp17
 70
     1
102
RTVSPropertyOp18
 70
     1
102
RTVSPropertyOp19
 70
     1
102
RTVSPropertyOp20
 70
     1
102
RTVSPropertyOp21
 70
     1
102
RTVSPropertyOp22
 70
     1
102
RTVSPropertyOp23
 70
     1
102
RTVSPropertyOp24
 70
     1
102
RTVSPropertyOp25
 70
     1
102
RTVSPropertyOp26
 70
     1
102
RTVSPropertyOp27
 70
     1
  0
XRECORD
  5
E66
102
{ACAD_REACTORS
330
E65
102
}
330
E65
100
AcDbXrecord
280
     1
102
RTVSPropertyOp0
 70
     1
102
RTVSPropertyOp1
 70
     1
102
RTVSPropertyOp2
 70
     1
102
RTVSPropertyOp3
 70
     1
102
RTVSPropertyOp4
 70
     1
102
RTVSPropertyOp5
 70
     1
102
RTVSPropertyOp6
 70
     1
102
RTVSPropertyOp7
 70
     1
102
RTVSPropertyOp8
 70
     1
102
RTVSPropertyOp9
 70
     1
102
RTVSPropertyOp10
 70
     1
102
RTVSPropertyOp11
 70
     1
102
RTVSPropertyOp12
 70
     1
102
RTVSPropertyOp13
 70
     1
102
RTVSPropertyOp14
 70
     1
102
RTVSPropertyOp15
 70
     1
102
RTVSPropertyOp16
 70
     1
102
RTVSPropertyOp17
 70
     1
102
RTVSPropertyOp18
 70
     1
102
RTVSPropertyOp19
 70
     1
102
RTVSPropertyOp20
 70
     1
102
RTVSPropertyOp21
 70
     1
102
RTVSPropertyOp22
 70
     1
102
RTVSPropertyOp23
 70
     1
102
RTVSPropertyOp24
 70
     1
102
RTVSPropertyOp25
 70
     1
102
RTVSPropertyOp26
 70
     1
102
RTVSPropertyOp27
 70
     1
  0
XRECORD
  5
E6E
102
{ACAD_REACTORS
330
E6D
102
}
330
E6D
100
AcDbXrecord
280
     1
102
RTVSPropertyOp0
 70
     1
102
RTVSPropertyOp1
 70
     1
102
RTVSPropertyOp2
 70
     1
102
RTVSPropertyOp3
 70
     1
102
RTVSPropertyOp4
 70
     1
102
RTVSPropertyOp5
 70
     1
102
RTVSPropertyOp6
 70
     1
102
RTVSPropertyOp7
 70
     1
102
RTVSPropertyOp8
 70
     1
102
RTVSPropertyOp9
 70
     1
102
RTVSPropertyOp10
 70
     1
102
RTVSPropertyOp11
 70
     1
102
RTVSPropertyOp12
 70
     1
102
RTVSPropertyOp13
 70
     1
102
RTVSPropertyOp14
 70
     1
102
RTVSPropertyOp15
 70
     1
102
RTVSPropertyOp16
 70
     1
102
RTVSPropertyOp17
 70
     1
102
RTVSPropertyOp18
 70
     1
102
RTVSPropertyOp19
 70
     1
102
RTVSPropertyOp20
 70
     1
102
RTVSPropertyOp21
 70
     1
102
RTVSPropertyOp22
 70
     1
102
RTVSPropertyOp23
 70
     1
102
RTVSPropertyOp24
 70
     1
102
RTVSPropertyOp25
 70
     1
102
RTVSPropertyOp26
 70
     1
102
RTVSPropertyOp27
 70
     1
  0
XRECORD
  5
E60
102
{ACAD_REACTORS
330
E5F
102
}
330
E5F
100
AcDbXrecord
280
     1
102
RTVSPropertyOp0
 70
     1
102
RTVSPropertyOp1
 70
     1
102
RTVSPropertyOp2
 70
     1
102
RTVSPropertyOp3
 70
     1
102
RTVSPropertyOp4
 70
     1
102
RTVSPropertyOp5
 70
     1
102
RTVSPropertyOp6
 70
     1
102
RTVSPropertyOp7
 70
     1
102
RTVSPropertyOp8
 70
     1
102
RTVSPropertyOp9
 70
     1
102
RTVSPropertyOp10
 70
     1
102
RTVSPropertyOp11
 70
     1
102
RTVSPropertyOp12
 70
     1
102
RTVSPropertyOp13
 70
     1
102
RTVSPropertyOp14
 70
     1
102
RTVSPropertyOp15
 70
     1
102
RTVSPropertyOp16
 70
     1
102
RTVSPropertyOp17
 70
     1
102
RTVSPropertyOp18
 70
     1
102
RTVSPropertyOp19
 70
     1
102
RTVSPropertyOp20
 70
     1
102
RTVSPropertyOp21
 70
     1
102
RTVSPropertyOp22
 70
     1
102
RTVSPropertyOp23
 70
     1
102
RTVSPropertyOp24
 70
     1
102
RTVSPropertyOp25
 70
     1
102
RTVSPropertyOp26
 70
     1
102
RTVSPropertyOp27
 70
     1
  0
XRECORD
  5
E64
102
{ACAD_REACTORS
330
E63
102
}
330
E63
100
AcDbXrecord
280
     1
102
RTVSPropertyOp0
 70
     1
102
RTVSPropertyOp1
 70
     1
102
RTVSPropertyOp2
 70
     1
102
RTVSPropertyOp3
 70
     1
102
RTVSPropertyOp4
 70
     1
102
RTVSPropertyOp5
 70
     1
102
RTVSPropertyOp6
 70
     1
102
RTVSPropertyOp7
 70
     1
102
RTVSPropertyOp8
 70
     1
102
RTVSPropertyOp9
 70
     1
102
RTVSPropertyOp10
 70
     1
102
RTVSPropertyOp11
 70
     1
102
RTVSPropertyOp12
 70
     1
102
RTVSPropertyOp13
 70
     1
102
RTVSPropertyOp14
 70
     1
102
RTVSPropertyOp15
 70
     1
102
RTVSPropertyOp16
 70
     1
102
RTVSPropertyOp17
 70
     1
102
RTVSPropertyOp18
 70
     1
102
RTVSPropertyOp19
 70
     1
102
RTVSPropertyOp20
 70
     1
102
RTVSPropertyOp21
 70
     1
102
RTVSPropertyOp22
 70
     1
102
RTVSPropertyOp23
 70
     1
102
RTVSPropertyOp24
 70
     1
102
RTVSPropertyOp25
 70
     1
102
RTVSPropertyOp26
 70
     1
102
RTVSPropertyOp27
 70
     1
  0
XRECORD
  5
E74
102
{ACAD_REACTORS
330
E73
102
}
330
E73
100
AcDbXrecord
280
     1
102
RTVSPropertyOp0
 70
     0
102
RTVSPropertyOp1
 70
     0
102
RTVSPropertyOp2
 70
     0
102
RTVSPropertyOp3
 70
     0
102
RTVSPropertyOp4
 70
     0
102
RTVSPropertyOp5
 70
     0
102
RTVSPropertyOp6
 70
     0
102
RTVSPropertyOp7
 70
     0
102
RTVSPropertyOp8
 70
     0
102
RTVSPropertyOp9
 70
     0
102
RTVSPropertyOp10
 70
     0
102
RTVSPropertyOp11
 70
     0
102
RTVSPropertyOp12
 70
     0
102
RTVSPropertyOp13
 70
     0
102
RTVSPropertyOp14
 70
     2
102
RTVSPropertyOp15
 70
     0
102
RTVSPropertyOp16
 70
     0
102
RTVSPropertyOp17
 70
     0
102
RTVSPropertyOp18
 70
     0
102
RTVSPropertyOp19
 70
     0
102
RTVSPropertyOp20
 70
     0
102
RTVSPropertyOp21
 70
     0
102
RTVSPropertyOp22
 70
     0
102
RTVSPropertyOp23
 70
     0
102
RTVSPropertyOp24
 70
     0
102
RTVSPropertyOp25
 70
     0
102
RTVSPropertyOp26
 70
     0
102
RTVSPropertyOp27
 70
     0
  0
XRECORD
  5
E6C
102
{ACAD_REACTORS
330
E6B
102
}
330
E6B
100
AcDbXrecord
280
     1
102
RTVSPropertyOp0
 70
     1
102
RTVSPropertyOp1
 70
     1
102
RTVSPropertyOp2
 70
     1
102
RTVSPropertyOp3
 70
     1
102
RTVSPropertyOp4
 70
     1
102
RTVSPropertyOp5
 70
     1
102
RTVSPropertyOp6
 70
     1
102
RTVSPropertyOp7
 70
     1
102
RTVSPropertyOp8
 70
     1
102
RTVSPropertyOp9
 70
     1
102
RTVSPropertyOp10
 70
     1
102
RTVSPropertyOp11
 70
     1
102
RTVSPropertyOp12
 70
     1
102
RTVSPropertyOp13
 70
     1
102
RTVSPropertyOp14
 70
     1
102
RTVSPropertyOp15
 70
     1
102
RTVSPropertyOp16
 70
     1
102
RTVSPropertyOp17
 70
     1
102
RTVSPropertyOp18
 70
     1
102
RTVSPropertyOp19
 70
     1
102
RTVSPropertyOp20
 70
     1
102
RTVSPropertyOp21
 70
     1
102
RTVSPropertyOp22
 70
     1
102
RTVSPropertyOp23
 70
     1
102
RTVSPropertyOp24
 70
     1
102
RTVSPropertyOp25
 70
     1
102
RTVSPropertyOp26
 70
     1
102
RTVSPropertyOp27
 70
     1
  0
XRECORD
  5
E50
102
{ACAD_REACTORS
330
E4F
102
}
330
E4F
100
AcDbXrecord
280
     1
102
RTVSPropertyOp0
 70
     1
102
RTVSPropertyOp1
 70
     1
102
RTVSPropertyOp2
 70
     1
102
RTVSPropertyOp3
 70
     1
102
RTVSPropertyOp4
 70
     1
102
RTVSPropertyOp5
 70
     1
102
RTVSPropertyOp6
 70
     1
102
RTVSPropertyOp7
 70
     1
102
RTVSPropertyOp8
 70
     1
102
RTVSPropertyOp9
 70
     1
102
RTVSPropertyOp10
 70
     1
102
RTVSPropertyOp11
 70
     1
102
RTVSPropertyOp12
 70
     1
102
RTVSPropertyOp13
 70
     1
102
RTVSPropertyOp14
 70
     1
102
RTVSPropertyOp15
 70
     1
102
RTVSPropertyOp16
 70
     1
102
RTVSPropertyOp17
 70
     1
102
RTVSPropertyOp18
 70
     1
102
RTVSPropertyOp19
 70
     1
102
RTVSPropertyOp20
 70
     1
102
RTVSPropertyOp21
 70
     1
102
RTVSPropertyOp22
 70
     1
102
RTVSPropertyOp23
 70
     1
102
RTVSPropertyOp24
 70
     1
102
RTVSPropertyOp25
 70
     1
102
RTVSPropertyOp26
 70
     1
102
RTVSPropertyOp27
 70
     1
  0
XRECORD
  5
E52
102
{ACAD_REACTORS
330
E51
102
}
330
E51
100
AcDbXrecord
280
     1
102
RTVSPropertyOp0
 70
     1
102
RTVSPropertyOp1
 70
     1
102
RTVSPropertyOp2
 70
     1
102
RTVSPropertyOp3
 70
     1
102
RTVSPropertyOp4
 70
     1
102
RTVSPropertyOp5
 70
     1
102
RTVSPropertyOp6
 70
     1
102
RTVSPropertyOp7
 70
     1
102
RTVSPropertyOp8
 70
     1
102
RTVSPropertyOp9
 70
     1
102
RTVSPropertyOp10
 70
     1
102
RTVSPropertyOp11
 70
     1
102
RTVSPropertyOp12
 70
     1
102
RTVSPropertyOp13
 70
     1
102
RTVSPropertyOp14
 70
     1
102
RTVSPropertyOp15
 70
     1
102
RTVSPropertyOp16
 70
     1
102
RTVSPropertyOp17
 70
     1
102
RTVSPropertyOp18
 70
     1
102
RTVSPropertyOp19
 70
     1
102
RTVSPropertyOp20
 70
     1
102
RTVSPropertyOp21
 70
     1
102
RTVSPropertyOp22
 70
     1
102
RTVSPropertyOp23
 70
     1
102
RTVSPropertyOp24
 70
     1
102
RTVSPropertyOp25
 70
     1
102
RTVSPropertyOp26
 70
     1
102
RTVSPropertyOp27
 70
     1
  0
XRECORD
  5
E54
102
{ACAD_REACTORS
330
E53
102
}
330
E53
100
AcDbXrecord
280
     1
102
RTVSPropertyOp0
 70
     1
102
RTVSPropertyOp1
 70
     1
102
RTVSPropertyOp2
 70
     1
102
RTVSPropertyOp3
 70
     1
102
RTVSPropertyOp4
 70
     1
102
RTVSPropertyOp5
 70
     1
102
RTVSPropertyOp6
 70
     1
102
RTVSPropertyOp7
 70
     1
102
RTVSPropertyOp8
 70
     1
102
RTVSPropertyOp9
 70
     1
102
RTVSPropertyOp10
 70
     1
102
RTVSPropertyOp11
 70
     1
102
RTVSPropertyOp12
 70
     1
102
RTVSPropertyOp13
 70
     1
102
RTVSPropertyOp14
 70
     1
102
RTVSPropertyOp15
 70
     1
102
RTVSPropertyOp16
 70
     1
102
RTVSPropertyOp17
 70
     1
102
RTVSPropertyOp18
 70
     1
102
RTVSPropertyOp19
 70
     1
102
RTVSPropertyOp20
 70
     1
102
RTVSPropertyOp21
 70
     1
102
RTVSPropertyOp22
 70
     1
102
RTVSPropertyOp23
 70
     1
102
RTVSPropertyOp24
 70
     1
102
RTVSPropertyOp25
 70
     1
102
RTVSPropertyOp26
 70
     1
102
RTVSPropertyOp27
 70
     1
  0
XRECORD
  5
E56
102
{ACAD_REACTORS
330
E55
102
}
330
E55
100
AcDbXrecord
280
     1
102
RTVSPropertyOp0
 70
     1
102
RTVSPropertyOp1
 70
     1
102
RTVSPropertyOp2
 70
     1
102
RTVSPropertyOp3
 70
     1
102
RTVSPropertyOp4
 70
     1
102
RTVSPropertyOp5
 70
     1
102
RTVSPropertyOp6
 70
     1
102
RTVSPropertyOp7
 70
     1
102
RTVSPropertyOp8
 70
     1
102
RTVSPropertyOp9
 70
     1
102
RTVSPropertyOp10
 70
     1
102
RTVSPropertyOp11
 70
     1
102
RTVSPropertyOp12
 70
     1
102
RTVSPropertyOp13
 70
     1
102
RTVSPropertyOp14
 70
     1
102
RTVSPropertyOp15
 70
     1
102
RTVSPropertyOp16
 70
     1
102
RTVSPropertyOp17
 70
     1
102
RTVSPropertyOp18
 70
     1
102
RTVSPropertyOp19
 70
     1
102
RTVSPropertyOp20
 70
     1
102
RTVSPropertyOp21
 70
     1
102
RTVSPropertyOp22
 70
     1
102
RTVSPropertyOp23
 70
     1
102
RTVSPropertyOp24
 70
     1
102
RTVSPropertyOp25
 70
     1
102
RTVSPropertyOp26
 70
     1
102
RTVSPropertyOp27
 70
     1
  0
XRECORD
  5
E70
102
{ACAD_REACTORS
330
E6F
102
}
330
E6F
100
AcDbXrecord
280
     1
102
RTVSPropertyOp0
 70
     0
102
RTVSPropertyOp1
 70
     0
102
RTVSPropertyOp2
 70
     0
102
RTVSPropertyOp3
 70
     0
102
RTVSPropertyOp4
 70
     0
102
RTVSPropertyOp5
 70
     0
102
RTVSPropertyOp6
 70
     0
102
RTVSPropertyOp7
 70
     0
102
RTVSPropertyOp8
 70
     0
102
RTVSPropertyOp9
 70
     0
102
RTVSPropertyOp10
 70
     0
102
RTVSPropertyOp11
 70
     0
102
RTVSPropertyOp12
 70
     0
102
RTVSPropertyOp13
 70
     0
102
RTVSPropertyOp14
 70
     2
102
RTVSPropertyOp15
 70
     0
102
RTVSPropertyOp16
 70
     0
102
RTVSPropertyOp17
 70
     0
102
RTVSPropertyOp18
 70
     0
102
RTVSPropertyOp19
 70
     0
102
RTVSPropertyOp20
 70
     0
102
RTVSPropertyOp21
 70
     0
102
RTVSPropertyOp22
 70
     0
102
RTVSPropertyOp23
 70
     0
102
RTVSPropertyOp24
 70
     0
102
RTVSPropertyOp25
 70
     0
102
RTVSPropertyOp26
 70
     0
102
RTVSPropertyOp27
 70
     0
  0
XRECORD
  5
E6A
102
{ACAD_REACTORS
330
E69
102
}
330
E69
100
AcDbXrecord
280
     1
102
RTVSPropertyOp0
 70
     1
102
RTVSPropertyOp1
 70
     1
102
RTVSPropertyOp2
 70
     1
102
RTVSPropertyOp3
 70
     1
102
RTVSPropertyOp4
 70
     1
102
RTVSPropertyOp5
 70
     1
102
RTVSPropertyOp6
 70
     1
102
RTVSPropertyOp7
 70
     1
102
RTVSPropertyOp8
 70
     1
102
RTVSPropertyOp9
 70
     1
102
RTVSPropertyOp10
 70
     1
102
RTVSPropertyOp11
 70
     1
102
RTVSPropertyOp12
 70
     1
102
RTVSPropertyOp13
 70
     1
102
RTVSPropertyOp14
 70
     1
102
RTVSPropertyOp15
 70
     1
102
RTVSPropertyOp16
 70
     1
102
RTVSPropertyOp17
 70
     1
102
RTVSPropertyOp18
 70
     1
102
RTVSPropertyOp19
 70
     1
102
RTVSPropertyOp20
 70
     1
102
RTVSPropertyOp21
 70
     1
102
RTVSPropertyOp22
 70
     1
102
RTVSPropertyOp23
 70
     1
102
RTVSPropertyOp24
 70
     1
102
RTVSPropertyOp25
 70
     1
102
RTVSPropertyOp26
 70
     1
102
RTVSPropertyOp27
 70
     1
  0
XRECORD
  5
E72
102
{ACAD_REACTORS
330
E71
102
}
330
E71
100
AcDbXrecord
280
     1
102
RTVSPropertyOp0
 70
     0
102
RTVSPropertyOp1
 70
     0
102
RTVSPropertyOp2
 70
     0
102
RTVSPropertyOp3
 70
     0
102
RTVSPropertyOp4
 70
     0
102
RTVSPropertyOp5
 70
     0
102
RTVSPropertyOp6
 70
     0
102
RTVSPropertyOp7
 70
     0
102
RTVSPropertyOp8
 70
     0
102
RTVSPropertyOp9
 70
     0
102
RTVSPropertyOp10
 70
     0
102
RTVSPropertyOp11
 70
     0
102
RTVSPropertyOp12
 70
     0
102
RTVSPropertyOp13
 70
     0
102
RTVSPropertyOp14
 70
     2
102
RTVSPropertyOp15
 70
     0
102
RTVSPropertyOp16
 70
     0
102
RTVSPropertyOp17
 70
     0
102
RTVSPropertyOp18
 70
     0
102
RTVSPropertyOp19
 70
     0
102
RTVSPropertyOp20
 70
     0
102
RTVSPropertyOp21
 70
     0
102
RTVSPropertyOp22
 70
     0
102
RTVSPropertyOp23
 70
     0
102
RTVSPropertyOp24
 70
     0
102
RTVSPropertyOp25
 70
     0
102
RTVSPropertyOp26
 70
     0
102
RTVSPropertyOp27
 70
     0
  0
XRECORD
  5
E62
102
{ACAD_REACTORS
330
E61
102
}
330
E61
100
AcDbXrecord
280
     1
102
RTVSPropertyOp0
 70
     1
102
RTVSPropertyOp1
 70
     1
102
RTVSPropertyOp2
 70
     1
102
RTVSPropertyOp3
 70
     1
102
RTVSPropertyOp4
 70
     1
102
RTVSPropertyOp5
 70
     1
102
RTVSPropertyOp6
 70
     1
102
RTVSPropertyOp7
 70
     1
102
RTVSPropertyOp8
 70
     1
102
RTVSPropertyOp9
 70
     1
102
RTVSPropertyOp10
 70
     1
102
RTVSPropertyOp11
 70
     1
102
RTVSPropertyOp12
 70
     1
102
RTVSPropertyOp13
 70
     1
102
RTVSPropertyOp14
 70
     1
102
RTVSPropertyOp15
 70
     1
102
RTVSPropertyOp16
 70
     1
102
RTVSPropertyOp17
 70
     1
102
RTVSPropertyOp18
 70
     1
102
RTVSPropertyOp19
 70
     1
102
RTVSPropertyOp20
 70
     1
102
RTVSPropertyOp21
 70
     1
102
RTVSPropertyOp22
 70
     1
102
RTVSPropertyOp23
 70
     1
102
RTVSPropertyOp24
 70
     1
102
RTVSPropertyOp25
 70
     1
102
RTVSPropertyOp26
 70
     1
102
RTVSPropertyOp27
 70
     1
  0
XRECORD
  5
E68
102
{ACAD_REACTORS
330
E67
102
}
330
E67
100
AcDbXrecord
280
     1
102
RTVSPropertyOp0
 70
     1
102
RTVSPropertyOp1
 70
     1
102
RTVSPropertyOp2
 70
     1
102
RTVSPropertyOp3
 70
     1
102
RTVSPropertyOp4
 70
     1
102
RTVSPropertyOp5
 70
     1
102
RTVSPropertyOp6
 70
     1
102
RTVSPropertyOp7
 70
     1
102
RTVSPropertyOp8
 70
     1
102
RTVSPropertyOp9
 70
     1
102
RTVSPropertyOp10
 70
     1
102
RTVSPropertyOp11
 70
     1
102
RTVSPropertyOp12
 70
     1
102
RTVSPropertyOp13
 70
     1
102
RTVSPropertyOp14
 70
     1
102
RTVSPropertyOp15
 70
     1
102
RTVSPropertyOp16
 70
     1
102
RTVSPropertyOp17
 70
     1
102
RTVSPropertyOp18
 70
     1
102
RTVSPropertyOp19
 70
     1
102
RTVSPropertyOp20
 70
     1
102
RTVSPropertyOp21
 70
     1
102
RTVSPropertyOp22
 70
     1
102
RTVSPropertyOp23
 70
     1
102
RTVSPropertyOp24
 70
     1
102
RTVSPropertyOp25
 70
     1
102
RTVSPropertyOp26
 70
     1
102
RTVSPropertyOp27
 70
     1
  0
ENDSEC
  0
EOF
