  0
SECTION
  2
HEADER
  9
$ACADVER
  1
AC1015
  9
$ACADMAINTVER
 70
    20
  9
$DWGCODEPAGE
  3
ANSI_1252
  9
$INSBASE
 10
0.0
 20
0.0
 30
0.0
  9
$EXTMIN
 10
168.9719547875144
 20
150.844491321201
 30
0.0
  9
$EXTMAX
 10
171.5823218091951
 20
151.3391375525966
 30
0.0
  9
$LIMMIN
 10
0.0
 20
0.0
  9
$LIMMAX
 10
420.0
 20
297.0
  9
$ORTHOMODE
 70
     1
  9
$REGENMODE
 70
     1
  9
$FILLMODE
 70
     1
  9
$QTEXTMODE
 70
     0
  9
$MIRRTEXT
 70
     0
  9
$LTSCALE
 40
1.0
  9
$ATTMODE
 70
     1
  9
$TEXTSIZE
 40
2.5
  9
$TRACEWID
 40
1.0
  9
$TEXTSTYLE
  7
Standard
  9
$CLAYER
  8
0
  9
$CELTYPE
  6
ByLayer
  9
$CECOLOR
 62
   256
  9
$CELTSCALE
 40
1.0
  9
$DISPSILH
 70
     0
  9
$DIMSCALE
 40
1.0
  9
$DIMASZ
 40
2.5
  9
$DIMEXO
 40
0.625
  9
$DIMDLI
 40
3.75
  9
$DIMRND
 40
0.0
  9
$DIMDLE
 40
0.0
  9
$DIMEXE
 40
1.25
  9
$DIMTP
 40
0.0
  9
$DIMTM
 40
0.0
  9
$DIMTXT
 40
2.5
  9
$DIMCEN
 40
2.5
  9
$DIMTSZ
 40
0.0
  9
$DIMTOL
 70
     0
  9
$DIMLIM
 70
     0
  9
$DIMTIH
 70
     0
  9
$DIMTOH
 70
     0
  9
$DIMSE1
 70
     0
  9
$DIMSE2
 70
     0
  9
$DIMTAD
 70
     1
  9
$DIMZIN
 70
     8
  9
$DIMBLK
  1

  9
$DIMASO
 70
     1
  9
$DIMSHO
 70
     1
  9
$DIMPOST
  1

  9
$DIMAPOST
  1

  9
$DIMALT
 70
     0
  9
$DIMALTD
 70
     3
  9
$DIMALTF
 40
0.03937007874016
  9
$DIMLFAC
 40
1.0
  9
$DIMTOFL
 70
     1
  9
$DIMTVP
 40
0.0
  9
$DIMTIX
 70
     0
  9
$DIMSOXD
 70
     0
  9
$DIMSAH
 70
     0
  9
$DIMBLK1
  1

  9
$DIMBLK2
  1

  9
$DIMSTYLE
  2
ISO-25
  9
$DIMCLRD
 70
     0
  9
$DIMCLRE
 70
     0
  9
$DIMCLRT
 70
     0
  9
$DIMTFAC
 40
1.0
  9
$DIMGAP
 40
0.625
  9
$DIMJUST
 70
     0
  9
$DIMSD1
 70
     0
  9
$DIMSD2
 70
     0
  9
$DIMTOLJ
 70
     0
  9
$DIMTZIN
 70
     8
  9
$DIMALTZ
 70
     0
  9
$DIMALTTZ
 70
     0
  9
$DIMUPT
 70
     0
  9
$DIMDEC
 70
     2
  9
$DIMTDEC
 70
     2
  9
$DIMALTU
 70
     2
  9
$DIMALTTD
 70
     3
  9
$DIMTXSTY
  7
Standard
  9
$DIMAUNIT
 70
     0
  9
$DIMADEC
 70
     0
  9
$DIMALTRND
 40
0.0
  9
$DIMAZIN
 70
     0
  9
$DIMDSEP
 70
    44
  9
$DIMATFIT
 70
     3
  9
$DIMFRAC
 70
     0
  9
$DIMLDRBLK
  1

  9
$DIMLUNIT
 70
     2
  9
$DIMLWD
 70
    -2
  9
$DIMLWE
 70
    -2
  9
$DIMTMOVE
 70
     0
  9
$LUNITS
 70
     2
  9
$LUPREC
 70
     4
  9
$SKETCHINC
 40
1.0
  9
$FILLETRAD
 40
0.0
  9
$AUNITS
 70
     0
  9
$AUPREC
 70
     0
  9
$MENU
  1
.
  9
$ELEVATION
 40
0.0
  9
$PELEVATION
 40
0.0
  9
$THICKNESS
 40
0.0
  9
$LIMCHECK
 70
     0
  9
$CHAMFERA
 40
0.0
  9
$CHAMFERB
 40
0.0
  9
$CHAMFERC
 40
0.0
  9
$CHAMFERD
 40
0.0
  9
$SKPOLY
 70
     0
  9
$TDCREATE
 40
2453977.623191007
  9
$TDUCREATE
 40
2453977.581524341
  9
$TDUPDATE
 40
2456146.444872686
  9
$TDUUPDATE
 40
2456146.403206019
  9
$TDINDWG
 40
0.0138740625
  9
$TDUSRTIMER
 40
0.0138740625
  9
$USRTIMER
 70
     1
  9
$ANGBASE
 50
0.0
  9
$ANGDIR
 70
     0
  9
$PDMODE
 70
     0
  9
$PDSIZE
 40
0.0
  9
$PLINEWID
 40
0.0
  9
$SPLFRAME
 70
     0
  9
$SPLINETYPE
 70
     6
  9
$SPLINESEGS
 70
     8
  9
$HANDSEED
  5
58E
  9
$SURFTAB1
 70
     6
  9
$SURFTAB2
 70
     6
  9
$SURFTYPE
 70
     6
  9
$SURFU
 70
     6
  9
$SURFV
 70
     6
  9
$UCSBASE
  2

  9
$UCSNAME
  2

  9
$UCSORG
 10
0.0
 20
0.0
 30
0.0
  9
$UCSXDIR
 10
1.0
 20
0.0
 30
0.0
  9
$UCSYDIR
 10
0.0
 20
1.0
 30
0.0
  9
$UCSORTHOREF
  2

  9
$UCSORTHOVIEW
 70
     0
  9
$UCSORGTOP
 10
0.0
 20
0.0
 30
0.0
  9
$UCSORGBOTTOM
 10
0.0
 20
0.0
 30
0.0
  9
$UCSORGLEFT
 10
0.0
 20
0.0
 30
0.0
  9
$UCSORGRIGHT
 10
0.0
 20
0.0
 30
0.0
  9
$UCSORGFRONT
 10
0.0
 20
0.0
 30
0.0
  9
$UCSORGBACK
 10
0.0
 20
0.0
 30
0.0
  9
$PUCSBASE
  2

  9
$PUCSNAME
  2

  9
$PUCSORG
 10
0.0
 20
0.0
 30
0.0
  9
$PUCSXDIR
 10
1.0
 20
0.0
 30
0.0
  9
$PUCSYDIR
 10
0.0
 20
1.0
 30
0.0
  9
$PUCSORTHOREF
  2

  9
$PUCSORTHOVIEW
 70
     0
  9
$PUCSORGTOP
 10
0.0
 20
0.0
 30
0.0
  9
$PUCSORGBOTTOM
 10
0.0
 20
0.0
 30
0.0
  9
$PUCSORGLEFT
 10
0.0
 20
0.0
 30
0.0
  9
$PUCSORGRIGHT
 10
0.0
 20
0.0
 30
0.0
  9
$PUCSORGFRONT
 10
0.0
 20
0.0
 30
0.0
  9
$PUCSORGBACK
 10
0.0
 20
0.0
 30
0.0
  9
$USERI1
 70
     0
  9
$USERI2
 70
     0
  9
$USERI3
 70
     0
  9
$USERI4
 70
     0
  9
$USERI5
 70
     0
  9
$USERR1
 40
0.0
  9
$USERR2
 40
0.0
  9
$USERR3
 40
0.0
  9
$USERR4
 40
0.0
  9
$USERR5
 40
0.0
  9
$WORLDVIEW
 70
     1
  9
$SHADEDGE
 70
     3
  9
$SHADEDIF
 70
    70
  9
$TILEMODE
 70
     1
  9
$MAXACTVP
 70
    64
  9
$PINSBASE
 10
0.0
 20
0.0
 30
0.0
  9
$PLIMCHECK
 70
     0
  9
$PEXTMIN
 10
1.000000000000000E+20
 20
1.000000000000000E+20
 30
1.000000000000000E+20
  9
$PEXTMAX
 10
-1.000000000000000E+20
 20
-1.000000000000000E+20
 30
-1.000000000000000E+20
  9
$PLIMMIN
 10
0.0
 20
0.0
  9
$PLIMMAX
 10
420.0
 20
297.0
  9
$UNITMODE
 70
     0
  9
$VISRETAIN
 70
     1
  9
$PLINEGEN
 70
     0
  9
$PSLTSCALE
 70
     1
  9
$TREEDEPTH
 70
  3020
  9
$CMLSTYLE
  2
Standard
  9
$CMLJUST
 70
     0
  9
$CMLSCALE
 40
20.0
  9
$PROXYGRAPHICS
 70
     1
  9
$MEASUREMENT
 70
     1
  9
$CELWEIGHT
370
    -1
  9
$ENDCAPS
280
     0
  9
$JOINSTYLE
280
     0
  9
$LWDISPLAY
290
     0
  9
$INSUNITS
 70
     6
  9
$HYPERLINKBASE
  1

  9
$STYLESHEET
  1

  9
$XEDIT
290
     1
  9
$CEPSNTYPE
380
     0
  9
$PSTYLEMODE
290
     1
  9
$FINGERPRINTGUID
  2
{CCA58AE7-9B54-46FE-92D4-A398EEF59DE1}
  9
$VERSIONGUID
  2
{5DD90B63-F41A-403D-8EF8-72C389493CF2}
  9
$EXTNAMES
290
     1
  9
$PSVPSCALE
 40
0.0
  9
$OLESTARTUP
290
     0
  0
ENDSEC
  0
SECTION
  2
CLASSES
  0
CLASS
  1
ACDBDICTIONARYWDFLT
  2
AcDbDictionaryWithDefault
  3
ObjectDBX Classes
 90
        0
280
     0
281
     0
  0
CLASS
  1
TABLESTYLE
  2
AcDbTableStyle
  3
ObjectDBX Classes
 90
     4095
280
     0
281
     0
  0
CLASS
  1
DICTIONARYVAR
  2
AcDbDictionaryVar
  3
ObjectDBX Classes
 90
        0
280
     0
281
     0
  0
CLASS
  1
SORTENTSTABLE
  2
AcDbSortentsTable
  3
ObjectDBX Classes
 90
        0
280
     0
281
     0
  0
CLASS
  1
ACDBPLACEHOLDER
  2
AcDbPlaceHolder
  3
ObjectDBX Classes
 90
        0
280
     0
281
     0
  0
CLASS
  1
LAYOUT
  2
AcDbLayout
  3
ObjectDBX Classes
 90
        0
280
     0
281
     0
  0
CLASS
  1
MATERIAL
  2
AcDbMaterial
  3
ObjectDBX Classes
 90
     1153
280
     0
281
     0
  0
CLASS
  1
VISUALSTYLE
  2
AcDbVisualStyle
  3
ObjectDBX Classes
 90
     4095
280
     0
281
     0
  0
CLASS
  1
SCALE
  2
AcDbScale
  3
ObjectDBX Classes
 90
     1153
280
     0
281
     0
  0
CLASS
  1
MLEADERSTYLE
  2
AcDbMLeaderStyle
  3
ACDB_MLEADERSTYLE_CLASS
 90
     4095
280
     0
281
     0
  0
CLASS
  1
CELLSTYLEMAP
  2
AcDbCellStyleMap
  3
ObjectDBX Classes
 90
     1152
280
     0
281
     0
  0
ENDSEC
  0
SECTION
  2
TABLES
  0
TABLE
  2
VPORT
  5
8
330
0
100
AcDbSymbolTable
 70
     1
  0
VPORT
  5
500
330
8
100
AcDbSymbolTableRecord
100
AcDbViewportTableRecord
  2
*Active
 70
     0
 10
0.0
 20
0.0
 11
1.0
 21
1.0
 12
170.3194952928583
 22
151.0918144380482
 13
0.0
 23
0.0
 14
10.0
 24
10.0
 15
10.0
 25
10.0
 16
0.0
 26
0.0
 36
1.0
 17
0.0
 27
0.0
 37
0.0
 40
1.64389526032334
 41
1.645464025026068
 42
50.0
 43
0.0
 44
0.0
 50
0.0
 51
0.0
 71
     0
 72
  1000
 73
     1
 74
     3
 75
     0
 76
     0
 77
     0
 78
     0
281
     0
 65
     1
110
0.0
120
0.0
130
0.0
111
1.0
121
0.0
131
0.0
112
0.0
122
1.0
132
0.0
 79
     0
146
0.0
  0
ENDTAB
  0
TABLE
  2
LTYPE
  5
5
330
0
100
AcDbSymbolTable
 70
     2
  0
LTYPE
  5
14
330
5
100
AcDbSymbolTableRecord
100
AcDbLinetypeTableRecord
  2
ByBlock
 70
     0
  3

 72
    65
 73
     0
 40
0.0
  0
LTYPE
  5
15
330
5
100
AcDbSymbolTableRecord
100
AcDbLinetypeTableRecord
  2
ByLayer
 70
     0
  3

 72
    65
 73
     0
 40
0.0
  0
LTYPE
  5
16
330
5
100
AcDbSymbolTableRecord
100
AcDbLinetypeTableRecord
  2
Continuous
 70
     0
  3
Solid line
 72
    65
 73
     0
 40
0.0
  0
LTYPE
  5
36
330
5
100
AcDbSymbolTableRecord
100
AcDbLinetypeTableRecord
  2
HIDDEN
 70
     0
  3
Hidden __ __ __ __ __ __ __ __ __ __ __ __ __ __
 72
    65
 73
     2
 40
1.905
 49
1.27
 74
     0
 49
-0.635
 74
     0
  0
ENDTAB
  0
TABLE
  2
LAYER
  5
2
330
0
100
AcDbSymbolTable
 70
     3
  0
LAYER
  5
10
102
{ACAD_XDICTIONARY
360
54E
102
}
330
2
100
AcDbSymbolTableRecord
100
AcDbLayerTableRecord
  2
0
 70
     0
 62
     7
  6
Continuous
370
    -3
390
F
  0
LAYER
  5
37
102
{ACAD_XDICTIONARY
360
550
102
}
330
2
100
AcDbSymbolTableRecord
100
AcDbLayerTableRecord
  2
FORMAT
 70
     0
 62
     7
  6
Continuous
370
     0
390
F
  0
LAYER
  5
4C7
102
{ACAD_XDICTIONARY
360
552
102
}
330
2
100
AcDbSymbolTableRecord
100
AcDbLayerTableRecord
  2
sanindusa
 70
     0
 62
     3
  6
Continuous
370
    -3
390
F
  0
ENDTAB
  0
TABLE
  2
STYLE
  5
3
330
0
100
AcDbSymbolTable
 70
     2
  0
STYLE
  5
11
330
3
100
AcDbSymbolTableRecord
100
AcDbTextStyleTableRecord
  2
Standard
 70
     0
 40
0.0
 41
1.0
 50
0.0
 71
     0
 42
2.5
  3
txt
  4

  0
STYLE
  5
38
330
3
100
AcDbSymbolTableRecord
100
AcDbTextStyleTableRecord
  2
SLDTEXTSTYLE0
 70
     0
 40
0.0
 41
0.75
 50
0.0
 71
     0
 42
0.2
  3
TXT
  4

  0
ENDTAB
  0
TABLE
  2
VIEW
  5
6
330
0
100
AcDbSymbolTable
 70
     0
  0
ENDTAB
  0
TABLE
  2
UCS
  5
7
330
0
100
AcDbSymbolTable
 70
     0
  0
ENDTAB
  0
TABLE
  2
APPID
  5
9
330
0
100
AcDbSymbolTable
 70
     3
  0
APPID
  5
12
330
9
100
AcDbSymbolTableRecord
100
AcDbRegAppTableRecord
  2
ACAD
 70
     0
  0
APPID
  5
4CC
330
9
100
AcDbSymbolTableRecord
100
AcDbRegAppTableRecord
  2
ACAD_EXEMPT_FROM_CAD_STANDARDS
 70
     0
  0
APPID
  5
58D
330
9
100
AcDbSymbolTableRecord
100
AcDbRegAppTableRecord
  2
ACAD_MLEADERVER
 70
     0
  0
ENDTAB
  0
TABLE
  2
DIMSTYLE
  5
A
330
0
100
AcDbSymbolTable
 70
     1
100
AcDbDimStyleTable
 71
     1
340
2B
  0
DIMSTYLE
105
2B
330
A
100
AcDbSymbolTableRecord
100
AcDbDimStyleTableRecord
  2
ISO-25
 70
     0
 41
2.5
 42
0.625
 43
3.75
 44
1.25
 73
     0
 74
     0
 77
     1
 78
     8
140
2.5
141
2.5
143
0.03937007874016
147
0.625
171
     3
172
     1
271
     2
272
     2
274
     3
278
    44
283
     0
284
     8
340
11
  0
ENDTAB
  0
TABLE
  2
BLOCK_RECORD
  5
1
330
0
100
AcDbSymbolTable
 70
     2
  0
BLOCK_RECORD
  5
23
102
{ACAD_XDICTIONARY
360
4D3
102
}
330
1
100
AcDbSymbolTableRecord
100
AcDbBlockTableRecord
  2
*Model_Space
340
26
  0
BLOCK_RECORD
  5
1F
330
1
100
AcDbSymbolTableRecord
100
AcDbBlockTableRecord
  2
*Paper_Space
340
22
  0
BLOCK_RECORD
  5
27
330
1
100
AcDbSymbolTableRecord
100
AcDbBlockTableRecord
  2
*Paper_Space0
340
2A
  0
BLOCK_RECORD
  5
2F
330
1
100
AcDbSymbolTableRecord
100
AcDbBlockTableRecord
  2
_Closed
340
0
  0
ENDTAB
  0
ENDSEC
  0
SECTION
  2
BLOCKS
  0
BLOCK
  5
24
330
23
100
AcDbEntity
  8
0
100
AcDbBlockBegin
  2
*Model_Space
 70
     0
 10
0.0
 20
0.0
 30
0.0
  3
*Model_Space
  1

  0
ENDBLK
  5
25
330
23
100
AcDbEntity
  8
0
100
AcDbBlockEnd
  0
BLOCK
  5
20
330
1F
100
AcDbEntity
 67
     1
  8
0
100
AcDbBlockBegin
  2
*Paper_Space
 70
     0
 10
0.0
 20
0.0
 30
0.0
  3
*Paper_Space
  1

  0
ENDBLK
  5
21
330
1F
100
AcDbEntity
 67
     1
  8
0
100
AcDbBlockEnd
  0
BLOCK
  5
28
330
27
100
AcDbEntity
 67
     1
  8
0
100
AcDbBlockBegin
  2
*Paper_Space0
 70
     0
 10
0.0
 20
0.0
 30
0.0
  3
*Paper_Space0
  1

  0
ENDBLK
  5
29
330
27
100
AcDbEntity
 67
     1
  8
0
100
AcDbBlockEnd
  0
BLOCK
  5
30
330
2F
100
AcDbEntity
  8
0
100
AcDbBlockBegin
  2
_Closed
 70
     0
 10
0.0
 20
0.0
 30
0.0
  3
_Closed
  1

  0
LINE
  5
31
330
2F
100
AcDbEntity
  8
0
  6
ByBlock
 62
     0
370
    -2
100
AcDbLine
 10
-1.0
 20
0.166667
 30
0.0
 11
0.0
 21
0.0
 31
0.0
  0
LINE
  5
32
330
2F
100
AcDbEntity
  8
0
  6
ByBlock
 62
     0
370
    -2
100
AcDbLine
 10
0.0
 20
0.0
 30
0.0
 11
-1.0
 21
-0.166667
 31
0.0
  0
LINE
  5
33
330
2F
100
AcDbEntity
  8
0
  6
ByBlock
 62
     0
370
    -2
100
AcDbLine
 10
-1.0
 20
0.166667
 30
0.0
 11
-1.0
 21
-0.166667
 31
0.0
  0
LINE
  5
34
330
2F
100
AcDbEntity
  8
0
  6
ByBlock
 62
     0
370
    -2
100
AcDbLine
 10
0.0
 20
0.0
 30
0.0
 11
-1.0
 21
0.0
 31
0.0
  0
ENDBLK
  5
35
330
2F
100
AcDbEntity
  8
0
100
AcDbBlockEnd
  0
ENDSEC
  0
SECTION
  2
ENTITIES
  0
LWPOLYLINE
  5
282
330
23
100
AcDbEntity
  8
sanindusa
100
AcDbPolyline
 90
       48
 70
   128
 43
0.0
 10
169.9444172118244
 20
151.1701949388298
 10
169.9356175530728
 20
151.1701957010903
 10
169.926223190471
 20
151.1701983953611
 10
169.9168507744423
 20
151.1702029679994
 10
169.9075129303699
 20
151.1702094147265
 10
169.8982215282764
 20
151.1702177627514
 10
169.8891343203927
 20
151.1702278294075
 10
169.8800603096891
 20
151.1702397517844
 10
169.8710105918584
 20
151.170253505352
 10
169.8620013788382
 20
151.1702690554672
 10
169.8530493755339
 20
151.1702863617717
 10
169.8441716733438
 20
151.1703053781201
 10
169.8353856155696
 20
151.1703260526352
 10
169.8267086528079
 20
151.1703483278754
 10
169.8181581916226
 20
151.170372141114
 10
169.8097530455044
 20
151.1703974197176
 10
169.8015107934997
 20
151.1704240881178
 10
169.7934475869565
 20
151.1704520694877
 10
169.7855788858255
 20
151.1704812840973
 10
169.7779193414284
 20
151.1705116500367
 10
169.7704826968957
 20
151.170543083964
 10
169.7632817076202
 20
151.170575501854
 10
169.7563267295772
 20
151.1706088209464
 10
169.7496029793935
 20
151.1706430265603
 10
169.7430737366384
 20
151.1706782584661
 10
169.7367326220116
 20
151.1707145414061
 10
169.7305923412363
 20
151.1707518005819
 10
169.7246654900171
 20
151.1707899562085
 10
169.7189644995412
 20
151.1708289234938
 10
169.7135015165298
 20
151.1708686130433
 10
169.7082882855717
 20
151.1709089313344
 10
169.7033360371914
 20
151.1709497812337
 10
169.6986558128953
 20
151.1709910586156
 10
169.6942583568665
 20
151.1710326515705
 10
169.6901525355108
 20
151.1710744547193
 10
169.6863463744573
 20
151.1711163606083
 10
169.6828470528858
 20
151.1711582590758
 10
169.6796609382687
 20
151.1712000355183
 10
169.6767936782688
 20
151.1712415670485
 10
169.6742503813817
 20
151.1712827143881
 10
169.6720309254675
 20
151.1713233362452
 10
169.6700956262283
 20
151.1713640114993
 10
169.6684740107126
 20
151.1714040867355
 10
169.6671870653634
 20
151.1714426833618
 10
169.6663349654748
 20
151.1714746688992
 10
169.6658254381913
 20
151.1714992772498
 10
169.6656367437552
 20
151.1715111797369
 10
169.6656479333021
 20
151.1715101029324
  0
ARC
  5
283
330
23
100
AcDbEntity
  8
sanindusa
100
AcDbCircle
 10
170.2294190718141
 20
151.164673261834
 30
0.0
 40
0.0049947823937706
100
AcDbArc
 50
269.9795525255693
 51
345.330044352563
  0
ARC
  5
284
330
23
100
AcDbEntity
  8
sanindusa
100
AcDbCircle
 10
169.6594155059517
 20
151.1646732607597
 30
0.0
 40
0.0049947813197025
100
AcDbArc
 50
194.6699461335681
 51
270.0204569878011
  0
ARC
  5
286
330
23
100
AcDbEntity
  8
sanindusa
100
AcDbCircle
 10
170.1905350934659
 20
151.1546784797583
 30
0.0
 40
0.005
100
AcDbArc
 50
90.0
 51
151.6373560250551
  0
ARC
  5
287
330
23
100
AcDbEntity
  8
sanindusa
100
AcDbCircle
 10
169.6982994851288
 20
151.1546784797583
 30
0.0
 40
0.005
100
AcDbArc
 50
28.36264397494492
 51
90.0
  0
ARC
  5
288
330
23
100
AcDbEntity
  8
sanindusa
100
AcDbCircle
 10
169.9744172892974
 20
151.2713509046126
 30
0.0
 40
0.2405999999999999
100
AcDbArc
 50
273.0633217805408
 51
331.6373560250551
  0
ARC
  5
289
330
23
100
AcDbEntity
  8
sanindusa
100
AcDbCircle
 10
169.9144172892974
 20
151.2713509046126
 30
0.0
 40
0.2405999999999999
100
AcDbArc
 50
208.3626439749449
 51
266.9392909400642
  0
ARC
  5
28A
330
23
100
AcDbEntity
  8
sanindusa
100
AcDbCircle
 10
169.8985367866681
 20
151.0215645891993
 30
0.0
 40
0.0097687568710986
100
AcDbArc
 50
1.209181102727585
 51
79.25306898377499
  0
ARC
  5
28B
330
23
100
AcDbEntity
  8
sanindusa
100
AcDbCircle
 10
169.9902856358886
 20
151.021570600734
 30
0.0
 40
0.0097608786249871
100
AcDbArc
 50
100.696556533232
 51
178.8307556099795
  0
LINE
  5
28C
330
23
100
AcDbEntity
  8
sanindusa
100
AcDbLine
 10
169.9083337960267
 20
151.0217780923421
 30
0.0
 11
169.9093835872452
 21
150.9917160051159
 31
0.0
  0
LINE
  5
28D
330
23
100
AcDbEntity
  8
sanindusa
100
AcDbLine
 10
169.9794509913496
 20
150.9917160051159
 30
0.0
 11
169.9805007754308
 21
151.0217778879566
 31
0.0
  0
ARC
  5
28E
330
23
100
AcDbEntity
  8
sanindusa
100
AcDbCircle
 10
169.9103829780722
 20
150.9917509046126
 30
0.0
 40
0.0010000000000001
100
AcDbArc
 50
182.0000000004987
 51
270.0
  0
ARC
  5
28F
330
23
100
AcDbEntity
  8
sanindusa
100
AcDbCircle
 10
169.9784516005226
 20
150.9917509046126
 30
0.0
 40
0.0010000000000001
100
AcDbArc
 50
270.0
 51
357.9999999995013
  0
LWPOLYLINE
  5
294
330
23
100
AcDbEntity
  8
sanindusa
100
AcDbPolyline
 90
       16
 70
   128
 43
0.0
 10
169.6932254073072
 20
151.1868047178489
 10
169.690916611684
 20
151.186342136822
 10
169.6865987449233
 20
151.1854070329768
 10
169.6825350758919
 20
151.1844272845495
 10
169.6787102147693
 20
151.1833937595893
 10
169.6751145153476
 20
151.1822950492991
 10
169.6717329998561
 20
151.181112522937
 10
169.6685441973741
 20
151.1798150861615
 10
169.6655227062773
 20
151.1783509468162
 10
169.6629523920757
 20
151.1768362496784
 10
169.6608639080953
 20
151.1753253558385
 10
169.6591701384699
 20
151.173813168786
 10
169.6577712000538
 20
151.1722565670244
 10
169.6566168868275
 20
151.1706216744161
 10
169.655692236348
 20
151.1688880579964
 10
169.6550514075746
 20
151.1672044251616
  0
LWPOLYLINE
  5
295
330
23
100
AcDbEntity
  8
sanindusa
100
AcDbPolyline
 90
       16
 70
   128
 43
0.0
 10
170.2337831710202
 20
151.1672044251616
 10
170.2330776284234
 20
151.1690290247437
 10
170.2321346551391
 20
151.1707546062185
 10
170.2309868133224
 20
151.1723516820427
 10
170.2296276693397
 20
151.1738496870353
 10
170.2280197616087
 20
151.1752857589463
 10
170.2260874327462
 20
151.1767008734644
 10
170.2237219809775
 20
151.1781288342092
 10
170.2208457468704
 20
151.1795658388338
 10
170.2175377556105
 20
151.1809468901559
 10
170.2139991853998
 20
151.1822035297081
 10
170.2102670552262
 20
151.1833527307735
 10
170.2063301610617
 20
151.1844194656151
 10
170.202173517127
 20
151.1854212486187
 10
170.1977863111897
 20
151.1863691682518
 10
170.1956091712876
 20
151.1868047178489
  0
LWPOLYLINE
  5
297
330
23
100
AcDbEntity
  8
sanindusa
100
AcDbPolyline
 90
        3
 70
   128
 43
0.0
 10
169.6946959976385
 20
151.1870543541704
 10
169.6943253325829
 20
151.1869978728253
 10
169.6932254073072
 20
151.1868047178489
  0
LWPOLYLINE
  5
298
330
23
100
AcDbEntity
  8
sanindusa
100
AcDbPolyline
 90
        3
 70
   128
 43
0.0
 10
170.1956091712876
 20
151.1868047178489
 10
170.1952434480882
 20
151.1868735878305
 10
170.1941385809563
 20
151.1870543541704
  0
ARC
  5
299
330
23
100
AcDbEntity
  8
sanindusa
100
AcDbCircle
 10
170.1965581034747
 20
151.1960213213627
 30
0.0
 40
0.0092829317994669
100
AcDbArc
 50
245.9238849010427
 51
255.1022328802047
  0
LWPOLYLINE
  5
29A
330
23
100
AcDbEntity
  8
sanindusa
100
AcDbPolyline
 90
        6
 70
   128
 43
0.0
 10
169.6960519869887
 20
151.1875381161376
 10
169.6959588562784
 20
151.1874986686968
 10
169.6951739349795
 20
151.1872043855441
 10
169.6947658892685
 20
151.1870774291177
 10
169.694631402211
 20
151.1870436238114
 10
169.6946323528401
 20
151.187043764637
  0
ARC
  5
29B
330
23
100
AcDbEntity
  8
sanindusa
100
AcDbCircle
 10
170.1889891613079
 20
151.1782840779458
 30
0.0
 40
0.0100000000000036
100
AcDbArc
 50
67.68426099075933
 51
86.99869182807963
  0
ARC
  5
29C
330
23
100
AcDbEntity
  8
sanindusa
100
AcDbCircle
 10
169.6998454172868
 20
151.1782840779458
 30
0.0
 40
0.0100000000000036
100
AcDbArc
 50
93.00130817192036
 51
112.3157390092406
  0
ARC
  5
2A2
330
23
100
AcDbEntity
  8
sanindusa
100
AcDbCircle
 10
169.6644195976153
 20
151.161604467006
 30
0.0
 40
0.0100000489837634
100
AcDbArc
 50
82.58576835113206
 51
125.3937997785295
  0
LINE
  5
2A8
330
23
100
AcDbEntity
  8
sanindusa
100
AcDbLine
 10
170.2294172892974
 20
151.1596784797583
 30
0.0
 11
169.6594172892974
 21
151.1596784797583
 31
0.0
  0
ARC
  5
2A9
330
23
100
AcDbEntity
  8
sanindusa
100
AcDbCircle
 10
170.2244149630683
 20
151.1616043958266
 30
0.0
 40
0.0100001172567394
100
AcDbArc
 50
10.39255107992642
 51
97.41407725830047
  0
LWPOLYLINE
  5
2AA
330
23
100
AcDbEntity
  8
sanindusa
100
AcDbPolyline
 90
       18
 70
   128
 43
0.0
 10
169.9015706814579
 20
151.0310941155992
 10
169.9031043436152
 20
151.0310277624102
 10
169.9067858894333
 20
151.0309263051111
 10
169.9116594143883
 20
151.030849839663
 10
169.9173422176066
 20
151.0308006957534
 10
169.923981140249
 20
151.0307717993409
 10
169.9310450657771
 20
151.0307585886143
 10
169.9387147381503
 20
151.0307537796222
 10
169.9444172892974
 20
151.0307530318621
 10
169.9492785126771
 20
151.0307535638533
 10
169.9541397360568
 20
151.0307555260897
 10
169.9614119519107
 20
151.0307638176314
 10
169.9683964071557
 20
151.0307844583491
 10
169.9730116433986
 20
151.0308109777432
 10
169.9772428051961
 20
151.0308506310455
 10
169.9819833109172
 20
151.0309249479761
 10
169.9857746051556
 20
151.0310293988711
 10
169.9872737007163
 20
151.031105238894
  0
LINE
  5
2AB
330
23
100
AcDbEntity
  8
sanindusa
100
AcDbLine
 10
169.9444172892974
 20
150.9907509046126
 30
0.0
 11
169.9103829780722
 21
150.9907509046126
 31
0.0
  0
LINE
  5
2AC
330
23
100
AcDbEntity
  8
sanindusa
100
AcDbLine
 10
169.9784516005226
 20
150.9907509046126
 30
0.0
 11
169.9444172892974
 21
150.9907509046126
 31
0.0
  0
LWPOLYLINE
  5
2B3
330
23
100
AcDbEntity
  8
sanindusa
100
AcDbPolyline
 90
        9
 70
   128
 43
0.0
 10
169.8285025212767
 20
151.1780546969082
 10
169.8291859478526
 20
151.1777501479491
 10
169.8298446550669
 20
151.1772145390585
 10
169.8304628231716
 20
151.1764607336109
 10
169.8310256060207
 20
151.1755068352673
 10
169.8315194876201
 20
151.1743757531914
 10
169.8319326067328
 20
151.1730946518545
 10
169.8322550417425
 20
151.1716942986441
 10
169.8324790489348
 20
151.1702083249435
  0
LINE
  5
2B4
330
23
100
AcDbEntity
  8
sanindusa
100
AcDbLine
 10
169.6649464425089
 20
151.1741612480628
 30
0.0
 11
169.8285025212767
 21
151.1780546969082
 31
0.0
  0
LWPOLYLINE
  5
2B5
330
23
100
AcDbEntity
  8
sanindusa
100
AcDbPolyline
 90
        9
 70
   128
 43
0.0
 10
170.0603320573181
 20
151.1780546969082
 10
170.0596486307422
 20
151.1777501479491
 10
170.0589899235279
 20
151.1772145390585
 10
170.0583717554231
 20
151.1764607336109
 10
170.057808972574
 20
151.1755068352673
 10
170.0573150909747
 20
151.1743757531914
 10
170.056901971862
 20
151.1730946518545
 10
170.0565795368523
 20
151.1716942986441
 10
170.05635552966
 20
151.1702083249435
  0
LINE
  5
2B6
330
23
100
AcDbEntity
  8
sanindusa
100
AcDbLine
 10
170.2238881360858
 20
151.1741612480628
 30
0.0
 11
170.0603320573181
 21
151.1780546969082
 31
0.0
  0
ELLIPSE
  5
2BA
330
23
100
AcDbEntity
  8
sanindusa
100
AcDbEllipse
 10
169.9414435055697
 20
151.2524689431185
 30
0.0
 11
0.6777879541818095
 21
0.0239550202314072
 31
0.0
210
0.0
220
0.0
230
1.0
 40
0.1175828025069506
 41
4.884550606517128
 42
5.087415707845256
  0
ELLIPSE
  5
2BC
330
23
100
AcDbEntity
  8
sanindusa
100
AcDbEllipse
 10
169.9473910730251
 20
151.2524689431185
 30
0.0
 11
0.6777879541818095
 21
-0.0239550202314075
 31
0.0
210
0.0
220
0.0
230
1.0
 40
0.1175828025069506
 41
4.337362252924157
 42
4.540227354252261
  0
LWPOLYLINE
  5
2C7
330
23
100
AcDbEntity
  8
sanindusa
100
AcDbPolyline
 90
        4
 70
   128
 43
0.0
 10
170.0263635632093
 20
151.1860629704895
 10
169.9991105447927
 20
151.1858229473724
 10
169.9717950542789
 20
151.1856760568884
 10
169.944417091668
 20
151.1856266054675
  0
LWPOLYLINE
  5
2C8
330
23
100
AcDbEntity
  8
sanindusa
100
AcDbPolyline
 90
        5
 70
   128
 43
0.0
 10
170.0263635632093
 20
151.1860629704895
 10
170.0267628945662
 20
151.1852693986717
 10
170.027139104069
 20
151.1833677306326
 10
170.0274228261557
 20
151.1805990327526
 10
170.0275750675819
 20
151.1774890988595
  0
LWPOLYLINE
  5
2CA
330
23
100
AcDbEntity
  8
sanindusa
100
AcDbPolyline
 90
        5
 70
   128
 43
0.0
 10
169.8624710153854
 20
151.1860629704895
 10
169.8620716840286
 20
151.1852693986717
 10
169.8616954745258
 20
151.1833677306326
 10
169.8614117524391
 20
151.1805990327526
 10
169.8612595110128
 20
151.1774890988595
  0
LWPOLYLINE
  5
2CB
330
23
100
AcDbEntity
  8
sanindusa
100
AcDbPolyline
 90
        4
 70
   128
 43
0.0
 10
169.8624710153854
 20
151.1860629704895
 10
169.8897240338021
 20
151.1858229473724
 10
169.9170395243158
 20
151.1856760568884
 10
169.9444174869267
 20
151.1856266054675
  0
LWPOLYLINE
  5
2D6
330
23
100
AcDbEntity
  8
sanindusa
100
AcDbPolyline
 90
        3
 70
   128
 43
0.0
 10
169.8503156605624
 20
151.1860389138748
 10
169.8562680612241
 20
151.1860899815218
 10
169.8624710153854
 20
151.1860629704895
  0
LWPOLYLINE
  5
2D8
330
23
100
AcDbEntity
  8
sanindusa
100
AcDbPolyline
 90
        3
 70
   128
 43
0.0
 10
170.0385189180324
 20
151.1860389138748
 10
170.0325665173707
 20
151.1860899815218
 10
170.0263635632093
 20
151.1860629704895
  0
LWPOLYLINE
  5
2DB
330
23
100
AcDbEntity
  8
sanindusa
100
AcDbPolyline
 90
        8
 70
   128
 43
0.0
 10
169.6998454172868
 20
151.1882658440024
 10
169.7121390127491
 20
151.188085644597
 10
169.7459914224346
 20
151.1875276338648
 10
169.7654673507839
 20
151.1872035700765
 10
169.7850243697756
 20
151.18689121475
 10
169.8066883889944
 20
151.1865709966844
 10
169.8284582317917
 20
151.1862843042051
 10
169.8503156623573
 20
151.1860389130797
  0
LWPOLYLINE
  5
2DD
330
23
100
AcDbEntity
  8
sanindusa
100
AcDbPolyline
 90
        8
 70
   128
 43
0.0
 10
170.1889891613079
 20
151.1882658440024
 10
170.1766955658457
 20
151.188085644597
 10
170.1428431561601
 20
151.1875276338648
 10
170.1233672278109
 20
151.1872035700765
 10
170.1038102088191
 20
151.18689121475
 10
170.0821461896003
 20
151.1865709966844
 10
170.0603763468031
 20
151.1862843042051
 10
170.0385189162375
 20
151.1860389130797
  0
LINE
  5
2DE
330
23
100
AcDbEntity
  8
sanindusa
100
AcDbLine
 10
169.7022321367381
 20
151.1883728816137
 30
0.0
 11
169.6998454172868
 21
151.1882658440024
 31
0.0
  0
ELLIPSE
  5
2DF
330
23
100
AcDbEntity
  8
sanindusa
100
AcDbEllipse
 10
169.8281346612674
 20
149.8278747805056
 30
0.0
 11
2.132205871936827
 21
0.0
 31
0.0
210
0.0
220
0.0
230
1.0
 40
0.6391859913925247
 41
1.581235256815825
 42
1.629878709319619
  0
LINE
  5
2E0
330
23
100
AcDbEntity
  8
sanindusa
100
AcDbLine
 10
170.0829574609709
 20
151.1906766481227
 30
0.0
 11
169.8058771176239
 21
151.1906766481227
 31
0.0
  0
ELLIPSE
  5
2E1
330
23
100
AcDbEntity
  8
sanindusa
100
AcDbEllipse
 10
170.0606999173274
 20
149.8278747805056
 30
0.0
 11
2.132205871936827
 21
0.0
 31
0.0
210
0.0
220
0.0
230
1.0
 40
0.6391859913925245
 41
1.54130006316354
 42
1.560357396773967
  0
LINE
  5
2E2
330
23
100
AcDbEntity
  8
sanindusa
100
AcDbLine
 10
170.1866024418567
 20
151.1883728816137
 30
0.0
 11
170.1889891613079
 21
151.1882658440024
 31
0.0
  0
LWPOLYLINE
  5
2E3
330
23
100
AcDbEntity
  8
sanindusa
100
AcDbPolyline
 90
       10
 70
   128
 43
0.0
 10
169.9444172892974
 20
151.1877260543707
 10
169.9401698153425
 20
151.1877589691301
 10
169.9372145915857
 20
151.1878229001545
 10
169.9344623095181
 20
151.1879170603402
 10
169.9319910883805
 20
151.1880379078351
 10
169.9298696724095
 20
151.1881798210507
 10
169.9281595514722
 20
151.1883376077592
 10
169.9269076837133
 20
151.1885047302164
 10
169.9261501982213
 20
151.1886771305262
 10
169.9261489781054
 20
151.188678026711
  0
LWPOLYLINE
  5
2E4
330
23
100
AcDbEntity
  8
sanindusa
100
AcDbPolyline
 90
       19
 70
   128
 43
0.0
 10
169.9261795959124
 20
151.1889856289041
 10
169.9262216013267
 20
151.1890079195782
 10
169.9270382505757
 20
151.1891571338942
 10
169.9283527634713
 20
151.1892912054318
 10
169.9301216277089
 20
151.1894079826872
 10
169.9322984868078
 20
151.189505418277
 10
169.9348181189613
 20
151.1895829210515
 10
169.9376098197637
 20
151.1896396574107
 10
169.9405939105455
 20
151.1896757626828
 10
169.9444172892974
 20
151.1896915894755
 10
169.9467975238023
 20
151.189685510362
 10
169.9498409705462
 20
151.1896591936085
 10
169.9527313708739
 20
151.1896122433843
 10
169.9553866979975
 20
151.1895444663766
 10
169.9577322605449
 20
151.1894564989652
 10
169.9596972344306
 20
151.1893487992543
 10
169.9612314459721
 20
151.1892229932876
 10
169.9622861859485
 20
151.1890807189339
 10
169.9625767099074
 20
151.1889987761847
  0
LWPOLYLINE
  5
2E5
330
23
100
AcDbEntity
  8
sanindusa
100
AcDbPolyline
 90
       10
 70
   128
 43
0.0
 10
169.962699064029
 20
151.1887038635967
 10
169.9623668429373
 20
151.1885897754605
 10
169.9613567413844
 20
151.1884199050543
 10
169.959867550197
 20
151.1882563927221
 10
169.9579352315402
 20
151.1881055033081
 10
169.9556197268786
 20
151.1879730519184
 10
169.9523273215492
 20
151.1878435197886
 10
169.9494131901378
 20
151.1877719314967
 10
169.9463580775049
 20
151.187732868184
 10
169.9444172892974
 20
151.1877260543707
  0
ARC
  5
2E7
330
23
100
AcDbEntity
  8
sanindusa
100
AcDbCircle
 10
169.6644196319201
 20
151.1616043855812
 30
0.0
 40
0.0100001352296277
100
AcDbArc
 50
125.3936897962992
 51
169.6074081243746
  0
ARC
  5
2F3
330
23
100
AcDbEntity
  8
sanindusa
100
AcDbCircle
 10
170.224297313328
 20
151.1642277297757
 30
0.0
 40
0.0099419420424815
100
AcDbArc
 50
17.42204006343938
 51
92.35876980123279
  0
ARC
  5
2F4
330
23
100
AcDbEntity
  8
sanindusa
100
AcDbCircle
 10
169.6645372652668
 20
151.1642277297756
 30
0.0
 40
0.0099419420425624
100
AcDbArc
 50
87.6412301987672
 51
162.5779599365606
  0
LWPOLYLINE
  5
2FB
330
23
100
AcDbEntity
  8
sanindusa
100
AcDbPolyline
 90
        3
 70
   128
 43
0.0
 10
169.8612580645042
 20
151.1774988986627
 10
169.8612969148151
 20
151.1772357113068
 10
169.8623397241894
 20
151.1702684714751
  0
LWPOLYLINE
  5
2FC
330
23
100
AcDbEntity
  8
sanindusa
100
AcDbPolyline
 90
        3
 70
   128
 43
0.0
 10
170.0275765140906
 20
151.1774988986627
 10
170.0275376637797
 20
151.1772357113068
 10
170.0264948808045
 20
151.1702686478536
  0
ELLIPSE
  5
2FD
330
23
100
AcDbEntity
  8
sanindusa
100
AcDbEllipse
 10
170.0606999173274
 20
149.8278747805056
 30
0.0
 11
2.132205871936827
 21
0.0
 31
0.0
210
0.0
220
0.0
230
1.0
 40
0.6391859913925245
 41
1.511713944270173
 42
1.54130006316354
  0
LWPOLYLINE
  5
2FE
330
23
100
AcDbEntity
  8
sanindusa
100
AcDbPolyline
 90
        3
 70
   128
 43
0.0
 10
169.9261489781054
 20
151.188678026711
 10
169.9259186892732
 20
151.1888471756839
 10
169.9261795959124
 20
151.1889856289041
  0
LWPOLYLINE
  5
2FF
330
23
100
AcDbEntity
  8
sanindusa
100
AcDbPolyline
 90
        4
 70
   128
 43
0.0
 10
169.9625767099074
 20
151.1889987761847
 10
169.9628373802464
 20
151.188925253697
 10
169.9628623339385
 20
151.1887599321612
 10
169.962699064029
 20
151.1887038635967
  0
LINE
  5
306
330
23
100
AcDbEntity
  8
sanindusa
100
AcDbLine
 10
170.1895127488765
 20
151.1882703613414
 30
0.0
 11
170.1889891613079
 21
151.1882658440024
 31
0.0
  0
ARC
  5
316
330
23
100
AcDbEntity
  8
sanindusa
100
AcDbCircle
 10
169.1119633349122
 20
151.3351375525966
 30
0.0
 40
0.0039999999999999
100
AcDbArc
 50
90.0
 51
122.3949640814901
  0
LINE
  5
317
330
23
100
AcDbEntity
  8
sanindusa
100
AcDbLine
 10
169.1119633349122
 20
151.3391375525966
 30
0.0
 11
169.1232612464335
 21
151.3391375525966
 31
0.0
  0
LINE
  5
319
330
23
100
AcDbEntity
  8
sanindusa
100
AcDbLine
 10
169.4116395013018
 20
151.3391375525966
 30
0.0
 11
169.4003415897805
 21
151.3391375525966
 31
0.0
  0
ARC
  5
31A
330
23
100
AcDbEntity
  8
sanindusa
100
AcDbCircle
 10
169.4116395013018
 20
151.3351375525966
 30
0.0
 40
0.0039999999999999
100
AcDbArc
 50
57.60503591850984
 51
90.0
  0
LINE
  5
31E
330
23
100
AcDbEntity
  8
sanindusa
100
AcDbLine
 10
169.0142587397268
 20
151.2778816081041
 30
0.0
 11
169.1098203245838
 21
151.338515052668
 31
0.0
  0
LINE
  5
320
330
23
100
AcDbEntity
  8
sanindusa
100
AcDbLine
 10
169.5093440964873
 20
151.2778816081041
 30
0.0
 11
169.4137825116302
 21
151.338515052668
 31
0.0
  0
LWPOLYLINE
  5
32E
330
23
100
AcDbEntity
  8
sanindusa
100
AcDbPolyline
 90
       10
 70
   128
 43
0.0
 10
169.3566552908641
 20
151.2285476377313
 10
169.3787311010068
 20
151.2318637946277
 10
169.4006987257719
 20
151.2358527352492
 10
169.4225314249885
 20
151.2404912409079
 10
169.441170608082
 20
151.2449754844885
 10
169.459700301686
 20
151.2498883229758
 10
169.4615322517584
 20
151.2503975850843
 10
169.478317213744
 20
151.255246788289
 10
169.4950332287915
 20
151.2603279003412
 10
169.5070490524549
 20
151.2640397983811
  0
LWPOLYLINE
  5
32F
330
23
100
AcDbEntity
  8
sanindusa
100
AcDbPolyline
 90
        3
 70
   128
 43
0.0
 10
169.3566552908641
 20
151.2285476377313
 10
169.356629124003
 20
151.2285468019782
 10
169.3555489523139
 20
151.2285139221383
  0
LWPOLYLINE
  5
332
330
23
100
AcDbEntity
  8
sanindusa
100
AcDbPolyline
 90
        3
 70
   128
 43
0.0
 10
169.1669475453499
 20
151.2285476377313
 10
169.166973712211
 20
151.2285468019782
 10
169.1680538839
 20
151.2285139221383
  0
LWPOLYLINE
  5
333
330
23
100
AcDbEntity
  8
sanindusa
100
AcDbPolyline
 90
       10
 70
   128
 43
0.0
 10
169.1669475453499
 20
151.2285476377313
 10
169.1448717352072
 20
151.2318637946277
 10
169.122904110442
 20
151.2358527352492
 10
169.1010714112255
 20
151.2404912409079
 10
169.082432228132
 20
151.2449754844885
 10
169.063902534528
 20
151.2498883229758
 10
169.0620705844555
 20
151.2503975850843
 10
169.04528562247
 20
151.255246788289
 10
169.0285696074225
 20
151.2603279003412
 10
169.0165537837591
 20
151.2640397983811
  0
CIRCLE
  5
335
330
23
100
AcDbEntity
  8
sanindusa
100
AcDbCircle
 10
169.261801418107
 20
151.2771375525966
 30
0.0
 40
0.0175000000000006
  0
LINE
  5
336
330
23
100
AcDbEntity
  8
sanindusa
100
AcDbLine
 10
169.1232612464335
 20
151.3391375525966
 30
0.0
 11
169.4003415897805
 21
151.3391375525966
 31
0.0
  0
LINE
  5
33F
330
23
100
AcDbEntity
  8
sanindusa
100
AcDbLine
 10
169.0106786605499
 20
151.2752169207618
 30
0.0
 11
169.0142587397268
 21
151.2778816081041
 31
0.0
  0
LINE
  5
341
330
23
100
AcDbEntity
  8
sanindusa
100
AcDbLine
 10
169.5129241756641
 20
151.2752169207618
 30
0.0
 11
169.5093440964873
 21
151.2778816081041
 31
0.0
  0
LWPOLYLINE
  5
343
330
23
100
AcDbEntity
  8
sanindusa
100
AcDbPolyline
 90
       10
 70
   128
 43
0.0
 10
169.5129241756641
 20
151.2752169207618
 10
169.5132384259505
 20
151.2746799808253
 10
169.5132783119974
 20
151.2738625442285
 10
169.5130422397643
 20
151.2727972797163
 10
169.5125396438467
 20
151.2715267604431
 10
169.5117906104233
 20
151.2701017625423
 10
169.5108250745153
 20
151.2685792358654
 10
169.5096816236366
 20
151.2670200279883
 10
169.5084059556494
 20
151.265486452446
 10
169.5070490524549
 20
151.2640397983811
  0
LWPOLYLINE
  5
344
330
23
100
AcDbEntity
  8
sanindusa
100
AcDbPolyline
 90
       10
 70
   128
 43
0.0
 10
169.0106786605499
 20
151.2752169207618
 10
169.0103644102635
 20
151.2746799808253
 10
169.0103245242166
 20
151.2738625442285
 10
169.0105605964497
 20
151.2727972797163
 10
169.0110631923674
 20
151.2715267604431
 10
169.0118122257907
 20
151.2701017625423
 10
169.0127777616987
 20
151.2685792358654
 10
169.0139212125774
 20
151.2670200279883
 10
169.0151968805646
 20
151.265486452446
 10
169.0165537837591
 20
151.2640397983811
  0
LWPOLYLINE
  5
345
330
23
100
AcDbEntity
  8
sanindusa
100
AcDbPolyline
 90
        3
 70
   128
 43
0.0
 10
169.0051390314343
 20
151.2688398860582
 10
169.0076613376656
 20
151.2721990732613
 10
169.0106786605499
 20
151.2752169207618
  0
LWPOLYLINE
  5
347
330
23
100
AcDbEntity
  8
sanindusa
100
AcDbPolyline
 90
        3
 70
   128
 43
0.0
 10
169.5184638047797
 20
151.2688398860582
 10
169.5159414985484
 20
151.2721990732613
 10
169.5129241756641
 20
151.2752169207618
  0
ARC
  5
349
330
23
100
AcDbEntity
  8
sanindusa
100
AcDbCircle
 10
169.0303313171896
 20
151.2525503575684
 30
0.0
 40
0.03
100
AcDbArc
 50
147.1129760703215
 51
152.9071466417428
  0
ARC
  5
34D
330
23
100
AcDbEntity
  8
sanindusa
100
AcDbCircle
 10
169.4932715190244
 20
151.2525503575684
 30
0.0
 40
0.03
100
AcDbArc
 50
27.09285335825716
 51
32.88702392967847
  0
LWPOLYLINE
  5
354
330
23
100
AcDbEntity
  8
sanindusa
100
AcDbPolyline
 90
        3
 70
   128
 43
0.0
 10
168.9721610213881
 20
151.1485750242773
 10
168.9721546469848
 20
151.1484464984901
 10
168.9719935723724
 20
151.1445992329151
  0
ARC
  5
355
330
23
100
AcDbEntity
  8
sanindusa
100
AcDbCircle
 10
169.261801418107
 20
151.1341375525966
 30
0.0
 40
0.2900000000000001
100
AcDbArc
 50
152.9071466417428
 51
177.1463852449944
  0
LWPOLYLINE
  5
356
330
23
100
AcDbEntity
  8
sanindusa
100
AcDbPolyline
 90
        3
 70
   128
 43
0.0
 10
169.5514418148259
 20
151.1485750242773
 10
169.5514481892291
 20
151.1484464984901
 10
169.5516092638416
 20
151.1445992329151
  0
ARC
  5
358
330
23
100
AcDbEntity
  8
sanindusa
100
AcDbCircle
 10
169.261801418107
 20
151.1341375525966
 30
0.0
 40
0.2900000000000001
100
AcDbArc
 50
2.853614755005522
 51
27.09285335825716
  0
LWPOLYLINE
  5
359
330
23
100
AcDbEntity
  8
sanindusa
100
AcDbPolyline
 90
        3
 70
   128
 43
0.0
 10
169.3555489523139
 20
151.2285139221383
 10
169.3548407113133
 20
151.2276859896783
 10
169.3540332423502
 20
151.2272006559437
  0
ARC
  5
35A
330
23
100
AcDbEntity
  8
sanindusa
100
AcDbCircle
 10
169.3489185504417
 20
151.1980152788418
 30
0.0
 40
0.0296301588011625
100
AcDbArc
 50
80.06020900543539
 51
97.67916480500105
  0
ARC
  5
35D
330
23
100
AcDbEntity
  8
sanindusa
100
AcDbCircle
 10
169.1746842857723
 20
151.1980152788411
 30
0.0
 40
0.0296301588018786
100
AcDbArc
 50
82.3208351966128
 51
99.9397909929606
  0
LWPOLYLINE
  5
35E
330
23
100
AcDbEntity
  8
sanindusa
100
AcDbPolyline
 90
        3
 70
   128
 43
0.0
 10
169.1680538839
 20
151.2285139221383
 10
169.1687621249007
 20
151.2276859896783
 10
169.1695695938637
 20
151.2272006559437
  0
ARC
  5
35F
330
23
100
AcDbEntity
  8
sanindusa
100
AcDbCircle
 10
169.2617862215745
 20
151.8942302898783
 30
0.0
 40
0.6720174398206748
100
AcDbArc
 50
270.0012785483776
 51
277.1095049585236
  0
ARC
  5
361
330
23
100
AcDbEntity
  8
sanindusa
100
AcDbCircle
 10
169.2618166146395
 20
151.8942302898782
 30
0.0
 40
0.6720174398206337
100
AcDbArc
 50
262.8904950414764
 51
269.9987214516224
  0
ARC
  5
362
330
23
100
AcDbEntity
  8
sanindusa
100
AcDbCircle
 10
169.1801506634395
 20
151.1959422636129
 30
0.0
 40
0.0330006988483333
100
AcDbArc
 50
108.7011306229771
 51
122.4353034367265
  0
ARC
  5
365
330
23
100
AcDbEntity
  8
sanindusa
100
AcDbCircle
 10
169.3434521727743
 20
151.1959422636125
 30
0.0
 40
0.0330006988487591
100
AcDbArc
 50
57.56469656327347
 51
71.29886937702289
  0
ARC
  5
368
330
23
100
AcDbEntity
  8
sanindusa
100
AcDbCircle
 10
169.2617649159564
 20
151.1342914474339
 30
0.0
 40
0.2898001262328373
100
AcDbArc
 50
180.2558791954111
 51
270.007216763881
  0
ARC
  5
36D
330
23
100
AcDbEntity
  8
sanindusa
100
AcDbCircle
 10
169.2618357896349
 20
151.1342935878627
 30
0.0
 40
0.2898022664010828
100
AcDbArc
 50
269.9932045276116
 51
359.7436995137788
  0
ARC
  5
372
330
23
100
AcDbEntity
  8
sanindusa
100
AcDbCircle
 10
169.0574160041957
 20
151.402854010387
 30
0.0
 40
0.2075922123209856
100
AcDbArc
 50
296.4444951959728
 51
300.3955735681881
  0
ARC
  5
374
330
23
100
AcDbEntity
  8
sanindusa
100
AcDbCircle
 10
169.4661868320179
 20
151.4028540103862
 30
0.0
 40
0.2075922123201005
100
AcDbArc
 50
239.604426431812
 51
243.5555048040272
  0
ARC
  5
377
330
23
100
AcDbEntity
  8
sanindusa
100
AcDbCircle
 10
169.6935588437771
 20
151.1373106818168
 30
0.0
 40
0.7216040562626846
100
AcDbArc
 50
179.4285709680125
 51
180.342493135604
  0
ARC
  5
378
330
23
100
AcDbEntity
  8
sanindusa
100
AcDbCircle
 10
168.8300439924315
 20
151.1373106818168
 30
0.0
 40
0.7216040562680364
100
AcDbArc
 50
359.6575068643959
 51
0.5714290319874405
  0
ARC
  5
37A
330
23
100
AcDbEntity
  8
sanindusa
100
AcDbCircle
 10
169.3312495712422
 20
151.1797839101906
 30
0.0
 40
0.0301415732526493
100
AcDbArc
 50
64.32724610835656
 51
96.09327277705894
  0
ARC
  5
37B
330
23
100
AcDbEntity
  8
sanindusa
100
AcDbCircle
 10
168.8729589145591
 20
151.6632962359033
 30
0.0
 40
0.6425009600681273
100
AcDbArc
 50
315.0977492083706
 51
317.2761248715453
  0
ARC
  5
37D
330
23
100
AcDbEntity
  8
sanindusa
100
AcDbCircle
 10
169.6506439216551
 20
151.6632962359035
 30
0.0
 40
0.6425009600683262
100
AcDbArc
 50
222.7238751284548
 51
224.9022507916293
  0
ARC
  5
37E
330
23
100
AcDbEntity
  8
sanindusa
100
AcDbCircle
 10
169.1923532649718
 20
151.1797839101907
 30
0.0
 40
0.0301415732526024
100
AcDbArc
 50
83.90672722294107
 51
115.6727538916434
  0
ARC
  5
380
330
23
100
AcDbEntity
  8
sanindusa
100
AcDbCircle
 10
169.261801418107
 20
151.7156936163651
 30
0.0
 40
0.5102573627016899
100
AcDbArc
 50
262.5400055846374
 51
277.4599944153626
  0
ARC
  5
381
330
23
100
AcDbEntity
  8
sanindusa
100
AcDbCircle
 10
169.2598113866739
 20
151.2627428091986
 30
0.0
 40
0.0463574579969052
100
AcDbArc
 50
255.6485116180689
 51
272.4603473926364
  0
LWPOLYLINE
  5
382
330
23
100
AcDbEntity
  8
sanindusa
100
AcDbPolyline
 90
       16
 70
   128
 43
0.0
 10
169.2483035414647
 20
151.2193012046369
 10
169.2487442673807
 20
151.2194515707131
 10
169.2499974227119
 20
151.2197212054792
 10
169.2515828685167
 20
151.2199549405576
 10
169.2534610904267
 20
151.2201478477083
 10
169.2555740098612
 20
151.2202970070058
 10
169.2578653777638
 20
151.2203995460275
 10
169.2602674612034
 20
151.2204545065648
 10
169.261801418107
 20
151.2204641048281
 10
169.265133015163
 20
151.2204182590506
 10
169.2674577830969
 20
151.2203275525794
 10
169.2696234494208
 20
151.2201903061848
 10
169.2715650900942
 20
151.2200081208408
 10
169.273231949411
 20
151.2197845800134
 10
169.274571895374
 20
151.2195233910602
 10
169.2752514723371
 20
151.2193202855878
  0
LWPOLYLINE
  5
384
330
23
100
AcDbEntity
  8
sanindusa
100
AcDbPolyline
 90
        3
 70
   128
 43
0.0
 10
169.5396405042952
 20
151.1398796511529
 10
169.528788049341
 20
151.1440622302102
 10
169.5180266599434
 20
151.1484958768835
  0
LWPOLYLINE
  5
385
330
23
100
AcDbEntity
  8
sanindusa
100
AcDbPolyline
 90
        5
 70
   128
 43
0.0
 10
169.5180267010537
 20
151.1484959842316
 10
169.5119829528871
 20
151.1509021168967
 10
169.505873257799
 20
151.1531188922811
 10
169.4983565403309
 20
151.155759012508
 10
169.4909942933084
 20
151.1585621723438
  0
LINE
  5
386
330
23
100
AcDbEntity
  8
sanindusa
100
AcDbLine
 10
169.3737396584696
 20
151.216982961756
 30
0.0
 11
169.4909942933084
 21
151.1585621723438
 31
0.0
  0
LINE
  5
387
330
23
100
AcDbEntity
  8
sanindusa
100
AcDbLine
 10
169.1498631777444
 20
151.216982961756
 30
0.0
 11
169.0326085429056
 21
151.1585621723438
 31
0.0
  0
LWPOLYLINE
  5
388
330
23
100
AcDbEntity
  8
sanindusa
100
AcDbPolyline
 90
        5
 70
   128
 43
0.0
 10
169.0055761351603
 20
151.1484959842316
 10
169.0116198833269
 20
151.1509021168967
 10
169.017729578415
 20
151.1531188922811
 10
169.0252462958831
 20
151.155759012508
 10
169.0326085429056
 20
151.1585621723438
  0
LWPOLYLINE
  5
389
330
23
100
AcDbEntity
  8
sanindusa
100
AcDbPolyline
 90
        3
 70
   128
 43
0.0
 10
168.9839623319188
 20
151.1398796511529
 10
168.994814786873
 20
151.1440622302102
 10
169.0055761762706
 20
151.1484958768835
  0
ARC
  5
38F
330
23
100
AcDbEntity
  8
sanindusa
100
AcDbCircle
 10
169.4693027813354
 20
151.0896162511344
 30
0.0
 40
0.0722776711239333
100
AcDbArc
 50
72.53557376100366
 51
81.87901005957746
  0
LWPOLYLINE
  5
390
330
23
100
AcDbEntity
  8
sanindusa
100
AcDbPolyline
 90
       15
 70
   128
 43
0.0
 10
169.4795141799233
 20
151.1611683516389
 10
169.4729634448495
 20
151.1621085178637
 10
169.4658748917144
 20
151.1634121042828
 10
169.4582964846228
 20
151.1650692551702
 10
169.4499107306074
 20
151.1671649787473
 10
169.4410552303557
 20
151.1696264969264
 10
169.4317938629924
 20
151.1724339499983
 10
169.4199570853503
 20
151.1763229536554
 10
169.4076508213993
 20
151.1806760660361
 10
169.3946339717786
 20
151.1855837837627
 10
169.3813050136724
 20
151.1908961289867
 10
169.3721901958189
 20
151.1946819092937
 10
169.3629981340917
 20
151.1986162839761
 10
169.3536699145458
 20
151.2027217348488
 10
169.3443078213752
 20
151.2069500019524
  0
LWPOLYLINE
  5
391
330
23
100
AcDbEntity
  8
sanindusa
100
AcDbPolyline
 90
       15
 70
   128
 43
0.0
 10
169.0440886562906
 20
151.1611683516389
 10
169.0506393913644
 20
151.1621085178637
 10
169.0577279444996
 20
151.1634121042828
 10
169.0653063515912
 20
151.1650692551702
 10
169.0736921056066
 20
151.1671649787473
 10
169.0825476058582
 20
151.1696264969264
 10
169.0918089732215
 20
151.1724339499983
 10
169.1036457508637
 20
151.1763229536554
 10
169.1159520148147
 20
151.1806760660361
 10
169.1289688644355
 20
151.1855837837627
 10
169.1422978225416
 20
151.1908961289867
 10
169.1514126403951
 20
151.1946819092937
 10
169.1606047021223
 20
151.1986162839761
 10
169.1699329216682
 20
151.2027217348488
 10
169.1792950148388
 20
151.2069500019524
  0
ARC
  5
392
330
23
100
AcDbEntity
  8
sanindusa
100
AcDbCircle
 10
169.0543000548785
 20
151.0896162511345
 30
0.0
 40
0.0722776711238347
100
AcDbArc
 50
98.12098994042255
 51
107.4644262389963
  0
LWPOLYLINE
  5
393
330
23
100
AcDbEntity
  8
sanindusa
100
AcDbPolyline
 90
       10
 70
   128
 43
0.0
 10
169.5516121610755
 20
151.1445073492652
 10
169.55139941836
 20
151.1436445851312
 10
169.5508145195572
 20
151.1428055270685
 10
169.5498797187098
 20
151.1420220992902
 10
169.5486305828217
 20
151.1413241094061
 10
169.5471146386164
 20
151.1407381143123
 10
169.5453895642543
 20
151.140286409763
 10
169.5435209948139
 20
151.1399861820684
 10
169.5415800250281
 20
151.1398488541961
 10
169.5396405042952
 20
151.1398796511529
  0
LWPOLYLINE
  5
394
330
23
100
AcDbEntity
  8
sanindusa
100
AcDbPolyline
 90
       10
 70
   128
 43
0.0
 10
168.9719906751385
 20
151.1445073492652
 10
168.972203417854
 20
151.1436445851312
 10
168.9727883166568
 20
151.1428055270685
 10
168.9737231175042
 20
151.1420220992902
 10
168.9749722533922
 20
151.1413241094061
 10
168.9764881975976
 20
151.1407381143123
 10
168.9782132719597
 20
151.140286409763
 10
168.9800818414001
 20
151.1399861820684
 10
168.9820228111859
 20
151.1398488541961
 10
168.9839623319188
 20
151.1398796511529
  0
ARC
  5
39A
330
23
100
AcDbEntity
  8
sanindusa
100
AcDbCircle
 10
169.0525603799058
 20
151.1492477498585
 30
0.0
 40
0.0146243238414186
100
AcDbArc
 50
125.4006159712131
 51
178.0973819912721
  0
ARC
  5
39C
330
23
100
AcDbEntity
  8
sanindusa
100
AcDbCircle
 10
169.4710424563082
 20
151.1492477498585
 30
0.0
 40
0.0146243238413953
100
AcDbArc
 50
1.902618008727855
 51
54.59938402878688
  0
LWPOLYLINE
  5
3A0
330
23
100
AcDbEntity
  8
sanindusa
100
AcDbPolyline
 90
       47
 70
   128
 43
0.0
 10
169.4856599441834
 20
151.1497327664869
 10
169.4871866174945
 20
151.1355596895779
 10
169.4878357112896
 20
151.1217122979157
 10
169.4876771395803
 20
151.1082418794452
 10
169.4867834714673
 20
151.0952194085139
 10
169.4850968198764
 20
151.081854993948
 10
169.484662550081
 20
151.0791716704165
 10
169.4841926280238
 20
151.0764703492311
 10
169.4836862727348
 20
151.0737515376281
 10
169.483142703514
 20
151.0710157634879
 10
169.4825611403913
 20
151.0682635756668
 10
169.4819408046014
 20
151.0654955443208
 10
169.4812809190739
 20
151.0627122612247
 10
169.4805807089383
 20
151.0599143400846
 10
169.4781450536755
 20
151.0511492489582
 10
169.4750626168398
 20
151.0416047093261
 10
169.4712209743003
 20
151.0313350119911
 10
169.4665013826289
 20
151.0204090029317
 10
169.4633629941421
 20
151.0139030987695
 10
169.4598743453133
 20
151.0072292067055
 10
169.4560119729191
 20
151.000408192389
 10
169.4517525245358
 20
150.9934632139744
 10
169.4470729615131
 20
150.9864198437925
 10
169.4419507824275
 20
150.9793061807884
 10
169.4363642675902
 20
150.9721529511903
 10
169.4276918536661
 20
150.9621051378577
 10
169.418969450018
 20
150.9530889256857
 10
169.4103120620535
 20
150.9450494876264
 10
169.4018221863457
 20
150.9379265531817
 10
169.3935903224842
 20
150.9316563906101
 10
169.3862100328576
 20
150.92651591238
 10
169.379179617498
 20
150.9220079366903
 10
169.372547720335
 20
150.9180799411074
 10
169.3644739134776
 20
150.9136971742012
 10
169.363477810114
 20
150.9131856219997
 10
169.3624964084071
 20
150.9126877401725
 10
169.3615298616829
 20
150.9122032945717
 10
169.3605783186882
 20
150.9117320540148
 10
169.3596419236823
 20
150.9112737903587
 10
169.3587208165273
 20
150.9108282785707
 10
169.346368486929
 20
150.9053398241871
 10
169.3339726228003
 20
150.9006942780012
 10
169.3215949417045
 20
150.8968625655316
 10
169.309292343328
 20
150.893812070845
 10
169.2930949277046
 20
150.8908981083605
 10
169.2772329547214
 20
150.889218616785
 10
169.261801418107
 20
150.8886772286843
  0
LWPOLYLINE
  5
3A2
330
23
100
AcDbEntity
  8
sanindusa
100
AcDbPolyline
 90
       47
 70
   128
 43
0.0
 10
169.0379428920306
 20
151.1497327664869
 10
169.0364162187195
 20
151.1355596895779
 10
169.0357671249243
 20
151.1217122979157
 10
169.0359256966337
 20
151.1082418794452
 10
169.0368193647467
 20
151.0952194085139
 10
169.0385060163376
 20
151.081854993948
 10
169.038940286133
 20
151.0791716704165
 10
169.0394102081902
 20
151.0764703492311
 10
169.0399165634792
 20
151.0737515376281
 10
169.0404601327
 20
151.0710157634879
 10
169.0410416958227
 20
151.0682635756668
 10
169.0416620316125
 20
151.0654955443208
 10
169.0423219171401
 20
151.0627122612247
 10
169.0430221272757
 20
151.0599143400846
 10
169.0454577825384
 20
151.0511492489582
 10
169.0485402193742
 20
151.0416047093261
 10
169.0523818619137
 20
151.0313350119911
 10
169.0571014535851
 20
151.0204090029317
 10
169.0602398420719
 20
151.0139030987695
 10
169.0637284909007
 20
151.0072292067055
 10
169.0675908632949
 20
151.000408192389
 10
169.0718503116782
 20
150.9934632139744
 10
169.0765298747009
 20
150.9864198437925
 10
169.0816520537865
 20
150.9793061807884
 10
169.0872385686238
 20
150.9721529511903
 10
169.0959109825478
 20
150.9621051378577
 10
169.104633386196
 20
150.9530889256857
 10
169.1132907741605
 20
150.9450494876264
 10
169.1217806498683
 20
150.9379265531817
 10
169.1300125137298
 20
150.9316563906101
 10
169.1373928033565
 20
150.92651591238
 10
169.144423218716
 20
150.9220079366903
 10
169.151055115879
 20
150.9180799411074
 10
169.1591289227364
 20
150.9136971742012
 10
169.1601250261
 20
150.9131856219997
 10
169.1611064278068
 20
150.9126877401725
 10
169.1620729745311
 20
150.9122032945717
 10
169.1630245175258
 20
150.9117320540148
 10
169.1639609125316
 20
150.9112737903587
 10
169.1648820196867
 20
150.9108282785707
 10
169.177234349285
 20
150.9053398241871
 10
169.1896302134137
 20
150.9006942780012
 10
169.2020078945095
 20
150.8968625655316
 10
169.214310492886
 20
150.893812070845
 10
169.2305079085094
 20
150.8908981083605
 10
169.2463698814926
 20
150.889218616785
 10
169.261801418107
 20
150.8886772286843
  0
LWPOLYLINE
  5
3A8
330
23
100
AcDbEntity
  8
sanindusa
100
AcDbPolyline
 90
       30
 70
   128
 43
0.0
 10
169.2349349687247
 20
151.1057886238909
 10
169.2305998434266
 20
151.1107749861883
 10
169.2270601621438
 20
151.1165783264002
 10
169.224613872312
 20
151.1226942036289
 10
169.2231780293427
 20
151.129313891579
 10
169.2228732775736
 20
151.1359052249066
 10
169.223699002416
 20
151.1426427040255
 10
169.2255798028358
 20
151.1489356808476
 10
169.2285759965845
 20
151.1549937322322
 10
169.2324062999092
 20
151.1602657696836
 10
169.237205110688
 20
151.1649506078298
 10
169.2425204572535
 20
151.1686209191903
 10
169.2485475022486
 20
151.1714249712705
 10
169.2549691531877
 20
151.1731584473596
 10
169.261801418107
 20
151.1737668828812
 10
169.2679206620169
 20
151.173279574063
 10
169.2740399059267
 20
151.1717793380519
 10
169.2792608446042
 20
151.16960317482
 10
169.2842121724488
 20
151.1666192538566
 10
169.2891147814967
 20
151.1624979275917
 10
169.2933839918475
 20
151.1574838661639
 10
169.2966953991255
 20
151.151947198186
 10
169.2991115303908
 20
151.1457699113855
 10
169.3004480370319
 20
151.1393938187343
 10
169.3007179562988
 20
151.1327005244717
 10
169.2998894178078
 20
151.1261710670881
 10
169.2979333232161
 20
151.1196905877321
 10
169.2949813616068
 20
151.1137416598745
 10
169.2909604377863
 20
151.1082165230639
 10
169.2886678674893
 20
151.1057886238909
  0
ARC
  5
3B0
330
23
100
AcDbEntity
  8
sanindusa
100
AcDbCircle
 10
169.261801418107
 20
151.1341375525966
 30
0.0
 40
0.0390572382686042
100
AcDbArc
 50
226.5379665956926
 51
313.4620334043074
  0
CIRCLE
  5
3B1
330
23
100
AcDbEntity
  8
sanindusa
100
AcDbCircle
 10
169.261801418107
 20
151.1341375525966
 30
0.0
 40
0.0235000000000001
  0
LWPOLYLINE
  5
3B2
330
23
100
AcDbEntity
  8
sanindusa
100
AcDbPolyline
 90
        6
 70
   128
 43
0.0
 10
169.2483207769617
 20
151.2178320109383
 10
169.2476358383753
 20
151.2181461954552
 10
169.2473022928174
 20
151.2184898357802
 10
169.247377275154
 20
151.2188281498987
 10
169.2478644772312
 20
151.2191514054906
 10
169.2483035414647
 20
151.2193012046369
  0
LWPOLYLINE
  5
3B3
330
23
100
AcDbEntity
  8
sanindusa
100
AcDbPolyline
 90
       13
 70
   128
 43
0.0
 10
169.2752514723371
 20
151.2193202855878
 10
169.2755520661888
 20
151.2192304469683
 10
169.2761389402681
 20
151.218912138701
 10
169.2763217032743
 20
151.2185768242562
 10
169.2760894195762
 20
151.2182335207084
 10
169.2754545872584
 20
151.2178925053725
 10
169.2744294915256
 20
151.2175644762156
 10
169.2730488505975
 20
151.2172602932438
 10
169.2713461588893
 20
151.2169907745235
 10
169.2693748480586
 20
151.2167653294346
 10
169.2666124277936
 20
151.2165586185397
 10
169.2642412986083
 20
151.2164612969954
 10
169.261801418107
 20
151.2164280849002
  0
ARC
  5
3B6
330
23
100
AcDbEntity
  8
sanindusa
100
AcDbCircle
 10
170.912510919942
 20
151.1646784797583
 30
0.0
 40
0.005
100
AcDbArc
 50
270.0
 51
338.3244097239267
  0
LWPOLYLINE
  5
3B7
330
23
100
AcDbEntity
  8
sanindusa
100
AcDbPolyline
 90
       49
 70
   128
 43
0.0
 10
170.9075684472448
 20
151.1701947051224
 10
170.9075245282352
 20
151.1701949648843
 10
170.9072017246274
 20
151.1701968841212
 10
170.9065635825188
 20
151.1702006824717
 10
170.9056103879818
 20
151.1702063592882
 10
170.9043417183425
 20
151.1702139195164
 10
170.9027762160843
 20
151.1702232499954
 10
170.9009017641583
 20
151.1702344033262
 10
170.8987110145081
 20
151.1702474019514
 10
170.8962057887858
 20
151.1702622130956
 10
170.8933887256509
 20
151.1702787986796
 10
170.8902633693332
 20
151.1702971149248
 10
170.8868341977298
 20
151.170317112333
 10
170.8831066308796
 20
151.1703387357923
 10
170.8790870203841
 20
151.1703619248045
 10
170.8747829131695
 20
151.1703866121498
 10
170.8702035433704
 20
151.1704127213192
 10
170.8653580247794
 20
151.1704401770525
 10
170.8602561394088
 20
151.1704689009286
 10
170.8549082379152
 20
151.1704988120784
 10
170.8493251306794
 20
151.1705298279318
 10
170.8435179726415
 20
151.1705618649789
 10
170.8374981450344
 20
151.1705948395235
 10
170.8312711249783
 20
151.1706286735271
 10
170.8248112606939
 20
151.1706634631102
 10
170.8180903616266
 20
151.1706993444403
 10
170.8111199766622
 20
151.1707362373815
 10
170.8039111023948
 20
151.1707740651646
 10
170.7964757556877
 20
151.1708127460358
 10
170.7888269165754
 20
151.170852193718
 10
170.7809784562734
 20
151.1708923179474
 10
170.7729450457953
 20
151.1709330251047
 10
170.7647420469064
 20
151.1709742189275
 10
170.7563871182307
 20
151.1710157927164
 10
170.7478974184691
 20
151.1710576436116
 10
170.7392896174188
 20
151.171099672469
 10
170.7305804537537
 20
151.1711417811194
 10
170.7217865859062
 20
151.1711838731672
 10
170.7129244479996
 20
151.1712258547347
 10
170.7040101146044
 20
151.1712676351337
 10
170.6950591510397
 20
151.1713091310234
 10
170.6860387555732
 20
151.1713505176532
 10
170.6768165022741
 20
151.1713924028164
 10
170.6675309682511
 20
151.1714341499564
 10
170.658194460992
 20
151.1714757055163
 10
170.6488194789915
 20
151.1715170157353
 10
170.6394189483607
 20
151.1715580256401
 10
170.6300056899988
 20
151.171598681412
 10
170.6286477642635
 20
151.1716044875841
  0
ARC
  5
3B8
330
23
100
AcDbEntity
  8
sanindusa
100
AcDbCircle
 10
170.6285013185458
 20
151.1862540811046
 30
0.0
 40
0.0146320552251662
100
AcDbArc
 50
242.8154785036293
 51
270.6068556722017
  0
ARC
  5
3B9
330
23
100
AcDbEntity
  8
sanindusa
100
AcDbCircle
 10
170.6173808252132
 20
151.1642357591899
 30
0.0
 40
0.0100000000000008
100
AcDbArc
 50
63.78303223597599
 51
83.35773809086118
  0
LWPOLYLINE
  5
3BA
330
23
100
AcDbEntity
  8
sanindusa
100
AcDbPolyline
 90
        4
 70
   128
 43
0.0
 10
170.518873381665
 20
151.1851249131997
 10
170.5135791392525
 20
151.1856687560969
 10
170.5050667860739
 20
151.1865312059817
 10
170.5009833691826
 20
151.1869405451746
  0
ARC
  5
3BB
330
23
100
AcDbEntity
  8
sanindusa
100
AcDbCircle
 10
170.0240985795347
 20
146.3520877086814
 30
0.0
 40
4.858297101359866
100
AcDbArc
 50
83.93710131440426
 51
84.1547952130133
  0
LWPOLYLINE
  5
3BC
330
23
100
AcDbEntity
  8
sanindusa
100
AcDbPolyline
 90
        4
 70
   128
 43
0.0
 10
170.5560645671889
 20
151.1811946141242
 10
170.5488275293138
 20
151.1819761622136
 10
170.53985506846
 20
151.1829337047058
 10
170.5372327715639
 20
151.1832101482447
  0
LWPOLYLINE
  5
3BD
330
23
100
AcDbEntity
  8
sanindusa
100
AcDbPolyline
 90
        4
 70
   128
 43
0.0
 10
170.5749687993991
 20
151.1791220064742
 10
170.5670332936059
 20
151.1799986495924
 10
170.5578903154881
 20
151.1809974464267
 10
170.5560645671889
 20
151.1811946141242
  0
LWPOLYLINE
  5
3BE
330
23
100
AcDbEntity
  8
sanindusa
100
AcDbPolyline
 90
        3
 70
   128
 43
0.0
 10
170.5009833691826
 20
151.1869405451746
 10
170.5005250768568
 20
151.1869860665727
 10
170.4991859711667
 20
151.187115974871
  0
LWPOLYLINE
  5
3BF
330
23
100
AcDbEntity
  8
sanindusa
100
AcDbPolyline
 90
        3
 70
   128
 43
0.0
 10
170.4991863895492
 20
151.187116378418
 10
170.4991785801965
 20
151.1871166842556
 10
170.4987387269806
 20
151.1871994775307
  0
ARC
  5
3C0
330
23
100
AcDbEntity
  8
sanindusa
100
AcDbCircle
 10
170.8886287241105
 20
151.1546784797583
 30
0.0
 40
0.005
100
AcDbArc
 50
90.0
 51
151.6373560250551
  0
ARC
  5
3C1
330
23
100
AcDbEntity
  8
sanindusa
100
AcDbCircle
 10
170.672510919942
 20
151.2713509046126
 30
0.0
 40
0.2406000000000002
100
AcDbArc
 50
270.2408350552244
 51
331.6373560250551
  0
ARC
  5
3C2
330
23
100
AcDbEntity
  8
sanindusa
100
AcDbCircle
 10
170.5025353017091
 20
151.1546784805825
 30
0.0
 40
0.005000000124519
100
AcDbArc
 50
15.62503502130062
 51
52.16034629467364
  0
LWPOLYLINE
  5
3C3
330
23
100
AcDbEntity
  8
sanindusa
100
AcDbPolyline
 90
       26
 70
   128
 43
0.0
 10
170.5073585450208
 20
151.1560163977045
 10
170.509125583438
 20
151.1499150511734
 10
170.5111600268554
 20
151.1431376175126
 10
170.5132123121652
 20
151.1365289421811
 10
170.5152726080032
 20
151.1301052558581
 10
170.517331282344
 20
151.1238815268963
 10
170.5193789224222
 20
151.1178716022116
 10
170.5214064629977
 20
151.1120880031693
 10
170.5234053118004
 20
151.1065417480067
 10
170.5253674716533
 20
151.1012421993777
 10
170.5272849125105
 20
151.0961984962426
 10
170.5291211169828
 20
151.0914878864715
 10
170.5309241458975
 20
151.0869717419433
 10
170.5326807404215
 20
151.0826740456713
 10
170.5343777889139
 20
151.0786175164215
 10
170.5360023555842
 20
151.0748237073159
 10
170.537543093907
 20
151.0713086373224
 10
170.5389845101436
 20
151.0680953028705
 10
170.5403739581102
 20
151.065070050993
 10
170.5416799964802
 20
151.0622951039571
 10
170.5429023911142
 20
151.0597629144689
 10
170.5438865548528
 20
151.0577732100914
 10
170.5448189725395
 20
151.0559265960143
 10
170.545768453968
 20
151.0540886368734
 10
170.5466221353559
 20
151.0524789270668
 10
170.5467452900847
 20
151.0522534770124
  0
ARC
  5
3C5
330
23
100
AcDbEntity
  8
sanindusa
100
AcDbCircle
 10
170.6735647158368
 20
151.0207531202764
 30
0.0
 40
0.0100000001214282
100
AcDbArc
 50
90.01360285368368
 51
177.9821898883185
  0
LINE
  5
3C6
330
23
100
AcDbEntity
  8
sanindusa
100
AcDbLine
 10
170.6625446219942
 20
150.9917160051159
 30
0.0
 11
170.6635708075722
 21
151.0211021152434
 31
0.0
  0
ARC
  5
3C7
330
23
100
AcDbEntity
  8
sanindusa
100
AcDbCircle
 10
170.5934766087168
 20
150.9917509046126
 30
0.0
 40
0.0010000000000002
100
AcDbArc
 50
184.9313025076053
 51
270.0
  0
ARC
  5
3C8
330
23
100
AcDbEntity
  8
sanindusa
100
AcDbCircle
 10
170.6615452311672
 20
150.9917509046126
 30
0.0
 40
0.0010000000000001
100
AcDbArc
 50
270.0
 51
357.9999999995013
  0
ARC
  5
3C9
330
23
100
AcDbEntity
  8
sanindusa
100
AcDbCircle
 10
170.5874990555031
 20
150.9912323899698
 30
0.0
 40
0.0050000001465533
100
AcDbArc
 50
4.937864960273289
 51
84.99999779234464
  0
LINE
  5
3CE
330
23
100
AcDbEntity
  8
sanindusa
100
AcDbLine
 10
170.912510919942
 20
151.1596784797583
 30
0.0
 11
170.4977122683383
 21
151.1596784797583
 31
0.0
  0
LWPOLYLINE
  5
3CF
330
23
100
AcDbEntity
  8
sanindusa
100
AcDbPolyline
 90
        9
 70
   128
 43
0.0
 10
170.4954350990119
 20
151.1646784797583
 10
170.495478854182
 20
151.1637030281482
 10
170.4956084382056
 20
151.1627650625965
 10
170.4958188712413
 20
151.1619006285932
 10
170.4961020664657
 20
151.1611429458524
 10
170.496447140845
 20
151.1605211316968
 10
170.4968408333644
 20
151.1600590820958
 10
170.4972680146411
 20
151.1597745533563
 10
170.4977122683383
 20
151.1596784797583
  0
ARC
  5
3D2
330
23
100
AcDbEntity
  8
sanindusa
100
AcDbCircle
 10
170.907510919942
 20
151.1601948341265
 30
0.0
 40
0.0100000000000001
100
AcDbArc
 50
15.28577318316457
 51
89.68848516175247
  0
ELLIPSE
  5
3D4
330
23
100
AcDbEntity
  8
sanindusa
100
AcDbEllipse
 10
170.6286792784706
 20
151.1632188273398
 30
0.0
 11
0.2799977032971071
 21
-0.0329988705577327
 31
0.0
210
0.0
220
0.0
230
0.9999999999999998
 40
0.0343673824585725
 41
1.611033447653333
 42
1.767598821998419
  0
LINE
  5
3D6
330
23
100
AcDbEntity
  8
sanindusa
100
AcDbLine
 10
170.4954350990119
 20
151.1769900627673
 30
0.0
 11
170.4954350990119
 21
151.1646784797583
 31
0.0
  0
ARC
  5
3D9
330
23
100
AcDbEntity
  8
sanindusa
100
AcDbCircle
 10
170.4884136556201
 20
151.1643196912217
 30
0.0
 40
0.0046606220118149
100
AcDbArc
 50
175.5848322342086
 51
264.7689913719645
  0
LINE
  5
3DA
330
23
100
AcDbEntity
  8
sanindusa
100
AcDbLine
 10
170.4977122683383
 20
151.1596784797583
 30
0.0
 11
170.4879887395238
 21
151.1596784797583
 31
0.0
  0
LINE
  5
3DD
330
23
100
AcDbEntity
  8
sanindusa
100
AcDbLine
 10
170.4837668644345
 20
151.1646784797583
 30
0.0
 11
170.4837668644345
 21
151.1783903301768
 31
0.0
  0
ARC
  5
3E0
330
23
100
AcDbEntity
  8
sanindusa
100
AcDbCircle
 10
170.494012601326
 20
151.1787297887749
 30
0.0
 40
0.0095535610554951
100
AcDbArc
 50
67.88840422043363
 51
86.53093325278288
  0
LWPOLYLINE
  5
3E1
330
23
100
AcDbEntity
  8
sanindusa
100
AcDbPolyline
 90
        9
 70
   128
 43
0.0
 10
170.4837668644345
 20
151.1783903301768
 10
170.4839736836933
 20
151.1804013366889
 10
170.4845173958577
 20
151.1823300924413
 10
170.4853757629398
 20
151.1840977107542
 10
170.4865136774724
 20
151.1856318955171
 10
170.4878845984154
 20
151.1868698981204
 10
170.4894324546977
 20
151.1877610838922
 10
170.4910939385404
 20
151.1882690030714
 10
170.4928010947641
 20
151.1883728816137
  0
LINE
  5
3E2
330
23
100
AcDbEntity
  8
sanindusa
100
AcDbLine
 10
170.4928010947641
 20
151.1883728816137
 30
0.0
 11
170.4945906839671
 21
151.1882658440024
 31
0.0
  0
ARC
  5
3E5
330
23
100
AcDbEntity
  8
sanindusa
100
AcDbCircle
 10
170.412325964804
 20
149.8278747805056
 30
0.0
 40
1.362876124106903
100
AcDbArc
 50
86.61482883853393
 51
89.40189336795286
  0
LINE
  5
3E8
330
23
100
AcDbEntity
  8
sanindusa
100
AcDbLine
 10
170.4879887395238
 20
151.1596784797583
 30
0.0
 11
170.427510919942
 21
151.1596784797583
 31
0.0
  0
ARC
  5
3EB
330
23
100
AcDbEntity
  8
sanindusa
100
AcDbCircle
 10
170.5251779209799
 20
151.1773295981724
 30
0.0
 40
0.0087176091851159
100
AcDbArc
 50
48.50638894974572
 51
87.50044966403116
  0
ARC
  5
3EC
330
23
100
AcDbEntity
  8
sanindusa
100
AcDbCircle
 10
170.4123259648037
 20
149.8278747805012
 30
0.0
 40
1.362876124111375
100
AcDbArc
 50
85.23418811780876
 51
86.539459436175
  0
LWPOLYLINE
  5
3ED
330
23
100
AcDbEntity
  8
sanindusa
100
AcDbPolyline
 90
        8
 70
   128
 43
0.0
 10
170.6592717572901
 20
151.0308526599633
 10
170.6594952115258
 20
151.030849839663
 10
170.6645239376995
 20
151.0308006957534
 10
170.6686388204925
 20
151.0307717993409
 10
170.6714980577105
 20
151.0307585886143
 10
170.6731611459553
 20
151.0307537796222
 10
170.6735226649286
 20
151.0307530318621
 10
170.6735226590386
 20
151.0307530318742
  0
ARC
  5
3EE
330
23
100
AcDbEntity
  8
sanindusa
100
AcDbCircle
 10
170.621703637772
 20
151.2990982428951
 30
0.0
 40
0.2679226031582773
100
AcDbArc
 50
258.3226787924151
 51
265.1551439056941
  0
LWPOLYLINE
  5
3F0
330
23
100
AcDbEntity
  8
sanindusa
100
AcDbPolyline
 90
        3
 70
   128
 43
0.0
 10
170.5055770908935
 20
151.1585892608605
 10
170.5047347296521
 20
151.1592130487368
 10
170.5032494804359
 20
151.1596784797583
  0
ARC
  5
3F1
330
23
100
AcDbEntity
  8
sanindusa
100
AcDbCircle
 10
170.5728299794097
 20
151.0658262371404
 30
0.0
 40
0.0293219425895081
100
AcDbArc
 50
207.4957904983929
 51
241.6837314086627
  0
LINE
  5
3F3
330
23
100
AcDbEntity
  8
sanindusa
100
AcDbLine
 10
170.422510919942
 20
151.1806139269323
 30
0.0
 11
170.422510919942
 21
151.1866768660632
 31
0.0
  0
ARC
  5
3F4
330
23
100
AcDbEntity
  8
sanindusa
100
AcDbCircle
 10
170.426510919942
 20
151.1866768660632
 30
0.0
 40
0.0040000000000001
100
AcDbArc
 50
89.40189336795286
 51
180.0
  0
ARC
  5
3F5
330
23
100
AcDbEntity
  8
sanindusa
100
AcDbCircle
 10
170.427510919942
 20
151.1646784797583
 30
0.0
 40
0.005
100
AcDbArc
 50
180.0
 51
270.0
  0
LINE
  5
3F7
330
23
100
AcDbEntity
  8
sanindusa
100
AcDbLine
 10
170.422510919942
 20
151.1646784797583
 30
0.0
 11
170.422510919942
 21
151.1806139269323
 31
0.0
  0
ARC
  5
3FB
330
23
100
AcDbEntity
  8
sanindusa
100
AcDbCircle
 10
170.5738359503697
 20
151.0672404038946
 30
0.0
 40
0.0360172926040375
100
AcDbArc
 50
188.0340359194675
 51
257.9296672510861
  0
LINE
  5
3FE
330
23
100
AcDbEntity
  8
sanindusa
100
AcDbLine
 10
170.5343609481993
 20
151.0047905186814
 30
0.0
 11
170.51782917734
 21
151.1224201805109
 31
0.0
  0
LWPOLYLINE
  5
3FF
330
23
100
AcDbEntity
  8
sanindusa
100
AcDbPolyline
 90
        3
 70
   128
 43
0.0
 10
170.5984841231691
 20
151.0273361330882
 10
170.5823515065807
 20
151.0291905084708
 10
170.5663042933728
 20
151.0320193944058
  0
LWPOLYLINE
  5
400
330
23
100
AcDbEntity
  8
sanindusa
100
AcDbPolyline
 90
        7
 70
   128
 43
0.0
 10
170.6055706476973
 20
151.0224027344199
 10
170.6054827501666
 20
151.0230763447801
 10
170.6050420606278
 20
151.0240768329144
 10
170.6040181942125
 20
151.0252227322546
 10
170.6021941073417
 20
151.0263647015785
 10
170.6004100945162
 20
151.0270028950563
 10
170.5984841231691
 20
151.0273361330882
  0
LINE
  5
401
330
23
100
AcDbEntity
  8
sanindusa
100
AcDbLine
 10
170.6057881214584
 20
150.9995112621758
 30
0.0
 11
170.6055706476973
 21
151.0224027344199
 31
0.0
  0
LINE
  5
407
330
23
100
AcDbEntity
  8
sanindusa
100
AcDbLine
 10
170.6615452311672
 20
150.9907509046126
 30
0.0
 11
170.5934766087174
 21
150.9907509046126
 31
0.0
  0
ARC
  5
409
330
23
100
AcDbEntity
  8
sanindusa
100
AcDbCircle
 10
170.539312288543
 20
151.0054863841862
 30
0.0
 40
0.0050000000000002
100
AcDbArc
 50
188.0000000001702
 51
264.9999999992679
  0
LWPOLYLINE
  5
40B
330
23
100
AcDbEntity
  8
sanindusa
100
AcDbPolyline
 90
        6
 70
   128
 43
0.0
 10
170.6006136243233
 20
150.9958202576773
 10
170.603230498604
 20
150.9966649441134
 10
170.6049534587378
 20
150.9977235961611
 10
170.605611831287
 20
150.9985534176066
 10
170.605781652562
 20
150.9990960631141
 10
170.6057881214584
 20
150.9995112621758
  0
LWPOLYLINE
  5
40C
330
23
100
AcDbEntity
  8
sanindusa
100
AcDbPolyline
 90
        3
 70
   128
 43
0.0
 10
170.5963793551816
 20
150.9954745636069
 10
170.5996216155606
 20
150.9956249054178
 10
170.6006136243233
 20
150.9958202576773
  0
LINE
  5
40D
330
23
100
AcDbEntity
  8
sanindusa
100
AcDbLine
 10
170.5963793551816
 20
150.9954745636069
 30
0.0
 11
170.5388765098293
 21
151.0005054106958
 31
0.0
  0
LWPOLYLINE
  5
414
330
23
100
AcDbEntity
  8
sanindusa
100
AcDbPolyline
 90
        9
 70
   128
 43
0.0
 10
170.4954350990119
 20
151.1769900627673
 10
170.4956941624046
 20
151.1790358876473
 10
170.4961363742234
 20
151.1809944795599
 10
170.4967428787738
 20
151.1827823251084
 10
170.4974878149997
 20
151.1843231914374
 10
170.4983394191866
 20
151.1855513767637
 10
170.4992613793505
 20
151.1864145118688
 10
170.5002143835631
 20
151.1868757930959
 10
170.5009835035347
 20
151.18694053175
  0
LINE
  5
416
330
23
100
AcDbEntity
  8
sanindusa
100
AcDbLine
 10
170.4976086741575
 20
151.1875807090114
 30
0.0
 11
170.4987387269806
 21
151.1871994775307
 31
0.0
  0
ARC
  5
419
330
23
100
AcDbEntity
  8
sanindusa
100
AcDbCircle
 10
170.707804784488
 20
154.7286512463402
 30
0.0
 40
3.698117066851668
100
AcDbArc
 50
268.3151884531493
 51
269.248045044774
  0
LWPOLYLINE
  5
41B
330
23
100
AcDbEntity
  8
sanindusa
100
AcDbPolyline
 90
        3
 70
   128
 43
0.0
 10
170.5589214621434
 20
151.04001287888
 10
170.5625439958105
 20
151.0382108391966
 10
170.567476187581
 20
151.036720833561
  0
LINE
  5
41E
330
23
100
AcDbEntity
  8
sanindusa
100
AcDbLine
 10
170.5381721595762
 20
151.0622065790299
 30
0.0
 11
170.5365410874589
 21
151.0735946340726
 31
0.0
  0
LWPOLYLINE
  5
425
330
23
100
AcDbEntity
  8
sanindusa
100
AcDbPolyline
 90
       49
 70
   128
 43
0.0
 10
171.5727331074012
 20
151.1701947051224
 10
171.5726891883917
 20
151.1701949648843
 10
171.5723663847839
 20
151.1701968841212
 10
171.5717282426752
 20
151.1702006824717
 10
171.5707750481382
 20
151.1702063592882
 10
171.5695063784989
 20
151.1702139195164
 10
171.5679408762407
 20
151.1702232499954
 10
171.5660664243147
 20
151.1702344033262
 10
171.5638756746646
 20
151.1702474019514
 10
171.5613704489422
 20
151.1702622130956
 10
171.5585533858073
 20
151.1702787986796
 10
171.5554280294896
 20
151.1702971149248
 10
171.5519988578863
 20
151.170317112333
 10
171.548271291036
 20
151.1703387357923
 10
171.5442516805406
 20
151.1703619248045
 10
171.539947573326
 20
151.1703866121498
 10
171.5353682035269
 20
151.1704127213192
 10
171.5305226849358
 20
151.1704401770525
 10
171.5254207995652
 20
151.1704689009286
 10
171.5200728980717
 20
151.1704988120784
 10
171.5144897908359
 20
151.1705298279318
 10
171.5086826327979
 20
151.1705618649789
 10
171.5026628051909
 20
151.1705948395235
 10
171.4964357851347
 20
151.1706286735271
 10
171.4899759208503
 20
151.1706634631102
 10
171.483255021783
 20
151.1706993444403
 10
171.4762846368187
 20
151.1707362373815
 10
171.4690757625513
 20
151.1707740651646
 10
171.4616404158441
 20
151.1708127460358
 10
171.4539915767319
 20
151.170852193718
 10
171.4461431164298
 20
151.1708923179474
 10
171.4381097059517
 20
151.1709330251047
 10
171.4299067070629
 20
151.1709742189275
 10
171.4215517783872
 20
151.1710157927164
 10
171.4130620786256
 20
151.1710576436116
 10
171.4044542775752
 20
151.171099672469
 10
171.3957451139101
 20
151.1711417811194
 10
171.3869512460626
 20
151.1711838731672
 10
171.378089108156
 20
151.1712258547347
 10
171.3691747747608
 20
151.1712676351337
 10
171.3602238111962
 20
151.1713091310234
 10
171.3512034157296
 20
151.1713505176532
 10
171.3419811624305
 20
151.1713924028164
 10
171.3326956284076
 20
151.1714341499564
 10
171.3233591211484
 20
151.1714757055163
 10
171.313984139148
 20
151.1715170157353
 10
171.3045836085172
 20
151.1715580256401
 10
171.2951703501553
 20
151.171598681412
 10
171.2938124244199
 20
151.1716044875841
  0
ARC
  5
42A
330
23
100
AcDbEntity
  8
sanindusa
100
AcDbCircle
 10
171.8649480708483
 20
151.3533885055074
 30
0.0
 40
0.7200055163247996
100
AcDbArc
 50
195.9099259581654
 51
198.7105188740326
  0
ARC
  5
42B
330
23
100
AcDbEntity
  8
sanindusa
100
AcDbCircle
 10
171.1675944142256
 20
151.1546298026561
 30
0.0
 40
0.0051147914716899
100
AcDbArc
 50
15.83172050564197
 51
80.77767297113167
  0
ARC
  5
42F
330
23
100
AcDbEntity
  8
sanindusa
100
AcDbCircle
 10
171.2938558041583
 20
151.1872285554614
 30
0.0
 40
0.0156241259848126
100
AcDbArc
 50
243.8270425015305
 51
269.841359320242
  0
ARC
  5
430
330
23
100
AcDbEntity
  8
sanindusa
100
AcDbCircle
 10
171.2826202516741
 20
151.1644284058021
 30
0.0
 40
0.0097940881364794
100
AcDbArc
 50
63.6703146817726
 51
83.58907602076692
  0
ARC
  5
431
330
23
100
AcDbEntity
  8
sanindusa
100
AcDbCircle
 10
171.5776755800984
 20
151.1646784797583
 30
0.0
 40
0.005
100
AcDbArc
 50
270.0
 51
338.3175555828689
  0
ARC
  5
432
330
23
100
AcDbEntity
  8
sanindusa
100
AcDbCircle
 10
171.5726755800984
 20
151.1601948341265
 30
0.0
 40
0.0099999999999999
100
AcDbArc
 50
15.28577318316457
 51
98.58199209573136
  0
LINE
  5
434
330
23
100
AcDbEntity
  8
sanindusa
100
AcDbLine
 10
171.5711833343716
 20
151.170082867434
 30
0.0
 11
171.5525075381328
 21
151.167252314576
 31
0.0
  0
LWPOLYLINE
  5
436
330
23
100
AcDbEntity
  8
sanindusa
100
AcDbPolyline
 90
        4
 70
   128
 43
0.0
 10
171.2873308789943
 20
151.1683282445882
 10
171.2908546626842
 20
151.169852026375
 10
171.2936628449345
 20
151.171417277182
 10
171.2938072355089
 20
151.1715209069838
  0
LWPOLYLINE
  5
437
330
23
100
AcDbEntity
  8
sanindusa
100
AcDbPolyline
 90
        6
 70
   128
 43
0.0
 10
171.2802920744115
 20
151.159118308959
 10
171.2823385714147
 20
151.1629352744811
 10
171.2840481632637
 20
151.1659569510816
 10
171.2854407667676
 20
151.1674321767513
 10
171.2873309716171
 20
151.1683287845702
 10
171.2873309965453
 20
151.1683287913933
  0
ARC
  5
438
330
23
100
AcDbEntity
  8
sanindusa
100
AcDbCircle
 10
171.555517550379
 20
151.1474850792973
 30
0.0
 40
0.0199951022216073
100
AcDbArc
 50
98.65807923036321
 51
150.3772278469042
  0
LWPOLYLINE
  5
439
330
23
100
AcDbEntity
  8
sanindusa
100
AcDbPolyline
 90
       47
 70
   128
 43
0.0
 10
171.277080366208
 20
151.1497613091862
 10
171.2912534431171
 20
151.1498307560128
 10
171.3051008347793
 20
151.1499376993249
 10
171.3185712532498
 20
151.1500821770965
 10
171.3315937241811
 20
151.1502627135253
 10
171.3449581387471
 20
151.1504843604955
 10
171.3476414622786
 20
151.1505329253986
 10
171.3503427834639
 20
151.1505831427003
 10
171.353061595067
 20
151.1506350131728
 10
171.355797369207
 20
151.1506885376136
 10
171.3585495570282
 20
151.1507437168444
 10
171.3613175883742
 20
151.1508005517117
 10
171.3641008714703
 20
151.1508590430867
 10
171.3668987926104
 20
151.150919191865
 10
171.3756638837369
 20
151.1511182461366
 10
171.3852084233689
 20
151.151351961425
 10
171.3954781207039
 20
151.1516204124337
 10
171.4064041297632
 20
151.151923684602
 10
171.4129100339255
 20
151.1521126535045
 10
171.4195839259895
 20
151.1523130432148
 10
171.426404940306
 20
151.152524874302
 10
171.4333499187206
 20
151.1527481684324
 10
171.4403932889025
 20
151.152982948359
 10
171.4475069519066
 20
151.1532292379106
 10
171.4546601815048
 20
151.1534870619802
 10
171.4647079948373
 20
151.1538640806302
 10
171.4737242070093
 20
151.1542162821782
 10
171.4817636450686
 20
151.1545435861716
 10
171.4888865795132
 20
151.1548459182749
 10
171.4951567420849
 20
151.1551232101912
 10
171.500297220315
 20
151.155359369093
 10
171.5048051960048
 20
151.1555736148179
 10
171.5087331915876
 20
151.1557659057599
 10
171.5131159584938
 20
151.155986050174
 10
171.5136275106953
 20
151.1560120370744
 10
171.5141253925225
 20
151.1560373654348
 10
171.5146098381233
 20
151.1560620351095
 10
171.5150810786802
 20
151.1560860459568
 10
171.5155393423363
 20
151.156109397839
 10
171.5159848541243
 20
151.1561320906218
 10
171.5214733085079
 20
151.1564151754177
 10
171.5261188546938
 20
151.1566616590205
 10
171.5299505671634
 20
151.1568714628905
 10
171.53300106185
 20
151.1570445204391
 10
171.5359150243345
 20
151.1572180099689
 10
171.53759451591
 20
151.1573259794563
 10
171.5381359040107
 20
151.1573683685073
  0
ARC
  5
43A
330
23
100
AcDbEntity
  8
sanindusa
100
AcDbCircle
 10
171.3032696820862
 20
151.1460011733887
 30
0.0
 40
0.0264580743824068
100
AcDbArc
 50
150.279422186409
 51
171.8321552607762
  0
ARC
  5
43B
330
23
100
AcDbEntity
  8
sanindusa
100
AcDbCircle
 10
171.3376755800984
 20
151.2713509046126
 30
0.0
 40
0.2406000000000001
100
AcDbArc
 50
270.2409346989699
 51
331.6373560250551
  0
ARC
  5
43C
330
23
100
AcDbEntity
  8
sanindusa
100
AcDbCircle
 10
171.3387293759989
 20
151.0207531202764
 30
0.0
 40
0.0100000000000002
100
AcDbArc
 50
90.24093469896987
 51
177.9999999995013
  0
ARC
  5
43D
330
23
100
AcDbEntity
  8
sanindusa
100
AcDbCircle
 10
171.2870894765479
 20
151.0828941063762
 30
0.0
 40
0.0657286868450379
100
AcDbArc
 50
206.2238139576558
 51
215.1513404777148
  0
LWPOLYLINE
  5
43E
330
23
100
AcDbEntity
  8
sanindusa
100
AcDbPolyline
 90
        4
 70
   128
 43
0.0
 10
171.2281259287156
 20
151.0538499967945
 10
171.227950978555
 20
151.0544560263731
 10
171.2281128373359
 20
151.0550114122781
 10
171.2292937853852
 20
151.0557742090731
  0
LWPOLYLINE
  5
43F
330
23
100
AcDbEntity
  8
sanindusa
100
AcDbPolyline
 90
       14
 70
   128
 43
0.0
 10
171.2292937853852
 20
151.0557742090731
 10
171.2351052360016
 20
151.0581840147024
 10
171.2406737942734
 20
151.0614433899674
 10
171.2459629009421
 20
151.0655735296363
 10
171.2514316177949
 20
151.0711701378134
 10
171.2565055839819
 20
151.0778816670102
 10
171.2611290864126
 20
151.085671151078
 10
171.2652464119959
 20
151.0945016238686
 10
171.2685361751066
 20
151.1034724703463
 10
171.2713681119777
 20
151.1132857689171
 10
171.27371499174
 20
151.1238603240458
 10
171.2755495835242
 20
151.1351149401968
 10
171.2764138138304
 20
151.1423246976923
 10
171.2770810532594
 20
151.1497613116197
  0
ARC
  5
440
330
23
100
AcDbEntity
  8
sanindusa
100
AcDbCircle
 10
171.3376755800984
 20
151.2713509046126
 30
0.0
 40
0.2306
100
AcDbArc
 50
270.0
 51
330.3772678797417
  0
ARC
  5
441
330
23
100
AcDbEntity
  8
sanindusa
100
AcDbCircle
 10
171.3219173400494
 20
152.4067611713014
 30
0.0
 40
1.366010558468287
100
AcDbArc
 50
269.1069366344904
 51
269.9625511934668
  0
ARC
  5
442
330
23
100
AcDbEntity
  8
sanindusa
100
AcDbCircle
 10
171.2776755800985
 20
151.2713509046126
 30
0.0
 40
0.2306
100
AcDbArc
 50
258.9170760994208
 51
263.8688053697224
  0
ARC
  5
445
330
23
100
AcDbEntity
  8
sanindusa
100
AcDbCircle
 10
171.2519781955951
 20
151.0321271507133
 30
0.0
 40
0.01
100
AcDbArc
 50
50.00000000008355
 51
83.86880536972238
  0
LINE
  5
446
330
23
100
AcDbEntity
  8
sanindusa
100
AcDbLine
 10
171.3277092821506
 20
150.9917160051159
 30
0.0
 11
171.3287354677287
 21
151.0211021152434
 31
0.0
  0
LINE
  5
447
330
23
100
AcDbEntity
  8
sanindusa
100
AcDbLine
 10
171.2584060716919
 20
151.0397875951444
 30
0.0
 11
171.2673895181469
 21
151.0322495885374
 31
0.0
  0
LINE
  5
449
330
23
100
AcDbEntity
  8
sanindusa
100
AcDbLine
 10
171.31796164205
 20
151.0322495885374
 30
0.0
 11
171.3253049422702
 21
151.0384113490438
 31
0.0
  0
LINE
  5
44A
330
23
100
AcDbEntity
  8
sanindusa
100
AcDbLine
 10
171.2673895181469
 20
151.0322495885374
 30
0.0
 11
171.31796164205
 21
151.0322495885374
 31
0.0
  0
ARC
  5
44B
330
23
100
AcDbEntity
  8
sanindusa
100
AcDbCircle
 10
171.1311755800984
 20
151.1886923667399
 30
0.0
 40
0.0009999999999999
100
AcDbArc
 50
0.0
 51
87.74082350082339
  0
ARC
  5
44C
330
23
100
AcDbEntity
  8
sanindusa
100
AcDbCircle
 10
171.1681755800984
 20
151.1867282738316
 30
0.0
 40
0.0010000000000002
100
AcDbArc
 50
86.18194891175717
 51
180.0
  0
ARC
  5
44E
330
23
100
AcDbEntity
  8
sanindusa
100
AcDbCircle
 10
171.0774618639129
 20
149.8273329737735
 30
0.0
 40
1.363418643488175
100
AcDbArc
 50
86.18225907780725
 51
87.74051333423054
  0
ARC
  5
44F
330
23
100
AcDbEntity
  8
sanindusa
100
AcDbCircle
 10
171.1681755800984
 20
151.1767058647567
 30
0.0
 40
0.0010000000000002
100
AcDbArc
 50
180.0
 51
266.1536639555105
  0
ARC
  5
450
330
23
100
AcDbEntity
  8
sanindusa
100
AcDbCircle
 10
171.1311755800984
 20
151.1786845304416
 30
0.0
 40
0.0009999999999999
100
AcDbArc
 50
267.7241033204289
 51
0.0
  0
ARC
  5
452
330
23
100
AcDbEntity
  8
sanindusa
100
AcDbCircle
 10
171.0774906249604
 20
149.8278747805052
 30
0.0
 40
1.350876124107301
100
AcDbArc
 50
86.15366395551054
 51
87.72410332042893
  0
LINE
  5
453
330
23
100
AcDbEntity
  8
sanindusa
100
AcDbLine
 10
171.1671755800985
 20
151.1867282738316
 30
0.0
 11
171.1671755800985
 21
151.1767058647567
 31
0.0
  0
LINE
  5
454
330
23
100
AcDbEntity
  8
sanindusa
100
AcDbLine
 10
171.1321755800984
 20
151.1786845304416
 30
0.0
 11
171.1321755800984
 21
151.1886923667399
 31
0.0
  0
ARC
  5
455
330
23
100
AcDbEntity
  8
sanindusa
100
AcDbCircle
 10
171.8898075541684
 20
151.2460242975533
 30
0.0
 40
0.6882901729265339
100
AcDbArc
 50
186.7928779184733
 51
189.2071220827005
  0
LINE
  5
456
330
23
100
AcDbEntity
  8
sanindusa
100
AcDbLine
 10
171.2063490278669
 20
151.1646129655839
 30
0.0
 11
171.2046002824701
 21
151.1770559356327
 31
0.0
  0
LINE
  5
458
330
23
100
AcDbEntity
  8
sanindusa
100
AcDbLine
 10
171.2213768790316
 20
151.0576842484142
 30
0.0
 11
171.2103850477948
 21
151.1358951915904
 31
0.0
  0
ARC
  5
459
330
23
100
AcDbEntity
  8
sanindusa
100
AcDbCircle
 10
171.2526637156475
 20
150.9912323899708
 30
0.0
 40
0.0050000000000001
100
AcDbArc
 50
4.957634024572262
 51
84.99999999926792
  0
LINE
  5
45A
330
23
100
AcDbEntity
  8
sanindusa
100
AcDbLine
 10
171.2530994943613
 20
150.9962133634613
 30
0.0
 11
171.2040411699857
 21
151.0005054106958
 31
0.0
  0
ARC
  5
45B
330
23
100
AcDbEntity
  8
sanindusa
100
AcDbCircle
 10
171.2044769486994
 20
151.0054863841862
 30
0.0
 40
0.0049999999999999
100
AcDbArc
 50
188.0000000001702
 51
264.9999999992679
  0
LINE
  5
45C
330
23
100
AcDbEntity
  8
sanindusa
100
AcDbLine
 10
171.1995256083558
 20
151.0047905186814
 30
0.0
 11
171.1761409259147
 21
151.1711811800901
 31
0.0
  0
ARC
  5
45D
330
23
100
AcDbEntity
  8
sanindusa
100
AcDbCircle
 10
171.171189585571
 20
151.1704853145853
 30
0.0
 40
0.0049999999999999
100
AcDbArc
 50
8.000000000170258
 51
86.00787833325467
  0
ARC
  5
45E
330
23
100
AcDbEntity
  8
sanindusa
100
AcDbCircle
 10
171.1946976017826
 20
151.175664204623
 30
0.0
 40
0.0100000000000434
100
AcDbArc
 50
8.000000000170258
 51
85.02992610514178
  0
ARC
  5
45F
330
23
100
AcDbEntity
  8
sanindusa
100
AcDbCircle
 10
171.2053587597982
 20
151.164473792483
 30
0.0
 40
0.001
100
AcDbArc
 50
278.0000000001703
 51
8.000000000170258
  0
LINE
  5
460
330
23
100
AcDbEntity
  8
sanindusa
100
AcDbLine
 10
171.1965855202805
 20
151.1622309665056
 30
0.0
 11
171.2054979328991
 21
151.1634835244142
 31
0.0
  0
ARC
  5
461
330
23
100
AcDbEntity
  8
sanindusa
100
AcDbCircle
 10
171.1964463471795
 20
151.1632212345743
 30
0.0
 40
0.0009999999999999
100
AcDbArc
 50
188.0000000001702
 51
278.0000000001703
  0
LINE
  5
462
330
23
100
AcDbEntity
  8
sanindusa
100
AcDbLine
 10
171.1954560791108
 20
151.1630820614733
 30
0.0
 11
171.1939609299802
 21
151.173720600327
 31
0.0
  0
ARC
  5
463
330
23
100
AcDbEntity
  8
sanindusa
100
AcDbCircle
 10
171.0774906249605
 20
149.8278747805056
 30
0.0
 40
1.350876124106903
100
AcDbArc
 50
85.05391182799789
 51
85.40183125456668
  0
LINE
  5
464
330
23
100
AcDbEntity
  8
sanindusa
100
AcDbLine
 10
171.2088747726275
 20
151.010120723636
 30
0.0
 11
171.1857864001078
 21
151.1744030304014
 31
0.0
  0
LINE
  5
465
330
23
100
AcDbEntity
  8
sanindusa
100
AcDbLine
 10
171.2682627358412
 20
151.0049249501049
 30
0.0
 11
171.2088747726275
 21
151.010120723636
 31
0.0
  0
ARC
  5
466
330
23
100
AcDbEntity
  8
sanindusa
100
AcDbCircle
 10
171.2681755800985
 20
151.0039287554068
 30
0.0
 40
0.0010000000000001
100
AcDbArc
 50
0.0
 51
84.99999999926792
  0
LINE
  5
467
330
23
100
AcDbEntity
  8
sanindusa
100
AcDbLine
 10
171.2691755800984
 20
150.9917509046126
 30
0.0
 11
171.2691755800984
 21
151.0039287554068
 31
0.0
  0
ARC
  5
468
330
23
100
AcDbEntity
  8
sanindusa
100
AcDbCircle
 10
171.2681755800985
 20
150.9917509046126
 30
0.0
 40
0.0010000000000001
100
AcDbArc
 50
270.0
 51
0.0
  0
LINE
  5
469
330
23
100
AcDbEntity
  8
sanindusa
100
AcDbLine
 10
171.2586412688733
 20
150.9907509046126
 30
0.0
 11
171.2681755800985
 21
150.9907509046126
 31
0.0
  0
ARC
  5
46A
330
23
100
AcDbEntity
  8
sanindusa
100
AcDbCircle
 10
171.2586412688733
 20
150.9917509046126
 30
0.0
 40
0.0010000000000001
100
AcDbArc
 50
184.9576340245722
 51
270.0
  0
ARC
  5
46B
330
23
100
AcDbEntity
  8
sanindusa
100
AcDbCircle
 10
171.0774906249605
 20
149.8278747805056
 30
0.0
 40
1.350876124106903
100
AcDbArc
 50
86.00787833325467
 51
86.15366395551054
  0
ARC
  5
46C
330
23
100
AcDbEntity
  8
sanindusa
100
AcDbCircle
 10
171.0774906249605
 20
149.8278747805056
 30
0.0
 40
1.362876124106903
100
AcDbArc
 50
85.02992610514178
 51
86.18194891175717
  0
ARC
  5
470
330
23
100
AcDbEntity
  8
sanindusa
100
AcDbCircle
 10
171.8719818769385
 20
151.2435190619962
 30
0.0
 40
0.6812908822078742
100
AcDbArc
 50
186.780474599741
 51
189.2195254004802
  0
LINE
  5
471
330
23
100
AcDbEntity
  8
sanindusa
100
AcDbLine
 10
171.2099380057165
 20
151.0600377993814
 30
0.0
 11
171.1994920990386
 21
151.1343642874799
 31
0.0
  0
LINE
  5
476
330
23
100
AcDbEntity
  8
sanindusa
100
AcDbLine
 10
171.3161755800985
 20
151.0284193663218
 30
0.0
 11
171.3161755800985
 21
150.9917509046126
 31
0.0
  0
ARC
  5
477
330
23
100
AcDbEntity
  8
sanindusa
100
AcDbCircle
 10
171.3211755800984
 20
151.0284193663218
 30
0.0
 40
0.0050000000000003
100
AcDbArc
 50
129.9999999999164
 51
180.0
  0
ARC
  5
478
330
23
100
AcDbEntity
  8
sanindusa
100
AcDbCircle
 10
171.331732818367
 20
151.0307509046126
 30
0.0
 40
0.01
100
AcDbArc
 50
90.0
 51
129.9999999999164
  0
LINE
  5
479
330
23
100
AcDbEntity
  8
sanindusa
100
AcDbLine
 10
171.3376755800984
 20
151.0407509046126
 30
0.0
 11
171.331732818367
 21
151.0407509046126
 31
0.0
  0
LINE
  5
47A
330
23
100
AcDbEntity
  8
sanindusa
100
AcDbLine
 10
171.5776755800984
 20
151.1596784797583
 30
0.0
 11
171.553793384267
 21
151.1596784797583
 31
0.0
  0
ARC
  5
47B
330
23
100
AcDbEntity
  8
sanindusa
100
AcDbCircle
 10
171.553793384267
 20
151.1546784797583
 30
0.0
 40
0.0050000000000001
100
AcDbArc
 50
90.0
 51
151.6373560250551
  0
ARC
  5
47C
330
23
100
AcDbEntity
  8
sanindusa
100
AcDbCircle
 10
171.3267098913236
 20
150.9917509046126
 30
0.0
 40
0.0010000000000001
100
AcDbArc
 50
270.0
 51
357.9999999995013
  0
LINE
  5
47D
330
23
100
AcDbEntity
  8
sanindusa
100
AcDbLine
 10
171.3171755800984
 20
150.9907509046126
 30
0.0
 11
171.3267098913236
 21
150.9907509046126
 31
0.0
  0
ARC
  5
47E
330
23
100
AcDbEntity
  8
sanindusa
100
AcDbCircle
 10
171.3171755800984
 20
150.9917509046126
 30
0.0
 40
0.0010000000000001
100
AcDbArc
 50
180.0
 51
270.0
  0
ARC
  5
480
330
23
100
AcDbEntity
  8
sanindusa
100
AcDbCircle
 10
171.0916755800985
 20
151.1866768660632
 30
0.0
 40
0.0040000000000001
100
AcDbArc
 50
89.40189336795286
 51
180.0
  0
ARC
  5
481
330
23
100
AcDbEntity
  8
sanindusa
100
AcDbCircle
 10
171.0926755800985
 20
151.1646784797583
 30
0.0
 40
0.005
100
AcDbArc
 50
180.0
 51
270.0
  0
LINE
  5
482
330
23
100
AcDbEntity
  8
sanindusa
100
AcDbLine
 10
171.0876755800984
 20
151.1866768660632
 30
0.0
 11
171.0876755800984
 21
151.1646784797583
 31
0.0
  0
LINE
  5
483
330
23
100
AcDbEntity
  8
sanindusa
100
AcDbLine
 10
171.1126755800984
 20
151.1731508528498
 30
0.0
 11
171.1126755800984
 21
151.1596784797583
 31
0.0
  0
LINE
  5
484
330
23
100
AcDbEntity
  8
sanindusa
100
AcDbLine
 10
171.1126755800984
 20
151.1596784797583
 30
0.0
 11
171.0926755800985
 21
151.1596784797583
 31
0.0
  0
ARC
  5
485
330
23
100
AcDbEntity
  8
sanindusa
100
AcDbCircle
 10
171.0774906249605
 20
149.8278747805056
 30
0.0
 40
1.350876124106903
100
AcDbArc
 50
87.72410332042893
 51
88.28901744759017
  0
ARC
  5
486
330
23
100
AcDbEntity
  8
sanindusa
100
AcDbCircle
 10
171.0774906249605
 20
149.8278747805056
 30
0.0
 40
1.362876124106903
100
AcDbArc
 50
87.74082350082339
 51
89.40189336795286
  0
ARC
  5
487
330
23
100
AcDbEntity
  8
sanindusa
100
AcDbCircle
 10
171.2362309000627
 20
151.0597718449286
 30
0.0
 40
0.0150000000000001
100
AcDbArc
 50
188.0000000001702
 51
258.9170760994208
  0
ARC
  5
488
330
23
100
AcDbEntity
  8
sanindusa
100
AcDbCircle
 10
171.2641755800984
 20
151.0284193663218
 30
0.0
 40
0.0050000000000001
100
AcDbArc
 50
0.0
 51
50.00000000008355
  0
LINE
  5
489
330
23
100
AcDbEntity
  8
sanindusa
100
AcDbLine
 10
171.2691755800984
 20
151.0159745934574
 30
0.0
 11
171.2691755800984
 21
151.0284193663218
 31
0.0
  0
ARC
  5
48A
330
23
100
AcDbEntity
  8
sanindusa
100
AcDbCircle
 10
171.2681755800985
 20
151.0159745934574
 30
0.0
 40
0.001
100
AcDbArc
 50
264.9999999992679
 51
0.0
  0
LINE
  5
48B
330
23
100
AcDbEntity
  8
sanindusa
100
AcDbLine
 10
171.2567950341165
 20
151.015966442378
 30
0.0
 11
171.2680884243557
 21
151.0149783987593
 31
0.0
  0
LINE
  5
48C
330
23
100
AcDbEntity
  8
sanindusa
100
AcDbLine
 10
171.2565480248759
 20
151.0230398615556
 30
0.0
 11
171.2567950341165
 21
151.015966442378
 31
0.0
  0
ARC
  5
48D
330
23
100
AcDbEntity
  8
sanindusa
100
AcDbCircle
 10
171.2465541166057
 20
151.0226908665886
 30
0.0
 40
0.0100000000000002
100
AcDbArc
 50
2.000000000498698
 51
82.8661451268373
  0
ARC
  5
48E
330
23
100
AcDbEntity
  8
sanindusa
100
AcDbCircle
 10
171.2776755800985
 20
151.2713509046126
 30
0.0
 40
0.2406
100
AcDbArc
 50
259.5966253220973
 51
262.8661451268373
  0
ARC
  5
48F
330
23
100
AcDbEntity
  8
sanindusa
100
AcDbCircle
 10
171.2396460477787
 20
151.0642129924102
 30
0.0
 40
0.0300000000000002
100
AcDbArc
 50
188.0000000001702
 51
259.5966253220973
  0
LINE
  5
495
330
23
100
AcDbEntity
  8
sanindusa
100
AcDbLine
 10
171.276350601943
 20
151.0142555518843
 30
0.0
 11
171.2680884243557
 21
151.0149783987593
 31
0.0
  0
LINE
  5
497
330
23
100
AcDbEntity
  8
sanindusa
100
AcDbLine
 10
171.3171755800984
 20
150.9907509046126
 30
0.0
 11
171.2681755800985
 21
150.9907509046126
 31
0.0
  0
LINE
  5
49A
330
23
100
AcDbEntity
  8
sanindusa
100
AcDbLine
 10
171.2682627358412
 20
151.0049249501049
 30
0.0
 11
171.2762118165897
 21
151.004229495654
 31
0.0
  0
LINE
  5
49E
330
23
100
AcDbEntity
  8
sanindusa
100
AcDbLine
 10
171.3210245088041
 20
151.0407509046126
 30
0.0
 11
171.331732818367
 21
151.0407509046126
 31
0.0
  0
LWPOLYLINE
  5
49F
330
23
100
AcDbEntity
  8
sanindusa
100
AcDbPolyline
 90
        8
 70
   128
 43
0.0
 10
171.2762118165897
 20
151.004229495654
 10
171.277213240249
 20
151.0042567609863
 10
171.2778721937468
 20
151.0044225271613
 10
171.2782312108571
 20
151.0046154393862
 10
171.2783557352952
 20
151.0047331585552
 10
171.2784115019683
 20
151.0048143056422
 10
171.2784559219886
 20
151.0049345614131
 10
171.2784628552562
 20
151.0050045270807
  0
LWPOLYLINE
  5
4A2
330
23
100
AcDbEntity
  8
sanindusa
100
AcDbPolyline
 90
        7
 70
   128
 43
0.0
 10
171.276350601943
 20
151.0142555518843
 10
171.2771387826103
 20
151.0141221851142
 10
171.2780583084
 20
151.0137957333651
 10
171.2785564702901
 20
151.0134837670279
 10
171.2787648820632
 20
151.0132544908612
 10
171.2788212153486
 20
151.0131405379316
 10
171.2788454934738
 20
151.0130016092748
  0
ELLIPSE
  5
4A5
330
23
100
AcDbEntity
  8
sanindusa
100
AcDbEllipse
 10
171.2926407018616
 20
150.4473425314079
 30
0.0
 11
0.0008560803512398
 21
0.7015882047952892
 31
0.0
210
0.0
220
0.0
230
1.0
 40
0.0348994448041286
 41
0.6330448285367872
 42
0.6520677377762808
  0
LINE
  5
4A8
330
23
100
AcDbEntity
  8
sanindusa
100
AcDbLine
 10
171.1596299598672
 20
151.1596784797583
 30
0.0
 11
171.1684141405923
 21
151.1596784797583
 31
0.0
  0
ARC
  5
4AA
330
23
100
AcDbEntity
  8
sanindusa
100
AcDbCircle
 10
171.2784367260176
 20
151.1690427107627
 30
0.0
 40
0.0193309256632244
100
AcDbArc
 50
228.5676919257302
 51
265.9749647439423
  0
ARC
  5
4AB
330
23
100
AcDbEntity
  8
sanindusa
100
AcDbCircle
 10
171.3138742954246
 20
151.1514757964883
 30
0.0
 40
0.0483281828075153
100
AcDbArc
 50
160.740035575948
 51
176.3524382611685
  0
LINE
  5
4AC
330
23
100
AcDbEntity
  8
sanindusa
100
AcDbLine
 10
171.209830170939
 20
151.1702083249435
 30
0.0
 11
171.2682509603512
 21
151.167417080949
 31
0.0
  0
LWPOLYLINE
  5
4AE
330
23
100
AcDbEntity
  8
sanindusa
100
AcDbPolyline
 90
        3
 70
   128
 43
0.0
 10
171.2869334815421
 20
151.173001291942
 10
171.2827509024848
 20
151.1725503653475
 10
171.2783172558115
 20
151.172118347666
  0
ARC
  5
4AF
330
23
100
AcDbEntity
  8
sanindusa
100
AcDbCircle
 10
171.2799789645305
 20
151.1554331775762
 30
0.0
 40
0.016767826993309
100
AcDbArc
 50
95.68777406293845
 51
134.3816872578394
  0
ELLIPSE
  5
4B0
330
23
100
AcDbEntity
  8
sanindusa
100
AcDbEllipse
 10
171.293843938627
 20
151.1632188273398
 30
0.0
 11
0.279997703297107
 21
-0.0329988705577327
 31
0.0
210
0.0
220
0.0
230
1.0
 40
0.0343673824585725
 41
1.611033447653341
 42
1.76759882199843
  0
LINE
  5
4B1
330
23
100
AcDbEntity
  8
sanindusa
100
AcDbLine
 10
171.1126755800984
 20
151.1596784797583
 30
0.0
 11
171.1596299598672
 21
151.1596784797583
 31
0.0
  0
LINE
  5
4B5
330
23
100
AcDbEntity
  8
sanindusa
100
AcDbLine
 10
171.2938125440995
 20
151.1716044893659
 30
0.0
 11
171.2938072355089
 21
151.1715209069838
 31
0.0
  0
ARC
  5
4B6
330
23
100
AcDbEntity
  8
sanindusa
100
AcDbCircle
 10
171.3511294918017
 20
154.1062286500246
 30
0.0
 40
3.065728112621201
100
AcDbArc
 50
268.1665970514237
 51
269.0560974803921
  0
LWPOLYLINE
  5
4BC
330
23
100
AcDbEntity
  8
sanindusa
100
AcDbPolyline
 90
       15
 70
   128
 43
0.0
 10
171.2656447810561
 20
151.154549580283
 10
171.2647046148313
 20
151.1448988016658
 10
171.2634010284122
 20
151.1356636958323
 10
171.2617438775248
 20
151.1269023827807
 10
171.2596481539477
 20
151.1183135777685
 10
171.2571866357686
 20
151.1102919841067
 10
171.2543791826967
 20
151.1028865877568
 10
171.2504901790396
 20
151.0946915950141
 10
171.246137066659
 20
151.0874792759976
 10
171.2412293489323
 20
151.0811303272763
 10
171.2359170037083
 20
151.0758401995674
 10
171.2321312234014
 20
151.0728683750412
 10
171.2281968487189
 20
151.0703630879196
 10
171.2240913978462
 20
151.0682967408424
 10
171.2201000996166
 20
151.0667690060062
  0
ARC
  5
4BD
330
23
100
AcDbEntity
  8
sanindusa
100
AcDbCircle
 10
171.2103095708061
 20
151.1806014945688
 30
0.0
 40
0.0104042202539505
100
AcDbArc
 50
241.7837501166951
 51
267.3590218914264
  0
LINE
  5
4BF
330
23
100
AcDbEntity
  8
sanindusa
100
AcDbLine
 10
171.2837138438982
 20
151.1741612480628
 30
0.0
 11
171.2042810775356
 21
151.1779564078734
 31
0.0
  0
ELLIPSE
  5
4C0
330
23
100
AcDbEntity
  8
sanindusa
100
AcDbEllipse
 10
171.293843938627
 20
151.1632188273398
 30
0.0
 11
0.279997703297107
 21
-0.0329988705577327
 31
0.0
210
0.0
220
0.0
230
1.0
 40
0.0343673824585725
 41
1.76759882199843
 42
1.912970746720843
  0
LWPOLYLINE
  5
4D2
330
23
100
AcDbEntity
  8
sanindusa
100
AcDbPolyline
 90
       48
 70
   128
 43
0.0
 10
170.2231245555399
 20
151.1715209069795
 10
170.2231245555165
 20
151.1715209069822
 10
170.2227537375759
 20
151.1714861119079
 10
170.2220906124249
 20
151.1714583700091
 10
170.2210719396796
 20
151.1714243933378
 10
170.2196962412417
 20
151.1713868015931
 10
170.2179769752317
 20
151.1713472610335
 10
170.2159274384857
 20
151.1713066669591
 10
170.2135558295912
 20
151.1712654900515
 10
170.2108996798173
 20
151.1712245106864
 10
170.2079397645703
 20
151.1711833817402
 10
170.2046635054295
 20
151.1711419725983
 10
170.2010759382809
 20
151.1711004123052
 10
170.1971825439859
 20
151.1710588170096
 10
170.1929895172319
 20
151.1710172971272
 10
170.1885038591697
 20
151.1709759600897
 10
170.1837334191355
 20
151.1709349115565
 10
170.1786868982568
 20
151.1708942557789
 10
170.1733739162677
 20
151.1708540961685
 10
170.1678064198288
 20
151.1708145447614
 10
170.1619955936913
 20
151.1707756990103
 10
170.1559531856384
 20
151.170737653025
 10
170.1496913968183
 20
151.1707004969777
 10
170.1432227636571
 20
151.1706643165519
 10
170.1365600350812
 20
151.1706291924632
 10
170.1297160487441
 20
151.17059520007
 10
170.1226953078437
 20
151.1705623938312
 10
170.1154687583647
 20
151.1705306597094
 10
170.1080069925923
 20
151.1704998881388
 10
170.1003216421491
 20
151.1704701629396
 10
170.0924252214555
 20
151.1704415674837
 10
170.084331233332
 20
151.170414184673
 10
170.0760541025632
 20
151.1703880962051
 10
170.067609089627
 20
151.1703633818301
 10
170.0590121854646
 20
151.1703401186149
 10
170.0502799894249
 20
151.1703183802379
 10
170.0414314132731
 20
151.170298240327
 10
170.0324846632094
 20
151.1702797643114
 10
170.0234572986209
 20
151.1702630103944
 10
170.014366827606
 20
151.1702480311594
 10
170.0052305552956
 20
151.1702348733394
 10
169.9960654395882
 20
151.1702235777038
 10
169.986887958024
 20
151.1702141790622
 10
169.9777137639587
 20
151.1702066986259
 10
169.9685064446345
 20
151.170201050764
 10
169.9591337796248
 20
151.1701971783027
 10
169.9497366332527
 20
151.1701951804794
 10
169.9444173008223
 20
151.1701951134402
  0
ARC
  5
4D6
330
23
100
AcDbEntity
  8
sanindusa
100
AcDbCircle
 10
169.6651751909937
 20
151.1640298223867
 30
0.0
 40
0.0106098583163885
100
AcDbArc
 50
162.589686728111
 51
183.358131906594
  0
ARC
  5
4D8
330
23
100
AcDbEntity
  8
sanindusa
100
AcDbCircle
 10
170.2238031969131
 20
151.1640475464271
 30
0.0
 40
0.010467366742476
100
AcDbArc
 50
356.4989071403771
 51
17.5532742256542
  0
ARC
  5
4DC
330
23
100
AcDbEntity
  8
sanindusa
100
AcDbCircle
 10
171.1176755800984
 20
151.1731508528498
 30
0.0
 40
0.005
100
AcDbArc
 50
88.28901744759017
 51
180.0
  0
ENDSEC
  0
SECTION
  2
OBJECTS
  0
DICTIONARY
  5
C
330
0
100
AcDbDictionary
281
     1
  3
ACAD_COLOR
350
1C
  3
ACAD_GROUP
350
D
  3
ACAD_LAYOUT
350
1A
  3
ACAD_MATERIAL
350
1B
  3
ACAD_MLEADERSTYLE
350
54A
  3
ACAD_MLINESTYLE
350
17
  3
ACAD_PLOTSETTINGS
350
19
  3
ACAD_PLOTSTYLENAME
350
E
  3
ACAD_SCALELIST
350
538
  3
ACAD_TABLESTYLE
350
1D
  3
ACAD_VISUALSTYLE
350
524
  3
ACDB_RECOMPOSE_DATA
350
55B
  3
AcDbVariableDictionary
350
4C9
  3
DWGPROPS
350
55C
  0
DICTIONARY
  5
54E
330
10
100
AcDbDictionary
280
     1
281
     1
  3
ADSK_XREC_LAYER_RECONCILED
360
54F
  0
DICTIONARY
  5
550
330
37
100
AcDbDictionary
280
     1
281
     1
  3
ADSK_XREC_LAYER_RECONCILED
360
551
  0
DICTIONARY
  5
552
330
4C7
100
AcDbDictionary
280
     1
281
     1
  3
ADSK_XREC_LAYER_RECONCILED
360
553
  0
DICTIONARY
  5
4D3
330
23
100
AcDbDictionary
280
     1
281
     1
  3
ACAD_SORTENTS
360
4D4
  0
DICTIONARY
  5
1C
102
{ACAD_REACTORS
330
C
102
}
330
C
100
AcDbDictionary
281
     1
  0
DICTIONARY
  5
D
102
{ACAD_REACTORS
330
C
102
}
330
C
100
AcDbDictionary
281
     1
  0
DICTIONARY
  5
1A
102
{ACAD_REACTORS
330
C
102
}
330
C
100
AcDbDictionary
281
     1
  3
Layout1
350
22
  3
Layout2
350
2A
  3
Model
350
26
  0
DICTIONARY
  5
1B
102
{ACAD_REACTORS
330
C
102
}
330
C
100
AcDbDictionary
281
     1
  3
ByBlock
350
514
  3
ByLayer
350
50C
  3
Global
350
51C
  0
DICTIONARY
  5
54A
102
{ACAD_REACTORS
330
C
102
}
330
C
100
AcDbDictionary
281
     1
  3
Standard
350
54B
  0
DICTIONARY
  5
17
102
{ACAD_REACTORS
330
C
102
}
330
C
100
AcDbDictionary
281
     1
  3
Standard
350
18
  0
DICTIONARY
  5
19
102
{ACAD_REACTORS
330
C
102
}
330
C
100
AcDbDictionary
281
     1
  0
ACDBDICTIONARYWDFLT
  5
E
102
{ACAD_REACTORS
330
C
102
}
330
C
100
AcDbDictionary
281
     1
  3
Normal
350
F
100
AcDbDictionaryWithDefault
340
F
  0
DICTIONARY
  5
538
102
{ACAD_REACTORS
330
C
102
}
330
C
100
AcDbDictionary
281
     1
  3
A0
350
539
  3
A1
350
53A
  3
A2
350
53B
  3
A3
350
53C
  3
A4
350
53D
  3
A5
350
53E
  3
A6
350
53F
  3
A7
350
540
  3
A8
350
541
  3
A9
350
542
  3
B0
350
543
  3
B1
350
544
  3
B2
350
545
  3
B3
350
546
  3
B4
350
547
  3
B5
350
548
  3
B6
350
549
  0
DICTIONARY
  5
1D
102
{ACAD_REACTORS
330
C
102
}
330
C
100
AcDbDictionary
281
     1
  3
Standard
350
1E
  0
DICTIONARY
  5
524
102
{ACAD_REACTORS
330
C
102
}
330
C
100
AcDbDictionary
281
     1
  3
2dWireframe
350
52A
  3
3D Hidden
350
52C
  3
3dWireframe
350
52B
  3
Basic
350
529
  3
Brighten
350
530
  3
ColorChange
350
534
  3
Conceptual
350
52D
  3
Dim
350
52F
  3
EdgeColorOff
350
537
  3
Facepattern
350
533
  3
Flat
350
525
  3
FlatWithEdges
350
526
  3
Gouraud
350
527
  3
GouraudWithEdges
350
528
  3
JitterOff
350
535
  3
Linepattern
350
532
  3
OverhangOff
350
536
  3
Realistic
350
52E
  3
Thicken
350
531
  0
XRECORD
  5
55B
102
{ACAD_REACTORS
330
C
102
}
330
C
100
AcDbXrecord
280
     1
 90
        1
330
1E
  0
DICTIONARY
  5
4C9
102
{ACAD_REACTORS
330
C
102
}
330
C
100
AcDbDictionary
281
     1
  3
CANNOSCALE
350
555
  3
CMLEADERSTYLE
350
554
  3
CTABLESTYLE
350
4CA
  3
DIMASSOC
350
509
  3
HIDETEXT
350
508
  3
INDEXCTL
350
557
  3
PROJECTNAME
350
50A
  3
SORTENTS
350
556
  3
XCLIPFRAME
350
558
  0
XRECORD
  5
55C
102
{ACAD_REACTORS
330
C
102
}
330
C
100
AcDbXrecord
280
     1
  1
DWGPROPS COOKIE
  2

  3

  4

  6

  7

  8
Julio
  9

300
=
301
=
302
=
303
=
304
=
305
=
306
=
307
=
308
=
309
=
 40
0.0138738773148148
 41
2453977.623191007
 42
2456146.444872686
  1

 90
        0
  0
XRECORD
  5
54F
102
{ACAD_REACTORS
330
54E
102
}
330
54E
100
AcDbXrecord
280
     1
290
     1
  0
XRECORD
  5
551
102
{ACAD_REACTORS
330
550
102
}
330
550
100
AcDbXrecord
280
     1
290
     1
  0
XRECORD
  5
553
102
{ACAD_REACTORS
330
552
102
}
330
552
100
AcDbXrecord
280
     1
290
     1
  0
SORTENTSTABLE
  5
4D4
102
{ACAD_REACTORS
330
4D3
102
}
330
4D3
100
AcDbSortentsTable
330
23
331
37E
  5
380
331
2FC
  5
2FD
331
33F
  5
341
331
37A
  5
37B
331
2F4
  5
2F5
331
3B1
  5
3B2
331
372
  5
374
331
3F7
  5
3F8
331
4DC
  5
488
331
3F3
  5
3F4
331
2B6
  5
2B7
331
469
  5
46B
331
4D8
  5
4DC
331
42A
  5
42C
331
465
  5
467
331
3EB
  5
3EC
331
461
  5
463
331
333
  5
335
331
2E4
  5
2E5
331
2E0
  5
2E1
331
32F
  5
332
331
362
  5
365
331
2D8
  5
2D9
331
2AA
  5
2AB
331
45D
  5
45F
331
2A2
  5
2A3
331
459
  5
45B
331
41E
  5
420
331
455
  5
457
331
35E
  5
35F
331
35A
  5
35D
331
356
  5
358
331
391
  5
392
331
2C8
  5
2CA
331
4C0
  5
4C4
331
416
  5
418
331
29A
  5
29B
331
4BC
  5
4BF
331
48C
  5
48F
331
3CF
  5
3D0
331
449
  5
44B
331
488
  5
48B
331
445
  5
447
331
484
  5
486
331
441
  5
443
331
480
  5
482
331
317
  5
319
331
389
  5
38F
331
385
  5
386
331
2BC
  5
2BD
331
381
  5
382
331
28E
  5
28F
331
4B0
  5
4B3
331
28A
  5
28B
331
3C7
  5
3C8
331
286
  5
287
331
4AC
  5
4AF
331
43D
  5
43F
331
47C
  5
47E
331
3C3
  5
3C4
331
3FE
  5
3FF
331
282
  5
282
331
478
  5
47A
331
3BF
  5
3C0
331
4A8
  5
4AB
331
439
  5
43B
331
3BB
  5
3BC
331
470
  5
472
331
431
  5
433
331
2FF
  5
300
331
2FB
  5
2FC
331
37D
  5
37E
331
2F3
  5
2F4
331
3B0
  5
3B1
331
2B5
  5
2B6
331
46C
  5
46E
331
3EE
  5
3EF
331
468
  5
46A
331
464
  5
466
331
460
  5
462
331
336
  5
33F
331
2E7
  5
2E8
331
332
  5
333
331
36D
  5
372
331
2E3
  5
2E4
331
32E
  5
32F
331
3A8
  5
3B0
331
2DF
  5
2E0
331
2DB
  5
2DC
331
365
  5
368
331
3A0
  5
3A2
331
361
  5
362
331
425
  5
427
331
2A9
  5
2AA
331
49F
  5
4A4
331
3E2
  5
3E3
331
45C
  5
45E
331
458
  5
45A
331
497
  5
49C
331
419
  5
41B
331
454
  5
456
331
3DA
  5
3DB
331
450
  5
452
331
35D
  5
35E
331
39C
  5
3A0
331
359
  5
35A
331
31E
  5
320
331
355
  5
356
331
394
  5
39A
331
2CB
  5
2CC
331
31A
  5
31E
331
390
  5
391
331
4BF
  5
4C3
331
299
  5
29A
331
48F
  5
492
331
3D6
  5
3D7
331
295
  5
296
331
48B
  5
48E
331
3D2
  5
3D3
331
44C
  5
44E
331
487
  5
48A
331
3CE
  5
3CF
331
40D
  5
40F
331
483
  5
485
331
409
  5
40B
331
440
  5
442
331
2C7
  5
2C8
331
316
  5
317
331
34D
  5
354
331
306
  5
307
331
388
  5
389
331
349
  5
34D
331
384
  5
385
331
345
  5
347
331
380
  5
381
331
341
  5
343
331
28D
  5
28E
331
4AF
  5
4B2
331
3C6
  5
3C7
331
289
  5
28A
331
4AB
  5
4AE
331
3C2
  5
3C3
331
401
  5
403
331
43C
  5
43E
331
47B
  5
47D
331
438
  5
43A
331
477
  5
479
331
3BE
  5
3BF
331
434
  5
436
331
3BA
  5
3BB
331
430
  5
432
331
2FE
  5
2FF
331
3B7
  5
3B8
331
378
  5
37A
331
3B3
  5
3B6
331
374
  5
377
331
3F5
  5
3F6
331
3F1
  5
3F2
331
46B
  5
46D
331
2B4
  5
2B5
331
3ED
  5
3EE
331
467
  5
469
331
463
  5
465
331
4A2
  5
4A7
331
335
  5
336
331
2E2
  5
2E3
331
2DE
  5
2DF
331
368
  5
36D
331
4D6
  5
4D9
331
4D2
  5
286
331
2AC
  5
2AD
331
2A8
  5
2A9
331
45F
  5
461
331
49E
  5
4A1
331
3E5
  5
3E6
331
49A
  5
4A0
331
3E1
  5
3E2
331
45B
  5
45D
331
3DD
  5
3DE
331
3D9
  5
3DA
331
453
  5
455
331
2D6
  5
2D7
331
358
  5
359
331
393
  5
394
331
2CA
  5
2CB
331
319
  5
31A
331
354
  5
355
331
29C
  5
29D
331
414
  5
416
331
298
  5
299
331
44F
  5
451
331
48E
  5
491
331
294
  5
295
331
44B
  5
44D
331
48A
  5
48D
331
40C
  5
40E
331
447
  5
449
331
486
  5
489
331
482
  5
484
331
3C9
  5
3CA
331
38F
  5
390
331
387
  5
388
331
344
  5
345
331
2BA
  5
2BB
331
4B6
  5
4B9
331
28C
  5
28D
331
288
  5
289
331
4AE
  5
4B1
331
43F
  5
441
331
47E
  5
480
331
3C5
  5
3C6
331
400
  5
402
331
284
  5
284
331
4AA
  5
4AD
331
47A
  5
47C
331
3C1
  5
3C2
331
43B
  5
43D
331
476
  5
478
331
437
  5
439
331
3BD
  5
3BE
331
3B9
  5
3BA
331
2FD
  5
2FE
331
37B
  5
37D
331
377
  5
378
331
3B6
  5
3B7
331
3B2
  5
3B3
331
3F4
  5
3F5
331
2B3
  5
2B4
331
3F0
  5
3F1
331
46A
  5
46C
331
42F
  5
431
331
4A5
  5
4A9
331
3EC
  5
3ED
331
466
  5
468
331
42B
  5
42D
331
3E8
  5
3E9
331
462
  5
464
331
2E5
  5
2E7
331
2E1
  5
2E2
331
2DD
  5
2DE
331
3A2
  5
3A8
331
2AB
  5
2AC
331
45E
  5
460
331
3E0
  5
3E1
331
45A
  5
45C
331
41B
  5
41D
331
456
  5
458
331
495
  5
498
331
452
  5
454
331
35F
  5
361
331
320
  5
32E
331
39A
  5
39C
331
392
  5
393
331
29B
  5
29C
331
4BD
  5
4C0
331
297
  5
298
331
44E
  5
450
331
48D
  5
490
331
3D4
  5
3D5
331
489
  5
48C
331
44A
  5
44C
331
485
  5
487
331
446
  5
448
331
40B
  5
40D
331
481
  5
483
331
3C8
  5
3C9
331
442
  5
444
331
386
  5
387
331
347
  5
349
331
382
  5
384
331
343
  5
344
331
28F
  5
290
331
4B5
  5
4B8
331
4B1
  5
4B4
331
407
  5
409
331
28B
  5
28C
331
287
  5
288
331
43E
  5
440
331
47D
  5
47F
331
3C0
  5
3C1
331
3FF
  5
401
331
283
  5
283
331
43A
  5
43C
331
479
  5
47B
331
3FB
  5
3FC
331
436
  5
438
331
3BC
  5
3BD
331
471
  5
473
331
432
  5
434
331
3B8
  5
3B9
  0
LAYOUT
  5
22
102
{ACAD_XDICTIONARY
360
55E
102
}
102
{ACAD_REACTORS
330
1A
102
}
330
1A
100
AcDbPlotSettings
  1

  2
HP DesignJet 500PS42+HPGL2 Card
  4

  6

 40
0.0
 41
0.0
 42
0.0
 43
0.0
 44
0.0
 45
0.0
 46
0.0
 47
0.0
 48
0.0
 49
0.0
140
0.0
141
0.0
142
1.0
143
1.0
 70
   688
 72
     0
 73
     0
 74
     5
  7
C:\Documents and Settings\Julio\Application Data\Autodesk\AutoCAD 2006\R16.2\enu\Plot Styles\sanindusa.ctb
 75
    16
147
1.0
148
0.0
149
0.0
100
AcDbLayout
  1
Layout1
 70
     1
 71
     1
 10
0.0
 20
0.0
 11
420.0
 21
297.0
 12
0.0
 22
0.0
 32
0.0
 14
1.000000000000000E+20
 24
1.000000000000000E+20
 34
1.000000000000000E+20
 15
-1.000000000000000E+20
 25
-1.000000000000000E+20
 35
-1.000000000000000E+20
146
0.0
 13
0.0
 23
0.0
 33
0.0
 16
1.0
 26
0.0
 36
0.0
 17
0.0
 27
1.0
 37
0.0
 76
     0
330
1F
  0
LAYOUT
  5
2A
102
{ACAD_XDICTIONARY
360
562
102
}
102
{ACAD_REACTORS
330
1A
102
}
330
1A
100
AcDbPlotSettings
  1

  2
HP DesignJet 500PS42+HPGL2 Card
  4

  6

 40
0.0
 41
0.0
 42
0.0
 43
0.0
 44
0.0
 45
0.0
 46
0.0
 47
0.0
 48
0.0
 49
0.0
140
0.0
141
0.0
142
1.0
143
1.0
 70
   688
 72
     0
 73
     0
 74
     5
  7
C:\Documents and Settings\Julio\Application Data\Autodesk\AutoCAD 2006\R16.2\enu\Plot Styles\sanindusa.ctb
 75
    16
147
1.0
148
0.0
149
0.0
100
AcDbLayout
  1
Layout2
 70
     1
 71
     2
 10
0.0
 20
0.0
 11
12.0
 21
9.0
 12
0.0
 22
0.0
 32
0.0
 14
0.0
 24
0.0
 34
0.0
 15
0.0
 25
0.0
 35
0.0
146
0.0
 13
0.0
 23
0.0
 33
0.0
 16
1.0
 26
0.0
 36
0.0
 17
0.0
 27
1.0
 37
0.0
 76
     0
330
27
  0
LAYOUT
  5
26
102
{ACAD_XDICTIONARY
360
560
102
}
102
{ACAD_REACTORS
330
1A
102
}
330
1A
100
AcDbPlotSettings
  1

  2
HP DesignJet 500PS42+HPGL2 Card
  4

  6

 40
0.0
 41
0.0
 42
0.0
 43
0.0
 44
0.0
 45
0.0
 46
0.0
 47
0.0
 48
0.0
 49
0.0
140
0.0
141
0.0
142
1.0
143
1.0
 70
  1712
 72
     0
 73
     0
 74
     0
  7
C:\Documents and Settings\Julio\Application Data\Autodesk\AutoCAD 2006\R16.2\enu\Plot Styles\sanindusa.ctb
 75
     0
147
1.0
148
0.0
149
0.0
100
AcDbLayout
  1
Model
 70
     1
 71
     0
 10
0.0
 20
0.0
 11
12.0
 21
9.0
 12
0.0
 22
0.0
 32
0.0
 14
0.0
 24
0.0
 34
0.0
 15
0.0
 25
0.0
 35
0.0
146
0.0
 13
0.0
 23
0.0
 33
0.0
 16
1.0
 26
0.0
 36
0.0
 17
0.0
 27
1.0
 37
0.0
 76
     0
330
23
331
500
  0
MATERIAL
  5
514
102
{ACAD_XDICTIONARY
360
515
102
}
102
{ACAD_REACTORS
330
1B
102
}
330
1B
100
AcDbMaterial
  1
ByBlock
 72
     0
 43
0.820209973753281
 43
0.0
 43
0.0
 43
0.0
 43
0.0
 43
0.820209973753281
 43
0.0
 43
0.0
 43
0.0
 43
0.0
 43
1.0
 43
0.0
 43
0.0
 43
0.0
 43
0.0
 43
1.0
 77
     0
 47
0.820209973753281
 47
0.0
 47
0.0
 47
0.0
 47
0.0
 47
0.820209973753281
 47
0.0
 47
0.0
 47
0.0
 47
0.0
 47
1.0
 47
0.0
 47
0.0
 47
0.0
 47
0.0
 47
1.0
171
     0
 49
0.820209973753281
 49
0.0
 49
0.0
 49
0.0
 49
0.0
 49
0.820209973753281
 49
0.0
 49
0.0
 49
0.0
 49
0.0
 49
1.0
 49
0.0
 49
0.0
 49
0.0
 49
0.0
 49
1.0
175
     0
142
0.820209973753281
142
0.0
142
0.0
142
0.0
142
0.0
142
0.820209973753281
142
0.0
142
0.0
142
0.0
142
0.0
142
1.0
142
0.0
142
0.0
142
0.0
142
0.0
142
1.0
179
     0
144
0.820209973753281
144
0.0
144
0.0
144
0.0
144
0.0
144
0.820209973753281
144
0.0
144
0.0
144
0.0
144
0.0
144
1.0
144
0.0
144
0.0
144
0.0
144
0.0
144
1.0
147
0.820209973753281
147
0.0
147
0.0
147
0.0
147
0.0
147
0.820209973753281
147
0.0
147
0.0
147
0.0
147
0.0
147
1.0
147
0.0
147
0.0
147
0.0
147
0.0
147
1.0
  0
MATERIAL
  5
50C
102
{ACAD_XDICTIONARY
360
50D
102
}
102
{ACAD_REACTORS
330
1B
102
}
330
1B
100
AcDbMaterial
  1
ByLayer
 72
     0
 43
0.820209973753281
 43
0.0
 43
0.0
 43
0.0
 43
0.0
 43
0.820209973753281
 43
0.0
 43
0.0
 43
0.0
 43
0.0
 43
1.0
 43
0.0
 43
0.0
 43
0.0
 43
0.0
 43
1.0
 77
     0
 47
0.820209973753281
 47
0.0
 47
0.0
 47
0.0
 47
0.0
 47
0.820209973753281
 47
0.0
 47
0.0
 47
0.0
 47
0.0
 47
1.0
 47
0.0
 47
0.0
 47
0.0
 47
0.0
 47
1.0
171
     0
 49
0.820209973753281
 49
0.0
 49
0.0
 49
0.0
 49
0.0
 49
0.820209973753281
 49
0.0
 49
0.0
 49
0.0
 49
0.0
 49
1.0
 49
0.0
 49
0.0
 49
0.0
 49
0.0
 49
1.0
175
     0
142
0.820209973753281
142
0.0
142
0.0
142
0.0
142
0.0
142
0.820209973753281
142
0.0
142
0.0
142
0.0
142
0.0
142
1.0
142
0.0
142
0.0
142
0.0
142
0.0
142
1.0
179
     0
144
0.820209973753281
144
0.0
144
0.0
144
0.0
144
0.0
144
0.820209973753281
144
0.0
144
0.0
144
0.0
144
0.0
144
1.0
144
0.0
144
0.0
144
0.0
144
0.0
144
1.0
147
0.820209973753281
147
0.0
147
0.0
147
0.0
147
0.0
147
0.820209973753281
147
0.0
147
0.0
147
0.0
147
0.0
147
1.0
147
0.0
147
0.0
147
0.0
147
0.0
147
1.0
  0
MATERIAL
  5
51C
102
{ACAD_XDICTIONARY
360
51D
102
}
102
{ACAD_REACTORS
330
1B
102
}
330
1B
100
AcDbMaterial
  1
Global
 72
     0
 43
0.820209973753281
 43
0.0
 43
0.0
 43
0.0
 43
0.0
 43
0.820209973753281
 43
0.0
 43
0.0
 43
0.0
 43
0.0
 43
1.0
 43
0.0
 43
0.0
 43
0.0
 43
0.0
 43
1.0
 77
     0
 47
0.820209973753281
 47
0.0
 47
0.0
 47
0.0
 47
0.0
 47
0.820209973753281
 47
0.0
 47
0.0
 47
0.0
 47
0.0
 47
1.0
 47
0.0
 47
0.0
 47
0.0
 47
0.0
 47
1.0
171
     0
 49
0.820209973753281
 49
0.0
 49
0.0
 49
0.0
 49
0.0
 49
0.820209973753281
 49
0.0
 49
0.0
 49
0.0
 49
0.0
 49
1.0
 49
0.0
 49
0.0
 49
0.0
 49
0.0
 49
1.0
175
     0
142
0.820209973753281
142
0.0
142
0.0
142
0.0
142
0.0
142
0.820209973753281
142
0.0
142
0.0
142
0.0
142
0.0
142
1.0
142
0.0
142
0.0
142
0.0
142
0.0
142
1.0
179
     0
144
0.820209973753281
144
0.0
144
0.0
144
0.0
144
0.0
144
0.820209973753281
144
0.0
144
0.0
144
0.0
144
0.0
144
1.0
144
0.0
144
0.0
144
0.0
144
0.0
144
1.0
147
0.820209973753281
147
0.0
147
0.0
147
0.0
147
0.0
147
0.820209973753281
147
0.0
147
0.0
147
0.0
147
0.0
147
1.0
147
0.0
147
0.0
147
0.0
147
0.0
147
1.0
  0
MLEADERSTYLE
  5
54B
102
{ACAD_REACTORS
330
54A
102
}
330
54A
100
AcDbMLeaderStyle
170
     2
171
     1
172
     0
 90
        2
 40
0.0
 41
0.0
173
     1
 91
-1056964608
340
14
 92
       -2
290
     1
 42
2.0
291
     1
 43
0.36
  3
Standard
 44
4.0
300

342
11
174
     1
178
     6
175
     1
176
     0
 93
-1056964608
 45
4.0
292
     0
297
     0
 46
4.0
 94
-1056964608
 47
1.0
 49
1.0
140
1.0
293
     1
141
0.0
294
     1
177
     0
142
1.0
295
     0
296
     0
143
0.125
1001
ACAD_MLEADERVER
1070
     2
  0
MLINESTYLE
  5
18
102
{ACAD_REACTORS
330
17
102
}
330
17
100
AcDbMlineStyle
  2
STANDARD
 70
     0
  3

 62
   256
 51
90.0
 52
90.0
 71
     2
 49
0.5
 62
   256
  6
BYLAYER
 49
-0.5
 62
   256
  6
BYLAYER
  0
ACDBPLACEHOLDER
  5
F
102
{ACAD_REACTORS
330
E
102
}
330
E
  0
SCALE
  5
539
102
{ACAD_REACTORS
330
538
102
}
330
538
100
AcDbScale
 70
     0
300
1:1
140
1.0
141
1.0
290
     1
  0
SCALE
  5
53A
102
{ACAD_REACTORS
330
538
102
}
330
538
100
AcDbScale
 70
     0
300
1:2
140
1.0
141
2.0
290
     0
  0
SCALE
  5
53B
102
{ACAD_REACTORS
330
538
102
}
330
538
100
AcDbScale
 70
     0
300
1:4
140
1.0
141
4.0
290
     0
  0
SCALE
  5
53C
102
{ACAD_REACTORS
330
538
102
}
330
538
100
AcDbScale
 70
     0
300
1:5
140
1.0
141
5.0
290
     0
  0
SCALE
  5
53D
102
{ACAD_REACTORS
330
538
102
}
330
538
100
AcDbScale
 70
     0
300
1:8
140
1.0
141
8.0
290
     0
  0
SCALE
  5
53E
102
{ACAD_REACTORS
330
538
102
}
330
538
100
AcDbScale
 70
     0
300
1:10
140
1.0
141
10.0
290
     0
  0
SCALE
  5
53F
102
{ACAD_REACTORS
330
538
102
}
330
538
100
AcDbScale
 70
     0
300
1:16
140
1.0
141
16.0
290
     0
  0
SCALE
  5
540
102
{ACAD_REACTORS
330
538
102
}
330
538
100
AcDbScale
 70
     0
300
1:20
140
1.0
141
20.0
290
     0
  0
SCALE
  5
541
102
{ACAD_REACTORS
330
538
102
}
330
538
100
AcDbScale
 70
     0
300
1:30
140
1.0
141
30.0
290
     0
  0
SCALE
  5
542
102
{ACAD_REACTORS
330
538
102
}
330
538
100
AcDbScale
 70
     0
300
1:40
140
1.0
141
40.0
290
     0
  0
SCALE
  5
543
102
{ACAD_REACTORS
330
538
102
}
330
538
100
AcDbScale
 70
     0
300
1:50
140
1.0
141
50.0
290
     0
  0
SCALE
  5
544
102
{ACAD_REACTORS
330
538
102
}
330
538
100
AcDbScale
 70
     0
300
1:100
140
1.0
141
100.0
290
     0
  0
SCALE
  5
545
102
{ACAD_REACTORS
330
538
102
}
330
538
100
AcDbScale
 70
     0
300
2:1
140
2.0
141
1.0
290
     0
  0
SCALE
  5
546
102
{ACAD_REACTORS
330
538
102
}
330
538
100
AcDbScale
 70
     0
300
4:1
140
4.0
141
1.0
290
     0
  0
SCALE
  5
547
102
{ACAD_REACTORS
330
538
102
}
330
538
100
AcDbScale
 70
     0
300
8:1
140
8.0
141
1.0
290
     0
  0
SCALE
  5
548
102
{ACAD_REACTORS
330
538
102
}
330
538
100
AcDbScale
 70
     0
300
10:1
140
10.0
141
1.0
290
     0
  0
SCALE
  5
549
102
{ACAD_REACTORS
330
538
102
}
330
538
100
AcDbScale
 70
     0
300
100:1
140
100.0
141
1.0
290
     0
  0
TABLESTYLE
  5
1E
102
{ACAD_XDICTIONARY
360
559
102
}
102
{ACAD_REACTORS
330
1D
102
}
330
1D
100
AcDbTableStyle
  3
Standard
 70
     0
 71
     0
 40
1.5
 41
1.5
280
     0
281
     0
  7
Standard
140
4.5
170
     2
 62
     0
 63
     7
283
     0
274
    -2
284
     1
 64
     0
275
    -2
285
     1
 65
     0
276
    -2
286
     1
 66
     0
277
    -2
287
     1
 67
     0
278
    -2
288
     1
 68
     0
279
    -2
289
     1
 69
     0
  7
Standard
140
6.0
170
     5
 62
     0
 63
     7
283
     0
274
    -2
284
     1
 64
     0
275
    -2
285
     1
 65
     0
276
    -2
286
     1
 66
     0
277
    -2
287
     1
 67
     0
278
    -2
288
     1
 68
     0
279
    -2
289
     1
 69
     0
  7
Standard
140
4.5
170
     5
 62
     0
 63
     7
283
     0
274
    -2
284
     1
 64
     0
275
    -2
285
     1
 65
     0
276
    -2
286
     1
 66
     0
277
    -2
287
     1
 67
     0
278
    -2
288
     1
 68
     0
279
    -2
289
     1
 69
     0
  0
VISUALSTYLE
  5
52A
102
{ACAD_XDICTIONARY
360
571
102
}
102
{ACAD_REACTORS
330
524
102
}
330
524
100
AcDbVisualStyle
  2
2dWireframe
 70
     4
 71
     0
 72
     2
 73
     0
 90
        0
 40
-0.6
 41
-30.0
 62
     5
 63
     7
 74
     1
 91
        4
 64
     7
 65
   257
 75
     1
175
     1
 42
1.0
 92
        0
 66
   257
 43
1.0
 76
     1
 77
     6
 78
     2
 67
     7
 79
     5
170
     0
171
     0
290
     0
174
     0
 93
        1
 44
0.0
173
     0
291
     0
 45
0.0
1001
ACAD
1000
AcDbSavedByObjectVersion
1070
     0
  0
VISUALSTYLE
  5
52C
102
{ACAD_XDICTIONARY
360
575
102
}
102
{ACAD_REACTORS
330
524
102
}
330
524
100
AcDbVisualStyle
  2
3D Hidden
 70
     6
 71
     1
 72
     2
 73
     2
 90
        0
 40
-0.6
 41
-30.0
 62
     5
 63
     7
 74
     2
 91
        2
 64
     7
 65
   257
 75
     2
175
     1
 42
179.0
 92
        0
 66
   257
 43
1.0
 76
     1
 77
     6
 78
     2
 67
     7
 79
     3
170
     0
171
     0
290
     0
174
     0
 93
        1
 44
0.0
173
     0
291
     0
 45
0.0
1001
ACAD
1000
AcDbSavedByObjectVersion
1070
     0
  0
VISUALSTYLE
  5
52B
102
{ACAD_XDICTIONARY
360
573
102
}
102
{ACAD_REACTORS
330
524
102
}
330
524
100
AcDbVisualStyle
  2
3dWireframe
 70
     5
 71
     0
 72
     2
 73
     0
 90
        0
 40
-0.6
 41
-30.0
 62
     5
 63
     7
 74
     1
 91
        4
 64
     7
 65
   257
 75
     1
175
     1
 42
1.0
 92
        0
 66
   257
 43
1.0
 76
     1
 77
     6
 78
     2
 67
     7
 79
     5
170
     0
171
     0
290
     0
174
     0
 93
        1
 44
0.0
173
     0
291
     0
 45
0.0
1001
ACAD
1000
AcDbSavedByObjectVersion
1070
     0
  0
VISUALSTYLE
  5
529
102
{ACAD_XDICTIONARY
360
56F
102
}
102
{ACAD_REACTORS
330
524
102
}
330
524
100
AcDbVisualStyle
  2
Basic
 70
     7
 71
     1
 72
     0
 73
     1
 90
        0
 40
-0.6
 41
-30.0
 62
     5
 63
     7
 74
     0
 91
        4
 64
     7
 65
   257
 75
     1
175
     1
 42
1.0
 92
        8
 66
     7
 43
1.0
 76
     1
 77
     6
 78
     2
 67
     7
 79
     5
170
     0
171
     0
290
     0
174
     0
 93
        1
 44
0.0
173
     0
291
     1
 45
0.0
1001
ACAD
1000
AcDbSavedByObjectVersion
1070
     0
  0
VISUALSTYLE
  5
530
102
{ACAD_XDICTIONARY
360
57D
102
}
102
{ACAD_REACTORS
330
524
102
}
330
524
100
AcDbVisualStyle
  2
Brighten
 70
    12
 71
     2
 72
     2
 73
     0
 90
        0
 40
-0.6
 41
-30.0
 62
     5
 63
     7
 74
     1
 91
        4
 64
     7
 65
   257
 75
     1
175
     1
 42
1.0
 92
        8
 66
     7
 43
1.0
 76
     1
 77
     6
 78
     2
 67
     7
 79
     5
170
     0
171
     0
290
     0
174
     0
 93
        1
 44
50.0
173
     0
291
     1
 45
0.0
1001
ACAD
1000
AcDbSavedByObjectVersion
1070
     0
  0
VISUALSTYLE
  5
534
102
{ACAD_XDICTIONARY
360
585
102
}
102
{ACAD_REACTORS
330
524
102
}
330
524
100
AcDbVisualStyle
  2
ColorChange
 70
    16
 71
     2
 72
     2
 73
     3
 90
        0
 40
-0.6
 41
-30.0
 62
     5
 63
     8
 74
     1
 91
        4
 64
     7
 65
   257
 75
     1
175
     1
 42
1.0
 92
        8
 66
     8
 43
1.0
 76
     1
 77
     6
 78
     2
 67
     7
 79
     5
170
     0
171
     0
290
     0
174
     0
 93
        1
 44
0.0
173
     0
291
     1
 45
0.0
1001
ACAD
1000
AcDbSavedByObjectVersion
1070
     0
  0
VISUALSTYLE
  5
52D
102
{ACAD_XDICTIONARY
360
577
102
}
102
{ACAD_REACTORS
330
524
102
}
330
524
100
AcDbVisualStyle
  2
Conceptual
 70
     9
 71
     3
 72
     2
 73
     0
 90
        0
 40
-0.6
 41
-30.0
 62
     5
 63
     7
 74
     2
 91
        2
 64
     7
 65
   257
 75
     1
175
     1
 42
179.0
 92
        8
 66
     7
 43
1.0
 76
     1
 77
     6
 78
     2
 67
     7
 79
     3
170
     0
171
     0
290
     0
174
     0
 93
        1
 44
0.0
173
     0
291
     0
 45
0.0
1001
ACAD
1000
AcDbSavedByObjectVersion
1070
     0
  0
VISUALSTYLE
  5
52F
102
{ACAD_XDICTIONARY
360
57B
102
}
102
{ACAD_REACTORS
330
524
102
}
330
524
100
AcDbVisualStyle
  2
Dim
 70
    11
 71
     2
 72
     2
 73
     0
 90
        0
 40
-0.6
 41
-30.0
 62
     5
 63
     7
 74
     1
 91
        4
 64
     7
 65
   257
 75
     1
175
     1
 42
1.0
 92
        8
 66
     7
 43
1.0
 76
     1
 77
     6
 78
     2
 67
     7
 79
     5
170
     0
171
     0
290
     0
174
     0
 93
        1
 44
-50.0
173
     0
291
     1
 45
0.0
1001
ACAD
1000
AcDbSavedByObjectVersion
1070
     0
  0
VISUALSTYLE
  5
537
102
{ACAD_XDICTIONARY
360
58B
102
}
102
{ACAD_REACTORS
330
524
102
}
330
524
100
AcDbVisualStyle
  2
EdgeColorOff
 70
    22
 71
     2
 72
     2
 73
     0
 90
        0
 40
-0.6
 41
-30.0
 62
     5
 63
     7
 74
     1
 91
        4
 64
     7
 65
   257
 75
     1
175
     1
 42
1.0
 92
        8
 66
     7
 43
1.0
 76
     1
 77
     6
 78
     2
 67
     7
 79
     5
170
     0
171
     0
290
     0
174
     0
 93
        1
 44
0.0
173
     0
291
     1
 45
0.0
1001
ACAD
1000
AcDbSavedByObjectVersion
1070
     0
  0
VISUALSTYLE
  5
533
102
{ACAD_XDICTIONARY
360
583
102
}
102
{ACAD_REACTORS
330
524
102
}
330
524
100
AcDbVisualStyle
  2
Facepattern
 70
    15
 71
     2
 72
     2
 73
     0
 90
        0
 40
-0.6
 41
-30.0
 62
     5
 63
     7
 74
     1
 91
        4
 64
     7
 65
   257
 75
     1
175
     1
 42
1.0
 92
        8
 66
     7
 43
1.0
 76
     1
 77
     6
 78
     2
 67
     7
 79
     5
170
     0
171
     0
290
     0
174
     0
 93
        1
 44
0.0
173
     0
291
     1
 45
0.0
1001
ACAD
1000
AcDbSavedByObjectVersion
1070
     0
  0
VISUALSTYLE
  5
525
102
{ACAD_XDICTIONARY
360
567
102
}
102
{ACAD_REACTORS
330
524
102
}
330
524
100
AcDbVisualStyle
  2
Flat
 70
     0
 71
     2
 72
     1
 73
     1
 90
        2
 40
-0.6
 41
30.0
 62
     5
 63
     7
 74
     0
 91
        4
 64
     7
 65
   257
 75
     1
175
     1
 42
1.0
 92
        8
 66
     7
 43
1.0
 76
     1
 77
     6
 78
     2
 67
     7
 79
     5
170
     0
171
     0
290
     0
174
     0
 93
       13
 44
0.0
173
     0
291
     1
 45
0.0
1001
ACAD
1000
AcDbSavedByObjectVersion
1070
     0
  0
VISUALSTYLE
  5
526
102
{ACAD_XDICTIONARY
360
569
102
}
102
{ACAD_REACTORS
330
524
102
}
330
524
100
AcDbVisualStyle
  2
FlatWithEdges
 70
     1
 71
     2
 72
     1
 73
     1
 90
        2
 40
-0.6
 41
30.0
 62
     5
 63
     7
 74
     1
 91
        4
 64
     7
 65
   257
 75
     1
175
     1
 42
1.0
 92
        0
 66
   257
 43
1.0
 76
     1
 77
     6
 78
     2
 67
     7
 79
     5
170
     0
171
     0
290
     0
174
     0
 93
       13
 44
0.0
173
     0
291
     1
 45
0.0
1001
ACAD
1000
AcDbSavedByObjectVersion
1070
     0
  0
VISUALSTYLE
  5
527
102
{ACAD_XDICTIONARY
360
56B
102
}
102
{ACAD_REACTORS
330
524
102
}
330
524
100
AcDbVisualStyle
  2
Gouraud
 70
     2
 71
     2
 72
     2
 73
     1
 90
        2
 40
-0.6
 41
30.0
 62
     5
 63
     7
 74
     0
 91
        4
 64
     7
 65
   257
 75
     1
175
     1
 42
1.0
 92
        0
 66
     7
 43
1.0
 76
     1
 77
     6
 78
     2
 67
     7
 79
     5
170
     0
171
     0
290
     0
174
     0
 93
       13
 44
0.0
173
     0
291
     1
 45
0.0
1001
ACAD
1000
AcDbSavedByObjectVersion
1070
     0
  0
VISUALSTYLE
  5
528
102
{ACAD_XDICTIONARY
360
56D
102
}
102
{ACAD_REACTORS
330
524
102
}
330
524
100
AcDbVisualStyle
  2
GouraudWithEdges
 70
     3
 71
     2
 72
     2
 73
     1
 90
        2
 40
-0.6
 41
30.0
 62
     5
 63
     7
 74
     1
 91
        4
 64
     7
 65
   257
 75
     1
175
     1
 42
1.0
 92
        0
 66
   257
 43
1.0
 76
     1
 77
     6
 78
     2
 67
     7
 79
     5
170
     0
171
     0
290
     0
174
     0
 93
       13
 44
0.0
173
     0
291
     1
 45
0.0
1001
ACAD
1000
AcDbSavedByObjectVersion
1070
     0
  0
VISUALSTYLE
  5
535
102
{ACAD_XDICTIONARY
360
587
102
}
102
{ACAD_REACTORS
330
524
102
}
330
524
100
AcDbVisualStyle
  2
JitterOff
 70
    20
 71
     2
 72
     2
 73
     0
 90
        0
 40
-0.6
 41
-30.0
 62
     5
 63
     7
 74
     1
 91
        4
 64
     7
 65
   257
 75
     1
175
     1
 42
1.0
 92
       10
 66
     7
 43
1.0
 76
     1
 77
     6
 78
     2
 67
     7
 79
     5
170
     0
171
     0
290
     0
174
     0
 93
        1
 44
0.0
173
     0
291
     1
 45
0.0
1001
ACAD
1000
AcDbSavedByObjectVersion
1070
     0
  0
VISUALSTYLE
  5
532
102
{ACAD_XDICTIONARY
360
581
102
}
102
{ACAD_REACTORS
330
524
102
}
330
524
100
AcDbVisualStyle
  2
Linepattern
 70
    14
 71
     2
 72
     2
 73
     0
 90
        0
 40
-0.6
 41
-30.0
 62
     5
 63
     7
 74
     1
 91
        4
 64
     7
 65
   257
 75
     7
175
     7
 42
1.0
 92
        8
 66
     7
 43
1.0
 76
     1
 77
     6
 78
     2
 67
     7
 79
     5
170
     0
171
     0
290
     0
174
     0
 93
        1
 44
0.0
173
     0
291
     1
 45
0.0
1001
ACAD
1000
AcDbSavedByObjectVersion
1070
     0
  0
VISUALSTYLE
  5
536
102
{ACAD_XDICTIONARY
360
589
102
}
102
{ACAD_REACTORS
330
524
102
}
330
524
100
AcDbVisualStyle
  2
OverhangOff
 70
    21
 71
     2
 72
     2
 73
     0
 90
        0
 40
-0.6
 41
-30.0
 62
     5
 63
     7
 74
     1
 91
        4
 64
     7
 65
   257
 75
     1
175
     1
 42
1.0
 92
        9
 66
     7
 43
1.0
 76
     1
 77
     6
 78
     2
 67
     7
 79
     5
170
     0
171
     0
290
     0
174
     0
 93
        1
 44
0.0
173
     0
291
     1
 45
0.0
1001
ACAD
1000
AcDbSavedByObjectVersion
1070
     0
  0
VISUALSTYLE
  5
52E
102
{ACAD_XDICTIONARY
360
579
102
}
102
{ACAD_REACTORS
330
524
102
}
330
524
100
AcDbVisualStyle
  2
Realistic
 70
     8
 71
     2
 72
     2
 73
     0
 90
        0
 40
-0.6
 41
-30.0
 62
     5
 63
     7
 74
     1
 91
        0
 64
     7
 65
   257
 75
     1
175
     1
 42
1.0
 92
        8
 66
     8
 43
1.0
 76
     1
 77
     6
 78
     2
 67
     7
 79
     5
170
     0
171
     0
290
     0
174
     0
 93
       13
 44
0.0
173
     0
291
     0
 45
0.0
1001
ACAD
1000
AcDbSavedByObjectVersion
1070
     0
  0
VISUALSTYLE
  5
531
102
{ACAD_XDICTIONARY
360
57F
102
}
102
{ACAD_REACTORS
330
524
102
}
330
524
100
AcDbVisualStyle
  2
Thicken
 70
    13
 71
     2
 72
     2
 73
     0
 90
        0
 40
-0.6
 41
-30.0
 62
     5
 63
     7
 74
     1
 91
        4
 64
     7
 65
   257
 75
     1
175
     1
 42
1.0
 92
       12
 66
     7
 43
1.0
 76
     1
 77
     6
 78
     2
 67
     7
 79
     5
170
     0
171
     0
290
     0
174
     0
 93
        1
 44
0.0
173
     0
291
     1
 45
0.0
1001
ACAD
1000
AcDbSavedByObjectVersion
1070
     0
  0
DICTIONARYVAR
  5
555
102
{ACAD_REACTORS
330
4C9
102
}
330
4C9
100
DictionaryVariables
280
     0
  1
1:1
  0
DICTIONARYVAR
  5
554
102
{ACAD_REACTORS
330
4C9
102
}
330
4C9
100
DictionaryVariables
280
     0
  1
STANDARD
  0
DICTIONARYVAR
  5
4CA
102
{ACAD_REACTORS
330
4C9
102
}
330
4C9
100
DictionaryVariables
280
     0
  1
STANDARD
  0
DICTIONARYVAR
  5
509
102
{ACAD_REACTORS
330
4C9
102
}
330
4C9
100
DictionaryVariables
280
     0
  1
2
  0
DICTIONARYVAR
  5
508
102
{ACAD_REACTORS
330
4C9
102
}
330
4C9
100
DictionaryVariables
280
     0
  1
1
  0
DICTIONARYVAR
  5
557
102
{ACAD_REACTORS
330
4C9
102
}
330
4C9
100
DictionaryVariables
280
     0
  1
0
  0
DICTIONARYVAR
  5
50A
102
{ACAD_REACTORS
330
4C9
102
}
330
4C9
100
DictionaryVariables
280
     0
  1

  0
DICTIONARYVAR
  5
556
102
{ACAD_REACTORS
330
4C9
102
}
330
4C9
100
DictionaryVariables
280
     0
  1
127
  0
DICTIONARYVAR
  5
558
102
{ACAD_REACTORS
330
4C9
102
}
330
4C9
100
DictionaryVariables
280
     0
  1
2
  0
DICTIONARY
  5
55E
330
22
100
AcDbDictionary
280
     1
281
     1
  3
ACAD_XREC_ROUNDTRIP
360
55F
  0
DICTIONARY
  5
562
330
2A
100
AcDbDictionary
280
     1
281
     1
  3
ACAD_XREC_ROUNDTRIP
360
563
  0
DICTIONARY
  5
560
330
26
100
AcDbDictionary
280
     1
281
     1
  3
ACAD_XREC_ROUNDTRIP
360
561
  0
DICTIONARY
  5
515
330
514
100
AcDbDictionary
280
     1
281
     1
  3
ACAD_XREC_ROUNDTRIP
360
565
  3
BUMPTILE
360
517
  3
DIFFUSETILE
360
516
  3
OPACITYTILE
360
51A
  3
REFLECTIONTILE
360
519
  3
REFRACTIONTILE
360
51B
  3
SPECULARTILE
360
518
  0
DICTIONARY
  5
50D
330
50C
100
AcDbDictionary
280
     1
281
     1
  3
ACAD_XREC_ROUNDTRIP
360
564
  3
BUMPTILE
360
50F
  3
DIFFUSETILE
360
50E
  3
OPACITYTILE
360
512
  3
REFLECTIONTILE
360
511
  3
REFRACTIONTILE
360
513
  3
SPECULARTILE
360
510
  0
DICTIONARY
  5
51D
330
51C
100
AcDbDictionary
280
     1
281
     1
  3
ACAD_XREC_ROUNDTRIP
360
566
  3
BUMPTILE
360
51F
  3
DIFFUSETILE
360
51E
  3
OPACITYTILE
360
522
  3
REFLECTIONTILE
360
521
  3
REFRACTIONTILE
360
523
  3
SPECULARTILE
360
520
  0
DICTIONARY
  5
559
330
1E
100
AcDbDictionary
280
     1
281
     1
  3
ACAD_ROUNDTRIP_2008_TABLESTYLE_CELLSTYLEMAP
360
55A
  3
ACAD_XREC_ROUNDTRIP
360
55D
  0
DICTIONARY
  5
571
330
52A
100
AcDbDictionary
280
     1
281
     1
  3
ACAD_XREC_ROUNDTRIP
360
572
  0
DICTIONARY
  5
575
330
52C
100
AcDbDictionary
280
     1
281
     1
  3
ACAD_XREC_ROUNDTRIP
360
576
  0
DICTIONARY
  5
573
330
52B
100
AcDbDictionary
280
     1
281
     1
  3
ACAD_XREC_ROUNDTRIP
360
574
  0
DICTIONARY
  5
56F
330
529
100
AcDbDictionary
280
     1
281
     1
  3
ACAD_XREC_ROUNDTRIP
360
570
  0
DICTIONARY
  5
57D
330
530
100
AcDbDictionary
280
     1
281
     1
  3
ACAD_XREC_ROUNDTRIP
360
57E
  0
DICTIONARY
  5
585
330
534
100
AcDbDictionary
280
     1
281
     1
  3
ACAD_XREC_ROUNDTRIP
360
586
  0
DICTIONARY
  5
577
330
52D
100
AcDbDictionary
280
     1
281
     1
  3
ACAD_XREC_ROUNDTRIP
360
578
  0
DICTIONARY
  5
57B
330
52F
100
AcDbDictionary
280
     1
281
     1
  3
ACAD_XREC_ROUNDTRIP
360
57C
  0
DICTIONARY
  5
58B
330
537
100
AcDbDictionary
280
     1
281
     1
  3
ACAD_XREC_ROUNDTRIP
360
58C
  0
DICTIONARY
  5
583
330
533
100
AcDbDictionary
280
     1
281
     1
  3
ACAD_XREC_ROUNDTRIP
360
584
  0
DICTIONARY
  5
567
330
525
100
AcDbDictionary
280
     1
281
     1
  3
ACAD_XREC_ROUNDTRIP
360
568
  0
DICTIONARY
  5
569
330
526
100
AcDbDictionary
280
     1
281
     1
  3
ACAD_XREC_ROUNDTRIP
360
56A
  0
DICTIONARY
  5
56B
330
527
100
AcDbDictionary
280
     1
281
     1
  3
ACAD_XREC_ROUNDTRIP
360
56C
  0
DICTIONARY
  5
56D
330
528
100
AcDbDictionary
280
     1
281
     1
  3
ACAD_XREC_ROUNDTRIP
360
56E
  0
DICTIONARY
  5
587
330
535
100
AcDbDictionary
280
     1
281
     1
  3
ACAD_XREC_ROUNDTRIP
360
588
  0
DICTIONARY
  5
581
330
532
100
AcDbDictionary
280
     1
281
     1
  3
ACAD_XREC_ROUNDTRIP
360
582
  0
DICTIONARY
  5
589
330
536
100
AcDbDictionary
280
     1
281
     1
  3
ACAD_XREC_ROUNDTRIP
360
58A
  0
DICTIONARY
  5
579
330
52E
100
AcDbDictionary
280
     1
281
     1
  3
ACAD_XREC_ROUNDTRIP
360
57A
  0
DICTIONARY
  5
57F
330
531
100
AcDbDictionary
280
     1
281
     1
  3
ACAD_XREC_ROUNDTRIP
360
580
  0
XRECORD
  5
55F
102
{ACAD_REACTORS
330
55E
102
}
330
55E
100
AcDbXrecord
280
     1
102
SHADEPLOT
 70
     0
102
SHADEPLOTRESLEVEL
 70
     2
102
SHADEPLOTCUSTOMDPI
 70
   300
  0
XRECORD
  5
563
102
{ACAD_REACTORS
330
562
102
}
330
562
100
AcDbXrecord
280
     1
102
SHADEPLOT
 70
     0
102
SHADEPLOTRESLEVEL
 70
     2
102
SHADEPLOTCUSTOMDPI
 70
   300
  0
XRECORD
  5
561
102
{ACAD_REACTORS
330
560
102
}
330
560
100
AcDbXrecord
280
     1
102
SHADEPLOT
 70
     0
102
SHADEPLOTRESLEVEL
 70
     2
102
SHADEPLOTCUSTOMDPI
 70
   300
  0
XRECORD
  5
565
102
{ACAD_REACTORS
330
515
102
}
330
515
100
AcDbXrecord
280
     1
102
MATERIAL
148
0.0
149
0.0
149
0.0
 93
        0
 94
      127
282
     0
 72
     0
 77
     0
171
     0
175
     0
179
     0
273
     0
  0
XRECORD
  5
517
102
{ACAD_REACTORS
330
515
102
}
330
515
100
AcDbXrecord
280
     1
270
     1
271
     1
  0
XRECORD
  5
516
102
{ACAD_REACTORS
330
515
102
}
330
515
100
AcDbXrecord
280
     1
270
     1
271
     1
  0
XRECORD
  5
51A
102
{ACAD_REACTORS
330
515
102
}
330
515
100
AcDbXrecord
280
     1
270
     1
271
     1
  0
XRECORD
  5
519
102
{ACAD_REACTORS
330
515
102
}
330
515
100
AcDbXrecord
280
     1
270
     1
271
     1
  0
XRECORD
  5
51B
102
{ACAD_REACTORS
330
515
102
}
330
515
100
AcDbXrecord
280
     1
270
     1
271
     1
  0
XRECORD
  5
518
102
{ACAD_REACTORS
330
515
102
}
330
515
100
AcDbXrecord
280
     1
270
     1
271
     1
  0
XRECORD
  5
564
102
{ACAD_REACTORS
330
50D
102
}
330
50D
100
AcDbXrecord
280
     1
102
MATERIAL
148
0.0
149
0.0
149
0.0
 93
        0
 94
      127
282
     0
 72
     0
 77
     0
171
     0
175
     0
179
     0
273
     0
  0
XRECORD
  5
50F
102
{ACAD_REACTORS
330
50D
102
}
330
50D
100
AcDbXrecord
280
     1
270
     1
271
     1
  0
XRECORD
  5
50E
102
{ACAD_REACTORS
330
50D
102
}
330
50D
100
AcDbXrecord
280
     1
270
     1
271
     1
  0
XRECORD
  5
512
102
{ACAD_REACTORS
330
50D
102
}
330
50D
100
AcDbXrecord
280
     1
270
     1
271
     1
  0
XRECORD
  5
511
102
{ACAD_REACTORS
330
50D
102
}
330
50D
100
AcDbXrecord
280
     1
270
     1
271
     1
  0
XRECORD
  5
513
102
{ACAD_REACTORS
330
50D
102
}
330
50D
100
AcDbXrecord
280
     1
270
     1
271
     1
  0
XRECORD
  5
510
102
{ACAD_REACTORS
330
50D
102
}
330
50D
100
AcDbXrecord
280
     1
270
     1
271
     1
  0
XRECORD
  5
566
102
{ACAD_REACTORS
330
51D
102
}
330
51D
100
AcDbXrecord
280
     1
102
MATERIAL
148
0.0
149
0.0
149
0.0
 93
        0
 94
      127
282
     0
 72
     0
 77
     0
171
     0
175
     0
179
     0
273
     0
  0
XRECORD
  5
51F
102
{ACAD_REACTORS
330
51D
102
}
330
51D
100
AcDbXrecord
280
     1
270
     1
271
     1
  0
XRECORD
  5
51E
102
{ACAD_REACTORS
330
51D
102
}
330
51D
100
AcDbXrecord
280
     1
270
     1
271
     1
  0
XRECORD
  5
522
102
{ACAD_REACTORS
330
51D
102
}
330
51D
100
AcDbXrecord
280
     1
270
     1
271
     1
  0
XRECORD
  5
521
102
{ACAD_REACTORS
330
51D
102
}
330
51D
100
AcDbXrecord
280
     1
270
     1
271
     1
  0
XRECORD
  5
523
102
{ACAD_REACTORS
330
51D
102
}
330
51D
100
AcDbXrecord
280
     1
270
     1
271
     1
  0
XRECORD
  5
520
102
{ACAD_REACTORS
330
51D
102
}
330
51D
100
AcDbXrecord
280
     1
270
     1
271
     1
  0
CELLSTYLEMAP
  5
55A
102
{ACAD_REACTORS
330
559
102
}
330
559
100
AcDbCellStyleMap
 90
        3
300
CELLSTYLE
  1
TABLEFORMAT_BEGIN
 90
        5
170
     1
 91
        0
 92
    32768
 62
   257
 93
        1
300
CONTENTFORMAT
  1
CONTENTFORMAT_BEGIN
 90
        0
 91
        0
 92
        4
 93
        0
300

 40
0.0
140
1.0
 94
        5
 62
     0
340
11
144
6.0
309
CONTENTFORMAT_END
171
     1
301
MARGIN
  1
CELLMARGIN_BEGIN
 40
1.5
 40
1.5
 40
1.5
 40
1.5
 40
0.18
 40
0.18
309
CELLMARGIN_END
 94
        6
 95
        1
302
GRIDFORMAT
  1
GRIDFORMAT_BEGIN
 90
        0
 91
        1
 62
     0
 92
       -2
340
0
 93
        0
 40
0.045
309
GRIDFORMAT_END
 95
        2
302
GRIDFORMAT
  1
GRIDFORMAT_BEGIN
 90
        0
 91
        1
 62
     0
 92
       -2
340
0
 93
        0
 40
0.045
309
GRIDFORMAT_END
 95
        4
302
GRIDFORMAT
  1
GRIDFORMAT_BEGIN
 90
        0
 91
        1
 62
     0
 92
       -2
340
0
 93
        0
 40
0.045
309
GRIDFORMAT_END
 95
        8
302
GRIDFORMAT
  1
GRIDFORMAT_BEGIN
 90
        0
 91
        1
 62
     0
 92
       -2
340
0
 93
        0
 40
0.045
309
GRIDFORMAT_END
 95
       16
302
GRIDFORMAT
  1
GRIDFORMAT_BEGIN
 90
        0
 91
        1
 62
     0
 92
       -2
340
0
 93
        0
 40
0.045
309
GRIDFORMAT_END
 95
       32
302
GRIDFORMAT
  1
GRIDFORMAT_BEGIN
 90
        0
 91
        1
 62
     0
 92
       -2
340
0
 93
        0
 40
0.045
309
GRIDFORMAT_END
309
TABLEFORMAT_END
  1
CELLSTYLE_BEGIN
 90
        1
 91
        1
300
_TITLE
309
CELLSTYLE_END
300
CELLSTYLE
  1
TABLEFORMAT_BEGIN
 90
        5
170
     1
 91
        0
 92
        0
 62
   257
 93
        1
300
CONTENTFORMAT
  1
CONTENTFORMAT_BEGIN
 90
        0
 91
        0
 92
        4
 93
        0
300

 40
0.0
140
1.0
 94
        5
 62
     0
340
11
144
4.5
309
CONTENTFORMAT_END
171
     1
301
MARGIN
  1
CELLMARGIN_BEGIN
 40
1.5
 40
1.5
 40
1.5
 40
1.5
 40
0.18
 40
0.18
309
CELLMARGIN_END
 94
        6
 95
        1
302
GRIDFORMAT
  1
GRIDFORMAT_BEGIN
 90
        0
 91
        1
 62
     0
 92
       -2
340
0
 93
        0
 40
0.045
309
GRIDFORMAT_END
 95
        2
302
GRIDFORMAT
  1
GRIDFORMAT_BEGIN
 90
        0
 91
        1
 62
     0
 92
       -2
340
0
 93
        0
 40
0.045
309
GRIDFORMAT_END
 95
        4
302
GRIDFORMAT
  1
GRIDFORMAT_BEGIN
 90
        0
 91
        1
 62
     0
 92
       -2
340
0
 93
        0
 40
0.045
309
GRIDFORMAT_END
 95
        8
302
GRIDFORMAT
  1
GRIDFORMAT_BEGIN
 90
        0
 91
        1
 62
     0
 92
       -2
340
0
 93
        0
 40
0.045
309
GRIDFORMAT_END
 95
       16
302
GRIDFORMAT
  1
GRIDFORMAT_BEGIN
 90
        0
 91
        1
 62
     0
 92
       -2
340
0
 93
        0
 40
0.045
309
GRIDFORMAT_END
 95
       32
302
GRIDFORMAT
  1
GRIDFORMAT_BEGIN
 90
        0
 91
        1
 62
     0
 92
       -2
340
0
 93
        0
 40
0.045
309
GRIDFORMAT_END
309
TABLEFORMAT_END
  1
CELLSTYLE_BEGIN
 90
        2
 91
        1
300
_HEADER
309
CELLSTYLE_END
300
CELLSTYLE
  1
TABLEFORMAT_BEGIN
 90
        5
170
     1
 91
        0
 92
        0
 62
   257
 93
        1
300
CONTENTFORMAT
  1
CONTENTFORMAT_BEGIN
 90
        0
 91
        0
 92
        4
 93
        0
300

 40
0.0
140
1.0
 94
        2
 62
     0
340
11
144
4.5
309
CONTENTFORMAT_END
171
     1
301
MARGIN
  1
CELLMARGIN_BEGIN
 40
1.5
 40
1.5
 40
1.5
 40
1.5
 40
0.18
 40
0.18
309
CELLMARGIN_END
 94
        6
 95
        1
302
GRIDFORMAT
  1
GRIDFORMAT_BEGIN
 90
        0
 91
        1
 62
     0
 92
       -2
340
0
 93
        0
 40
0.045
309
GRIDFORMAT_END
 95
        2
302
GRIDFORMAT
  1
GRIDFORMAT_BEGIN
 90
        0
 91
        1
 62
     0
 92
       -2
340
0
 93
        0
 40
0.045
309
GRIDFORMAT_END
 95
        4
302
GRIDFORMAT
  1
GRIDFORMAT_BEGIN
 90
        0
 91
        1
 62
     0
 92
       -2
340
0
 93
        0
 40
0.045
309
GRIDFORMAT_END
 95
        8
302
GRIDFORMAT
  1
GRIDFORMAT_BEGIN
 90
        0
 91
        1
 62
     0
 92
       -2
340
0
 93
        0
 40
0.045
309
GRIDFORMAT_END
 95
       16
302
GRIDFORMAT
  1
GRIDFORMAT_BEGIN
 90
        0
 91
        1
 62
     0
 92
       -2
340
0
 93
        0
 40
0.045
309
GRIDFORMAT_END
 95
       32
302
GRIDFORMAT
  1
GRIDFORMAT_BEGIN
 90
        0
 91
        1
 62
     0
 92
       -2
340
0
 93
        0
 40
0.045
309
GRIDFORMAT_END
309
TABLEFORMAT_END
  1
CELLSTYLE_BEGIN
 90
        3
 91
        2
300
_DATA
309
CELLSTYLE_END
  0
XRECORD
  5
55D
102
{ACAD_REACTORS
330
559
102
}
330
559
100
AcDbXrecord
280
     1
102
ACAD_ROUNDTRIP_PRE2007_TABLESTYLE
 90
        4
 91
        0
  1

 92
        4
 93
        0
  2

 94
        4
 95
        0
  3

  0
XRECORD
  5
572
102
{ACAD_REACTORS
330
571
102
}
330
571
100
AcDbXrecord
280
     1
102
RTVSPropertyOp0
 70
     1
102
RTVSPropertyOp1
 70
     1
102
RTVSPropertyOp2
 70
     1
102
RTVSPropertyOp3
 70
     1
102
RTVSPropertyOp4
 70
     1
102
RTVSPropertyOp5
 70
     1
102
RTVSPropertyOp6
 70
     1
102
RTVSPropertyOp7
 70
     1
102
RTVSPropertyOp8
 70
     1
102
RTVSPropertyOp9
 70
     1
102
RTVSPropertyOp10
 70
     1
102
RTVSPropertyOp11
 70
     1
102
RTVSPropertyOp12
 70
     1
102
RTVSPropertyOp13
 70
     1
102
RTVSPropertyOp14
 70
     1
102
RTVSPropertyOp15
 70
     1
102
RTVSPropertyOp16
 70
     1
102
RTVSPropertyOp17
 70
     1
102
RTVSPropertyOp18
 70
     1
102
RTVSPropertyOp19
 70
     1
102
RTVSPropertyOp20
 70
     1
102
RTVSPropertyOp21
 70
     1
102
RTVSPropertyOp22
 70
     1
102
RTVSPropertyOp23
 70
     1
102
RTVSPropertyOp24
 70
     1
102
RTVSPropertyOp25
 70
     1
102
RTVSPropertyOp26
 70
     1
102
RTVSPropertyOp27
 70
     1
  0
XRECORD
  5
576
102
{ACAD_REACTORS
330
575
102
}
330
575
100
AcDbXrecord
280
     1
102
RTVSPropertyOp0
 70
     1
102
RTVSPropertyOp1
 70
     1
102
RTVSPropertyOp2
 70
     1
102
RTVSPropertyOp3
 70
     1
102
RTVSPropertyOp4
 70
     1
102
RTVSPropertyOp5
 70
     1
102
RTVSPropertyOp6
 70
     1
102
RTVSPropertyOp7
 70
     1
102
RTVSPropertyOp8
 70
     1
102
RTVSPropertyOp9
 70
     1
102
RTVSPropertyOp10
 70
     1
102
RTVSPropertyOp11
 70
     1
102
RTVSPropertyOp12
 70
     1
102
RTVSPropertyOp13
 70
     1
102
RTVSPropertyOp14
 70
     1
102
RTVSPropertyOp15
 70
     1
102
RTVSPropertyOp16
 70
     1
102
RTVSPropertyOp17
 70
     1
102
RTVSPropertyOp18
 70
     1
102
RTVSPropertyOp19
 70
     1
102
RTVSPropertyOp20
 70
     1
102
RTVSPropertyOp21
 70
     1
102
RTVSPropertyOp22
 70
     1
102
RTVSPropertyOp23
 70
     1
102
RTVSPropertyOp24
 70
     1
102
RTVSPropertyOp25
 70
     1
102
RTVSPropertyOp26
 70
     1
102
RTVSPropertyOp27
 70
     1
  0
XRECORD
  5
574
102
{ACAD_REACTORS
330
573
102
}
330
573
100
AcDbXrecord
280
     1
102
RTVSPropertyOp0
 70
     1
102
RTVSPropertyOp1
 70
     1
102
RTVSPropertyOp2
 70
     1
102
RTVSPropertyOp3
 70
     1
102
RTVSPropertyOp4
 70
     1
102
RTVSPropertyOp5
 70
     1
102
RTVSPropertyOp6
 70
     1
102
RTVSPropertyOp7
 70
     1
102
RTVSPropertyOp8
 70
     1
102
RTVSPropertyOp9
 70
     1
102
RTVSPropertyOp10
 70
     1
102
RTVSPropertyOp11
 70
     1
102
RTVSPropertyOp12
 70
     1
102
RTVSPropertyOp13
 70
     1
102
RTVSPropertyOp14
 70
     1
102
RTVSPropertyOp15
 70
     1
102
RTVSPropertyOp16
 70
     1
102
RTVSPropertyOp17
 70
     1
102
RTVSPropertyOp18
 70
     1
102
RTVSPropertyOp19
 70
     1
102
RTVSPropertyOp20
 70
     1
102
RTVSPropertyOp21
 70
     1
102
RTVSPropertyOp22
 70
     1
102
RTVSPropertyOp23
 70
     1
102
RTVSPropertyOp24
 70
     1
102
RTVSPropertyOp25
 70
     1
102
RTVSPropertyOp26
 70
     1
102
RTVSPropertyOp27
 70
     1
  0
XRECORD
  5
570
102
{ACAD_REACTORS
330
56F
102
}
330
56F
100
AcDbXrecord
280
     1
102
RTVSPropertyOp0
 70
     1
102
RTVSPropertyOp1
 70
     1
102
RTVSPropertyOp2
 70
     1
102
RTVSPropertyOp3
 70
     1
102
RTVSPropertyOp4
 70
     1
102
RTVSPropertyOp5
 70
     1
102
RTVSPropertyOp6
 70
     1
102
RTVSPropertyOp7
 70
     1
102
RTVSPropertyOp8
 70
     1
102
RTVSPropertyOp9
 70
     1
102
RTVSPropertyOp10
 70
     1
102
RTVSPropertyOp11
 70
     1
102
RTVSPropertyOp12
 70
     1
102
RTVSPropertyOp13
 70
     1
102
RTVSPropertyOp14
 70
     1
102
RTVSPropertyOp15
 70
     1
102
RTVSPropertyOp16
 70
     1
102
RTVSPropertyOp17
 70
     1
102
RTVSPropertyOp18
 70
     1
102
RTVSPropertyOp19
 70
     1
102
RTVSPropertyOp20
 70
     1
102
RTVSPropertyOp21
 70
     1
102
RTVSPropertyOp22
 70
     1
102
RTVSPropertyOp23
 70
     1
102
RTVSPropertyOp24
 70
     1
102
RTVSPropertyOp25
 70
     1
102
RTVSPropertyOp26
 70
     1
102
RTVSPropertyOp27
 70
     1
  0
XRECORD
  5
57E
102
{ACAD_REACTORS
330
57D
102
}
330
57D
100
AcDbXrecord
280
     1
102
RTVSPropertyOp0
 70
     1
102
RTVSPropertyOp1
 70
     1
102
RTVSPropertyOp2
 70
     1
102
RTVSPropertyOp3
 70
     1
102
RTVSPropertyOp4
 70
     1
102
RTVSPropertyOp5
 70
     1
102
RTVSPropertyOp6
 70
     1
102
RTVSPropertyOp7
 70
     1
102
RTVSPropertyOp8
 70
     1
102
RTVSPropertyOp9
 70
     1
102
RTVSPropertyOp10
 70
     1
102
RTVSPropertyOp11
 70
     1
102
RTVSPropertyOp12
 70
     1
102
RTVSPropertyOp13
 70
     1
102
RTVSPropertyOp14
 70
     1
102
RTVSPropertyOp15
 70
     1
102
RTVSPropertyOp16
 70
     1
102
RTVSPropertyOp17
 70
     1
102
RTVSPropertyOp18
 70
     1
102
RTVSPropertyOp19
 70
     1
102
RTVSPropertyOp20
 70
     1
102
RTVSPropertyOp21
 70
     1
102
RTVSPropertyOp22
 70
     1
102
RTVSPropertyOp23
 70
     1
102
RTVSPropertyOp24
 70
     1
102
RTVSPropertyOp25
 70
     1
102
RTVSPropertyOp26
 70
     1
102
RTVSPropertyOp27
 70
     1
  0
XRECORD
  5
586
102
{ACAD_REACTORS
330
585
102
}
330
585
100
AcDbXrecord
280
     1
102
RTVSPropertyOp0
 70
     1
102
RTVSPropertyOp1
 70
     1
102
RTVSPropertyOp2
 70
     1
102
RTVSPropertyOp3
 70
     1
102
RTVSPropertyOp4
 70
     1
102
RTVSPropertyOp5
 70
     1
102
RTVSPropertyOp6
 70
     1
102
RTVSPropertyOp7
 70
     1
102
RTVSPropertyOp8
 70
     1
102
RTVSPropertyOp9
 70
     1
102
RTVSPropertyOp10
 70
     1
102
RTVSPropertyOp11
 70
     1
102
RTVSPropertyOp12
 70
     1
102
RTVSPropertyOp13
 70
     1
102
RTVSPropertyOp14
 70
     1
102
RTVSPropertyOp15
 70
     1
102
RTVSPropertyOp16
 70
     1
102
RTVSPropertyOp17
 70
     1
102
RTVSPropertyOp18
 70
     1
102
RTVSPropertyOp19
 70
     1
102
RTVSPropertyOp20
 70
     1
102
RTVSPropertyOp21
 70
     1
102
RTVSPropertyOp22
 70
     1
102
RTVSPropertyOp23
 70
     1
102
RTVSPropertyOp24
 70
     1
102
RTVSPropertyOp25
 70
     1
102
RTVSPropertyOp26
 70
     1
102
RTVSPropertyOp27
 70
     1
  0
XRECORD
  5
578
102
{ACAD_REACTORS
330
577
102
}
330
577
100
AcDbXrecord
280
     1
102
RTVSPropertyOp0
 70
     1
102
RTVSPropertyOp1
 70
     1
102
RTVSPropertyOp2
 70
     1
102
RTVSPropertyOp3
 70
     1
102
RTVSPropertyOp4
 70
     1
102
RTVSPropertyOp5
 70
     1
102
RTVSPropertyOp6
 70
     1
102
RTVSPropertyOp7
 70
     1
102
RTVSPropertyOp8
 70
     1
102
RTVSPropertyOp9
 70
     1
102
RTVSPropertyOp10
 70
     1
102
RTVSPropertyOp11
 70
     1
102
RTVSPropertyOp12
 70
     1
102
RTVSPropertyOp13
 70
     1
102
RTVSPropertyOp14
 70
     1
102
RTVSPropertyOp15
 70
     1
102
RTVSPropertyOp16
 70
     1
102
RTVSPropertyOp17
 70
     1
102
RTVSPropertyOp18
 70
     1
102
RTVSPropertyOp19
 70
     1
102
RTVSPropertyOp20
 70
     1
102
RTVSPropertyOp21
 70
     1
102
RTVSPropertyOp22
 70
     1
102
RTVSPropertyOp23
 70
     1
102
RTVSPropertyOp24
 70
     1
102
RTVSPropertyOp25
 70
     1
102
RTVSPropertyOp26
 70
     1
102
RTVSPropertyOp27
 70
     1
  0
XRECORD
  5
57C
102
{ACAD_REACTORS
330
57B
102
}
330
57B
100
AcDbXrecord
280
     1
102
RTVSPropertyOp0
 70
     1
102
RTVSPropertyOp1
 70
     1
102
RTVSPropertyOp2
 70
     1
102
RTVSPropertyOp3
 70
     1
102
RTVSPropertyOp4
 70
     1
102
RTVSPropertyOp5
 70
     1
102
RTVSPropertyOp6
 70
     1
102
RTVSPropertyOp7
 70
     1
102
RTVSPropertyOp8
 70
     1
102
RTVSPropertyOp9
 70
     1
102
RTVSPropertyOp10
 70
     1
102
RTVSPropertyOp11
 70
     1
102
RTVSPropertyOp12
 70
     1
102
RTVSPropertyOp13
 70
     1
102
RTVSPropertyOp14
 70
     1
102
RTVSPropertyOp15
 70
     1
102
RTVSPropertyOp16
 70
     1
102
RTVSPropertyOp17
 70
     1
102
RTVSPropertyOp18
 70
     1
102
RTVSPropertyOp19
 70
     1
102
RTVSPropertyOp20
 70
     1
102
RTVSPropertyOp21
 70
     1
102
RTVSPropertyOp22
 70
     1
102
RTVSPropertyOp23
 70
     1
102
RTVSPropertyOp24
 70
     1
102
RTVSPropertyOp25
 70
     1
102
RTVSPropertyOp26
 70
     1
102
RTVSPropertyOp27
 70
     1
  0
XRECORD
  5
58C
102
{ACAD_REACTORS
330
58B
102
}
330
58B
100
AcDbXrecord
280
     1
102
RTVSPropertyOp0
 70
     0
102
RTVSPropertyOp1
 70
     0
102
RTVSPropertyOp2
 70
     0
102
RTVSPropertyOp3
 70
     0
102
RTVSPropertyOp4
 70
     0
102
RTVSPropertyOp5
 70
     0
102
RTVSPropertyOp6
 70
     0
102
RTVSPropertyOp7
 70
     0
102
RTVSPropertyOp8
 70
     0
102
RTVSPropertyOp9
 70
     0
102
RTVSPropertyOp10
 70
     0
102
RTVSPropertyOp11
 70
     0
102
RTVSPropertyOp12
 70
     0
102
RTVSPropertyOp13
 70
     0
102
RTVSPropertyOp14
 70
     2
102
RTVSPropertyOp15
 70
     0
102
RTVSPropertyOp16
 70
     0
102
RTVSPropertyOp17
 70
     0
102
RTVSPropertyOp18
 70
     0
102
RTVSPropertyOp19
 70
     0
102
RTVSPropertyOp20
 70
     0
102
RTVSPropertyOp21
 70
     0
102
RTVSPropertyOp22
 70
     0
102
RTVSPropertyOp23
 70
     0
102
RTVSPropertyOp24
 70
     0
102
RTVSPropertyOp25
 70
     0
102
RTVSPropertyOp26
 70
     0
102
RTVSPropertyOp27
 70
     0
  0
XRECORD
  5
584
102
{ACAD_REACTORS
330
583
102
}
330
583
100
AcDbXrecord
280
     1
102
RTVSPropertyOp0
 70
     1
102
RTVSPropertyOp1
 70
     1
102
RTVSPropertyOp2
 70
     1
102
RTVSPropertyOp3
 70
     1
102
RTVSPropertyOp4
 70
     1
102
RTVSPropertyOp5
 70
     1
102
RTVSPropertyOp6
 70
     1
102
RTVSPropertyOp7
 70
     1
102
RTVSPropertyOp8
 70
     1
102
RTVSPropertyOp9
 70
     1
102
RTVSPropertyOp10
 70
     1
102
RTVSPropertyOp11
 70
     1
102
RTVSPropertyOp12
 70
     1
102
RTVSPropertyOp13
 70
     1
102
RTVSPropertyOp14
 70
     1
102
RTVSPropertyOp15
 70
     1
102
RTVSPropertyOp16
 70
     1
102
RTVSPropertyOp17
 70
     1
102
RTVSPropertyOp18
 70
     1
102
RTVSPropertyOp19
 70
     1
102
RTVSPropertyOp20
 70
     1
102
RTVSPropertyOp21
 70
     1
102
RTVSPropertyOp22
 70
     1
102
RTVSPropertyOp23
 70
     1
102
RTVSPropertyOp24
 70
     1
102
RTVSPropertyOp25
 70
     1
102
RTVSPropertyOp26
 70
     1
102
RTVSPropertyOp27
 70
     1
  0
XRECORD
  5
568
102
{ACAD_REACTORS
330
567
102
}
330
567
100
AcDbXrecord
280
     1
102
RTVSPropertyOp0
 70
     1
102
RTVSPropertyOp1
 70
     1
102
RTVSPropertyOp2
 70
     1
102
RTVSPropertyOp3
 70
     1
102
RTVSPropertyOp4
 70
     1
102
RTVSPropertyOp5
 70
     1
102
RTVSPropertyOp6
 70
     1
102
RTVSPropertyOp7
 70
     1
102
RTVSPropertyOp8
 70
     1
102
RTVSPropertyOp9
 70
     1
102
RTVSPropertyOp10
 70
     1
102
RTVSPropertyOp11
 70
     1
102
RTVSPropertyOp12
 70
     1
102
RTVSPropertyOp13
 70
     1
102
RTVSPropertyOp14
 70
     1
102
RTVSPropertyOp15
 70
     1
102
RTVSPropertyOp16
 70
     1
102
RTVSPropertyOp17
 70
     1
102
RTVSPropertyOp18
 70
     1
102
RTVSPropertyOp19
 70
     1
102
RTVSPropertyOp20
 70
     1
102
RTVSPropertyOp21
 70
     1
102
RTVSPropertyOp22
 70
     1
102
RTVSPropertyOp23
 70
     1
102
RTVSPropertyOp24
 70
     1
102
RTVSPropertyOp25
 70
     1
102
RTVSPropertyOp26
 70
     1
102
RTVSPropertyOp27
 70
     1
  0
XRECORD
  5
56A
102
{ACAD_REACTORS
330
569
102
}
330
569
100
AcDbXrecord
280
     1
102
RTVSPropertyOp0
 70
     1
102
RTVSPropertyOp1
 70
     1
102
RTVSPropertyOp2
 70
     1
102
RTVSPropertyOp3
 70
     1
102
RTVSPropertyOp4
 70
     1
102
RTVSPropertyOp5
 70
     1
102
RTVSPropertyOp6
 70
     1
102
RTVSPropertyOp7
 70
     1
102
RTVSPropertyOp8
 70
     1
102
RTVSPropertyOp9
 70
     1
102
RTVSPropertyOp10
 70
     1
102
RTVSPropertyOp11
 70
     1
102
RTVSPropertyOp12
 70
     1
102
RTVSPropertyOp13
 70
     1
102
RTVSPropertyOp14
 70
     1
102
RTVSPropertyOp15
 70
     1
102
RTVSPropertyOp16
 70
     1
102
RTVSPropertyOp17
 70
     1
102
RTVSPropertyOp18
 70
     1
102
RTVSPropertyOp19
 70
     1
102
RTVSPropertyOp20
 70
     1
102
RTVSPropertyOp21
 70
     1
102
RTVSPropertyOp22
 70
     1
102
RTVSPropertyOp23
 70
     1
102
RTVSPropertyOp24
 70
     1
102
RTVSPropertyOp25
 70
     1
102
RTVSPropertyOp26
 70
     1
102
RTVSPropertyOp27
 70
     1
  0
XRECORD
  5
56C
102
{ACAD_REACTORS
330
56B
102
}
330
56B
100
AcDbXrecord
280
     1
102
RTVSPropertyOp0
 70
     1
102
RTVSPropertyOp1
 70
     1
102
RTVSPropertyOp2
 70
     1
102
RTVSPropertyOp3
 70
     1
102
RTVSPropertyOp4
 70
     1
102
RTVSPropertyOp5
 70
     1
102
RTVSPropertyOp6
 70
     1
102
RTVSPropertyOp7
 70
     1
102
RTVSPropertyOp8
 70
     1
102
RTVSPropertyOp9
 70
     1
102
RTVSPropertyOp10
 70
     1
102
RTVSPropertyOp11
 70
     1
102
RTVSPropertyOp12
 70
     1
102
RTVSPropertyOp13
 70
     1
102
RTVSPropertyOp14
 70
     1
102
RTVSPropertyOp15
 70
     1
102
RTVSPropertyOp16
 70
     1
102
RTVSPropertyOp17
 70
     1
102
RTVSPropertyOp18
 70
     1
102
RTVSPropertyOp19
 70
     1
102
RTVSPropertyOp20
 70
     1
102
RTVSPropertyOp21
 70
     1
102
RTVSPropertyOp22
 70
     1
102
RTVSPropertyOp23
 70
     1
102
RTVSPropertyOp24
 70
     1
102
RTVSPropertyOp25
 70
     1
102
RTVSPropertyOp26
 70
     1
102
RTVSPropertyOp27
 70
     1
  0
XRECORD
  5
56E
102
{ACAD_REACTORS
330
56D
102
}
330
56D
100
AcDbXrecord
280
     1
102
RTVSPropertyOp0
 70
     1
102
RTVSPropertyOp1
 70
     1
102
RTVSPropertyOp2
 70
     1
102
RTVSPropertyOp3
 70
     1
102
RTVSPropertyOp4
 70
     1
102
RTVSPropertyOp5
 70
     1
102
RTVSPropertyOp6
 70
     1
102
RTVSPropertyOp7
 70
     1
102
RTVSPropertyOp8
 70
     1
102
RTVSPropertyOp9
 70
     1
102
RTVSPropertyOp10
 70
     1
102
RTVSPropertyOp11
 70
     1
102
RTVSPropertyOp12
 70
     1
102
RTVSPropertyOp13
 70
     1
102
RTVSPropertyOp14
 70
     1
102
RTVSPropertyOp15
 70
     1
102
RTVSPropertyOp16
 70
     1
102
RTVSPropertyOp17
 70
     1
102
RTVSPropertyOp18
 70
     1
102
RTVSPropertyOp19
 70
     1
102
RTVSPropertyOp20
 70
     1
102
RTVSPropertyOp21
 70
     1
102
RTVSPropertyOp22
 70
     1
102
RTVSPropertyOp23
 70
     1
102
RTVSPropertyOp24
 70
     1
102
RTVSPropertyOp25
 70
     1
102
RTVSPropertyOp26
 70
     1
102
RTVSPropertyOp27
 70
     1
  0
XRECORD
  5
588
102
{ACAD_REACTORS
330
587
102
}
330
587
100
AcDbXrecord
280
     1
102
RTVSPropertyOp0
 70
     0
102
RTVSPropertyOp1
 70
     0
102
RTVSPropertyOp2
 70
     0
102
RTVSPropertyOp3
 70
     0
102
RTVSPropertyOp4
 70
     0
102
RTVSPropertyOp5
 70
     0
102
RTVSPropertyOp6
 70
     0
102
RTVSPropertyOp7
 70
     0
102
RTVSPropertyOp8
 70
     0
102
RTVSPropertyOp9
 70
     0
102
RTVSPropertyOp10
 70
     0
102
RTVSPropertyOp11
 70
     0
102
RTVSPropertyOp12
 70
     0
102
RTVSPropertyOp13
 70
     0
102
RTVSPropertyOp14
 70
     2
102
RTVSPropertyOp15
 70
     0
102
RTVSPropertyOp16
 70
     0
102
RTVSPropertyOp17
 70
     0
102
RTVSPropertyOp18
 70
     0
102
RTVSPropertyOp19
 70
     0
102
RTVSPropertyOp20
 70
     0
102
RTVSPropertyOp21
 70
     0
102
RTVSPropertyOp22
 70
     0
102
RTVSPropertyOp23
 70
     0
102
RTVSPropertyOp24
 70
     0
102
RTVSPropertyOp25
 70
     0
102
RTVSPropertyOp26
 70
     0
102
RTVSPropertyOp27
 70
     0
  0
XRECORD
  5
582
102
{ACAD_REACTORS
330
581
102
}
330
581
100
AcDbXrecord
280
     1
102
RTVSPropertyOp0
 70
     1
102
RTVSPropertyOp1
 70
     1
102
RTVSPropertyOp2
 70
     1
102
RTVSPropertyOp3
 70
     1
102
RTVSPropertyOp4
 70
     1
102
RTVSPropertyOp5
 70
     1
102
RTVSPropertyOp6
 70
     1
102
RTVSPropertyOp7
 70
     1
102
RTVSPropertyOp8
 70
     1
102
RTVSPropertyOp9
 70
     1
102
RTVSPropertyOp10
 70
     1
102
RTVSPropertyOp11
 70
     1
102
RTVSPropertyOp12
 70
     1
102
RTVSPropertyOp13
 70
     1
102
RTVSPropertyOp14
 70
     1
102
RTVSPropertyOp15
 70
     1
102
RTVSPropertyOp16
 70
     1
102
RTVSPropertyOp17
 70
     1
102
RTVSPropertyOp18
 70
     1
102
RTVSPropertyOp19
 70
     1
102
RTVSPropertyOp20
 70
     1
102
RTVSPropertyOp21
 70
     1
102
RTVSPropertyOp22
 70
     1
102
RTVSPropertyOp23
 70
     1
102
RTVSPropertyOp24
 70
     1
102
RTVSPropertyOp25
 70
     1
102
RTVSPropertyOp26
 70
     1
102
RTVSPropertyOp27
 70
     1
  0
XRECORD
  5
58A
102
{ACAD_REACTORS
330
589
102
}
330
589
100
AcDbXrecord
280
     1
102
RTVSPropertyOp0
 70
     0
102
RTVSPropertyOp1
 70
     0
102
RTVSPropertyOp2
 70
     0
102
RTVSPropertyOp3
 70
     0
102
RTVSPropertyOp4
 70
     0
102
RTVSPropertyOp5
 70
     0
102
RTVSPropertyOp6
 70
     0
102
RTVSPropertyOp7
 70
     0
102
RTVSPropertyOp8
 70
     0
102
RTVSPropertyOp9
 70
     0
102
RTVSPropertyOp10
 70
     0
102
RTVSPropertyOp11
 70
     0
102
RTVSPropertyOp12
 70
     0
102
RTVSPropertyOp13
 70
     0
102
RTVSPropertyOp14
 70
     2
102
RTVSPropertyOp15
 70
     0
102
RTVSPropertyOp16
 70
     0
102
RTVSPropertyOp17
 70
     0
102
RTVSPropertyOp18
 70
     0
102
RTVSPropertyOp19
 70
     0
102
RTVSPropertyOp20
 70
     0
102
RTVSPropertyOp21
 70
     0
102
RTVSPropertyOp22
 70
     0
102
RTVSPropertyOp23
 70
     0
102
RTVSPropertyOp24
 70
     0
102
RTVSPropertyOp25
 70
     0
102
RTVSPropertyOp26
 70
     0
102
RTVSPropertyOp27
 70
     0
  0
XRECORD
  5
57A
102
{ACAD_REACTORS
330
579
102
}
330
579
100
AcDbXrecord
280
     1
102
RTVSPropertyOp0
 70
     1
102
RTVSPropertyOp1
 70
     1
102
RTVSPropertyOp2
 70
     1
102
RTVSPropertyOp3
 70
     1
102
RTVSPropertyOp4
 70
     1
102
RTVSPropertyOp5
 70
     1
102
RTVSPropertyOp6
 70
     1
102
RTVSPropertyOp7
 70
     1
102
RTVSPropertyOp8
 70
     1
102
RTVSPropertyOp9
 70
     1
102
RTVSPropertyOp10
 70
     1
102
RTVSPropertyOp11
 70
     1
102
RTVSPropertyOp12
 70
     1
102
RTVSPropertyOp13
 70
     1
102
RTVSPropertyOp14
 70
     1
102
RTVSPropertyOp15
 70
     1
102
RTVSPropertyOp16
 70
     1
102
RTVSPropertyOp17
 70
     1
102
RTVSPropertyOp18
 70
     1
102
RTVSPropertyOp19
 70
     1
102
RTVSPropertyOp20
 70
     1
102
RTVSPropertyOp21
 70
     1
102
RTVSPropertyOp22
 70
     1
102
RTVSPropertyOp23
 70
     1
102
RTVSPropertyOp24
 70
     1
102
RTVSPropertyOp25
 70
     1
102
RTVSPropertyOp26
 70
     1
102
RTVSPropertyOp27
 70
     1
  0
XRECORD
  5
580
102
{ACAD_REACTORS
330
57F
102
}
330
57F
100
AcDbXrecord
280
     1
102
RTVSPropertyOp0
 70
     1
102
RTVSPropertyOp1
 70
     1
102
RTVSPropertyOp2
 70
     1
102
RTVSPropertyOp3
 70
     1
102
RTVSPropertyOp4
 70
     1
102
RTVSPropertyOp5
 70
     1
102
RTVSPropertyOp6
 70
     1
102
RTVSPropertyOp7
 70
     1
102
RTVSPropertyOp8
 70
     1
102
RTVSPropertyOp9
 70
     1
102
RTVSPropertyOp10
 70
     1
102
RTVSPropertyOp11
 70
     1
102
RTVSPropertyOp12
 70
     1
102
RTVSPropertyOp13
 70
     1
102
RTVSPropertyOp14
 70
     1
102
RTVSPropertyOp15
 70
     1
102
RTVSPropertyOp16
 70
     1
102
RTVSPropertyOp17
 70
     1
102
RTVSPropertyOp18
 70
     1
102
RTVSPropertyOp19
 70
     1
102
RTVSPropertyOp20
 70
     1
102
RTVSPropertyOp21
 70
     1
102
RTVSPropertyOp22
 70
     1
102
RTVSPropertyOp23
 70
     1
102
RTVSPropertyOp24
 70
     1
102
RTVSPropertyOp25
 70
     1
102
RTVSPropertyOp26
 70
     1
102
RTVSPropertyOp27
 70
     1
  0
ENDSEC
  0
EOF
