  0
SECTION
  2
HEADER
  9
$ACADVER
  1
AC1015
  9
$ACADMAINTVER
 70
    20
  9
$DWGCODEPAGE
  3
ANSI_1252
  9
$INSBASE
 10
0.0
 20
0.0
 30
0.0
  9
$EXTMIN
 10
777.8092498107754
 20
1029.321996554797
 30
0.0
  9
$EXTMAX
 10
780.6737696474979
 20
1030.152117520764
 30
0.0
  9
$LIMMIN
 10
0.0
 20
0.0
  9
$LIMMAX
 10
420.0
 20
297.0
  9
$ORTHOMODE
 70
     1
  9
$REGENMODE
 70
     1
  9
$FILLMODE
 70
     1
  9
$QTEXTMODE
 70
     0
  9
$MIRRTEXT
 70
     1
  9
$LTSCALE
 40
1.0
  9
$ATTMODE
 70
     1
  9
$TEXTSIZE
 40
2.5
  9
$TRACEWID
 40
1.0
  9
$TEXTSTYLE
  7
SANINDUSA
  9
$CLAYER
  8
0
  9
$CELTYPE
  6
ByLayer
  9
$CECOLOR
 62
   256
  9
$CELTSCALE
 40
1.0
  9
$DISPSILH
 70
     0
  9
$DIMSCALE
 40
1.0
  9
$DIMASZ
 40
2.0
  9
$DIMEXO
 40
1.0
  9
$DIMDLI
 40
1.0
  9
$DIMRND
 40
0.0
  9
$DIMDLE
 40
0.0
  9
$DIMEXE
 40
1.0
  9
$DIMTP
 40
0.0
  9
$DIMTM
 40
0.0
  9
$DIMTXT
 40
2.0
  9
$DIMCEN
 40
0.0
  9
$DIMTSZ
 40
0.0
  9
$DIMTOL
 70
     0
  9
$DIMLIM
 70
     0
  9
$DIMTIH
 70
     0
  9
$DIMTOH
 70
     0
  9
$DIMSE1
 70
     0
  9
$DIMSE2
 70
     0
  9
$DIMTAD
 70
     1
  9
$DIMZIN
 70
     8
  9
$DIMBLK
  1

  9
$DIMASO
 70
     1
  9
$DIMSHO
 70
     1
  9
$DIMPOST
  1

  9
$DIMAPOST
  1

  9
$DIMALT
 70
     0
  9
$DIMALTD
 70
     3
  9
$DIMALTF
 40
0.03937007874016
  9
$DIMLFAC
 40
1.0
  9
$DIMTOFL
 70
     1
  9
$DIMTVP
 40
0.0
  9
$DIMTIX
 70
     0
  9
$DIMSOXD
 70
     0
  9
$DIMSAH
 70
     0
  9
$DIMBLK1
  1

  9
$DIMBLK2
  1

  9
$DIMSTYLE
  2
SANINDUSA
  9
$DIMCLRD
 70
   256
  9
$DIMCLRE
 70
   256
  9
$DIMCLRT
 70
   256
  9
$DIMTFAC
 40
1.0
  9
$DIMGAP
 40
1.0
  9
$DIMJUST
 70
     0
  9
$DIMSD1
 70
     0
  9
$DIMSD2
 70
     0
  9
$DIMTOLJ
 70
     0
  9
$DIMTZIN
 70
     8
  9
$DIMALTZ
 70
     0
  9
$DIMALTTZ
 70
     0
  9
$DIMUPT
 70
     0
  9
$DIMDEC
 70
     1
  9
$DIMTDEC
 70
     1
  9
$DIMALTU
 70
     2
  9
$DIMALTTD
 70
     3
  9
$DIMTXSTY
  7
SANINDUSA
  9
$DIMAUNIT
 70
     0
  9
$DIMADEC
 70
     1
  9
$DIMALTRND
 40
0.0
  9
$DIMAZIN
 70
     0
  9
$DIMDSEP
 70
    44
  9
$DIMATFIT
 70
     3
  9
$DIMFRAC
 70
     0
  9
$DIMLDRBLK
  1

  9
$DIMLUNIT
 70
     2
  9
$DIMLWD
 70
    -1
  9
$DIMLWE
 70
    -1
  9
$DIMTMOVE
 70
     0
  9
$LUNITS
 70
     2
  9
$LUPREC
 70
     4
  9
$SKETCHINC
 40
1.0
  9
$FILLETRAD
 40
0.0
  9
$AUNITS
 70
     0
  9
$AUPREC
 70
     0
  9
$MENU
  1
.
  9
$ELEVATION
 40
0.0
  9
$PELEVATION
 40
0.0
  9
$THICKNESS
 40
0.0
  9
$LIMCHECK
 70
     0
  9
$CHAMFERA
 40
10.0
  9
$CHAMFERB
 40
10.0
  9
$CHAMFERC
 40
20.0
  9
$CHAMFERD
 40
0.0
  9
$SKPOLY
 70
     0
  9
$TDCREATE
 40
2453481.669539201
  9
$TDUCREATE
 40
2453481.627872535
  9
$TDUPDATE
 40
2456146.441460683
  9
$TDUUPDATE
 40
2456146.399794016
  9
$TDINDWG
 40
0.0083935648
  9
$TDUSRTIMER
 40
0.0083933796
  9
$USRTIMER
 70
     1
  9
$ANGBASE
 50
0.0
  9
$ANGDIR
 70
     0
  9
$PDMODE
 70
     0
  9
$PDSIZE
 40
0.0
  9
$PLINEWID
 40
0.0
  9
$SPLFRAME
 70
     0
  9
$SPLINETYPE
 70
     6
  9
$SPLINESEGS
 70
     8
  9
$HANDSEED
  5
192C
  9
$SURFTAB1
 70
     6
  9
$SURFTAB2
 70
     6
  9
$SURFTYPE
 70
     6
  9
$SURFU
 70
     6
  9
$SURFV
 70
     6
  9
$UCSBASE
  2

  9
$UCSNAME
  2

  9
$UCSORG
 10
0.0
 20
0.0
 30
0.0
  9
$UCSXDIR
 10
1.0
 20
0.0
 30
0.0
  9
$UCSYDIR
 10
0.0
 20
1.0
 30
0.0
  9
$UCSORTHOREF
  2

  9
$UCSORTHOVIEW
 70
     0
  9
$UCSORGTOP
 10
0.0
 20
0.0
 30
0.0
  9
$UCSORGBOTTOM
 10
0.0
 20
0.0
 30
0.0
  9
$UCSORGLEFT
 10
0.0
 20
0.0
 30
0.0
  9
$UCSORGRIGHT
 10
0.0
 20
0.0
 30
0.0
  9
$UCSORGFRONT
 10
0.0
 20
0.0
 30
0.0
  9
$UCSORGBACK
 10
0.0
 20
0.0
 30
0.0
  9
$PUCSBASE
  2

  9
$PUCSNAME
  2

  9
$PUCSORG
 10
0.0
 20
0.0
 30
0.0
  9
$PUCSXDIR
 10
1.0
 20
0.0
 30
0.0
  9
$PUCSYDIR
 10
0.0
 20
1.0
 30
0.0
  9
$PUCSORTHOREF
  2

  9
$PUCSORTHOVIEW
 70
     0
  9
$PUCSORGTOP
 10
0.0
 20
0.0
 30
0.0
  9
$PUCSORGBOTTOM
 10
0.0
 20
0.0
 30
0.0
  9
$PUCSORGLEFT
 10
0.0
 20
0.0
 30
0.0
  9
$PUCSORGRIGHT
 10
0.0
 20
0.0
 30
0.0
  9
$PUCSORGFRONT
 10
0.0
 20
0.0
 30
0.0
  9
$PUCSORGBACK
 10
0.0
 20
0.0
 30
0.0
  9
$USERI1
 70
     0
  9
$USERI2
 70
     0
  9
$USERI3
 70
     0
  9
$USERI4
 70
     0
  9
$USERI5
 70
     0
  9
$USERR1
 40
0.0
  9
$USERR2
 40
0.0
  9
$USERR3
 40
0.0
  9
$USERR4
 40
0.0
  9
$USERR5
 40
0.0
  9
$WORLDVIEW
 70
     1
  9
$SHADEDGE
 70
     3
  9
$SHADEDIF
 70
    70
  9
$TILEMODE
 70
     1
  9
$MAXACTVP
 70
    64
  9
$PINSBASE
 10
0.0
 20
0.0
 30
0.0
  9
$PLIMCHECK
 70
     0
  9
$PEXTMIN
 10
1.000000000000000E+20
 20
1.000000000000000E+20
 30
1.000000000000000E+20
  9
$PEXTMAX
 10
-1.000000000000000E+20
 20
-1.000000000000000E+20
 30
-1.000000000000000E+20
  9
$PLIMMIN
 10
0.0
 20
0.0
  9
$PLIMMAX
 10
420.0
 20
297.0
  9
$UNITMODE
 70
     0
  9
$VISRETAIN
 70
     1
  9
$PLINEGEN
 70
     0
  9
$PSLTSCALE
 70
     1
  9
$TREEDEPTH
 70
  3020
  9
$CMLSTYLE
  2
Standard
  9
$CMLJUST
 70
     0
  9
$CMLSCALE
 40
20.0
  9
$PROXYGRAPHICS
 70
     1
  9
$MEASUREMENT
 70
     1
  9
$CELWEIGHT
370
    -1
  9
$ENDCAPS
280
     0
  9
$JOINSTYLE
280
     0
  9
$LWDISPLAY
290
     0
  9
$INSUNITS
 70
     4
  9
$HYPERLINKBASE
  1

  9
$STYLESHEET
  1
monochrome.ctb
  9
$XEDIT
290
     1
  9
$CEPSNTYPE
380
     0
  9
$PSTYLEMODE
290
     1
  9
$FINGERPRINTGUID
  2
{B98A73AA-52AA-4C10-B469-C0E7150AC31F}
  9
$VERSIONGUID
  2
{63ED69AD-99E5-4579-8BB0-7FF14B31E742}
  9
$EXTNAMES
290
     1
  9
$PSVPSCALE
 40
0.0
  9
$OLESTARTUP
290
     0
  0
ENDSEC
  0
SECTION
  2
CLASSES
  0
CLASS
  1
ACDBDICTIONARYWDFLT
  2
AcDbDictionaryWithDefault
  3
ObjectDBX Classes
 90
        0
280
     0
281
     0
  0
CLASS
  1
ACDBPLACEHOLDER
  2
AcDbPlaceHolder
  3
ObjectDBX Classes
 90
        0
280
     0
281
     0
  0
CLASS
  1
LAYOUT
  2
AcDbLayout
  3
ObjectDBX Classes
 90
        0
280
     0
281
     0
  0
CLASS
  1
DICTIONARYVAR
  2
AcDbDictionaryVar
  3
ObjectDBX Classes
 90
        0
280
     0
281
     0
  0
CLASS
  1
DIMASSOC
  2
AcDbDimAssoc
  3
"AcDbDimAssoc|Product Desc:     AcDim ARX App For Dimension|Company:          Autodesk, Inc.|WEB Address:      www.autodesk.com"
 90
    32768
280
     0
281
     0
  0
CLASS
  1
TABLESTYLE
  2
AcDbTableStyle
  3
ObjectDBX Classes
 90
     4095
280
     0
281
     0
  0
CLASS
  1
SORTENTSTABLE
  2
AcDbSortentsTable
  3
ObjectDBX Classes
 90
        0
280
     0
281
     0
  0
CLASS
  1
MATERIAL
  2
AcDbMaterial
  3
ObjectDBX Classes
 90
     1153
280
     0
281
     0
  0
CLASS
  1
VISUALSTYLE
  2
AcDbVisualStyle
  3
ObjectDBX Classes
 90
     4095
280
     0
281
     0
  0
CLASS
  1
SCALE
  2
AcDbScale
  3
ObjectDBX Classes
 90
     1153
280
     0
281
     0
  0
CLASS
  1
MLEADERSTYLE
  2
AcDbMLeaderStyle
  3
ACDB_MLEADERSTYLE_CLASS
 90
     4095
280
     0
281
     0
  0
CLASS
  1
CELLSTYLEMAP
  2
AcDbCellStyleMap
  3
ObjectDBX Classes
 90
     1152
280
     0
281
     0
  0
ENDSEC
  0
SECTION
  2
TABLES
  0
TABLE
  2
VPORT
  5
8
330
0
100
AcDbSymbolTable
 70
     1
  0
VPORT
  5
1882
330
8
100
AcDbSymbolTableRecord
100
AcDbViewportTableRecord
  2
*Active
 70
     0
 10
0.0
 20
0.0
 11
1.0
 21
1.0
 12
779.1154041867072
 22
1029.789456780718
 13
0.0
 23
0.0
 14
10.0
 24
10.0
 15
10.0
 25
10.0
 16
0.0
 26
0.0
 36
1.0
 17
0.0
 27
0.0
 37
0.0
 40
2.171713421892491
 41
1.645464025026068
 42
50.0
 43
0.0
 44
0.0
 50
0.0
 51
0.0
 71
     0
 72
   100
 73
     1
 74
     2
 75
     0
 76
     0
 77
     0
 78
     0
281
     0
 65
     1
110
0.0
120
0.0
130
0.0
111
1.0
121
0.0
131
0.0
112
0.0
122
1.0
132
0.0
 79
     0
146
0.0
  0
ENDTAB
  0
TABLE
  2
LTYPE
  5
5
330
0
100
AcDbSymbolTable
 70
     3
  0
LTYPE
  5
14
330
5
100
AcDbSymbolTableRecord
100
AcDbLinetypeTableRecord
  2
ByBlock
 70
     0
  3

 72
    65
 73
     0
 40
0.0
  0
LTYPE
  5
15
330
5
100
AcDbSymbolTableRecord
100
AcDbLinetypeTableRecord
  2
ByLayer
 70
     0
  3

 72
    65
 73
     0
 40
0.0
  0
LTYPE
  5
16
330
5
100
AcDbSymbolTableRecord
100
AcDbLinetypeTableRecord
  2
Continuous
 70
     0
  3
Solid line
 72
    65
 73
     0
 40
0.0
  0
LTYPE
  5
2D
330
5
100
AcDbSymbolTableRecord
100
AcDbLinetypeTableRecord
  2
DASHDOT
 70
     0
  3
Dash dot __ . __ . __ . __ . __ . __ . __ . __
 72
    65
 73
     4
 40
25.4
 49
12.7
 74
     0
 49
-6.349999999999999
 74
     0
 49
0.0
 74
     0
 49
-6.349999999999999
 74
     0
  0
LTYPE
  5
2E
330
5
100
AcDbSymbolTableRecord
100
AcDbLinetypeTableRecord
  2
HIDDEN
 70
     0
  3
Hidden __ __ __ __ __ __ __ __ __ __ __ __ __ _
 72
    65
 73
     2
 40
9.524999999999998
 49
6.349999999999999
 74
     0
 49
-3.174999999999999
 74
     0
  0
ENDTAB
  0
TABLE
  2
LAYER
  5
2
330
0
100
AcDbSymbolTable
 70
    18
  0
LAYER
  5
10
102
{ACAD_XDICTIONARY
360
18D0
102
}
330
2
100
AcDbSymbolTableRecord
100
AcDbLayerTableRecord
  2
0
 70
     0
 62
     7
  6
Continuous
370
    -3
390
F
  0
LAYER
  5
2F
102
{ACAD_XDICTIONARY
360
18D2
102
}
330
2
100
AcDbSymbolTableRecord
100
AcDbLayerTableRecord
  2
1
 70
     0
 62
     1
  6
Continuous
370
    -3
390
F
  0
LAYER
  5
30
102
{ACAD_XDICTIONARY
360
18D4
102
}
330
2
100
AcDbSymbolTableRecord
100
AcDbLayerTableRecord
  2
2
 70
     0
 62
     2
  6
Continuous
370
    -3
390
F
  0
LAYER
  5
31
102
{ACAD_XDICTIONARY
360
18D6
102
}
330
2
100
AcDbSymbolTableRecord
100
AcDbLayerTableRecord
  2
3
 70
     0
 62
     3
  6
Continuous
370
    -3
390
F
  0
LAYER
  5
32
102
{ACAD_XDICTIONARY
360
18D8
102
}
330
2
100
AcDbSymbolTableRecord
100
AcDbLayerTableRecord
  2
4
 70
     0
 62
     4
  6
Continuous
370
    -3
390
F
  0
LAYER
  5
33
102
{ACAD_XDICTIONARY
360
18DA
102
}
330
2
100
AcDbSymbolTableRecord
100
AcDbLayerTableRecord
  2
5
 70
     0
 62
     5
  6
Continuous
370
    -3
390
F
  0
LAYER
  5
34
102
{ACAD_XDICTIONARY
360
18DC
102
}
330
2
100
AcDbSymbolTableRecord
100
AcDbLayerTableRecord
  2
6
 70
     0
 62
     6
  6
Continuous
370
    -3
390
F
  0
LAYER
  5
35
102
{ACAD_XDICTIONARY
360
18DE
102
}
330
2
100
AcDbSymbolTableRecord
100
AcDbLayerTableRecord
  2
7
 70
     0
 62
     7
  6
Continuous
370
    -3
390
F
  0
LAYER
  5
36
102
{ACAD_XDICTIONARY
360
18E0
102
}
330
2
100
AcDbSymbolTableRecord
100
AcDbLayerTableRecord
  2
cen
 70
     0
 62
     7
  6
DASHDOT
370
    -3
390
F
  0
LAYER
  5
37
102
{ACAD_XDICTIONARY
360
18E2
102
}
330
2
100
AcDbSymbolTableRecord
100
AcDbLayerTableRecord
  2
hid
 70
     0
 62
     7
  6
HIDDEN
370
    -3
390
F
  0
LAYER
  5
5D6
102
{ACAD_XDICTIONARY
360
18E4
102
}
330
2
100
AcDbSymbolTableRecord
100
AcDbLayerTableRecord
  2
hatch
 70
     0
 62
     9
  6
Continuous
370
    -3
390
F
  0
LAYER
  5
8AF
102
{ACAD_XDICTIONARY
360
18E6
102
}
330
2
100
AcDbSymbolTableRecord
100
AcDbLayerTableRecord
  2
9
 70
     0
 62
     9
  6
Continuous
370
    -3
390
F
  0
LAYER
  5
8F8
102
{ACAD_XDICTIONARY
360
18E8
102
}
330
2
100
AcDbSymbolTableRecord
100
AcDbLayerTableRecord
  2
leg fin
 70
     0
 62
     9
  6
Continuous
370
    -3
390
F
  0
LAYER
  5
91D
102
{ACAD_XDICTIONARY
360
18EA
102
}
330
2
100
AcDbSymbolTableRecord
100
AcDbLayerTableRecord
  2
cotas
 70
     0
 62
     1
  6
Continuous
370
    -3
390
F
  0
LAYER
  5
92F
330
2
100
AcDbSymbolTableRecord
100
AcDbLayerTableRecord
  2
Defpoints
 70
     0
 62
     7
  6
Continuous
290
     0
370
    -3
390
F
  0
LAYER
  5
D58
102
{ACAD_XDICTIONARY
360
18EC
102
}
330
2
100
AcDbSymbolTableRecord
100
AcDbLayerTableRecord
  2
indusa
 70
     0
 62
     3
  6
Continuous
370
    -3
390
F
  0
LAYER
  5
16C1
102
{ACAD_XDICTIONARY
360
18EE
102
}
330
2
100
AcDbSymbolTableRecord
100
AcDbLayerTableRecord
  2
SANINDUSA
 70
     0
 62
     3
  6
Continuous
370
    -3
390
F
  0
LAYER
  5
16D0
102
{ACAD_XDICTIONARY
360
18F0
102
}
330
2
100
AcDbSymbolTableRecord
100
AcDbLayerTableRecord
  2
BLOCKS
 70
     0
 62
     3
  6
Continuous
370
    -3
390
F
  0
ENDTAB
  0
TABLE
  2
STYLE
  5
3
330
0
100
AcDbSymbolTable
 70
     4
  0
STYLE
  5
11
330
3
100
AcDbSymbolTableRecord
100
AcDbTextStyleTableRecord
  2
Standard
 70
     0
 40
0.0
 41
1.0
 50
0.0
 71
     0
 42
2.5
  3
Avgardn.ttf
  4

1001
ACAD
1000
AvantGarde Bk BT
1071
       34
  0
STYLE
  5
2C
330
3
100
AcDbSymbolTableRecord
100
AcDbTextStyleTableRecord
  2

 70
     1
 40
0.0
 41
1.0
 50
0.0
 71
     0
 42
2.5
  3
ltypeshp.shx
  4

  0
STYLE
  5
91F
330
3
100
AcDbSymbolTableRecord
100
AcDbTextStyleTableRecord
  2
SANINDUSA
 70
     0
 40
0.0
 41
1.0
 50
0.0
 71
     0
 42
2.5
  3
verdana.TTF
  4

1001
ACAD
1000
Verdana
1071
       34
  0
STYLE
  5
16D1
330
3
100
AcDbSymbolTableRecord
100
AcDbTextStyleTableRecord
  2
cotas
 70
     0
 40
2.0
 41
0.8
 50
0.0
 71
     0
 42
4.0
  3
ISOCP.shx
  4

  0
ENDTAB
  0
TABLE
  2
VIEW
  5
6
330
0
100
AcDbSymbolTable
 70
     0
  0
ENDTAB
  0
TABLE
  2
UCS
  5
7
330
0
100
AcDbSymbolTable
 70
     0
  0
ENDTAB
  0
TABLE
  2
APPID
  5
9
330
0
100
AcDbSymbolTable
 70
     4
  0
APPID
  5
12
330
9
100
AcDbSymbolTableRecord
100
AcDbRegAppTableRecord
  2
ACAD
 70
     0
  0
APPID
  5
3A
330
9
100
AcDbSymbolTableRecord
100
AcDbRegAppTableRecord
  2
DCO15
 70
     0
  0
APPID
  5
1707
330
9
100
AcDbSymbolTableRecord
100
AcDbRegAppTableRecord
  2
ACAD_EXEMPT_FROM_CAD_STANDARDS
 70
     0
  0
APPID
  5
192B
330
9
100
AcDbSymbolTableRecord
100
AcDbRegAppTableRecord
  2
ACAD_MLEADERVER
 70
     0
  0
ENDTAB
  0
TABLE
  2
DIMSTYLE
  5
A
330
0
100
AcDbSymbolTable
 70
     3
100
AcDbDimStyleTable
 71
     1
340
921
  0
DIMSTYLE
105
45
330
A
100
AcDbSymbolTableRecord
100
AcDbDimStyleTableRecord
  2
STANDARD
 70
     0
289
     0
340
11
  0
DIMSTYLE
105
921
330
A
100
AcDbSymbolTableRecord
100
AcDbDimStyleTableRecord
  2
SANINDUSA
 70
     0
 41
2.0
 42
1.0
 43
1.0
 44
1.0
 73
     0
 74
     0
 77
     1
 78
     8
140
2.0
141
0.0
143
0.03937007874016
147
1.0
171
     3
172
     1
176
   256
177
   256
178
   256
179
     1
271
     1
272
     1
274
     3
278
    44
283
     0
284
     8
340
91F
371
    -1
372
    -1
  0
DIMSTYLE
105
16D2
330
A
100
AcDbSymbolTableRecord
100
AcDbDimStyleTableRecord
  2
ISO-25
 70
     0
 41
2.5
 42
0.625
 43
3.75
 44
1.25
 73
     0
 74
     0
 77
     1
 78
     8
140
2.5
141
2.5
143
0.03937007874016
147
0.625
171
     3
172
     1
271
     2
272
     2
274
     3
278
    44
283
     0
284
     8
340
11
  0
ENDTAB
  0
TABLE
  2
BLOCK_RECORD
  5
1
330
0
100
AcDbSymbolTable
 70
     7
  0
BLOCK_RECORD
  5
1F
102
{ACAD_XDICTIONARY
360
1704
102
}
330
1
100
AcDbSymbolTableRecord
100
AcDbBlockTableRecord
  2
*Model_Space
340
22
  0
BLOCK_RECORD
  5
1B
330
1
100
AcDbSymbolTableRecord
100
AcDbBlockTableRecord
  2
*Paper_Space
340
1E
  0
BLOCK_RECORD
  5
23
330
1
100
AcDbSymbolTableRecord
100
AcDbBlockTableRecord
  2
*Paper_Space0
340
26
  0
BLOCK_RECORD
  5
919
330
1
100
AcDbSymbolTableRecord
100
AcDbBlockTableRecord
  2
_DotSmall
340
0
  0
BLOCK_RECORD
  5
922
330
1
100
AcDbSymbolTableRecord
100
AcDbBlockTableRecord
  2
base para cotas
340
0
310
2800000020000000200000000100080000000000000400000000000000000000000000000000000000000000000080000080000000808000800000008000800080800000C0C0C000C0DCC000F0CAA6000020400000206000002080000020A0000020C0000020E00000400000004020000040400000406000004080000040A0
310
000040C0000040E00000600000006020000060400000606000006080000060A0000060C0000060E00000800000008020000080400000806000008080000080A0000080C0000080E00000A0000000A0200000A0400000A0600000A0800000A0A00000A0C00000A0E00000C0000000C0200000C0400000C0600000C0800000C0
310
A00000C0C00000C0E00000E0000000E0200000E0400000E0600000E0800000E0A00000E0C00000E0E00040000000400020004000400040006000400080004000A0004000C0004000E00040200000402020004020400040206000402080004020A0004020C0004020E000404000004040200040404000404060004040800040
310
40A0004040C0004040E00040600000406020004060400040606000406080004060A0004060C0004060E00040800000408020004080400040806000408080004080A0004080C0004080E00040A0000040A0200040A0400040A0600040A0800040A0A00040A0C00040A0E00040C0000040C0200040C0400040C0600040C08000
310
40C0A00040C0C00040C0E00040E0000040E0200040E0400040E0600040E0800040E0A00040E0C00040E0E00080000000800020008000400080006000800080008000A0008000C0008000E00080200000802020008020400080206000802080008020A0008020C0008020E00080400000804020008040400080406000804080
310
008040A0008040C0008040E00080600000806020008060400080606000806080008060A0008060C0008060E00080800000808020008080400080806000808080008080A0008080C0008080E00080A0000080A0200080A0400080A0600080A0800080A0A00080A0C00080A0E00080C0000080C0200080C0400080C0600080C0
310
800080C0A00080C0C00080C0E00080E0000080E0200080E0400080E0600080E0800080E0A00080E0C00080E0E000C0000000C0002000C0004000C0006000C0008000C000A000C000C000C000E000C0200000C0202000C0204000C0206000C0208000C020A000C020C000C020E000C0400000C0402000C0404000C0406000C0
310
408000C040A000C040C000C040E000C0600000C0602000C0604000C0606000C0608000C060A000C060C000C060E000C0800000C0802000C0804000C0806000C0808000C080A000C080C000C080E000C0A00000C0A02000C0A04000C0A06000C0A08000C0A0A000C0A0C000C0A0E000C0C00000C0C02000C0C04000C0C06000
310
C0C08000C0C0A000F0FBFF00A4A0A000808080000000FF0000FF000000FFFF00FF000000FF00FF00FFFF0000FFFFFF00A4A4A4A4A4A4A4A4A4A4A4A4A4A4A4A4A4A4A4A4A4A4A4A4A4A4A4A4A4A4A4A4A4A4A4A4A4A4A4A4A4A4A4A4A4A4A4A4A4A4A4A4A4A4A4A4A4A4A4A4A4A4A4A4A4A4A4A4A4A4A4A4A4A4A4A4A4A4A4
310
A4A4A4A4A4A4A4A4A4A4A4A4A4A4A4A4A4A4A4A4A4A4A4A4A4A4A4A4A4A4A4A4A4A4A4A4A4A4A4A4A4A4A4A4A4A4A4A4A4A4A4A4A4A4A4A4A4A4A4A4A4A4A4A4A4A4A4A4A4A4A4A4A4A4A4A4A4A4A4A4A4A4A4A4A4A4A4A4A4A4A4A4A4A4A4A4A4A4A4A4A4A4A4A4A4A4A4A4A4A4A4A4A4A4A4A4A4A4A4A4A4A4A4A4A4A4A4
310
A4A4A4A4A4A4A4A4A4A4A4A4A4A4A4A4A4A4A4A4A4A4A4A4A4A4A4A4A4A4A4A4A4A4A4A4A4A4A4A4A4A4A4A4A4A4A4A4A4A4A4A4A4A4A4A4A4A4A4A4A4A4A4A4A4A4A4A4A4A4A4A4A4A4A4A4A4A4A4A4A4A4A4A4A4A4A4A4A4A4A4A4A4A4A4A4A4A4A4A4A4A4A4A4A4A4A4A4A4A4A4A4A4A4A4A4A4A4A4A4A4A4A4A4A4A4A4
310
A4A4A4A4A4A4A4A4A4A4A4A4A4A4A4A4A4A4A4A4A4A4A4A4A4A4A4A4A4A4A4A4A4A4A4A4A4A4A4A4A4A4A4A4A4A4A4A4A4A4A4A4A4A4A4A4A4A4A4A4A4A4A4A4A4A4A4A4A4A4A4A4A4A4A4A4A4A4A4A4A4A4A4A4A4A4A4A4A4A4A4A4A4A4A4A4A4A4A4A4A4A4A4A4A4A4A4A4A4A4A4A4A4A4A4A4F9F9F9F9F9F9F9F9F9F9F9
310
F9F9F9F9F9F9F9F9F9F9F9F9F9F9F9F9F9F9F9A4A4F9F9F9F9F9F9F9F9F9F9F9F9F9F9F9F9F9F9F9F9F9F9F9F9F9F9F9F9F9F9A4A4F9F9F9F9F9F9F9F9F9F9F9F9F9F9F9F9F9F9F9F9F9F9F9F9F9F9F9F9F9F9A4A4F9A4A4A4A4A4A4A4A4A4A4A4A4A4A4A4A4A4A4A4A4A4A4A4A4A4A4A4A4F9A4A4A4A4A4A4A4A4A4A4A4A4
310
A4A4A4A4A4A4A4A4A4A4A4A4A4A4A4A4A4A4A4A4A4A4A4A4A4A4A4A4A4A4A4A4A4A4A4A4A4A4A4A4A4A4A4A4A4A4A4A4A4A4A4A4A4A4A4A4A4A4A4A4A4A4A4A4A4A4A4A4A4A4A4A4A4A4A4A4A4A4A4A4A4A4A4A4A4A4A4A4A4A4A4A4A4A4A4A4A4A4A4A4A4A4A4A4A4A4A4A4A4A4A4A4A4A4A4A4A4A4A4A4A4A4A4A4A4A4A4
310
A4A4A4A4A4A4A4A4A4A4A4A4A4A4A4A4A4A4A4A4A4A4A4A4A4A4A4A4A4A4A4A4A4A4A4A4A4A4A4A4A4A4A4A4A4A4A4A4A4A4A4A4A4A4A4A4A4A4A4A4A4A4A4A4A4A4A4A4A4A4A4A4A4A4A4A4A4A4A4A4A4A4A4A4A4A4A4A4A4A4A4A4A4A4A4A4A4A4A4A4A4A4A4A4A4A4A4A4A4A4A4A4A4A4A4A4A4A4A4A4A4A4A4A4A4A4A4
310
A4A4A4A4A4A4A4A4A4A4A4A4A4A4A4A4A4A4A4A4A4A4A4A4A4A4A4A4A4A4A4A4A4A4A4A4A4A4A4A4A4A4A4A4A4A4A4A4A4A4A4A4A4A4A4A4A4A4A4A4A4A4A4A4A4A4A4A4A4A4A4A4A4A4A4A4A4A4A4A4A4A4A4A4A4A4A4A4A4A4A4A4A4A4A4A4A4A4A4A4A4A4A4A4A4A4A4A4A4A4A4A4A4A4A4A4A4A4A4A4A4A4A4A4A4A4A4
310
A4A4A4A4A4A4A4A4A4A4A4A4A4A4A4A4A4A4A4A4A4A4A4A4A4A4A4A4A4A4A4A4A4A4A4A4A4A4A4A4A4A4A4A4A4A4A4A4A4A4A4A4A4A4A4A4
1001
ACAD
1000
DesignCenter Data
1002
{
1070
     1
1070
     4
1002
}
  0
BLOCK_RECORD
  5
AA8
330
1
100
AcDbSymbolTableRecord
100
AcDbBlockTableRecord
  2
_CLOSED
340
0
  0
BLOCK_RECORD
  5
16D3
330
1
100
AcDbSymbolTableRecord
100
AcDbBlockTableRecord
  2
104320AF
340
0
1001
ACAD
1000
DesignCenter Data
1002
{
1070
     1
1070
     4
1002
}
  0
BLOCK_RECORD
  5
1756
330
1
100
AcDbSymbolTableRecord
100
AcDbBlockTableRecord
  2
104320AL
340
0
1001
ACAD
1000
DesignCenter Data
1002
{
1070
     1
1070
     4
1002
}
  0
BLOCK_RECORD
  5
1786
330
1
100
AcDbSymbolTableRecord
100
AcDbBlockTableRecord
  2
104320CT
340
0
1001
ACAD
1000
DesignCenter Data
1002
{
1070
     1
1070
     4
1002
}
  0
ENDTAB
  0
ENDSEC
  0
SECTION
  2
BLOCKS
  0
BLOCK
  5
20
330
1F
100
AcDbEntity
  8
0
100
AcDbBlockBegin
  2
*Model_Space
 70
     0
 10
0.0
 20
0.0
 30
0.0
  3
*Model_Space
  1

  0
ENDBLK
  5
21
330
1F
100
AcDbEntity
  8
0
100
AcDbBlockEnd
  0
BLOCK
  5
1C
330
1B
100
AcDbEntity
 67
     1
  8
0
100
AcDbBlockBegin
  2
*Paper_Space
 70
     0
 10
0.0
 20
0.0
 30
0.0
  3
*Paper_Space
  1

  0
ENDBLK
  5
1D
330
1B
100
AcDbEntity
 67
     1
  8
0
100
AcDbBlockEnd
  0
BLOCK
  5
24
330
23
100
AcDbEntity
 67
     1
  8
0
100
AcDbBlockBegin
  2
*Paper_Space0
 70
     0
 10
0.0
 20
0.0
 30
0.0
  3
*Paper_Space0
  1

  0
ENDBLK
  5
25
330
23
100
AcDbEntity
 67
     1
  8
0
100
AcDbBlockEnd
  0
BLOCK
  5
91B
330
919
100
AcDbEntity
  8
0
100
AcDbBlockBegin
  2
_DotSmall
 70
     0
 10
0.0
 20
0.0
 30
0.0
  3
_DotSmall
  1

  0
LWPOLYLINE
  5
91A
330
919
100
AcDbEntity
  8
0
  6
ByBlock
 62
     0
100
AcDbPolyline
 90
        2
 70
     1
 43
0.5
 10
-0.0625
 20
0.0
 42
1.0
 10
0.0625
 20
0.0
 42
1.0
  0
ENDBLK
  5
91C
330
919
100
AcDbEntity
  8
0
100
AcDbBlockEnd
  0
BLOCK
  5
92A
330
922
100
AcDbEntity
  8
0
100
AcDbBlockBegin
  2
base para cotas
 70
     0
 10
0.0
 20
0.0
 30
0.0
  3
base para cotas
  1

  0
LINE
  5
B36
330
922
100
AcDbEntity
  8
cotas
100
AcDbLine
 10
0.0
 20
-30.0
 30
0.0
 11
327.1260136525398
 21
-30.0
 31
0.0
  0
LINE
  5
B37
330
922
100
AcDbEntity
  8
cotas
100
AcDbLine
 10
0.0
 20
-25.0
 30
0.0
 11
327.1260136525398
 21
-25.0
 31
0.0
  0
LINE
  5
B38
330
922
100
AcDbEntity
  8
cotas
100
AcDbLine
 10
0.0
 20
-20.0
 30
0.0
 11
327.1260136525398
 21
-20.0
 31
0.0
  0
LINE
  5
B39
330
922
100
AcDbEntity
  8
cotas
100
AcDbLine
 10
0.0
 20
-15.0
 30
0.0
 11
327.1260136525398
 21
-15.0
 31
0.0
  0
LINE
  5
B3A
330
922
100
AcDbEntity
  8
cotas
100
AcDbLine
 10
0.0
 20
-10.0
 30
0.0
 11
327.1260136525398
 21
-10.0
 31
0.0
  0
LINE
  5
B3B
330
922
100
AcDbEntity
  8
cotas
100
AcDbLine
 10
0.0
 20
0.0
 30
0.0
 11
0.0
 21
-30.0
 31
0.0
  0
LINE
  5
B3C
330
922
100
AcDbEntity
  8
cotas
100
AcDbLine
 10
327.1260136525398
 20
-30.0
 30
0.0
 11
327.1260136525398
 21
0.0
 31
0.0
  0
ENDBLK
  5
92B
330
922
100
AcDbEntity
  8
0
100
AcDbBlockEnd
  0
BLOCK
  5
AAD
330
AA8
100
AcDbEntity
  8
0
100
AcDbBlockBegin
  2
_CLOSED
 70
     0
 10
0.0
 20
0.0
 30
0.0
  3
_CLOSED
  1

  0
LINE
  5
AA9
330
AA8
100
AcDbEntity
  8
0
100
AcDbLine
 10
-1.0
 20
0.166667
 30
0.0
 11
0.0
 21
0.0
 31
0.0
  0
LINE
  5
AAA
330
AA8
100
AcDbEntity
  8
0
100
AcDbLine
 10
0.0
 20
0.0
 30
0.0
 11
-1.0
 21
-0.166667
 31
0.0
  0
LINE
  5
AAB
330
AA8
100
AcDbEntity
  8
0
100
AcDbLine
 10
-1.0
 20
0.166667
 30
0.0
 11
-1.0
 21
-0.166667
 31
0.0
  0
LINE
  5
AAC
330
AA8
100
AcDbEntity
  8
0
100
AcDbLine
 10
0.0
 20
0.0
 30
0.0
 11
-1.0
 21
0.0
 31
0.0
  0
ENDBLK
  5
AAE
330
AA8
100
AcDbEntity
  8
0
100
AcDbBlockEnd
  0
BLOCK
  5
16EA
330
16D3
100
AcDbEntity
  8
0
100
AcDbBlockBegin
  2
104320AF
 70
     0
 10
0.0
 20
0.0
 30
0.0
  3
104320AF
  1

  0
LINE
  5
16D4
330
16D3
100
AcDbEntity
  8
BLOCKS
100
AcDbLine
 10
0.2672390000000178
 20
0.8400000000000318
 30
0.0
 11
0.2672390000000178
 21
0.8499339999999619
 31
0.0
  0
ARC
  5
16D5
330
16D3
100
AcDbEntity
  8
BLOCKS
100
AcDbCircle
 10
0.1765550000000076
 20
0.6949509999999464
 30
0.0
 40
0.01
100
AcDbArc
 50
270.0
 51
0.0
  0
LINE
  5
16D6
330
16D3
100
AcDbEntity
  8
BLOCKS
100
AcDbLine
 10
0.1865549999999985
 20
0.7054369999999608
 30
0.0
 11
0.1865549999999985
 21
0.6949509999999464
 31
0.0
  0
ARC
  5
16D7
330
16D3
100
AcDbEntity
  8
BLOCKS
100
AcDbCircle
 10
5.200243
 20
-5.942645999999967
 30
0.0
 40
8.331633
100
AcDbArc
 50
125.7171480000027
 51
126.5807799999996
  0
ARC
  5
16D8
330
16D3
100
AcDbEntity
  8
BLOCKS
100
AcDbCircle
 10
0.3305289999999559
 20
0.8300000000000409
 30
0.0
 40
0.01
100
AcDbArc
 50
305.7171480000027
 51
90.0
  0
LINE
  5
16D9
330
16D3
100
AcDbEntity
  8
BLOCKS
100
AcDbLine
 10
-0.2672390000000178
 20
0.8400000000000318
 30
0.0
 11
-0.2672390000000178
 21
0.8500450000000228
 31
0.0
  0
ARC
  5
16DA
330
16D3
100
AcDbEntity
  8
BLOCKS
100
AcDbCircle
 10
-0.1765550000000076
 20
0.6949509999999464
 30
0.0
 40
0.01
100
AcDbArc
 50
180.0
 51
270.0
  0
LINE
  5
16DB
330
16D3
100
AcDbEntity
  8
BLOCKS
100
AcDbLine
 10
-0.1679709999999659
 20
0.6849509999999555
 30
0.0
 11
-0.1765550000000076
 21
0.6849509999999555
 31
0.0
  0
LINE
  5
16DC
330
16D3
100
AcDbEntity
  8
BLOCKS
100
AcDbLine
 10
-0.1865549999999985
 20
0.7054369999999608
 30
0.0
 11
-0.1865549999999985
 21
0.6949509999999464
 31
0.0
  0
ARC
  5
16DD
330
16D3
100
AcDbEntity
  8
BLOCKS
100
AcDbCircle
 10
-0.3305289999999559
 20
0.8300000000000409
 30
0.0
 40
0.01
100
AcDbArc
 50
90.0
 51
234.2828519999973
  0
ARC
  5
16DE
330
16D3
100
AcDbEntity
  8
BLOCKS
100
AcDbCircle
 10
-5.200243
 20
-5.942645999999967
 30
0.0
 40
8.331633
100
AcDbArc
 50
53.41922000000043
 51
54.28285199999733
  0
LINE
  5
16DF
330
16D3
100
AcDbEntity
  8
BLOCKS
100
AcDbLine
 10
0.1485010000000102
 20
0.6599999999999682
 30
0.0
 11
-0.1485010000000102
 21
0.6599999999999682
 31
0.0
  0
ARC
  5
16E0
330
16D3
100
AcDbEntity
  8
BLOCKS
100
AcDbCircle
 10
-0.5659010000000535
 20
0.3959680000000389
 30
0.0
 40
0.4974940000000001
100
AcDbArc
 50
4.416617000002869
 51
18.30826100000291
  0
ARC
  5
16E1
330
16D3
100
AcDbEntity
  8
BLOCKS
100
AcDbCircle
 10
0.5659010000000535
 20
0.3959680000000389
 30
0.0
 40
0.4974940000000001
100
AcDbArc
 50
161.691738999997
 51
175.5833829999971
  0
LINE
  5
16E2
330
16D3
100
AcDbEntity
  8
BLOCKS
100
AcDbLine
 10
-0.0698840000000018
 20
0.0
 30
0.0
 11
0.0698840000000018
 21
0.0
 31
0.0
  0
LINE
  5
16E3
330
16D3
100
AcDbEntity
  8
BLOCKS
100
AcDbLine
 10
-0.0698840000000018
 20
0.4342789999999468
 30
0.0
 11
-0.0698840000000018
 21
0.0
 31
0.0
  0
LINE
  5
16E4
330
16D3
100
AcDbEntity
  8
BLOCKS
100
AcDbLine
 10
0.0698840000000018
 20
0.4342789999999468
 30
0.0
 11
0.0698840000000018
 21
0.0
 31
0.0
  0
ARC
  5
16E5
330
16D3
100
AcDbEntity
  8
BLOCKS
100
AcDbCircle
 10
-0.4733420000000024
 20
0.4265940000000228
 30
0.0
 40
0.4
100
AcDbArc
 50
18.30826100000291
 51
53.41922000000043
  0
LINE
  5
16E6
330
16D3
100
AcDbEntity
  8
BLOCKS
100
AcDbLine
 10
-0.2672390000000178
 20
0.8500450000000228
 30
0.0
 11
0.2672390000000178
 21
0.8499339999999619
 31
0.0
  0
LINE
  5
16E7
330
16D3
100
AcDbEntity
  8
BLOCKS
100
AcDbLine
 10
0.3305289999999559
 20
0.8400000000000318
 30
0.0
 11
-0.3305289999999559
 21
0.8400000000000318
 31
0.0
  0
ARC
  5
16E8
330
16D3
100
AcDbEntity
  8
BLOCKS
100
AcDbCircle
 10
0.4733420000000024
 20
0.4265940000000228
 30
0.0
 40
0.4
100
AcDbArc
 50
126.5807799999996
 51
161.691738999997
  0
LINE
  5
16E9
330
16D3
100
AcDbEntity
  8
BLOCKS
100
AcDbLine
 10
0.1679709999999659
 20
0.6849509999999555
 30
0.0
 11
0.1765550000000076
 21
0.6849509999999555
 31
0.0
  0
ENDBLK
  5
16EB
330
16D3
100
AcDbEntity
  8
0
100
AcDbBlockEnd
  0
BLOCK
  5
176D
330
1756
100
AcDbEntity
  8
0
100
AcDbBlockBegin
  2
104320AL
 70
     0
 10
0.0
 20
0.0
 30
0.0
  3
104320AL
  1

  0
ARC
  5
1757
330
1756
100
AcDbEntity
  8
BLOCKS
100
AcDbCircle
 10
0.5599999999999455
 20
0.8300000000000414
 30
0.0
 40
0.01
100
AcDbArc
 50
0.0
 51
90.0
  0
ARC
  5
1758
330
1756
100
AcDbEntity
  8
BLOCKS
100
AcDbCircle
 10
0.5599999999999455
 20
0.8291779999999567
 30
0.0
 40
0.01
100
AcDbArc
 50
305.824855000001
 51
0.0
  0
LINE
  5
1759
330
1756
100
AcDbEntity
  8
BLOCKS
100
AcDbLine
 10
0.5700000000000501
 20
0.8300000000000414
 30
0.0
 11
0.5700000000000501
 21
0.8291779999999567
 31
0.0
  0
ARC
  5
175A
330
1756
100
AcDbEntity
  8
BLOCKS
100
AcDbCircle
 10
5.430856999999946
 20
-5.942645999999967
 30
0.0
 40
8.331633
100
AcDbArc
 50
125.7267019999982
 51
126.4513830000006
  0
ARC
  5
175B
330
1756
100
AcDbEntity
  8
BLOCKS
100
AcDbCircle
 10
-1.768231000000014
 20
3.290003999999953
 30
0.0
 40
3.385804
100
AcDbArc
 50
310.2160239999999
 51
311.622714000001
  0
ARC
  5
175C
330
1756
100
AcDbEntity
  8
BLOCKS
100
AcDbCircle
 10
0.0099999999999909
 20
0.8400000000000323
 30
0.0
 40
0.01
100
AcDbArc
 50
90.0
 51
180.0
  0
LINE
  5
175D
330
1756
100
AcDbEntity
  8
BLOCKS
100
AcDbLine
 10
0.0099999999999909
 20
0.8500000000000232
 30
0.0
 11
0.1293190000000095
 21
0.8499749999999727
 31
0.0
  0
ARC
  5
175E
330
1756
100
AcDbEntity
  8
BLOCKS
100
AcDbCircle
 10
0.1117759999999635
 20
0.7866030000000143
 30
0.0
 40
0.03
100
AcDbArc
 50
251.8814460000017
 51
289.0868010000028
  0
LINE
  5
175F
330
1756
100
AcDbEntity
  8
BLOCKS
100
AcDbLine
 10
0.1024469999999837
 20
0.7580900000000389
 30
0.0
 11
0.0
 21
0.791611999999987
 31
0.0
  0
LINE
  5
1760
330
1756
100
AcDbEntity
  8
BLOCKS
100
AcDbLine
 10
0.0
 20
0.6699999999999596
 30
0.0
 11
0.0
 21
0.8400000000000323
 31
0.0
  0
ARC
  5
1761
330
1756
100
AcDbEntity
  8
BLOCKS
100
AcDbCircle
 10
0.1286179999999604
 20
0.8400000000000323
 30
0.0
 40
0.01
100
AcDbArc
 50
7.766676999998357
 51
90.0
  0
LINE
  5
1762
330
1756
100
AcDbEntity
  8
BLOCKS
100
AcDbLine
 10
0.5599999999999455
 20
0.8400000000000323
 30
0.0
 11
0.0
 21
0.8400000000000323
 31
0.0
  0
LINE
  5
1763
330
1756
100
AcDbEntity
  8
BLOCKS
100
AcDbLine
 10
0.3010040000000345
 20
0.8203350000000005
 30
0.0
 11
0.1215859999999793
 21
0.758251999999971
 31
0.0
  0
ARC
  5
1764
330
1756
100
AcDbEntity
  8
BLOCKS
100
AcDbCircle
 10
0.3647929999999633
 20
0.6549830000000162
 30
0.0
 40
0.005
100
AcDbArc
 50
330.763256000002
 51
89.93334699999735
  0
LINE
  5
1765
330
1756
100
AcDbEntity
  8
BLOCKS
100
AcDbLine
 10
0.3715869999999768
 20
0.6599999999999687
 30
0.0
 11
0.0099999999999909
 21
0.6599999999999687
 31
0.0
  0
ARC
  5
1766
330
1756
100
AcDbEntity
  8
BLOCKS
100
AcDbCircle
 10
0.8583469999999806
 20
0.3787290000000212
 30
0.0
 40
0.560607
100
AcDbArc
 50
150.763256000002
 51
174.3132689999971
  0
ARC
  5
1767
330
1756
100
AcDbEntity
  8
BLOCKS
100
AcDbCircle
 10
0.0099999999999909
 20
0.6699999999999596
 30
0.0
 40
0.01
100
AcDbArc
 50
180.0
 51
270.0
  0
ARC
  5
1768
330
1756
100
AcDbEntity
  8
BLOCKS
100
AcDbCircle
 10
0.7925510000000032
 20
0.2688630000000103
 30
0.0
 40
0.5746299999999999
100
AcDbArc
 50
130.6935430000037
 51
137.1034389999976
  0
LINE
  5
1769
330
1756
100
AcDbEntity
  8
BLOCKS
100
AcDbLine
 10
0.2855279999999993
 20
0.0
 30
0.0
 11
0.0824999999999818
 21
0.0
 31
0.0
  0
LINE
  5
176A
330
1756
100
AcDbEntity
  8
BLOCKS
100
AcDbLine
 10
0.0824999999999818
 20
0.0
 30
0.0
 11
0.0824999999999818
 21
0.6599999999999687
 31
0.0
  0
ARC
  5
176B
330
1756
100
AcDbEntity
  8
BLOCKS
100
AcDbCircle
 10
10.25736500000005
 20
-0.1263599999999769
 30
0.0
 40
9.972637
100
AcDbArc
 50
176.7772589999981
 51
179.2740040000021
  0
LINE
  5
176C
330
1756
100
AcDbEntity
  8
BLOCKS
100
AcDbLine
 10
0.1430639999999812
 20
0.0
 30
0.0
 11
0.1430639999999812
 21
0.6599999999999687
 31
0.0
  0
ENDBLK
  5
176E
330
1756
100
AcDbEntity
  8
0
100
AcDbBlockEnd
  0
BLOCK
  5
17F2
330
1786
100
AcDbEntity
  8
0
100
AcDbBlockBegin
  2
104320CT
 70
     0
 10
0.0
 20
0.0
 30
0.0
  3
104320CT
  1

  0
ARC
  5
1787
330
1786
100
AcDbEntity
  8
BLOCKS
100
AcDbCircle
 10
0.558840000000032
 20
0.8300000000000409
 30
0.0
 40
0.01
100
AcDbArc
 50
90.0
 51
98.61886899999797
  0
ARC
  5
1788
330
1786
100
AcDbEntity
  8
BLOCKS
100
AcDbCircle
 10
0.5599999999999455
 20
0.8300000000000409
 30
0.0
 40
0.01
100
AcDbArc
 50
0.0
 51
90.0
  0
ARC
  5
1789
330
1786
100
AcDbEntity
  8
BLOCKS
100
AcDbCircle
 10
0.5599999999999455
 20
0.8291779999999562
 30
0.0
 40
0.01
100
AcDbArc
 50
305.824855000001
 51
0.0
  0
LINE
  5
178A
330
1786
100
AcDbEntity
  8
BLOCKS
100
AcDbLine
 10
0.5599999999999455
 20
0.8400000000000318
 30
0.0
 11
0.558840000000032
 21
0.8400000000000318
 31
0.0
  0
LINE
  5
178B
330
1786
100
AcDbEntity
  8
BLOCKS
100
AcDbLine
 10
0.5700000000000501
 20
0.8300000000000409
 30
0.0
 11
0.5700000000000501
 21
0.8291779999999562
 31
0.0
  0
LINE
  5
178C
330
1786
100
AcDbEntity
  8
BLOCKS
100
AcDbLine
 10
0.5175130000000081
 20
0.8238179999999601
 30
0.0
 11
0.5437100000000328
 21
0.8277890000000525
 31
0.0
  0
ARC
  5
178D
330
1786
100
AcDbEntity
  8
BLOCKS
100
AcDbCircle
 10
6.555850999999961
 20
-6.324691000000029
 30
0.0
 40
9.338091
100
AcDbArc
 50
130.0589070000017
 51
130.3412230000006
  0
ARC
  5
178E
330
1786
100
AcDbEntity
  8
BLOCKS
100
AcDbCircle
 10
0.3503849999999602
 20
0.8647479999999632
 30
0.0
 40
0.170232
100
AcDbArc
 50
336.2988170000019
 51
345.321599000002
  0
ARC
  5
178F
330
1786
100
AcDbEntity
  8
BLOCKS
100
AcDbCircle
 10
0.5088650000000144
 20
0.8259510000000318
 30
0.0
 40
0.006522
100
AcDbArc
 50
101.4357229999982
 51
167.320513000002
  0
ARC
  5
1790
330
1786
100
AcDbEntity
  8
BLOCKS
100
AcDbCircle
 10
0.5179630000000089
 20
0.8208519999999452
 30
0.0
 40
0.003
100
AcDbArc
 50
98.61886899999797
 51
165.321599000002
  0
LINE
  5
1791
330
1786
100
AcDbEntity
  8
BLOCKS
100
AcDbLine
 10
0.507571999999982
 20
0.8323430000000371
 30
0.0
 11
0.5573419999999488
 21
0.839886999999976
 31
0.0
  0
ARC
  5
1792
330
1786
100
AcDbEntity
  8
BLOCKS
100
AcDbCircle
 10
0.5441600000000335
 20
0.8248230000000376
 30
0.0
 40
0.003
100
AcDbArc
 50
310.0589070000017
 51
98.61886899999797
  0
ARC
  5
1793
330
1786
100
AcDbEntity
  8
BLOCKS
100
AcDbCircle
 10
5.430856999999946
 20
-5.942645999999967
 30
0.0
 40
8.331633
100
AcDbArc
 50
125.7267019999982
 51
126.4513830000006
  0
ARC
  5
1794
330
1786
100
AcDbEntity
  8
BLOCKS
100
AcDbCircle
 10
0.509005000000002
 20
0.7951150000000098
 30
0.0
 40
0.003
100
AcDbArc
 50
156.2988170000019
 51
310.3412230000007
  0
LINE
  5
1795
330
1786
100
AcDbEntity
  8
BLOCKS
100
AcDbLine
 10
0.369152999999983
 20
0.6816740000000437
 30
0.0
 11
0.3797049999999444
 21
0.6911730000000489
 31
0.0
  0
LINE
  5
1796
330
1786
100
AcDbEntity
  8
BLOCKS
100
AcDbLine
 10
0.3620929999999589
 20
0.6859309999999823
 30
0.0
 11
0.3797230000000127
 21
0.6928450000000339
 31
0.0
  0
LINE
  5
1797
330
1786
100
AcDbEntity
  8
BLOCKS
100
AcDbLine
 10
0.3629160000000411
 20
0.6846679999999879
 30
0.0
 11
0.369152999999983
 21
0.6816740000000437
 31
0.0
  0
LINE
  5
1798
330
1786
100
AcDbEntity
  8
BLOCKS
100
AcDbLine
 10
0.3620929999999589
 20
0.6859309999999823
 30
0.0
 11
0.3629160000000411
 21
0.6846679999999879
 31
0.0
  0
LINE
  5
1799
330
1786
100
AcDbEntity
  8
BLOCKS
100
AcDbLine
 10
0.3797049999999444
 20
0.6911730000000489
 30
0.0
 11
0.3797230000000127
 21
0.6928450000000339
 31
0.0
  0
ARC
  5
179A
330
1786
100
AcDbEntity
  8
BLOCKS
100
AcDbCircle
 10
0.3591979999999921
 20
0.8632159999999657
 30
0.0
 40
0.147717
100
AcDbArc
 50
302.7725640000014
 51
345.960939000001
  0
ARC
  5
179B
330
1786
100
AcDbEntity
  8
BLOCKS
100
AcDbCircle
 10
-1.768231000000014
 20
3.290003999999953
 30
0.0
 40
3.385804
100
AcDbArc
 50
310.2160239999999
 51
311.622714000001
  0
ARC
  5
179C
330
1786
100
AcDbEntity
  8
BLOCKS
100
AcDbCircle
 10
0.3030479999999898
 20
0.7601849999999786
 30
0.0
 40
0.083405
100
AcDbArc
 50
127.6063550000004
 51
145.1448570000023
  0
ARC
  5
179D
330
1786
100
AcDbEntity
  8
BLOCKS
100
AcDbCircle
 10
0.2483339999999998
 20
0.8335029999999505
 30
0.0
 40
0.008188
100
AcDbArc
 50
297.7942300000013
 51
349.8866499999981
  0
ARC
  5
179E
330
1786
100
AcDbEntity
  8
BLOCKS
100
AcDbCircle
 10
0.1694380000000137
 20
0.6887070000000222
 30
0.0
 40
0.01
100
AcDbArc
 50
187.7666769999984
 51
270.0
  0
ARC
  5
179F
330
1786
100
AcDbEntity
  8
BLOCKS
100
AcDbCircle
 10
0.0563919999999598
 20
0.823391000000015
 30
0.0
 40
0.18071
100
AcDbArc
 50
308.1848999999987
 51
325.8137710000019
  0
ARC
  5
17A0
330
1786
100
AcDbEntity
  8
BLOCKS
100
AcDbCircle
 10
0.6594119999999748
 20
0.6879010000000108
 30
0.0
 40
0.446505
100
AcDbArc
 50
167.6340089999999
 51
171.3907779999976
  0
LINE
  5
17A1
330
1786
100
AcDbEntity
  8
BLOCKS
100
AcDbLine
 10
0.1694380000000137
 20
0.6787070000000313
 30
0.0
 11
0.2719970000000558
 21
0.6787070000000313
 31
0.0
  0
ARC
  5
17A2
330
1786
100
AcDbEntity
  8
BLOCKS
100
AcDbCircle
 10
0.131289000000038
 20
0.7678590000000441
 30
0.0
 40
0.087637
100
AcDbArc
 50
328.3334429999982
 51
351.3907779999976
  0
LINE
  5
17A3
330
1786
100
AcDbEntity
  8
BLOCKS
100
AcDbLine
 10
0.1385259999999562
 20
0.8413510000000314
 30
0.0
 11
0.1595300000000179
 21
0.6873550000000251
 31
0.0
  0
ARC
  5
17A4
330
1786
100
AcDbEntity
  8
BLOCKS
100
AcDbCircle
 10
0.2832389999999805
 20
0.7703739999999471
 30
0.0
 40
0.061398
100
AcDbArc
 50
142.3822489999981
 51
167.6340089999999
  0
LINE
  5
17A5
330
1786
100
AcDbEntity
  8
BLOCKS
100
AcDbLine
 10
0.0965300000000298
 20
0.8327500000000327
 30
0.0
 11
0.0824999999999818
 21
0.8327500000000327
 31
0.0
  0
LINE
  5
17A6
330
1786
100
AcDbEntity
  8
BLOCKS
100
AcDbLine
 10
0.0824999999999818
 20
0.8327500000000327
 30
0.0
 11
0.0824999999999818
 21
0.8500000000000227
 31
0.0
  0
ARC
  5
17A7
330
1786
100
AcDbEntity
  8
BLOCKS
100
AcDbCircle
 10
0.1231520000000046
 20
0.8294949999999516
 30
0.0
 40
0.006492
100
AcDbArc
 50
56.70362899999935
 51
100.877012000001
  0
ARC
  5
17A8
330
1786
100
AcDbEntity
  8
BLOCKS
100
AcDbCircle
 10
0.0965300000000298
 20
0.8227500000000418
 30
0.0
 40
0.01
100
AcDbArc
 50
7.766676999998387
 51
90.0
  0
ARC
  5
17A9
330
1786
100
AcDbEntity
  8
BLOCKS
100
AcDbCircle
 10
0.1248419999999442
 20
0.8276049999999486
 30
0.0
 40
0.008765
100
AcDbArc
 50
109.4281449999994
 51
194.213617999998
  0
LINE
  5
17AA
330
1786
100
AcDbEntity
  8
BLOCKS
100
AcDbLine
 10
0.1305109999999559
 20
0.8254530000000386
 30
0.0
 11
0.1314559999999574
 21
0.8185200000000349
 31
0.0
  0
ARC
  5
17AB
330
1786
100
AcDbEntity
  8
BLOCKS
100
AcDbCircle
 10
0.1123099999999795
 20
0.8236540000000331
 30
0.0
 40
0.018289
100
AcDbArc
 50
5.645006999996765
 51
38.03084699999855
  0
ARC
  5
17AC
330
1786
100
AcDbEntity
  8
BLOCKS
100
AcDbCircle
 10
0.0099999999999909
 20
0.8400000000000318
 30
0.0
 40
0.01
100
AcDbArc
 50
90.0
 51
180.0
  0
LINE
  5
17AD
330
1786
100
AcDbEntity
  8
BLOCKS
100
AcDbLine
 10
0.0475000000000137
 20
0.8327500000000327
 30
0.0
 11
0.0475000000000137
 21
0.8500000000000227
 31
0.0
  0
LINE
  5
17AE
330
1786
100
AcDbEntity
  8
BLOCKS
100
AcDbLine
 10
0.0475000000000137
 20
0.8327500000000327
 30
0.0
 11
0.0364759999999933
 21
0.8327500000000327
 31
0.0
  0
ARC
  5
17AF
330
1786
100
AcDbEntity
  8
BLOCKS
100
AcDbCircle
 10
0.0364759999999933
 20
0.8227500000000418
 30
0.0
 40
0.01
100
AcDbArc
 50
90.0
 51
175.0964100000022
  0
LINE
  5
17B0
330
1786
100
AcDbEntity
  8
BLOCKS
100
AcDbLine
 10
0.0099999999999909
 20
0.8500000000000227
 30
0.0
 11
0.1293190000000095
 21
0.8499749999999721
 31
0.0
  0
LINE
  5
17B1
330
1786
100
AcDbEntity
  8
BLOCKS
100
AcDbLine
 10
0.0265130000000227
 20
0.8236050000000432
 30
0.0
 11
0.0147739999999885
 21
0.6867750000000115
 31
0.0
  0
LINE
  5
17B2
330
1786
100
AcDbEntity
  8
BLOCKS
100
AcDbLine
 10
0.1348329999999578
 20
0.7937620000000152
 30
0.0
 11
0.1501859999999624
 21
0.681194000000005
 31
0.0
  0
ARC
  5
17B3
330
1786
100
AcDbEntity
  8
BLOCKS
100
AcDbCircle
 10
0.1286179999999604
 20
0.8400000000000318
 30
0.0
 40
0.01
100
AcDbArc
 50
7.766676999998387
 51
90.0
  0
LINE
  5
17B4
330
1786
100
AcDbEntity
  8
BLOCKS
100
AcDbLine
 10
0.1348329999999578
 20
0.7937620000000152
 30
0.0
 11
0.1447879999999486
 21
0.7954449999999725
 31
0.0
  0
LINE
  5
17B5
330
1786
100
AcDbEntity
  8
BLOCKS
100
AcDbLine
 10
0.1314559999999574
 20
0.8185200000000349
 30
0.0
 11
0.1414109999999482
 21
0.8202029999999922
 31
0.0
  0
LINE
  5
17B6
330
1786
100
AcDbEntity
  8
BLOCKS
100
AcDbLine
 10
0.558840000000032
 20
0.8400000000000318
 30
0.0
 11
0.1387109999999438
 21
0.8400000000000318
 31
0.0
  0
LINE
  5
17B7
330
1786
100
AcDbEntity
  8
BLOCKS
100
AcDbLine
 10
0.340577000000053
 20
0.6599099999999681
 30
0.0
 11
0.3130300000000261
 21
0.659942000000001
 31
0.0
  0
LINE
  5
17B8
330
1786
100
AcDbEntity
  8
BLOCKS
100
AcDbLine
 10
0.3169769999999517
 20
0.6496389999999792
 30
0.0
 11
0.3395719999999756
 21
0.6519019999999501
 31
0.0
  0
LINE
  5
17B9
330
1786
100
AcDbEntity
  8
BLOCKS
100
AcDbLine
 10
0.3201340000000528
 20
0.6324690000000146
 30
0.0
 11
0.3305950000000166
 21
0.6217659999999797
 31
0.0
  0
ARC
  5
17BA
330
1786
100
AcDbEntity
  8
BLOCKS
100
AcDbCircle
 10
0.281231000000048
 20
0.5892569999999751
 30
0.0
 40
0.045226
100
AcDbArc
 50
13.38114199999789
 51
49.79141099999735
  0
ARC
  5
17BB
330
1786
100
AcDbEntity
  8
BLOCKS
100
AcDbCircle
 10
0.3174460000000181
 20
0.5978720000000522
 30
0.0
 40
0.008
100
AcDbArc
 50
337.9449200000029
 51
13.38114199999789
  0
LINE
  5
17BC
330
1786
100
AcDbEntity
  8
BLOCKS
100
AcDbLine
 10
0.3131889999999657
 20
0.6471729999999525
 30
0.0
 11
0.3169769999999517
 21
0.6496389999999792
 31
0.0
  0
LINE
  5
17BD
330
1786
100
AcDbEntity
  8
BLOCKS
100
AcDbLine
 10
0.3131479999999556
 20
0.6434110000000146
 30
0.0
 11
0.3131889999999657
 21
0.6471729999999525
 31
0.0
  0
LINE
  5
17BE
330
1786
100
AcDbEntity
  8
BLOCKS
100
AcDbLine
 10
0.3143740000000434
 20
0.6408900000000131
 30
0.0
 11
0.3131479999999556
 21
0.6434110000000146
 31
0.0
  0
LINE
  5
17BF
330
1786
100
AcDbEntity
  8
BLOCKS
100
AcDbLine
 10
0.3201340000000528
 20
0.6324690000000146
 30
0.0
 11
0.3143740000000434
 21
0.6408900000000131
 31
0.0
  0
ARC
  5
17C0
330
1786
100
AcDbEntity
  8
BLOCKS
100
AcDbCircle
 10
0.3155669999999873
 20
0.6142710000000307
 30
0.0
 40
0.045741
100
AcDbArc
 50
88.66997700000059
 51
102.3954719999971
  0
LINE
  5
17C1
330
1786
100
AcDbEntity
  8
BLOCKS
100
AcDbLine
 10
0.3593869999999697
 20
0.6659100000000536
 30
0.0
 11
0.3748890000000529
 21
0.6661219999999731
 31
0.0
  0
ARC
  5
17C2
330
1786
100
AcDbEntity
  8
BLOCKS
100
AcDbCircle
 10
0.3647929999999633
 20
0.6549830000000157
 30
0.0
 40
0.005
100
AcDbArc
 50
330.763256000002
 51
89.93334699999735
  0
LINE
  5
17C3
330
1786
100
AcDbEntity
  8
BLOCKS
100
AcDbLine
 10
0.34709399999997
 20
0.6518200000000434
 30
0.0
 11
0.350037000000043
 21
0.6488130000000183
 31
0.0
  0
LINE
  5
17C4
330
1786
100
AcDbEntity
  8
BLOCKS
100
AcDbLine
 10
0.3395719999999756
 20
0.6519019999999501
 30
0.0
 11
0.34709399999997
 21
0.6518200000000434
 31
0.0
  0
ARC
  5
17C5
330
1786
100
AcDbEntity
  8
BLOCKS
100
AcDbCircle
 10
0.3334559999999556
 20
0.624561999999969
 30
0.0
 40
0.004
100
AcDbArc
 50
224.3455729999968
 51
334.9039479999969
  0
ARC
  5
17C6
330
1786
100
AcDbEntity
  8
BLOCKS
100
AcDbCircle
 10
0.8583469999999806
 20
0.3787290000000212
 30
0.0
 40
0.575607
100
AcDbArc
 50
152.0166149999971
 51
154.9039479999968
  0
LINE
  5
17C7
330
1786
100
AcDbEntity
  8
BLOCKS
100
AcDbLine
 10
0.3572279999999637
 20
0.6708320000000186
 30
0.0
 11
0.3437069999999949
 21
0.6708320000000186
 31
0.0
  0
LINE
  5
17C8
330
1786
100
AcDbEntity
  8
BLOCKS
100
AcDbLine
 10
0.340577000000053
 20
0.6599099999999681
 30
0.0
 11
0.3437069999999949
 21
0.6708320000000186
 31
0.0
  0
LINE
  5
17C9
330
1786
100
AcDbEntity
  8
BLOCKS
100
AcDbLine
 10
0.3647989999999481
 20
0.6599830000000111
 30
0.0
 11
0.3619869999999992
 21
0.6599860000000036
 31
0.0
  0
LINE
  5
17CA
330
1786
100
AcDbEntity
  8
BLOCKS
100
AcDbLine
 10
0.3619869999999992
 20
0.6599860000000036
 30
0.0
 11
0.3572279999999637
 21
0.6708320000000186
 31
0.0
  0
LINE
  5
17CB
330
1786
100
AcDbEntity
  8
BLOCKS
100
AcDbLine
 10
0.24249999999995
 20
0.6637070000000449
 30
0.0
 11
0.24249999999995
 21
0.6237069999999676
 31
0.0
  0
ARC
  5
17CC
330
1786
100
AcDbEntity
  8
BLOCKS
100
AcDbCircle
 10
0.2675000000000409
 20
0.653707000000054
 30
0.0
 40
0.01
100
AcDbArc
 50
90.0
 51
180.0
  0
LINE
  5
17CD
330
1786
100
AcDbEntity
  8
BLOCKS
100
AcDbLine
 10
0.25750000000005
 20
0.653707000000054
 30
0.0
 11
0.25750000000005
 21
0.6237069999999676
 31
0.0
  0
ARC
  5
17CE
330
1786
100
AcDbEntity
  8
BLOCKS
100
AcDbCircle
 10
0.3255239999999731
 20
0.6489149999999882
 30
0.0
 40
0.027631
100
AcDbArc
 50
179.1413359999968
 51
198.8231930000018
  0
ARC
  5
17CF
330
1786
100
AcDbEntity
  8
BLOCKS
100
AcDbCircle
 10
0.1725000000000136
 20
0.6539390000000367
 30
0.0
 40
0.01
100
AcDbArc
 50
358.6711100000018
 51
84.73652299999804
  0
LINE
  5
17D0
330
1786
100
AcDbEntity
  8
BLOCKS
100
AcDbLine
 10
0.1974999999999909
 20
0.6637070000000449
 30
0.0
 11
0.1974999999999909
 21
0.6237069999999676
 31
0.0
  0
LINE
  5
17D1
330
1786
100
AcDbEntity
  8
BLOCKS
100
AcDbLine
 10
0.1673210000000154
 20
0.6437069999999494
 30
0.0
 11
0.1974999999999909
 21
0.6437069999999494
 31
0.0
  0
LINE
  5
17D2
330
1786
100
AcDbEntity
  8
BLOCKS
100
AcDbLine
 10
0.1824970000000121
 20
0.653707000000054
 30
0.0
 11
0.1974999999999909
 21
0.653707000000054
 31
0.0
  0
LINE
  5
17D3
330
1786
100
AcDbEntity
  8
BLOCKS
100
AcDbLine
 10
0.1673210000000154
 20
0.6337069999999585
 30
0.0
 11
0.1775000000000091
 21
0.6337069999999585
 31
0.0
  0
LINE
  5
17D4
330
1786
100
AcDbEntity
  8
BLOCKS
100
AcDbLine
 10
0.1825000000000045
 20
0.6287069999999631
 30
0.0
 11
0.1825000000000045
 21
0.6237069999999676
 31
0.0
  0
ARC
  5
17D5
330
1786
100
AcDbEntity
  8
BLOCKS
100
AcDbCircle
 10
0.1775000000000091
 20
0.6287069999999631
 30
0.0
 40
0.005
100
AcDbArc
 50
0.0
 51
90.0
  0
LINE
  5
17D6
330
1786
100
AcDbEntity
  8
BLOCKS
100
AcDbLine
 10
0.1700029999999515
 20
0.66389700000002
 30
0.0
 11
0.1734169999999722
 21
0.66389700000002
 31
0.0
  0
LINE
  5
17D7
330
1786
100
AcDbEntity
  8
BLOCKS
100
AcDbLine
 10
0.1825000000000045
 20
0.6237069999999676
 30
0.0
 11
0.25750000000005
 21
0.6237069999999676
 31
0.0
  0
LINE
  5
17D8
330
1786
100
AcDbEntity
  8
BLOCKS
100
AcDbLine
 10
0.1974999999999909
 20
0.6637070000000449
 30
0.0
 11
0.24249999999995
 21
0.6637070000000449
 31
0.0
  0
ARC
  5
17D9
330
1786
100
AcDbEntity
  8
BLOCKS
100
AcDbCircle
 10
0.0924999999999727
 20
0.6499999999999773
 30
0.0
 40
0.01
100
AcDbArc
 50
90.0
 51
180.0
  0
ARC
  5
17DA
330
1786
100
AcDbEntity
  8
BLOCKS
100
AcDbCircle
 10
0.0099999999999909
 20
0.6699999999999591
 30
0.0
 40
0.01
100
AcDbArc
 50
180.0
 51
270.0
  0
LINE
  5
17DB
330
1786
100
AcDbEntity
  8
BLOCKS
100
AcDbLine
 10
0.1288200000000188
 20
0.6599999999999682
 30
0.0
 11
0.0099999999999909
 21
0.6599999999999682
 31
0.0
  0
ARC
  5
17DC
330
1786
100
AcDbEntity
  8
BLOCKS
100
AcDbCircle
 10
0.1673210000000154
 20
0.6737070000000358
 30
0.0
 40
0.04
100
AcDbArc
 50
187.7666769999984
 51
270.0
  0
ARC
  5
17DD
330
1786
100
AcDbEntity
  8
BLOCKS
100
AcDbCircle
 10
0.1673210000000154
 20
0.6737070000000358
 30
0.0
 40
0.03
100
AcDbArc
 50
187.7666769999984
 51
270.0
  0
LINE
  5
17DE
330
1786
100
AcDbEntity
  8
BLOCKS
100
AcDbLine
 10
0.3415969999999788
 20
0.6636210000000347
 30
0.0
 11
0.2675000000000409
 21
0.6637070000000449
 31
0.0
  0
ARC
  5
17DF
330
1786
100
AcDbEntity
  8
BLOCKS
100
AcDbCircle
 10
0.8583469999999806
 20
0.3787290000000212
 30
0.0
 40
0.560607
100
AcDbArc
 50
150.763256000002
 51
174.3132689999971
  0
ARC
  5
17E0
330
1786
100
AcDbEntity
  8
BLOCKS
100
AcDbCircle
 10
0.8583469999999806
 20
0.3787290000000212
 30
0.0
 40
0.575607
100
AcDbArc
 50
157.9449200000029
 51
174.3132689999971
  0
ARC
  5
17E1
330
1786
100
AcDbEntity
  8
BLOCKS
100
AcDbCircle
 10
0.3078950000000304
 20
0.6491790000000038
 30
0.0
 40
0.01
100
AcDbArc
 50
102.3954719999971
 51
179.1413359999968
  0
ARC
  5
17E2
330
1786
100
AcDbEntity
  8
BLOCKS
100
AcDbCircle
 10
0.334145000000035
 20
0.6518539999999576
 30
0.0
 40
0.036739
100
AcDbArc
 50
198.8231930000018
 51
229.7914109999974
  0
ARC
  5
17E3
330
1786
100
AcDbEntity
  8
BLOCKS
100
AcDbCircle
 10
0.2608729999999468
 20
0.0249999999999773
 30
0.0
 40
0.01
100
AcDbArc
 50
270.0
 51
359.1325319999977
  0
LINE
  5
17E4
330
1786
100
AcDbEntity
  8
BLOCKS
100
AcDbLine
 10
0.2142179999999598
 20
0.0
 30
0.0
 11
0.2142179999999598
 21
0.0149999999999864
 31
0.0
  0
LINE
  5
17E5
330
1786
100
AcDbEntity
  8
BLOCKS
100
AcDbLine
 10
0.2608729999999468
 20
0.0149999999999864
 30
0.0
 11
0.2142179999999598
 21
0.0149999999999864
 31
0.0
  0
LINE
  5
17E6
330
1786
100
AcDbEntity
  8
BLOCKS
100
AcDbLine
 10
0.2855279999999993
 20
0.0
 30
0.0
 11
0.0824999999999818
 21
0.0
 31
0.0
  0
ARC
  5
17E7
330
1786
100
AcDbEntity
  8
BLOCKS
100
AcDbCircle
 10
10.25736500000005
 20
-0.1263599999999769
 30
0.0
 40
9.987636999999999
100
AcDbArc
 50
176.7772589999981
 51
179.1325319999978
  0
ARC
  5
17E8
330
1786
100
AcDbEntity
  8
BLOCKS
100
AcDbCircle
 10
10.25736500000005
 20
-0.1263599999999769
 30
0.0
 40
9.972637
100
AcDbArc
 50
176.7772589999981
 51
179.2740040000021
  0
LINE
  5
17E9
330
1786
100
AcDbEntity
  8
BLOCKS
100
AcDbLine
 10
0.0824999999999818
 20
0.0
 30
0.0
 11
0.0824999999999818
 21
0.6499999999999773
 31
0.0
  0
LINE
  5
17EA
330
1786
100
AcDbEntity
  8
BLOCKS
100
AcDbLine
 10
0.0
 20
0.6699999999999591
 30
0.0
 11
0.0
 21
0.8400000000000318
 31
0.0
  0
ARC
  5
17EB
330
1786
100
AcDbEntity
  8
BLOCKS
100
AcDbCircle
 10
0.1700029999999515
 20
0.6838970000000018
 30
0.0
 40
0.02
100
AcDbArc
 50
187.7666769999984
 51
270.0
  0
LINE
  5
17EC
330
1786
100
AcDbEntity
  8
BLOCKS
100
AcDbLine
 10
0.1064380000000256
 20
0.8241020000000389
 30
0.0
 11
0.1276880000000347
 21
0.6683010000000423
 31
0.0
  0
LINE
  5
17ED
330
1786
100
AcDbEntity
  8
BLOCKS
100
AcDbLine
 10
0.1163460000000214
 20
0.8254530000000386
 30
0.0
 11
0.1375960000000305
 21
0.6696530000000394
 31
0.0
  0
LINE
  5
17EE
330
1786
100
AcDbEntity
  8
BLOCKS
100
AcDbLine
 10
0.24249999999995
 20
0.6637070000000449
 30
0.0
 11
0.25750000000005
 21
0.6787070000000313
 31
0.0
  0
LINE
  5
17EF
330
1786
100
AcDbEntity
  8
BLOCKS
100
AcDbLine
 10
0.1974999999999909
 20
0.6637070000000449
 30
0.0
 11
0.1825000000000045
 21
0.6787070000000313
 31
0.0
  0
ARC
  5
17F0
330
1786
100
AcDbEntity
  8
BLOCKS
100
AcDbCircle
 10
-0.1870350000000371
 20
1.338085999999975
 30
0.0
 40
0.8759529999999999
100
AcDbArc
 50
309.903773000002
 51
313.6764410000034
  0
ARC
  5
17F1
330
1786
100
AcDbEntity
  8
BLOCKS
100
AcDbCircle
 10
0.2519449999999779
 20
0.9961200000000189
 30
0.0
 40
0.318045
100
AcDbArc
 50
273.6147540000002
 51
306.060287000001
  0
ENDBLK
  5
17F3
330
1786
100
AcDbEntity
  8
0
100
AcDbBlockEnd
  0
ENDSEC
  0
SECTION
  2
ENTITIES
  0
LINE
  5
1071
330
1F
100
AcDbEntity
  8
SANINDUSA
100
AcDbLine
 10
777.9764060166208
 20
1029.882354448265
 30
0.0
 11
777.8724998029733
 21
1029.826348943243
 31
0.0
  0
LWPOLYLINE
  5
1073
330
1F
100
AcDbEntity
  8
SANINDUSA
100
AcDbPolyline
 90
       13
 70
   128
 43
0.0
 10
777.8869322447182
 20
1029.829985181176
 10
777.893084844255
 20
1029.830751797121
 10
777.8999611288785
 20
1029.832028238581
 10
777.9077447268738
 20
1029.833864552678
 10
777.916175931041
 20
1029.836210309278
 10
777.9249181311964
 20
1029.83895517872
 10
777.9341407178135
 20
1029.84213372944
 10
777.9440378975833
 20
1029.845819300649
 10
777.954296094048
 20
1029.849897697728
 10
777.9654010675198
 20
1029.854574423552
 10
777.9767444725936
 20
1029.859601093329
 10
777.9885202261334
 20
1029.865061004147
 10
778.0003962705626
 20
1029.870794823421
  0
LWPOLYLINE
  5
1075
330
1F
100
AcDbEntity
  8
SANINDUSA
100
AcDbPolyline
 90
       19
 70
   128
 43
0.0
 10
777.8714513497101
 20
1029.923156633804
 10
777.880213090782
 20
1029.920285119936
 10
777.8882649444232
 20
1029.917749853125
 10
777.89559871752
 20
1029.915528953842
 10
777.9022059992671
 20
1029.913599422046
 10
777.9083648452618
 20
1029.911859595192
 10
777.9137057176498
 20
1029.910398402735
 10
777.9182236854393
 20
1029.909198319592
 10
777.9219154959762
 20
1029.908241541228
 10
777.9240669882275
 20
1029.90769303202
 10
777.9263363352847
 20
1029.907122201961
 10
777.928617737263
 20
1029.906556327833
 10
777.9309112052446
 20
1029.905995527212
 10
777.9332167503113
 20
1029.905439917677
 10
777.9355343835451
 20
1029.904889616803
 10
777.937864116028
 20
1029.904344742167
 10
777.9508944139887
 20
1029.901450179877
 10
777.9628384476902
 20
1029.899023253727
 10
777.9750783068378
 20
1029.896760612601
  0
LWPOLYLINE
  5
1083
330
1F
100
AcDbEntity
  8
SANINDUSA
100
AcDbPolyline
 90
       36
 70
   128
 43
0.0
 10
777.8310285581426
 20
1029.690539768858
 10
777.8341277777365
 20
1029.683468015073
 10
777.8381172285017
 20
1029.675146332396
 10
777.842403065205
 20
1029.66693238385
 10
777.8469737918899
 20
1029.658851933337
 10
777.8518237283241
 20
1029.650916817291
 10
777.8569465542001
 20
1029.643138931517
 10
777.8623353310671
 20
1029.635530127958
 10
777.8679825224363
 20
1029.628102134056
 10
777.8738800242019
 20
1029.620866472043
 10
777.8800185155906
 20
1029.613835143108
 10
777.8863887184085
 20
1029.607019049962
 10
777.8929810450985
 20
1029.600428532631
 10
777.8997855790841
 20
1029.594073419453
 10
777.9067921467127
 20
1029.587962976623
 10
777.9139857146641
 20
1029.582108535221
 10
777.9213598371503
 20
1029.576507968601
 10
777.9289579526617
 20
1029.571132071012
 10
777.936718566975
 20
1029.566028125988
 10
777.9446456808616
 20
1029.561192812624
 10
777.9527414100003
 20
1029.556624644798
 10
777.9610079527839
 20
1029.552322501422
 10
777.9694486635032
 20
1029.548285720391
 10
777.977993869109
 20
1029.544550764953
 10
777.9866342664312
 20
1029.541117767081
 10
777.9954075112955
 20
1029.537970109507
 10
778.0042944616807
 20
1029.535116000564
 10
778.0132747077587
 20
1029.532562939926
 10
778.0223248762796
 20
1029.530317960676
 10
778.03142736015
 20
1029.528385650643
 10
778.0405726006037
 20
1029.526768635158
 10
778.0497817920474
 20
1029.525459462007
 10
778.0590844666013
 20
1029.52445426246
 10
778.0684436884394
 20
1029.523759861117
 10
778.0778193752774
 20
1029.523381045974
 10
778.0841486616273
 20
1029.523339751498
  0
LWPOLYLINE
  5
1084
330
1F
100
AcDbEntity
  8
SANINDUSA
100
AcDbPolyline
 90
       46
 70
   128
 43
0.0
 10
777.8807571407432
 20
1029.819381620043
 10
777.8789293391063
 20
1029.807364490007
 10
777.8777737421517
 20
1029.795016985709
 10
777.8773382123313
 20
1029.782375343194
 10
777.877677202388
 20
1029.769346273237
 10
777.8788457979897
 20
1029.756108016457
 10
777.8792267481141
 20
1029.753112849914
 10
777.8796522479882
 20
1029.750110522937
 10
777.880122776084
 20
1029.747101708906
 10
777.8806388029695
 20
1029.744087096497
 10
777.8812007909207
 20
1029.741067389705
 10
777.881809193528
 20
1029.738043307856
 10
777.8824644552977
 20
1029.735015585605
 10
777.8845137054883
 20
1029.72666675643
 10
777.8871551751466
 20
1029.717595829922
 10
777.890495657816
 20
1029.707851840931
 10
777.8946477828289
 20
1029.697497507168
 10
777.8974296540594
 20
1029.691336217424
 10
777.9005367814542
 20
1029.685018157211
 10
777.9039913724944
 20
1029.678562578069
 10
777.9078155229833
 20
1029.671990890408
 10
777.9120310265032
 20
1029.665326778047
 10
777.9166591645193
 20
1029.658596303861
 10
777.9217204766068
 20
1029.651828004166
 10
777.9297122029336
 20
1029.642192016305
 10
777.9377753079468
 20
1029.633552562057
 10
777.9457945291272
 20
1029.625857484322
 10
777.9536672401623
 20
1029.619048811972
 10
777.9613029540995
 20
1029.613064841613
 10
777.9681459314047
 20
1029.608167779078
 10
777.9746577024759
 20
1029.60388178349
 10
777.9807899380086
 20
1029.600155699741
 10
777.9882339185227
 20
1029.59601103461
 10
777.9891500965428
 20
1029.595528415192
 10
777.9900521716336
 20
1029.595058968997
 10
777.9909399929687
 20
1029.594602469223
 10
777.9918134143279
 20
1029.594158692085
 10
777.9926722940034
 20
1029.593727416885
 10
777.9935164947085
 20
1029.593308426084
 10
778.0050525726002
 20
1029.588051635701
 10
778.016639049727
 20
1029.583603406895
 10
778.0282151245325
 20
1029.579935801774
 10
778.0397248032686
 20
1029.57701729355
 10
778.0548800589193
 20
1029.574231171172
 10
778.0697190282666
 20
1029.572626753069
 10
778.0841488062119
 20
1029.572110122899
  0
LINE
  5
1086
330
1F
100
AcDbEntity
  8
SANINDUSA
100
AcDbLine
 10
777.8731411176975
 20
1030.027961231817
 30
0.0
 11
778.2951564947262
 21
1030.027961231817
 31
0.0
  0
ARC
  5
108C
330
1F
100
AcDbEntity
  8
SANINDUSA
100
AcDbCircle
 10
778.0841488062118
 20
1029.797961231817
 30
0.0
 40
0.2750000000000052
100
AcDbArc
 50
344.8455342926095
 51
358.4470585740907
  0
LWPOLYLINE
  5
108E
330
1F
100
AcDbEntity
  8
SANINDUSA
100
AcDbPolyline
 90
       46
 70
   128
 43
0.0
 10
778.2875404716805
 20
1029.819381620043
 10
778.2893682733175
 20
1029.807364490007
 10
778.2905238702721
 20
1029.795016985709
 10
778.2909594000925
 20
1029.782375343194
 10
778.2906204100357
 20
1029.769346273237
 10
778.2894518144342
 20
1029.756108016457
 10
778.2890708643098
 20
1029.753112849914
 10
778.2886453644356
 20
1029.750110522937
 10
778.2881748363398
 20
1029.747101708906
 10
778.2876588094543
 20
1029.744087096497
 10
778.2870968215031
 20
1029.741067389705
 10
778.2864884188958
 20
1029.738043307856
 10
778.2858331571262
 20
1029.735015585605
 10
778.2837839069356
 20
1029.72666675643
 10
778.2811424372773
 20
1029.717595829922
 10
778.2778019546078
 20
1029.707851840931
 10
778.273649829595
 20
1029.697497507168
 10
778.2708679583643
 20
1029.691336217424
 10
778.2677608309695
 20
1029.685018157211
 10
778.2643062399293
 20
1029.678562578069
 10
778.2604820894405
 20
1029.671990890408
 10
778.2562665859205
 20
1029.665326778047
 10
778.2516384479046
 20
1029.658596303861
 10
778.2465771358171
 20
1029.651828004166
 10
778.2385854094902
 20
1029.642192016305
 10
778.2305223044771
 20
1029.633552562057
 10
778.2225030832965
 20
1029.625857484322
 10
778.2146303722615
 20
1029.619048811972
 10
778.2069946583243
 20
1029.613064841613
 10
778.2001516810192
 20
1029.608167779078
 10
778.1936399099479
 20
1029.60388178349
 10
778.187507674415
 20
1029.600155699741
 10
778.1800636939011
 20
1029.59601103461
 10
778.1791475158809
 20
1029.595528415192
 10
778.1782454407902
 20
1029.595058968997
 10
778.1773576194551
 20
1029.594602469223
 10
778.1764841980959
 20
1029.594158692085
 10
778.1756253184204
 20
1029.593727416885
 10
778.1747811177154
 20
1029.593308426084
 10
778.1632450398237
 20
1029.588051635701
 10
778.1516585626968
 20
1029.583603406895
 10
778.1400824878914
 20
1029.579935801774
 10
778.1285728091552
 20
1029.57701729355
 10
778.1134175535044
 20
1029.574231171172
 10
778.0985785841573
 20
1029.572626753069
 10
778.0841488062119
 20
1029.572110122899
  0
ARC
  5
1091
330
1F
100
AcDbEntity
  8
SANINDUSA
100
AcDbCircle
 10
778.0841488062119
 20
1029.797961231817
 30
0.0
 40
0.0390572382686042
100
AcDbArc
 50
226.5379665957615
 51
313.4620334042385
  0
LWPOLYLINE
  5
1093
330
1F
100
AcDbEntity
  8
SANINDUSA
100
AcDbPolyline
 90
       37
 70
   128
 43
0.0
 10
778.0841487494413
 20
1029.523342929723
 10
778.0878524653529
 20
1029.523331861443
 10
778.0971586935852
 20
1029.523618497965
 10
778.1064993973043
 20
1029.524220335694
 10
778.1158370337999
 20
1029.525137584589
 10
778.1251295099186
 20
1029.526367642616
 10
778.1343340561778
 20
1029.527904998007
 10
778.1434179966839
 20
1029.529742865912
 10
778.1524308684623
 20
1029.531886643134
 10
778.1614260305209
 20
1029.534349705582
 10
778.1703524079364
 20
1029.53712129299
 10
778.179189138487
 20
1029.540196175993
 10
778.1879138483835
 20
1029.543567338498
 10
778.196505140054
 20
1029.547226700299
 10
778.204941351637
 20
1029.551164114505
 10
778.2132091255278
 20
1029.555366906919
 10
778.2213643789877
 20
1029.559865131173
 10
778.2293421344883
 20
1029.564626025896
 10
778.2371472044854
 20
1029.569651628892
 10
778.2447830432772
 20
1029.574943882522
 10
778.2522505177174
 20
1029.580503428766
 10
778.2595528545199
 20
1029.58633347678
 10
778.2666352713041
 20
1029.592395154835
 10
778.2734654163394
 20
1029.598656407418
 10
778.2800938017815
 20
1029.605159454895
 10
778.2865100910647
 20
1029.611895473291
 10
778.2927042203305
 20
1029.618855126468
 10
778.2986663773043
 20
1029.626028519242
 10
778.3043870733786
 20
1029.633405245236
 10
778.3098572116044
 20
1029.640974443857
 10
778.3150676201644
 20
1029.648724049146
 10
778.3200101663237
 20
1029.656642303119
 10
778.3246774009012
 20
1029.664717389902
 10
778.329062477207
 20
1029.672937364642
 10
778.3331591737395
 20
1029.681290235473
 10
778.3369619575738
 20
1029.689764203951
 10
778.3373457536844
 20
1029.690704424513
  0
LWPOLYLINE
  5
1094
330
1F
100
AcDbEntity
  8
SANINDUSA
100
AcDbPolyline
 90
        5
 70
   128
 43
0.0
 10
778.3373457536844
 20
1029.690704424513
 10
778.3396189210901
 20
1029.696224406296
 10
778.3452059745656
 20
1029.711519668124
 10
778.3487748437745
 20
1029.723141580263
 10
778.3495855595415
 20
1029.726070133746
  0
LINE
  5
1096
330
1F
100
AcDbEntity
  8
SANINDUSA
100
AcDbLine
 10
778.1932196319778
 20
1029.896758758122
 30
0.0
 11
778.1721252734191
 21
1029.893383154361
 31
0.0
  0
ARC
  5
1098
330
1F
100
AcDbEntity
  8
SANINDUSA
100
AcDbCircle
 10
778.1603674127815
 20
1029.844900614216
 30
0.0
 40
0.0481437795394969
100
AcDbArc
 50
60.95263173657261
 51
82.43098479168745
  0
LWPOLYLINE
  5
109B
330
1F
100
AcDbEntity
  8
SANINDUSA
100
AcDbPolyline
 90
       13
 70
   128
 43
0.0
 10
778.2813653677057
 20
1029.829985181176
 10
778.2752127681687
 20
1029.830751797121
 10
778.2683364835453
 20
1029.832028238581
 10
778.26055288555
 20
1029.833864552678
 10
778.2521216813828
 20
1029.836210309278
 10
778.2433794812273
 20
1029.83895517872
 10
778.2341568946102
 20
1029.84213372944
 10
778.2242597148406
 20
1029.845819300649
 10
778.2140015183759
 20
1029.849897697728
 10
778.2028965449041
 20
1029.854574423552
 10
778.1915531398302
 20
1029.859601093329
 10
778.1797773862905
 20
1029.865061004147
 10
778.1679013418612
 20
1029.870794823421
  0
LWPOLYLINE
  5
109C
330
1F
100
AcDbEntity
  8
SANINDUSA
100
AcDbPolyline
 90
        4
 70
   128
 43
0.0
 10
778.2992968211906
 20
1029.931695249586
 10
778.2992583270706
 20
1029.956810019648
 10
778.299219997242
 20
1029.981941986158
 10
778.2991818448159
 20
1030.007082552362
  0
LWPOLYLINE
  5
10A3
330
1F
100
AcDbEntity
  8
SANINDUSA
100
AcDbPolyline
 90
       19
 70
   128
 43
0.0
 10
778.2968462627137
 20
1029.923156633804
 10
778.2880845216417
 20
1029.920285119936
 10
778.2800326680006
 20
1029.917749853125
 10
778.2726988949037
 20
1029.915528953842
 10
778.2660916131567
 20
1029.913599422046
 10
778.2599327671619
 20
1029.911859595192
 10
778.254591894774
 20
1029.910398402735
 10
778.2500739269844
 20
1029.909198319592
 10
778.2463821164476
 20
1029.908241541228
 10
778.2442306241963
 20
1029.90769303202
 10
778.2419612771391
 20
1029.907122201961
 10
778.2396798751607
 20
1029.906556327833
 10
778.2373864071792
 20
1029.905995527212
 10
778.2350808621125
 20
1029.905439917677
 10
778.2327632288786
 20
1029.904889616803
 10
778.2304334963956
 20
1029.904344742167
 10
778.2174031984351
 20
1029.901450179877
 10
778.2054591647336
 20
1029.899023253727
 10
778.1932193055859
 20
1029.896760612601
  0
LWPOLYLINE
  5
10A5
330
1F
100
AcDbEntity
  8
SANINDUSA
100
AcDbPolyline
 90
        4
 70
   128
 43
0.0
 10
778.32235648727
 20
1029.815218844314
 10
778.3117848899994
 20
1029.819761009096
 10
778.303715738988
 20
1029.822984406483
 10
778.2957978094506
 20
1029.826348943243
  0
LINE
  5
10A6
330
1F
100
AcDbEntity
  8
SANINDUSA
100
AcDbLine
 10
778.3540946179552
 20
1029.808490790685
 30
0.0
 11
778.3032377107226
 21
1029.914442680753
 31
0.0
  0
LINE
  5
10A8
330
1F
100
AcDbEntity
  8
SANINDUSA
100
AcDbLine
 10
778.3561045120519
 20
1029.804303511317
 30
0.0
 11
778.3555758689693
 21
1029.805404851073
 31
0.0
  0
LWPOLYLINE
  5
10AA
330
1F
100
AcDbEntity
  8
SANINDUSA
100
AcDbPolyline
 90
        3
 70
   128
 43
0.0
 10
778.3590478016483
 20
1029.790508560613
 10
778.3589463683234
 20
1029.793916665959
 10
778.3584498273673
 20
1029.797335621625
  0
LWPOLYLINE
  5
10AB
330
1F
100
AcDbEntity
  8
SANINDUSA
100
AcDbPolyline
 90
        4
 70
   128
 43
0.0
 10
778.3584498273673
 20
1029.797335621625
 10
778.3581080078589
 20
1029.798814556254
 10
778.3572436659039
 20
1029.801598469863
 10
778.3561045120519
 20
1029.804303511317
  0
LWPOLYLINE
  5
10AC
330
1F
100
AcDbEntity
  8
SANINDUSA
100
AcDbPolyline
 90
        4
 70
   128
 43
0.0
 10
778.3517916337934
 20
1029.802586570249
 10
778.3446697832712
 20
1029.805367916892
 10
778.3334624671026
 20
1029.810168251845
 10
778.3223564835321
 20
1029.815218835425
  0
LINE
  5
10AE
330
1F
100
AcDbEntity
  8
SANINDUSA
100
AcDbLine
 10
778.3555758689693
 20
1029.805404851073
 30
0.0
 11
778.3540946179552
 21
1029.808490790685
 31
0.0
  0
LWPOLYLINE
  5
10AF
330
1F
100
AcDbEntity
  8
SANINDUSA
100
AcDbPolyline
 90
        9
 70
   128
 43
0.0
 10
778.3555758689693
 20
1029.805404851073
 10
778.355584469334
 20
1029.805159919694
 10
778.3554154628983
 20
1029.804843717971
 10
778.3550783368133
 20
1029.804473995843
 10
778.3545920156018
 20
1029.804071507604
 10
778.3539837988326
 20
1029.803658846874
 10
778.3532878286639
 20
1029.8032591783
 10
778.3525431732777
 20
1029.802894937219
 10
778.3517916337934
 20
1029.802586570249
  0
LWPOLYLINE
  5
10B7
330
1F
100
AcDbEntity
  8
SANINDUSA
100
AcDbPolyline
 90
        4
 70
   128
 43
0.0
 10
778.3032377107226
 20
1029.914442680753
 10
778.3024840509003
 20
1029.916109446214
 10
778.3018073667371
 20
1029.917808925306
 10
778.3012090731623
 20
1029.919537564462
  0
LWPOLYLINE
  5
10B8
330
1F
100
AcDbEntity
  8
SANINDUSA
100
AcDbPolyline
 90
        4
 70
   128
 43
0.0
 10
778.2997610256598
 20
1029.925681838353
 10
778.2997057095477
 20
1029.92605305638
 10
778.2995338415068
 20
1029.927408710667
 10
778.2993981531612
 20
1029.928910601825
  0
LWPOLYLINE
  5
10BB
330
1F
100
AcDbEntity
  8
SANINDUSA
100
AcDbPolyline
 90
        4
 70
   128
 43
0.0
 10
778.3012090731623
 20
1029.919537564462
 10
778.3006368042232
 20
1029.921491540299
 10
778.300027626651
 20
1029.924147501991
 10
778.2997610310056
 20
1029.925681803469
  0
LWPOLYLINE
  5
10BD
330
1F
100
AcDbEntity
  8
SANINDUSA
100
AcDbPolyline
 90
        5
 70
   128
 43
0.0
 10
778.2997610307313
 20
1029.925681805252
 10
778.299633995423
 20
1029.924898269097
 10
778.2990418879699
 20
1029.924149929416
 10
778.2980673435278
 20
1029.923541228002
 10
778.2968463701969
 20
1029.923157118309
  0
LINE
  5
10BE
330
1F
100
AcDbEntity
  8
SANINDUSA
100
AcDbLine
 10
778.2993981531457
 20
1029.928910602063
 30
0.0
 11
778.2992968211906
 21
1029.931695249586
 31
0.0
  0
LWPOLYLINE
  5
10BF
330
1F
100
AcDbEntity
  8
SANINDUSA
100
AcDbPolyline
 90
        3
 70
   128
 43
0.0
 10
778.1837427838998
 20
1029.886988801792
 10
778.1863841560457
 20
1029.885428407793
 10
778.1891032692811
 20
1029.883883376141
  0
LINE
  5
10C1
330
1F
100
AcDbEntity
  8
SANINDUSA
100
AcDbLine
 10
778.191891595803
 20
1029.882354448265
 30
0.0
 11
778.2957978094505
 21
1029.826348943243
 31
0.0
  0
LWPOLYLINE
  5
10C2
330
1F
100
AcDbEntity
  8
SANINDUSA
100
AcDbPolyline
 90
        5
 70
   128
 43
0.0
 10
778.2875386130415
 20
1029.819381516398
 10
778.2868310285849
 20
1029.822575831193
 10
778.285519177029
 20
1029.825499727975
 10
778.2836671357479
 20
1029.82801038904
 10
778.2813653676761
 20
1029.829985181178
  0
LWPOLYLINE
  5
10C3
330
1F
100
AcDbEntity
  8
SANINDUSA
100
AcDbPolyline
 90
        6
 70
   128
 43
0.0
 10
778.2957978094506
 20
1029.826348943243
 10
778.2949200453908
 20
1029.826649388317
 10
778.2901056231903
 20
1029.828163698302
 10
778.2857173559849
 20
1029.829284158846
 10
778.2834232623172
 20
1029.829722884656
 10
778.2813653674361
 20
1029.829985181357
  0
LINE
  5
10C4
330
1F
100
AcDbEntity
  8
SANINDUSA
100
AcDbLine
 10
778.1891032785668
 20
1029.883883383457
 30
0.0
 11
778.1918915958053
 21
1029.882354448268
 31
0.0
  0
ARC
  5
10CD
330
1F
100
AcDbEntity
  8
SANINDUSA
100
AcDbCircle
 10
778.2951563924219
 20
1030.023961334711
 30
0.0
 40
0.0039998971078741
100
AcDbArc
 50
0.0852612839187383
 51
90.0
  0
LINE
  5
10CE
330
1F
100
AcDbEntity
  8
SANINDUSA
100
AcDbLine
 10
778.2991818448159
 20
1030.007082552362
 30
0.0
 11
778.2991562862465
 21
1030.023966530029
 31
0.0
  0
LWPOLYLINE
  5
10D5
330
1F
100
AcDbEntity
  8
SANINDUSA
100
AcDbPolyline
 90
        6
 70
   128
 43
0.0
 10
778.0015886848815
 20
1029.892624913047
 10
778.0160043454128
 20
1029.89083546573
 10
778.0329633693741
 20
1029.889151273765
 10
778.049973764739
 20
1029.887913882425
 10
778.0670474985718
 20
1029.88712278288
 10
778.0841488062119
 20
1029.886780264112
  0
LWPOLYLINE
  5
10D7
330
1F
100
AcDbEntity
  8
SANINDUSA
100
AcDbPolyline
 90
       13
 70
   128
 43
0.0
 10
778.0175784441988
 20
1029.873955070298
 10
778.0285500729542
 20
1029.872528025178
 10
778.0397608555412
 20
1029.871359344936
 10
778.0511326595226
 20
1029.870455543881
 10
778.0625873524611
 20
1029.869823136319
 10
778.0733556078318
 20
1029.869476347933
 10
778.0841488062119
 20
1029.869361153411
 10
778.0962363612939
 20
1029.86950677335
 10
778.1083090298579
 20
1029.869944331761
 10
778.1202986018805
 20
1029.870674876538
 10
778.1321368673383
 20
1029.871699455575
 10
778.1415080091051
 20
1029.872735628445
 10
778.150719168225
 20
1029.873955070298
  0
LWPOLYLINE
  5
10DB
330
1F
100
AcDbEntity
  8
SANINDUSA
100
AcDbPolyline
 90
       30
 70
   128
 43
0.0
 10
778.0572823568296
 20
1029.769612303112
 10
778.052891909278
 20
1029.774700988851
 10
778.0494066903713
 20
1029.78044790162
 10
778.0469409697759
 20
1029.786673099546
 10
778.0455342428543
 20
1029.79321886343
 10
778.0452430373244
 20
1029.799925623763
 10
778.0460696494213
 20
1029.806586865455
 10
778.0479995369547
 20
1029.812982539593
 10
778.0509698510652
 20
1029.818965894814
 10
778.0548762202024
 20
1029.824311496803
 10
778.0596216032454
 20
1029.828928540305
 10
778.065024056954
 20
1029.832634944406
 10
778.0709698386773
 20
1029.835387276601
 10
778.07745879768
 20
1029.83711768022
 10
778.0841488062119
 20
1029.837706565139
 10
778.0903547229181
 20
1029.837200910906
 10
778.0964001225155
 20
1029.835710774212
 10
778.1016931183992
 20
1029.833488685421
 10
778.1066023128761
 20
1029.830513743463
 10
778.1115464949747
 20
1029.826324129183
 10
778.1157360399252
 20
1029.821380058099
 10
778.1190748113012
 20
1029.815758765015
 10
778.1214474496248
 20
1029.809666078897
 10
778.1227902759739
 20
1029.803188721355
 10
778.1230521010513
 20
1029.796578137353
 10
778.1221989466717
 20
1029.789937340817
 10
778.1202626580956
 20
1029.78352740311
 10
778.1172476406958
 20
1029.777470651284
 10
778.1132654590211
 20
1029.772001038758
 10
778.1110152555942
 20
1029.769612303112
  0
CIRCLE
  5
10DC
330
1F
100
AcDbEntity
  8
SANINDUSA
100
AcDbCircle
 10
778.0841488062119
 20
1029.797961231817
 30
0.0
 40
0.0235
  0
LWPOLYLINE
  5
10E3
330
1F
100
AcDbEntity
  8
SANINDUSA
100
AcDbPolyline
 90
        5
 70
   128
 43
0.0
 10
778.1679013418612
 20
1029.870794823421
 10
778.1640757188039
 20
1029.872451056996
 10
778.1599720415313
 20
1029.873567458736
 10
778.1554124641205
 20
1029.874109772228
 10
778.150719168225
 20
1029.873955070298
  0
LWPOLYLINE
  5
10E6
330
1F
100
AcDbEntity
  8
SANINDUSA
100
AcDbPolyline
 90
       37
 70
   128
 43
0.0
 10
778.0841488062119
 20
1029.879579162456
 10
778.0797910497715
 20
1029.879686930296
 10
778.0775582181507
 20
1029.879833066526
 10
778.075508777651
 20
1029.88003356865
 10
778.0736896807719
 20
1029.880283456474
 10
778.0721617609623
 20
1029.880571673932
 10
778.0709024174615
 20
1029.880910777272
 10
778.0700583892753
 20
1029.881269428635
 10
778.0696689764675
 20
1029.881619561251
 10
778.0696949380663
 20
1029.881965494724
 10
778.0701421108424
 20
1029.882297245202
 10
778.0709930774134
 20
1029.882606328381
 10
778.0722261095406
 20
1029.882883972089
 10
778.0738036959946
 20
1029.883125441996
 10
778.0756710841607
 20
1029.88332391177
 10
778.0777818361761
 20
1029.883478217163
 10
778.0800611056512
 20
1029.883584521244
 10
778.0824565938218
 20
1029.883643060883
 10
778.0841488062119
 20
1029.883654846662
 10
778.0872995914254
 20
1029.883613573124
 10
778.08962608092
 20
1029.883526129798
 10
778.0917978500689
 20
1029.88339207172
 10
778.0937498255623
 20
1029.8832131195
 10
778.0954325683081
 20
1029.882992897537
 10
778.096800322381
 20
1029.882733978436
 10
778.0978135054952
 20
1029.882443071872
 10
778.0984432913116
 20
1029.882123810492
 10
778.0986693989579
 20
1029.881786690379
 10
778.0984778156598
 20
1029.881437932077
 10
778.0978767550866
 20
1029.881090365226
 10
778.0968732536036
 20
1029.880753751925
 10
778.0955017368662
 20
1029.880440447316
 10
778.093801741174
 20
1029.88016286926
 10
778.0918210574748
 20
1029.879929740023
 10
778.0892903146389
 20
1029.879730444757
 10
778.0867627727327
 20
1029.879617797213
 10
778.0841488062119
 20
1029.879579162456
  0
LWPOLYLINE
  5
10E7
330
1F
100
AcDbEntity
  8
SANINDUSA
100
AcDbPolyline
 90
        6
 70
   128
 43
0.0
 10
778.1667089275424
 20
1029.892624913047
 10
778.152293267011
 20
1029.89083546573
 10
778.1353342430496
 20
1029.889151273765
 10
778.1183238476849
 20
1029.887913882425
 10
778.101250113852
 20
1029.88712278288
 10
778.0841488062119
 20
1029.886780264112
  0
LINE
  5
10E9
330
1F
100
AcDbEntity
  8
SANINDUSA
100
AcDbLine
 10
778.1721252734191
 20
1029.893383154361
 30
0.0
 11
778.1667089275424
 21
1029.892624913047
 31
0.0
  0
LWPOLYLINE
  5
10EE
330
1F
100
AcDbEntity
  8
SANINDUSA
100
AcDbPolyline
 90
       38
 70
   128
 43
0.0
 10
778.0841488062119
 20
1029.975461231817
 10
778.0823398648714
 20
1029.975367487337
 10
778.079444037325
 20
1029.974815115951
 10
778.0766808739801
 20
1029.973787791399
 10
778.0741304618545
 20
1029.972307693852
 10
778.0718626722557
 20
1029.970423210489
 10
778.0699453771721
 20
1029.968181346103
 10
778.0684290166678
 20
1029.965651369442
 10
778.0673621615991
 20
1029.962900537777
 10
778.0667692212899
 20
1029.960010628787
 10
778.0666736677371
 20
1029.957062397548
 10
778.0670711521835
 20
1029.954139748743
 10
778.0679624981766
 20
1029.951313621979
 10
778.0693147994041
 20
1029.948676715566
 10
778.0710836777366
 20
1029.946321168739
 10
778.0732205234195
 20
1029.944292924124
 10
778.0756674642868
 20
1029.942655827929
 10
778.0783532419737
 20
1029.941448768792
 10
778.0812094505421
 20
1029.940711650327
 10
778.0841488062119
 20
1029.940461231817
 10
778.0870783885793
 20
1029.940709963791
 10
778.0899256506183
 20
1029.941442210396
 10
778.0926158292787
 20
1029.942647911492
 10
778.0950670170348
 20
1029.944284877317
 10
778.0976776991541
 20
1029.946860823908
 10
778.0993488395517
 20
1029.949292474825
 10
778.100590793251
 20
1029.951968647883
 10
778.1013618684005
 20
1029.954814970958
 10
778.1016475330531
 20
1029.957750141939
 10
778.1014329809959
 20
1029.960689921106
 10
778.1007313462102
 20
1029.963553133748
 10
778.099556217302
 20
1029.966255811452
 10
778.0979469280674
 20
1029.968725145291
 10
778.0959435556134
 20
1029.970886872712
 10
778.093607738168
 20
1029.972684635169
 10
778.0910015209376
 20
1029.974061808738
 10
778.0882021020063
 20
1029.974985355678
 10
778.0841488062119
 20
1029.975461231817
  0
LINE
  5
10F0
330
1F
100
AcDbEntity
  8
SANINDUSA
100
AcDbLine
 10
777.984554828524
 20
1029.886988801792
 30
0.0
 11
777.9791943431427
 21
1029.883883376141
 31
0.0
  0
LWPOLYLINE
  5
10F4
330
1F
100
AcDbEntity
  8
SANINDUSA
100
AcDbPolyline
 90
        5
 70
   128
 43
0.0
 10
778.0003962705626
 20
1029.870794823421
 10
778.0042218936199
 20
1029.872451056996
 10
778.0083255708925
 20
1029.873567458736
 10
778.0128851483033
 20
1029.874109772228
 10
778.0175784441988
 20
1029.873955070298
  0
LINE
  5
10F8
330
1F
100
AcDbEntity
  8
SANINDUSA
100
AcDbLine
 10
777.979194333857
 20
1029.883883383457
 30
0.0
 11
777.9764060166184
 21
1029.882354448268
 31
0.0
  0
LINE
  5
10FC
330
1F
100
AcDbEntity
  8
SANINDUSA
100
AcDbLine
 10
777.9961723390045
 20
1029.893383154361
 30
0.0
 11
778.0015886848814
 21
1029.892624913047
 31
0.0
  0
ARC
  5
1103
330
1F
100
AcDbEntity
  8
SANINDUSA
100
AcDbCircle
 10
778.008039022016
 20
1029.844571723497
 30
0.0
 40
0.0484841816996402
100
AcDbArc
 50
97.64529973009789
 51
118.9710837414335
  0
LINE
  5
1106
330
1F
100
AcDbEntity
  8
SANINDUSA
100
AcDbLine
 10
777.975077980446
 20
1029.896758758122
 30
0.0
 11
777.9961723390045
 21
1029.893383154361
 31
0.0
  0
ARC
  5
1107
330
1F
100
AcDbEntity
  8
SANINDUSA
100
AcDbCircle
 10
778.0841488062118
 20
1029.797961231817
 30
0.0
 40
0.2749999999999921
100
AcDbArc
 50
181.5529414259092
 51
195.1544657073905
  0
LWPOLYLINE
  5
1109
330
1F
100
AcDbEntity
  8
SANINDUSA
100
AcDbPolyline
 90
        5
 70
   128
 43
0.0
 10
777.8310285581426
 20
1029.690539768858
 10
777.8286786913337
 20
1029.696224406296
 10
777.8230916378581
 20
1029.711519668124
 10
777.8195227686493
 20
1029.723141580263
 10
777.8187120528823
 20
1029.726070133746
  0
LWPOLYLINE
  5
110B
330
1F
100
AcDbEntity
  8
SANINDUSA
100
AcDbPolyline
 90
        4
 70
   128
 43
0.0
 10
777.8690007912332
 20
1029.931695249586
 10
777.8690392853531
 20
1029.956810019648
 10
777.8690776151818
 20
1029.981941986158
 10
777.8691157676079
 20
1030.007082552362
  0
LWPOLYLINE
  5
110C
330
1F
100
AcDbEntity
  8
SANINDUSA
100
AcDbPolyline
 90
        4
 70
   128
 43
0.0
 10
777.8165059786305
 20
1029.802586570249
 10
777.8236278291526
 20
1029.805367916892
 10
777.8348351453212
 20
1029.810168251845
 10
777.8459411288918
 20
1029.815218835425
  0
LINE
  5
110E
330
1F
100
AcDbEntity
  8
SANINDUSA
100
AcDbLine
 10
777.8142029944684
 20
1029.808490790685
 30
0.0
 11
777.865059901701
 21
1029.914442680753
 31
0.0
  0
LWPOLYLINE
  5
1110
330
1F
100
AcDbEntity
  8
SANINDUSA
100
AcDbPolyline
 90
        6
 70
   128
 43
0.0
 10
777.8724998029733
 20
1029.826348943243
 10
777.873377567033
 20
1029.826649388317
 10
777.8781919892335
 20
1029.828163698302
 10
777.8825802564389
 20
1029.829284158846
 10
777.8848743501066
 20
1029.829722884656
 10
777.8869322449877
 20
1029.829985181357
  0
LWPOLYLINE
  5
1111
330
1F
100
AcDbEntity
  8
SANINDUSA
100
AcDbPolyline
 90
        5
 70
   128
 43
0.0
 10
777.8807589993824
 20
1029.819381516398
 10
777.8814665838389
 20
1029.822575831193
 10
777.8827784353948
 20
1029.825499727975
 10
777.8846304766759
 20
1029.82801038904
 10
777.8869322447477
 20
1029.829985181178
  0
LWPOLYLINE
  5
1112
330
1F
100
AcDbEntity
  8
SANINDUSA
100
AcDbPolyline
 90
        4
 70
   128
 43
0.0
 10
777.8459411251539
 20
1029.815218844314
 10
777.8565127224244
 20
1029.819761009096
 10
777.8645818734359
 20
1029.822984406483
 10
777.8724998029733
 20
1029.826348943243
  0
LWPOLYLINE
  5
1117
330
1F
100
AcDbEntity
  8
SANINDUSA
100
AcDbPolyline
 90
        4
 70
   128
 43
0.0
 10
777.8685365867639
 20
1029.925681838353
 10
777.868591902876
 20
1029.92605305638
 10
777.8687637709171
 20
1029.927408710667
 10
777.8688994592625
 20
1029.928910601825
  0
LWPOLYLINE
  5
1119
330
1F
100
AcDbEntity
  8
SANINDUSA
100
AcDbPolyline
 90
        4
 70
   128
 43
0.0
 10
777.8650599017012
 20
1029.914442680753
 10
777.8658135615235
 20
1029.916109446214
 10
777.8664902456867
 20
1029.917808925306
 10
777.8670885392615
 20
1029.919537564462
  0
LWPOLYLINE
  5
111C
330
1F
100
AcDbEntity
  8
SANINDUSA
100
AcDbPolyline
 90
        4
 70
   128
 43
0.0
 10
777.8670885392615
 20
1029.919537564462
 10
777.8676608082006
 20
1029.921491540299
 10
777.8682699857728
 20
1029.924147501991
 10
777.8685365814181
 20
1029.925681803469
  0
LWPOLYLINE
  5
111D
330
1F
100
AcDbEntity
  8
SANINDUSA
100
AcDbPolyline
 90
        5
 70
   128
 43
0.0
 10
777.8685365867639
 20
1029.925681838353
 10
777.8686636241346
 20
1029.924898312443
 10
777.869255733036
 20
1029.924149978402
 10
777.8702302782317
 20
1029.923541274385
 10
777.8714512513407
 20
1029.923157151657
  0
LINE
  5
111E
330
1F
100
AcDbEntity
  8
SANINDUSA
100
AcDbLine
 10
777.868899459278
 20
1029.928910602063
 30
0.0
 11
777.8690007912331
 21
1029.931695249586
 31
0.0
  0
LINE
  5
1121
330
1F
100
AcDbEntity
  8
SANINDUSA
100
AcDbLine
 10
777.8121931003718
 20
1029.804303511317
 30
0.0
 11
777.8127217434545
 21
1029.805404851073
 31
0.0
  0
LINE
  5
1123
330
1F
100
AcDbEntity
  8
SANINDUSA
100
AcDbLine
 10
777.8127217434545
 20
1029.805404851073
 30
0.0
 11
777.8142029944684
 21
1029.808490790685
 31
0.0
  0
LWPOLYLINE
  5
1124
330
1F
100
AcDbEntity
  8
SANINDUSA
100
AcDbPolyline
 90
        9
 70
   128
 43
0.0
 10
777.8127217434545
 20
1029.805404851073
 10
777.8127131430898
 20
1029.805159919694
 10
777.8128821495255
 20
1029.804843717971
 10
777.8132192756104
 20
1029.804473995843
 10
777.813705596822
 20
1029.804071507604
 10
777.8143138135911
 20
1029.803658846874
 10
777.8150097837599
 20
1029.8032591783
 10
777.8157544391461
 20
1029.802894937219
 10
777.8165059786305
 20
1029.802586570249
  0
LWPOLYLINE
  5
1127
330
1F
100
AcDbEntity
  8
SANINDUSA
100
AcDbPolyline
 90
        3
 70
   128
 43
0.0
 10
777.8092498107755
 20
1029.790508560613
 10
777.8093512441005
 20
1029.793916665959
 10
777.8098477850566
 20
1029.797335621625
  0
LWPOLYLINE
  5
112A
330
1F
100
AcDbEntity
  8
SANINDUSA
100
AcDbPolyline
 90
        4
 70
   128
 43
0.0
 10
777.8098477850566
 20
1029.797335621625
 10
777.8101896045649
 20
1029.798814556254
 10
777.8110539465199
 20
1029.801598469863
 10
777.8121931003718
 20
1029.804303511317
  0
LINE
  5
112E
330
1F
100
AcDbEntity
  8
SANINDUSA
100
AcDbLine
 10
777.8691157676078
 20
1030.007082552362
 30
0.0
 11
777.8691413261773
 21
1030.023966530029
 31
0.0
  0
ARC
  5
1132
330
1F
100
AcDbEntity
  8
SANINDUSA
100
AcDbCircle
 10
777.8731412200019
 20
1030.023961334711
 30
0.0
 40
0.0039998971078735
100
AcDbArc
 50
90.0
 51
179.9147387160813
  0
LWPOLYLINE
  5
11D5
330
1F
100
AcDbEntity
  8
SANINDUSA
100
AcDbPolyline
 90
        5
 70
   128
 43
0.0
 10
779.799308255902
 20
1030.014870235248
 10
779.7993082496776
 20
1030.014870175972
 10
779.7985080033295
 20
1030.007541140284
 10
779.7979130337038
 20
1030.000197433315
 10
779.7974991671005
 20
1029.992191999398
  0
LINE
  5
11D8
330
1F
100
AcDbEntity
  8
SANINDUSA
100
AcDbLine
 10
779.8446511964048
 20
1030.099998692615
 30
0.0
 11
779.7667146393609
 21
1030.007117520764
 31
0.0
  0
LWPOLYLINE
  5
11D9
330
1F
100
AcDbEntity
  8
SANINDUSA
100
AcDbPolyline
 90
        5
 70
   128
 43
0.0
 10
779.4091411385768
 20
1030.014870235248
 10
779.4091411448012
 20
1030.014870175972
 10
779.4099413911493
 20
1030.007541140284
 10
779.4105363607749
 20
1030.000197433315
 10
779.4109502273783
 20
1029.992191999398
  0
LINE
  5
11DB
330
1F
100
AcDbEntity
  8
SANINDUSA
100
AcDbLine
 10
779.363798198074
 20
1030.099998692615
 30
0.0
 11
779.4417347551177
 21
1030.007117520764
 31
0.0
  0
LINE
  5
11DE
330
1F
100
AcDbEntity
  8
SANINDUSA
100
AcDbLine
 10
779.7499240194808
 20
1029.982117520764
 30
0.0
 11
779.458525374998
 21
1029.982117520764
 31
0.0
  0
LINE
  5
11E1
330
1F
100
AcDbEntity
  8
SANINDUSA
100
AcDbLine
 10
779.4157743120327
 20
1029.987366050155
 30
0.0
 11
779.4393870414046
 21
1029.987366050337
 31
0.0
  0
LWPOLYLINE
  5
11E3
330
1F
100
AcDbEntity
  8
SANINDUSA
100
AcDbPolyline
 90
        5
 70
   128
 43
0.0
 10
779.4507741450468
 20
1029.994528730199
 10
779.4427881121397
 20
1029.992690984185
 10
779.4336685357055
 20
1029.990779863701
 10
779.4242633495458
 20
1029.988944182437
 10
779.4157743120328
 20
1029.987373306174
  0
LWPOLYLINE
  5
11E5
330
1F
100
AcDbEntity
  8
SANINDUSA
100
AcDbPolyline
 90
        6
 70
   128
 43
0.0
 10
779.4109502273783
 20
1029.992191999398
 10
779.4112691371398
 20
1029.990624142694
 10
779.4120446363558
 20
1029.989243404487
 10
779.4131970816849
 20
1029.988179490284
 10
779.4146512213509
 20
1029.987526840892
 10
779.4157743120328
 20
1029.987373306174
  0
ARC
  5
11E6
330
1F
100
AcDbEntity
  8
SANINDUSA
100
AcDbCircle
 10
779.458525374998
 20
1029.984117520764
 30
0.0
 40
0.0020000000000003
100
AcDbArc
 50
204.2819683388938
 51
270.0
  0
LWPOLYLINE
  5
11E7
330
1F
100
AcDbEntity
  8
SANINDUSA
100
AcDbPolyline
 90
        3
 70
   128
 43
0.0
 10
779.4393870414047
 20
1029.987366050337
 10
779.440410083943
 20
1029.987515026772
 10
779.4414157187418
 20
1029.987807484639
  0
ARC
  5
11E8
330
1F
100
AcDbEntity
  8
SANINDUSA
100
AcDbCircle
 10
779.3629255854076
 20
1029.940988775527
 30
0.0
 40
0.1028780646057966
100
AcDbArc
 50
24.28196833889378
 51
39.99999999997591
  0
LINE
  5
11E9
330
1F
100
AcDbEntity
  8
SANINDUSA
100
AcDbLine
 10
779.4414157187418
 20
1029.987807484639
 30
0.0
 11
779.452276081432
 21
1029.991982746123
 31
0.0
  0
LWPOLYLINE
  5
11FA
330
1F
100
AcDbEntity
  8
SANINDUSA
100
AcDbPolyline
 90
        6
 70
   128
 43
0.0
 10
779.7974991671005
 20
1029.992191999398
 10
779.7971802573389
 20
1029.990624142694
 10
779.7964047581229
 20
1029.989243404487
 10
779.795252312794
 20
1029.988179490284
 10
779.7937981731279
 20
1029.987526840892
 10
779.792675082446
 20
1029.987373306174
  0
LINE
  5
11FD
330
1F
100
AcDbEntity
  8
SANINDUSA
100
AcDbLine
 10
779.7690623530741
 20
1029.987366050584
 30
0.0
 11
779.7686536602648
 21
1029.987389945616
 31
0.0
  0
LINE
  5
11FE
330
1F
100
AcDbEntity
  8
SANINDUSA
100
AcDbLine
 10
779.7561733130467
 20
1029.991982746123
 30
0.0
 11
779.7670336757369
 21
1029.987807484639
 31
0.0
  0
LWPOLYLINE
  5
11FF
330
1F
100
AcDbEntity
  8
SANINDUSA
100
AcDbPolyline
 90
        3
 70
   128
 43
0.0
 10
779.7686536601222
 20
1029.987389945771
 10
779.767033675737
 20
1029.987807484639
 10
779.7669750899553
 20
1029.987830007916
  0
LINE
  5
1205
330
1F
100
AcDbEntity
  8
SANINDUSA
100
AcDbLine
 10
779.7690623530741
 20
1029.987366050584
 30
0.0
 11
779.792675082446
 21
1029.987366050155
 31
0.0
  0
LWPOLYLINE
  5
1206
330
1F
100
AcDbEntity
  8
SANINDUSA
100
AcDbPolyline
 90
        5
 70
   128
 43
0.0
 10
779.757675249432
 20
1029.994528730199
 10
779.7656612823391
 20
1029.992690984185
 10
779.7747808587733
 20
1029.990779863701
 10
779.7841860449328
 20
1029.988944182437
 10
779.792675082446
 20
1029.987373306174
  0
ARC
  5
1207
330
1F
100
AcDbEntity
  8
SANINDUSA
100
AcDbCircle
 10
779.7499240194808
 20
1029.984117520764
 30
0.0
 40
0.0020000000000003
100
AcDbArc
 50
270.0
 51
335.7180316611062
  0
ARC
  5
1208
330
1F
100
AcDbEntity
  8
SANINDUSA
100
AcDbCircle
 10
779.8455238090711
 20
1029.940988775527
 30
0.0
 40
0.1028780646057964
100
AcDbArc
 50
140.0000000000241
 51
155.7180316611062
  0
LWPOLYLINE
  5
120A
330
1F
100
AcDbEntity
  8
SANINDUSA
100
AcDbPolyline
 90
       19
 70
   128
 43
0.0
 10
779.8169221537415
 20
1030.147924517026
 10
779.8081604126009
 20
1030.147550923284
 10
779.800108558904
 20
1030.147214605122
 10
779.792774785762
 20
1030.146914494961
 10
779.7861675039792
 20
1030.146648761625
 10
779.7800086580227
 20
1030.146404724242
 10
779.7746677856713
 20
1030.146196403038
 10
779.7701498179151
 20
1030.146022885878
 10
779.7664580074076
 20
1030.145882855693
 10
779.7643065150947
 20
1030.145801768018
 10
779.7620371680396
 20
1030.145716794243
 10
779.7597557660647
 20
1030.145631947269
 10
779.7574622980877
 20
1030.145547239689
 10
779.7551567530266
 20
1030.145462684093
 10
779.7528391197992
 20
1030.145378293076
 10
779.7505093873231
 20
1030.145294079228
 10
779.7374790894012
 20
1030.144834632693
 10
779.7255350557289
 20
1030.144431266059
 10
779.7132951966134
 20
1030.14403679098
  0
LWPOLYLINE
  5
120B
330
1F
100
AcDbEntity
  8
SANINDUSA
100
AcDbPolyline
 90
        9
 70
   128
 43
0.0
 10
779.7162597196732
 20
1030.139952922928
 10
779.7263020781175
 20
1030.140470473329
 10
779.7360020770491
 20
1030.140986181448
 10
779.745652749884
 20
1030.141514672682
 10
779.755077486151
 20
1030.142045867854
 10
779.764448874353
 20
1030.142589089429
 10
779.773891509946
 20
1030.143151891177
 10
779.7960437947811
 20
1030.144535128036
 10
779.8178428450921
 20
1030.145985844893
  0
LINE
  5
120C
330
1F
100
AcDbEntity
  8
SANINDUSA
100
AcDbLine
 10
779.8709060036277
 20
1030.136371303644
 30
0.0
 11
779.7162591971082
 21
1030.139952896338
 31
0.0
  0
LINE
  5
120D
330
1F
100
AcDbEntity
  8
SANINDUSA
100
AcDbLine
 10
779.8157577401472
 20
1030.152117520763
 30
0.0
 11
779.3926916543316
 21
1030.152117520763
 31
0.0
  0
LINE
  5
120F
330
1F
100
AcDbEntity
  8
SANINDUSA
100
AcDbLine
 10
779.876600800019
 20
1030.126741932389
 30
0.0
 11
779.3318485944598
 21
1030.126741932389
 31
0.0
  0
LWPOLYLINE
  5
1211
330
1F
100
AcDbEntity
  8
SANINDUSA
100
AcDbPolyline
 90
       40
 70
   128
 43
0.0
 10
779.8662010649994
 20
1030.13458532598
 10
779.8641184536522
 20
1030.134556143352
 10
779.8612939234571
 20
1030.134520658522
 10
779.8581715285245
 20
1030.13448510671
 10
779.854765012443
 20
1030.134449653016
 10
779.8510876800252
 20
1030.134414420652
 10
779.8471322230819
 20
1030.134379293302
 10
779.8428795954525
 20
1030.134344117015
 10
779.8383415347609
 20
1030.134309023358
 10
779.8335238503969
 20
1030.134274084602
 10
779.8284329852519
 20
1030.134239373958
 10
779.8230759980341
 20
1030.134204965214
 10
779.8174605460494
 20
1030.134170932397
 10
779.8115948561459
 20
1030.134137349404
 10
779.805488363168
 20
1030.134104293156
 10
779.7991505069071
 20
1030.134071836479
 10
779.7925910018663
 20
1030.134040049974
 10
779.7858198897017
 20
1030.134009002347
 10
779.7788474653247
 20
1030.133978760053
 10
779.771689026313
 20
1030.133949404608
 10
779.7643445867094
 20
1030.133920956318
 10
779.7567833162364
 20
1030.133893353296
 10
779.749059190454
 20
1030.13386684439
 10
779.7411679599449
 20
1030.133841450152
 10
779.7331077410461
 20
1030.133817201681
 10
779.7248757105522
 20
1030.133794129096
 10
779.7164710801755
 20
1030.133772276089
 10
779.7079774879949
 20
1030.133751916051
 10
779.6993750823454
 20
1030.133733017438
 10
779.6906421617239
 20
1030.133715565408
 10
779.6817982029119
 20
1030.133699642642
 10
779.6728644794431
 20
1030.133685329432
 10
779.6638643030976
 20
1030.13367270233
 10
779.6548122762841
 20
1030.133661823348
 10
779.6457190067902
 20
1030.133652740304
 10
779.6365501290645
 20
1030.133645414318
 10
779.6272939347715
 20
1030.13363985532
 10
779.6179881132197
 20
1030.13363611469
 10
779.6086752238417
 20
1030.133634231808
 10
779.6042246966846
 20
1030.133634230671
  0
LWPOLYLINE
  5
1215
330
1F
100
AcDbEntity
  8
SANINDUSA
100
AcDbPolyline
 90
        5
 70
   128
 43
0.0
 10
779.492188982987
 20
1030.139952868213
 10
779.4921890418113
 20
1030.139952867562
 10
779.4921901130252
 20
1030.139952855712
 10
779.4934857608129
 20
1030.139951819456
 10
779.4947801924607
 20
1030.139978380424
  0
LWPOLYLINE
  5
1218
330
1F
100
AcDbEntity
  8
SANINDUSA
100
AcDbPolyline
 90
       19
 70
   128
 43
0.0
 10
779.3915272407373
 20
1030.147924517026
 10
779.4002889818779
 20
1030.147550923284
 10
779.4083408355747
 20
1030.147214605122
 10
779.4156746087168
 20
1030.146914494961
 10
779.4222818904996
 20
1030.146648761625
 10
779.428440736456
 20
1030.146404724242
 10
779.4337816088074
 20
1030.146196403038
 10
779.4382995765637
 20
1030.146022885878
 10
779.4419913870711
 20
1030.145882855693
 10
779.4441428793841
 20
1030.145801768018
 10
779.4464122264392
 20
1030.145716794243
 10
779.4486936284141
 20
1030.145631947269
 10
779.4509870963911
 20
1030.145547239689
 10
779.4532926414522
 20
1030.145462684093
 10
779.4556102746796
 20
1030.145378293076
 10
779.4579400071556
 20
1030.145294079228
 10
779.4709703050775
 20
1030.144834632693
 10
779.4829143387497
 20
1030.144431266059
 10
779.4951541978654
 20
1030.14403679098
  0
LWPOLYLINE
  5
1219
330
1F
100
AcDbEntity
  8
SANINDUSA
100
AcDbPolyline
 90
       40
 70
   128
 43
0.0
 10
779.6042247006504
 20
1030.133634227242
 10
779.6001006627839
 20
1030.133634199799
 10
779.590851057531
 20
1030.133635998465
 10
779.5815689384078
 20
1030.133639649799
 10
779.5722924641686
 20
1030.133645140787
 10
779.5630650238742
 20
1030.133652440804
 10
779.5539294320048
 20
1030.133661502774
 10
779.5449154211687
 20
1030.133672273119
 10
779.535964581981
 20
1030.133684760432
 10
779.5270330149816
 20
1030.133698994576
 10
779.5181723129815
 20
1030.133714873399
 10
779.5094035868245
 20
1030.133732327937
 10
779.500749818369
 20
1030.133751278653
 10
779.4922322157754
 20
1030.133771642515
 10
779.4838733014565
 20
1030.133793320747
 10
779.4756740164042
 20
1030.133816237453
 10
779.4675978162792
 20
1030.133840466602
 10
779.4596984014177
 20
1030.133865821047
 10
779.451970812753
 20
1030.133892275607
 10
779.4444121552571
 20
1030.1339198015
 10
779.4370207984979
 20
1030.133948367425
 10
779.4297965689747
 20
1030.133977939737
 10
779.4228182928925
 20
1030.134008160993
 10
779.4160698864295
 20
1030.134039053863
 10
779.4095251880986
 20
1030.134070710223
 10
779.4031945764946
 20
1030.13410306481
 10
779.3970881811339
 20
1030.134136050183
 10
779.3912158624602
 20
1030.134169596791
 10
779.3855871391199
 20
1030.134203633322
 10
779.3802112043923
 20
1030.134238086535
 10
779.3750972480218
 20
1030.134272878794
 10
779.3702532630728
 20
1030.134307935886
 10
779.3656866621413
 20
1030.13434318356
 10
779.361404249509
 20
1030.134378547877
 10
779.3574122055741
 20
1030.134413955488
 10
779.3537159851015
 20
1030.134449337843
 10
779.3503243907282
 20
1030.13448460105
 10
779.3472203907606
 20
1030.134519883813
 10
779.3443990298073
 20
1030.134555242529
 10
779.3422458462823
 20
1030.134585327477
  0
LWPOLYLINE
  5
121B
330
1F
100
AcDbEntity
  8
SANINDUSA
100
AcDbPolyline
 90
        9
 70
   128
 43
0.0
 10
779.3293257018031
 20
1030.131085724599
 10
779.3293689108381
 20
1030.130429690517
 10
779.3294977908604
 20
1030.12978499924
 10
779.3297101135388
 20
1030.129162797459
 10
779.3300022078222
 20
1030.128573843019
 10
779.3303690234105
 20
1030.128028318923
 10
779.3308042180752
 20
1030.127535657262
 10
779.3313002673163
 20
1030.127104376139
 10
779.3318485944598
 20
1030.126741932389
  0
LWPOLYLINE
  5
121C
330
1F
100
AcDbEntity
  8
SANINDUSA
100
AcDbPolyline
 90
        4
 70
   128
 43
0.0
 10
779.3318485944598
 20
1030.126741932389
 10
779.3319938923935
 20
1030.126642303569
 10
779.3324572791695
 20
1030.126335699135
 10
779.3326962827146
 20
1030.126195839576
  0
ARC
  5
121D
330
1F
100
AcDbEntity
  8
SANINDUSA
100
AcDbCircle
 10
779.2731382221904
 20
1030.023925940289
 30
0.0
 40
0.1183481933691251
100
AcDbArc
 50
39.99999999997591
 51
59.78512190440592
  0
LWPOLYLINE
  5
121E
330
1F
100
AcDbEntity
  8
SANINDUSA
100
AcDbPolyline
 90
        7
 70
   128
 43
0.0
 10
779.4012816883913
 20
1030.055327608367
 10
779.4013720477129
 20
1030.055025054291
 10
779.4055614521438
 20
1030.037020654967
 10
779.4075580353686
 20
1030.025986931322
 10
779.4091411312508
 20
1030.014870294786
 10
779.4091411385768
 20
1030.014870235248
 10
779.4091411385895
 20
1030.014870235245
  0
LINE
  5
121F
330
1F
100
AcDbEntity
  8
SANINDUSA
100
AcDbLine
 10
779.3375433908511
 20
1030.136371303644
 30
0.0
 11
779.4921901973706
 21
1030.139952896338
 31
0.0
  0
LINE
  5
1220
330
1F
100
AcDbEntity
  8
SANINDUSA
100
AcDbLine
 10
779.3876731249985
 20
1030.145458977517
 30
0.0
 11
779.3368156791055
 21
1030.136335682346
 31
0.0
  0
LWPOLYLINE
  5
1225
330
1F
100
AcDbEntity
  8
SANINDUSA
100
AcDbPolyline
 90
        3
 70
   128
 43
0.0
 10
779.3368156791055
 20
1030.136335682346
 10
779.3368977474115
 20
1030.136349178222
 10
779.3375433908511
 20
1030.136371303644
  0
LWPOLYLINE
  5
1226
330
1F
100
AcDbEntity
  8
SANINDUSA
100
AcDbPolyline
 90
        9
 70
   128
 43
0.0
 10
779.3293257018031
 20
1030.131327949181
 10
779.3294050316734
 20
1030.132068694429
 10
779.3296392797854
 20
1030.132775879558
 10
779.3300178333213
 20
1030.133417464923
 10
779.3305235415786
 20
1030.13396438293
 10
779.3311334929978
 20
1030.134391854977
 10
779.3318200531911
 20
1030.134680514064
 10
779.3325521169419
 20
1030.134817282237
 10
779.3332965174555
 20
1030.134795963092
  0
LWPOLYLINE
  5
122A
330
1F
100
AcDbEntity
  8
SANINDUSA
100
AcDbPolyline
 90
        2
 70
   128
 43
0.0
 10
779.3332965174555
 20
1030.134795963092
 10
779.3340568693793
 20
1030.134759088073
  0
LWPOLYLINE
  5
122B
330
1F
100
AcDbEntity
  8
SANINDUSA
100
AcDbPolyline
 90
        3
 70
   128
 43
0.0
 10
779.3340352764129
 20
1030.135216222777
 10
779.3338598954256
 20
1030.135109160067
 10
779.3337978747477
 20
1030.135082349551
  0
ARC
  5
122C
330
1F
100
AcDbEntity
  8
SANINDUSA
100
AcDbCircle
 10
779.332404863454
 20
1030.138569267956
 30
0.0
 40
0.0037548742228288
100
AcDbArc
 50
272.2475233466384
 51
291.7765300958961
  0
LWPOLYLINE
  5
122E
330
1F
100
AcDbEntity
  8
SANINDUSA
100
AcDbPolyline
 90
        7
 70
   128
 43
0.0
 10
779.3422349903311
 20
1030.134585325557
 10
779.3407939064764
 20
1030.134606545335
 10
779.3387327243997
 20
1030.134641302511
 10
779.3369865794878
 20
1030.134675775655
 10
779.3355567846996
 20
1030.134709846436
 10
779.3344482194223
 20
1030.134743178216
 10
779.3340568693793
 20
1030.134759088073
  0
LWPOLYLINE
  5
122F
330
1F
100
AcDbEntity
  8
SANINDUSA
100
AcDbPolyline
 90
        4
 70
   128
 43
0.0
 10
779.3368162177659
 20
1030.13633577903
 10
779.3360739787332
 20
1030.1361614598
 10
779.3346946924361
 20
1030.135604003973
 10
779.3340352764129
 20
1030.135216222777
  0
LWPOLYLINE
  5
1233
330
1F
100
AcDbEntity
  8
SANINDUSA
100
AcDbPolyline
 90
        9
 70
   128
 43
0.0
 10
779.4921896748056
 20
1030.139952922928
 10
779.4821473163612
 20
1030.140470473329
 10
779.4724473174298
 20
1030.140986181448
 10
779.4627966445948
 20
1030.141514672682
 10
779.4533719083278
 20
1030.142045867854
 10
779.4440005201257
 20
1030.142589089429
 10
779.4345578845328
 20
1030.143151891177
 10
779.4124055996977
 20
1030.144535128036
 10
779.3906065493866
 20
1030.145985844893
  0
LWPOLYLINE
  5
1234
330
1F
100
AcDbEntity
  8
SANINDUSA
100
AcDbPolyline
 90
        3
 70
   128
 43
0.0
 10
779.3886320171021
 20
1030.145654432072
 10
779.3899294345573
 20
1030.145956378401
 10
779.3906064235637
 20
1030.145985812191
  0
LWPOLYLINE
  5
1235
330
1F
100
AcDbEntity
  8
SANINDUSA
100
AcDbPolyline
 90
        4
 70
   128
 43
0.0
 10
779.3886320171021
 20
1030.145654432072
 10
779.3886320171021
 20
1030.145654432072
 10
779.3881657533686
 20
1030.145551482785
 10
779.3876731249986
 20
1030.145458977517
  0
LWPOLYLINE
  5
1237
330
1F
100
AcDbEntity
  8
SANINDUSA
100
AcDbPolyline
 90
        5
 70
   128
 43
0.0
 10
779.3890993697652
 20
1030.147286008024
 10
779.3890993697652
 20
1030.147286008024
 10
779.3890151358848
 20
1030.147078655188
 10
779.3887525329379
 20
1030.146201911791
 10
779.3886320171021
 20
1030.145654432072
  0
LWPOLYLINE
  5
1238
330
1F
100
AcDbEntity
  8
SANINDUSA
100
AcDbPolyline
 90
       12
 70
   128
 43
0.0
 10
779.3926916543316
 20
1030.152117520764
 10
779.3916234794915
 20
1030.15195069762
 10
779.3908251563266
 20
1030.151578913421
 10
779.3902455228077
 20
1030.151122290912
 10
779.3898536785068
 20
1030.150668886905
 10
779.3896025083595
 20
1030.150268318971
 10
779.3894413708007
 20
1030.149925455161
 10
779.389336466817
 20
1030.149630920971
 10
779.3892678155105
 20
1030.149375458985
 10
779.3892224686929
 20
1030.149148182927
 10
779.3891909288055
 20
1030.148929240874
 10
779.3891657619771
 20
1030.148676023797
  0
LWPOLYLINE
  5
1239
330
1F
100
AcDbEntity
  8
SANINDUSA
100
AcDbPolyline
 90
        4
 70
   128
 43
0.0
 10
779.3890993697652
 20
1030.147286008024
 10
779.3891151763806
 20
1030.147689045264
 10
779.3891535062092
 20
1030.148386457157
 10
779.3891657619771
 20
1030.148676023797
  0
LWPOLYLINE
  5
123A
330
1F
100
AcDbEntity
  8
SANINDUSA
100
AcDbPolyline
 90
        4
 70
   128
 43
0.0
 10
779.3887395151618
 20
1030.146139909452
 10
779.3893316240633
 20
1030.147033790842
 10
779.3903061692588
 20
1030.147657779469
 10
779.3915271423677
 20
1030.147924790936
  0
LWPOLYLINE
  5
1241
330
1F
100
AcDbEntity
  8
SANINDUSA
100
AcDbPolyline
 90
       39
 70
   128
 43
0.0
 10
779.6042246972393
 20
1030.150436712018
 10
779.604214226938
 20
1030.150436712165
 10
779.6011121678329
 20
1030.150449922008
 10
779.5980979579019
 20
1030.150488244358
 10
779.5952585937903
 20
1030.150550150676
 10
779.5926719411446
 20
1030.150632169588
 10
779.5904128820331
 20
1030.150730723819
 10
779.5885430328996
 20
1030.150840954232
 10
779.5871134061647
 20
1030.150958882104
 10
779.5861711772666
 20
1030.151078990317
 10
779.5857509729903
 20
1030.151196200399
 10
779.585851993179
 20
1030.1513074135
 10
779.5864787887161
 20
1030.151409391724
 10
779.587606634007
 20
1030.151500172657
 10
779.5892095492668
 20
1030.151578100346
 10
779.5912364984857
 20
1030.151642809409
 10
779.593633742587
 20
1030.151693980843
 10
779.5963300260228
 20
1030.151732128719
 10
779.5992509969704
 20
1030.151757565642
 10
779.6023123878223
 20
1030.151770855003
 10
779.6042246972393
 20
1030.151773088688
 10
779.6085096099363
 20
1030.151761675088
 10
779.611469111501
 20
1030.151739005416
 10
779.614224139593
 20
1030.151703868584
 10
779.6166935589456
 20
1030.1516556587
 10
779.6188112832009
 20
1030.151594197604
 10
779.6205125989217
 20
1030.151519238883
 10
779.6217548109519
 20
1030.151431527063
 10
779.6224965499889
 20
1030.151331963103
 10
779.6227233513286
 20
1030.151222820615
 10
779.6224213803035
 20
1030.151106660071
 10
779.6216062263949
 20
1030.150987332816
 10
779.6202933789638
 20
1030.150868986382
 10
779.6185266697782
 20
1030.150756390105
 10
779.6163506318596
 20
1030.150654522413
 10
779.6138315907849
 20
1030.150567860918
 10
779.6103316470404
 20
1030.150487904775
 10
779.607321732443
 20
1030.15044979053
 10
779.6042246972393
 20
1030.150436712018
  0
ARC
  5
1243
330
1F
100
AcDbEntity
  8
SANINDUSA
100
AcDbCircle
 10
779.4859705488995
 20
1037.263470476783
 30
0.0
 40
7.123058174975998
100
AcDbArc
 50
270.9512451978316
 51
271.6155048170411
  0
ARC
  5
1245
330
1F
100
AcDbEntity
  8
SANINDUSA
100
AcDbCircle
 10
779.7224788455792
 20
1037.263470476783
 30
0.0
 40
7.123058174975922
100
AcDbArc
 50
268.3844951829589
 51
269.0487548021684
  0
LWPOLYLINE
  5
1247
330
1F
100
AcDbEntity
  8
SANINDUSA
100
AcDbPolyline
 90
        5
 70
   128
 43
0.0
 10
779.516190868322
 20
1030.143015915578
 10
779.5175545822228
 20
1030.143139175755
 10
779.5189211192475
 20
1030.143221211071
 10
779.5202931341854
 20
1030.143257101508
 10
779.5216645759089
 20
1030.14324355672
  0
LINE
  5
1248
330
1F
100
AcDbEntity
  8
SANINDUSA
100
AcDbLine
 10
779.5162482300321
 20
1030.143398255672
 30
0.0
 11
779.5216645759089
 21
1030.14324355672
 31
0.0
  0
LWPOLYLINE
  5
124A
330
1F
100
AcDbEntity
  8
SANINDUSA
100
AcDbPolyline
 90
        5
 70
   128
 43
0.0
 10
779.4997642297466
 20
1030.140373948527
 10
779.5052873758695
 20
1030.141255684171
 10
779.5109263022326
 20
1030.142262969966
 10
779.5135492336919
 20
1030.142681500689
 10
779.516190868322
 20
1030.143015915578
  0
ARC
  5
124F
330
1F
100
AcDbEntity
  8
SANINDUSA
100
AcDbCircle
 10
779.7478163335227
 20
1038.149510572933
 30
0.0
 40
8.009460545077265
100
AcDbArc
 50
268.1922759113752
 51
268.3432437125641
  0
LWPOLYLINE
  5
1250
330
1F
100
AcDbEntity
  8
SANINDUSA
100
AcDbPolyline
 90
        4
 70
   128
 43
0.0
 10
779.4947843573118
 20
1030.139978302232
 10
779.4972798144571
 20
1030.140113478984
 10
779.4985243255962
 20
1030.140226738731
 10
779.4997642297466
 20
1030.140373948527
  0
ARC
  5
125C
330
1F
100
AcDbEntity
  8
SANINDUSA
100
AcDbCircle
 10
779.4606330609562
 20
1038.149510572923
 30
0.0
 40
8.00946054506735
100
AcDbArc
 50
271.6567562874881
 51
271.8077240886248
  0
LWPOLYLINE
  5
125D
330
1F
100
AcDbEntity
  8
SANINDUSA
100
AcDbPolyline
 90
        4
 70
   128
 43
0.0
 10
779.713665037167
 20
1030.139978302232
 10
779.7111695800217
 20
1030.140113478984
 10
779.7099250688825
 20
1030.140226738731
 10
779.7086851647322
 20
1030.140373948527
  0
LWPOLYLINE
  5
125E
330
1F
100
AcDbEntity
  8
SANINDUSA
100
AcDbPolyline
 90
        5
 70
   128
 43
0.0
 10
779.7086851647322
 20
1030.140373948527
 10
779.7031620186093
 20
1030.141255684171
 10
779.6975230922462
 20
1030.142262969966
 10
779.6949001607869
 20
1030.142681500689
 10
779.6922585261568
 20
1030.143015915578
  0
LWPOLYLINE
  5
1260
330
1F
100
AcDbEntity
  8
SANINDUSA
100
AcDbPolyline
 90
        5
 70
   128
 43
0.0
 10
779.6922585261568
 20
1030.143015915578
 10
779.690894812256
 20
1030.143139175755
 10
779.6895282752313
 20
1030.143221211071
 10
779.6881562602934
 20
1030.143257101508
 10
779.6867848185699
 20
1030.14324355672
  0
LINE
  5
1262
330
1F
100
AcDbEntity
  8
SANINDUSA
100
AcDbLine
 10
779.6922011644466
 20
1030.143398255672
 30
0.0
 11
779.6867848185698
 21
1030.14324355672
 31
0.0
  0
LWPOLYLINE
  5
1265
330
1F
100
AcDbEntity
  8
SANINDUSA
100
AcDbPolyline
 90
        5
 70
   128
 43
0.0
 10
779.7162604114918
 20
1030.139952868213
 10
779.7162603526675
 20
1030.139952867562
 10
779.7162592814535
 20
1030.139952855712
 10
779.7149636336658
 20
1030.139951819456
 10
779.7136692020182
 20
1030.139978380424
  0
LWPOLYLINE
  5
126D
330
1F
100
AcDbEntity
  8
SANINDUSA
100
AcDbPolyline
 90
        9
 70
   128
 43
0.0
 10
779.8791236926757
 20
1030.131085724599
 10
779.8790804836408
 20
1030.130429690517
 10
779.8789516036184
 20
1030.12978499924
 10
779.87873928094
 20
1030.129162797459
 10
779.8784471866566
 20
1030.128573843019
 10
779.8780803710683
 20
1030.128028318923
 10
779.8776451764036
 20
1030.127535657262
 10
779.8771491271625
 20
1030.127104376139
 10
779.876600800019
 20
1030.126741932389
  0
ARC
  5
126F
330
1F
100
AcDbEntity
  8
SANINDUSA
100
AcDbCircle
 10
779.9353111722884
 20
1030.023925940289
 30
0.0
 40
0.1183481933691251
100
AcDbArc
 50
120.2148780955941
 51
140.0000000000241
  0
LWPOLYLINE
  5
1270
330
1F
100
AcDbEntity
  8
SANINDUSA
100
AcDbPolyline
 90
        7
 70
   128
 43
0.0
 10
779.8071677060875
 20
1030.055327608367
 10
779.8070773467659
 20
1030.055025054291
 10
779.802887942335
 20
1030.037020654967
 10
779.8008913591102
 20
1030.025986931322
 10
779.799308263228
 20
1030.014870294786
 10
779.799308255902
 20
1030.014870235248
 10
779.7993082558893
 20
1030.014870235245
  0
LWPOLYLINE
  5
1271
330
1F
100
AcDbEntity
  8
SANINDUSA
100
AcDbPolyline
 90
        4
 70
   128
 43
0.0
 10
779.876600800019
 20
1030.126741932389
 10
779.8764941653936
 20
1030.126642303569
 10
779.8759921153092
 20
1030.126335699135
 10
779.8757531117642
 20
1030.126195839576
  0
LINE
  5
1273
330
1F
100
AcDbEntity
  8
SANINDUSA
100
AcDbLine
 10
779.871633641315
 20
1030.136335695645
 30
0.0
 11
779.8207762694802
 21
1030.145458977517
 31
0.0
  0
LWPOLYLINE
  5
1276
330
1F
100
AcDbEntity
  8
SANINDUSA
100
AcDbPolyline
 90
        5
 70
   128
 43
0.0
 10
779.8198174349802
 20
1030.145655055696
 10
779.8197338599809
 20
1030.146053798553
 10
779.8194907715744
 20
1030.146912346539
 10
779.8193452676627
 20
1030.147290352115
 10
779.8193452676627
 20
1030.147290352115
  0
LWPOLYLINE
  5
1277
330
1F
100
AcDbEntity
  8
SANINDUSA
100
AcDbPolyline
 90
        3
 70
   128
 43
0.0
 10
779.8198174349802
 20
1030.145655055696
 10
779.8185199599215
 20
1030.145956378401
 10
779.817842970915
 20
1030.145985812191
  0
LWPOLYLINE
  5
1278
330
1F
100
AcDbEntity
  8
SANINDUSA
100
AcDbPolyline
 90
        4
 70
   128
 43
0.0
 10
779.8207762694802
 20
1030.145458977517
 10
779.8202200539444
 20
1030.145564077491
 10
779.8198174349802
 20
1030.145655055696
 10
779.8198174349802
 20
1030.145655055696
  0
LWPOLYLINE
  5
1279
330
1F
100
AcDbEntity
  8
SANINDUSA
100
AcDbPolyline
 90
        4
 70
   128
 43
0.0
 10
779.8193503415648
 20
1030.147277170591
 10
779.8193342180982
 20
1030.147689045264
 10
779.8192958882696
 20
1030.148386457157
 10
779.8192809618474
 20
1030.148678660693
  0
LWPOLYLINE
  5
127A
330
1F
100
AcDbEntity
  8
SANINDUSA
100
AcDbPolyline
 90
       12
 70
   128
 43
0.0
 10
779.8192809618474
 20
1030.148678660693
 10
779.8192736399776
 20
1030.148789183918
 10
779.8192396508448
 20
1030.149068565104
 10
779.8191840895777
 20
1030.149364509215
 10
779.8190984679429
 20
1030.149676799502
 10
779.8189841628549
 20
1030.149982747094
 10
779.8187956885459
 20
1030.150360313234
 10
779.8184862395777
 20
1030.150812023675
 10
779.8179895213136
 20
1030.151314722916
 10
779.817268158913
 20
1030.151775191394
 10
779.8163542640838
 20
1030.152066358296
 10
779.8157577401472
 20
1030.152117520764
  0
LWPOLYLINE
  5
127B
330
1F
100
AcDbEntity
  8
SANINDUSA
100
AcDbPolyline
 90
        5
 70
   128
 43
0.0
 10
779.8197102048147
 20
1030.146137344682
 10
779.8197098864505
 20
1030.146139948569
 10
779.8191177789975
 20
1030.147033825859
 10
779.8181432345557
 20
1030.147657816381
 10
779.816922261225
 20
1030.147924838193
  0
LINE
  5
1281
330
1F
100
AcDbEntity
  8
SANINDUSA
100
AcDbLine
 10
779.8791236926757
 20
1030.131327949181
 30
0.0
 11
779.8791236926757
 21
1030.131085724599
 31
0.0
  0
LWPOLYLINE
  5
1282
330
1F
100
AcDbEntity
  8
SANINDUSA
100
AcDbPolyline
 90
        9
 70
   128
 43
0.0
 10
779.8791236926757
 20
1030.131327949181
 10
779.8790443628054
 20
1030.132068694429
 10
779.8788101146933
 20
1030.132775879558
 10
779.8784315611575
 20
1030.133417464923
 10
779.8779258529003
 20
1030.13396438293
 10
779.8773159014809
 20
1030.134391854977
 10
779.8766293412877
 20
1030.134680514064
 10
779.8758972775369
 20
1030.134817282237
 10
779.8751528770233
 20
1030.134795963092
  0
ARC
  5
1283
330
1F
100
AcDbEntity
  8
SANINDUSA
100
AcDbCircle
 10
779.8762706135893
 20
1030.139614018982
 30
0.0
 40
0.0048112434166671
100
AcDbArc
 50
250.3237462675064
 51
265.5495694275246
  0
LWPOLYLINE
  5
1284
330
1F
100
AcDbEntity
  8
SANINDUSA
100
AcDbPolyline
 90
        3
 70
   128
 43
0.0
 10
779.8746506436992
 20
1030.135083703235
 10
779.8745783621702
 20
1030.135115487341
 10
779.8744141180659
 20
1030.135216222777
  0
LWPOLYLINE
  5
1285
330
1F
100
AcDbEntity
  8
SANINDUSA
100
AcDbPolyline
 90
        4
 70
   128
 43
0.0
 10
779.8744141180659
 20
1030.135216222777
 10
779.8737718104848
 20
1030.135595011176
 10
779.8723046001412
 20
1030.136181702314
 10
779.8716331767129
 20
1030.13633577903
  0
LWPOLYLINE
  5
1289
330
1F
100
AcDbEntity
  8
SANINDUSA
100
AcDbPolyline
 90
        3
 70
   128
 43
0.0
 10
779.871633641315
 20
1030.136335695645
 10
779.8715516470673
 20
1030.136349178222
 10
779.8709060036277
 20
1030.136371303644
  0
LINE
  5
1290
330
1F
100
AcDbEntity
  8
SANINDUSA
100
AcDbLine
 10
780.6395367679077
 20
1030.099973111381
 30
0.0
 11
780.561600210864
 21
1030.00709193953
 31
0.0
  0
LWPOLYLINE
  5
1291
330
1F
100
AcDbEntity
  8
SANINDUSA
100
AcDbPolyline
 90
       13
 70
   128
 43
0.0
 10
780.3670863193842
 20
1030.112792892273
 10
780.3663197034389
 20
1030.102351854352
 10
780.3650432619794
 20
1030.092424695027
 10
780.3632069478818
 20
1030.082812564745
 10
780.3608611912819
 20
1030.073881179204
 10
780.3581163218393
 20
1030.065917892315
 10
780.35493777112
 20
1030.058691128351
 10
780.3512521999107
 20
1030.052075300057
 10
780.3471738028322
 20
1030.046290716009
 10
780.3424970770079
 20
1030.041114833313
 10
780.3374704072301
 20
1030.036863623625
 10
780.3320104964133
 20
1030.033453476491
 10
780.3262766771389
 20
1030.030958254537
  0
LINE
  5
1292
330
1F
100
AcDbEntity
  8
SANINDUSA
100
AcDbLine
 10
780.3174923381038
 20
1030.092450416984
 30
0.0
 11
780.3277103471482
 21
1030.019745504807
 31
0.0
  0
LINE
  5
1293
330
1F
100
AcDbEntity
  8
SANINDUSA
100
AcDbLine
 10
780.3064233538137
 20
1030.092172070782
 30
0.0
 11
780.3163473795454
 21
1030.021558958567
 31
0.0
  0
LWPOLYLINE
  5
1297
330
1F
100
AcDbEntity
  8
SANINDUSA
100
AcDbPolyline
 90
       14
 70
   128
 43
0.0
 10
780.334833684143
 20
1030.020458572283
 10
780.3407822101112
 20
1030.0231371036
 10
780.3464467826159
 20
1030.026787324457
 10
780.3517735670595
 20
1030.031418088991
 10
780.3567087288453
 20
1030.037038251336
 10
780.3609404839222
 20
1030.043217519049
 10
780.3647821608072
 20
1030.050285318525
 10
780.3681901108395
 20
1030.058188286089
 10
780.371120685358
 20
1030.066873058067
 10
780.3733396312423
 20
1030.075383844762
 10
780.3751411929015
 20
1030.084485150891
 10
780.3765058620191
 20
1030.094103729986
 10
780.377217908191
 20
1030.101412665341
 10
780.3776901227607
 20
1030.10895356582
  0
LINE
  5
129A
330
1F
100
AcDbEntity
  8
SANINDUSA
100
AcDbLine
 10
780.2840348869432
 20
1030.136814665456
 30
0.0
 11
780.3053566169416
 21
1029.978776233044
 31
0.0
  0
LINE
  5
129B
330
1F
100
AcDbEntity
  8
SANINDUSA
100
AcDbLine
 10
780.2988405264907
 20
1029.972114065419
 30
0.0
 11
780.2765390932965
 21
1030.133301713613
 31
0.0
  0
ARC
  5
129E
330
1F
100
AcDbEntity
  8
SANINDUSA
100
AcDbCircle
 10
780.4441102687424
 20
1030.20149193953
 30
0.0
 40
0.1994000000000001
100
AcDbArc
 50
270.0
 51
335.0908105099429
  0
LINE
  5
12A3
330
1F
100
AcDbEntity
  8
SANINDUSA
100
AcDbLine
 10
780.1691102687424
 20
1030.070269893108
 30
0.0
 11
780.1691102687424
 21
1030.014275291817
 31
0.0
  0
LINE
  5
12A9
330
1F
100
AcDbEntity
  8
SANINDUSA
100
AcDbLine
 10
780.1736924741769
 20
1029.987368315465
 30
0.0
 11
780.2950158130685
 21
1029.994685938331
 31
0.0
  0
LINE
  5
12B4
330
1F
100
AcDbEntity
  8
SANINDUSA
100
AcDbLine
 10
780.1691102687424
 20
1029.992253373959
 30
0.0
 11
780.1691102687424
 21
1029.991343821213
 31
0.0
  0
LINE
  5
12B5
330
1F
100
AcDbEntity
  8
SANINDUSA
100
AcDbLine
 10
780.1691102687424
 20
1029.993594844104
 30
0.0
 11
780.1691102687424
 21
1029.992975073987
 31
0.0
  0
LINE
  5
12B6
330
1F
100
AcDbEntity
  8
SANINDUSA
100
AcDbLine
 10
780.1691102687424
 20
1029.992975073987
 30
0.0
 11
780.1691102687424
 21
1029.992253373959
 31
0.0
  0
LINE
  5
12B8
330
1F
100
AcDbEntity
  8
SANINDUSA
100
AcDbLine
 10
780.1691102687424
 20
1030.001097609723
 30
0.0
 11
780.1691102687424
 21
1029.993594844104
 31
0.0
  0
LWPOLYLINE
  5
12B9
330
1F
100
AcDbEntity
  8
SANINDUSA
100
AcDbPolyline
 90
        9
 70
   128
 43
0.0
 10
780.1733490692318
 20
1029.987364364772
 10
780.1725359373521
 20
1029.987398561778
 10
780.1717465813894
 20
1029.987596082889
 10
780.1710136787525
 20
1029.987948751213
 10
780.1703675698207
 20
1029.988441967144
 10
780.1698350019258
 20
1029.989055312746
 10
780.169438022078
 20
1029.989763397009
 10
780.1691930642732
 20
1029.990536906974
 10
780.1691102687424
 20
1029.991343821213
  0
LINE
  5
12BF
330
1F
100
AcDbEntity
  8
SANINDUSA
100
AcDbLine
 10
780.1691102687424
 20
1030.014275291817
 30
0.0
 11
780.1691102687424
 21
1030.001097609723
 31
0.0
  0
ARC
  5
12C1
330
1F
100
AcDbEntity
  8
SANINDUSA
100
AcDbCircle
 10
780.4441102687424
 20
1030.20149193953
 30
0.0
 40
0.2094000000000001
100
AcDbArc
 50
270.0
 51
290.9569398409382
  0
LINE
  5
12C3
330
1F
100
AcDbEntity
  8
SANINDUSA
100
AcDbLine
 10
780.5326449227183
 20
1029.98209193953
 30
0.0
 11
780.4351578918271
 21
1029.98209193953
 31
0.0
  0
LINE
  5
12CD
330
1F
100
AcDbEntity
  8
SANINDUSA
100
AcDbLine
 10
780.4226102687423
 20
1029.989760401239
 30
0.0
 11
780.3756102687424
 21
1029.989760401239
 31
0.0
  0
LINE
  5
12CE
330
1F
100
AcDbEntity
  8
SANINDUSA
100
AcDbLine
 10
780.4236102687424
 20
1029.95209193953
 30
0.0
 11
780.3746102687423
 21
1029.95209193953
 31
0.0
  0
LWPOLYLINE
  5
12CF
330
1F
100
AcDbEntity
  8
SANINDUSA
100
AcDbPolyline
 90
       16
 70
   128
 43
0.0
 10
780.3593649354211
 20
1030.003633332239
 10
780.3598705896534
 20
1030.003614667102
 10
780.3613607263482
 20
1030.003560221172
 10
780.3635828151388
 20
1030.003480169488
 10
780.3665577570971
 20
1030.003375348427
 10
780.3707473713764
 20
1030.003232397469
 10
780.3756914424611
 20
1030.003071137572
 10
780.3813127355447
 20
1030.002898346782
 10
780.3874054216634
 20
1030.002724724029
 10
780.3938827792047
 20
1030.002557665236
 10
780.4004933632062
 20
1030.002407719759
 10
780.4071341597431
 20
1030.00228148309
 10
780.4135440974499
 20
1030.0021858269
 10
780.4196008492761
 20
1030.002123883627
 10
780.4250704618017
 20
1030.002095035625
 10
780.4274591974481
 20
1030.00209193953
  0
LINE
  5
12D1
330
1F
100
AcDbEntity
  8
SANINDUSA
100
AcDbLine
 10
780.3756102687424
 20
1029.989760401239
 30
0.0
 11
780.3756102687424
 21
1029.983420047772
 31
0.0
  0
LINE
  5
12D2
330
1F
100
AcDbEntity
  8
SANINDUSA
100
AcDbLine
 10
780.3742457051714
 20
1029.98248886927
 30
0.0
 11
780.3628938928107
 21
1029.986933191429
 31
0.0
  0
LINE
  5
12D3
330
1F
100
AcDbEntity
  8
SANINDUSA
100
AcDbLine
 10
780.359722275515
 20
1029.959735169053
 30
0.0
 11
780.3030842231327
 21
1029.967849863486
 31
0.0
  0
LINE
  5
12D4
330
1F
100
AcDbEntity
  8
SANINDUSA
100
AcDbLine
 10
780.3053566169416
 20
1029.978776233044
 30
0.0
 11
780.374785474899
 21
1029.966420752246
 31
0.0
  0
ARC
  5
12D5
330
1F
100
AcDbEntity
  8
SANINDUSA
100
AcDbCircle
 10
780.3037933461658
 20
1029.972799322499
 30
0.0
 40
0.0050000000000002
100
AcDbArc
 50
187.8772601122025
 51
261.8465578503268
  0
ARC
  5
12DE
330
1F
100
AcDbEntity
  8
SANINDUSA
100
AcDbCircle
 10
780.3746102687423
 20
1029.965436220478
 30
0.0
 40
0.0010000000000001
100
AcDbArc
 50
0.0
 51
79.90934463485803
  0
ARC
  5
12E5
330
1F
100
AcDbEntity
  8
SANINDUSA
100
AcDbCircle
 10
780.3746102687423
 20
1029.983420047772
 30
0.0
 40
0.0010000000000137
100
AcDbArc
 50
248.6192734121577
 51
0.0
  0
ARC
  5
12E6
330
1F
100
AcDbEntity
  8
SANINDUSA
100
AcDbCircle
 10
780.3746102687423
 20
1029.95309193953
 30
0.0
 40
0.0010000000000001
100
AcDbArc
 50
270.0
 51
0.0
  0
LINE
  5
12E7
330
1F
100
AcDbEntity
  8
SANINDUSA
100
AcDbLine
 10
780.3756102687424
 20
1029.965436220478
 30
0.0
 11
780.3756102687424
 21
1029.95309193953
 31
0.0
  0
ARC
  5
12E8
330
1F
100
AcDbEntity
  8
SANINDUSA
100
AcDbCircle
 10
780.3650759575171
 20
1029.95309193953
 30
0.0
 40
0.0010000000000001
100
AcDbArc
 50
182.0000000003947
 51
270.0
  0
LINE
  5
12E9
330
1F
100
AcDbEntity
  8
SANINDUSA
100
AcDbLine
 10
780.3640765666902
 20
1029.953057040033
 30
0.0
 11
780.3640101066169
 21
1029.954960207523
 31
0.0
  0
ARC
  5
12EA
330
1F
100
AcDbEntity
  8
SANINDUSA
100
AcDbCircle
 10
780.3590131524818
 20
1029.95478571004
 30
0.0
 40
0.005
100
AcDbArc
 50
2.000000000055804
 51
81.84655785032683
  0
LINE
  5
12EB
330
1F
100
AcDbEntity
  8
SANINDUSA
100
AcDbLine
 10
780.3746102687423
 20
1029.95209193953
 30
0.0
 11
780.3650759575171
 21
1029.95209193953
 31
0.0
  0
LINE
  5
12EC
330
1F
100
AcDbEntity
  8
SANINDUSA
100
AcDbLine
 10
780.3628938928107
 20
1029.986933191429
 30
0.0
 11
780.3345923517269
 21
1029.998013463212
 31
0.0
  0
ARC
  5
12ED
330
1F
100
AcDbEntity
  8
SANINDUSA
100
AcDbCircle
 10
780.3425643681793
 20
1030.021833101321
 30
0.0
 40
0.0150000000000001
100
AcDbArc
 50
187.9999999999983
 51
256.9792949870396
  0
LWPOLYLINE
  5
12EE
330
1F
100
AcDbEntity
  8
SANINDUSA
100
AcDbPolyline
 90
        8
 70
   128
 43
0.0
 10
780.3335239636798
 20
1030.017980067313
 10
780.3335529848999
 20
1030.017917494258
 10
780.3349728169178
 20
1030.014931811628
 10
780.3362115913357
 20
1030.01246193994
 10
780.3374659729126
 20
1030.010115662754
 10
780.338397714723
 20
1030.008492678773
 10
780.3389843591689
 20
1030.007531708868
 10
780.3391848209535
 20
1030.007218770665
  0
LWPOLYLINE
  5
12EF
330
1F
100
AcDbEntity
  8
SANINDUSA
100
AcDbPolyline
 90
        5
 70
   128
 43
0.0
 10
780.3335239636798
 20
1030.017980067313
 10
780.333319566642
 20
1030.018774264411
 10
780.333502810167
 20
1030.019501992523
 10
780.3339942864426
 20
1030.020029101021
 10
780.334833684143
 20
1030.020458572283
  0
LWPOLYLINE
  5
12F7
330
1F
100
AcDbEntity
  8
SANINDUSA
100
AcDbPolyline
 90
        9
 70
   128
 43
0.0
 10
780.334329270083
 20
1029.998120796666
 10
780.3308839468561
 20
1029.999851951924
 10
780.3276902683261
 20
1030.002012407457
 10
780.3247938721877
 20
1030.00456793173
 10
780.3222513892857
 20
1030.007475782412
 10
780.320102284986
 20
1030.010684334545
 10
780.318385003777
 20
1030.014143294118
 10
780.317126589207
 20
1030.017785290062
 10
780.3163473795454
 20
1030.021558958567
  0
ARC
  5
12F8
330
1F
100
AcDbEntity
  8
SANINDUSA
100
AcDbCircle
 10
780.3706102687424
 20
1029.989760401239
 30
0.0
 40
0.0050000000000001
100
AcDbArc
 50
0.0
 51
49.99999999997906
  0
ARC
  5
12F9
330
1F
100
AcDbEntity
  8
SANINDUSA
100
AcDbCircle
 10
780.3581239457861
 20
1029.99371063378
 30
0.0
 40
0.0100000000000002
100
AcDbArc
 50
49.99999999997906
 51
82.87127495182959
  0
ARC
  5
12FA
330
1F
100
AcDbEntity
  8
SANINDUSA
100
AcDbCircle
 10
780.3841102687423
 20
1030.20149193953
 30
0.0
 40
0.1994000000000002
100
AcDbArc
 50
256.9792949870396
 51
262.8712749518296
  0
LINE
  5
12FB
330
1F
100
AcDbEntity
  8
SANINDUSA
100
AcDbLine
 10
780.3738242067908
 20
1029.993590623455
 30
0.0
 11
780.364551821883
 21
1030.001371078211
 31
0.0
  0
LINE
  5
12FC
330
1F
100
AcDbEntity
  8
SANINDUSA
100
AcDbLine
 10
780.4226102687423
 20
1029.95309193953
 30
0.0
 11
780.4226102687423
 21
1029.989760401239
 31
0.0
  0
LINE
  5
12FD
330
1F
100
AcDbEntity
  8
SANINDUSA
100
AcDbLine
 10
780.4353385892609
 20
1029.987266437013
 30
0.0
 11
780.4341439707946
 21
1029.953057040033
 31
0.0
  0
ARC
  5
12FF
330
1F
100
AcDbEntity
  8
SANINDUSA
100
AcDbCircle
 10
780.4236102687424
 20
1029.95309193953
 30
0.0
 40
0.0010000000000001
100
AcDbArc
 50
180.0
 51
270.0
  0
LINE
  5
1300
330
1F
100
AcDbEntity
  8
SANINDUSA
100
AcDbLine
 10
780.4331445799675
 20
1029.95209193953
 30
0.0
 11
780.4236102687424
 21
1029.95209193953
 31
0.0
  0
ARC
  5
1301
330
1F
100
AcDbEntity
  8
SANINDUSA
100
AcDbCircle
 10
780.4331445799675
 20
1029.95309193953
 30
0.0
 40
0.0010000000000001
100
AcDbArc
 50
270.0
 51
358.0000000000094
  0
LINE
  5
1302
330
1F
100
AcDbEntity
  8
SANINDUSA
100
AcDbLine
 10
780.438167507011
 20
1030.00209193953
 30
0.0
 11
780.4441102687424
 21
1030.00209193953
 31
0.0
  0
LINE
  5
1303
330
1F
100
AcDbEntity
  8
SANINDUSA
100
AcDbLine
 10
780.4441102687424
 20
1029.99209193953
 30
0.0
 11
780.440335543396
 21
1029.99209193953
 31
0.0
  0
ARC
  5
1306
330
1F
100
AcDbEntity
  8
SANINDUSA
100
AcDbCircle
 10
780.438167507011
 20
1029.99209193953
 30
0.0
 40
0.0100000000000001
100
AcDbArc
 50
90.0
 51
130.0000000000209
  0
LINE
  5
1307
330
1F
100
AcDbEntity
  8
SANINDUSA
100
AcDbLine
 10
780.4317396309141
 20
1029.999752383961
 30
0.0
 11
780.4243963306939
 21
1029.993590623455
 31
0.0
  0
ARC
  5
1308
330
1F
100
AcDbEntity
  8
SANINDUSA
100
AcDbCircle
 10
780.4276102687423
 20
1029.989760401239
 30
0.0
 40
0.005
100
AcDbArc
 50
130.0000000000209
 51
180.0
  0
ARC
  5
1309
330
1F
100
AcDbEntity
  8
SANINDUSA
100
AcDbCircle
 10
780.440335543396
 20
1029.98709193953
 30
0.0
 40
0.0050000000000001
100
AcDbArc
 50
90.0
 51
177.9999999999963
  0
LINE
  5
130A
330
1F
100
AcDbEntity
  8
SANINDUSA
100
AcDbLine
 10
780.5307130710657
 20
1029.98357430144
 30
0.0
 11
780.5256235362828
 21
1030.002568703836
 31
0.0
  0
ARC
  5
130B
330
1F
100
AcDbEntity
  8
SANINDUSA
100
AcDbCircle
 10
780.640409380574
 20
1029.940963194293
 30
0.0
 40
0.1028780646057968
100
AcDbArc
 50
140.0000000000241
 51
155.7180316611062
  0
ARC
  5
130C
330
1F
100
AcDbEntity
  8
SANINDUSA
100
AcDbCircle
 10
780.5326449227183
 20
1029.98409193953
 30
0.0
 40
0.0020000000000002
100
AcDbArc
 50
194.9999999999944
 51
270.0
  0
LINE
  5
130D
330
1F
100
AcDbEntity
  8
SANINDUSA
100
AcDbLine
 10
780.5448095909837
 20
1029.98209193953
 30
0.0
 11
780.5326449227183
 21
1029.98209193953
 31
0.0
  0
ARC
  5
130E
330
1F
100
AcDbEntity
  8
SANINDUSA
100
AcDbCircle
 10
780.5448095909837
 20
1029.98409193953
 30
0.0
 40
0.002
100
AcDbArc
 50
270.0
 51
335.7180316611062
  0
LINE
  5
1310
330
1F
100
AcDbEntity
  8
SANINDUSA
100
AcDbLine
 10
780.5735496762216
 20
1030.036889996068
 30
0.0
 11
780.5539397664327
 21
1030.013519815627
 31
0.0
  0
ARC
  5
1311
330
1F
100
AcDbEntity
  8
SANINDUSA
100
AcDbCircle
 10
780.5207939071514
 20
1030.001274608611
 30
0.0
 40
0.0150000000000001
100
AcDbArc
 50
15.00000000000709
 51
42.32931636142708
  0
LINE
  5
1312
330
1F
100
AcDbEntity
  8
SANINDUSA
100
AcDbLine
 10
780.5391294009553
 20
1029.990801163729
 30
0.0
 11
780.5352827945458
 21
1030.005156894287
 31
0.0
  0
ARC
  5
1313
330
1F
100
AcDbEntity
  8
SANINDUSA
100
AcDbCircle
 10
780.4441102687424
 20
1030.20149193953
 30
0.0
 40
0.2094000000000001
100
AcDbArc
 50
294.7818174806528
 51
308.1807445920211
  0
ARC
  5
1314
330
1F
100
AcDbEntity
  8
SANINDUSA
100
AcDbCircle
 10
780.640409380574
 20
1029.940963194293
 30
0.0
 40
0.1128780646057968
100
AcDbArc
 50
140.0000000000241
 51
153.7990703830852
  0
ARC
  5
1315
330
1F
100
AcDbEntity
  8
SANINDUSA
100
AcDbCircle
 10
780.5207939071514
 20
1030.001274608611
 30
0.0
 40
0.0050000000000001
100
AcDbArc
 50
15.00000000000709
 51
110.9569398409381
  0
ARC
  5
1316
330
1F
100
AcDbEntity
  8
SANINDUSA
100
AcDbCircle
 10
780.2715862736213
 20
1030.132616456533
 30
0.0
 40
0.0050000000000005
100
AcDbArc
 50
7.87726011222808
 51
86.52438511166485
  0
ARC
  5
1317
330
1F
100
AcDbEntity
  8
SANINDUSA
100
AcDbCircle
 10
780.1899942464094
 20
1028.789215815423
 30
0.0
 40
1.362876124106904
100
AcDbArc
 50
85.29097818467482
 51
87.15414196096752
  0
LINE
  5
1324
330
1F
100
AcDbEntity
  8
SANINDUSA
100
AcDbLine
 10
780.1791102687424
 20
1030.08209193953
 30
0.0
 11
780.1791102687424
 21
1030.14009193953
 31
0.0
  0
LINE
  5
1325
330
1F
100
AcDbEntity
  8
SANINDUSA
100
AcDbLine
 10
780.1886568778524
 20
1030.136746224459
 30
0.0
 11
780.1823384634095
 21
1030.08209193953
 31
0.0
  0
LINE
  5
1326
330
1F
100
AcDbEntity
  8
SANINDUSA
100
AcDbLine
 10
780.1691102687424
 20
1030.07609193953
 30
0.0
 11
780.1691102687424
 21
1030.14809193953
 31
0.0
  0
LINE
  5
1327
330
1F
100
AcDbEntity
  8
SANINDUSA
100
AcDbLine
 10
780.198590715493
 20
1030.135597803923
 30
0.0
 11
780.1917606490582
 21
1030.076517729261
 31
0.0
  0
ARC
  5
132A
330
1F
100
AcDbEntity
  8
SANINDUSA
100
AcDbCircle
 10
780.1867937302378
 20
1030.07709193953
 30
0.0
 40
0.0050000000000001
100
AcDbArc
 50
270.0
 51
353.40548496777
  0
ARC
  5
132B
330
1F
100
AcDbEntity
  8
SANINDUSA
100
AcDbCircle
 10
780.1731102687423
 20
1030.07609193953
 30
0.0
 40
0.0040000000000001
100
AcDbArc
 50
180.0
 51
270.0
  0
LINE
  5
132C
330
1F
100
AcDbEntity
  8
SANINDUSA
100
AcDbLine
 10
780.1731102687423
 20
1030.07209193953
 30
0.0
 11
780.1867937302378
 21
1030.07209193953
 31
0.0
  0
LINE
  5
132D
330
1F
100
AcDbEntity
  8
SANINDUSA
100
AcDbLine
 10
780.1791102687424
 20
1030.08209193953
 30
0.0
 11
780.1823384634095
 21
1030.08209193953
 31
0.0
  0
LINE
  5
1331
330
1F
100
AcDbEntity
  8
SANINDUSA
100
AcDbLine
 10
780.1691102687424
 20
1030.070269893108
 30
0.0
 11
780.1691102687424
 21
1030.07609193953
 31
0.0
  0
ARC
  5
1335
330
1F
100
AcDbEntity
  8
SANINDUSA
100
AcDbCircle
 10
780.1899942464094
 20
1028.789215815423
 30
0.0
 40
1.350876124106903
100
AcDbArc
 50
88.70230798696713
 51
89.4225783311316
  0
ARC
  5
1336
330
1F
100
AcDbEntity
  8
SANINDUSA
100
AcDbCircle
 10
780.1899942464094
 20
1028.789215815423
 30
0.0
 40
1.362876124106904
100
AcDbArc
 50
88.71183830689231
 51
90.0
  0
ARC
  5
133A
330
1F
100
AcDbEntity
  8
SANINDUSA
100
AcDbCircle
 10
780.2035576343134
 20
1030.135023593655
 30
0.0
 40
0.0150000000000002
100
AcDbArc
 50
160.2516432392272
 51
173.4054849677699
  0
ARC
  5
133B
330
1F
100
AcDbEntity
  8
SANINDUSA
100
AcDbCircle
 10
780.2035576343134
 20
1030.135023593655
 30
0.0
 40
0.0050000000000001
100
AcDbArc
 50
89.4225783311837
 51
173.4054849677699
  0
ARC
  5
133D
330
1F
100
AcDbEntity
  8
SANINDUSA
100
AcDbCircle
 10
780.1731102687423
 20
1030.14809193953
 30
0.0
 40
0.0040000000000001
100
AcDbArc
 50
90.0
 51
180.0
  0
LINE
  5
133E
330
1F
100
AcDbEntity
  8
SANINDUSA
100
AcDbLine
 10
780.1791102687424
 20
1030.14009193953
 30
0.0
 11
780.1899942464094
 21
1030.14009193953
 31
0.0
  0
LINE
  5
133F
330
1F
100
AcDbEntity
  8
SANINDUSA
100
AcDbLine
 10
780.1731102687423
 20
1030.15209193953
 30
0.0
 11
780.1899942464094
 21
1030.15209193953
 31
0.0
  0
ARC
  5
1341
330
1F
100
AcDbEntity
  8
SANINDUSA
100
AcDbCircle
 10
780.1899942464094
 20
1028.789215815423
 30
0.0
 40
1.350876124106904
100
AcDbArc
 50
86.52438511166485
 51
87.13307326462688
  0
LINE
  5
1343
330
1F
100
AcDbEntity
  8
SANINDUSA
100
AcDbLine
 10
780.2216102687423
 20
1030.150747760178
 30
0.0
 11
780.2216102687423
 21
1030.140745213589
 31
0.0
  0
LINE
  5
1344
330
1F
100
AcDbEntity
  8
SANINDUSA
100
AcDbLine
 10
780.2566102687424
 20
1030.139399924518
 30
0.0
 11
780.2566102687424
 21
1030.149412364064
 31
0.0
  0
ARC
  5
1345
330
1F
100
AcDbEntity
  8
SANINDUSA
100
AcDbCircle
 10
780.2206102687423
 20
1030.140745213589
 30
0.0
 40
0.0010000000000004
100
AcDbArc
 50
268.702307986915
 51
0.0
  0
ARC
  5
1346
330
1F
100
AcDbEntity
  8
SANINDUSA
100
AcDbCircle
 10
780.2206102687423
 20
1030.150747760178
 30
0.0
 40
0.0010000000000002
100
AcDbArc
 50
0.0
 51
88.71183830689231
  0
LWPOLYLINE
  5
1347
330
1F
100
AcDbEntity
  8
SANINDUSA
100
AcDbPolyline
 90
       20
 70
   128
 43
0.0
 10
780.2575602523088
 20
1030.138401176124
 10
780.2575601332863
 20
1030.138401182084
 10
780.2572853985706
 20
1030.13841493536
 10
780.2564985156603
 20
1030.138453928157
 10
780.2552126926891
 20
1030.138516699639
 10
780.2534718973918
 20
1030.138599708356
 10
780.25074056493
 20
1030.138725425418
 10
780.2481646942619
 20
1030.13883887913
 10
780.245332103076
 20
1030.138958022032
 10
780.2423220709807
 20
1030.139078019793
 10
780.2392201960913
 20
1030.139194744355
 10
780.2361156431543
 20
1030.139304326535
 10
780.2330942509558
 20
1030.13940420683
 10
780.2302442872695
 20
1030.139492137836
 10
780.2276430193728
 20
1030.139567203979
 10
780.2253681254219
 20
1030.139628703107
 10
780.2234794268708
 20
1030.13967686461
 10
780.2220360050101
 20
1030.139711896704
 10
780.2210727309406
 20
1030.139734393778
 10
780.2205876216804
 20
1030.139745470066
  0
ARC
  5
1348
330
1F
100
AcDbEntity
  8
SANINDUSA
100
AcDbCircle
 10
780.2576102687424
 20
1030.139399924518
 30
0.0
 40
0.0010000000000003
100
AcDbArc
 50
180.0
 51
267.1330732645747
  0
LWPOLYLINE
  5
1349
330
1F
100
AcDbEntity
  8
SANINDUSA
100
AcDbPolyline
 90
       19
 70
   128
 43
0.0
 10
780.2206327495113
 20
1030.151747507454
 10
780.2211361879677
 20
1030.151736093854
 10
780.222113279043
 20
1030.151713424182
 10
780.223570164131
 20
1030.15167828735
 10
780.2254721673139
 20
1030.151630077466
 10
780.2277589840884
 20
1030.15156861637
 10
780.2303714577779
 20
1030.15149365765
 10
780.2332305538702
 20
1030.15140594583
 10
780.2362596388156
 20
1030.151306381869
 10
780.2393696497264
 20
1030.151197239381
 10
780.2424747525853
 20
1030.151081078837
 10
780.2454860026988
 20
1030.150961751582
 10
780.2483170497009
 20
1030.150843405148
 10
780.2508896672277
 20
1030.150730808871
 10
780.2531259348668
 20
1030.150628941179
 10
780.2549679900577
 20
1030.150542279684
 10
780.256622121942
 20
1030.150462323541
 10
780.257396767272
 20
1030.150424209296
 10
780.2576599179147
 20
1030.150411130784
  0
ARC
  5
134A
330
1F
100
AcDbEntity
  8
SANINDUSA
100
AcDbCircle
 10
780.2576102687424
 20
1030.149412364064
 30
0.0
 40
0.0010000000000002
100
AcDbArc
 50
87.15414196096752
 51
180.0
  0
LWPOLYLINE
  5
134D
330
1F
100
AcDbEntity
  8
SANINDUSA
100
AcDbPolyline
 90
       46
 70
   128
 43
0.0
 10
780.3776898805169
 20
1030.108953564766
 10
780.3897070105528
 20
1030.109027191282
 10
780.4020545148513
 20
1030.109144956314
 10
780.4146961573662
 20
1030.109306905928
 10
780.4277252273227
 20
1030.109515473625
 10
780.4409634841025
 20
1030.109769294279
 10
780.4439586506453
 20
1030.109832503983
 10
780.4469609776223
 20
1030.109898000472
 10
780.4499697916542
 20
1030.109965785045
 10
780.4529844040634
 20
1030.110035859041
 10
780.4560041108547
 20
1030.110108223843
 10
780.459028192704
 20
1030.110182880879
 10
780.4620559149553
 20
1030.110259831617
 10
780.4704047441293
 20
1030.110484547757
 10
780.4794756706377
 20
1030.110747570264
 10
780.4892196596285
 20
1030.111048985377
 10
780.4995739933916
 20
1030.111388891328
 10
780.505735283136
 20
1030.111600446759
 10
780.5120533433489
 20
1030.111824628567
 10
780.5185089224914
 20
1030.112061460196
 10
780.5250806101513
 20
1030.112310966288
 10
780.5317447225125
 20
1030.112573172667
 10
780.5384751966985
 20
1030.112848106321
 10
780.5452434963935
 20
1030.113135795379
 10
780.5548794842547
 20
1030.113562071957
 10
780.5635189385026
 20
1030.113959981428
 10
780.5712140162382
 20
1030.114329427582
 10
780.5780226885873
 20
1030.11467032182
 10
780.5840066589471
 20
1030.114982583011
 10
780.5889037214819
 20
1030.115248128213
 10
780.5931897170695
 20
1030.115488612175
 10
780.5969158008184
 20
1030.11570398597
 10
780.6010604659498
 20
1030.115949757526
 10
780.6015430853672
 20
1030.115978691742
 10
780.602012531563
 20
1030.116006872709
 10
780.6024690313364
 20
1030.116034300258
 10
780.6029128084743
 20
1030.116060974224
 10
780.6033440836751
 20
1030.116086894447
 10
780.603763074476
 20
1030.116112060772
 10
780.609019864859
 20
1030.116431783977
 10
780.6134680936652
 20
1030.116710174501
 10
780.6171356987858
 20
1030.116947141054
 10
780.6200542070097
 20
1030.117142606365
 10
780.6228403293881
 20
1030.117338561635
 10
780.6244447474909
 20
1030.117460513158
 10
780.6249613776608
 20
1030.117508391123
  0
LWPOLYLINE
  5
134E
330
1F
100
AcDbEntity
  8
SANINDUSA
100
AcDbPolyline
 90
       22
 70
   128
 43
0.0
 10
780.4699717089853
 20
1030.134526009043
 10
780.4728575908439
 20
1030.134514465149
 10
780.4843106176856
 20
1030.134468136083
 10
780.4993858576124
 20
1030.134405854135
 10
780.5141214408539
 20
1030.134343491642
 10
780.5284395535188
 20
1030.13428141703
 10
780.5441093249441
 20
1030.134211668833
 10
780.5591707296229
 20
1030.134142764212
 10
780.5735267991969
 20
1030.13407532444
 10
780.5870805653078
 20
1030.134009970792
 10
780.5997350595974
 20
1030.133947324541
 10
780.611466095665
 20
1030.133887691569
 10
780.6222691882144
 20
1030.133831394815
 10
780.6320787464372
 20
1030.133779071971
 10
780.6408291795251
 20
1030.133731360731
 10
780.6484548966698
 20
1030.133688898791
 10
780.6549444849371
 20
1030.133652078081
 10
780.6602908144628
 20
1030.13362124849
 10
780.6644665368816
 20
1030.133596805596
 10
780.6674443038274
 20
1030.133579144977
 10
780.6691967669348
 20
1030.133568662211
 10
780.6697234783862
 20
1030.133565509601
  0
LWPOLYLINE
  5
1350
330
1F
100
AcDbEntity
  8
SANINDUSA
100
AcDbPolyline
 90
        5
 70
   128
 43
0.0
 10
780.3909975338876
 20
1030.130035367711
 10
780.3950349508095
 20
1030.131588430491
 10
780.3984383975257
 20
1030.133191279277
 10
780.3997306427227
 20
1030.134008811151
 10
780.4004480404541
 20
1030.134707876677
  0
LWPOLYLINE
  5
1351
330
1F
100
AcDbEntity
  8
SANINDUSA
100
AcDbPolyline
 90
        3
 70
   128
 43
0.0
 10
780.3944849303104
 20
1030.135449421301
 10
780.3949396139366
 20
1030.135325213122
 10
780.3953970106451
 20
1030.135213751967
  0
LWPOLYLINE
  5
1352
330
1F
100
AcDbEntity
  8
SANINDUSA
100
AcDbPolyline
 90
       20
 70
   128
 43
0.0
 10
780.3064233538138
 20
1030.092172070782
 10
780.3064232840816
 20
1030.09217250135
 10
780.3063875034523
 20
1030.092393491482
 10
780.3062886637743
 20
1030.093006884154
 10
780.3061268746571
 20
1030.09401810383
 10
780.3059107106614
 20
1030.095384204904
 10
780.3055986747359
 20
1030.097387489519
 10
780.305288826703
 20
1030.099415635883
 10
780.3049544200956
 20
1030.101649943841
 10
780.3046074759281
 20
1030.104022632177
 10
780.3042581357923
 20
1030.106470564655
 10
780.3039192423288
 20
1030.108907925781
 10
780.3035971715957
 20
1030.111284486684
 10
780.3033027253339
 20
1030.113514223965
 10
780.3030394631652
 20
1030.115556349764
 10
780.3028144779179
 20
1030.117341405185
 10
780.3026302135357
 20
1030.118832070255
 10
780.3024905589217
 20
1030.119980086779
 10
780.3023972185489
 20
1030.12075676864
 10
780.3023476696073
 20
1030.121172070782
  0
LWPOLYLINE
  5
1353
330
1F
100
AcDbEntity
  8
SANINDUSA
100
AcDbPolyline
 90
       19
 70
   128
 43
0.0
 10
780.3134166538975
 20
1030.121450416984
 10
780.3134579274358
 20
1030.121104969329
 10
780.313545370762
 20
1030.120377776545
 10
780.3136794288392
 20
1030.119275667312
 10
780.3138583810599
 20
1030.117826812412
 10
780.3140786030231
 20
1030.116077064571
 10
780.3143375221234
 20
1030.114064596316
 10
780.3146284286874
 20
1030.111856194279
 10
780.3149476900677
 20
1030.109493578138
 10
780.3152848101803
 20
1030.10706128829
 10
780.3156335684833
 20
1030.104609233736
 10
780.3159811353335
 20
1030.102224105958
 10
780.316317748635
 20
1030.099967357984
 10
780.3166310532438
 20
1030.097909781164
 10
780.3169086312997
 20
1030.09612009913
 10
780.317141760537
 20
1030.094639592551
 10
780.3173410558029
 20
1030.093389770084
 10
780.3174537033468
 20
1030.09268933309
 10
780.3174923381038
 20
1030.092450416984
  0
ARC
  5
1354
330
1F
100
AcDbEntity
  8
SANINDUSA
100
AcDbCircle
 10
780.316502070035
 20
1030.092311243883
 30
0.0
 40
0.0010000000000001
100
AcDbArc
 50
8.000000000185805
 51
90.0
  0
LINE
  5
1355
330
1F
100
AcDbEntity
  8
SANINDUSA
100
AcDbLine
 10
780.3074136218825
 20
1030.093311243883
 30
0.0
 11
780.316502070035
 21
1030.093311243883
 31
0.0
  0
ARC
  5
1356
330
1F
100
AcDbEntity
  8
SANINDUSA
100
AcDbCircle
 10
780.3074136218825
 20
1030.092311243883
 30
0.0
 40
0.0010000000000002
100
AcDbArc
 50
90.0
 51
187.9999999999983
  0
LINE
  5
1358
330
1F
100
AcDbEntity
  8
SANINDUSA
100
AcDbLine
 10
780.3904473706095
 20
1030.13634572241
 30
0.0
 11
780.3108045088845
 21
1030.139767823996
 31
0.0
  0
LINE
  5
1359
330
1F
100
AcDbEntity
  8
SANINDUSA
100
AcDbLine
 10
780.3903955319981
 20
1030.136352286597
 30
0.0
 11
780.3091605944363
 21
1030.143347182668
 31
0.0
  0
ARC
  5
135A
330
1F
100
AcDbEntity
  8
SANINDUSA
100
AcDbCircle
 10
780.3010592050768
 20
1030.137525268825
 30
0.0
 40
0.0100000000000004
100
AcDbArc
 50
22.60105555933127
 51
85.29097818467482
  0
ARC
  5
135D
330
1F
100
AcDbEntity
  8
SANINDUSA
100
AcDbCircle
 10
780.3010592050768
 20
1030.137525268825
 30
0.0
 40
0.0100000000000001
100
AcDbArc
 50
7.999999999998342
 51
22.60105555931887
  0
ARC
  5
135E
330
1F
100
AcDbEntity
  8
SANINDUSA
100
AcDbCircle
 10
780.1899942464094
 20
1028.789215815423
 30
0.0
 40
1.350876124106903
100
AcDbArc
 50
85.31532529349304
 51
86.00815114798413
  0
ARC
  5
1360
330
1F
100
AcDbEntity
  8
SANINDUSA
100
AcDbCircle
 10
780.3124263858287
 20
1030.121311243883
 30
0.0
 40
0.001
100
AcDbArc
 50
270.0
 51
8.000000000010663
  0
LINE
  5
1361
330
1F
100
AcDbEntity
  8
SANINDUSA
100
AcDbLine
 10
780.3124263858287
 20
1030.120311243883
 30
0.0
 11
780.303337937676
 21
1030.120311243883
 31
0.0
  0
ARC
  5
1362
330
1F
100
AcDbEntity
  8
SANINDUSA
100
AcDbCircle
 10
780.303337937676
 20
1030.121311243883
 30
0.0
 40
0.0009999999999999
100
AcDbArc
 50
187.9999999999983
 51
270.0
  0
LINE
  5
1363
330
1F
100
AcDbEntity
  8
SANINDUSA
100
AcDbLine
 10
780.3109618857641
 20
1030.138916999835
 30
0.0
 11
780.3134166538974
 21
1030.121450416984
 31
0.0
  0
LINE
  5
1364
330
1F
100
AcDbEntity
  8
SANINDUSA
100
AcDbLine
 10
780.30032290435
 20
1030.135579024189
 30
0.0
 11
780.3023476696073
 21
1030.121172070782
 31
0.0
  0
LWPOLYLINE
  5
1366
330
1F
100
AcDbEntity
  8
SANINDUSA
100
AcDbPolyline
 90
        5
 70
   128
 43
0.0
 10
780.3944849303104
 20
1030.135449421301
 10
780.3938837170967
 20
1030.135374029808
 10
780.3917035836677
 20
1030.135121422461
 10
780.3869032487146
 20
1030.134626845549
 10
780.3818526651353
 20
1030.134156057986
  0
LWPOLYLINE
  5
1368
330
1F
100
AcDbEntity
  8
SANINDUSA
100
AcDbPolyline
 90
        4
 70
   128
 43
0.0
 10
780.3904473706096
 20
1030.13634572241
 10
780.3918303108854
 20
1030.136158168884
 10
780.3931813592701
 20
1030.135858248572
 10
780.3944849303104
 20
1030.135449421301
  0
LWPOLYLINE
  5
1369
330
1F
100
AcDbEntity
  8
SANINDUSA
100
AcDbPolyline
 90
        5
 70
   128
 43
0.0
 10
780.3818526562455
 20
1030.134156067357
 10
780.3795119586522
 20
1030.133822203792
 10
780.3773104914641
 20
1030.133232618784
 10
780.3740870940766
 20
1030.131788979964
 10
780.370722557317
 20
1030.129655604483
  0
LWPOLYLINE
  5
136A
330
1F
100
AcDbEntity
  8
SANINDUSA
100
AcDbPolyline
 90
        6
 70
   128
 43
0.0
 10
780.377689984282
 20
1030.108950039774
 10
780.3776899903072
 20
1030.108950092016
 10
780.3786905560441
 20
1030.113843135634
 10
780.380112185261
 20
1030.117529143343
 10
780.3819381338537
 20
1030.1207113943
 10
780.382293091878
 20
1030.121218115187
  0
LWPOLYLINE
  5
136B
330
1F
100
AcDbEntity
  8
SANINDUSA
100
AcDbPolyline
 90
        5
 70
   128
 43
0.0
 10
780.3776899841615
 20
1030.108950037966
 10
780.3744956693667
 20
1030.109484640244
 10
780.3715717725847
 20
1030.110333165712
 10
780.3690611115196
 20
1030.111454168154
 10
780.3670863193815
 20
1030.112792892219
  0
LWPOLYLINE
  5
136C
330
1F
100
AcDbEntity
  8
SANINDUSA
100
AcDbPolyline
 90
        8
 70
   128
 43
0.0
 10
780.382293091878
 20
1030.121218115187
 10
780.3837148845977
 20
1030.123260319128
 10
780.3849745988811
 20
1030.125110256173
 10
780.3861810369347
 20
1030.126752693113
 10
780.3874077139733
 20
1030.128102876066
 10
780.3890243212171
 20
1030.129285146055
 10
780.3909974527514
 20
1030.130035385397
 10
780.3909974805384
 20
1030.130035392217
  0
LWPOLYLINE
  5
136D
330
1F
100
AcDbEntity
  8
SANINDUSA
100
AcDbPolyline
 90
        6
 70
   128
 43
0.0
 10
780.370722557317
 20
1030.129655604483
 10
780.3704221122426
 20
1030.128959180484
 10
780.3689078022581
 20
1030.12458484419
 10
780.3677873417139
 20
1030.119519245832
 10
780.3673486159039
 20
1030.116260748183
 10
780.3670863192031
 20
1030.112792892428
  0
LWPOLYLINE
  5
136F
330
1F
100
AcDbEntity
  8
SANINDUSA
100
AcDbPolyline
 90
        5
 70
   128
 43
0.0
 10
780.4064680246913
 20
1030.134770381858
 10
780.4223831488881
 20
1030.134710792952
 10
780.4382724604456
 20
1030.134650218373
 10
780.4541922564731
 20
1030.134588410102
 10
780.4699717089853
 20
1030.134526009043
  0
LWPOLYLINE
  5
1370
330
1F
100
AcDbEntity
  8
SANINDUSA
100
AcDbPolyline
 90
        3
 70
   128
 43
0.0
 10
780.4004480404541
 20
1030.134707876677
 10
780.403422512678
 20
1030.134760094461
 10
780.4064680246913
 20
1030.134770381858
  0
LWPOLYLINE
  5
1371
330
1F
100
AcDbEntity
  8
SANINDUSA
100
AcDbPolyline
 90
        4
 70
   128
 43
0.0
 10
780.3953970106451
 20
1030.135213751967
 10
780.3973078981811
 20
1030.134867141023
 10
780.399381416008
 20
1030.134703079493
 10
780.4004480404541
 20
1030.134707876677
  0
ARC
  5
1375
330
1F
100
AcDbEntity
  8
SANINDUSA
100
AcDbCircle
 10
780.7301967437913
 20
1030.023900359055
 30
0.0
 40
0.1283481933691248
100
AcDbArc
 50
131.9006521861228
 51
140.0000000000241
  0
ARC
  5
1376
330
1F
100
AcDbEntity
  8
SANINDUSA
100
AcDbCircle
 10
780.6430998233634
 20
1030.109082431622
 30
0.0
 40
0.0100000000000002
100
AcDbArc
 50
99.09537232513935
 51
155.0901385371521
  0
LWPOLYLINE
  5
1379
330
1F
100
AcDbEntity
  8
SANINDUSA
100
AcDbPolyline
 90
        5
 70
   128
 43
0.0
 10
780.6249613049254
 20
1030.1175084249
 10
780.6275298547443
 20
1030.121650714184
 10
780.6310366520821
 20
1030.125035735387
 10
780.6352495981458
 20
1030.127487817391
 10
780.6399356155907
 20
1030.128830549148
  0
ARC
  5
137C
330
1F
100
AcDbEntity
  8
SANINDUSA
100
AcDbCircle
 10
780.4441102687424
 20
1030.20149193953
 30
0.0
 40
0.2094000000000001
100
AcDbArc
 50
331.8192554079801
 51
335.0908105099429
  0
LINE
  5
137D
330
1F
100
AcDbEntity
  8
SANINDUSA
100
AcDbLine
 10
780.6318763234766
 20
1030.106400987478
 30
0.0
 11
780.6286884560515
 21
1030.102601835022
 31
0.0
  0
ARC
  5
1380
330
1F
100
AcDbEntity
  8
SANINDUSA
100
AcDbCircle
 10
780.7301967437913
 20
1030.023900359055
 30
0.0
 40
0.1183481933691248
100
AcDbArc
 50
119.685318543433
 51
140.0000000000241
  0
LWPOLYLINE
  5
1381
330
1F
100
AcDbEntity
  8
SANINDUSA
100
AcDbPolyline
 90
        3
 70
   128
 43
0.0
 10
780.6399356169707
 20
1030.12883054052
 10
780.6551403316872
 20
1030.131255210584
 10
780.6697234783862
 20
1030.133565509601
  0
ARC
  5
1382
330
1F
100
AcDbEntity
  8
SANINDUSA
100
AcDbCircle
 10
780.6702696474979
 20
1030.130108386621
 30
0.0
 40
0.0035000000000001
100
AcDbArc
 50
320.616756416774
 51
98.97760029023103
  0
LINE
  5
1383
330
1F
100
AcDbEntity
  8
SANINDUSA
100
AcDbLine
 10
780.641519040212
 20
1030.118956697399
 30
0.0
 11
780.6444805544188
 21
1030.119430425634
 31
0.0
  0
ARC
  5
1384
330
1F
100
AcDbEntity
  8
SANINDUSA
100
AcDbCircle
 10
780.6691102687424
 20
1030.131060143365
 30
0.0
 40
0.0050000000000003
100
AcDbArc
 50
299.685318543433
 51
320.616756416774
  0
LINE
  5
16F9
330
1F
100
AcDbEntity
  8
BLOCKS
100
AcDbLine
 10
779.7509813957848
 20
1029.982117520764
 30
0.0
 11
779.4574679986941
 21
1029.982117520764
 31
0.0
  0
ARC
  5
16FA
330
1F
100
AcDbEntity
  8
BLOCKS
100
AcDbCircle
 10
779.0614131508607
 20
1029.721285145989
 30
0.0
 40
0.4742288163141297
100
AcDbArc
 50
4.246014886150839
 51
33.36795702750301
  0
LINE
  5
16FC
330
1F
100
AcDbEntity
  8
BLOCKS
100
AcDbLine
 10
779.5343406972395
 20
1029.322117520764
 30
0.0
 11
779.6741086972395
 21
1029.322117520764
 31
0.0
  0
LINE
  5
16FD
330
1F
100
AcDbEntity
  8
BLOCKS
100
AcDbLine
 10
779.5343406972395
 20
1029.756396520763
 30
0.0
 11
779.5343406972395
 21
1029.322117520764
 31
0.0
  0
LINE
  5
16FE
330
1F
100
AcDbEntity
  8
BLOCKS
100
AcDbLine
 10
779.6741086972395
 20
1029.756396520763
 30
0.0
 11
779.6741086972395
 21
1029.322117520764
 31
0.0
  0
ARC
  5
170D
330
1F
100
AcDbEntity
  8
BLOCKS
100
AcDbCircle
 10
780.1470362436191
 20
1029.721285145989
 30
0.0
 40
0.4742288163151206
100
AcDbArc
 50
146.6320429725039
 51
175.7539851138025
  0
LINE
  5
170F
330
1F
100
AcDbEntity
  8
SANINDUSA
100
AcDbLine
 10
778.6546535570074
 20
1029.992317360798
 30
0.0
 11
778.6546535570074
 21
1030.01532928477
 31
0.0
  0
LINE
  5
1710
330
1F
100
AcDbEntity
  8
SANINDUSA
100
AcDbLine
 10
779.1250800561726
 20
1030.099998692615
 30
0.0
 11
779.047143499129
 21
1030.007117520764
 31
0.0
  0
LINE
  5
1712
330
1F
100
AcDbEntity
  8
SANINDUSA
100
AcDbLine
 10
778.8846535570074
 20
1029.982117520764
 30
0.0
 11
779.0303528792486
 21
1029.982117520764
 31
0.0
  0
ARC
  5
1713
330
1F
100
AcDbEntity
  8
SANINDUSA
100
AcDbCircle
 10
779.125952668839
 20
1029.940988775527
 30
0.0
 40
0.1028780646057966
100
AcDbArc
 50
140.0000000000223
 51
155.7180316611067
  0
ARC
  5
1716
330
1F
100
AcDbEntity
  8
SANINDUSA
100
AcDbCircle
 10
779.0303528792486
 20
1029.984117520764
 30
0.0
 40
0.002
100
AcDbArc
 50
270.0
 51
335.7180316611068
  0
LINE
  5
1717
330
1F
100
AcDbEntity
  8
SANINDUSA
100
AcDbLine
 10
778.7789336758654
 20
1029.994613481952
 30
0.0
 11
778.6588943795476
 21
1029.987373306174
 31
0.0
  0
LINE
  5
1718
330
1F
100
AcDbEntity
  8
SANINDUSA
100
AcDbLine
 10
778.7971740324636
 20
1029.982117520764
 30
0.0
 11
778.7944100654877
 21
1029.982117520764
 31
0.0
  0
LINE
  5
171C
330
1F
100
AcDbEntity
  8
SANINDUSA
100
AcDbLine
 10
778.8846535570074
 20
1029.982117520764
 30
0.0
 11
778.7971740324636
 21
1029.982117520764
 31
0.0
  0
LINE
  5
1722
330
1F
100
AcDbEntity
  8
SANINDUSA
100
AcDbLine
 10
778.7924403414934
 20
1029.983644696051
 30
0.0
 11
778.7917820526795
 21
1029.986414708398
 31
0.0
  0
LWPOLYLINE
  5
1724
330
1F
100
AcDbEntity
  8
SANINDUSA
100
AcDbPolyline
 90
        9
 70
   128
 43
0.0
 10
778.7924403414934
 20
1029.983644696051
 10
778.7925456012557
 20
1029.983329112614
 10
778.7927017163069
 20
1029.983035342957
 10
778.7929043672355
 20
1029.982771515139
 10
778.7931479470688
 20
1029.98254492878
 10
778.7934257164081
 20
1029.982361853103
 10
778.7937299898948
 20
1029.98222735347
 10
778.7940523488501
 20
1029.982145151234
 10
778.7943836476525
 20
1029.982117520764
  0
LWPOLYLINE
  5
1725
330
1F
100
AcDbEntity
  8
SANINDUSA
100
AcDbPolyline
 90
        3
 70
   128
 43
0.0
 10
778.7812890590226
 20
1029.994507554312
 10
778.7800786576875
 20
1029.994630866425
 10
778.7789311086984
 20
1029.994588078899
  0
LWPOLYLINE
  5
1726
330
1F
100
AcDbEntity
  8
SANINDUSA
100
AcDbPolyline
 90
        6
 70
   128
 43
0.0
 10
778.7917361836283
 20
1029.986413252477
 10
778.7914849477693
 20
1029.987328937113
 10
778.7907773120744
 20
1029.988733064158
 10
778.789861842343
 20
1029.989958393348
 10
778.7885933762232
 20
1029.991246718986
 10
778.7881509316389
 20
1029.991611961697
  0
LWPOLYLINE
  5
1727
330
1F
100
AcDbEntity
  8
SANINDUSA
100
AcDbPolyline
 90
        4
 70
   128
 43
0.0
 10
778.7881604183808
 20
1029.991615082666
 10
778.7877996501615
 20
1029.991918721695
 10
778.7861816960428
 20
1029.993003967786
 10
778.7853216673284
 20
1029.9934183709
  0
LWPOLYLINE
  5
1728
330
1F
100
AcDbEntity
  8
SANINDUSA
100
AcDbPolyline
 90
        3
 70
   128
 43
0.0
 10
778.7853216673284
 20
1029.9934183709
 10
778.7838597622334
 20
1029.993993629022
 10
778.7812890590226
 20
1029.994507554312
  0
ARC
  5
172B
330
1F
100
AcDbEntity
  8
SANINDUSA
100
AcDbCircle
 10
778.6586535570074
 20
1029.991366050156
 30
0.0
 40
0.0039999999999999
100
AcDbArc
 50
180.0
 51
273.4516161264876
  0
LINE
  5
172C
330
1F
100
AcDbEntity
  8
SANINDUSA
100
AcDbLine
 10
778.8920378311287
 20
1030.126741932389
 30
0.0
 11
779.1571297373786
 21
1030.126741932389
 31
0.0
  0
LWPOLYLINE
  5
172D
330
1F
100
AcDbEntity
  8
SANINDUSA
100
AcDbPolyline
 90
        9
 70
   128
 43
0.0
 10
778.8920231741802
 20
1030.134827885176
 10
778.8970668310796
 20
1030.134809355127
 10
778.906385335117
 20
1030.134774761171
 10
778.915614563748
 20
1030.134740139845
 10
778.9247663683307
 20
1030.134705450433
 10
778.9338463662169
 20
1030.134670674395
 10
778.942860055186
 20
1030.134635792791
 10
778.9518122889217
 20
1030.134600788346
 10
778.9556384347909
 20
1030.134585671842
  0
ARC
  5
172E
330
1F
100
AcDbEntity
  8
SANINDUSA
100
AcDbCircle
 10
779.1558129357627
 20
1030.130133967854
 30
0.0
 40
0.0035000000000001
100
AcDbArc
 50
320.6167564167776
 51
89.74169522796058
  0
ARC
  5
172F
330
1F
100
AcDbEntity
  8
SANINDUSA
100
AcDbCircle
 10
779.1546535570073
 20
1030.131085724599
 30
0.0
 40
0.0050000000000005
100
AcDbArc
 50
299.6853185434309
 51
320.5968562559111
  0
ARC
  5
1730
330
1F
100
AcDbEntity
  8
SANINDUSA
100
AcDbCircle
 10
779.2157400320562
 20
1030.023925940289
 30
0.0
 40
0.1183481933691248
100
AcDbArc
 50
119.6853185434309
 51
140.0000000000223
  0
LWPOLYLINE
  5
1731
330
1F
100
AcDbEntity
  8
SANINDUSA
100
AcDbPolyline
 90
       40
 70
   128
 43
0.0
 10
778.9556369862315
 20
1030.134585675373
 10
778.9636051132089
 20
1030.13455404432
 10
778.9724592588663
 20
1030.134518414229
 10
778.9811948718281
 20
1030.13448277489
 10
778.9897779011787
 20
1030.134447267008
 10
778.998181271076
 20
1030.134412003009
 10
779.0064429794145
 20
1030.134376828407
 10
779.014595787597
 20
1030.134341622069
 10
779.022614425507
 20
1030.134306510018
 10
779.0304869390539
 20
1030.134271563114
 10
779.0382013206334
 20
1030.134236853548
 10
779.0457456137345
 20
1030.13420245435
 10
779.0531079960252
 20
1030.134168438961
 10
779.0602768623249
 20
1030.134134880795
 10
779.0672400438291
 20
1030.134101856907
 10
779.0739866793172
 20
1030.134069439134
 10
779.0805063972895
 20
1030.134037697732
 10
779.0867893556265
 20
1030.134006701074
 10
779.0928262921912
 20
1030.133976515283
 10
779.0986054052389
 20
1030.133947227008
 10
779.104140399324
 20
1030.133918821849
 10
779.1094389153238
 20
1030.133891296113
 10
779.1144660875767
 20
1030.133864866261
 10
779.1192252586057
 20
1030.13383955301
 10
779.1237174782971
 20
1030.133815388631
 10
779.1279443121201
 20
1030.133792402301
 10
779.1319036777724
 20
1030.133770643567
 10
779.1355508302659
 20
1030.133750401065
 10
779.1389054038711
 20
1030.133731605775
 10
779.1419729042047
 20
1030.133714263676
 10
779.1447452116247
 20
1030.13369845714
 10
779.1472147332147
 20
1030.133684266553
 10
779.1493748416821
 20
1030.13367176754
 10
779.1512218702105
 20
1030.133661020173
 10
779.152753968132
 20
1030.133652069232
 10
779.1539807985575
 20
1030.133644873312
 10
779.1549017768801
 20
1030.133639448775
 10
779.1555105542199
 20
1030.133635845979
 10
779.1558030395356
 20
1030.133634102248
 10
779.1558305997859
 20
1030.133633933206
  0
LWPOLYLINE
  5
1732
330
1F
100
AcDbEntity
  8
SANINDUSA
100
AcDbPolyline
 90
        4
 70
   128
 43
0.0
 10
778.6755375346744
 20
1030.152117520764
 10
778.7007428305585
 20
1030.15188442501
 10
778.7259395046064
 20
1030.151185217483
 10
778.7511189379308
 20
1030.150020137357
  0
LWPOLYLINE
  5
1733
330
1F
100
AcDbEntity
  8
SANINDUSA
100
AcDbPolyline
 90
        4
 70
   128
 43
0.0
 10
778.7503399490481
 20
1030.070540670617
 10
778.7056119993057
 20
1030.080159335004
 10
778.6608993923851
 20
1030.089852111349
 10
778.6583451835249
 20
1030.090407200005
  0
LINE
  5
1734
330
1F
100
AcDbEntity
  8
SANINDUSA
100
AcDbLine
 10
778.7681721080714
 20
1030.142013969833
 30
0.0
 11
778.7682277528183
 21
1030.077008021067
 31
0.0
  0
LINE
  5
1735
330
1F
100
AcDbEntity
  8
SANINDUSA
100
AcDbLine
 10
778.7509818290303
 20
1030.073758057297
 30
0.0
 11
778.7509195392383
 21
1030.146526957178
 31
0.0
  0
LINE
  5
1736
330
1F
100
AcDbEntity
  8
SANINDUSA
100
AcDbLine
 10
778.8162003211725
 20
1030.099998692615
 30
0.0
 11
778.7703914081563
 21
1030.073794083018
 31
0.0
  0
LWPOLYLINE
  5
1737
330
1F
100
AcDbEntity
  8
SANINDUSA
100
AcDbPolyline
 90
       10
 70
   128
 43
0.0
 10
778.8804749328453
 20
1030.125307016448
 10
778.8724804688928
 20
1030.122996397559
 10
778.864675640563
 20
1030.120552132119
 10
778.8570709766089
 20
1030.117977517455
 10
778.8496767357611
 20
1030.115276026736
 10
778.8425028928879
 20
1030.112451304286
 10
778.8355591255396
 20
1030.10950716067
 10
778.828854800894
 20
1030.106447567552
 10
778.8223989631191
 20
1030.103276652341
 10
778.8162003211725
 20
1030.099998692615
  0
LWPOLYLINE
  5
1738
330
1F
100
AcDbEntity
  8
SANINDUSA
100
AcDbPolyline
 90
        4
 70
   128
 43
0.0
 10
778.8920378311287
 20
1030.126741932389
 10
778.8888465516164
 20
1030.126642303569
 10
778.8856445521616
 20
1030.126335699135
 10
778.8846535570074
 20
1030.126195839576
  0
LINE
  5
1739
330
1F
100
AcDbEntity
  8
SANINDUSA
100
AcDbLine
 10
778.8846535570074
 20
1030.126195839576
 30
0.0
 11
778.8804749328455
 21
1030.125307016448
 31
0.0
  0
LWPOLYLINE
  5
173A
330
1F
100
AcDbEntity
  8
SANINDUSA
100
AcDbPolyline
 90
        9
 70
   128
 43
0.0
 10
778.7509818290301
 20
1030.073758057297
 10
778.7508942060919
 20
1030.073320028306
 10
778.7508073444792
 20
1030.072885486205
 10
778.7507219388938
 20
1030.072457906379
 10
778.7506386723933
 20
1030.072040708525
 10
778.7505582109264
 20
1030.071637229311
 10
778.7504811980083
 20
1030.071250695683
 10
778.750408249573
 20
1030.070884199063
 10
778.7503399490481
 20
1030.070540670617
  0
LWPOLYLINE
  5
173B
330
1F
100
AcDbEntity
  8
SANINDUSA
100
AcDbPolyline
 90
        4
 70
   128
 43
0.0
 10
778.7703914081562
 20
1030.073794083018
 10
778.768160460048
 20
1030.072605679055
 10
778.7658784982111
 20
1030.071563416862
 10
778.7635522581231
 20
1030.0706703728
  0
ARC
  5
173C
330
1F
100
AcDbEntity
  8
SANINDUSA
100
AcDbCircle
 10
778.7591298069663
 20
1030.111739790279
 30
0.0
 40
0.0421263464245584
100
AcDbArc
 50
257.9564772623675
 51
266.8023866819529
  0
LWPOLYLINE
  5
173D
330
1F
100
AcDbEntity
  8
SANINDUSA
100
AcDbPolyline
 90
        7
 70
   128
 43
0.0
 10
778.7635523973785
 20
1030.070670421326
 10
778.7635523422974
 20
1030.0706704031
 10
778.7614450976846
 20
1030.070098523405
 10
778.7592676366452
 20
1030.069762061988
 10
778.757052448042
 20
1030.069672827228
 10
778.7567796175688
 20
1030.06967895845
 10
778.7567795583287
 20
1030.069678960183
  0
LWPOLYLINE
  5
173E
330
1F
100
AcDbEntity
  8
SANINDUSA
100
AcDbPolyline
 90
        9
 70
   128
 43
0.0
 10
778.7682277528183
 20
1030.077008021067
 10
778.7684472294687
 20
1030.076559694462
 10
778.7686865448084
 20
1030.076115942649
 10
778.7689432568279
 20
1030.075681293736
 10
778.7692147459995
 20
1030.075260182948
 10
778.7694982420072
 20
1030.07485690736
 10
778.7697908520153
 20
1030.074475582057
 10
778.770089590188
 20
1030.07412009814
 10
778.7703914081562
 20
1030.073794083018
  0
LINE
  5
173F
330
1F
100
AcDbEntity
  8
SANINDUSA
100
AcDbLine
 10
778.7699869301952
 20
1030.145501066319
 30
0.0
 11
778.875938820263
 21
1030.136377867831
 31
0.0
  0
LWPOLYLINE
  5
1740
330
1F
100
AcDbEntity
  8
SANINDUSA
100
AcDbPolyline
 90
        4
 70
   128
 43
0.0
 10
778.875938820263
 20
1030.136377867831
 10
778.8769175808354
 20
1030.136267432724
 10
778.8790865897372
 20
1030.135827542681
 10
778.8797742013151
 20
1030.135627224761
  0
LWPOLYLINE
  5
1741
330
1F
100
AcDbEntity
  8
SANINDUSA
100
AcDbPolyline
 90
        3
 70
   128
 43
0.0
 10
778.8797742013151
 20
1030.135627224761
 10
778.8804135843709
 20
1030.135440078751
 10
778.8806872493799
 20
1030.135370689368
  0
LWPOLYLINE
  5
1742
330
1F
100
AcDbEntity
  8
SANINDUSA
100
AcDbPolyline
 90
        4
 70
   128
 43
0.0
 10
778.8859022914068
 20
1030.134759355646
 10
778.8871859111369
 20
1030.134792110192
 10
778.890102491778
 20
1030.134826509429
 10
778.8920233379749
 20
1030.134824204028
  0
LWPOLYLINE
  5
1743
330
1F
100
AcDbEntity
  8
SANINDUSA
100
AcDbPolyline
 90
        5
 70
   128
 43
0.0
 10
778.8806872493799
 20
1030.135370689368
 10
778.8807543143641
 20
1030.135352191981
 10
778.8828877605129
 20
1030.134938443922
 10
778.8847804193636
 20
1030.134770987971
 10
778.8859022914068
 20
1030.134759355646
  0
LWPOLYLINE
  5
1744
330
1F
100
AcDbEntity
  8
SANINDUSA
100
AcDbPolyline
 90
        9
 70
   128
 43
0.0
 10
778.7681721080714
 20
1030.142013969833
 10
778.768253705611
 20
1030.142725390449
 10
778.7683954960552
 20
1030.143406927161
 10
778.7685915233611
 20
1030.14402995137
 10
778.7688335532142
 20
1030.144568292347
 10
778.7691114189193
 20
1030.144999336565
 10
778.7694134484617
 20
1030.145304977601
 10
778.7697269548019
 20
1030.145472376709
 10
778.769986930195
 20
1030.145501066319
  0
LWPOLYLINE
  5
1745
330
1F
100
AcDbEntity
  8
SANINDUSA
100
AcDbPolyline
 90
        9
 70
   128
 43
0.0
 10
778.7509195392383
 20
1030.146526957178
 10
778.7509575007293
 20
1030.147208555663
 10
778.7509942075065
 20
1030.147863916435
 10
778.7510282495308
 20
1030.148467864736
 10
778.7510583191258
 20
1030.148997200744
 10
778.7510832612106
 20
1030.149431590761
 10
778.7511021176698
 20
1030.149754348309
 10
778.7511141641597
 20
1030.149953075111
 10
778.7511189379308
 20
1030.150020137357
  0
LWPOLYLINE
  5
1746
330
1F
100
AcDbEntity
  8
SANINDUSA
100
AcDbPolyline
 90
        4
 70
   128
 43
0.0
 10
778.7511189379308
 20
1030.150020137357
 10
778.7526370693639
 20
1030.149934966646
 10
778.7533962984163
 20
1030.149891734756
 10
778.7541550260366
 20
1030.14984810681
  0
LWPOLYLINE
  5
1747
330
1F
100
AcDbEntity
  8
SANINDUSA
100
AcDbPolyline
 90
        5
 70
   128
 43
0.0
 10
778.7541550469533
 20
1030.149848109399
 10
778.7541551062111
 20
1030.149848105975
 10
778.7566172735196
 20
1030.149389145412
 10
778.7588462893979
 20
1030.148345367588
 10
778.7594576371682
 20
1030.147924790936
  0
LWPOLYLINE
  5
1748
330
1F
100
AcDbEntity
  8
SANINDUSA
100
AcDbPolyline
 90
        6
 70
   128
 43
0.0
 10
778.7594582400059
 20
1030.147924506091
 10
778.7594582886449
 20
1030.14792447112
 10
778.7607278799109
 20
1030.147135367414
 10
778.7629083002528
 20
1030.146271964218
 10
778.7644980627797
 20
1030.145985817438
 10
778.7644981199963
 20
1030.145985812191
  0
LWPOLYLINE
  5
1749
330
1F
100
AcDbEntity
  8
SANINDUSA
100
AcDbPolyline
 90
        4
 70
   128
 43
0.0
 10
778.7644977545515
 20
1030.145985845485
 10
778.7663777624191
 20
1030.145816067351
 10
778.768226055581
 20
1030.145652171984
 10
778.7700387688065
 20
1030.145494502131
  0
LWPOLYLINE
  5
174A
330
1F
100
AcDbEntity
  8
SANINDUSA
100
AcDbPolyline
 90
        6
 70
   128
 43
0.0
 10
778.7785517271591
 20
1030.148218734881
 10
778.7787337167396
 20
1030.148204927318
 10
778.7795141567514
 20
1030.148145437317
 10
778.7802606874036
 20
1030.148088110213
 10
778.7809732050066
 20
1030.148033010217
 10
778.7816514785991
 20
1030.147980209146
  0
LWPOLYLINE
  5
174B
330
1F
100
AcDbEntity
  8
SANINDUSA
100
AcDbPolyline
 90
        8
 70
   128
 43
0.0
 10
778.7877726720462
 20
1030.147481701298
 10
778.7878406377483
 20
1030.147473904158
 10
778.7889225790494
 20
1030.147277987705
 10
778.7902584451736
 20
1030.146858589922
 10
778.791350141536
 20
1030.146351977392
 10
778.7927920401033
 20
1030.145405117512
 10
778.793893246557
 20
1030.144395185258
 10
778.7947163507225
 20
1030.143371690318
  0
LWPOLYLINE
  5
174C
330
1F
100
AcDbEntity
  8
SANINDUSA
100
AcDbPolyline
 90
        5
 70
   128
 43
0.0
 10
778.7877726720462
 20
1030.147481701298
 10
778.7870635564935
 20
1030.147546740015
 10
778.7859848176353
 20
1030.147634832796
 10
778.7841787409403
 20
1030.147780518449
 10
778.7816514785991
 20
1030.147980209146
  0
ARC
  5
174D
330
1F
100
AcDbEntity
  8
SANINDUSA
100
AcDbCircle
 10
778.6755375346745
 20
1028.789241396658
 30
0.0
 40
1.362876124105746
100
AcDbArc
 50
85.66511363147345
 51
86.69305809020954
  0
LINE
  5
174E
330
1F
100
AcDbEntity
  8
SANINDUSA
100
AcDbLine
 10
778.6546535570074
 20
1030.092297506839
 30
0.0
 11
778.6546535570074
 21
1030.148117520764
 31
0.0
  0
LINE
  5
174F
330
1F
100
AcDbEntity
  8
SANINDUSA
100
AcDbLine
 10
778.6546535570074
 20
1030.01532928477
 30
0.0
 11
778.6546535570074
 21
1030.073932361257
 31
0.0
  0
LWPOLYLINE
  5
1750
330
1F
100
AcDbEntity
  8
SANINDUSA
100
AcDbPolyline
 90
        9
 70
   128
 43
0.0
 10
778.6583451835249
 20
1030.090407200005
 10
778.6576102703105
 20
1030.090454788191
 10
778.6569116185928
 20
1030.090552848202
 10
778.6562735113967
 20
1030.090697971766
 10
778.6557181274026
 20
1030.090885114828
 10
778.6552647700814
 20
1030.091107772859
 10
778.6549291967657
 20
1030.091358206938
 10
778.6547230709708
 20
1030.091627712732
 10
778.6546535570074
 20
1030.091906923034
  0
LINE
  5
1751
330
1F
100
AcDbEntity
  8
SANINDUSA
100
AcDbLine
 10
778.6546535570074
 20
1030.073932361257
 30
0.0
 11
778.6546535570074
 21
1030.091906923034
 31
0.0
  0
LINE
  5
1752
330
1F
100
AcDbEntity
  8
SANINDUSA
100
AcDbLine
 10
778.6586535570074
 20
1030.152117520763
 30
0.0
 11
778.6755375346744
 21
1030.152117520763
 31
0.0
  0
ARC
  5
1753
330
1F
100
AcDbEntity
  8
SANINDUSA
100
AcDbCircle
 10
778.6586535570074
 20
1030.148117520764
 30
0.0
 40
0.0039999999999998
100
AcDbArc
 50
90.0867329338139
 51
180.0
  0
ARC
  5
177D
330
1F
100
AcDbEntity
  8
BLOCKS
100
AcDbCircle
 10
779.0235598233127
 20
1029.977100520764
 30
0.0
 40
0.005
100
AcDbArc
 50
330.763256000002
 51
89.93334699999735
  0
ARC
  5
177F
330
1F
100
AcDbEntity
  8
BLOCKS
100
AcDbCircle
 10
779.5171138233127
 20
1029.700846520763
 30
0.0
 40
0.560607
100
AcDbArc
 50
150.763256000002
 51
174.3132689999906
  0
LINE
  5
1782
330
1F
100
AcDbEntity
  8
BLOCKS
100
AcDbLine
 10
778.9442948233128
 20
1029.322117520763
 30
0.0
 11
778.7412668233128
 21
1029.322117520763
 31
0.0
  0
LINE
  5
1783
330
1F
100
AcDbEntity
  8
BLOCKS
100
AcDbLine
 10
778.7412668233128
 20
1029.322117520763
 30
0.0
 11
778.7412668233127
 21
1029.992341603976
 31
0.0
  0
ARC
  5
1784
330
1F
100
AcDbEntity
  8
BLOCKS
100
AcDbCircle
 10
788.9161318233129
 20
1029.195757520763
 30
0.0
 40
9.972637
100
AcDbArc
 50
176.7772589999915
 51
179.2740040000021
  0
LINE
  5
1785
330
1F
100
AcDbEntity
  8
BLOCKS
100
AcDbLine
 10
778.8018308233128
 20
1029.322117520763
 30
0.0
 11
778.8018308233128
 21
1029.982117520764
 31
0.0
  0
LINE
  5
1860
330
1F
100
AcDbEntity
  8
BLOCKS
100
AcDbLine
 10
780.5104980802455
 20
1029.981906554797
 30
0.0
 11
780.4829510802455
 21
1029.981938554797
 31
0.0
  0
LINE
  5
1861
330
1F
100
AcDbEntity
  8
BLOCKS
100
AcDbLine
 10
780.4868980802454
 20
1029.971635554797
 30
0.0
 11
780.5094930802454
 21
1029.973898554797
 31
0.0
  0
LINE
  5
1862
330
1F
100
AcDbEntity
  8
BLOCKS
100
AcDbLine
 10
780.4900550802455
 20
1029.954465554797
 30
0.0
 11
780.5005160802454
 21
1029.943762554797
 31
0.0
  0
ARC
  5
1863
330
1F
100
AcDbEntity
  8
BLOCKS
100
AcDbCircle
 10
780.4511520802455
 20
1029.911253554796
 30
0.0
 40
0.045226
100
AcDbArc
 50
13.3811419999979
 51
49.79141099999735
  0
ARC
  5
1864
330
1F
100
AcDbEntity
  8
BLOCKS
100
AcDbCircle
 10
780.4873670802455
 20
1029.919868554797
 30
0.0
 40
0.008
100
AcDbArc
 50
337.9449200000089
 51
13.3811419999979
  0
LINE
  5
1865
330
1F
100
AcDbEntity
  8
BLOCKS
100
AcDbLine
 10
780.4831100802454
 20
1029.969169554797
 30
0.0
 11
780.4868980802454
 21
1029.971635554797
 31
0.0
  0
LINE
  5
1866
330
1F
100
AcDbEntity
  8
BLOCKS
100
AcDbLine
 10
780.4830690802454
 20
1029.965407554797
 30
0.0
 11
780.4831100802454
 21
1029.969169554797
 31
0.0
  0
LINE
  5
1867
330
1F
100
AcDbEntity
  8
BLOCKS
100
AcDbLine
 10
780.4842950802455
 20
1029.962886554796
 30
0.0
 11
780.4830690802454
 21
1029.965407554797
 31
0.0
  0
LINE
  5
1868
330
1F
100
AcDbEntity
  8
BLOCKS
100
AcDbLine
 10
780.4900550802455
 20
1029.954465554797
 30
0.0
 11
780.4842950802455
 21
1029.962886554796
 31
0.0
  0
ARC
  5
1869
330
1F
100
AcDbEntity
  8
BLOCKS
100
AcDbCircle
 10
780.4854880802454
 20
1029.936267554797
 30
0.0
 40
0.045741
100
AcDbArc
 50
88.66997700000059
 51
102.3954719999985
  0
ARC
  5
186A
330
1F
100
AcDbEntity
  8
BLOCKS
100
AcDbCircle
 10
780.5347140802454
 20
1029.976979554797
 30
0.0
 40
0.005
100
AcDbArc
 50
330.763256000002
 51
89.93334699999735
  0
LINE
  5
186B
330
1F
100
AcDbEntity
  8
BLOCKS
100
AcDbLine
 10
780.5170150802454
 20
1029.973816554797
 30
0.0
 11
780.5199580802455
 21
1029.970809554797
 31
0.0
  0
LINE
  5
186C
330
1F
100
AcDbEntity
  8
BLOCKS
100
AcDbLine
 10
780.5094930802454
 20
1029.973898554797
 30
0.0
 11
780.5170150802454
 21
1029.973816554797
 31
0.0
  0
ARC
  5
186D
330
1F
100
AcDbEntity
  8
BLOCKS
100
AcDbCircle
 10
780.5033770802453
 20
1029.946558554797
 30
0.0
 40
0.004
100
AcDbArc
 50
224.3455730000015
 51
334.903947999991
  0
ARC
  5
186E
330
1F
100
AcDbEntity
  8
BLOCKS
100
AcDbCircle
 10
781.0282680802454
 20
1029.700725554797
 30
0.0
 40
0.575607
100
AcDbArc
 50
152.0166150000028
 51
154.903947999991
  0
LINE
  5
1871
330
1F
100
AcDbEntity
  8
BLOCKS
100
AcDbLine
 10
780.5347200802454
 20
1029.981979554797
 30
0.0
 11
780.5319080802454
 21
1029.981982554797
 31
0.0
  0
ARC
  5
1873
330
1F
100
AcDbEntity
  8
BLOCKS
100
AcDbCircle
 10
780.4954450802454
 20
1029.970911554797
 30
0.0
 40
0.027631
100
AcDbArc
 50
179.1413359999903
 51
198.8231930000018
  0
ARC
  5
1874
330
1F
100
AcDbEntity
  8
BLOCKS
100
AcDbCircle
 10
780.2624210802454
 20
1029.971996554797
 30
0.0
 40
0.01
100
AcDbArc
 50
90.0
 51
180.0
  0
ARC
  5
1875
330
1F
100
AcDbEntity
  8
BLOCKS
100
AcDbCircle
 10
781.0282680802454
 20
1029.700725554797
 30
0.0
 40
0.560607
100
AcDbArc
 50
150.763256000002
 51
174.3132689999906
  0
ARC
  5
1876
330
1F
100
AcDbEntity
  8
BLOCKS
100
AcDbCircle
 10
781.0282680802454
 20
1029.700725554797
 30
0.0
 40
0.575607
100
AcDbArc
 50
157.9449200000089
 51
174.3132689999906
  0
ARC
  5
1877
330
1F
100
AcDbEntity
  8
BLOCKS
100
AcDbCircle
 10
780.4778160802454
 20
1029.971175554797
 30
0.0
 40
0.01
100
AcDbArc
 50
102.3954719999985
 51
179.1413359999903
  0
ARC
  5
1878
330
1F
100
AcDbEntity
  8
BLOCKS
100
AcDbCircle
 10
780.5040660802455
 20
1029.973850554797
 30
0.0
 40
0.036739
100
AcDbArc
 50
198.8231930000018
 51
229.7914109999974
  0
ARC
  5
1879
330
1F
100
AcDbEntity
  8
BLOCKS
100
AcDbCircle
 10
780.4307940802454
 20
1029.346996554797
 30
0.0
 40
0.01
100
AcDbArc
 50
270.0
 51
359.1325319999978
  0
LINE
  5
187A
330
1F
100
AcDbEntity
  8
BLOCKS
100
AcDbLine
 10
780.3841390802454
 20
1029.321996554797
 30
0.0
 11
780.3841390802454
 21
1029.336996554797
 31
0.0
  0
LINE
  5
187B
330
1F
100
AcDbEntity
  8
BLOCKS
100
AcDbLine
 10
780.4307940802454
 20
1029.336996554797
 30
0.0
 11
780.3841390802454
 21
1029.336996554797
 31
0.0
  0
LINE
  5
187C
330
1F
100
AcDbEntity
  8
BLOCKS
100
AcDbLine
 10
780.4554490802454
 20
1029.321996554797
 30
0.0
 11
780.2524210802454
 21
1029.321996554797
 31
0.0
  0
ARC
  5
187D
330
1F
100
AcDbEntity
  8
BLOCKS
100
AcDbCircle
 10
790.4272860802454
 20
1029.195636554797
 30
0.0
 40
9.987636999999999
100
AcDbArc
 50
176.7772589999915
 51
179.1325319999978
  0
ARC
  5
187E
330
1F
100
AcDbEntity
  8
BLOCKS
100
AcDbCircle
 10
790.4272860802454
 20
1029.195636554797
 30
0.0
 40
9.972637
100
AcDbArc
 50
176.7772589999915
 51
179.2740040000021
  0
LINE
  5
187F
330
1F
100
AcDbEntity
  8
BLOCKS
100
AcDbLine
 10
780.2524210802454
 20
1029.321996554797
 30
0.0
 11
780.2524210802454
 21
1029.971996554797
 31
0.0
  0
LINE
  5
1880
330
1F
100
AcDbEntity
  8
SANINDUSA
100
AcDbLine
 10
780.2624210802454
 20
1029.981996554797
 30
0.0
 11
780.2983070385399
 21
1029.981996554797
 31
0.0
  0
ENDSEC
  0
SECTION
  2
OBJECTS
  0
DICTIONARY
  5
C
330
0
100
AcDbDictionary
281
     1
  3
ACAD_COLOR
350
16C9
  3
ACAD_GROUP
350
D
  3
ACAD_LAYOUT
350
1A
  3
ACAD_MATERIAL
350
16C8
  3
ACAD_MLEADERSTYLE
350
18CA
  3
ACAD_MLINESTYLE
350
17
  3
ACAD_PLOTSETTINGS
350
19
  3
ACAD_PLOTSTYLENAME
350
E
  3
ACAD_SCALELIST
350
18B8
  3
ACAD_TABLESTYLE
350
16CA
  3
ACAD_VISUALSTYLE
350
18A4
  3
ACDB_RECOMPOSE_DATA
350
18F9
  3
AcDbVariableDictionary
350
3D
  3
ASE_INDEX_DICTIONARY
350
16C2
  3
DWGPROPS
350
18FA
  0
DICTIONARY
  5
18D0
330
10
100
AcDbDictionary
280
     1
281
     1
  3
ADSK_XREC_LAYER_RECONCILED
360
18D1
  0
DICTIONARY
  5
18D2
330
2F
100
AcDbDictionary
280
     1
281
     1
  3
ADSK_XREC_LAYER_RECONCILED
360
18D3
  0
DICTIONARY
  5
18D4
330
30
100
AcDbDictionary
280
     1
281
     1
  3
ADSK_XREC_LAYER_RECONCILED
360
18D5
  0
DICTIONARY
  5
18D6
330
31
100
AcDbDictionary
280
     1
281
     1
  3
ADSK_XREC_LAYER_RECONCILED
360
18D7
  0
DICTIONARY
  5
18D8
330
32
100
AcDbDictionary
280
     1
281
     1
  3
ADSK_XREC_LAYER_RECONCILED
360
18D9
  0
DICTIONARY
  5
18DA
330
33
100
AcDbDictionary
280
     1
281
     1
  3
ADSK_XREC_LAYER_RECONCILED
360
18DB
  0
DICTIONARY
  5
18DC
330
34
100
AcDbDictionary
280
     1
281
     1
  3
ADSK_XREC_LAYER_RECONCILED
360
18DD
  0
DICTIONARY
  5
18DE
330
35
100
AcDbDictionary
280
     1
281
     1
  3
ADSK_XREC_LAYER_RECONCILED
360
18DF
  0
DICTIONARY
  5
18E0
330
36
100
AcDbDictionary
280
     1
281
     1
  3
ADSK_XREC_LAYER_RECONCILED
360
18E1
  0
DICTIONARY
  5
18E2
330
37
100
AcDbDictionary
280
     1
281
     1
  3
ADSK_XREC_LAYER_RECONCILED
360
18E3
  0
DICTIONARY
  5
18E4
330
5D6
100
AcDbDictionary
280
     1
281
     1
  3
ADSK_XREC_LAYER_RECONCILED
360
18E5
  0
DICTIONARY
  5
18E6
330
8AF
100
AcDbDictionary
280
     1
281
     1
  3
ADSK_XREC_LAYER_RECONCILED
360
18E7
  0
DICTIONARY
  5
18E8
330
8F8
100
AcDbDictionary
280
     1
281
     1
  3
ADSK_XREC_LAYER_RECONCILED
360
18E9
  0
DICTIONARY
  5
18EA
330
91D
100
AcDbDictionary
280
     1
281
     1
  3
ADSK_XREC_LAYER_RECONCILED
360
18EB
  0
DICTIONARY
  5
18EC
330
D58
100
AcDbDictionary
280
     1
281
     1
  3
ADSK_XREC_LAYER_RECONCILED
360
18ED
  0
DICTIONARY
  5
18EE
330
16C1
100
AcDbDictionary
280
     1
281
     1
  3
ADSK_XREC_LAYER_RECONCILED
360
18EF
  0
DICTIONARY
  5
18F0
330
16D0
100
AcDbDictionary
280
     1
281
     1
  3
ADSK_XREC_LAYER_RECONCILED
360
18F1
  0
DICTIONARY
  5
1704
330
1F
100
AcDbDictionary
280
     1
281
     1
  3
ACAD_SORTENTS
360
1705
  0
DICTIONARY
  5
16C9
102
{ACAD_REACTORS
330
C
102
}
330
C
100
AcDbDictionary
281
     1
  0
DICTIONARY
  5
D
102
{ACAD_REACTORS
330
C
102
}
330
C
100
AcDbDictionary
281
     1
  0
DICTIONARY
  5
1A
102
{ACAD_REACTORS
330
C
102
}
330
C
100
AcDbDictionary
281
     1
  3
Layout1
350
1E
  3
Layout2
350
26
  3
Model
350
22
  0
DICTIONARY
  5
16C8
102
{ACAD_REACTORS
330
C
102
}
330
C
100
AcDbDictionary
281
     1
  3
ByBlock
350
1894
  3
ByLayer
350
188C
  3
Global
350
189C
  0
DICTIONARY
  5
18CA
102
{ACAD_REACTORS
330
C
102
}
330
C
100
AcDbDictionary
281
     1
  3
Standard
350
18CB
  0
DICTIONARY
  5
17
102
{ACAD_REACTORS
330
C
102
}
330
C
100
AcDbDictionary
281
     1
  3
Standard
350
18
  0
DICTIONARY
  5
19
102
{ACAD_REACTORS
330
C
102
}
330
C
100
AcDbDictionary
281
     1
  0
ACDBDICTIONARYWDFLT
  5
E
102
{ACAD_REACTORS
330
C
102
}
330
C
100
AcDbDictionary
281
     1
  3
Normal
350
F
100
AcDbDictionaryWithDefault
340
F
  0
DICTIONARY
  5
18B8
102
{ACAD_REACTORS
330
C
102
}
330
C
100
AcDbDictionary
281
     1
  3
A0
350
18B9
  3
A1
350
18BA
  3
A2
350
18BB
  3
A3
350
18BC
  3
A4
350
18BD
  3
A5
350
18BE
  3
A6
350
18BF
  3
A7
350
18C0
  3
A8
350
18C1
  3
A9
350
18C2
  3
B0
350
18C3
  3
B1
350
18C4
  3
B2
350
18C5
  3
B3
350
18C6
  3
B4
350
18C7
  3
B5
350
18C8
  3
B6
350
18C9
  0
DICTIONARY
  5
16CA
102
{ACAD_REACTORS
330
C
102
}
330
C
100
AcDbDictionary
281
     1
  3
Standard
350
16CB
  0
DICTIONARY
  5
18A4
102
{ACAD_REACTORS
330
C
102
}
330
C
100
AcDbDictionary
281
     1
  3
2dWireframe
350
18AA
  3
3D Hidden
350
18AC
  3
3dWireframe
350
18AB
  3
Basic
350
18A9
  3
Brighten
350
18B0
  3
ColorChange
350
18B4
  3
Conceptual
350
18AD
  3
Dim
350
18AF
  3
EdgeColorOff
350
18B7
  3
Facepattern
350
18B3
  3
Flat
350
18A5
  3
FlatWithEdges
350
18A6
  3
Gouraud
350
18A7
  3
GouraudWithEdges
350
18A8
  3
JitterOff
350
18B5
  3
Linepattern
350
18B2
  3
OverhangOff
350
18B6
  3
Realistic
350
18AE
  3
Thicken
350
18B1
  0
XRECORD
  5
18F9
102
{ACAD_REACTORS
330
C
102
}
330
C
100
AcDbXrecord
280
     1
 90
        1
330
16CB
  0
DICTIONARY
  5
3D
102
{ACAD_REACTORS
330
C
102
}
330
C
100
AcDbDictionary
281
     1
  3
CANNOSCALE
350
18F3
  3
CMLEADERSTYLE
350
18F2
  3
CTABLESTYLE
350
1755
  3
DIMASSOC
350
3F
  3
HIDETEXT
350
3E
  3
INDEXCTL
350
18F5
  3
PROJECTNAME
350
188A
  3
SORTENTS
350
18F4
  3
XCLIPFRAME
350
18F6
  0
DICTIONARY
  5
16C2
102
{ACAD_REACTORS
330
C
102
}
330
C
100
AcDbDictionary
281
     1
  3
ASEBlockHierarchyIndexRecord
350
16C3
1001
DCO15
1040
1527419159.203
  0
XRECORD
  5
18FA
102
{ACAD_REACTORS
330
C
102
}
330
C
100
AcDbXrecord
280
     1
  1
DWGPROPS COOKIE
  2

  3

  4

  6

  7

  8
Julio
  9

300
=
301
=
302
=
303
=
304
=
305
=
306
=
307
=
308
=
309
=
 40
0.0083933796296296
 41
2453481.669539201
 42
2456146.441460683
  1

 90
        0
  0
XRECORD
  5
18D1
102
{ACAD_REACTORS
330
18D0
102
}
330
18D0
100
AcDbXrecord
280
     1
290
     1
  0
XRECORD
  5
18D3
102
{ACAD_REACTORS
330
18D2
102
}
330
18D2
100
AcDbXrecord
280
     1
290
     1
  0
XRECORD
  5
18D5
102
{ACAD_REACTORS
330
18D4
102
}
330
18D4
100
AcDbXrecord
280
     1
290
     1
  0
XRECORD
  5
18D7
102
{ACAD_REACTORS
330
18D6
102
}
330
18D6
100
AcDbXrecord
280
     1
290
     1
  0
XRECORD
  5
18D9
102
{ACAD_REACTORS
330
18D8
102
}
330
18D8
100
AcDbXrecord
280
     1
290
     1
  0
XRECORD
  5
18DB
102
{ACAD_REACTORS
330
18DA
102
}
330
18DA
100
AcDbXrecord
280
     1
290
     1
  0
XRECORD
  5
18DD
102
{ACAD_REACTORS
330
18DC
102
}
330
18DC
100
AcDbXrecord
280
     1
290
     1
  0
XRECORD
  5
18DF
102
{ACAD_REACTORS
330
18DE
102
}
330
18DE
100
AcDbXrecord
280
     1
290
     1
  0
XRECORD
  5
18E1
102
{ACAD_REACTORS
330
18E0
102
}
330
18E0
100
AcDbXrecord
280
     1
290
     1
  0
XRECORD
  5
18E3
102
{ACAD_REACTORS
330
18E2
102
}
330
18E2
100
AcDbXrecord
280
     1
290
     1
  0
XRECORD
  5
18E5
102
{ACAD_REACTORS
330
18E4
102
}
330
18E4
100
AcDbXrecord
280
     1
290
     1
  0
XRECORD
  5
18E7
102
{ACAD_REACTORS
330
18E6
102
}
330
18E6
100
AcDbXrecord
280
     1
290
     1
  0
XRECORD
  5
18E9
102
{ACAD_REACTORS
330
18E8
102
}
330
18E8
100
AcDbXrecord
280
     1
290
     1
  0
XRECORD
  5
18EB
102
{ACAD_REACTORS
330
18EA
102
}
330
18EA
100
AcDbXrecord
280
     1
290
     1
  0
XRECORD
  5
18ED
102
{ACAD_REACTORS
330
18EC
102
}
330
18EC
100
AcDbXrecord
280
     1
290
     1
  0
XRECORD
  5
18EF
102
{ACAD_REACTORS
330
18EE
102
}
330
18EE
100
AcDbXrecord
280
     1
290
     1
  0
XRECORD
  5
18F1
102
{ACAD_REACTORS
330
18F0
102
}
330
18F0
100
AcDbXrecord
280
     1
290
     1
  0
SORTENTSTABLE
  5
1705
102
{ACAD_REACTORS
330
1704
102
}
330
1704
100
AcDbSortentsTable
330
1F
331
174E
  5
174E
331
174A
  5
174A
331
1746
  5
1746
331
1742
  5
1742
331
1226
  5
1226
331
121E
  5
121E
331
125D
  5
125D
331
12D3
  5
12D3
331
1290
  5
1290
331
1317
  5
1317
331
1313
  5
1313
331
1356
  5
1356
331
130B
  5
130B
331
1352
  5
1352
331
110B
  5
110B
331
1091
  5
1091
331
1107
  5
1107
331
11DE
  5
11DE
331
1103
  5
1103
331
173E
  5
173E
331
1785
  5
1785
331
173A
  5
173A
331
177D
  5
177D
331
1736
  5
1736
331
1732
  5
1732
331
12CF
  5
12CF
331
12C3
  5
12C3
331
120A
  5
120A
331
1284
  5
1284
331
1307
  5
1307
331
134E
  5
134E
331
1303
  5
1303
331
134A
  5
134A
331
1381
  5
1381
331
12FF
  5
12FF
331
1346
  5
1346
331
12FB
  5
12FB
331
16FC
  5
16FE
331
10C4
  5
10C4
331
137D
  5
137D
331
1379
  5
1379
331
1075
  5
1075
331
10B8
  5
10B8
331
1071
  5
1071
331
1132
  5
1132
331
172E
  5
172E
331
1726
  5
1726
331
1722
  5
1722
331
12BF
  5
12BF
331
1206
  5
1206
331
1245
  5
1245
331
1241
  5
1241
331
11FE
  5
11FE
331
1278
  5
1278
331
11FA
  5
11FA
331
1239
  5
1239
331
1270
  5
1270
331
12F7
  5
12F7
331
133E
  5
133E
331
133A
  5
133A
331
1375
  5
1375
331
1336
  5
1336
331
1371
  5
1371
331
12EF
  5
12EF
331
136D
  5
136D
331
12EB
  5
12EB
331
112E
  5
112E
331
1369
  5
1369
331
112A
  5
112A
331
10AC
  5
10AC
331
10E7
  5
10E7
331
10A8
  5
10A8
331
10E3
  5
10E3
331
1716
  5
1716
331
1751
  5
1751
331
1712
  5
1712
331
1235
  5
1235
331
11E6
  5
11E6
331
12A3
  5
12A3
331
12E7
  5
12E7
331
1260
  5
1260
331
132A
  5
132A
331
1361
  5
1361
331
1326
  5
1326
331
135D
  5
135D
331
111E
  5
111E
331
10DB
  5
10DB
331
1359
  5
1359
331
109C
  5
109C
331
10D7
  5
10D7
331
1098
  5
1098
331
1112
  5
1112
331
174D
  5
174D
331
1749
  5
1749
331
1745
  5
1745
331
1741
  5
1741
331
1225
  5
1225
331
129B
  5
129B
331
125C
  5
125C
331
121D
  5
121D
331
1297
  5
1297
331
12D2
  5
12D2
331
1219
  5
1219
331
1293
  5
1293
331
1316
  5
1316
331
1312
  5
1312
331
170F
  5
170F
331
130E
  5
130E
331
1355
  5
1355
331
130A
  5
130A
331
1351
  5
1351
331
110E
  5
110E
331
1094
  5
1094
331
1106
  5
1106
331
108C
  5
108C
331
11D9
  5
11D9
331
1784
  5
1784
331
173D
  5
173D
331
1739
  5
1739
331
1735
  5
1735
331
1731
  5
1731
331
12CE
  5
12CE
331
1215
  5
1215
331
1211
  5
1211
331
1250
  5
1250
331
120D
  5
120D
331
1283
  5
1283
331
1248
  5
1248
331
134D
  5
134D
331
1306
  5
1306
331
1349
  5
1349
331
1384
  5
1384
331
1302
  5
1302
331
1345
  5
1345
331
1380
  5
1380
331
137C
  5
137C
331
12FA
  5
12FA
331
11D5
  5
11D5
331
1084
  5
1084
331
10C3
  5
10C3
331
1341
  5
1341
331
10BF
  5
10BF
331
10BB
  5
10BB
331
172D
  5
172D
331
1725
  5
1725
331
1205
  5
1205
331
127B
  5
127B
331
1277
  5
1277
331
12B6
  5
12B6
331
11FD
  5
11FD
331
1238
  5
1238
331
1273
  5
1273
331
133D
  5
133D
331
1370
  5
1370
331
12EE
  5
12EE
331
10B7
  5
10B7
331
1335
  5
1335
331
12EA
  5
12EA
331
1331
  5
1331
331
10EE
  5
10EE
331
136C
  5
136C
331
10AF
  5
10AF
331
1368
  5
1368
331
10AB
  5
10AB
331
10E6
  5
10E6
331
1121
  5
1121
331
1750
  5
1750
331
126F
  5
126F
331
1234
  5
1234
331
11E9
  5
11E9
331
122C
  5
122C
331
11E5
  5
11E5
331
11E1
  5
11E1
331
12E6
  5
12E6
331
132D
  5
132D
331
1364
  5
1364
331
1325
  5
1325
331
1360
  5
1360
331
12DE
  5
12DE
331
111D
  5
111D
331
10A3
  5
10A3
331
1358
  5
1358
331
1119
  5
1119
331
109B
  5
109B
331
1111
  5
1111
331
174C
  5
174C
331
1748
  5
1748
331
1744
  5
1744
331
1740
  5
1740
331
129E
  5
129E
331
1220
  5
1220
331
129A
  5
129A
331
121C
  5
121C
331
12D5
  5
12D5
331
1218
  5
1218
331
1292
  5
1292
331
12D1
  5
12D1
331
1315
  5
1315
331
1311
  5
1311
331
1354
  5
1354
331
130D
  5
130D
331
1093
  5
1093
331
1309
  5
1309
331
1350
  5
1350
331
1109
  5
1109
331
10CE
  5
10CE
331
11D8
  5
11D8
331
173C
  5
173C
331
1783
  5
1783
331
177F
  5
177F
331
1738
  5
1738
331
1734
  5
1734
331
1730
  5
1730
331
12CD
  5
12CD
331
124F
  5
124F
331
120C
  5
120C
331
12C1
  5
12C1
331
1208
  5
1208
331
1282
  5
1282
331
1383
  5
1383
331
1301
  5
1301
331
1348
  5
1348
331
16FE
  5
1701
331
12FD
  5
12FD
331
1344
  5
1344
331
12F9
  5
12F9
331
10C2
  5
10C2
331
16FA
  5
16FA
331
1083
  5
1083
331
10BE
  5
10BE
331
1073
  5
1073
331
172C
  5
172C
331
1728
  5
1728
331
1724
  5
1724
331
1247
  5
1247
331
1243
  5
1243
331
127A
  5
127A
331
12B9
  5
12B9
331
1276
  5
1276
331
12B5
  5
12B5
331
136F
  5
136F
331
12ED
  5
12ED
331
136B
  5
136B
331
12E9
  5
12E9
331
10AE
  5
10AE
331
10E9
  5
10E9
331
1124
  5
1124
331
10AA
  5
10AA
331
171C
  5
171C
331
1718
  5
1718
331
1753
  5
1753
331
1237
  5
1237
331
1710
  5
1710
331
1233
  5
1233
331
122F
  5
122F
331
12A9
  5
12A9
331
11E8
  5
11E8
331
122B
  5
122B
331
1262
  5
1262
331
12E5
  5
12E5
331
132C
  5
132C
331
1363
  5
1363
331
10A6
  5
10A6
331
1324
  5
1324
331
111C
  5
111C
331
10D5
  5
10D5
331
1110
  5
1110
331
174F
  5
174F
331
174B
  5
174B
331
1747
  5
1747
331
1743
  5
1743
331
125E
  5
125E
331
121F
  5
121F
331
12D4
  5
12D4
331
121B
  5
121B
331
1291
  5
1291
331
1314
  5
1314
331
1310
  5
1310
331
130C
  5
130C
331
1353
  5
1353
331
1096
  5
1096
331
170D
  5
16FD
331
1308
  5
1308
331
110C
  5
110C
331
10CD
  5
10CD
331
108E
  5
108E
331
11DB
  5
11DB
331
173F
  5
173F
331
1782
  5
1782
331
173B
  5
173B
331
1737
  5
1737
331
1733
  5
1733
331
120F
  5
120F
331
1289
  5
1289
331
120B
  5
120B
331
1285
  5
1285
331
124A
  5
124A
331
1281
  5
1281
331
1347
  5
1347
331
1382
  5
1382
331
1300
  5
1300
331
1343
  5
1343
331
16FD
  5
1700
331
1086
  5
1086
331
12FC
  5
12FC
331
16F9
  5
16F9
331
12F8
  5
12F8
331
10FC
  5
10FC
331
10C1
  5
10C1
331
10F8
  5
10F8
331
10BD
  5
10BD
331
10F4
  5
10F4
331
10F0
  5
10F0
331
172F
  5
172F
331
172B
  5
172B
331
1727
  5
1727
331
1207
  5
1207
331
1279
  5
1279
331
12B8
  5
12B8
331
11FF
  5
11FF
331
123A
  5
123A
331
12B4
  5
12B4
331
1271
  5
1271
331
133F
  5
133F
331
1376
  5
1376
331
133B
  5
133B
331
12EC
  5
12EC
331
12E8
  5
12E8
331
136A
  5
136A
331
1127
  5
1127
331
1123
  5
1123
331
1717
  5
1717
331
1713
  5
1713
331
1752
  5
1752
331
126D
  5
126D
331
122E
  5
122E
331
11E7
  5
11E7
331
122A
  5
122A
331
1265
  5
1265
331
11E3
  5
11E3
331
132B
  5
132B
331
1366
  5
1366
331
1327
  5
1327
331
1362
  5
1362
331
135E
  5
135E
331
10A5
  5
10A5
331
10DC
  5
10DC
331
135A
  5
135A
331
1117
  5
1117
  0
LAYOUT
  5
1E
102
{ACAD_XDICTIONARY
360
18FB
102
}
102
{ACAD_REACTORS
330
1A
102
}
330
1A
100
AcDbPlotSettings
  1

  2
Ploter HP500
  4

  6

 40
0.0
 41
0.0
 42
0.0
 43
0.0
 44
0.0
 45
0.0
 46
0.0
 47
0.0
 48
0.0
 49
0.0
140
0.0
141
0.0
142
1.0
143
1.0
 70
   688
 72
     0
 73
     0
 74
     5
  7
monochrome.ctb
 75
    16
147
1.0
148
0.0
149
0.0
100
AcDbLayout
  1
Layout1
 70
     1
 71
     1
 10
0.0
 20
0.0
 11
420.0
 21
297.0
 12
0.0
 22
0.0
 32
0.0
 14
1.000000000000000E+20
 24
1.000000000000000E+20
 34
1.000000000000000E+20
 15
-1.000000000000000E+20
 25
-1.000000000000000E+20
 35
-1.000000000000000E+20
146
0.0
 13
0.0
 23
0.0
 33
0.0
 16
1.0
 26
0.0
 36
0.0
 17
0.0
 27
1.0
 37
0.0
 76
     0
330
1B
  0
LAYOUT
  5
26
102
{ACAD_XDICTIONARY
360
18FF
102
}
102
{ACAD_REACTORS
330
1A
102
}
330
1A
100
AcDbPlotSettings
  1

  2
Ploter HP500
  4

  6

 40
0.0
 41
0.0
 42
0.0
 43
0.0
 44
0.0
 45
0.0
 46
0.0
 47
0.0
 48
0.0
 49
0.0
140
0.0
141
0.0
142
1.0
143
1.0
 70
   688
 72
     0
 73
     0
 74
     5
  7
monochrome.ctb
 75
    16
147
1.0
148
0.0
149
0.0
100
AcDbLayout
  1
Layout2
 70
     1
 71
     2
 10
0.0
 20
0.0
 11
12.0
 21
9.0
 12
0.0
 22
0.0
 32
0.0
 14
0.0
 24
0.0
 34
0.0
 15
0.0
 25
0.0
 35
0.0
146
0.0
 13
0.0
 23
0.0
 33
0.0
 16
1.0
 26
0.0
 36
0.0
 17
0.0
 27
1.0
 37
0.0
 76
     0
330
23
  0
LAYOUT
  5
22
102
{ACAD_XDICTIONARY
360
18FD
102
}
102
{ACAD_REACTORS
330
1A
102
}
330
1A
100
AcDbPlotSettings
  1

  2
Ploter HP500
  4
User268
  6

 40
4.995333194732666
 41
16.97565841674804
 42
4.995330810546875
 43
16.97567749023437
 44
209.9733276367187
 45
296.9259948730469
 46
0.0
 47
0.0
 48
0.0
 49
0.0
140
0.0
141
0.0
142
1.0
143
1.0
 70
 11952
 72
     1
 73
     1
 74
     0
  7

 75
     0
147
1.0
148
-427.5957866592534
149
7.362384574453926
100
AcDbLayout
  1
Model
 70
     1
 71
     0
 10
0.0
 20
0.0
 11
12.0
 21
9.0
 12
0.0
 22
0.0
 32
0.0
 14
0.0
 24
0.0
 34
0.0
 15
0.0
 25
0.0
 35
0.0
146
0.0
 13
0.0
 23
0.0
 33
0.0
 16
1.0
 26
0.0
 36
0.0
 17
0.0
 27
1.0
 37
0.0
 76
     0
330
1F
331
1882
  0
MATERIAL
  5
1894
102
{ACAD_XDICTIONARY
360
1895
102
}
102
{ACAD_REACTORS
330
16C8
102
}
330
16C8
100
AcDbMaterial
  1
ByBlock
 72
     0
 43
0.0008202099737533
 43
0.0
 43
0.0
 43
0.0
 43
0.0
 43
0.0008202099737533
 43
0.0
 43
0.0
 43
0.0
 43
0.0
 43
1.0
 43
0.0
 43
0.0
 43
0.0
 43
0.0
 43
1.0
 77
     0
 47
0.0008202099737533
 47
0.0
 47
0.0
 47
0.0
 47
0.0
 47
0.0008202099737533
 47
0.0
 47
0.0
 47
0.0
 47
0.0
 47
1.0
 47
0.0
 47
0.0
 47
0.0
 47
0.0
 47
1.0
171
     0
 49
0.0008202099737533
 49
0.0
 49
0.0
 49
0.0
 49
0.0
 49
0.0008202099737533
 49
0.0
 49
0.0
 49
0.0
 49
0.0
 49
1.0
 49
0.0
 49
0.0
 49
0.0
 49
0.0
 49
1.0
175
     0
142
0.0008202099737533
142
0.0
142
0.0
142
0.0
142
0.0
142
0.0008202099737533
142
0.0
142
0.0
142
0.0
142
0.0
142
1.0
142
0.0
142
0.0
142
0.0
142
0.0
142
1.0
179
     0
144
0.0008202099737533
144
0.0
144
0.0
144
0.0
144
0.0
144
0.0008202099737533
144
0.0
144
0.0
144
0.0
144
0.0
144
1.0
144
0.0
144
0.0
144
0.0
144
0.0
144
1.0
147
0.0008202099737533
147
0.0
147
0.0
147
0.0
147
0.0
147
0.0008202099737533
147
0.0
147
0.0
147
0.0
147
0.0
147
1.0
147
0.0
147
0.0
147
0.0
147
0.0
147
1.0
  0
MATERIAL
  5
188C
102
{ACAD_XDICTIONARY
360
188D
102
}
102
{ACAD_REACTORS
330
16C8
102
}
330
16C8
100
AcDbMaterial
  1
ByLayer
 72
     0
 43
0.0008202099737533
 43
0.0
 43
0.0
 43
0.0
 43
0.0
 43
0.0008202099737533
 43
0.0
 43
0.0
 43
0.0
 43
0.0
 43
1.0
 43
0.0
 43
0.0
 43
0.0
 43
0.0
 43
1.0
 77
     0
 47
0.0008202099737533
 47
0.0
 47
0.0
 47
0.0
 47
0.0
 47
0.0008202099737533
 47
0.0
 47
0.0
 47
0.0
 47
0.0
 47
1.0
 47
0.0
 47
0.0
 47
0.0
 47
0.0
 47
1.0
171
     0
 49
0.0008202099737533
 49
0.0
 49
0.0
 49
0.0
 49
0.0
 49
0.0008202099737533
 49
0.0
 49
0.0
 49
0.0
 49
0.0
 49
1.0
 49
0.0
 49
0.0
 49
0.0
 49
0.0
 49
1.0
175
     0
142
0.0008202099737533
142
0.0
142
0.0
142
0.0
142
0.0
142
0.0008202099737533
142
0.0
142
0.0
142
0.0
142
0.0
142
1.0
142
0.0
142
0.0
142
0.0
142
0.0
142
1.0
179
     0
144
0.0008202099737533
144
0.0
144
0.0
144
0.0
144
0.0
144
0.0008202099737533
144
0.0
144
0.0
144
0.0
144
0.0
144
1.0
144
0.0
144
0.0
144
0.0
144
0.0
144
1.0
147
0.0008202099737533
147
0.0
147
0.0
147
0.0
147
0.0
147
0.0008202099737533
147
0.0
147
0.0
147
0.0
147
0.0
147
1.0
147
0.0
147
0.0
147
0.0
147
0.0
147
1.0
  0
MATERIAL
  5
189C
102
{ACAD_XDICTIONARY
360
189D
102
}
102
{ACAD_REACTORS
330
16C8
102
}
330
16C8
100
AcDbMaterial
  1
Global
 72
     0
 43
0.0008202099737533
 43
0.0
 43
0.0
 43
0.0
 43
0.0
 43
0.0008202099737533
 43
0.0
 43
0.0
 43
0.0
 43
0.0
 43
1.0
 43
0.0
 43
0.0
 43
0.0
 43
0.0
 43
1.0
 77
     0
 47
0.0008202099737533
 47
0.0
 47
0.0
 47
0.0
 47
0.0
 47
0.0008202099737533
 47
0.0
 47
0.0
 47
0.0
 47
0.0
 47
1.0
 47
0.0
 47
0.0
 47
0.0
 47
0.0
 47
1.0
171
     0
 49
0.0008202099737533
 49
0.0
 49
0.0
 49
0.0
 49
0.0
 49
0.0008202099737533
 49
0.0
 49
0.0
 49
0.0
 49
0.0
 49
1.0
 49
0.0
 49
0.0
 49
0.0
 49
0.0
 49
1.0
175
     0
142
0.0008202099737533
142
0.0
142
0.0
142
0.0
142
0.0
142
0.0008202099737533
142
0.0
142
0.0
142
0.0
142
0.0
142
1.0
142
0.0
142
0.0
142
0.0
142
0.0
142
1.0
179
     0
144
0.0008202099737533
144
0.0
144
0.0
144
0.0
144
0.0
144
0.0008202099737533
144
0.0
144
0.0
144
0.0
144
0.0
144
1.0
144
0.0
144
0.0
144
0.0
144
0.0
144
1.0
147
0.0008202099737533
147
0.0
147
0.0
147
0.0
147
0.0
147
0.0008202099737533
147
0.0
147
0.0
147
0.0
147
0.0
147
1.0
147
0.0
147
0.0
147
0.0
147
0.0
147
1.0
  0
MLEADERSTYLE
  5
18CB
102
{ACAD_REACTORS
330
18CA
102
}
330
18CA
100
AcDbMLeaderStyle
170
     2
171
     1
172
     0
 90
        2
 40
0.0
 41
0.0
173
     1
 91
-1056964608
340
14
 92
       -2
290
     1
 42
2.0
291
     1
 43
0.36
  3
Standard
 44
4.0
300

342
11
174
     1
178
     6
175
     1
176
     0
 93
-1056964608
 45
4.0
292
     0
297
     0
 46
4.0
 94
-1056964608
 47
1.0
 49
1.0
140
1.0
293
     1
141
0.0
294
     1
177
     0
142
1.0
295
     0
296
     0
143
0.125
1001
ACAD_MLEADERVER
1070
     2
  0
MLINESTYLE
  5
18
102
{ACAD_REACTORS
330
17
102
}
330
17
100
AcDbMlineStyle
  2
STANDARD
 70
     0
  3

 62
   256
 51
90.0
 52
90.0
 71
     2
 49
0.5
 62
   256
  6
BYLAYER
 49
-0.5
 62
   256
  6
BYLAYER
  0
ACDBPLACEHOLDER
  5
F
102
{ACAD_REACTORS
330
E
102
}
330
E
  0
SCALE
  5
18B9
102
{ACAD_REACTORS
330
18B8
102
}
330
18B8
100
AcDbScale
 70
     0
300
1:1
140
1.0
141
1.0
290
     1
  0
SCALE
  5
18BA
102
{ACAD_REACTORS
330
18B8
102
}
330
18B8
100
AcDbScale
 70
     0
300
1:2
140
1.0
141
2.0
290
     0
  0
SCALE
  5
18BB
102
{ACAD_REACTORS
330
18B8
102
}
330
18B8
100
AcDbScale
 70
     0
300
1:4
140
1.0
141
4.0
290
     0
  0
SCALE
  5
18BC
102
{ACAD_REACTORS
330
18B8
102
}
330
18B8
100
AcDbScale
 70
     0
300
1:5
140
1.0
141
5.0
290
     0
  0
SCALE
  5
18BD
102
{ACAD_REACTORS
330
18B8
102
}
330
18B8
100
AcDbScale
 70
     0
300
1:8
140
1.0
141
8.0
290
     0
  0
SCALE
  5
18BE
102
{ACAD_REACTORS
330
18B8
102
}
330
18B8
100
AcDbScale
 70
     0
300
1:10
140
1.0
141
10.0
290
     0
  0
SCALE
  5
18BF
102
{ACAD_REACTORS
330
18B8
102
}
330
18B8
100
AcDbScale
 70
     0
300
1:16
140
1.0
141
16.0
290
     0
  0
SCALE
  5
18C0
102
{ACAD_REACTORS
330
18B8
102
}
330
18B8
100
AcDbScale
 70
     0
300
1:20
140
1.0
141
20.0
290
     0
  0
SCALE
  5
18C1
102
{ACAD_REACTORS
330
18B8
102
}
330
18B8
100
AcDbScale
 70
     0
300
1:30
140
1.0
141
30.0
290
     0
  0
SCALE
  5
18C2
102
{ACAD_REACTORS
330
18B8
102
}
330
18B8
100
AcDbScale
 70
     0
300
1:40
140
1.0
141
40.0
290
     0
  0
SCALE
  5
18C3
102
{ACAD_REACTORS
330
18B8
102
}
330
18B8
100
AcDbScale
 70
     0
300
1:50
140
1.0
141
50.0
290
     0
  0
SCALE
  5
18C4
102
{ACAD_REACTORS
330
18B8
102
}
330
18B8
100
AcDbScale
 70
     0
300
1:100
140
1.0
141
100.0
290
     0
  0
SCALE
  5
18C5
102
{ACAD_REACTORS
330
18B8
102
}
330
18B8
100
AcDbScale
 70
     0
300
2:1
140
2.0
141
1.0
290
     0
  0
SCALE
  5
18C6
102
{ACAD_REACTORS
330
18B8
102
}
330
18B8
100
AcDbScale
 70
     0
300
4:1
140
4.0
141
1.0
290
     0
  0
SCALE
  5
18C7
102
{ACAD_REACTORS
330
18B8
102
}
330
18B8
100
AcDbScale
 70
     0
300
8:1
140
8.0
141
1.0
290
     0
  0
SCALE
  5
18C8
102
{ACAD_REACTORS
330
18B8
102
}
330
18B8
100
AcDbScale
 70
     0
300
10:1
140
10.0
141
1.0
290
     0
  0
SCALE
  5
18C9
102
{ACAD_REACTORS
330
18B8
102
}
330
18B8
100
AcDbScale
 70
     0
300
100:1
140
100.0
141
1.0
290
     0
  0
TABLESTYLE
  5
16CB
102
{ACAD_XDICTIONARY
360
18F7
102
}
102
{ACAD_REACTORS
330
16CA
102
}
330
16CA
100
AcDbTableStyle
  3
Standard
 70
     0
 71
     0
 40
1.5
 41
1.5
280
     0
281
     0
  7
Standard
140
4.5
170
     2
 62
     0
 63
     7
283
     0
274
    -2
284
     1
 64
     0
275
    -2
285
     1
 65
     0
276
    -2
286
     1
 66
     0
277
    -2
287
     1
 67
     0
278
    -2
288
     1
 68
     0
279
    -2
289
     1
 69
     0
  7
Standard
140
6.0
170
     5
 62
     0
 63
     7
283
     0
274
    -2
284
     1
 64
     0
275
    -2
285
     1
 65
     0
276
    -2
286
     1
 66
     0
277
    -2
287
     1
 67
     0
278
    -2
288
     1
 68
     0
279
    -2
289
     1
 69
     0
  7
Standard
140
4.5
170
     5
 62
     0
 63
     7
283
     0
274
    -2
284
     1
 64
     0
275
    -2
285
     1
 65
     0
276
    -2
286
     1
 66
     0
277
    -2
287
     1
 67
     0
278
    -2
288
     1
 68
     0
279
    -2
289
     1
 69
     0
  0
VISUALSTYLE
  5
18AA
102
{ACAD_XDICTIONARY
360
190F
102
}
102
{ACAD_REACTORS
330
18A4
102
}
330
18A4
100
AcDbVisualStyle
  2
2dWireframe
 70
     4
 71
     0
 72
     2
 73
     0
 90
        0
 40
-0.6
 41
-30.0
 62
     5
 63
     7
 74
     1
 91
        4
 64
     7
 65
   257
 75
     1
175
     1
 42
1.0
 92
        0
 66
   257
 43
1.0
 76
     1
 77
     6
 78
     2
 67
     7
 79
     5
170
     0
171
     0
290
     0
174
     0
 93
        1
 44
0.0
173
     0
291
     0
 45
0.0
1001
ACAD
1000
AcDbSavedByObjectVersion
1070
     0
  0
VISUALSTYLE
  5
18AC
102
{ACAD_XDICTIONARY
360
1913
102
}
102
{ACAD_REACTORS
330
18A4
102
}
330
18A4
100
AcDbVisualStyle
  2
3D Hidden
 70
     6
 71
     1
 72
     2
 73
     2
 90
        0
 40
-0.6
 41
-30.0
 62
     5
 63
     7
 74
     2
 91
        2
 64
     7
 65
   257
 75
     2
175
     1
 42
179.0
 92
        0
 66
   257
 43
1.0
 76
     1
 77
     6
 78
     2
 67
     7
 79
     3
170
     0
171
     0
290
     0
174
     0
 93
        1
 44
0.0
173
     0
291
     0
 45
0.0
1001
ACAD
1000
AcDbSavedByObjectVersion
1070
     0
  0
VISUALSTYLE
  5
18AB
102
{ACAD_XDICTIONARY
360
1911
102
}
102
{ACAD_REACTORS
330
18A4
102
}
330
18A4
100
AcDbVisualStyle
  2
3dWireframe
 70
     5
 71
     0
 72
     2
 73
     0
 90
        0
 40
-0.6
 41
-30.0
 62
     5
 63
     7
 74
     1
 91
        4
 64
     7
 65
   257
 75
     1
175
     1
 42
1.0
 92
        0
 66
   257
 43
1.0
 76
     1
 77
     6
 78
     2
 67
     7
 79
     5
170
     0
171
     0
290
     0
174
     0
 93
        1
 44
0.0
173
     0
291
     0
 45
0.0
1001
ACAD
1000
AcDbSavedByObjectVersion
1070
     0
  0
VISUALSTYLE
  5
18A9
102
{ACAD_XDICTIONARY
360
190D
102
}
102
{ACAD_REACTORS
330
18A4
102
}
330
18A4
100
AcDbVisualStyle
  2
Basic
 70
     7
 71
     1
 72
     0
 73
     1
 90
        0
 40
-0.6
 41
-30.0
 62
     5
 63
     7
 74
     0
 91
        4
 64
     7
 65
   257
 75
     1
175
     1
 42
1.0
 92
        8
 66
     7
 43
1.0
 76
     1
 77
     6
 78
     2
 67
     7
 79
     5
170
     0
171
     0
290
     0
174
     0
 93
        1
 44
0.0
173
     0
291
     1
 45
0.0
1001
ACAD
1000
AcDbSavedByObjectVersion
1070
     0
  0
VISUALSTYLE
  5
18B0
102
{ACAD_XDICTIONARY
360
191B
102
}
102
{ACAD_REACTORS
330
18A4
102
}
330
18A4
100
AcDbVisualStyle
  2
Brighten
 70
    12
 71
     2
 72
     2
 73
     0
 90
        0
 40
-0.6
 41
-30.0
 62
     5
 63
     7
 74
     1
 91
        4
 64
     7
 65
   257
 75
     1
175
     1
 42
1.0
 92
        8
 66
     7
 43
1.0
 76
     1
 77
     6
 78
     2
 67
     7
 79
     5
170
     0
171
     0
290
     0
174
     0
 93
        1
 44
50.0
173
     0
291
     1
 45
0.0
1001
ACAD
1000
AcDbSavedByObjectVersion
1070
     0
  0
VISUALSTYLE
  5
18B4
102
{ACAD_XDICTIONARY
360
1923
102
}
102
{ACAD_REACTORS
330
18A4
102
}
330
18A4
100
AcDbVisualStyle
  2
ColorChange
 70
    16
 71
     2
 72
     2
 73
     3
 90
        0
 40
-0.6
 41
-30.0
 62
     5
 63
     8
 74
     1
 91
        4
 64
     7
 65
   257
 75
     1
175
     1
 42
1.0
 92
        8
 66
     8
 43
1.0
 76
     1
 77
     6
 78
     2
 67
     7
 79
     5
170
     0
171
     0
290
     0
174
     0
 93
        1
 44
0.0
173
     0
291
     1
 45
0.0
1001
ACAD
1000
AcDbSavedByObjectVersion
1070
     0
  0
VISUALSTYLE
  5
18AD
102
{ACAD_XDICTIONARY
360
1915
102
}
102
{ACAD_REACTORS
330
18A4
102
}
330
18A4
100
AcDbVisualStyle
  2
Conceptual
 70
     9
 71
     3
 72
     2
 73
     0
 90
        0
 40
-0.6
 41
-30.0
 62
     5
 63
     7
 74
     2
 91
        2
 64
     7
 65
   257
 75
     1
175
     1
 42
179.0
 92
        8
 66
     7
 43
1.0
 76
     1
 77
     6
 78
     2
 67
     7
 79
     3
170
     0
171
     0
290
     0
174
     0
 93
        1
 44
0.0
173
     0
291
     0
 45
0.0
1001
ACAD
1000
AcDbSavedByObjectVersion
1070
     0
  0
VISUALSTYLE
  5
18AF
102
{ACAD_XDICTIONARY
360
1919
102
}
102
{ACAD_REACTORS
330
18A4
102
}
330
18A4
100
AcDbVisualStyle
  2
Dim
 70
    11
 71
     2
 72
     2
 73
     0
 90
        0
 40
-0.6
 41
-30.0
 62
     5
 63
     7
 74
     1
 91
        4
 64
     7
 65
   257
 75
     1
175
     1
 42
1.0
 92
        8
 66
     7
 43
1.0
 76
     1
 77
     6
 78
     2
 67
     7
 79
     5
170
     0
171
     0
290
     0
174
     0
 93
        1
 44
-50.0
173
     0
291
     1
 45
0.0
1001
ACAD
1000
AcDbSavedByObjectVersion
1070
     0
  0
VISUALSTYLE
  5
18B7
102
{ACAD_XDICTIONARY
360
1929
102
}
102
{ACAD_REACTORS
330
18A4
102
}
330
18A4
100
AcDbVisualStyle
  2
EdgeColorOff
 70
    22
 71
     2
 72
     2
 73
     0
 90
        0
 40
-0.6
 41
-30.0
 62
     5
 63
     7
 74
     1
 91
        4
 64
     7
 65
   257
 75
     1
175
     1
 42
1.0
 92
        8
 66
     7
 43
1.0
 76
     1
 77
     6
 78
     2
 67
     7
 79
     5
170
     0
171
     0
290
     0
174
     0
 93
        1
 44
0.0
173
     0
291
     1
 45
0.0
1001
ACAD
1000
AcDbSavedByObjectVersion
1070
     0
  0
VISUALSTYLE
  5
18B3
102
{ACAD_XDICTIONARY
360
1921
102
}
102
{ACAD_REACTORS
330
18A4
102
}
330
18A4
100
AcDbVisualStyle
  2
Facepattern
 70
    15
 71
     2
 72
     2
 73
     0
 90
        0
 40
-0.6
 41
-30.0
 62
     5
 63
     7
 74
     1
 91
        4
 64
     7
 65
   257
 75
     1
175
     1
 42
1.0
 92
        8
 66
     7
 43
1.0
 76
     1
 77
     6
 78
     2
 67
     7
 79
     5
170
     0
171
     0
290
     0
174
     0
 93
        1
 44
0.0
173
     0
291
     1
 45
0.0
1001
ACAD
1000
AcDbSavedByObjectVersion
1070
     0
  0
VISUALSTYLE
  5
18A5
102
{ACAD_XDICTIONARY
360
1905
102
}
102
{ACAD_REACTORS
330
18A4
102
}
330
18A4
100
AcDbVisualStyle
  2
Flat
 70
     0
 71
     2
 72
     1
 73
     1
 90
        2
 40
-0.6
 41
30.0
 62
     5
 63
     7
 74
     0
 91
        4
 64
     7
 65
   257
 75
     1
175
     1
 42
1.0
 92
        8
 66
     7
 43
1.0
 76
     1
 77
     6
 78
     2
 67
     7
 79
     5
170
     0
171
     0
290
     0
174
     0
 93
       13
 44
0.0
173
     0
291
     1
 45
0.0
1001
ACAD
1000
AcDbSavedByObjectVersion
1070
     0
  0
VISUALSTYLE
  5
18A6
102
{ACAD_XDICTIONARY
360
1907
102
}
102
{ACAD_REACTORS
330
18A4
102
}
330
18A4
100
AcDbVisualStyle
  2
FlatWithEdges
 70
     1
 71
     2
 72
     1
 73
     1
 90
        2
 40
-0.6
 41
30.0
 62
     5
 63
     7
 74
     1
 91
        4
 64
     7
 65
   257
 75
     1
175
     1
 42
1.0
 92
        0
 66
   257
 43
1.0
 76
     1
 77
     6
 78
     2
 67
     7
 79
     5
170
     0
171
     0
290
     0
174
     0
 93
       13
 44
0.0
173
     0
291
     1
 45
0.0
1001
ACAD
1000
AcDbSavedByObjectVersion
1070
     0
  0
VISUALSTYLE
  5
18A7
102
{ACAD_XDICTIONARY
360
1909
102
}
102
{ACAD_REACTORS
330
18A4
102
}
330
18A4
100
AcDbVisualStyle
  2
Gouraud
 70
     2
 71
     2
 72
     2
 73
     1
 90
        2
 40
-0.6
 41
30.0
 62
     5
 63
     7
 74
     0
 91
        4
 64
     7
 65
   257
 75
     1
175
     1
 42
1.0
 92
        0
 66
     7
 43
1.0
 76
     1
 77
     6
 78
     2
 67
     7
 79
     5
170
     0
171
     0
290
     0
174
     0
 93
       13
 44
0.0
173
     0
291
     1
 45
0.0
1001
ACAD
1000
AcDbSavedByObjectVersion
1070
     0
  0
VISUALSTYLE
  5
18A8
102
{ACAD_XDICTIONARY
360
190B
102
}
102
{ACAD_REACTORS
330
18A4
102
}
330
18A4
100
AcDbVisualStyle
  2
GouraudWithEdges
 70
     3
 71
     2
 72
     2
 73
     1
 90
        2
 40
-0.6
 41
30.0
 62
     5
 63
     7
 74
     1
 91
        4
 64
     7
 65
   257
 75
     1
175
     1
 42
1.0
 92
        0
 66
   257
 43
1.0
 76
     1
 77
     6
 78
     2
 67
     7
 79
     5
170
     0
171
     0
290
     0
174
     0
 93
       13
 44
0.0
173
     0
291
     1
 45
0.0
1001
ACAD
1000
AcDbSavedByObjectVersion
1070
     0
  0
VISUALSTYLE
  5
18B5
102
{ACAD_XDICTIONARY
360
1925
102
}
102
{ACAD_REACTORS
330
18A4
102
}
330
18A4
100
AcDbVisualStyle
  2
JitterOff
 70
    20
 71
     2
 72
     2
 73
     0
 90
        0
 40
-0.6
 41
-30.0
 62
     5
 63
     7
 74
     1
 91
        4
 64
     7
 65
   257
 75
     1
175
     1
 42
1.0
 92
       10
 66
     7
 43
1.0
 76
     1
 77
     6
 78
     2
 67
     7
 79
     5
170
     0
171
     0
290
     0
174
     0
 93
        1
 44
0.0
173
     0
291
     1
 45
0.0
1001
ACAD
1000
AcDbSavedByObjectVersion
1070
     0
  0
VISUALSTYLE
  5
18B2
102
{ACAD_XDICTIONARY
360
191F
102
}
102
{ACAD_REACTORS
330
18A4
102
}
330
18A4
100
AcDbVisualStyle
  2
Linepattern
 70
    14
 71
     2
 72
     2
 73
     0
 90
        0
 40
-0.6
 41
-30.0
 62
     5
 63
     7
 74
     1
 91
        4
 64
     7
 65
   257
 75
     7
175
     7
 42
1.0
 92
        8
 66
     7
 43
1.0
 76
     1
 77
     6
 78
     2
 67
     7
 79
     5
170
     0
171
     0
290
     0
174
     0
 93
        1
 44
0.0
173
     0
291
     1
 45
0.0
1001
ACAD
1000
AcDbSavedByObjectVersion
1070
     0
  0
VISUALSTYLE
  5
18B6
102
{ACAD_XDICTIONARY
360
1927
102
}
102
{ACAD_REACTORS
330
18A4
102
}
330
18A4
100
AcDbVisualStyle
  2
OverhangOff
 70
    21
 71
     2
 72
     2
 73
     0
 90
        0
 40
-0.6
 41
-30.0
 62
     5
 63
     7
 74
     1
 91
        4
 64
     7
 65
   257
 75
     1
175
     1
 42
1.0
 92
        9
 66
     7
 43
1.0
 76
     1
 77
     6
 78
     2
 67
     7
 79
     5
170
     0
171
     0
290
     0
174
     0
 93
        1
 44
0.0
173
     0
291
     1
 45
0.0
1001
ACAD
1000
AcDbSavedByObjectVersion
1070
     0
  0
VISUALSTYLE
  5
18AE
102
{ACAD_XDICTIONARY
360
1917
102
}
102
{ACAD_REACTORS
330
18A4
102
}
330
18A4
100
AcDbVisualStyle
  2
Realistic
 70
     8
 71
     2
 72
     2
 73
     0
 90
        0
 40
-0.6
 41
-30.0
 62
     5
 63
     7
 74
     1
 91
        0
 64
     7
 65
   257
 75
     1
175
     1
 42
1.0
 92
        8
 66
     8
 43
1.0
 76
     1
 77
     6
 78
     2
 67
     7
 79
     5
170
     0
171
     0
290
     0
174
     0
 93
       13
 44
0.0
173
     0
291
     0
 45
0.0
1001
ACAD
1000
AcDbSavedByObjectVersion
1070
     0
  0
VISUALSTYLE
  5
18B1
102
{ACAD_XDICTIONARY
360
191D
102
}
102
{ACAD_REACTORS
330
18A4
102
}
330
18A4
100
AcDbVisualStyle
  2
Thicken
 70
    13
 71
     2
 72
     2
 73
     0
 90
        0
 40
-0.6
 41
-30.0
 62
     5
 63
     7
 74
     1
 91
        4
 64
     7
 65
   257
 75
     1
175
     1
 42
1.0
 92
       12
 66
     7
 43
1.0
 76
     1
 77
     6
 78
     2
 67
     7
 79
     5
170
     0
171
     0
290
     0
174
     0
 93
        1
 44
0.0
173
     0
291
     1
 45
0.0
1001
ACAD
1000
AcDbSavedByObjectVersion
1070
     0
  0
DICTIONARYVAR
  5
18F3
102
{ACAD_REACTORS
330
3D
102
}
330
3D
100
DictionaryVariables
280
     0
  1
1:1
  0
DICTIONARYVAR
  5
18F2
102
{ACAD_REACTORS
330
3D
102
}
330
3D
100
DictionaryVariables
280
     0
  1
STANDARD
  0
DICTIONARYVAR
  5
1755
102
{ACAD_REACTORS
330
3D
102
}
330
3D
100
DictionaryVariables
280
     0
  1
STANDARD
  0
DICTIONARYVAR
  5
3F
102
{ACAD_REACTORS
330
3D
102
}
330
3D
100
DictionaryVariables
280
     0
  1
2
  0
DICTIONARYVAR
  5
3E
102
{ACAD_REACTORS
330
3D
102
}
330
3D
100
DictionaryVariables
280
     0
  1
1
  0
DICTIONARYVAR
  5
18F5
102
{ACAD_REACTORS
330
3D
102
}
330
3D
100
DictionaryVariables
280
     0
  1
0
  0
DICTIONARYVAR
  5
188A
102
{ACAD_REACTORS
330
3D
102
}
330
3D
100
DictionaryVariables
280
     0
  1

  0
DICTIONARYVAR
  5
18F4
102
{ACAD_REACTORS
330
3D
102
}
330
3D
100
DictionaryVariables
280
     0
  1
127
  0
DICTIONARYVAR
  5
18F6
102
{ACAD_REACTORS
330
3D
102
}
330
3D
100
DictionaryVariables
280
     0
  1
2
  0
XRECORD
  5
16C3
102
{ACAD_REACTORS
330
16C2
102
}
330
16C2
100
AcDbXrecord
280
     1
  0
DICTIONARY
  5
18FB
330
1E
100
AcDbDictionary
280
     1
281
     1
  3
ACAD_XREC_ROUNDTRIP
360
18FC
  0
DICTIONARY
  5
18FF
330
26
100
AcDbDictionary
280
     1
281
     1
  3
ACAD_XREC_ROUNDTRIP
360
1900
  0
DICTIONARY
  5
18FD
330
22
100
AcDbDictionary
280
     1
281
     1
  3
ACAD_XREC_ROUNDTRIP
360
18FE
  0
DICTIONARY
  5
1895
330
1894
100
AcDbDictionary
280
     1
281
     1
  3
ACAD_XREC_ROUNDTRIP
360
1903
  3
BUMPTILE
360
1897
  3
DIFFUSETILE
360
1896
  3
OPACITYTILE
360
189A
  3
REFLECTIONTILE
360
1899
  3
REFRACTIONTILE
360
189B
  3
SPECULARTILE
360
1898
  0
DICTIONARY
  5
188D
330
188C
100
AcDbDictionary
280
     1
281
     1
  3
ACAD_XREC_ROUNDTRIP
360
1902
  3
BUMPTILE
360
188F
  3
DIFFUSETILE
360
188E
  3
OPACITYTILE
360
1892
  3
REFLECTIONTILE
360
1891
  3
REFRACTIONTILE
360
1893
  3
SPECULARTILE
360
1890
  0
DICTIONARY
  5
189D
330
189C
100
AcDbDictionary
280
     1
281
     1
  3
ACAD_XREC_ROUNDTRIP
360
1904
  3
BUMPTILE
360
189F
  3
DIFFUSETILE
360
189E
  3
OPACITYTILE
360
18A2
  3
REFLECTIONTILE
360
18A1
  3
REFRACTIONTILE
360
18A3
  3
SPECULARTILE
360
18A0
  0
DICTIONARY
  5
18F7
330
16CB
100
AcDbDictionary
280
     1
281
     1
  3
ACAD_ROUNDTRIP_2008_TABLESTYLE_CELLSTYLEMAP
360
18F8
  3
ACAD_XREC_ROUNDTRIP
360
1901
  0
DICTIONARY
  5
190F
330
18AA
100
AcDbDictionary
280
     1
281
     1
  3
ACAD_XREC_ROUNDTRIP
360
1910
  0
DICTIONARY
  5
1913
330
18AC
100
AcDbDictionary
280
     1
281
     1
  3
ACAD_XREC_ROUNDTRIP
360
1914
  0
DICTIONARY
  5
1911
330
18AB
100
AcDbDictionary
280
     1
281
     1
  3
ACAD_XREC_ROUNDTRIP
360
1912
  0
DICTIONARY
  5
190D
330
18A9
100
AcDbDictionary
280
     1
281
     1
  3
ACAD_XREC_ROUNDTRIP
360
190E
  0
DICTIONARY
  5
191B
330
18B0
100
AcDbDictionary
280
     1
281
     1
  3
ACAD_XREC_ROUNDTRIP
360
191C
  0
DICTIONARY
  5
1923
330
18B4
100
AcDbDictionary
280
     1
281
     1
  3
ACAD_XREC_ROUNDTRIP
360
1924
  0
DICTIONARY
  5
1915
330
18AD
100
AcDbDictionary
280
     1
281
     1
  3
ACAD_XREC_ROUNDTRIP
360
1916
  0
DICTIONARY
  5
1919
330
18AF
100
AcDbDictionary
280
     1
281
     1
  3
ACAD_XREC_ROUNDTRIP
360
191A
  0
DICTIONARY
  5
1929
330
18B7
100
AcDbDictionary
280
     1
281
     1
  3
ACAD_XREC_ROUNDTRIP
360
192A
  0
DICTIONARY
  5
1921
330
18B3
100
AcDbDictionary
280
     1
281
     1
  3
ACAD_XREC_ROUNDTRIP
360
1922
  0
DICTIONARY
  5
1905
330
18A5
100
AcDbDictionary
280
     1
281
     1
  3
ACAD_XREC_ROUNDTRIP
360
1906
  0
DICTIONARY
  5
1907
330
18A6
100
AcDbDictionary
280
     1
281
     1
  3
ACAD_XREC_ROUNDTRIP
360
1908
  0
DICTIONARY
  5
1909
330
18A7
100
AcDbDictionary
280
     1
281
     1
  3
ACAD_XREC_ROUNDTRIP
360
190A
  0
DICTIONARY
  5
190B
330
18A8
100
AcDbDictionary
280
     1
281
     1
  3
ACAD_XREC_ROUNDTRIP
360
190C
  0
DICTIONARY
  5
1925
330
18B5
100
AcDbDictionary
280
     1
281
     1
  3
ACAD_XREC_ROUNDTRIP
360
1926
  0
DICTIONARY
  5
191F
330
18B2
100
AcDbDictionary
280
     1
281
     1
  3
ACAD_XREC_ROUNDTRIP
360
1920
  0
DICTIONARY
  5
1927
330
18B6
100
AcDbDictionary
280
     1
281
     1
  3
ACAD_XREC_ROUNDTRIP
360
1928
  0
DICTIONARY
  5
1917
330
18AE
100
AcDbDictionary
280
     1
281
     1
  3
ACAD_XREC_ROUNDTRIP
360
1918
  0
DICTIONARY
  5
191D
330
18B1
100
AcDbDictionary
280
     1
281
     1
  3
ACAD_XREC_ROUNDTRIP
360
191E
  0
XRECORD
  5
18FC
102
{ACAD_REACTORS
330
18FB
102
}
330
18FB
100
AcDbXrecord
280
     1
102
SHADEPLOT
 70
     0
102
SHADEPLOTRESLEVEL
 70
     2
102
SHADEPLOTCUSTOMDPI
 70
   300
  0
XRECORD
  5
1900
102
{ACAD_REACTORS
330
18FF
102
}
330
18FF
100
AcDbXrecord
280
     1
102
SHADEPLOT
 70
     0
102
SHADEPLOTRESLEVEL
 70
     2
102
SHADEPLOTCUSTOMDPI
 70
   300
  0
XRECORD
  5
18FE
102
{ACAD_REACTORS
330
18FD
102
}
330
18FD
100
AcDbXrecord
280
     1
102
SHADEPLOT
 70
     0
102
SHADEPLOTRESLEVEL
 70
     2
102
SHADEPLOTCUSTOMDPI
 70
   300
  0
XRECORD
  5
1903
102
{ACAD_REACTORS
330
1895
102
}
330
1895
100
AcDbXrecord
280
     1
102
MATERIAL
148
0.0
149
0.0
149
0.0
 93
        0
 94
      127
282
     0
 72
     0
 77
     0
171
     0
175
     0
179
     0
273
     0
  0
XRECORD
  5
1897
102
{ACAD_REACTORS
330
1895
102
}
330
1895
100
AcDbXrecord
280
     1
270
     1
271
     1
  0
XRECORD
  5
1896
102
{ACAD_REACTORS
330
1895
102
}
330
1895
100
AcDbXrecord
280
     1
270
     1
271
     1
  0
XRECORD
  5
189A
102
{ACAD_REACTORS
330
1895
102
}
330
1895
100
AcDbXrecord
280
     1
270
     1
271
     1
  0
XRECORD
  5
1899
102
{ACAD_REACTORS
330
1895
102
}
330
1895
100
AcDbXrecord
280
     1
270
     1
271
     1
  0
XRECORD
  5
189B
102
{ACAD_REACTORS
330
1895
102
}
330
1895
100
AcDbXrecord
280
     1
270
     1
271
     1
  0
XRECORD
  5
1898
102
{ACAD_REACTORS
330
1895
102
}
330
1895
100
AcDbXrecord
280
     1
270
     1
271
     1
  0
XRECORD
  5
1902
102
{ACAD_REACTORS
330
188D
102
}
330
188D
100
AcDbXrecord
280
     1
102
MATERIAL
148
0.0
149
0.0
149
0.0
 93
        0
 94
      127
282
     0
 72
     0
 77
     0
171
     0
175
     0
179
     0
273
     0
  0
XRECORD
  5
188F
102
{ACAD_REACTORS
330
188D
102
}
330
188D
100
AcDbXrecord
280
     1
270
     1
271
     1
  0
XRECORD
  5
188E
102
{ACAD_REACTORS
330
188D
102
}
330
188D
100
AcDbXrecord
280
     1
270
     1
271
     1
  0
XRECORD
  5
1892
102
{ACAD_REACTORS
330
188D
102
}
330
188D
100
AcDbXrecord
280
     1
270
     1
271
     1
  0
XRECORD
  5
1891
102
{ACAD_REACTORS
330
188D
102
}
330
188D
100
AcDbXrecord
280
     1
270
     1
271
     1
  0
XRECORD
  5
1893
102
{ACAD_REACTORS
330
188D
102
}
330
188D
100
AcDbXrecord
280
     1
270
     1
271
     1
  0
XRECORD
  5
1890
102
{ACAD_REACTORS
330
188D
102
}
330
188D
100
AcDbXrecord
280
     1
270
     1
271
     1
  0
XRECORD
  5
1904
102
{ACAD_REACTORS
330
189D
102
}
330
189D
100
AcDbXrecord
280
     1
102
MATERIAL
148
0.0
149
0.0
149
0.0
 93
        0
 94
      127
282
     0
 72
     0
 77
     0
171
     0
175
     0
179
     0
273
     0
  0
XRECORD
  5
189F
102
{ACAD_REACTORS
330
189D
102
}
330
189D
100
AcDbXrecord
280
     1
270
     1
271
     1
  0
XRECORD
  5
189E
102
{ACAD_REACTORS
330
189D
102
}
330
189D
100
AcDbXrecord
280
     1
270
     1
271
     1
  0
XRECORD
  5
18A2
102
{ACAD_REACTORS
330
189D
102
}
330
189D
100
AcDbXrecord
280
     1
270
     1
271
     1
  0
XRECORD
  5
18A1
102
{ACAD_REACTORS
330
189D
102
}
330
189D
100
AcDbXrecord
280
     1
270
     1
271
     1
  0
XRECORD
  5
18A3
102
{ACAD_REACTORS
330
189D
102
}
330
189D
100
AcDbXrecord
280
     1
270
     1
271
     1
  0
XRECORD
  5
18A0
102
{ACAD_REACTORS
330
189D
102
}
330
189D
100
AcDbXrecord
280
     1
270
     1
271
     1
  0
CELLSTYLEMAP
  5
18F8
102
{ACAD_REACTORS
330
18F7
102
}
330
18F7
100
AcDbCellStyleMap
 90
        3
300
CELLSTYLE
  1
TABLEFORMAT_BEGIN
 90
        5
170
     1
 91
        0
 92
    32768
 62
   257
 93
        1
300
CONTENTFORMAT
  1
CONTENTFORMAT_BEGIN
 90
        0
 91
        0
 92
        4
 93
        0
300

 40
0.0
140
1.0
 94
        5
 62
     0
340
11
144
6.0
309
CONTENTFORMAT_END
171
     1
301
MARGIN
  1
CELLMARGIN_BEGIN
 40
1.5
 40
1.5
 40
1.5
 40
1.5
 40
0.18
 40
0.18
309
CELLMARGIN_END
 94
        6
 95
        1
302
GRIDFORMAT
  1
GRIDFORMAT_BEGIN
 90
        0
 91
        1
 62
     0
 92
       -2
340
0
 93
        0
 40
0.045
309
GRIDFORMAT_END
 95
        2
302
GRIDFORMAT
  1
GRIDFORMAT_BEGIN
 90
        0
 91
        1
 62
     0
 92
       -2
340
0
 93
        0
 40
0.045
309
GRIDFORMAT_END
 95
        4
302
GRIDFORMAT
  1
GRIDFORMAT_BEGIN
 90
        0
 91
        1
 62
     0
 92
       -2
340
0
 93
        0
 40
0.045
309
GRIDFORMAT_END
 95
        8
302
GRIDFORMAT
  1
GRIDFORMAT_BEGIN
 90
        0
 91
        1
 62
     0
 92
       -2
340
0
 93
        0
 40
0.045
309
GRIDFORMAT_END
 95
       16
302
GRIDFORMAT
  1
GRIDFORMAT_BEGIN
 90
        0
 91
        1
 62
     0
 92
       -2
340
0
 93
        0
 40
0.045
309
GRIDFORMAT_END
 95
       32
302
GRIDFORMAT
  1
GRIDFORMAT_BEGIN
 90
        0
 91
        1
 62
     0
 92
       -2
340
0
 93
        0
 40
0.045
309
GRIDFORMAT_END
309
TABLEFORMAT_END
  1
CELLSTYLE_BEGIN
 90
        1
 91
        1
300
_TITLE
309
CELLSTYLE_END
300
CELLSTYLE
  1
TABLEFORMAT_BEGIN
 90
        5
170
     1
 91
        0
 92
        0
 62
   257
 93
        1
300
CONTENTFORMAT
  1
CONTENTFORMAT_BEGIN
 90
        0
 91
        0
 92
        4
 93
        0
300

 40
0.0
140
1.0
 94
        5
 62
     0
340
11
144
4.5
309
CONTENTFORMAT_END
171
     1
301
MARGIN
  1
CELLMARGIN_BEGIN
 40
1.5
 40
1.5
 40
1.5
 40
1.5
 40
0.18
 40
0.18
309
CELLMARGIN_END
 94
        6
 95
        1
302
GRIDFORMAT
  1
GRIDFORMAT_BEGIN
 90
        0
 91
        1
 62
     0
 92
       -2
340
0
 93
        0
 40
0.045
309
GRIDFORMAT_END
 95
        2
302
GRIDFORMAT
  1
GRIDFORMAT_BEGIN
 90
        0
 91
        1
 62
     0
 92
       -2
340
0
 93
        0
 40
0.045
309
GRIDFORMAT_END
 95
        4
302
GRIDFORMAT
  1
GRIDFORMAT_BEGIN
 90
        0
 91
        1
 62
     0
 92
       -2
340
0
 93
        0
 40
0.045
309
GRIDFORMAT_END
 95
        8
302
GRIDFORMAT
  1
GRIDFORMAT_BEGIN
 90
        0
 91
        1
 62
     0
 92
       -2
340
0
 93
        0
 40
0.045
309
GRIDFORMAT_END
 95
       16
302
GRIDFORMAT
  1
GRIDFORMAT_BEGIN
 90
        0
 91
        1
 62
     0
 92
       -2
340
0
 93
        0
 40
0.045
309
GRIDFORMAT_END
 95
       32
302
GRIDFORMAT
  1
GRIDFORMAT_BEGIN
 90
        0
 91
        1
 62
     0
 92
       -2
340
0
 93
        0
 40
0.045
309
GRIDFORMAT_END
309
TABLEFORMAT_END
  1
CELLSTYLE_BEGIN
 90
        2
 91
        1
300
_HEADER
309
CELLSTYLE_END
300
CELLSTYLE
  1
TABLEFORMAT_BEGIN
 90
        5
170
     1
 91
        0
 92
        0
 62
   257
 93
        1
300
CONTENTFORMAT
  1
CONTENTFORMAT_BEGIN
 90
        0
 91
        0
 92
        4
 93
        0
300

 40
0.0
140
1.0
 94
        2
 62
     0
340
11
144
4.5
309
CONTENTFORMAT_END
171
     1
301
MARGIN
  1
CELLMARGIN_BEGIN
 40
1.5
 40
1.5
 40
1.5
 40
1.5
 40
0.18
 40
0.18
309
CELLMARGIN_END
 94
        6
 95
        1
302
GRIDFORMAT
  1
GRIDFORMAT_BEGIN
 90
        0
 91
        1
 62
     0
 92
       -2
340
0
 93
        0
 40
0.045
309
GRIDFORMAT_END
 95
        2
302
GRIDFORMAT
  1
GRIDFORMAT_BEGIN
 90
        0
 91
        1
 62
     0
 92
       -2
340
0
 93
        0
 40
0.045
309
GRIDFORMAT_END
 95
        4
302
GRIDFORMAT
  1
GRIDFORMAT_BEGIN
 90
        0
 91
        1
 62
     0
 92
       -2
340
0
 93
        0
 40
0.045
309
GRIDFORMAT_END
 95
        8
302
GRIDFORMAT
  1
GRIDFORMAT_BEGIN
 90
        0
 91
        1
 62
     0
 92
       -2
340
0
 93
        0
 40
0.045
309
GRIDFORMAT_END
 95
       16
302
GRIDFORMAT
  1
GRIDFORMAT_BEGIN
 90
        0
 91
        1
 62
     0
 92
       -2
340
0
 93
        0
 40
0.045
309
GRIDFORMAT_END
 95
       32
302
GRIDFORMAT
  1
GRIDFORMAT_BEGIN
 90
        0
 91
        1
 62
     0
 92
       -2
340
0
 93
        0
 40
0.045
309
GRIDFORMAT_END
309
TABLEFORMAT_END
  1
CELLSTYLE_BEGIN
 90
        3
 91
        2
300
_DATA
309
CELLSTYLE_END
  0
XRECORD
  5
1901
102
{ACAD_REACTORS
330
18F7
102
}
330
18F7
100
AcDbXrecord
280
     1
102
ACAD_ROUNDTRIP_PRE2007_TABLESTYLE
 90
        4
 91
        0
  1

 92
        4
 93
        0
  2

 94
        4
 95
        0
  3

  0
XRECORD
  5
1910
102
{ACAD_REACTORS
330
190F
102
}
330
190F
100
AcDbXrecord
280
     1
102
RTVSPropertyOp0
 70
     1
102
RTVSPropertyOp1
 70
     1
102
RTVSPropertyOp2
 70
     1
102
RTVSPropertyOp3
 70
     1
102
RTVSPropertyOp4
 70
     1
102
RTVSPropertyOp5
 70
     1
102
RTVSPropertyOp6
 70
     1
102
RTVSPropertyOp7
 70
     1
102
RTVSPropertyOp8
 70
     1
102
RTVSPropertyOp9
 70
     1
102
RTVSPropertyOp10
 70
     1
102
RTVSPropertyOp11
 70
     1
102
RTVSPropertyOp12
 70
     1
102
RTVSPropertyOp13
 70
     1
102
RTVSPropertyOp14
 70
     1
102
RTVSPropertyOp15
 70
     1
102
RTVSPropertyOp16
 70
     1
102
RTVSPropertyOp17
 70
     1
102
RTVSPropertyOp18
 70
     1
102
RTVSPropertyOp19
 70
     1
102
RTVSPropertyOp20
 70
     1
102
RTVSPropertyOp21
 70
     1
102
RTVSPropertyOp22
 70
     1
102
RTVSPropertyOp23
 70
     1
102
RTVSPropertyOp24
 70
     1
102
RTVSPropertyOp25
 70
     1
102
RTVSPropertyOp26
 70
     1
102
RTVSPropertyOp27
 70
     1
  0
XRECORD
  5
1914
102
{ACAD_REACTORS
330
1913
102
}
330
1913
100
AcDbXrecord
280
     1
102
RTVSPropertyOp0
 70
     1
102
RTVSPropertyOp1
 70
     1
102
RTVSPropertyOp2
 70
     1
102
RTVSPropertyOp3
 70
     1
102
RTVSPropertyOp4
 70
     1
102
RTVSPropertyOp5
 70
     1
102
RTVSPropertyOp6
 70
     1
102
RTVSPropertyOp7
 70
     1
102
RTVSPropertyOp8
 70
     1
102
RTVSPropertyOp9
 70
     1
102
RTVSPropertyOp10
 70
     1
102
RTVSPropertyOp11
 70
     1
102
RTVSPropertyOp12
 70
     1
102
RTVSPropertyOp13
 70
     1
102
RTVSPropertyOp14
 70
     1
102
RTVSPropertyOp15
 70
     1
102
RTVSPropertyOp16
 70
     1
102
RTVSPropertyOp17
 70
     1
102
RTVSPropertyOp18
 70
     1
102
RTVSPropertyOp19
 70
     1
102
RTVSPropertyOp20
 70
     1
102
RTVSPropertyOp21
 70
     1
102
RTVSPropertyOp22
 70
     1
102
RTVSPropertyOp23
 70
     1
102
RTVSPropertyOp24
 70
     1
102
RTVSPropertyOp25
 70
     1
102
RTVSPropertyOp26
 70
     1
102
RTVSPropertyOp27
 70
     1
  0
XRECORD
  5
1912
102
{ACAD_REACTORS
330
1911
102
}
330
1911
100
AcDbXrecord
280
     1
102
RTVSPropertyOp0
 70
     1
102
RTVSPropertyOp1
 70
     1
102
RTVSPropertyOp2
 70
     1
102
RTVSPropertyOp3
 70
     1
102
RTVSPropertyOp4
 70
     1
102
RTVSPropertyOp5
 70
     1
102
RTVSPropertyOp6
 70
     1
102
RTVSPropertyOp7
 70
     1
102
RTVSPropertyOp8
 70
     1
102
RTVSPropertyOp9
 70
     1
102
RTVSPropertyOp10
 70
     1
102
RTVSPropertyOp11
 70
     1
102
RTVSPropertyOp12
 70
     1
102
RTVSPropertyOp13
 70
     1
102
RTVSPropertyOp14
 70
     1
102
RTVSPropertyOp15
 70
     1
102
RTVSPropertyOp16
 70
     1
102
RTVSPropertyOp17
 70
     1
102
RTVSPropertyOp18
 70
     1
102
RTVSPropertyOp19
 70
     1
102
RTVSPropertyOp20
 70
     1
102
RTVSPropertyOp21
 70
     1
102
RTVSPropertyOp22
 70
     1
102
RTVSPropertyOp23
 70
     1
102
RTVSPropertyOp24
 70
     1
102
RTVSPropertyOp25
 70
     1
102
RTVSPropertyOp26
 70
     1
102
RTVSPropertyOp27
 70
     1
  0
XRECORD
  5
190E
102
{ACAD_REACTORS
330
190D
102
}
330
190D
100
AcDbXrecord
280
     1
102
RTVSPropertyOp0
 70
     1
102
RTVSPropertyOp1
 70
     1
102
RTVSPropertyOp2
 70
     1
102
RTVSPropertyOp3
 70
     1
102
RTVSPropertyOp4
 70
     1
102
RTVSPropertyOp5
 70
     1
102
RTVSPropertyOp6
 70
     1
102
RTVSPropertyOp7
 70
     1
102
RTVSPropertyOp8
 70
     1
102
RTVSPropertyOp9
 70
     1
102
RTVSPropertyOp10
 70
     1
102
RTVSPropertyOp11
 70
     1
102
RTVSPropertyOp12
 70
     1
102
RTVSPropertyOp13
 70
     1
102
RTVSPropertyOp14
 70
     1
102
RTVSPropertyOp15
 70
     1
102
RTVSPropertyOp16
 70
     1
102
RTVSPropertyOp17
 70
     1
102
RTVSPropertyOp18
 70
     1
102
RTVSPropertyOp19
 70
     1
102
RTVSPropertyOp20
 70
     1
102
RTVSPropertyOp21
 70
     1
102
RTVSPropertyOp22
 70
     1
102
RTVSPropertyOp23
 70
     1
102
RTVSPropertyOp24
 70
     1
102
RTVSPropertyOp25
 70
     1
102
RTVSPropertyOp26
 70
     1
102
RTVSPropertyOp27
 70
     1
  0
XRECORD
  5
191C
102
{ACAD_REACTORS
330
191B
102
}
330
191B
100
AcDbXrecord
280
     1
102
RTVSPropertyOp0
 70
     1
102
RTVSPropertyOp1
 70
     1
102
RTVSPropertyOp2
 70
     1
102
RTVSPropertyOp3
 70
     1
102
RTVSPropertyOp4
 70
     1
102
RTVSPropertyOp5
 70
     1
102
RTVSPropertyOp6
 70
     1
102
RTVSPropertyOp7
 70
     1
102
RTVSPropertyOp8
 70
     1
102
RTVSPropertyOp9
 70
     1
102
RTVSPropertyOp10
 70
     1
102
RTVSPropertyOp11
 70
     1
102
RTVSPropertyOp12
 70
     1
102
RTVSPropertyOp13
 70
     1
102
RTVSPropertyOp14
 70
     1
102
RTVSPropertyOp15
 70
     1
102
RTVSPropertyOp16
 70
     1
102
RTVSPropertyOp17
 70
     1
102
RTVSPropertyOp18
 70
     1
102
RTVSPropertyOp19
 70
     1
102
RTVSPropertyOp20
 70
     1
102
RTVSPropertyOp21
 70
     1
102
RTVSPropertyOp22
 70
     1
102
RTVSPropertyOp23
 70
     1
102
RTVSPropertyOp24
 70
     1
102
RTVSPropertyOp25
 70
     1
102
RTVSPropertyOp26
 70
     1
102
RTVSPropertyOp27
 70
     1
  0
XRECORD
  5
1924
102
{ACAD_REACTORS
330
1923
102
}
330
1923
100
AcDbXrecord
280
     1
102
RTVSPropertyOp0
 70
     1
102
RTVSPropertyOp1
 70
     1
102
RTVSPropertyOp2
 70
     1
102
RTVSPropertyOp3
 70
     1
102
RTVSPropertyOp4
 70
     1
102
RTVSPropertyOp5
 70
     1
102
RTVSPropertyOp6
 70
     1
102
RTVSPropertyOp7
 70
     1
102
RTVSPropertyOp8
 70
     1
102
RTVSPropertyOp9
 70
     1
102
RTVSPropertyOp10
 70
     1
102
RTVSPropertyOp11
 70
     1
102
RTVSPropertyOp12
 70
     1
102
RTVSPropertyOp13
 70
     1
102
RTVSPropertyOp14
 70
     1
102
RTVSPropertyOp15
 70
     1
102
RTVSPropertyOp16
 70
     1
102
RTVSPropertyOp17
 70
     1
102
RTVSPropertyOp18
 70
     1
102
RTVSPropertyOp19
 70
     1
102
RTVSPropertyOp20
 70
     1
102
RTVSPropertyOp21
 70
     1
102
RTVSPropertyOp22
 70
     1
102
RTVSPropertyOp23
 70
     1
102
RTVSPropertyOp24
 70
     1
102
RTVSPropertyOp25
 70
     1
102
RTVSPropertyOp26
 70
     1
102
RTVSPropertyOp27
 70
     1
  0
XRECORD
  5
1916
102
{ACAD_REACTORS
330
1915
102
}
330
1915
100
AcDbXrecord
280
     1
102
RTVSPropertyOp0
 70
     1
102
RTVSPropertyOp1
 70
     1
102
RTVSPropertyOp2
 70
     1
102
RTVSPropertyOp3
 70
     1
102
RTVSPropertyOp4
 70
     1
102
RTVSPropertyOp5
 70
     1
102
RTVSPropertyOp6
 70
     1
102
RTVSPropertyOp7
 70
     1
102
RTVSPropertyOp8
 70
     1
102
RTVSPropertyOp9
 70
     1
102
RTVSPropertyOp10
 70
     1
102
RTVSPropertyOp11
 70
     1
102
RTVSPropertyOp12
 70
     1
102
RTVSPropertyOp13
 70
     1
102
RTVSPropertyOp14
 70
     1
102
RTVSPropertyOp15
 70
     1
102
RTVSPropertyOp16
 70
     1
102
RTVSPropertyOp17
 70
     1
102
RTVSPropertyOp18
 70
     1
102
RTVSPropertyOp19
 70
     1
102
RTVSPropertyOp20
 70
     1
102
RTVSPropertyOp21
 70
     1
102
RTVSPropertyOp22
 70
     1
102
RTVSPropertyOp23
 70
     1
102
RTVSPropertyOp24
 70
     1
102
RTVSPropertyOp25
 70
     1
102
RTVSPropertyOp26
 70
     1
102
RTVSPropertyOp27
 70
     1
  0
XRECORD
  5
191A
102
{ACAD_REACTORS
330
1919
102
}
330
1919
100
AcDbXrecord
280
     1
102
RTVSPropertyOp0
 70
     1
102
RTVSPropertyOp1
 70
     1
102
RTVSPropertyOp2
 70
     1
102
RTVSPropertyOp3
 70
     1
102
RTVSPropertyOp4
 70
     1
102
RTVSPropertyOp5
 70
     1
102
RTVSPropertyOp6
 70
     1
102
RTVSPropertyOp7
 70
     1
102
RTVSPropertyOp8
 70
     1
102
RTVSPropertyOp9
 70
     1
102
RTVSPropertyOp10
 70
     1
102
RTVSPropertyOp11
 70
     1
102
RTVSPropertyOp12
 70
     1
102
RTVSPropertyOp13
 70
     1
102
RTVSPropertyOp14
 70
     1
102
RTVSPropertyOp15
 70
     1
102
RTVSPropertyOp16
 70
     1
102
RTVSPropertyOp17
 70
     1
102
RTVSPropertyOp18
 70
     1
102
RTVSPropertyOp19
 70
     1
102
RTVSPropertyOp20
 70
     1
102
RTVSPropertyOp21
 70
     1
102
RTVSPropertyOp22
 70
     1
102
RTVSPropertyOp23
 70
     1
102
RTVSPropertyOp24
 70
     1
102
RTVSPropertyOp25
 70
     1
102
RTVSPropertyOp26
 70
     1
102
RTVSPropertyOp27
 70
     1
  0
XRECORD
  5
192A
102
{ACAD_REACTORS
330
1929
102
}
330
1929
100
AcDbXrecord
280
     1
102
RTVSPropertyOp0
 70
     0
102
RTVSPropertyOp1
 70
     0
102
RTVSPropertyOp2
 70
     0
102
RTVSPropertyOp3
 70
     0
102
RTVSPropertyOp4
 70
     0
102
RTVSPropertyOp5
 70
     0
102
RTVSPropertyOp6
 70
     0
102
RTVSPropertyOp7
 70
     0
102
RTVSPropertyOp8
 70
     0
102
RTVSPropertyOp9
 70
     0
102
RTVSPropertyOp10
 70
     0
102
RTVSPropertyOp11
 70
     0
102
RTVSPropertyOp12
 70
     0
102
RTVSPropertyOp13
 70
     0
102
RTVSPropertyOp14
 70
     2
102
RTVSPropertyOp15
 70
     0
102
RTVSPropertyOp16
 70
     0
102
RTVSPropertyOp17
 70
     0
102
RTVSPropertyOp18
 70
     0
102
RTVSPropertyOp19
 70
     0
102
RTVSPropertyOp20
 70
     0
102
RTVSPropertyOp21
 70
     0
102
RTVSPropertyOp22
 70
     0
102
RTVSPropertyOp23
 70
     0
102
RTVSPropertyOp24
 70
     0
102
RTVSPropertyOp25
 70
     0
102
RTVSPropertyOp26
 70
     0
102
RTVSPropertyOp27
 70
     0
  0
XRECORD
  5
1922
102
{ACAD_REACTORS
330
1921
102
}
330
1921
100
AcDbXrecord
280
     1
102
RTVSPropertyOp0
 70
     1
102
RTVSPropertyOp1
 70
     1
102
RTVSPropertyOp2
 70
     1
102
RTVSPropertyOp3
 70
     1
102
RTVSPropertyOp4
 70
     1
102
RTVSPropertyOp5
 70
     1
102
RTVSPropertyOp6
 70
     1
102
RTVSPropertyOp7
 70
     1
102
RTVSPropertyOp8
 70
     1
102
RTVSPropertyOp9
 70
     1
102
RTVSPropertyOp10
 70
     1
102
RTVSPropertyOp11
 70
     1
102
RTVSPropertyOp12
 70
     1
102
RTVSPropertyOp13
 70
     1
102
RTVSPropertyOp14
 70
     1
102
RTVSPropertyOp15
 70
     1
102
RTVSPropertyOp16
 70
     1
102
RTVSPropertyOp17
 70
     1
102
RTVSPropertyOp18
 70
     1
102
RTVSPropertyOp19
 70
     1
102
RTVSPropertyOp20
 70
     1
102
RTVSPropertyOp21
 70
     1
102
RTVSPropertyOp22
 70
     1
102
RTVSPropertyOp23
 70
     1
102
RTVSPropertyOp24
 70
     1
102
RTVSPropertyOp25
 70
     1
102
RTVSPropertyOp26
 70
     1
102
RTVSPropertyOp27
 70
     1
  0
XRECORD
  5
1906
102
{ACAD_REACTORS
330
1905
102
}
330
1905
100
AcDbXrecord
280
     1
102
RTVSPropertyOp0
 70
     1
102
RTVSPropertyOp1
 70
     1
102
RTVSPropertyOp2
 70
     1
102
RTVSPropertyOp3
 70
     1
102
RTVSPropertyOp4
 70
     1
102
RTVSPropertyOp5
 70
     1
102
RTVSPropertyOp6
 70
     1
102
RTVSPropertyOp7
 70
     1
102
RTVSPropertyOp8
 70
     1
102
RTVSPropertyOp9
 70
     1
102
RTVSPropertyOp10
 70
     1
102
RTVSPropertyOp11
 70
     1
102
RTVSPropertyOp12
 70
     1
102
RTVSPropertyOp13
 70
     1
102
RTVSPropertyOp14
 70
     1
102
RTVSPropertyOp15
 70
     1
102
RTVSPropertyOp16
 70
     1
102
RTVSPropertyOp17
 70
     1
102
RTVSPropertyOp18
 70
     1
102
RTVSPropertyOp19
 70
     1
102
RTVSPropertyOp20
 70
     1
102
RTVSPropertyOp21
 70
     1
102
RTVSPropertyOp22
 70
     1
102
RTVSPropertyOp23
 70
     1
102
RTVSPropertyOp24
 70
     1
102
RTVSPropertyOp25
 70
     1
102
RTVSPropertyOp26
 70
     1
102
RTVSPropertyOp27
 70
     1
  0
XRECORD
  5
1908
102
{ACAD_REACTORS
330
1907
102
}
330
1907
100
AcDbXrecord
280
     1
102
RTVSPropertyOp0
 70
     1
102
RTVSPropertyOp1
 70
     1
102
RTVSPropertyOp2
 70
     1
102
RTVSPropertyOp3
 70
     1
102
RTVSPropertyOp4
 70
     1
102
RTVSPropertyOp5
 70
     1
102
RTVSPropertyOp6
 70
     1
102
RTVSPropertyOp7
 70
     1
102
RTVSPropertyOp8
 70
     1
102
RTVSPropertyOp9
 70
     1
102
RTVSPropertyOp10
 70
     1
102
RTVSPropertyOp11
 70
     1
102
RTVSPropertyOp12
 70
     1
102
RTVSPropertyOp13
 70
     1
102
RTVSPropertyOp14
 70
     1
102
RTVSPropertyOp15
 70
     1
102
RTVSPropertyOp16
 70
     1
102
RTVSPropertyOp17
 70
     1
102
RTVSPropertyOp18
 70
     1
102
RTVSPropertyOp19
 70
     1
102
RTVSPropertyOp20
 70
     1
102
RTVSPropertyOp21
 70
     1
102
RTVSPropertyOp22
 70
     1
102
RTVSPropertyOp23
 70
     1
102
RTVSPropertyOp24
 70
     1
102
RTVSPropertyOp25
 70
     1
102
RTVSPropertyOp26
 70
     1
102
RTVSPropertyOp27
 70
     1
  0
XRECORD
  5
190A
102
{ACAD_REACTORS
330
1909
102
}
330
1909
100
AcDbXrecord
280
     1
102
RTVSPropertyOp0
 70
     1
102
RTVSPropertyOp1
 70
     1
102
RTVSPropertyOp2
 70
     1
102
RTVSPropertyOp3
 70
     1
102
RTVSPropertyOp4
 70
     1
102
RTVSPropertyOp5
 70
     1
102
RTVSPropertyOp6
 70
     1
102
RTVSPropertyOp7
 70
     1
102
RTVSPropertyOp8
 70
     1
102
RTVSPropertyOp9
 70
     1
102
RTVSPropertyOp10
 70
     1
102
RTVSPropertyOp11
 70
     1
102
RTVSPropertyOp12
 70
     1
102
RTVSPropertyOp13
 70
     1
102
RTVSPropertyOp14
 70
     1
102
RTVSPropertyOp15
 70
     1
102
RTVSPropertyOp16
 70
     1
102
RTVSPropertyOp17
 70
     1
102
RTVSPropertyOp18
 70
     1
102
RTVSPropertyOp19
 70
     1
102
RTVSPropertyOp20
 70
     1
102
RTVSPropertyOp21
 70
     1
102
RTVSPropertyOp22
 70
     1
102
RTVSPropertyOp23
 70
     1
102
RTVSPropertyOp24
 70
     1
102
RTVSPropertyOp25
 70
     1
102
RTVSPropertyOp26
 70
     1
102
RTVSPropertyOp27
 70
     1
  0
XRECORD
  5
190C
102
{ACAD_REACTORS
330
190B
102
}
330
190B
100
AcDbXrecord
280
     1
102
RTVSPropertyOp0
 70
     1
102
RTVSPropertyOp1
 70
     1
102
RTVSPropertyOp2
 70
     1
102
RTVSPropertyOp3
 70
     1
102
RTVSPropertyOp4
 70
     1
102
RTVSPropertyOp5
 70
     1
102
RTVSPropertyOp6
 70
     1
102
RTVSPropertyOp7
 70
     1
102
RTVSPropertyOp8
 70
     1
102
RTVSPropertyOp9
 70
     1
102
RTVSPropertyOp10
 70
     1
102
RTVSPropertyOp11
 70
     1
102
RTVSPropertyOp12
 70
     1
102
RTVSPropertyOp13
 70
     1
102
RTVSPropertyOp14
 70
     1
102
RTVSPropertyOp15
 70
     1
102
RTVSPropertyOp16
 70
     1
102
RTVSPropertyOp17
 70
     1
102
RTVSPropertyOp18
 70
     1
102
RTVSPropertyOp19
 70
     1
102
RTVSPropertyOp20
 70
     1
102
RTVSPropertyOp21
 70
     1
102
RTVSPropertyOp22
 70
     1
102
RTVSPropertyOp23
 70
     1
102
RTVSPropertyOp24
 70
     1
102
RTVSPropertyOp25
 70
     1
102
RTVSPropertyOp26
 70
     1
102
RTVSPropertyOp27
 70
     1
  0
XRECORD
  5
1926
102
{ACAD_REACTORS
330
1925
102
}
330
1925
100
AcDbXrecord
280
     1
102
RTVSPropertyOp0
 70
     0
102
RTVSPropertyOp1
 70
     0
102
RTVSPropertyOp2
 70
     0
102
RTVSPropertyOp3
 70
     0
102
RTVSPropertyOp4
 70
     0
102
RTVSPropertyOp5
 70
     0
102
RTVSPropertyOp6
 70
     0
102
RTVSPropertyOp7
 70
     0
102
RTVSPropertyOp8
 70
     0
102
RTVSPropertyOp9
 70
     0
102
RTVSPropertyOp10
 70
     0
102
RTVSPropertyOp11
 70
     0
102
RTVSPropertyOp12
 70
     0
102
RTVSPropertyOp13
 70
     0
102
RTVSPropertyOp14
 70
     2
102
RTVSPropertyOp15
 70
     0
102
RTVSPropertyOp16
 70
     0
102
RTVSPropertyOp17
 70
     0
102
RTVSPropertyOp18
 70
     0
102
RTVSPropertyOp19
 70
     0
102
RTVSPropertyOp20
 70
     0
102
RTVSPropertyOp21
 70
     0
102
RTVSPropertyOp22
 70
     0
102
RTVSPropertyOp23
 70
     0
102
RTVSPropertyOp24
 70
     0
102
RTVSPropertyOp25
 70
     0
102
RTVSPropertyOp26
 70
     0
102
RTVSPropertyOp27
 70
     0
  0
XRECORD
  5
1920
102
{ACAD_REACTORS
330
191F
102
}
330
191F
100
AcDbXrecord
280
     1
102
RTVSPropertyOp0
 70
     1
102
RTVSPropertyOp1
 70
     1
102
RTVSPropertyOp2
 70
     1
102
RTVSPropertyOp3
 70
     1
102
RTVSPropertyOp4
 70
     1
102
RTVSPropertyOp5
 70
     1
102
RTVSPropertyOp6
 70
     1
102
RTVSPropertyOp7
 70
     1
102
RTVSPropertyOp8
 70
     1
102
RTVSPropertyOp9
 70
     1
102
RTVSPropertyOp10
 70
     1
102
RTVSPropertyOp11
 70
     1
102
RTVSPropertyOp12
 70
     1
102
RTVSPropertyOp13
 70
     1
102
RTVSPropertyOp14
 70
     1
102
RTVSPropertyOp15
 70
     1
102
RTVSPropertyOp16
 70
     1
102
RTVSPropertyOp17
 70
     1
102
RTVSPropertyOp18
 70
     1
102
RTVSPropertyOp19
 70
     1
102
RTVSPropertyOp20
 70
     1
102
RTVSPropertyOp21
 70
     1
102
RTVSPropertyOp22
 70
     1
102
RTVSPropertyOp23
 70
     1
102
RTVSPropertyOp24
 70
     1
102
RTVSPropertyOp25
 70
     1
102
RTVSPropertyOp26
 70
     1
102
RTVSPropertyOp27
 70
     1
  0
XRECORD
  5
1928
102
{ACAD_REACTORS
330
1927
102
}
330
1927
100
AcDbXrecord
280
     1
102
RTVSPropertyOp0
 70
     0
102
RTVSPropertyOp1
 70
     0
102
RTVSPropertyOp2
 70
     0
102
RTVSPropertyOp3
 70
     0
102
RTVSPropertyOp4
 70
     0
102
RTVSPropertyOp5
 70
     0
102
RTVSPropertyOp6
 70
     0
102
RTVSPropertyOp7
 70
     0
102
RTVSPropertyOp8
 70
     0
102
RTVSPropertyOp9
 70
     0
102
RTVSPropertyOp10
 70
     0
102
RTVSPropertyOp11
 70
     0
102
RTVSPropertyOp12
 70
     0
102
RTVSPropertyOp13
 70
     0
102
RTVSPropertyOp14
 70
     2
102
RTVSPropertyOp15
 70
     0
102
RTVSPropertyOp16
 70
     0
102
RTVSPropertyOp17
 70
     0
102
RTVSPropertyOp18
 70
     0
102
RTVSPropertyOp19
 70
     0
102
RTVSPropertyOp20
 70
     0
102
RTVSPropertyOp21
 70
     0
102
RTVSPropertyOp22
 70
     0
102
RTVSPropertyOp23
 70
     0
102
RTVSPropertyOp24
 70
     0
102
RTVSPropertyOp25
 70
     0
102
RTVSPropertyOp26
 70
     0
102
RTVSPropertyOp27
 70
     0
  0
XRECORD
  5
1918
102
{ACAD_REACTORS
330
1917
102
}
330
1917
100
AcDbXrecord
280
     1
102
RTVSPropertyOp0
 70
     1
102
RTVSPropertyOp1
 70
     1
102
RTVSPropertyOp2
 70
     1
102
RTVSPropertyOp3
 70
     1
102
RTVSPropertyOp4
 70
     1
102
RTVSPropertyOp5
 70
     1
102
RTVSPropertyOp6
 70
     1
102
RTVSPropertyOp7
 70
     1
102
RTVSPropertyOp8
 70
     1
102
RTVSPropertyOp9
 70
     1
102
RTVSPropertyOp10
 70
     1
102
RTVSPropertyOp11
 70
     1
102
RTVSPropertyOp12
 70
     1
102
RTVSPropertyOp13
 70
     1
102
RTVSPropertyOp14
 70
     1
102
RTVSPropertyOp15
 70
     1
102
RTVSPropertyOp16
 70
     1
102
RTVSPropertyOp17
 70
     1
102
RTVSPropertyOp18
 70
     1
102
RTVSPropertyOp19
 70
     1
102
RTVSPropertyOp20
 70
     1
102
RTVSPropertyOp21
 70
     1
102
RTVSPropertyOp22
 70
     1
102
RTVSPropertyOp23
 70
     1
102
RTVSPropertyOp24
 70
     1
102
RTVSPropertyOp25
 70
     1
102
RTVSPropertyOp26
 70
     1
102
RTVSPropertyOp27
 70
     1
  0
XRECORD
  5
191E
102
{ACAD_REACTORS
330
191D
102
}
330
191D
100
AcDbXrecord
280
     1
102
RTVSPropertyOp0
 70
     1
102
RTVSPropertyOp1
 70
     1
102
RTVSPropertyOp2
 70
     1
102
RTVSPropertyOp3
 70
     1
102
RTVSPropertyOp4
 70
     1
102
RTVSPropertyOp5
 70
     1
102
RTVSPropertyOp6
 70
     1
102
RTVSPropertyOp7
 70
     1
102
RTVSPropertyOp8
 70
     1
102
RTVSPropertyOp9
 70
     1
102
RTVSPropertyOp10
 70
     1
102
RTVSPropertyOp11
 70
     1
102
RTVSPropertyOp12
 70
     1
102
RTVSPropertyOp13
 70
     1
102
RTVSPropertyOp14
 70
     1
102
RTVSPropertyOp15
 70
     1
102
RTVSPropertyOp16
 70
     1
102
RTVSPropertyOp17
 70
     1
102
RTVSPropertyOp18
 70
     1
102
RTVSPropertyOp19
 70
     1
102
RTVSPropertyOp20
 70
     1
102
RTVSPropertyOp21
 70
     1
102
RTVSPropertyOp22
 70
     1
102
RTVSPropertyOp23
 70
     1
102
RTVSPropertyOp24
 70
     1
102
RTVSPropertyOp25
 70
     1
102
RTVSPropertyOp26
 70
     1
102
RTVSPropertyOp27
 70
     1
  0
ENDSEC
  0
EOF
