  0
SECTION
  2
HEADER
  9
$ACADVER
  1
AC1015
  9
$ACADMAINTVER
 70
    20
  9
$DWGCODEPAGE
  3
ANSI_1252
  9
$INSBASE
 10
0.0
 20
0.0
 30
0.0
  9
$EXTMIN
 10
3635.749409693882
 20
1035.29274029864
 30
0.0
  9
$EXTMAX
 10
3639.367191608684
 20
1035.872249172708
 30
0.0
  9
$LIMMIN
 10
0.0
 20
0.0
  9
$LIMMAX
 10
420.0
 20
297.0
  9
$ORTHOMODE
 70
     1
  9
$REGENMODE
 70
     1
  9
$FILLMODE
 70
     1
  9
$QTEXTMODE
 70
     0
  9
$MIRRTEXT
 70
     1
  9
$LTSCALE
 40
1.0
  9
$ATTMODE
 70
     1
  9
$TEXTSIZE
 40
2.5
  9
$TRACEWID
 40
1.0
  9
$TEXTSTYLE
  7
SANINDUSA
  9
$CLAYER
  8
cotas
  9
$CELTYPE
  6
ByLayer
  9
$CECOLOR
 62
   256
  9
$CELTSCALE
 40
1.0
  9
$DISPSILH
 70
     0
  9
$DIMSCALE
 40
1.0
  9
$DIMASZ
 40
2.0
  9
$DIMEXO
 40
1.0
  9
$DIMDLI
 40
1.0
  9
$DIMRND
 40
0.0
  9
$DIMDLE
 40
0.0
  9
$DIMEXE
 40
1.0
  9
$DIMTP
 40
0.0
  9
$DIMTM
 40
0.0
  9
$DIMTXT
 40
2.0
  9
$DIMCEN
 40
0.0
  9
$DIMTSZ
 40
0.0
  9
$DIMTOL
 70
     0
  9
$DIMLIM
 70
     0
  9
$DIMTIH
 70
     0
  9
$DIMTOH
 70
     0
  9
$DIMSE1
 70
     0
  9
$DIMSE2
 70
     0
  9
$DIMTAD
 70
     1
  9
$DIMZIN
 70
     8
  9
$DIMBLK
  1

  9
$DIMASO
 70
     1
  9
$DIMSHO
 70
     1
  9
$DIMPOST
  1

  9
$DIMAPOST
  1

  9
$DIMALT
 70
     0
  9
$DIMALTD
 70
     3
  9
$DIMALTF
 40
0.03937007874016
  9
$DIMLFAC
 40
1.0
  9
$DIMTOFL
 70
     1
  9
$DIMTVP
 40
0.0
  9
$DIMTIX
 70
     0
  9
$DIMSOXD
 70
     0
  9
$DIMSAH
 70
     0
  9
$DIMBLK1
  1

  9
$DIMBLK2
  1

  9
$DIMSTYLE
  2
SANINDUSA
  9
$DIMCLRD
 70
   256
  9
$DIMCLRE
 70
   256
  9
$DIMCLRT
 70
   256
  9
$DIMTFAC
 40
1.0
  9
$DIMGAP
 40
1.0
  9
$DIMJUST
 70
     0
  9
$DIMSD1
 70
     0
  9
$DIMSD2
 70
     0
  9
$DIMTOLJ
 70
     0
  9
$DIMTZIN
 70
     8
  9
$DIMALTZ
 70
     0
  9
$DIMALTTZ
 70
     0
  9
$DIMUPT
 70
     0
  9
$DIMDEC
 70
     1
  9
$DIMTDEC
 70
     1
  9
$DIMALTU
 70
     2
  9
$DIMALTTD
 70
     3
  9
$DIMTXSTY
  7
SANINDUSA
  9
$DIMAUNIT
 70
     0
  9
$DIMADEC
 70
     1
  9
$DIMALTRND
 40
0.0
  9
$DIMAZIN
 70
     0
  9
$DIMDSEP
 70
    44
  9
$DIMATFIT
 70
     3
  9
$DIMFRAC
 70
     0
  9
$DIMLDRBLK
  1

  9
$DIMLUNIT
 70
     2
  9
$DIMLWD
 70
    -1
  9
$DIMLWE
 70
    -1
  9
$DIMTMOVE
 70
     0
  9
$LUNITS
 70
     2
  9
$LUPREC
 70
     4
  9
$SKETCHINC
 40
1.0
  9
$FILLETRAD
 40
0.0
  9
$AUNITS
 70
     0
  9
$AUPREC
 70
     0
  9
$MENU
  1
.
  9
$ELEVATION
 40
0.0
  9
$PELEVATION
 40
0.0
  9
$THICKNESS
 40
0.0
  9
$LIMCHECK
 70
     0
  9
$CHAMFERA
 40
10.0
  9
$CHAMFERB
 40
10.0
  9
$CHAMFERC
 40
20.0
  9
$CHAMFERD
 40
0.0
  9
$SKPOLY
 70
     0
  9
$TDCREATE
 40
2453073.513811666
  9
$TDUCREATE
 40
2453073.472145000
  9
$TDUPDATE
 40
2456146.461208044
  9
$TDUUPDATE
 40
2456146.419541377
  9
$TDINDWG
 40
0.0250352546
  9
$TDUSRTIMER
 40
0.0250352546
  9
$USRTIMER
 70
     1
  9
$ANGBASE
 50
0.0
  9
$ANGDIR
 70
     0
  9
$PDMODE
 70
     0
  9
$PDSIZE
 40
0.0
  9
$PLINEWID
 40
0.0
  9
$SPLFRAME
 70
     0
  9
$SPLINETYPE
 70
     6
  9
$SPLINESEGS
 70
     8
  9
$HANDSEED
  5
1684
  9
$SURFTAB1
 70
     6
  9
$SURFTAB2
 70
     6
  9
$SURFTYPE
 70
     6
  9
$SURFU
 70
     6
  9
$SURFV
 70
     6
  9
$UCSBASE
  2

  9
$UCSNAME
  2

  9
$UCSORG
 10
0.0
 20
0.0
 30
0.0
  9
$UCSXDIR
 10
1.0
 20
0.0
 30
0.0
  9
$UCSYDIR
 10
0.0
 20
1.0
 30
0.0
  9
$UCSORTHOREF
  2

  9
$UCSORTHOVIEW
 70
     0
  9
$UCSORGTOP
 10
0.0
 20
0.0
 30
0.0
  9
$UCSORGBOTTOM
 10
0.0
 20
0.0
 30
0.0
  9
$UCSORGLEFT
 10
0.0
 20
0.0
 30
0.0
  9
$UCSORGRIGHT
 10
0.0
 20
0.0
 30
0.0
  9
$UCSORGFRONT
 10
0.0
 20
0.0
 30
0.0
  9
$UCSORGBACK
 10
0.0
 20
0.0
 30
0.0
  9
$PUCSBASE
  2

  9
$PUCSNAME
  2

  9
$PUCSORG
 10
0.0
 20
0.0
 30
0.0
  9
$PUCSXDIR
 10
1.0
 20
0.0
 30
0.0
  9
$PUCSYDIR
 10
0.0
 20
1.0
 30
0.0
  9
$PUCSORTHOREF
  2

  9
$PUCSORTHOVIEW
 70
     0
  9
$PUCSORGTOP
 10
0.0
 20
0.0
 30
0.0
  9
$PUCSORGBOTTOM
 10
0.0
 20
0.0
 30
0.0
  9
$PUCSORGLEFT
 10
0.0
 20
0.0
 30
0.0
  9
$PUCSORGRIGHT
 10
0.0
 20
0.0
 30
0.0
  9
$PUCSORGFRONT
 10
0.0
 20
0.0
 30
0.0
  9
$PUCSORGBACK
 10
0.0
 20
0.0
 30
0.0
  9
$USERI1
 70
     0
  9
$USERI2
 70
     0
  9
$USERI3
 70
     0
  9
$USERI4
 70
     0
  9
$USERI5
 70
     0
  9
$USERR1
 40
0.0
  9
$USERR2
 40
0.0
  9
$USERR3
 40
0.0
  9
$USERR4
 40
0.0
  9
$USERR5
 40
0.0
  9
$WORLDVIEW
 70
     1
  9
$SHADEDGE
 70
     3
  9
$SHADEDIF
 70
    70
  9
$TILEMODE
 70
     1
  9
$MAXACTVP
 70
    64
  9
$PINSBASE
 10
0.0
 20
0.0
 30
0.0
  9
$PLIMCHECK
 70
     0
  9
$PEXTMIN
 10
1.000000000000000E+20
 20
1.000000000000000E+20
 30
1.000000000000000E+20
  9
$PEXTMAX
 10
-1.000000000000000E+20
 20
-1.000000000000000E+20
 30
-1.000000000000000E+20
  9
$PLIMMIN
 10
0.0
 20
0.0
  9
$PLIMMAX
 10
420.0
 20
297.0
  9
$UNITMODE
 70
     0
  9
$VISRETAIN
 70
     1
  9
$PLINEGEN
 70
     0
  9
$PSLTSCALE
 70
     1
  9
$TREEDEPTH
 70
  3020
  9
$CMLSTYLE
  2
Standard
  9
$CMLJUST
 70
     0
  9
$CMLSCALE
 40
20.0
  9
$PROXYGRAPHICS
 70
     1
  9
$MEASUREMENT
 70
     1
  9
$CELWEIGHT
370
    -1
  9
$ENDCAPS
280
     0
  9
$JOINSTYLE
280
     0
  9
$LWDISPLAY
290
     0
  9
$INSUNITS
 70
     4
  9
$HYPERLINKBASE
  1

  9
$STYLESHEET
  1
monochrome.ctb
  9
$XEDIT
290
     1
  9
$CEPSNTYPE
380
     0
  9
$PSTYLEMODE
290
     1
  9
$FINGERPRINTGUID
  2
{B98A73AA-52AA-4C10-B469-C0E7150AC31F}
  9
$VERSIONGUID
  2
{F61A6D2A-C6E7-4BE4-A47A-EBF2F501CFE7}
  9
$EXTNAMES
290
     1
  9
$PSVPSCALE
 40
0.0
  9
$OLESTARTUP
290
     0
  0
ENDSEC
  0
SECTION
  2
CLASSES
  0
CLASS
  1
ACDBDICTIONARYWDFLT
  2
AcDbDictionaryWithDefault
  3
ObjectDBX Classes
 90
        0
280
     0
281
     0
  0
CLASS
  1
ACDBPLACEHOLDER
  2
AcDbPlaceHolder
  3
ObjectDBX Classes
 90
        0
280
     0
281
     0
  0
CLASS
  1
LAYOUT
  2
AcDbLayout
  3
ObjectDBX Classes
 90
        0
280
     0
281
     0
  0
CLASS
  1
DICTIONARYVAR
  2
AcDbDictionaryVar
  3
ObjectDBX Classes
 90
        0
280
     0
281
     0
  0
CLASS
  1
DIMASSOC
  2
AcDbDimAssoc
  3
"AcDbDimAssoc|Product Desc:     AcDim ARX App For Dimension|Company:          Autodesk, Inc.|WEB Address:      www.autodesk.com"
 90
    32768
280
     0
281
     0
  0
CLASS
  1
MATERIAL
  2
AcDbMaterial
  3
ObjectDBX Classes
 90
     1153
280
     0
281
     0
  0
CLASS
  1
VISUALSTYLE
  2
AcDbVisualStyle
  3
ObjectDBX Classes
 90
     4095
280
     0
281
     0
  0
CLASS
  1
TABLESTYLE
  2
AcDbTableStyle
  3
ObjectDBX Classes
 90
     4095
280
     0
281
     0
  0
CLASS
  1
SCALE
  2
AcDbScale
  3
ObjectDBX Classes
 90
     1153
280
     0
281
     0
  0
CLASS
  1
MLEADERSTYLE
  2
AcDbMLeaderStyle
  3
ACDB_MLEADERSTYLE_CLASS
 90
     4095
280
     0
281
     0
  0
CLASS
  1
CELLSTYLEMAP
  2
AcDbCellStyleMap
  3
ObjectDBX Classes
 90
     1152
280
     0
281
     0
  0
ENDSEC
  0
SECTION
  2
TABLES
  0
TABLE
  2
VPORT
  5
8
330
0
100
AcDbSymbolTable
 70
     1
  0
VPORT
  5
15DF
330
8
100
AcDbSymbolTableRecord
100
AcDbViewportTableRecord
  2
*Active
 70
     0
 10
0.0
 20
0.0
 11
1.0
 21
1.0
 12
3637.832206258455
 22
1035.493754475794
 13
0.0
 23
0.0
 14
10.0
 24
10.0
 15
10.0
 25
10.0
 16
0.0
 26
0.0
 36
1.0
 17
0.0
 27
0.0
 37
0.0
 40
3.084279035953841
 41
1.645464025026068
 42
50.0
 43
0.0
 44
0.0
 50
0.0
 51
0.0
 71
     0
 72
   100
 73
     1
 74
     2
 75
     0
 76
     0
 77
     0
 78
     0
281
     0
 65
     1
110
0.0
120
0.0
130
0.0
111
1.0
121
0.0
131
0.0
112
0.0
122
1.0
132
0.0
 79
     0
146
0.0
  0
ENDTAB
  0
TABLE
  2
LTYPE
  5
5
330
0
100
AcDbSymbolTable
 70
     3
  0
LTYPE
  5
14
330
5
100
AcDbSymbolTableRecord
100
AcDbLinetypeTableRecord
  2
ByBlock
 70
     0
  3

 72
    65
 73
     0
 40
0.0
  0
LTYPE
  5
15
330
5
100
AcDbSymbolTableRecord
100
AcDbLinetypeTableRecord
  2
ByLayer
 70
     0
  3

 72
    65
 73
     0
 40
0.0
  0
LTYPE
  5
16
330
5
100
AcDbSymbolTableRecord
100
AcDbLinetypeTableRecord
  2
Continuous
 70
     0
  3
Solid line
 72
    65
 73
     0
 40
0.0
  0
LTYPE
  5
2D
330
5
100
AcDbSymbolTableRecord
100
AcDbLinetypeTableRecord
  2
DASHDOT
 70
     0
  3
Dash dot __ . __ . __ . __ . __ . __ . __ . __
 72
    65
 73
     4
 40
25.4
 49
12.7
 74
     0
 49
-6.349999999999999
 74
     0
 49
0.0
 74
     0
 49
-6.349999999999999
 74
     0
  0
LTYPE
  5
2E
330
5
100
AcDbSymbolTableRecord
100
AcDbLinetypeTableRecord
  2
HIDDEN
 70
     0
  3
Hidden __ __ __ __ __ __ __ __ __ __ __ __ __ _
 72
    65
 73
     2
 40
9.524999999999998
 49
6.349999999999999
 74
     0
 49
-3.174999999999999
 74
     0
  0
ENDTAB
  0
TABLE
  2
LAYER
  5
2
330
0
100
AcDbSymbolTable
 70
    17
  0
LAYER
  5
10
102
{ACAD_XDICTIONARY
360
1629
102
}
330
2
100
AcDbSymbolTableRecord
100
AcDbLayerTableRecord
  2
0
 70
     0
 62
     7
  6
Continuous
370
    -3
390
F
  0
LAYER
  5
2F
102
{ACAD_XDICTIONARY
360
162B
102
}
330
2
100
AcDbSymbolTableRecord
100
AcDbLayerTableRecord
  2
1
 70
     0
 62
     1
  6
Continuous
370
    -3
390
F
  0
LAYER
  5
30
102
{ACAD_XDICTIONARY
360
162D
102
}
330
2
100
AcDbSymbolTableRecord
100
AcDbLayerTableRecord
  2
2
 70
     0
 62
     2
  6
Continuous
370
    -3
390
F
  0
LAYER
  5
31
102
{ACAD_XDICTIONARY
360
162F
102
}
330
2
100
AcDbSymbolTableRecord
100
AcDbLayerTableRecord
  2
3
 70
     0
 62
     3
  6
Continuous
370
    -3
390
F
  0
LAYER
  5
32
102
{ACAD_XDICTIONARY
360
1631
102
}
330
2
100
AcDbSymbolTableRecord
100
AcDbLayerTableRecord
  2
4
 70
     0
 62
     4
  6
Continuous
370
    -3
390
F
  0
LAYER
  5
33
102
{ACAD_XDICTIONARY
360
1633
102
}
330
2
100
AcDbSymbolTableRecord
100
AcDbLayerTableRecord
  2
5
 70
     0
 62
     5
  6
Continuous
370
    -3
390
F
  0
LAYER
  5
34
102
{ACAD_XDICTIONARY
360
1635
102
}
330
2
100
AcDbSymbolTableRecord
100
AcDbLayerTableRecord
  2
6
 70
     0
 62
     6
  6
Continuous
370
    -3
390
F
  0
LAYER
  5
35
102
{ACAD_XDICTIONARY
360
1637
102
}
330
2
100
AcDbSymbolTableRecord
100
AcDbLayerTableRecord
  2
7
 70
     0
 62
     7
  6
Continuous
370
    -3
390
F
  0
LAYER
  5
36
102
{ACAD_XDICTIONARY
360
1639
102
}
330
2
100
AcDbSymbolTableRecord
100
AcDbLayerTableRecord
  2
cen
 70
     0
 62
     7
  6
DASHDOT
370
    -3
390
F
  0
LAYER
  5
37
102
{ACAD_XDICTIONARY
360
163B
102
}
330
2
100
AcDbSymbolTableRecord
100
AcDbLayerTableRecord
  2
hid
 70
     0
 62
     7
  6
HIDDEN
370
    -3
390
F
  0
LAYER
  5
5D6
102
{ACAD_XDICTIONARY
360
163D
102
}
330
2
100
AcDbSymbolTableRecord
100
AcDbLayerTableRecord
  2
hatch
 70
     0
 62
     9
  6
Continuous
370
    -3
390
F
  0
LAYER
  5
8AF
102
{ACAD_XDICTIONARY
360
163F
102
}
330
2
100
AcDbSymbolTableRecord
100
AcDbLayerTableRecord
  2
9
 70
     0
 62
     9
  6
Continuous
370
    -3
390
F
  0
LAYER
  5
8F8
102
{ACAD_XDICTIONARY
360
1641
102
}
330
2
100
AcDbSymbolTableRecord
100
AcDbLayerTableRecord
  2
leg fin
 70
     0
 62
     9
  6
Continuous
370
    -3
390
F
  0
LAYER
  5
91D
102
{ACAD_XDICTIONARY
360
1643
102
}
330
2
100
AcDbSymbolTableRecord
100
AcDbLayerTableRecord
  2
cotas
 70
     0
 62
     1
  6
Continuous
370
    -3
390
F
  0
LAYER
  5
92F
330
2
100
AcDbSymbolTableRecord
100
AcDbLayerTableRecord
  2
Defpoints
 70
     0
 62
     7
  6
Continuous
290
     0
370
    -3
390
F
  0
LAYER
  5
B5B
102
{ACAD_XDICTIONARY
360
1645
102
}
330
2
100
AcDbSymbolTableRecord
100
AcDbLayerTableRecord
  2
indusa
 70
     0
 62
     3
  6
Continuous
370
    -3
390
F
  0
LAYER
  5
14E1
102
{ACAD_XDICTIONARY
360
1647
102
}
330
2
100
AcDbSymbolTableRecord
100
AcDbLayerTableRecord
  2
SANINDUSA
 70
     0
 62
     3
  6
Continuous
370
    -3
390
F
  0
ENDTAB
  0
TABLE
  2
STYLE
  5
3
330
0
100
AcDbSymbolTable
 70
     4
  0
STYLE
  5
11
330
3
100
AcDbSymbolTableRecord
100
AcDbTextStyleTableRecord
  2
Standard
 70
     0
 40
0.0
 41
1.0
 50
0.0
 71
     0
 42
2.5
  3
Avgardn.ttf
  4

1001
ACAD
1000
AvantGarde Bk BT
1071
       34
  0
STYLE
  5
2C
330
3
100
AcDbSymbolTableRecord
100
AcDbTextStyleTableRecord
  2

 70
     1
 40
0.0
 41
1.0
 50
0.0
 71
     0
 42
2.5
  3
ltypeshp.shx
  4

  0
STYLE
  5
91F
330
3
100
AcDbSymbolTableRecord
100
AcDbTextStyleTableRecord
  2
SANINDUSA
 70
     0
 40
0.0
 41
1.0
 50
0.0
 71
     0
 42
2.5
  3
verdana.TTF
  4

1001
ACAD
1000
Verdana
1071
       34
  0
STYLE
  5
14E2
330
3
100
AcDbSymbolTableRecord
100
AcDbTextStyleTableRecord
  2
cotas
 70
     0
 40
2.0
 41
0.8
 50
0.0
 71
     0
 42
4.0
  3
ISOCP.shx
  4

  0
ENDTAB
  0
TABLE
  2
VIEW
  5
6
330
0
100
AcDbSymbolTable
 70
     0
  0
ENDTAB
  0
TABLE
  2
UCS
  5
7
330
0
100
AcDbSymbolTable
 70
     0
  0
ENDTAB
  0
TABLE
  2
APPID
  5
9
330
0
100
AcDbSymbolTable
 70
     3
  0
APPID
  5
12
330
9
100
AcDbSymbolTableRecord
100
AcDbRegAppTableRecord
  2
ACAD
 70
     0
  0
APPID
  5
3A
330
9
100
AcDbSymbolTableRecord
100
AcDbRegAppTableRecord
  2
DCO15
 70
     0
  0
APPID
  5
1683
330
9
100
AcDbSymbolTableRecord
100
AcDbRegAppTableRecord
  2
ACAD_MLEADERVER
 70
     0
  0
ENDTAB
  0
TABLE
  2
DIMSTYLE
  5
A
330
0
100
AcDbSymbolTable
 70
     3
100
AcDbDimStyleTable
 71
     1
340
921
  0
DIMSTYLE
105
45
330
A
100
AcDbSymbolTableRecord
100
AcDbDimStyleTableRecord
  2
STANDARD
 70
     0
289
     0
340
11
  0
DIMSTYLE
105
921
330
A
100
AcDbSymbolTableRecord
100
AcDbDimStyleTableRecord
  2
SANINDUSA
 70
     0
 41
2.0
 42
1.0
 43
1.0
 44
1.0
 73
     0
 74
     0
 77
     1
 78
     8
140
2.0
141
0.0
143
0.03937007874016
147
1.0
171
     3
172
     1
176
   256
177
   256
178
   256
179
     1
271
     1
272
     1
274
     3
278
    44
283
     0
284
     8
340
91F
371
    -1
372
    -1
  0
DIMSTYLE
105
14E3
330
A
100
AcDbSymbolTableRecord
100
AcDbDimStyleTableRecord
  2
ISO-25
 70
     0
 41
2.5
 42
0.625
 43
3.75
 44
1.25
 73
     0
 74
     0
 77
     1
 78
     8
140
2.5
141
2.5
143
0.03937007874016
147
0.625
171
     3
172
     1
271
     2
272
     2
274
     3
278
    44
283
     0
284
     8
340
11
  0
ENDTAB
  0
TABLE
  2
BLOCK_RECORD
  5
1
330
0
100
AcDbSymbolTable
 70
     8
  0
BLOCK_RECORD
  5
1F
330
1
100
AcDbSymbolTableRecord
100
AcDbBlockTableRecord
  2
*Model_Space
340
22
  0
BLOCK_RECORD
  5
1B
330
1
100
AcDbSymbolTableRecord
100
AcDbBlockTableRecord
  2
*Paper_Space
340
1E
  0
BLOCK_RECORD
  5
23
330
1
100
AcDbSymbolTableRecord
100
AcDbBlockTableRecord
  2
*Paper_Space0
340
26
  0
BLOCK_RECORD
  5
919
330
1
100
AcDbSymbolTableRecord
100
AcDbBlockTableRecord
  2
_DotSmall
340
0
  0
BLOCK_RECORD
  5
922
330
1
100
AcDbSymbolTableRecord
100
AcDbBlockTableRecord
  2
base para cotas
340
0
310
2800000020000000200000000100080000000000000400000000000000000000000000000000000000000000000080000080000000808000800000008000800080800000C0C0C000C0DCC000F0CAA6000020400000206000002080000020A0000020C0000020E00000400000004020000040400000406000004080000040A0
310
000040C0000040E00000600000006020000060400000606000006080000060A0000060C0000060E00000800000008020000080400000806000008080000080A0000080C0000080E00000A0000000A0200000A0400000A0600000A0800000A0A00000A0C00000A0E00000C0000000C0200000C0400000C0600000C0800000C0
310
A00000C0C00000C0E00000E0000000E0200000E0400000E0600000E0800000E0A00000E0C00000E0E00040000000400020004000400040006000400080004000A0004000C0004000E00040200000402020004020400040206000402080004020A0004020C0004020E000404000004040200040404000404060004040800040
310
40A0004040C0004040E00040600000406020004060400040606000406080004060A0004060C0004060E00040800000408020004080400040806000408080004080A0004080C0004080E00040A0000040A0200040A0400040A0600040A0800040A0A00040A0C00040A0E00040C0000040C0200040C0400040C0600040C08000
310
40C0A00040C0C00040C0E00040E0000040E0200040E0400040E0600040E0800040E0A00040E0C00040E0E00080000000800020008000400080006000800080008000A0008000C0008000E00080200000802020008020400080206000802080008020A0008020C0008020E00080400000804020008040400080406000804080
310
008040A0008040C0008040E00080600000806020008060400080606000806080008060A0008060C0008060E00080800000808020008080400080806000808080008080A0008080C0008080E00080A0000080A0200080A0400080A0600080A0800080A0A00080A0C00080A0E00080C0000080C0200080C0400080C0600080C0
310
800080C0A00080C0C00080C0E00080E0000080E0200080E0400080E0600080E0800080E0A00080E0C00080E0E000C0000000C0002000C0004000C0006000C0008000C000A000C000C000C000E000C0200000C0202000C0204000C0206000C0208000C020A000C020C000C020E000C0400000C0402000C0404000C0406000C0
310
408000C040A000C040C000C040E000C0600000C0602000C0604000C0606000C0608000C060A000C060C000C060E000C0800000C0802000C0804000C0806000C0808000C080A000C080C000C080E000C0A00000C0A02000C0A04000C0A06000C0A08000C0A0A000C0A0C000C0A0E000C0C00000C0C02000C0C04000C0C06000
310
C0C08000C0C0A000F0FBFF00A4A0A000808080000000FF0000FF000000FFFF00FF000000FF00FF00FFFF0000FFFFFF00A4A4A4A4A4A4A4A4A4A4A4A4A4A4A4A4A4A4A4A4A4A4A4A4A4A4A4A4A4A4A4A4A4A4A4A4A4A4A4A4A4A4A4A4A4A4A4A4A4A4A4A4A4A4A4A4A4A4A4A4A4A4A4A4A4A4A4A4A4A4A4A4A4A4A4A4A4A4A4
310
A4A4A4A4A4A4A4A4A4A4A4A4A4A4A4A4A4A4A4A4A4A4A4A4A4A4A4A4A4A4A4A4A4A4A4A4A4A4A4A4A4A4A4A4A4A4A4A4A4A4A4A4A4A4A4A4A4A4A4A4A4A4A4A4A4A4A4A4A4A4A4A4A4A4A4A4A4A4A4A4A4A4A4A4A4A4A4A4A4A4A4A4A4A4A4A4A4A4A4A4A4A4A4A4A4A4A4A4A4A4A4A4A4A4A4A4A4A4A4A4A4A4A4A4A4A4A4
310
A4A4A4A4A4A4A4A4A4A4A4A4A4A4A4A4A4A4A4A4A4A4A4A4A4A4A4A4A4A4A4A4A4A4A4A4A4A4A4A4A4A4A4A4A4A4A4A4A4A4A4A4A4A4A4A4A4A4A4A4A4A4A4A4A4A4A4A4A4A4A4A4A4A4A4A4A4A4A4A4A4A4A4A4A4A4A4A4A4A4A4A4A4A4A4A4A4A4A4A4A4A4A4A4A4A4A4A4A4A4A4A4A4A4A4A4A4A4A4A4A4A4A4A4A4A4A4
310
A4A4A4A4A4A4A4A4A4A4A4A4A4A4A4A4A4A4A4A4A4A4A4A4A4A4A4A4A4A4A4A4A4A4A4A4A4A4A4A4A4A4A4A4A4A4A4A4A4A4A4A4A4A4A4A4A4A4A4A4A4A4A4A4A4A4A4A4A4A4A4A4A4A4A4A4A4A4A4A4A4A4A4A4A4A4A4A4A4A4A4A4A4A4A4A4A4A4A4A4A4A4A4A4A4A4A4A4A4A4A4A4A4A4A4A4F9F9F9F9F9F9F9F9F9F9F9
310
F9F9F9F9F9F9F9F9F9F9F9F9F9F9F9F9F9F9F9A4A4F9F9F9F9F9F9F9F9F9F9F9F9F9F9F9F9F9F9F9F9F9F9F9F9F9F9F9F9F9F9A4A4F9F9F9F9F9F9F9F9F9F9F9F9F9F9F9F9F9F9F9F9F9F9F9F9F9F9F9F9F9F9A4A4F9A4A4A4A4A4A4A4A4A4A4A4A4A4A4A4A4A4A4A4A4A4A4A4A4A4A4A4A4F9A4A4A4A4A4A4A4A4A4A4A4A4
310
A4A4A4A4A4A4A4A4A4A4A4A4A4A4A4A4A4A4A4A4A4A4A4A4A4A4A4A4A4A4A4A4A4A4A4A4A4A4A4A4A4A4A4A4A4A4A4A4A4A4A4A4A4A4A4A4A4A4A4A4A4A4A4A4A4A4A4A4A4A4A4A4A4A4A4A4A4A4A4A4A4A4A4A4A4A4A4A4A4A4A4A4A4A4A4A4A4A4A4A4A4A4A4A4A4A4A4A4A4A4A4A4A4A4A4A4A4A4A4A4A4A4A4A4A4A4A4
310
A4A4A4A4A4A4A4A4A4A4A4A4A4A4A4A4A4A4A4A4A4A4A4A4A4A4A4A4A4A4A4A4A4A4A4A4A4A4A4A4A4A4A4A4A4A4A4A4A4A4A4A4A4A4A4A4A4A4A4A4A4A4A4A4A4A4A4A4A4A4A4A4A4A4A4A4A4A4A4A4A4A4A4A4A4A4A4A4A4A4A4A4A4A4A4A4A4A4A4A4A4A4A4A4A4A4A4A4A4A4A4A4A4A4A4A4A4A4A4A4A4A4A4A4A4A4A4
310
A4A4A4A4A4A4A4A4A4A4A4A4A4A4A4A4A4A4A4A4A4A4A4A4A4A4A4A4A4A4A4A4A4A4A4A4A4A4A4A4A4A4A4A4A4A4A4A4A4A4A4A4A4A4A4A4A4A4A4A4A4A4A4A4A4A4A4A4A4A4A4A4A4A4A4A4A4A4A4A4A4A4A4A4A4A4A4A4A4A4A4A4A4A4A4A4A4A4A4A4A4A4A4A4A4A4A4A4A4A4A4A4A4A4A4A4A4A4A4A4A4A4A4A4A4A4A4
310
A4A4A4A4A4A4A4A4A4A4A4A4A4A4A4A4A4A4A4A4A4A4A4A4A4A4A4A4A4A4A4A4A4A4A4A4A4A4A4A4A4A4A4A4A4A4A4A4A4A4A4A4A4A4A4A4
1001
ACAD
1000
DesignCenter Data
1002
{
1070
     1
1070
     4
1002
}
  0
BLOCK_RECORD
  5
AA8
330
1
100
AcDbSymbolTableRecord
100
AcDbBlockTableRecord
  2
_CLOSED
340
0
  0
BLOCK_RECORD
  5
14E4
330
1
100
AcDbSymbolTableRecord
100
AcDbBlockTableRecord
  2
104320PL
340
0
  0
BLOCK_RECORD
  5
151A
330
1
100
AcDbSymbolTableRecord
100
AcDbBlockTableRecord
  2
104320AF
340
0
  0
BLOCK_RECORD
  5
153A
330
1
100
AcDbSymbolTableRecord
100
AcDbBlockTableRecord
  2
104320AL
340
0
  0
BLOCK_RECORD
  5
1570
330
1
100
AcDbSymbolTableRecord
100
AcDbBlockTableRecord
  2
104320CT
340
0
  0
ENDTAB
  0
ENDSEC
  0
SECTION
  2
BLOCKS
  0
BLOCK
  5
20
330
1F
100
AcDbEntity
  8
0
100
AcDbBlockBegin
  2
*Model_Space
 70
     0
 10
0.0
 20
0.0
 30
0.0
  3
*Model_Space
  1

  0
ENDBLK
  5
21
330
1F
100
AcDbEntity
  8
0
100
AcDbBlockEnd
  0
BLOCK
  5
1C
330
1B
100
AcDbEntity
 67
     1
  8
0
100
AcDbBlockBegin
  2
*Paper_Space
 70
     0
 10
0.0
 20
0.0
 30
0.0
  3
*Paper_Space
  1

  0
ENDBLK
  5
1D
330
1B
100
AcDbEntity
 67
     1
  8
0
100
AcDbBlockEnd
  0
BLOCK
  5
24
330
23
100
AcDbEntity
 67
     1
  8
0
100
AcDbBlockBegin
  2
*Paper_Space0
 70
     0
 10
0.0
 20
0.0
 30
0.0
  3
*Paper_Space0
  1

  0
ENDBLK
  5
25
330
23
100
AcDbEntity
 67
     1
  8
0
100
AcDbBlockEnd
  0
BLOCK
  5
91B
330
919
100
AcDbEntity
  8
0
100
AcDbBlockBegin
  2
_DotSmall
 70
     0
 10
0.0
 20
0.0
 30
0.0
  3
_DotSmall
  1

  0
LWPOLYLINE
  5
91A
330
919
100
AcDbEntity
  8
0
  6
ByBlock
 62
     0
100
AcDbPolyline
 90
        2
 70
     1
 43
0.5
 10
-0.0625
 20
0.0
 42
1.0
 10
0.0625
 20
0.0
 42
1.0
  0
ENDBLK
  5
91C
330
919
100
AcDbEntity
  8
0
100
AcDbBlockEnd
  0
BLOCK
  5
92A
330
922
100
AcDbEntity
  8
0
100
AcDbBlockBegin
  2
base para cotas
 70
     0
 10
0.0
 20
0.0
 30
0.0
  3
base para cotas
  1

  0
LINE
  5
B36
330
922
100
AcDbEntity
  8
cotas
100
AcDbLine
 10
0.0
 20
-30.0
 30
0.0
 11
327.1260136525398
 21
-30.0
 31
0.0
  0
LINE
  5
B37
330
922
100
AcDbEntity
  8
cotas
100
AcDbLine
 10
0.0
 20
-25.0
 30
0.0
 11
327.1260136525398
 21
-25.0
 31
0.0
  0
LINE
  5
B38
330
922
100
AcDbEntity
  8
cotas
100
AcDbLine
 10
0.0
 20
-20.0
 30
0.0
 11
327.1260136525398
 21
-20.0
 31
0.0
  0
LINE
  5
B39
330
922
100
AcDbEntity
  8
cotas
100
AcDbLine
 10
0.0
 20
-15.0
 30
0.0
 11
327.1260136525398
 21
-15.0
 31
0.0
  0
LINE
  5
B3A
330
922
100
AcDbEntity
  8
cotas
100
AcDbLine
 10
0.0
 20
-10.0
 30
0.0
 11
327.1260136525398
 21
-10.0
 31
0.0
  0
LINE
  5
B3B
330
922
100
AcDbEntity
  8
cotas
100
AcDbLine
 10
0.0
 20
0.0
 30
0.0
 11
0.0
 21
-30.0
 31
0.0
  0
LINE
  5
B3C
330
922
100
AcDbEntity
  8
cotas
100
AcDbLine
 10
327.1260136525398
 20
-30.0
 30
0.0
 11
327.1260136525398
 21
0.0
 31
0.0
  0
ENDBLK
  5
92B
330
922
100
AcDbEntity
  8
0
100
AcDbBlockEnd
  0
BLOCK
  5
AAD
330
AA8
100
AcDbEntity
  8
0
100
AcDbBlockBegin
  2
_CLOSED
 70
     0
 10
0.0
 20
0.0
 30
0.0
  3
_CLOSED
  1

  0
LINE
  5
AA9
330
AA8
100
AcDbEntity
  8
0
100
AcDbLine
 10
-1.0
 20
0.166667
 30
0.0
 11
0.0
 21
0.0
 31
0.0
  0
LINE
  5
AAA
330
AA8
100
AcDbEntity
  8
0
100
AcDbLine
 10
0.0
 20
0.0
 30
0.0
 11
-1.0
 21
-0.166667
 31
0.0
  0
LINE
  5
AAB
330
AA8
100
AcDbEntity
  8
0
100
AcDbLine
 10
-1.0
 20
0.166667
 30
0.0
 11
-1.0
 21
-0.166667
 31
0.0
  0
LINE
  5
AAC
330
AA8
100
AcDbEntity
  8
0
100
AcDbLine
 10
0.0
 20
0.0
 30
0.0
 11
-1.0
 21
0.0
 31
0.0
  0
ENDBLK
  5
AAE
330
AA8
100
AcDbEntity
  8
0
100
AcDbBlockEnd
  0
BLOCK
  5
1513
330
14E4
100
AcDbEntity
  8
0
100
AcDbBlockBegin
  2
104320PL
 70
     0
 10
0.0
 20
0.0
 30
0.0
  3
104320PL
  1

  0
ARC
  5
14E5
330
14E4
100
AcDbEntity
  8
SANINDUSA
100
AcDbCircle
 10
0.2572390000000269
 20
-0.0099999999999909
 30
0.0
 40
0.01
100
AcDbArc
 50
0.0
 51
90.0
  0
ARC
  5
14E6
330
14E4
100
AcDbEntity
  8
SANINDUSA
100
AcDbCircle
 10
0.2119740000000547
 20
-0.4332329999999735
 30
0.0
 40
0.197876
100
AcDbArc
 50
54.84186699999821
 51
76.62798900000305
  0
ARC
  5
14E7
330
14E4
100
AcDbEntity
  8
SANINDUSA
100
AcDbCircle
 10
0.3159630000000106
 20
-0.2775000000000324
 30
0.0
 40
0.018384
100
AcDbArc
 50
12.80481300000205
 51
50.28689799999785
  0
ARC
  5
14E8
330
14E4
100
AcDbEntity
  8
SANINDUSA
100
AcDbCircle
 10
0.28129899999999
 20
0.0430330000000367
 30
0.0
 40
0.284731
100
AcDbArc
 50
255.8899780000026
 51
265.2533620000006
  0
LINE
  5
14E9
330
14E4
100
AcDbEntity
  8
SANINDUSA
100
AcDbLine
 10
0.2672390000000178
 20
-0.1017910000000484
 30
0.0
 11
0.334720999999945
 21
-0.2427390000000293
 31
0.0
  0
ARC
  5
14EA
330
14E4
100
AcDbEntity
  8
SANINDUSA
100
AcDbCircle
 10
0.2402560000000449
 20
-0.2793149999999974
 30
0.0
 40
0.101299
100
AcDbArc
 50
11.49425600000196
 51
21.16599300000114
  0
ARC
  5
14EB
330
14E4
100
AcDbEntity
  8
SANINDUSA
100
AcDbCircle
 10
-0.0075940000000401
 20
-0.2205480000000085
 30
0.0
 40
0.2856560000000001
100
AcDbArc
 50
325.0205760000021
 51
348.0263210000018
  0
ARC
  5
14EC
330
14E4
100
AcDbEntity
  8
SANINDUSA
100
AcDbCircle
 10
-0.0075940000000401
 20
-0.2205480000000085
 30
0.0
 40
0.3556560000000001
100
AcDbArc
 50
325.0205760000021
 51
344.4075059999993
  0
ARC
  5
14ED
330
14E4
100
AcDbEntity
  8
SANINDUSA
100
AcDbCircle
 10
0.2447859999999764
 20
-0.2802590000000014
 30
0.0
 40
0.097065
100
AcDbArc
 50
338.3017649999976
 51
12.57362099999851
  0
ARC
  5
14EE
330
14E4
100
AcDbEntity
  8
SANINDUSA
100
AcDbCircle
 10
0.2447859999999764
 20
-0.2802590000000014
 30
0.0
 40
0.027065
100
AcDbArc
 50
0.9496699999975966
 51
12.57362099999851
  0
LINE
  5
14EF
330
14E4
100
AcDbEntity
  8
SANINDUSA
100
AcDbLine
 10
0.2672390000000178
 20
-0.1017910000000484
 30
0.0
 11
0.2672390000000178
 21
-0.0099999999999909
 31
0.0
  0
ARC
  5
14F0
330
14E4
100
AcDbEntity
  8
SANINDUSA
100
AcDbCircle
 10
0.050296000000003
 20
-0.2768610000000541
 30
0.0
 40
0.2762100000000001
100
AcDbArc
 50
300.3390029999983
 51
327.8126560000009
  0
ARC
  5
14F1
330
14E4
100
AcDbEntity
  8
SANINDUSA
100
AcDbCircle
 10
-0.2572390000000269
 20
-0.0099999999999909
 30
0.0
 40
0.01
100
AcDbArc
 50
90.0
 51
180.0
  0
ARC
  5
14F2
330
14E4
100
AcDbEntity
  8
SANINDUSA
100
AcDbCircle
 10
0.6790919999999688
 20
0.4872319999999491
 30
0.0
 40
0.8670469999999999
100
AcDbArc
 50
231.6947760000001
 51
234.2749750000001
  0
ARC
  5
14F3
330
14E4
100
AcDbEntity
  8
SANINDUSA
100
AcDbCircle
 10
1.124864999999999
 20
1.051570999999967
 30
0.0
 40
1.586208
100
AcDbArc
 50
229.7553760000007
 51
231.6947760000001
  0
ARC
  5
14F4
330
14E4
100
AcDbEntity
  8
SANINDUSA
100
AcDbCircle
 10
0.0673440000000483
 20
-0.1978599999999915
 30
0.0
 40
0.050688
100
AcDbArc
 50
49.75537600000066
 51
70.64614499999722
  0
ARC
  5
14F5
330
14E4
100
AcDbEntity
  8
SANINDUSA
100
AcDbCircle
 10
-1.124864999999999
 20
1.051570999999967
 30
0.0
 40
1.586208
100
AcDbArc
 50
308.3052239999998
 51
310.2446239999993
  0
ARC
  5
14F6
330
14E4
100
AcDbEntity
  8
SANINDUSA
100
AcDbCircle
 10
-0.0673440000000483
 20
-0.1978599999999915
 30
0.0
 40
0.050688
100
AcDbArc
 50
109.3538550000027
 51
130.2446239999993
  0
ARC
  5
14F7
330
14E4
100
AcDbEntity
  8
SANINDUSA
100
AcDbCircle
 10
0.0
 20
0.074408999999946
 30
0.0
 40
0.239699
100
AcDbArc
 50
242.0121940000014
 51
297.9878059999986
  0
CIRCLE
  5
14F8
330
14E4
100
AcDbEntity
  8
SANINDUSA
100
AcDbCircle
 10
0.0
 20
-0.2200000000000279
 30
0.0
 40
0.0225
  0
CIRCLE
  5
14F9
330
14E4
100
AcDbEntity
  8
SANINDUSA
100
AcDbCircle
 10
0.0
 20
-0.0650000000000546
 30
0.0
 40
0.0175
  0
LWPOLYLINE
  5
14FA
330
14E4
100
AcDbEntity
  8
SANINDUSA
100
AcDbPolyline
 90
        3
 70
     0
 43
0.0
 10
0.0
 20
-0.5000000000000006
 42
-0.082161
 10
-0.0959689999999682
 20
-0.4841229999999547
 42
-0.065136
 10
-0.1509810000000016
 20
-0.4570049999999816
 42
-0.065136
  0
LWPOLYLINE
  5
14FB
330
14E4
100
AcDbEntity
  8
SANINDUSA
100
AcDbPolyline
 90
        3
 70
     0
 43
0.0
 10
0.0
 20
-0.5000000000000006
 42
0.082161
 10
0.0959689999999682
 20
-0.4841229999999547
 42
0.065136
 10
0.1509810000000016
 20
-0.4570049999999816
 42
0.065136
  0
ARC
  5
14FC
330
14E4
100
AcDbEntity
  8
SANINDUSA
100
AcDbCircle
 10
-0.2560849999999846
 20
-0.0735290000000077
 30
0.0
 40
0.165587
100
AcDbArc
 50
285.4812930000004
 51
300.185770999997
  0
ARC
  5
14FD
330
14E4
100
AcDbEntity
  8
SANINDUSA
100
AcDbCircle
 10
-0.28129899999999
 20
0.0430330000000367
 30
0.0
 40
0.284731
100
AcDbArc
 50
274.7466379999993
 51
284.1100219999974
  0
ARC
  5
14FE
330
14E4
100
AcDbEntity
  8
SANINDUSA
100
AcDbCircle
 10
-0.3159630000000106
 20
-0.2775000000000324
 30
0.0
 40
0.018384
100
AcDbArc
 50
129.7131020000021
 51
167.1951869999978
  0
ARC
  5
14FF
330
14E4
100
AcDbEntity
  8
SANINDUSA
100
AcDbCircle
 10
-0.2402560000000449
 20
-0.2793149999999974
 30
0.0
 40
0.101299
100
AcDbArc
 50
158.8340069999988
 51
168.505743999998
  0
LINE
  5
1500
330
14E4
100
AcDbEntity
  8
SANINDUSA
100
AcDbLine
 10
-0.2672390000000178
 20
-0.1017910000000484
 30
0.0
 11
-0.334720999999945
 21
-0.2427390000000293
 31
0.0
  0
ARC
  5
1501
330
14E4
100
AcDbEntity
  8
SANINDUSA
100
AcDbCircle
 10
-0.2119740000000547
 20
-0.4332329999999735
 30
0.0
 40
0.197876
100
AcDbArc
 50
103.3720109999969
 51
125.1581330000018
  0
ARC
  5
1502
330
14E4
100
AcDbEntity
  8
SANINDUSA
100
AcDbCircle
 10
0.0075940000000401
 20
-0.2205480000000085
 30
0.0
 40
0.2856560000000001
100
AcDbArc
 50
191.9736789999982
 51
214.9794239999978
  0
ARC
  5
1503
330
14E4
100
AcDbEntity
  8
SANINDUSA
100
AcDbCircle
 10
-0.050296000000003
 20
-0.2768610000000541
 30
0.0
 40
0.20621
100
AcDbArc
 50
212.1873439999991
 51
239.6609970000017
  0
ARC
  5
1504
330
14E4
100
AcDbEntity
  8
SANINDUSA
100
AcDbCircle
 10
0.0075940000000401
 20
-0.2205480000000085
 30
0.0
 40
0.3556560000000001
100
AcDbArc
 50
195.5924940000007
 51
214.9794239999978
  0
ARC
  5
1505
330
14E4
100
AcDbEntity
  8
SANINDUSA
100
AcDbCircle
 10
-0.2447859999999764
 20
-0.2802590000000014
 30
0.0
 40
0.097065
100
AcDbArc
 50
167.4263790000015
 51
201.6982350000024
  0
ARC
  5
1506
330
14E4
100
AcDbEntity
  8
SANINDUSA
100
AcDbCircle
 10
-0.2447859999999764
 20
-0.2802590000000014
 30
0.0
 40
0.027065
100
AcDbArc
 50
167.4263790000015
 51
179.0503300000024
  0
LINE
  5
1507
330
14E4
100
AcDbEntity
  8
SANINDUSA
100
AcDbLine
 10
-0.1124869999999873
 20
-0.1372559999999794
 30
0.0
 11
-0.3277090000000271
 21
-0.2633580000000398
 31
0.0
  0
ARC
  5
1508
330
14E4
100
AcDbEntity
  8
SANINDUSA
100
AcDbCircle
 10
-0.6790919999999688
 20
0.4872319999999491
 30
0.0
 40
0.8670469999999999
100
AcDbArc
 50
305.7250249999999
 51
308.3052239999998
  0
LINE
  5
1509
330
14E4
100
AcDbEntity
  8
SANINDUSA
100
AcDbLine
 10
-0.2672390000000178
 20
-0.1017910000000484
 30
0.0
 11
-0.2672390000000178
 21
-0.0099999999999909
 31
0.0
  0
LWPOLYLINE
  5
150A
330
14E4
100
AcDbEntity
  8
SANINDUSA
100
AcDbPolyline
 90
        3
 70
     0
 43
0.0
 10
0.0
 20
-0.5700000000000506
 42
-0.082161
 10
-0.1185140000000047
 20
-0.550392999999986
 42
-0.065136
 10
-0.1898139999999557
 20
-0.5152450000000505
 42
-0.104399
  0
ARC
  5
150B
330
14E4
100
AcDbEntity
  8
SANINDUSA
100
AcDbCircle
 10
-0.050296000000003
 20
-0.2768610000000541
 30
0.0
 40
0.2762100000000001
100
AcDbArc
 50
212.1873439999991
 51
239.6609970000017
  0
LWPOLYLINE
  5
150C
330
14E4
100
AcDbEntity
  8
SANINDUSA
100
AcDbPolyline
 90
        3
 70
     0
 43
0.0
 10
0.0
 20
-0.5700000000000506
 42
0.082161
 10
0.1185140000000047
 20
-0.550392999999986
 42
0.065136
 10
0.1898139999999557
 20
-0.5152450000000505
 42
0.104399
  0
LINE
  5
150D
330
14E4
100
AcDbEntity
  8
SANINDUSA
100
AcDbLine
 10
-0.2572390000000269
 20
0.0
 30
0.0
 11
0.2572390000000269
 21
0.0
 31
0.0
  0
ARC
  5
150E
330
14E4
100
AcDbEntity
  8
SANINDUSA
100
AcDbCircle
 10
0.0
 20
0.7089399999999842
 30
0.0
 40
0.8536399999999998
100
AcDbArc
 50
251.756350000002
 51
288.243649999998
  0
ARC
  5
150F
330
14E4
100
AcDbEntity
  8
SANINDUSA
100
AcDbCircle
 10
0.2560849999999846
 20
-0.0735290000000077
 30
0.0
 40
0.165587
100
AcDbArc
 50
239.814229000003
 51
254.5187069999996
  0
LINE
  5
1510
330
14E4
100
AcDbEntity
  8
SANINDUSA
100
AcDbLine
 10
0.1124869999999873
 20
-0.1372559999999794
 30
0.0
 11
0.3277090000000271
 21
-0.2633580000000398
 31
0.0
  0
ARC
  5
1511
330
14E4
100
AcDbEntity
  8
SANINDUSA
100
AcDbCircle
 10
0.050296000000003
 20
-0.2768610000000541
 30
0.0
 40
0.20621
100
AcDbArc
 50
300.3390029999983
 51
327.8126560000009
  0
ARC
  5
1512
330
14E4
100
AcDbEntity
  8
SANINDUSA
100
AcDbCircle
 10
0.6790919999999688
 20
0.4872319999999491
 30
0.0
 40
0.8670469999999999
100
AcDbArc
 50
234.4006809999993
 51
234.4903549999975
  0
ENDBLK
  5
1514
330
14E4
100
AcDbEntity
  8
0
100
AcDbBlockEnd
  0
BLOCK
  5
1531
330
151A
100
AcDbEntity
  8
0
100
AcDbBlockBegin
  2
104320AF
 70
     0
 10
0.0
 20
0.0
 30
0.0
  3
104320AF
  1

  0
LINE
  5
151B
330
151A
100
AcDbEntity
  8
SANINDUSA
100
AcDbLine
 10
0.2672390000000178
 20
0.8400000000000318
 30
0.0
 11
0.2672390000000178
 21
0.8499339999999619
 31
0.0
  0
ARC
  5
151C
330
151A
100
AcDbEntity
  8
SANINDUSA
100
AcDbCircle
 10
0.1765550000000076
 20
0.6949509999999464
 30
0.0
 40
0.01
100
AcDbArc
 50
270.0
 51
0.0
  0
LINE
  5
151D
330
151A
100
AcDbEntity
  8
SANINDUSA
100
AcDbLine
 10
0.1865549999999985
 20
0.7054369999999608
 30
0.0
 11
0.1865549999999985
 21
0.6949509999999464
 31
0.0
  0
ARC
  5
151E
330
151A
100
AcDbEntity
  8
SANINDUSA
100
AcDbCircle
 10
5.200243
 20
-5.942645999999967
 30
0.0
 40
8.331633
100
AcDbArc
 50
125.7171480000027
 51
126.5807799999996
  0
ARC
  5
151F
330
151A
100
AcDbEntity
  8
SANINDUSA
100
AcDbCircle
 10
0.3305289999999559
 20
0.8300000000000409
 30
0.0
 40
0.01
100
AcDbArc
 50
305.7171480000027
 51
90.0
  0
LINE
  5
1520
330
151A
100
AcDbEntity
  8
SANINDUSA
100
AcDbLine
 10
-0.2672390000000178
 20
0.8400000000000318
 30
0.0
 11
-0.2672390000000178
 21
0.8500450000000228
 31
0.0
  0
ARC
  5
1521
330
151A
100
AcDbEntity
  8
SANINDUSA
100
AcDbCircle
 10
-0.1765550000000076
 20
0.6949509999999464
 30
0.0
 40
0.01
100
AcDbArc
 50
180.0
 51
270.0
  0
LINE
  5
1522
330
151A
100
AcDbEntity
  8
SANINDUSA
100
AcDbLine
 10
-0.1679709999999659
 20
0.6849509999999555
 30
0.0
 11
-0.1765550000000076
 21
0.6849509999999555
 31
0.0
  0
LINE
  5
1523
330
151A
100
AcDbEntity
  8
SANINDUSA
100
AcDbLine
 10
-0.1865549999999985
 20
0.7054369999999608
 30
0.0
 11
-0.1865549999999985
 21
0.6949509999999464
 31
0.0
  0
ARC
  5
1524
330
151A
100
AcDbEntity
  8
SANINDUSA
100
AcDbCircle
 10
-0.3305289999999559
 20
0.8300000000000409
 30
0.0
 40
0.01
100
AcDbArc
 50
90.0
 51
234.2828519999973
  0
ARC
  5
1525
330
151A
100
AcDbEntity
  8
SANINDUSA
100
AcDbCircle
 10
-5.200243
 20
-5.942645999999967
 30
0.0
 40
8.331633
100
AcDbArc
 50
53.41922000000043
 51
54.28285199999733
  0
LINE
  5
1526
330
151A
100
AcDbEntity
  8
SANINDUSA
100
AcDbLine
 10
0.1485010000000102
 20
0.6599999999999682
 30
0.0
 11
-0.1485010000000102
 21
0.6599999999999682
 31
0.0
  0
ARC
  5
1527
330
151A
100
AcDbEntity
  8
SANINDUSA
100
AcDbCircle
 10
-0.5659010000000535
 20
0.3959680000000389
 30
0.0
 40
0.4974940000000001
100
AcDbArc
 50
4.416617000002869
 51
18.30826100000291
  0
ARC
  5
1528
330
151A
100
AcDbEntity
  8
SANINDUSA
100
AcDbCircle
 10
0.5659010000000535
 20
0.3959680000000389
 30
0.0
 40
0.4974940000000001
100
AcDbArc
 50
161.691738999997
 51
175.5833829999971
  0
LINE
  5
1529
330
151A
100
AcDbEntity
  8
SANINDUSA
100
AcDbLine
 10
-0.0698840000000018
 20
0.0
 30
0.0
 11
0.0698840000000018
 21
0.0
 31
0.0
  0
LINE
  5
152A
330
151A
100
AcDbEntity
  8
SANINDUSA
100
AcDbLine
 10
-0.0698840000000018
 20
0.4342789999999468
 30
0.0
 11
-0.0698840000000018
 21
0.0
 31
0.0
  0
LINE
  5
152B
330
151A
100
AcDbEntity
  8
SANINDUSA
100
AcDbLine
 10
0.0698840000000018
 20
0.4342789999999468
 30
0.0
 11
0.0698840000000018
 21
0.0
 31
0.0
  0
ARC
  5
152C
330
151A
100
AcDbEntity
  8
SANINDUSA
100
AcDbCircle
 10
-0.4733420000000024
 20
0.4265940000000228
 30
0.0
 40
0.4
100
AcDbArc
 50
18.30826100000291
 51
53.41922000000043
  0
LINE
  5
152D
330
151A
100
AcDbEntity
  8
SANINDUSA
100
AcDbLine
 10
-0.2672390000000178
 20
0.8500450000000228
 30
0.0
 11
0.2672390000000178
 21
0.8499339999999619
 31
0.0
  0
LINE
  5
152E
330
151A
100
AcDbEntity
  8
SANINDUSA
100
AcDbLine
 10
0.3305289999999559
 20
0.8400000000000318
 30
0.0
 11
-0.3305289999999559
 21
0.8400000000000318
 31
0.0
  0
ARC
  5
152F
330
151A
100
AcDbEntity
  8
SANINDUSA
100
AcDbCircle
 10
0.4733420000000024
 20
0.4265940000000228
 30
0.0
 40
0.4
100
AcDbArc
 50
126.5807799999996
 51
161.691738999997
  0
LINE
  5
1530
330
151A
100
AcDbEntity
  8
SANINDUSA
100
AcDbLine
 10
0.1679709999999659
 20
0.6849509999999555
 30
0.0
 11
0.1765550000000076
 21
0.6849509999999555
 31
0.0
  0
ENDBLK
  5
1532
330
151A
100
AcDbEntity
  8
0
100
AcDbBlockEnd
  0
BLOCK
  5
1551
330
153A
100
AcDbEntity
  8
0
100
AcDbBlockBegin
  2
104320AL
 70
     0
 10
0.0
 20
0.0
 30
0.0
  3
104320AL
  1

  0
ARC
  5
153B
330
153A
100
AcDbEntity
  8
SANINDUSA
100
AcDbCircle
 10
0.5599999999999455
 20
0.8300000000000414
 30
0.0
 40
0.01
100
AcDbArc
 50
0.0
 51
90.0
  0
ARC
  5
153C
330
153A
100
AcDbEntity
  8
SANINDUSA
100
AcDbCircle
 10
0.5599999999999455
 20
0.8291779999999567
 30
0.0
 40
0.01
100
AcDbArc
 50
305.824855000001
 51
0.0
  0
LINE
  5
153D
330
153A
100
AcDbEntity
  8
SANINDUSA
100
AcDbLine
 10
0.5700000000000501
 20
0.8300000000000414
 30
0.0
 11
0.5700000000000501
 21
0.8291779999999567
 31
0.0
  0
ARC
  5
153E
330
153A
100
AcDbEntity
  8
SANINDUSA
100
AcDbCircle
 10
5.430856999999946
 20
-5.942645999999967
 30
0.0
 40
8.331633
100
AcDbArc
 50
125.7267019999982
 51
126.4513830000006
  0
ARC
  5
153F
330
153A
100
AcDbEntity
  8
SANINDUSA
100
AcDbCircle
 10
-1.768231000000014
 20
3.290003999999953
 30
0.0
 40
3.385804
100
AcDbArc
 50
310.2160239999999
 51
311.622714000001
  0
ARC
  5
1540
330
153A
100
AcDbEntity
  8
SANINDUSA
100
AcDbCircle
 10
0.0099999999999909
 20
0.8400000000000323
 30
0.0
 40
0.01
100
AcDbArc
 50
90.0
 51
180.0
  0
LINE
  5
1541
330
153A
100
AcDbEntity
  8
SANINDUSA
100
AcDbLine
 10
0.0099999999999909
 20
0.8500000000000232
 30
0.0
 11
0.1293190000000095
 21
0.8499749999999727
 31
0.0
  0
ARC
  5
1542
330
153A
100
AcDbEntity
  8
SANINDUSA
100
AcDbCircle
 10
0.1117759999999635
 20
0.7866030000000143
 30
0.0
 40
0.03
100
AcDbArc
 50
251.8814460000017
 51
289.0868010000028
  0
LINE
  5
1543
330
153A
100
AcDbEntity
  8
SANINDUSA
100
AcDbLine
 10
0.1024469999999837
 20
0.7580900000000389
 30
0.0
 11
0.0
 21
0.791611999999987
 31
0.0
  0
LINE
  5
1544
330
153A
100
AcDbEntity
  8
SANINDUSA
100
AcDbLine
 10
0.0
 20
0.6699999999999596
 30
0.0
 11
0.0
 21
0.8400000000000323
 31
0.0
  0
ARC
  5
1545
330
153A
100
AcDbEntity
  8
SANINDUSA
100
AcDbCircle
 10
0.1286179999999604
 20
0.8400000000000323
 30
0.0
 40
0.01
100
AcDbArc
 50
7.766676999998357
 51
90.0
  0
LINE
  5
1546
330
153A
100
AcDbEntity
  8
SANINDUSA
100
AcDbLine
 10
0.5599999999999455
 20
0.8400000000000323
 30
0.0
 11
0.0
 21
0.8400000000000323
 31
0.0
  0
LINE
  5
1547
330
153A
100
AcDbEntity
  8
SANINDUSA
100
AcDbLine
 10
0.3010040000000345
 20
0.8203350000000005
 30
0.0
 11
0.1215859999999793
 21
0.758251999999971
 31
0.0
  0
ARC
  5
1548
330
153A
100
AcDbEntity
  8
SANINDUSA
100
AcDbCircle
 10
0.3647929999999633
 20
0.6549830000000162
 30
0.0
 40
0.005
100
AcDbArc
 50
330.763256000002
 51
89.93334699999735
  0
LINE
  5
1549
330
153A
100
AcDbEntity
  8
SANINDUSA
100
AcDbLine
 10
0.3715869999999768
 20
0.6599999999999687
 30
0.0
 11
0.0099999999999909
 21
0.6599999999999687
 31
0.0
  0
ARC
  5
154A
330
153A
100
AcDbEntity
  8
SANINDUSA
100
AcDbCircle
 10
0.8583469999999806
 20
0.3787290000000212
 30
0.0
 40
0.560607
100
AcDbArc
 50
150.763256000002
 51
174.3132689999971
  0
ARC
  5
154B
330
153A
100
AcDbEntity
  8
SANINDUSA
100
AcDbCircle
 10
0.0099999999999909
 20
0.6699999999999596
 30
0.0
 40
0.01
100
AcDbArc
 50
180.0
 51
270.0
  0
ARC
  5
154C
330
153A
100
AcDbEntity
  8
SANINDUSA
100
AcDbCircle
 10
0.7925510000000032
 20
0.2688630000000103
 30
0.0
 40
0.5746299999999999
100
AcDbArc
 50
130.6935430000037
 51
137.1034389999976
  0
LINE
  5
154D
330
153A
100
AcDbEntity
  8
SANINDUSA
100
AcDbLine
 10
0.2855279999999993
 20
0.0
 30
0.0
 11
0.0824999999999818
 21
0.0
 31
0.0
  0
LINE
  5
154E
330
153A
100
AcDbEntity
  8
SANINDUSA
100
AcDbLine
 10
0.0824999999999818
 20
0.0
 30
0.0
 11
0.0824999999999818
 21
0.6599999999999687
 31
0.0
  0
ARC
  5
154F
330
153A
100
AcDbEntity
  8
SANINDUSA
100
AcDbCircle
 10
10.25736500000005
 20
-0.1263599999999769
 30
0.0
 40
9.972637
100
AcDbArc
 50
176.7772589999981
 51
179.2740040000021
  0
LINE
  5
1550
330
153A
100
AcDbEntity
  8
SANINDUSA
100
AcDbLine
 10
0.1430639999999812
 20
0.0
 30
0.0
 11
0.1430639999999812
 21
0.6599999999999687
 31
0.0
  0
ENDBLK
  5
1552
330
153A
100
AcDbEntity
  8
0
100
AcDbBlockEnd
  0
BLOCK
  5
15DC
330
1570
100
AcDbEntity
  8
0
100
AcDbBlockBegin
  2
104320CT
 70
     0
 10
0.0
 20
0.0
 30
0.0
  3
104320CT
  1

  0
ARC
  5
1571
330
1570
100
AcDbEntity
  8
SANINDUSA
100
AcDbCircle
 10
0.558840000000032
 20
0.8300000000000409
 30
0.0
 40
0.01
100
AcDbArc
 50
90.0
 51
98.61886899999797
  0
ARC
  5
1572
330
1570
100
AcDbEntity
  8
SANINDUSA
100
AcDbCircle
 10
0.5599999999999455
 20
0.8300000000000409
 30
0.0
 40
0.01
100
AcDbArc
 50
0.0
 51
90.0
  0
ARC
  5
1573
330
1570
100
AcDbEntity
  8
SANINDUSA
100
AcDbCircle
 10
0.5599999999999455
 20
0.8291779999999562
 30
0.0
 40
0.01
100
AcDbArc
 50
305.824855000001
 51
0.0
  0
LINE
  5
1574
330
1570
100
AcDbEntity
  8
SANINDUSA
100
AcDbLine
 10
0.5599999999999455
 20
0.8400000000000318
 30
0.0
 11
0.558840000000032
 21
0.8400000000000318
 31
0.0
  0
LINE
  5
1575
330
1570
100
AcDbEntity
  8
SANINDUSA
100
AcDbLine
 10
0.5700000000000501
 20
0.8300000000000409
 30
0.0
 11
0.5700000000000501
 21
0.8291779999999562
 31
0.0
  0
LINE
  5
1576
330
1570
100
AcDbEntity
  8
SANINDUSA
100
AcDbLine
 10
0.5175130000000081
 20
0.8238179999999601
 30
0.0
 11
0.5437100000000328
 21
0.8277890000000525
 31
0.0
  0
ARC
  5
1577
330
1570
100
AcDbEntity
  8
SANINDUSA
100
AcDbCircle
 10
6.555850999999961
 20
-6.324691000000029
 30
0.0
 40
9.338091
100
AcDbArc
 50
130.0589070000017
 51
130.3412230000006
  0
ARC
  5
1578
330
1570
100
AcDbEntity
  8
SANINDUSA
100
AcDbCircle
 10
0.3503849999999602
 20
0.8647479999999632
 30
0.0
 40
0.170232
100
AcDbArc
 50
336.2988170000019
 51
345.321599000002
  0
ARC
  5
1579
330
1570
100
AcDbEntity
  8
SANINDUSA
100
AcDbCircle
 10
0.5088650000000144
 20
0.8259510000000318
 30
0.0
 40
0.006522
100
AcDbArc
 50
101.4357229999982
 51
167.320513000002
  0
ARC
  5
157A
330
1570
100
AcDbEntity
  8
SANINDUSA
100
AcDbCircle
 10
0.5179630000000089
 20
0.8208519999999452
 30
0.0
 40
0.003
100
AcDbArc
 50
98.61886899999797
 51
165.321599000002
  0
LINE
  5
157B
330
1570
100
AcDbEntity
  8
SANINDUSA
100
AcDbLine
 10
0.507571999999982
 20
0.8323430000000371
 30
0.0
 11
0.5573419999999488
 21
0.839886999999976
 31
0.0
  0
ARC
  5
157C
330
1570
100
AcDbEntity
  8
SANINDUSA
100
AcDbCircle
 10
0.5441600000000335
 20
0.8248230000000376
 30
0.0
 40
0.003
100
AcDbArc
 50
310.0589070000017
 51
98.61886899999797
  0
ARC
  5
157D
330
1570
100
AcDbEntity
  8
SANINDUSA
100
AcDbCircle
 10
5.430856999999946
 20
-5.942645999999967
 30
0.0
 40
8.331633
100
AcDbArc
 50
125.7267019999982
 51
126.4513830000006
  0
ARC
  5
157E
330
1570
100
AcDbEntity
  8
SANINDUSA
100
AcDbCircle
 10
0.509005000000002
 20
0.7951150000000098
 30
0.0
 40
0.003
100
AcDbArc
 50
156.2988170000019
 51
310.3412230000007
  0
LINE
  5
157F
330
1570
100
AcDbEntity
  8
SANINDUSA
100
AcDbLine
 10
0.369152999999983
 20
0.6816740000000437
 30
0.0
 11
0.3797049999999444
 21
0.6911730000000489
 31
0.0
  0
LINE
  5
1580
330
1570
100
AcDbEntity
  8
SANINDUSA
100
AcDbLine
 10
0.3620929999999589
 20
0.6859309999999823
 30
0.0
 11
0.3797230000000127
 21
0.6928450000000339
 31
0.0
  0
LINE
  5
1581
330
1570
100
AcDbEntity
  8
SANINDUSA
100
AcDbLine
 10
0.3629160000000411
 20
0.6846679999999879
 30
0.0
 11
0.369152999999983
 21
0.6816740000000437
 31
0.0
  0
LINE
  5
1582
330
1570
100
AcDbEntity
  8
SANINDUSA
100
AcDbLine
 10
0.3620929999999589
 20
0.6859309999999823
 30
0.0
 11
0.3629160000000411
 21
0.6846679999999879
 31
0.0
  0
LINE
  5
1583
330
1570
100
AcDbEntity
  8
SANINDUSA
100
AcDbLine
 10
0.3797049999999444
 20
0.6911730000000489
 30
0.0
 11
0.3797230000000127
 21
0.6928450000000339
 31
0.0
  0
ARC
  5
1584
330
1570
100
AcDbEntity
  8
SANINDUSA
100
AcDbCircle
 10
0.3591979999999921
 20
0.8632159999999657
 30
0.0
 40
0.147717
100
AcDbArc
 50
302.7725640000014
 51
345.960939000001
  0
ARC
  5
1585
330
1570
100
AcDbEntity
  8
SANINDUSA
100
AcDbCircle
 10
-1.768231000000014
 20
3.290003999999953
 30
0.0
 40
3.385804
100
AcDbArc
 50
310.2160239999999
 51
311.622714000001
  0
ARC
  5
1586
330
1570
100
AcDbEntity
  8
SANINDUSA
100
AcDbCircle
 10
0.3030479999999898
 20
0.7601849999999786
 30
0.0
 40
0.083405
100
AcDbArc
 50
127.6063550000004
 51
145.1448570000023
  0
ARC
  5
1587
330
1570
100
AcDbEntity
  8
SANINDUSA
100
AcDbCircle
 10
0.2483339999999998
 20
0.8335029999999505
 30
0.0
 40
0.008188
100
AcDbArc
 50
297.7942300000013
 51
349.8866499999981
  0
ARC
  5
1588
330
1570
100
AcDbEntity
  8
SANINDUSA
100
AcDbCircle
 10
0.1694380000000137
 20
0.6887070000000222
 30
0.0
 40
0.01
100
AcDbArc
 50
187.7666769999984
 51
270.0
  0
ARC
  5
1589
330
1570
100
AcDbEntity
  8
SANINDUSA
100
AcDbCircle
 10
0.0563919999999598
 20
0.823391000000015
 30
0.0
 40
0.18071
100
AcDbArc
 50
308.1848999999987
 51
325.8137710000019
  0
ARC
  5
158A
330
1570
100
AcDbEntity
  8
SANINDUSA
100
AcDbCircle
 10
0.6594119999999748
 20
0.6879010000000108
 30
0.0
 40
0.446505
100
AcDbArc
 50
167.6340089999999
 51
171.3907779999976
  0
LINE
  5
158B
330
1570
100
AcDbEntity
  8
SANINDUSA
100
AcDbLine
 10
0.1694380000000137
 20
0.6787070000000313
 30
0.0
 11
0.2719970000000558
 21
0.6787070000000313
 31
0.0
  0
ARC
  5
158C
330
1570
100
AcDbEntity
  8
SANINDUSA
100
AcDbCircle
 10
0.131289000000038
 20
0.7678590000000441
 30
0.0
 40
0.087637
100
AcDbArc
 50
328.3334429999982
 51
351.3907779999976
  0
LINE
  5
158D
330
1570
100
AcDbEntity
  8
SANINDUSA
100
AcDbLine
 10
0.1385259999999562
 20
0.8413510000000314
 30
0.0
 11
0.1595300000000179
 21
0.6873550000000251
 31
0.0
  0
ARC
  5
158E
330
1570
100
AcDbEntity
  8
SANINDUSA
100
AcDbCircle
 10
0.2832389999999805
 20
0.7703739999999471
 30
0.0
 40
0.061398
100
AcDbArc
 50
142.3822489999981
 51
167.6340089999999
  0
LINE
  5
158F
330
1570
100
AcDbEntity
  8
SANINDUSA
100
AcDbLine
 10
0.0965300000000298
 20
0.8327500000000327
 30
0.0
 11
0.0824999999999818
 21
0.8327500000000327
 31
0.0
  0
LINE
  5
1590
330
1570
100
AcDbEntity
  8
SANINDUSA
100
AcDbLine
 10
0.0824999999999818
 20
0.8327500000000327
 30
0.0
 11
0.0824999999999818
 21
0.8500000000000227
 31
0.0
  0
ARC
  5
1591
330
1570
100
AcDbEntity
  8
SANINDUSA
100
AcDbCircle
 10
0.1231520000000046
 20
0.8294949999999516
 30
0.0
 40
0.006492
100
AcDbArc
 50
56.70362899999935
 51
100.877012000001
  0
ARC
  5
1592
330
1570
100
AcDbEntity
  8
SANINDUSA
100
AcDbCircle
 10
0.0965300000000298
 20
0.8227500000000418
 30
0.0
 40
0.01
100
AcDbArc
 50
7.766676999998387
 51
90.0
  0
ARC
  5
1593
330
1570
100
AcDbEntity
  8
SANINDUSA
100
AcDbCircle
 10
0.1248419999999442
 20
0.8276049999999486
 30
0.0
 40
0.008765
100
AcDbArc
 50
109.4281449999994
 51
194.213617999998
  0
LINE
  5
1594
330
1570
100
AcDbEntity
  8
SANINDUSA
100
AcDbLine
 10
0.1305109999999559
 20
0.8254530000000386
 30
0.0
 11
0.1314559999999574
 21
0.8185200000000349
 31
0.0
  0
ARC
  5
1595
330
1570
100
AcDbEntity
  8
SANINDUSA
100
AcDbCircle
 10
0.1123099999999795
 20
0.8236540000000331
 30
0.0
 40
0.018289
100
AcDbArc
 50
5.645006999996765
 51
38.03084699999855
  0
ARC
  5
1596
330
1570
100
AcDbEntity
  8
SANINDUSA
100
AcDbCircle
 10
0.0099999999999909
 20
0.8400000000000318
 30
0.0
 40
0.01
100
AcDbArc
 50
90.0
 51
180.0
  0
LINE
  5
1597
330
1570
100
AcDbEntity
  8
SANINDUSA
100
AcDbLine
 10
0.0475000000000137
 20
0.8327500000000327
 30
0.0
 11
0.0475000000000137
 21
0.8500000000000227
 31
0.0
  0
LINE
  5
1598
330
1570
100
AcDbEntity
  8
SANINDUSA
100
AcDbLine
 10
0.0475000000000137
 20
0.8327500000000327
 30
0.0
 11
0.0364759999999933
 21
0.8327500000000327
 31
0.0
  0
ARC
  5
1599
330
1570
100
AcDbEntity
  8
SANINDUSA
100
AcDbCircle
 10
0.0364759999999933
 20
0.8227500000000418
 30
0.0
 40
0.01
100
AcDbArc
 50
90.0
 51
175.0964100000022
  0
LINE
  5
159A
330
1570
100
AcDbEntity
  8
SANINDUSA
100
AcDbLine
 10
0.0099999999999909
 20
0.8500000000000227
 30
0.0
 11
0.1293190000000095
 21
0.8499749999999721
 31
0.0
  0
LINE
  5
159B
330
1570
100
AcDbEntity
  8
SANINDUSA
100
AcDbLine
 10
0.0265130000000227
 20
0.8236050000000432
 30
0.0
 11
0.0147739999999885
 21
0.6867750000000115
 31
0.0
  0
LINE
  5
159C
330
1570
100
AcDbEntity
  8
SANINDUSA
100
AcDbLine
 10
0.1348329999999578
 20
0.7937620000000152
 30
0.0
 11
0.1501859999999624
 21
0.681194000000005
 31
0.0
  0
ARC
  5
159D
330
1570
100
AcDbEntity
  8
SANINDUSA
100
AcDbCircle
 10
0.1286179999999604
 20
0.8400000000000318
 30
0.0
 40
0.01
100
AcDbArc
 50
7.766676999998387
 51
90.0
  0
LINE
  5
159E
330
1570
100
AcDbEntity
  8
SANINDUSA
100
AcDbLine
 10
0.1348329999999578
 20
0.7937620000000152
 30
0.0
 11
0.1447879999999486
 21
0.7954449999999725
 31
0.0
  0
LINE
  5
159F
330
1570
100
AcDbEntity
  8
SANINDUSA
100
AcDbLine
 10
0.1314559999999574
 20
0.8185200000000349
 30
0.0
 11
0.1414109999999482
 21
0.8202029999999922
 31
0.0
  0
LINE
  5
15A0
330
1570
100
AcDbEntity
  8
SANINDUSA
100
AcDbLine
 10
0.558840000000032
 20
0.8400000000000318
 30
0.0
 11
0.1387109999999438
 21
0.8400000000000318
 31
0.0
  0
LINE
  5
15A1
330
1570
100
AcDbEntity
  8
SANINDUSA
100
AcDbLine
 10
0.340577000000053
 20
0.6599099999999681
 30
0.0
 11
0.3130300000000261
 21
0.659942000000001
 31
0.0
  0
LINE
  5
15A2
330
1570
100
AcDbEntity
  8
SANINDUSA
100
AcDbLine
 10
0.3169769999999517
 20
0.6496389999999792
 30
0.0
 11
0.3395719999999756
 21
0.6519019999999501
 31
0.0
  0
LINE
  5
15A3
330
1570
100
AcDbEntity
  8
SANINDUSA
100
AcDbLine
 10
0.3201340000000528
 20
0.6324690000000146
 30
0.0
 11
0.3305950000000166
 21
0.6217659999999797
 31
0.0
  0
ARC
  5
15A4
330
1570
100
AcDbEntity
  8
SANINDUSA
100
AcDbCircle
 10
0.281231000000048
 20
0.5892569999999751
 30
0.0
 40
0.045226
100
AcDbArc
 50
13.38114199999789
 51
49.79141099999735
  0
ARC
  5
15A5
330
1570
100
AcDbEntity
  8
SANINDUSA
100
AcDbCircle
 10
0.3174460000000181
 20
0.5978720000000522
 30
0.0
 40
0.008
100
AcDbArc
 50
337.9449200000029
 51
13.38114199999789
  0
LINE
  5
15A6
330
1570
100
AcDbEntity
  8
SANINDUSA
100
AcDbLine
 10
0.3131889999999657
 20
0.6471729999999525
 30
0.0
 11
0.3169769999999517
 21
0.6496389999999792
 31
0.0
  0
LINE
  5
15A7
330
1570
100
AcDbEntity
  8
SANINDUSA
100
AcDbLine
 10
0.3131479999999556
 20
0.6434110000000146
 30
0.0
 11
0.3131889999999657
 21
0.6471729999999525
 31
0.0
  0
LINE
  5
15A8
330
1570
100
AcDbEntity
  8
SANINDUSA
100
AcDbLine
 10
0.3143740000000434
 20
0.6408900000000131
 30
0.0
 11
0.3131479999999556
 21
0.6434110000000146
 31
0.0
  0
LINE
  5
15A9
330
1570
100
AcDbEntity
  8
SANINDUSA
100
AcDbLine
 10
0.3201340000000528
 20
0.6324690000000146
 30
0.0
 11
0.3143740000000434
 21
0.6408900000000131
 31
0.0
  0
ARC
  5
15AA
330
1570
100
AcDbEntity
  8
SANINDUSA
100
AcDbCircle
 10
0.3155669999999873
 20
0.6142710000000307
 30
0.0
 40
0.045741
100
AcDbArc
 50
88.66997700000059
 51
102.3954719999971
  0
LINE
  5
15AB
330
1570
100
AcDbEntity
  8
SANINDUSA
100
AcDbLine
 10
0.3593869999999697
 20
0.6659100000000536
 30
0.0
 11
0.3748890000000529
 21
0.6661219999999731
 31
0.0
  0
ARC
  5
15AC
330
1570
100
AcDbEntity
  8
SANINDUSA
100
AcDbCircle
 10
0.3647929999999633
 20
0.6549830000000157
 30
0.0
 40
0.005
100
AcDbArc
 50
330.763256000002
 51
89.93334699999735
  0
LINE
  5
15AD
330
1570
100
AcDbEntity
  8
SANINDUSA
100
AcDbLine
 10
0.34709399999997
 20
0.6518200000000434
 30
0.0
 11
0.350037000000043
 21
0.6488130000000183
 31
0.0
  0
LINE
  5
15AE
330
1570
100
AcDbEntity
  8
SANINDUSA
100
AcDbLine
 10
0.3395719999999756
 20
0.6519019999999501
 30
0.0
 11
0.34709399999997
 21
0.6518200000000434
 31
0.0
  0
ARC
  5
15AF
330
1570
100
AcDbEntity
  8
SANINDUSA
100
AcDbCircle
 10
0.3334559999999556
 20
0.624561999999969
 30
0.0
 40
0.004
100
AcDbArc
 50
224.3455729999968
 51
334.9039479999969
  0
ARC
  5
15B0
330
1570
100
AcDbEntity
  8
SANINDUSA
100
AcDbCircle
 10
0.8583469999999806
 20
0.3787290000000212
 30
0.0
 40
0.575607
100
AcDbArc
 50
152.0166149999971
 51
154.9039479999968
  0
LINE
  5
15B1
330
1570
100
AcDbEntity
  8
SANINDUSA
100
AcDbLine
 10
0.3572279999999637
 20
0.6708320000000186
 30
0.0
 11
0.3437069999999949
 21
0.6708320000000186
 31
0.0
  0
LINE
  5
15B2
330
1570
100
AcDbEntity
  8
SANINDUSA
100
AcDbLine
 10
0.340577000000053
 20
0.6599099999999681
 30
0.0
 11
0.3437069999999949
 21
0.6708320000000186
 31
0.0
  0
LINE
  5
15B3
330
1570
100
AcDbEntity
  8
SANINDUSA
100
AcDbLine
 10
0.3647989999999481
 20
0.6599830000000111
 30
0.0
 11
0.3619869999999992
 21
0.6599860000000036
 31
0.0
  0
LINE
  5
15B4
330
1570
100
AcDbEntity
  8
SANINDUSA
100
AcDbLine
 10
0.3619869999999992
 20
0.6599860000000036
 30
0.0
 11
0.3572279999999637
 21
0.6708320000000186
 31
0.0
  0
LINE
  5
15B5
330
1570
100
AcDbEntity
  8
SANINDUSA
100
AcDbLine
 10
0.24249999999995
 20
0.6637070000000449
 30
0.0
 11
0.24249999999995
 21
0.6237069999999676
 31
0.0
  0
ARC
  5
15B6
330
1570
100
AcDbEntity
  8
SANINDUSA
100
AcDbCircle
 10
0.2675000000000409
 20
0.653707000000054
 30
0.0
 40
0.01
100
AcDbArc
 50
90.0
 51
180.0
  0
LINE
  5
15B7
330
1570
100
AcDbEntity
  8
SANINDUSA
100
AcDbLine
 10
0.25750000000005
 20
0.653707000000054
 30
0.0
 11
0.25750000000005
 21
0.6237069999999676
 31
0.0
  0
ARC
  5
15B8
330
1570
100
AcDbEntity
  8
SANINDUSA
100
AcDbCircle
 10
0.3255239999999731
 20
0.6489149999999882
 30
0.0
 40
0.027631
100
AcDbArc
 50
179.1413359999968
 51
198.8231930000018
  0
ARC
  5
15B9
330
1570
100
AcDbEntity
  8
SANINDUSA
100
AcDbCircle
 10
0.1725000000000136
 20
0.6539390000000367
 30
0.0
 40
0.01
100
AcDbArc
 50
358.6711100000018
 51
84.73652299999804
  0
LINE
  5
15BA
330
1570
100
AcDbEntity
  8
SANINDUSA
100
AcDbLine
 10
0.1974999999999909
 20
0.6637070000000449
 30
0.0
 11
0.1974999999999909
 21
0.6237069999999676
 31
0.0
  0
LINE
  5
15BB
330
1570
100
AcDbEntity
  8
SANINDUSA
100
AcDbLine
 10
0.1673210000000154
 20
0.6437069999999494
 30
0.0
 11
0.1974999999999909
 21
0.6437069999999494
 31
0.0
  0
LINE
  5
15BC
330
1570
100
AcDbEntity
  8
SANINDUSA
100
AcDbLine
 10
0.1824970000000121
 20
0.653707000000054
 30
0.0
 11
0.1974999999999909
 21
0.653707000000054
 31
0.0
  0
LINE
  5
15BD
330
1570
100
AcDbEntity
  8
SANINDUSA
100
AcDbLine
 10
0.1673210000000154
 20
0.6337069999999585
 30
0.0
 11
0.1775000000000091
 21
0.6337069999999585
 31
0.0
  0
LINE
  5
15BE
330
1570
100
AcDbEntity
  8
SANINDUSA
100
AcDbLine
 10
0.1825000000000045
 20
0.6287069999999631
 30
0.0
 11
0.1825000000000045
 21
0.6237069999999676
 31
0.0
  0
ARC
  5
15BF
330
1570
100
AcDbEntity
  8
SANINDUSA
100
AcDbCircle
 10
0.1775000000000091
 20
0.6287069999999631
 30
0.0
 40
0.005
100
AcDbArc
 50
0.0
 51
90.0
  0
LINE
  5
15C0
330
1570
100
AcDbEntity
  8
SANINDUSA
100
AcDbLine
 10
0.1700029999999515
 20
0.66389700000002
 30
0.0
 11
0.1734169999999722
 21
0.66389700000002
 31
0.0
  0
LINE
  5
15C1
330
1570
100
AcDbEntity
  8
SANINDUSA
100
AcDbLine
 10
0.1825000000000045
 20
0.6237069999999676
 30
0.0
 11
0.25750000000005
 21
0.6237069999999676
 31
0.0
  0
LINE
  5
15C2
330
1570
100
AcDbEntity
  8
SANINDUSA
100
AcDbLine
 10
0.1974999999999909
 20
0.6637070000000449
 30
0.0
 11
0.24249999999995
 21
0.6637070000000449
 31
0.0
  0
ARC
  5
15C3
330
1570
100
AcDbEntity
  8
SANINDUSA
100
AcDbCircle
 10
0.0924999999999727
 20
0.6499999999999773
 30
0.0
 40
0.01
100
AcDbArc
 50
90.0
 51
180.0
  0
ARC
  5
15C4
330
1570
100
AcDbEntity
  8
SANINDUSA
100
AcDbCircle
 10
0.0099999999999909
 20
0.6699999999999591
 30
0.0
 40
0.01
100
AcDbArc
 50
180.0
 51
270.0
  0
LINE
  5
15C5
330
1570
100
AcDbEntity
  8
SANINDUSA
100
AcDbLine
 10
0.1288200000000188
 20
0.6599999999999682
 30
0.0
 11
0.0099999999999909
 21
0.6599999999999682
 31
0.0
  0
ARC
  5
15C6
330
1570
100
AcDbEntity
  8
SANINDUSA
100
AcDbCircle
 10
0.1673210000000154
 20
0.6737070000000358
 30
0.0
 40
0.04
100
AcDbArc
 50
187.7666769999984
 51
270.0
  0
ARC
  5
15C7
330
1570
100
AcDbEntity
  8
SANINDUSA
100
AcDbCircle
 10
0.1673210000000154
 20
0.6737070000000358
 30
0.0
 40
0.03
100
AcDbArc
 50
187.7666769999984
 51
270.0
  0
LINE
  5
15C8
330
1570
100
AcDbEntity
  8
SANINDUSA
100
AcDbLine
 10
0.3415969999999788
 20
0.6636210000000347
 30
0.0
 11
0.2675000000000409
 21
0.6637070000000449
 31
0.0
  0
ARC
  5
15C9
330
1570
100
AcDbEntity
  8
SANINDUSA
100
AcDbCircle
 10
0.8583469999999806
 20
0.3787290000000212
 30
0.0
 40
0.560607
100
AcDbArc
 50
150.763256000002
 51
174.3132689999971
  0
ARC
  5
15CA
330
1570
100
AcDbEntity
  8
SANINDUSA
100
AcDbCircle
 10
0.8583469999999806
 20
0.3787290000000212
 30
0.0
 40
0.575607
100
AcDbArc
 50
157.9449200000029
 51
174.3132689999971
  0
ARC
  5
15CB
330
1570
100
AcDbEntity
  8
SANINDUSA
100
AcDbCircle
 10
0.3078950000000304
 20
0.6491790000000038
 30
0.0
 40
0.01
100
AcDbArc
 50
102.3954719999971
 51
179.1413359999968
  0
ARC
  5
15CC
330
1570
100
AcDbEntity
  8
SANINDUSA
100
AcDbCircle
 10
0.334145000000035
 20
0.6518539999999576
 30
0.0
 40
0.036739
100
AcDbArc
 50
198.8231930000018
 51
229.7914109999974
  0
ARC
  5
15CD
330
1570
100
AcDbEntity
  8
SANINDUSA
100
AcDbCircle
 10
0.2608729999999468
 20
0.0249999999999773
 30
0.0
 40
0.01
100
AcDbArc
 50
270.0
 51
359.1325319999977
  0
LINE
  5
15CE
330
1570
100
AcDbEntity
  8
SANINDUSA
100
AcDbLine
 10
0.2142179999999598
 20
0.0
 30
0.0
 11
0.2142179999999598
 21
0.0149999999999864
 31
0.0
  0
LINE
  5
15CF
330
1570
100
AcDbEntity
  8
SANINDUSA
100
AcDbLine
 10
0.2608729999999468
 20
0.0149999999999864
 30
0.0
 11
0.2142179999999598
 21
0.0149999999999864
 31
0.0
  0
LINE
  5
15D0
330
1570
100
AcDbEntity
  8
SANINDUSA
100
AcDbLine
 10
0.2855279999999993
 20
0.0
 30
0.0
 11
0.0824999999999818
 21
0.0
 31
0.0
  0
ARC
  5
15D1
330
1570
100
AcDbEntity
  8
SANINDUSA
100
AcDbCircle
 10
10.25736500000005
 20
-0.1263599999999769
 30
0.0
 40
9.987636999999999
100
AcDbArc
 50
176.7772589999981
 51
179.1325319999978
  0
ARC
  5
15D2
330
1570
100
AcDbEntity
  8
SANINDUSA
100
AcDbCircle
 10
10.25736500000005
 20
-0.1263599999999769
 30
0.0
 40
9.972637
100
AcDbArc
 50
176.7772589999981
 51
179.2740040000021
  0
LINE
  5
15D3
330
1570
100
AcDbEntity
  8
SANINDUSA
100
AcDbLine
 10
0.0824999999999818
 20
0.0
 30
0.0
 11
0.0824999999999818
 21
0.6499999999999773
 31
0.0
  0
LINE
  5
15D4
330
1570
100
AcDbEntity
  8
SANINDUSA
100
AcDbLine
 10
0.0
 20
0.6699999999999591
 30
0.0
 11
0.0
 21
0.8400000000000318
 31
0.0
  0
ARC
  5
15D5
330
1570
100
AcDbEntity
  8
SANINDUSA
100
AcDbCircle
 10
0.1700029999999515
 20
0.6838970000000018
 30
0.0
 40
0.02
100
AcDbArc
 50
187.7666769999984
 51
270.0
  0
LINE
  5
15D6
330
1570
100
AcDbEntity
  8
SANINDUSA
100
AcDbLine
 10
0.1064380000000256
 20
0.8241020000000389
 30
0.0
 11
0.1276880000000347
 21
0.6683010000000423
 31
0.0
  0
LINE
  5
15D7
330
1570
100
AcDbEntity
  8
SANINDUSA
100
AcDbLine
 10
0.1163460000000214
 20
0.8254530000000386
 30
0.0
 11
0.1375960000000305
 21
0.6696530000000394
 31
0.0
  0
LINE
  5
15D8
330
1570
100
AcDbEntity
  8
SANINDUSA
100
AcDbLine
 10
0.24249999999995
 20
0.6637070000000449
 30
0.0
 11
0.25750000000005
 21
0.6787070000000313
 31
0.0
  0
LINE
  5
15D9
330
1570
100
AcDbEntity
  8
SANINDUSA
100
AcDbLine
 10
0.1974999999999909
 20
0.6637070000000449
 30
0.0
 11
0.1825000000000045
 21
0.6787070000000313
 31
0.0
  0
ARC
  5
15DA
330
1570
100
AcDbEntity
  8
SANINDUSA
100
AcDbCircle
 10
-0.1870350000000371
 20
1.338085999999975
 30
0.0
 40
0.8759529999999999
100
AcDbArc
 50
309.903773000002
 51
313.6764410000034
  0
ARC
  5
15DB
330
1570
100
AcDbEntity
  8
SANINDUSA
100
AcDbCircle
 10
0.2519449999999779
 20
0.9961200000000189
 30
0.0
 40
0.318045
100
AcDbArc
 50
273.6147540000002
 51
306.060287000001
  0
ENDBLK
  5
15DD
330
1570
100
AcDbEntity
  8
0
100
AcDbBlockEnd
  0
ENDSEC
  0
SECTION
  2
ENTITIES
  0
LWPOLYLINE
  5
1040
330
1F
100
AcDbEntity
  8
indusa
100
AcDbPolyline
 90
        4
 70
   128
 43
0.0
 10
3636.362006018613
 20
1035.76627939628
 10
3636.345023195644
 20
1035.761650571735
 10
3636.327934220757
 20
1035.757390531065
 10
3636.306619523033
 20
1035.752603449483
  0
LWPOLYLINE
  5
1041
330
1F
100
AcDbEntity
  8
indusa
100
AcDbPolyline
 90
        7
 70
   128
 43
0.0
 10
3636.340046453208
 20
1035.664901933883
 10
3636.345458412165
 20
1035.662846106659
 10
3636.351368294827
 20
1035.661053059517
 10
3636.358858714381
 20
1035.658751527194
 10
3636.362741596944
 20
1035.657321029615
 10
3636.366583365759
 20
1035.65565005033
 10
3636.366583419628
 20
1035.655650024799
  0
LWPOLYLINE
  5
1042
330
1F
100
AcDbEntity
  8
indusa
100
AcDbPolyline
 90
        5
 70
   128
 43
0.0
 10
3636.369837106723
 20
1035.668903136728
 10
3636.359969148106
 20
1035.67246717404
 10
3636.350031534178
 20
1035.675771572359
 10
3636.34270122038
 20
1035.678178196344
 10
3636.335461649681
 20
1035.680685679507
  0
LINE
  5
1045
330
1F
100
AcDbEntity
  8
indusa
100
AcDbLine
 10
3635.828295401668
 20
1035.872249172707
 30
0.0
 11
3636.360293881312
 21
1035.872249172707
 31
0.0
  0
LWPOLYLINE
  5
1046
330
1F
100
AcDbEntity
  8
indusa
100
AcDbPolyline
 90
       37
 70
   128
 43
0.0
 10
3636.09429464149
 20
1035.350556263072
 10
3636.110534331908
 20
1035.35100875226
 10
3636.126396304867
 20
1035.352357357119
 10
3636.141833096689
 20
1035.354544344252
 10
3636.156803339247
 20
1035.357510771142
 10
3636.171271560692
 20
1035.361197015116
 10
3636.185207952788
 20
1035.365543257965
 10
3636.19858811062
 20
1035.37048992593
 10
3636.211392750066
 20
1035.375978085315
 10
3636.218445535271
 20
1035.379334946427
 10
3636.225303563225
 20
1035.382839048097
 10
3636.231965267686
 20
1035.386479917149
 10
3636.238429524098
 20
1035.390247251993
 10
3636.245142826031
 20
1035.394416969409
 10
3636.252522662357
 20
1035.399318904052
 10
3636.259657833128
 20
1035.404395674066
 10
3636.267670101083
 20
1035.410522592651
 10
3636.275343945496
 20
1035.416850302416
 10
3636.282677905463
 20
1035.423359295262
 10
3636.289671481165
 20
1035.430030476546
 10
3636.296325083884
 20
1035.436845201419
 10
3636.302639985678
 20
1035.44378530727
 10
3636.312263307479
 20
1035.455377029414
 10
3636.321214667186
 20
1035.467473741873
 10
3636.329465458413
 20
1035.480035057254
 10
3636.336989559737
 20
1035.493018858305
 10
3636.343763444778
 20
1035.506381452248
 10
3636.349766282711
 20
1035.520077732384
 10
3636.354980028725
 20
1035.534061346377
 10
3636.359389503978
 20
1035.548284870605
 10
3636.362950990149
 20
1035.562547266795
 10
3636.365735765636
 20
1035.577113195396
 10
3636.367711337786
 20
1035.591937024904
 10
3636.36884782661
 20
1035.606969811107
 10
3636.36910593009
 20
1035.623109425254
 10
3636.368358563947
 20
1035.639359688716
 10
3636.366582079049
 20
1035.65565068602
  0
ARC
  5
1047
330
1F
100
AcDbEntity
  8
indusa
100
AcDbCircle
 10
3636.09429464149
 20
1035.642249172707
 30
0.0
 40
0.3450000000000001
100
AcDbArc
 50
181.479748736798
 51
358.5202512632019
  0
ARC
  5
104D
330
1F
100
AcDbEntity
  8
indusa
100
AcDbCircle
 10
3636.093771786049
 20
1036.783952205528
 30
0.0
 40
1.053083290026592
100
AcDbArc
 50
277.4731081971167
 51
281.6608773346112
  0
LWPOLYLINE
  5
104F
330
1F
100
AcDbEntity
  8
indusa
100
AcDbPolyline
 90
        7
 70
   128
 43
0.0
 10
3636.32609601456
 20
1035.669665524298
 10
3636.326096044989
 20
1035.669665519638
 10
3636.328198126604
 20
1035.669241062159
 10
3636.330542812925
 20
1035.668588011541
 10
3636.333194606673
 20
1035.667694257211
 10
3636.336026607053
 20
1035.66660983601
 10
3636.340046453208
 20
1035.664901933883
  0
LINE
  5
1053
330
1F
100
AcDbEntity
  8
indusa
100
AcDbLine
 10
3636.226733009124
 20
1035.726491576405
 30
0.0
 11
3636.335461649681
 21
1035.680685679507
 31
0.0
  0
LWPOLYLINE
  5
105A
330
1F
100
AcDbEntity
  8
indusa
100
AcDbPolyline
 90
        3
 70
   128
 43
0.0
 10
3636.188747387383
 20
1035.702315300008
 10
3636.19066522792
 20
1035.702439460398
 10
3636.19416681013
 20
1035.701819188479
  0
LWPOLYLINE
  5
1061
330
1F
100
AcDbEntity
  8
indusa
100
AcDbPolyline
 90
       20
 70
   128
 43
0.0
 10
3636.080843546305
 20
1035.727057195479
 10
3636.080832139029
 20
1035.726905237989
 10
3636.081192583612
 20
1035.726557927749
 10
3636.081971252727
 20
1035.726206818426
 10
3636.08313351535
 20
1035.725877082515
 10
3636.084550762153
 20
1035.725597285192
 10
3636.086240262394
 20
1035.725355754598
 10
3636.088145448948
 20
1035.725162607991
 10
3636.09022275447
 20
1035.725022097095
 10
3636.09429464149
 20
1035.724918220043
 10
3636.094663916573
 20
1035.724919056338
 10
3636.09690035735
 20
1035.724960459934
 10
3636.099063169949
 20
1035.725061884785
 10
3636.101122213807
 20
1035.725223546326
 10
3636.102984250568
 20
1035.725437370881
 10
3636.104837374428
 20
1035.725743395336
 10
3636.106115498176
 20
1035.726047872171
 10
3636.107051191258
 20
1035.726377279438
 10
3636.107613452456
 20
1035.726720651328
 10
3636.107788202695
 20
1035.727056334109
  0
CIRCLE
  5
106F
330
1F
100
AcDbEntity
  8
indusa
100
AcDbCircle
 10
3636.09429464149
 20
1035.642249172707
 30
0.0
 40
0.0235
  0
LWPOLYLINE
  5
1076
330
1F
100
AcDbEntity
  8
indusa
100
AcDbPolyline
 90
        4
 70
   128
 43
0.0
 10
3636.205015423771
 20
1035.736761406448
 10
3636.217676540426
 20
1035.730539140872
 10
3636.220602844201
 20
1035.72917444649
 10
3636.226733009124
 20
1035.726491576405
  0
LWPOLYLINE
  5
1078
330
1F
100
AcDbEntity
  8
indusa
100
AcDbPolyline
 90
       14
 70
   128
 43
0.0
 10
3636.19416681013
 20
1035.701819188479
 10
3636.20459359403
 20
1035.698159482992
 10
3636.214920440556
 20
1035.694664868921
 10
3636.225222814491
 20
1035.691312836965
 10
3636.235357728384
 20
1035.688153962189
 10
3636.248807585937
 20
1035.684193137142
 10
3636.261794555672
 20
1035.680647950265
 10
3636.274535708699
 20
1035.677479502778
 10
3636.286600457889
 20
1035.674813704003
 10
3636.297664980342
 20
1035.672719363184
 10
3636.307910335446
 20
1035.671154692906
 10
3636.314420865407
 20
1035.670398084585
 10
3636.320491626953
 20
1035.669902299656
 10
3636.326091178125
 20
1035.669671075467
  0
LWPOLYLINE
  5
107A
330
1F
100
AcDbEntity
  8
indusa
100
AcDbPolyline
 90
       38
 70
   128
 43
0.0
 10
3636.09429464149
 20
1035.819749172708
 10
3636.092482460032
 20
1035.819655091194
 10
3636.089586697389
 20
1035.819102170622
 10
3636.086823672148
 20
1035.818074298839
 10
3636.084273686061
 20
1035.816593811998
 10
3636.082006329603
 20
1035.814709003804
 10
3636.080089653399
 20
1035.812467121506
 10
3636.078573823109
 20
1035.809937206878
 10
3636.07750745704
 20
1035.807186645146
 10
3636.076914876652
 20
1035.804297043346
 10
3636.076819565172
 20
1035.80134913572
 10
3636.07721718209
 20
1035.798426819976
 10
3636.07810782087
 20
1035.795602799641
 10
3636.079458723725
 20
1035.792967710319
 10
3636.081227399465
 20
1035.790611484385
 10
3636.083364149544
 20
1035.788582631601
 10
3636.085811364339
 20
1035.786944842336
 10
3636.088497501209
 20
1035.785737262928
 10
3636.091354477697
 20
1035.784999729705
 10
3636.09429464149
 20
1035.784749172708
 10
3636.097224338562
 20
1035.784997923225
 10
3636.100071733765
 20
1035.78573023797
 10
3636.102761958876
 20
1035.786936014811
 10
3636.105213229385
 20
1035.788573119242
 10
3636.107825547966
 20
1035.791151219295
 10
3636.109496017169
 20
1035.793582769488
 10
3636.1107374148
 20
1035.796258746521
 10
3636.111508070579
 20
1035.799104922593
 10
3636.111793389857
 20
1035.802039874831
 10
3636.11157853202
 20
1035.804979657071
 10
3636.110876606664
 20
1035.807842778965
 10
3636.109701093295
 20
1035.810545532696
 10
3636.108091420418
 20
1035.813014807441
 10
3636.10608759465
 20
1035.815176452174
 10
3636.103751365253
 20
1035.816973994462
 10
3636.101144805174
 20
1035.818350835402
 10
3636.098345127353
 20
1035.819273965343
 10
3636.09429464149
 20
1035.819749172708
  0
LWPOLYLINE
  5
107D
330
1F
100
AcDbEntity
  8
indusa
100
AcDbPolyline
 90
        9
 70
   128
 43
0.0
 10
3635.824295401816
 20
1035.868248414331
 10
3635.824372131218
 20
1035.869028883156
 10
3635.824599665983
 20
1035.869779380935
 10
3635.824969259974
 20
1035.87047105952
 10
3635.825466706484
 20
1035.871077331693
 10
3635.826072884321
 20
1035.871574893149
 10
3635.826764492808
 20
1035.871944618279
 10
3635.82751494742
 20
1035.872172295334
 10
3635.828295401668
 20
1035.872249172708
  0
LWPOLYLINE
  5
1081
330
1F
100
AcDbEntity
  8
indusa
100
AcDbPolyline
 90
        3
 70
   128
 43
0.0
 10
3635.824299530174
 20
1035.846415811604
 10
3635.824298015607
 20
1035.854415811314
 10
3635.824295401816
 20
1035.868248414331
  0
LWPOLYLINE
  5
1088
330
1F
100
AcDbEntity
  8
indusa
100
AcDbPolyline
 90
        3
 70
   128
 43
0.0
 10
3635.999841895598
 20
1035.702315300008
 10
3635.997924055061
 20
1035.702439460398
 10
3635.994422472851
 20
1035.701819188479
  0
LWPOLYLINE
  5
108C
330
1F
100
AcDbEntity
  8
indusa
100
AcDbPolyline
 90
        4
 70
   128
 43
0.0
 10
3635.98357385921
 20
1035.736761406449
 10
3635.970912742556
 20
1035.730539140872
 10
3635.967986438779
 20
1035.72917444649
 10
3635.961856273857
 20
1035.726491576405
  0
LWPOLYLINE
  5
1091
330
1F
100
AcDbEntity
  8
indusa
100
AcDbPolyline
 90
        6
 70
   128
 43
0.0
 10
3635.823532559614
 20
1035.770479620437
 10
3635.823534966974
 20
1035.770491958885
 10
3635.823607277651
 20
1035.770869108433
 10
3635.823700389225
 20
1035.771380978474
 10
3635.823764255187
 20
1035.771753666645
 10
3635.823798683961
 20
1035.771963151081
  0
LINE
  5
1095
330
1F
100
AcDbEntity
  8
indusa
100
AcDbLine
 10
3635.818640056363
 20
1035.757824864163
 30
0.0
 11
3635.821726523143
 21
1035.764184386655
 31
0.0
  0
LWPOLYLINE
  5
1098
330
1F
100
AcDbEntity
  8
indusa
100
AcDbPolyline
 90
        5
 70
   128
 43
0.0
 10
3635.821726523143
 20
1035.764184386655
 10
3635.822488805746
 20
1035.766382591892
 10
3635.822962425862
 20
1035.768014395777
 10
3635.823419663587
 20
1035.769925016872
 10
3635.823532559614
 20
1035.770479620437
  0
LWPOLYLINE
  5
1099
330
1F
100
AcDbEntity
  8
indusa
100
AcDbPolyline
 90
        9
 70
   128
 43
0.0
 10
3635.823532559614
 20
1035.770479620437
 10
3635.823471101998
 20
1035.769810935985
 10
3635.823554295644
 20
1035.769137888283
 10
3635.82377911911
 20
1035.768484921191
 10
3635.824137407221
 20
1035.767875749279
 10
3635.824616147607
 20
1035.767332496555
 10
3635.825197953295
 20
1035.766874892965
 10
3635.825861694167
 20
1035.766519557833
 10
3635.826583264368
 20
1035.76627939628
  0
LINE
  5
109B
330
1F
100
AcDbEntity
  8
indusa
100
AcDbLine
 10
3635.823798683961
 20
1035.771963151081
 30
0.0
 11
3635.824312002319
 21
1035.778356424331
 31
0.0
  0
LWPOLYLINE
  5
109E
330
1F
100
AcDbEntity
  8
indusa
100
AcDbPolyline
 90
        4
 70
   128
 43
0.0
 10
3635.826583264368
 20
1035.76627939628
 10
3635.843566087337
 20
1035.761650571735
 10
3635.860655062225
 20
1035.757390531065
 10
3635.881969759949
 20
1035.752603449483
  0
ARC
  5
10A0
330
1F
100
AcDbEntity
  8
indusa
100
AcDbCircle
 10
3636.094817496932
 20
1036.783952205528
 30
0.0
 40
1.053083290026584
100
AcDbArc
 50
258.3391226653889
 51
262.5268918028833
  0
LWPOLYLINE
  5
10A4
330
1F
100
AcDbEntity
  8
indusa
100
AcDbPolyline
 90
        7
 70
   128
 43
0.0
 10
3635.862493268421
 20
1035.669665524298
 10
3635.862493237992
 20
1035.669665519638
 10
3635.860391156377
 20
1035.669241062159
 10
3635.858046470056
 20
1035.668588011541
 10
3635.855394676309
 20
1035.667694257211
 10
3635.852562675928
 20
1035.66660983601
 10
3635.848542829773
 20
1035.664901933883
  0
LWPOLYLINE
  5
10A6
330
1F
100
AcDbEntity
  8
indusa
100
AcDbPolyline
 90
        5
 70
   128
 43
0.0
 10
3635.818752176258
 20
1035.668903136727
 10
3635.819304840959
 20
1035.666047539075
 10
3635.820050543497
 20
1035.662806116558
 10
3635.820961938135
 20
1035.65929772038
 10
3635.822005603998
 20
1035.655650990045
  0
LWPOLYLINE
  5
10A7
330
1F
100
AcDbEntity
  8
indusa
100
AcDbPolyline
 90
        7
 70
   128
 43
0.0
 10
3635.848542829773
 20
1035.664901933883
 10
3635.843130870816
 20
1035.662846106659
 10
3635.837220988154
 20
1035.661053059517
 10
3635.8297305686
 20
1035.658751527194
 10
3635.825847686037
 20
1035.657321029615
 10
3635.822005917223
 20
1035.65565005033
 10
3635.822005863353
 20
1035.655650024799
  0
LWPOLYLINE
  5
10A8
330
1F
100
AcDbEntity
  8
indusa
100
AcDbPolyline
 90
        5
 70
   128
 43
0.0
 10
3635.818752176258
 20
1035.668903136728
 10
3635.828620134874
 20
1035.67246717404
 10
3635.838557748803
 20
1035.675771572359
 10
3635.845888062601
 20
1035.678178196344
 10
3635.8531276333
 20
1035.680685679507
  0
LWPOLYLINE
  5
10A9
330
1F
100
AcDbEntity
  8
indusa
100
AcDbPolyline
 90
       14
 70
   128
 43
0.0
 10
3635.994422472851
 20
1035.701819188479
 10
3635.983995688951
 20
1035.698159482992
 10
3635.973668842425
 20
1035.694664868921
 10
3635.96336646849
 20
1035.691312836965
 10
3635.953231554597
 20
1035.688153962189
 10
3635.939781697044
 20
1035.684193137142
 10
3635.926794727309
 20
1035.680647950265
 10
3635.914053574282
 20
1035.677479502778
 10
3635.901988825092
 20
1035.674813704003
 10
3635.89092430264
 20
1035.672719363184
 10
3635.880678947534
 20
1035.671154692906
 10
3635.874168417573
 20
1035.670398084585
 10
3635.868097656028
 20
1035.669902299656
 10
3635.862498104856
 20
1035.669671075467
  0
LINE
  5
10AA
330
1F
100
AcDbEntity
  8
indusa
100
AcDbLine
 10
3635.961856273857
 20
1035.726491576405
 30
0.0
 11
3635.8531276333
 21
1035.680685679507
 31
0.0
  0
LWPOLYLINE
  5
10B1
330
1F
100
AcDbEntity
  8
indusa
100
AcDbPolyline
 90
        3
 70
   128
 43
0.0
 10
3635.749409693882
 20
1035.633340024988
 10
3635.749567004026
 20
1035.637278732185
 10
3635.75025597157
 20
1035.641231173278
  0
LWPOLYLINE
  5
10B2
330
1F
100
AcDbEntity
  8
indusa
100
AcDbPolyline
 90
        9
 70
   128
 43
0.0
 10
3635.75025597157
 20
1035.641231173278
 10
3635.750349198295
 20
1035.641235615653
 10
3635.750612166698
 20
1035.641197392096
 10
3635.751033107367
 20
1035.64111821334
 10
3635.751593180682
 20
1035.641001623108
 10
3635.75226732001
 20
1035.640852839513
 10
3635.753025353575
 20
1035.640678521512
 10
3635.753833354835
 20
1035.640486470879
 10
3635.75465516089
 20
1035.640285283031
  0
LWPOLYLINE
  5
10B4
330
1F
100
AcDbEntity
  8
indusa
100
AcDbPolyline
 90
        9
 70
   128
 43
0.0
 10
3635.754427228305
 20
1035.650803484065
 10
3635.754415813668
 20
1035.650570261806
 10
3635.754594026115
 20
1035.650236491679
 10
3635.754952045792
 20
1035.649820565066
 10
3635.755470145119
 20
1035.649345400334
 10
3635.756119775817
 20
1035.648837179983
 10
3635.756865141967
 20
1035.648323907945
 10
3635.757665172447
 20
1035.647833866506
 10
3635.758475784018
 20
1035.647394057905
  0
LWPOLYLINE
  5
10B6
330
1F
100
AcDbEntity
  8
indusa
100
AcDbPolyline
 90
        4
 70
   128
 43
0.0
 10
3635.75025597157
 20
1035.641231173278
 10
3635.750683264375
 20
1035.642796146847
 10
3635.751959693647
 20
1035.646241012269
 10
3635.753674901554
 20
1035.649549606148
  0
LINE
  5
10B9
330
1F
100
AcDbEntity
  8
indusa
100
AcDbLine
 10
3635.754427228305
 20
1035.650803484065
 30
0.0
 11
3635.75578276839
 21
1035.65306271754
 31
0.0
  0
LINE
  5
10BA
330
1F
100
AcDbEntity
  8
indusa
100
AcDbLine
 10
3635.75578276839
 20
1035.65306271754
 30
0.0
 11
3635.818640056363
 21
1035.757824864163
 31
0.0
  0
LWPOLYLINE
  5
10BC
330
1F
100
AcDbEntity
  8
indusa
100
AcDbPolyline
 90
        5
 70
   128
 43
0.0
 10
3635.758475784018
 20
1035.647394057905
 10
3635.763225750739
 20
1035.648889554322
 10
3635.777198747705
 20
1035.653606633851
 10
3635.791092718259
 20
1035.658571070839
 10
3635.818752152641
 20
1035.668903209852
  0
LWPOLYLINE
  5
10BD
330
1F
100
AcDbEntity
  8
indusa
100
AcDbPolyline
 90
        7
 70
   128
 43
0.0
 10
3635.822007321434
 20
1035.655651518929
 10
3635.807729152533
 20
1035.651401001781
 10
3635.793354670437
 20
1035.647472819707
 10
3635.778826835883
 20
1035.643993822731
 10
3635.771490871289
 20
1035.642500140641
 10
3635.764109121711
 20
1035.641263998929
 10
3635.75465516089
 20
1035.640285283031
  0
LWPOLYLINE
  5
10C0
330
1F
100
AcDbEntity
  8
indusa
100
AcDbPolyline
 90
        3
 70
   128
 43
0.0
 10
3635.824312002319
 20
1035.778356424331
 10
3635.824305890215
 20
1035.812364600684
 10
3635.824299530174
 20
1035.846415811604
  0
LWPOLYLINE
  5
10C1
330
1F
100
AcDbEntity
  8
indusa
100
AcDbPolyline
 90
       15
 70
   128
 43
0.0
 10
3636.188747387383
 20
1035.702315300008
 10
3636.187593095668
 20
1035.702150305656
 10
3636.178593620032
 20
1035.70093109775
 10
3636.169465310238
 20
1035.699813077482
 10
3636.154750215397
 20
1035.69825008188
 10
3636.139796822281
 20
1035.696968273228
 10
3636.124683909709
 20
1035.696005649951
 10
3636.109490256506
 20
1035.695400210473
 10
3636.09429464149
 20
1035.69518995322
 10
3636.082020317342
 20
1035.695327388231
 10
3636.065253771433
 20
1035.695933602463
 10
3636.048529441835
 20
1035.696978060895
 10
3636.031970543018
 20
1035.698418203389
 10
3636.01570028945
 20
1035.700211469805
 10
3635.999841895598
 20
1035.702315300008
  0
ARC
  5
10C4
330
1F
100
AcDbEntity
  8
indusa
100
AcDbCircle
 10
3636.09429464149
 20
1036.779660823959
 30
0.0
 40
1.048760357122626
100
AcDbArc
 50
262.5247214745257
 51
277.4752785254743
  0
LWPOLYLINE
  5
10C7
330
1F
100
AcDbEntity
  8
indusa
100
AcDbPolyline
 90
       37
 70
   128
 43
0.0
 10
3636.09429464149
 20
1035.350556263072
 10
3636.078054951073
 20
1035.35100875226
 10
3636.062192978113
 20
1035.352357357119
 10
3636.046756186293
 20
1035.354544344252
 10
3636.031785943734
 20
1035.357510771142
 10
3636.017317722289
 20
1035.361197015116
 10
3636.003381330192
 20
1035.365543257965
 10
3635.99000117236
 20
1035.37048992593
 10
3635.977196532915
 20
1035.375978085315
 10
3635.97014374771
 20
1035.379334946427
 10
3635.963285719756
 20
1035.382839048097
 10
3635.956624015295
 20
1035.386479917149
 10
3635.950159758883
 20
1035.390247251993
 10
3635.943446456951
 20
1035.394416969409
 10
3635.936066620624
 20
1035.399318904052
 10
3635.928931449853
 20
1035.404395674066
 10
3635.920919181898
 20
1035.410522592651
 10
3635.913245337485
 20
1035.416850302416
 10
3635.905911377518
 20
1035.423359295262
 10
3635.898917801816
 20
1035.430030476546
 10
3635.892264199098
 20
1035.436845201419
 10
3635.885949297303
 20
1035.44378530727
 10
3635.876325975502
 20
1035.455377029414
 10
3635.867374615794
 20
1035.467473741873
 10
3635.859123824568
 20
1035.480035057254
 10
3635.851599723244
 20
1035.493018858305
 10
3635.844825838204
 20
1035.506381452248
 10
3635.83882300027
 20
1035.520077732384
 10
3635.833609254256
 20
1035.534061346377
 10
3635.829199779003
 20
1035.548284870605
 10
3635.825638292831
 20
1035.562547266795
 10
3635.822853517344
 20
1035.577113195396
 10
3635.820877945195
 20
1035.591937024904
 10
3635.819741456371
 20
1035.606969811107
 10
3635.819483352892
 20
1035.623109425254
 10
3635.820230719034
 20
1035.639359688716
 10
3635.822007203932
 20
1035.65565068602
  0
ARC
  5
10C9
330
1F
100
AcDbEntity
  8
indusa
100
AcDbCircle
 10
3638.818024210913
 20
1034.488197507867
 30
0.0
 40
1.350876124106903
100
AcDbArc
 50
86.73686769618983
 51
87.3430519764709
  0
ARC
  5
10CA
330
1F
100
AcDbEntity
  8
indusa
100
AcDbCircle
 10
3638.818024210913
 20
1034.488197507867
 30
0.0
 40
1.362876124106902
100
AcDbArc
 50
85.36803706520254
 51
87.36257528813025
  0
LINE
  5
10CD
330
1F
100
AcDbEntity
  8
indusa
100
AcDbLine
 10
3638.88064697872
 20
1035.316873114901
 30
0.0
 11
3638.928380668259
 21
1035.330795441016
 31
0.0
  0
LINE
  5
10CF
330
1F
100
AcDbEntity
  8
indusa
100
AcDbLine
 10
3638.829656323733
 20
1035.312417507196
 30
0.0
 11
3638.978111491564
 21
1035.355716931147
 31
0.0
  0
LINE
  5
10D1
330
1F
100
AcDbEntity
  8
indusa
100
AcDbLine
 10
3638.972511491565
 20
1035.374916931147
 30
0.0
 11
3638.826959085898
 21
1035.33246414616
 31
0.0
  0
LINE
  5
10D5
330
1F
100
AcDbEntity
  8
indusa
100
AcDbLine
 10
3638.912904606316
 20
1035.691073631973
 30
0.0
 11
3638.794191608685
 21
1035.691073631973
 31
0.0
  0
LINE
  5
10D7
330
1F
100
AcDbEntity
  8
indusa
100
AcDbLine
 10
3638.879691608685
 20
1035.838620349863
 30
0.0
 11
3638.879691608685
 21
1035.848631032398
 31
0.0
  0
ARC
  5
10D8
330
1F
100
AcDbEntity
  8
indusa
100
AcDbCircle
 10
3638.880691608685
 20
1035.838620349863
 30
0.0
 40
0.0010000000000005
100
AcDbArc
 50
180.0
 51
267.3430519764969
  0
ARC
  5
10D9
330
1F
100
AcDbEntity
  8
indusa
100
AcDbCircle
 10
3638.880691608685
 20
1035.848631032398
 30
0.0
 40
0.0010000000000002
100
AcDbArc
 50
87.36257528815627
 51
180.0
  0
ARC
  5
10DE
330
1F
100
AcDbEntity
  8
indusa
100
AcDbCircle
 10
3638.818024210913
 20
1034.488197507867
 30
0.0
 40
1.350876124106903
100
AcDbArc
 50
88.91208823874768
 51
89.42582933021931
  0
LINE
  5
10DF
330
1F
100
AcDbEntity
  8
indusa
100
AcDbLine
 10
3638.844691608685
 20
1035.849831732651
 30
0.0
 11
3638.844691608685
 21
1035.839829942969
 31
0.0
  0
ARC
  5
10E0
330
1F
100
AcDbEntity
  8
indusa
100
AcDbCircle
 10
3638.843691608685
 20
1035.839829942969
 30
0.0
 40
0.0010000000000002
100
AcDbArc
 50
268.9120882387998
 51
0.0
  0
ARC
  5
10E1
330
1F
100
AcDbEntity
  8
indusa
100
AcDbCircle
 10
3638.843691608685
 20
1035.849831732651
 30
0.0
 40
0.0010000000000002
100
AcDbArc
 50
0.0
 51
88.92007751960276
  0
ARC
  5
10E2
330
1F
100
AcDbEntity
  8
indusa
100
AcDbCircle
 10
3638.796191608685
 20
1035.847073631973
 30
0.0
 40
0.0040000000000003
100
AcDbArc
 50
90.0
 51
180.0
  0
LINE
  5
10E3
330
1F
100
AcDbEntity
  8
indusa
100
AcDbLine
 10
3638.796191608685
 20
1035.851073631973
 30
0.0
 11
3638.818024210913
 21
1035.851073631973
 31
0.0
  0
ARC
  5
10E4
330
1F
100
AcDbEntity
  8
indusa
100
AcDbCircle
 10
3638.818024210913
 20
1034.488197507867
 30
0.0
 40
1.362876124106902
100
AcDbArc
 50
88.92007751960276
 51
90.0
  0
ARC
  5
10E5
330
1F
100
AcDbEntity
  8
indusa
100
AcDbCircle
 10
3638.831511236804
 20
1035.834006053527
 30
0.0
 40
0.0050000000000003
100
AcDbArc
 50
89.42582933021931
 51
171.777186109388
  0
LINE
  5
10ED
330
1F
100
AcDbEntity
  8
indusa
100
AcDbLine
 10
3638.796191608685
 20
1035.771073631973
 30
0.0
 11
3638.813035625299
 21
1035.771073631973
 31
0.0
  0
LINE
  5
10EE
330
1F
100
AcDbEntity
  8
indusa
100
AcDbLine
 10
3638.792191608685
 20
1035.7635179374
 30
0.0
 11
3638.792191608685
 21
1035.775073631974
 31
0.0
  0
LINE
  5
10EF
330
1F
100
AcDbEntity
  8
indusa
100
AcDbLine
 10
3638.817984222103
 20
1035.775358516828
 30
0.0
 11
3638.816307431306
 21
1035.763755124512
 31
0.0
  0
ARC
  5
10F0
330
1F
100
AcDbEntity
  8
indusa
100
AcDbCircle
 10
3638.796191608685
 20
1035.775073631974
 30
0.0
 40
0.0040000000000003
100
AcDbArc
 50
180.0
 51
270.0
  0
ARC
  5
10F1
330
1F
100
AcDbEntity
  8
indusa
100
AcDbCircle
 10
3638.813035625299
 20
1035.776073631974
 30
0.0
 40
0.005
100
AcDbArc
 50
270.0
 51
351.777186109401
  0
ARC
  5
10F3
330
1F
100
AcDbEntity
  8
indusa
100
AcDbCircle
 10
3638.794191608685
 20
1035.689073631973
 30
0.0
 40
0.0019999999999999
100
AcDbArc
 50
90.0
 51
180.0
  0
LWPOLYLINE
  5
10F6
330
1F
100
AcDbEntity
  8
indusa
100
AcDbPolyline
 90
        6
 70
   128
 43
0.0
 10
3638.809733635949
 20
1035.691073631973
 10
3638.809584478341
 20
1035.692063607476
 10
3638.809110696603
 20
1035.697130091779
 10
3638.808824943977
 20
1035.707256584144
 10
3638.809051438263
 20
1035.712280740698
 10
3638.809583804185
 20
1035.717227624836
  0
LINE
  5
10F9
330
1F
100
AcDbEntity
  8
indusa
100
AcDbLine
 10
3638.809583804185
 20
1035.717227624835
 30
0.0
 11
3638.816307431306
 21
1035.763755124512
 31
0.0
  0
LINE
  5
10FB
330
1F
100
AcDbEntity
  8
indusa
100
AcDbLine
 10
3638.792191608685
 20
1035.7635179374
 30
0.0
 11
3638.792191608685
 21
1035.689484715074
 31
0.0
  0
LINE
  5
10FD
330
1F
100
AcDbEntity
  8
indusa
100
AcDbLine
 10
3638.792191608685
 20
1035.689073631973
 30
0.0
 11
3638.792191608685
 21
1035.660791670833
 31
0.0
  0
LINE
  5
1100
330
1F
100
AcDbEntity
  8
indusa
100
AcDbLine
 10
3638.826562639999
 20
1035.834721168673
 30
0.0
 11
3638.817984222103
 21
1035.775358516828
 31
0.0
  0
LINE
  5
1101
330
1F
100
AcDbEntity
  8
indusa
100
AcDbLine
 10
3638.792191608685
 20
1035.775073631974
 30
0.0
 11
3638.792191608685
 21
1035.847073631973
 31
0.0
  0
ARC
  5
1102
330
1F
100
AcDbEntity
  8
indusa
100
AcDbCircle
 10
3638.412617095432
 20
1035.828761862626
 30
0.0
 40
0.005
100
AcDbArc
 50
294.3677372535947
 51
0.0
  0
LINE
  5
1103
330
1F
100
AcDbEntity
  8
indusa
100
AcDbLine
 10
3638.417617095431
 20
1035.828761862626
 30
0.0
 11
3638.417617095431
 21
1035.830581498623
 31
0.0
  0
ARC
  5
1104
330
1F
100
AcDbEntity
  8
indusa
100
AcDbCircle
 10
3638.413617095431
 20
1035.830581498623
 30
0.0
 40
0.0040000000000003
100
AcDbArc
 50
0.0
 51
90.0
  0
LWPOLYLINE
  5
1105
330
1F
100
AcDbEntity
  8
indusa
100
AcDbPolyline
 90
        5
 70
   128
 43
0.0
 10
3638.07445639503
 20
1035.834474443638
 10
3638.072463482121
 20
1035.83448753386
 10
3638.070387257226
 20
1035.834675016734
 10
3638.068309007189
 20
1035.835024340553
 10
3638.068203008949
 20
1035.835048537141
  0
LWPOLYLINE
  5
1106
330
1F
100
AcDbEntity
  8
indusa
100
AcDbPolyline
 90
        4
 70
   128
 43
0.0
 10
3638.064255935465
 20
1035.835769537342
 10
3638.065350578858
 20
1035.835638624598
 10
3638.066425531709
 20
1035.835429317084
 10
3638.067142736521
 20
1035.835302449437
  0
LWPOLYLINE
  5
110D
330
1F
100
AcDbEntity
  8
indusa
100
AcDbPolyline
 90
        3
 70
   128
 43
0.0
 10
3638.068203008949
 20
1035.835048537141
 10
3638.067657959229
 20
1035.835167650348
 10
3638.067142736521
 20
1035.835302449437
  0
LWPOLYLINE
  5
110E
330
1F
100
AcDbEntity
  8
indusa
100
AcDbPolyline
 90
        4
 70
   128
 43
0.0
 10
3638.081421931886
 20
1035.834576658021
 10
3638.08005358173
 20
1035.834577219968
 10
3638.077160156846
 20
1035.834540232029
 10
3638.074456958282
 20
1035.834469554502
  0
LINE
  5
1110
330
1F
100
AcDbEntity
  8
indusa
100
AcDbLine
 10
3638.072617095431
 20
1035.823550286622
 30
0.0
 11
3638.067889140768
 21
1035.822544281604
 31
0.0
  0
LWPOLYLINE
  5
1119
330
1F
100
AcDbEntity
  8
indusa
100
AcDbPolyline
 90
        3
 70
   128
 43
0.0
 10
3638.0814503981
 20
1035.824207281967
 10
3638.077044013515
 20
1035.824048129012
 10
3638.072617095431
 20
1035.823550286622
  0
LINE
  5
1121
330
1F
100
AcDbEntity
  8
indusa
100
AcDbLine
 10
3638.414680053263
 20
1035.824207281967
 30
0.0
 11
3638.0814503981
 21
1035.824207281967
 31
0.0
  0
LINE
  5
1124
330
1F
100
AcDbEntity
  8
indusa
100
AcDbLine
 10
3638.413617095431
 20
1035.834581498623
 30
0.0
 11
3638.081422948685
 21
1035.834581498623
 31
0.0
  0
ARC
  5
1125
330
1F
100
AcDbEntity
  8
indusa
100
AcDbCircle
 10
3638.549633668632
 20
1035.348779183223
 30
0.0
 40
0.4543553249470156
100
AcDbArc
 50
133.0000000000062
 51
136.4184592323276
  0
ARC
  5
1126
330
1F
100
AcDbEntity
  8
indusa
100
AcDbCircle
 10
3638.218328214641
 20
1035.664073631973
 30
0.0
 40
0.0030000000000001
100
AcDbArc
 50
270.0
 51
316.4184592323096
  0
ARC
  5
1127
330
1F
100
AcDbEntity
  8
indusa
100
AcDbCircle
 10
3638.215008492808
 20
1035.659073631974
 30
0.0
 40
0.0019999999999999
100
AcDbArc
 50
317.1864016549045
 51
90.0
  0
LINE
  5
112F
330
1F
100
AcDbEntity
  8
indusa
100
AcDbLine
 10
3638.218328214641
 20
1035.661073631974
 30
0.0
 11
3638.072617095431
 21
1035.661073631974
 31
0.0
  0
LINE
  5
1131
330
1F
100
AcDbEntity
  8
indusa
100
AcDbLine
 10
3638.239764082133
 20
1035.681073631973
 30
0.0
 11
3638.339575616893
 21
1035.774149393908
 31
0.0
  0
ARC
  5
1134
330
1F
100
AcDbEntity
  8
indusa
100
AcDbCircle
 10
3638.529701120972
 20
1035.570264752356
 30
0.0
 40
0.2787770692900979
100
AcDbArc
 50
114.3677372535893
 51
133.0000000000062
  0
ARC
  5
1137
330
1F
100
AcDbEntity
  8
indusa
100
AcDbCircle
 10
3638.812191608685
 20
1035.341698631974
 30
0.0
 40
0.0050000000000001
100
AcDbArc
 50
0.0
 51
106.2602047082973
  0
LINE
  5
1138
330
1F
100
AcDbEntity
  8
indusa
100
AcDbLine
 10
3638.826959085898
 20
1035.33246414616
 30
0.0
 11
3638.823591608685
 21
1035.331481965307
 31
0.0
  0
ARC
  5
1139
330
1F
100
AcDbEntity
  8
indusa
100
AcDbCircle
 10
3638.820791608685
 20
1035.325456965307
 30
0.0
 40
0.0050000000000006
100
AcDbArc
 50
0.0
 51
81.95215375269624
  0
LWPOLYLINE
  5
113F
330
1F
100
AcDbEntity
  8
indusa
100
AcDbPolyline
 90
        5
 70
   128
 43
0.0
 10
3638.821491608684
 20
1035.330407722825
 10
3638.821661347319
 20
1035.330500199147
 10
3638.822144146443
 20
1035.330767780648
 10
3638.822845249599
 20
1035.331152164763
 10
3638.823591608685
 20
1035.331481965307
  0
ARC
  5
1140
330
1F
100
AcDbEntity
  8
indusa
100
AcDbCircle
 10
3638.822191608685
 20
1035.335358480343
 30
0.0
 40
0.005
100
AcDbArc
 50
180.0
 51
261.9521537526962
  0
LINE
  5
1141
330
1F
100
AcDbEntity
  8
indusa
100
AcDbLine
 10
3638.817191608685
 20
1035.335358480343
 30
0.0
 11
3638.817191608685
 21
1035.341698631974
 31
0.0
  0
LINE
  5
1142
330
1F
100
AcDbEntity
  8
indusa
100
AcDbLine
 10
3638.792191608685
 20
1035.347023146617
 30
0.0
 11
3638.792191608685
 21
1035.339573631974
 31
0.0
  0
ARC
  5
1144
330
1F
100
AcDbEntity
  8
indusa
100
AcDbCircle
 10
3638.794191608685
 20
1035.339573631974
 30
0.0
 40
0.0020000000000003
100
AcDbArc
 50
106.2602047082973
 51
180.0
  0
LINE
  5
1146
330
1F
100
AcDbEntity
  8
indusa
100
AcDbLine
 10
3638.810791608685
 20
1035.346498631973
 30
0.0
 11
3638.793631608685
 21
1035.341493631974
 31
0.0
  0
LINE
  5
1153
330
1F
100
AcDbEntity
  8
indusa
100
AcDbLine
 10
3638.829889491983
 20
1035.302068847936
 30
0.0
 11
3638.873300858751
 21
1035.314730496576
 31
0.0
  0
ARC
  5
1154
330
1F
100
AcDbEntity
  8
indusa
100
AcDbCircle
 10
3638.820791608685
 20
1035.304623631974
 30
0.0
 40
0.0050000000000006
100
AcDbArc
 50
286.2602047082973
 51
0.0
  0
ARC
  5
1156
330
1F
100
AcDbEntity
  8
indusa
100
AcDbCircle
 10
3638.797191608685
 20
1035.29774029864
 30
0.0
 40
0.0050000000000001
100
AcDbArc
 50
180.0
 51
286.2602047082973
  0
LINE
  5
1157
330
1F
100
AcDbEntity
  8
indusa
100
AcDbLine
 10
3638.822191608685
 20
1035.299823631973
 30
0.0
 11
3638.798591608685
 21
1035.29294029864
 31
0.0
  0
LINE
  5
1159
330
1F
100
AcDbEntity
  8
indusa
100
AcDbLine
 10
3638.822191608685
 20
1035.299823631973
 30
0.0
 11
3638.829889491983
 21
1035.302068847936
 31
0.0
  0
LWPOLYLINE
  5
115B
330
1F
100
AcDbEntity
  8
indusa
100
AcDbPolyline
 90
        6
 70
   128
 43
0.0
 10
3638.825791608685
 20
1035.30754029864
 10
3638.825791615819
 20
1035.307548745286
 10
3638.825991697187
 20
1035.308940602042
 10
3638.826966593351
 20
1035.31076043182
 10
3638.82819768111
 20
1035.311814820805
 10
3638.829391608684
 20
1035.31234029864
  0
LINE
  5
115D
330
1F
100
AcDbEntity
  8
indusa
100
AcDbLine
 10
3638.792191608685
 20
1035.29774029864
 30
0.0
 11
3638.792191608685
 21
1035.339573631974
 31
0.0
  0
LINE
  5
115E
330
1F
100
AcDbEntity
  8
indusa
100
AcDbLine
 10
3638.825791608685
 20
1035.304623631974
 30
0.0
 11
3638.825791608685
 21
1035.325456965307
 31
0.0
  0
ARC
  5
1162
330
1F
100
AcDbEntity
  8
indusa
100
AcDbCircle
 10
3638.078338321705
 20
1035.365033989637
 30
0.0
 40
0.0049999999999999
100
AcDbArc
 50
286.2602047083224
 51
348.166189518804
  0
LINE
  5
1163
330
1F
100
AcDbEntity
  8
indusa
100
AcDbLine
 10
3638.792191608685
 20
1035.660791670833
 30
0.0
 11
3638.792191608685
 21
1035.347023146617
 31
0.0
  0
LWPOLYLINE
  5
1165
330
1F
100
AcDbEntity
  8
indusa
100
AcDbPolyline
 90
       15
 70
   128
 43
0.0
 10
3638.216475629985
 20
1035.657714401122
 10
3638.201244500383
 20
1035.640483182823
 10
3638.186871089061
 20
1035.622605538385
 10
3638.173372676405
 20
1035.604114534116
 10
3638.160766542806
 20
1035.585043236324
 10
3638.149069968649
 20
1035.565424711315
 10
3638.138300234323
 20
1035.545292025396
 10
3638.128474620216
 20
1035.524678244875
 10
3638.119610406715
 20
1035.503616436059
 10
3638.111374078401
 20
1035.481107174304
 10
3638.10423172646
 20
1035.458180507992
 10
3638.098203219328
 20
1035.434874455698
 10
3638.093135600948
 20
1035.411274869075
 10
3638.088183827687
 20
1035.387641745231
 10
3638.083232054427
 20
1035.364008621387
  0
LINE
  5
1166
330
1F
100
AcDbEntity
  8
indusa
100
AcDbLine
 10
3638.873300858751
 20
1035.314730496576
 30
0.0
 11
3638.88064697872
 21
1035.316873114901
 31
0.0
  0
LWPOLYLINE
  5
1169
330
1F
100
AcDbEntity
  8
indusa
100
AcDbPolyline
 90
       20
 70
   128
 43
0.0
 10
3638.880645252811
 20
1035.837621424875
 10
3638.880645160499
 20
1035.837621429159
 10
3638.880371666611
 20
1035.837634115944
 10
3638.879585812644
 20
1035.837670172234
 10
3638.878301123618
 20
1035.837728172863
 10
3638.876561366867
 20
1035.837804748531
 10
3638.87382851869
 20
1035.837920509788
 10
3638.871253438197
 20
1035.838024483659
 10
3638.868421566957
 20
1035.838133213442
 10
3638.865412001912
 20
1035.838242162439
 10
3638.862310471215
 20
1035.838347510581
 10
3638.859205821672
 20
1035.838445724307
 10
3638.85618422893
 20
1035.838534545686
 10
3638.853333699783
 20
1035.838612056296
 10
3638.850731827396
 20
1035.838677613054
 10
3638.848456199647
 20
1035.83873079978
 10
3638.846566774452
 20
1035.838772061436
 10
3638.845122638755
 20
1035.838801822622
 10
3638.844158661282
 20
1035.838820805898
 10
3638.843672622183
 20
1035.838830123229
  0
LWPOLYLINE
  5
116B
330
1F
100
AcDbEntity
  8
indusa
100
AcDbPolyline
 90
       19
 70
   128
 43
0.0
 10
3638.843710455772
 20
1035.850831555029
 10
3638.844213186718
 20
1035.850821985559
 10
3638.845189837375
 20
1035.850802878069
 10
3638.846646369837
 20
1035.850773047673
 10
3638.848548142199
 20
1035.850731762098
 10
3638.850834869395
 20
1035.850678623461
 10
3638.853447283697
 20
1035.850613172984
 10
3638.856306457091
 20
1035.85053586499
 10
3638.859335448502
 20
1035.85044733055
 10
3638.862445460194
 20
1035.850349511966
 10
3638.865550331674
 20
1035.850244668249
 10
3638.868561426237
 20
1035.850136316891
 10
3638.871392263458
 20
1035.850028295264
 10
3638.873964776828
 20
1035.849925080748
 10
3638.876201179691
 20
1035.849831360774
 10
3638.878043500561
 20
1035.849751404902
 10
3638.879699736498
 20
1035.849677386236
 10
3638.880474453501
 20
1035.849642093064
 10
3638.880737624175
 20
1035.849629973125
  0
LWPOLYLINE
  5
116D
330
1F
100
AcDbEntity
  8
indusa
100
AcDbPolyline
 90
        5
 70
   128
 43
0.0
 10
3637.969605615195
 20
1035.847314430728
 10
3637.973495050142
 20
1035.847019351812
 10
3637.976280233321
 20
1035.846801167968
 10
3637.977950791621
 20
1035.846667544372
 10
3637.978857444001
 20
1035.846583769537
  0
LWPOLYLINE
  5
1174
330
1F
100
AcDbEntity
  8
indusa
100
AcDbPolyline
 90
       11
 70
   128
 43
0.0
 10
3637.983965801303
 20
1035.841477091053
 10
3637.983903052376
 20
1035.8418416421
 10
3637.983541409766
 20
1035.843000086044
 10
3637.983009091775
 20
1035.843981331974
 10
3637.982365307689
 20
1035.844783878969
 10
3637.981663230114
 20
1035.845412525443
 10
3637.98095160798
 20
1035.845879441607
 10
3637.980275449399
 20
1035.846203693232
 10
3637.979676254043
 20
1035.846410128194
 10
3637.979191292202
 20
1035.846527448182
 10
3637.978857444001
 20
1035.846583769537
  0
LINE
  5
1175
330
1F
100
AcDbEntity
  8
indusa
100
AcDbLine
 10
3637.984020365099
 20
1035.841088849473
 30
0.0
 11
3637.983965801303
 21
1035.841477091053
 31
0.0
  0
LINE
  5
1179
330
1F
100
AcDbEntity
  8
indusa
100
AcDbLine
 10
3637.936710353289
 20
1035.849363115922
 30
0.0
 11
3637.943763884929
 21
1035.848991064163
 31
0.0
  0
LWPOLYLINE
  5
117C
330
1F
100
AcDbEntity
  8
indusa
100
AcDbPolyline
 90
        5
 70
   128
 43
0.0
 10
3637.943763884929
 20
1035.848991064163
 10
3637.944443796362
 20
1035.848912317304
 10
3637.945654486974
 20
1035.848556357272
 10
3637.947319327623
 20
1035.847493534674
 10
3637.948586871858
 20
1035.845845862156
  0
LWPOLYLINE
  5
1180
330
1F
100
AcDbEntity
  8
indusa
100
AcDbPolyline
 90
        5
 70
   128
 43
0.0
 10
3637.948586871858
 20
1035.845845862156
 10
3637.948944120761
 20
1035.845287785781
 10
3637.950151197055
 20
1035.84409024422
 10
3637.951161755108
 20
1035.843530902165
 10
3637.952497994092
 20
1035.843211469029
  0
LWPOLYLINE
  5
1183
330
1F
100
AcDbEntity
  8
indusa
100
AcDbPolyline
 90
        3
 70
   128
 43
0.0
 10
3637.86844969766
 20
1035.851073631974
 10
3637.902601453651
 20
1035.850645667329
 10
3637.936710353289
 20
1035.849363115922
  0
ARC
  5
1186
330
1F
100
AcDbEntity
  8
indusa
100
AcDbCircle
 10
3637.86844969766
 20
1034.488197507871
 30
0.0
 40
1.362876124102585
100
AcDbArc
 50
85.74345623843814
 51
86.83215201897366
  0
LINE
  5
1188
330
1F
100
AcDbEntity
  8
indusa
100
AcDbLine
 10
3637.952497994092
 20
1035.843211469029
 30
0.0
 11
3637.959493788842
 21
1035.842704214517
 31
0.0
  0
ARC
  5
1189
330
1F
100
AcDbEntity
  8
indusa
100
AcDbCircle
 10
3637.846617095431
 20
1035.847073631973
 30
0.0
 40
0.0039999999999998
100
AcDbArc
 50
90.0
 51
180.0
  0
LINE
  5
118C
330
1F
100
AcDbEntity
  8
indusa
100
AcDbLine
 10
3637.846617095431
 20
1035.851073631973
 30
0.0
 11
3637.86844969766
 21
1035.851073631973
 31
0.0
  0
LWPOLYLINE
  5
1190
330
1F
100
AcDbEntity
  8
indusa
100
AcDbPolyline
 90
        4
 70
   128
 43
0.0
 10
3637.953469154976
 20
1035.778330415128
 10
3637.948782795895
 20
1035.776996524537
 10
3637.94368490317
 20
1035.776325916985
 10
3637.939878375287
 20
1035.776314828696
  0
LINE
  5
1194
330
1F
100
AcDbEntity
  8
indusa
100
AcDbLine
 10
3637.939878375287
 20
1035.776314828695
 30
0.0
 11
3637.935387517609
 21
1035.776746938024
 31
0.0
  0
LINE
  5
11A0
330
1F
100
AcDbEntity
  8
indusa
100
AcDbLine
 10
3637.959221396768
 20
1035.780849955807
 30
0.0
 11
3637.953469154976
 21
1035.778330415128
 31
0.0
  0
ARC
  5
11A3
330
1F
100
AcDbEntity
  8
indusa
100
AcDbCircle
 10
3637.990944609573
 20
1035.664158781992
 30
0.0
 40
0.0030852801293773
100
AcDbArc
 50
197.4923220723098
 51
269.4738021378924
  0
LWPOLYLINE
  5
11A7
330
1F
100
AcDbEntity
  8
indusa
100
AcDbPolyline
 90
        4
 70
   128
 43
0.0
 10
3637.986742259923
 20
1035.665835312228
 10
3637.98712094629
 20
1035.665269829786
 10
3637.987778651619
 20
1035.663958835274
 10
3637.988002001317
 20
1035.66323141468
  0
LINE
  5
11AC
330
1F
100
AcDbEntity
  8
indusa
100
AcDbLine
 10
3637.973959229812
 20
1035.666337150197
 30
0.0
 11
3637.974370505907
 21
1035.664756311483
 31
0.0
  0
LWPOLYLINE
  5
11AD
330
1F
100
AcDbEntity
  8
indusa
100
AcDbPolyline
 90
        8
 70
   128
 43
0.0
 10
3637.971803234438
 20
1035.658495122314
 10
3637.971804692803
 20
1035.65850527463
 10
3637.972116652334
 20
1035.659466929576
 10
3637.972484874362
 20
1035.660013295372
 10
3637.973182968023
 20
1035.660617306188
 10
3637.973954528849
 20
1035.660959688547
 10
3637.974634693455
 20
1035.661070420069
 10
3637.974773477844
 20
1035.661073631974
  0
LINE
  5
11B0
330
1F
100
AcDbEntity
  8
indusa
100
AcDbLine
 10
3637.976001228537
 20
1035.671573208788
 30
0.0
 11
3637.973556616931
 21
1035.671472414721
 31
0.0
  0
LINE
  5
11B3
330
1F
100
AcDbEntity
  8
indusa
100
AcDbLine
 10
3637.973079118677
 20
1035.671452726935
 30
0.0
 11
3637.973959229812
 21
1035.666337150197
 31
0.0
  0
ARC
  5
11BB
330
1F
100
AcDbEntity
  8
indusa
100
AcDbCircle
 10
3637.968713368439
 20
1035.658073631974
 30
0.0
 40
0.0030000000000001
100
AcDbArc
 50
351.9234062070085
 51
90.0
  0
LWPOLYLINE
  5
11C6
330
1F
100
AcDbEntity
  8
indusa
100
AcDbPolyline
 90
        4
 70
   128
 43
0.0
 10
3637.979385101799
 20
1035.67121530555
 10
3637.978320802089
 20
1035.671437795606
 10
3637.976306827223
 20
1035.671581608132
 10
3637.976001228537
 20
1035.671573208788
  0
LWPOLYLINE
  5
11C9
330
1F
100
AcDbEntity
  8
indusa
100
AcDbPolyline
 90
        4
 70
   128
 43
0.0
 10
3637.974541254351
 20
1035.664303822441
 10
3637.975075405112
 20
1035.663207305101
 10
3637.975214953791
 20
1035.662976819673
 10
3637.976148956184
 20
1035.661746290446
  0
LWPOLYLINE
  5
11CF
330
1F
100
AcDbEntity
  8
indusa
100
AcDbPolyline
 90
        3
 70
   128
 43
0.0
 10
3637.976148956184
 20
1035.661746290446
 10
3637.976520015508
 20
1035.661349515585
 10
3637.976857854348
 20
1035.661073631974
  0
LWPOLYLINE
  5
11DF
330
1F
100
AcDbEntity
  8
indusa
100
AcDbPolyline
 90
        8
 70
   128
 43
0.0
 10
3637.979418841638
 20
1035.671201365512
 10
3637.979440950595
 20
1035.671196904214
 10
3637.980846170364
 20
1035.670725024372
 10
3637.982241631081
 20
1035.670058453241
 10
3637.983595175983
 20
1035.669192469474
 10
3637.984880326075
 20
1035.668119220332
 10
3637.986046503573
 20
1035.666847401959
 10
3637.986742259923
 20
1035.665835312228
  0
LINE
  5
11E5
330
1F
100
AcDbEntity
  8
indusa
100
AcDbLine
 10
3637.877617095431
 20
1035.667516721073
 30
0.0
 11
3637.877617095431
 21
1035.661901652158
 31
0.0
  0
ARC
  5
11E7
330
1F
100
AcDbEntity
  8
indusa
100
AcDbCircle
 10
3637.882617095431
 20
1035.656073631973
 30
0.0
 40
0.005
100
AcDbArc
 50
90.0
 51
180.0
  0
LINE
  5
11EA
330
1F
100
AcDbEntity
  8
indusa
100
AcDbLine
 10
3637.968713368439
 20
1035.661073631974
 30
0.0
 11
3637.882617095431
 21
1035.661073631974
 31
0.0
  0
LWPOLYLINE
  5
11F1
330
1F
100
AcDbEntity
  8
indusa
100
AcDbPolyline
 90
        9
 70
   128
 43
0.0
 10
3637.846142420329
 20
1035.789127582876
 10
3637.845433371601
 20
1035.789255054841
 10
3637.84476320231
 20
1035.789488539676
 10
3637.844153924183
 20
1035.789820368566
 10
3637.843625548975
 20
1035.790239642584
 10
3637.843195431181
 20
1035.790732590665
 10
3637.842877698032
 20
1035.791283021916
 10
3637.84268278548
 20
1035.79187285741
 10
3637.842617095432
 20
1035.792482723987
  0
LINE
  5
11F3
330
1F
100
AcDbEntity
  8
indusa
100
AcDbLine
 10
3637.842617095432
 20
1035.792482723987
 30
0.0
 11
3637.842617095432
 21
1035.793338777809
 31
0.0
  0
LINE
  5
11F7
330
1F
100
AcDbEntity
  8
indusa
100
AcDbLine
 10
3637.842617095432
 20
1035.765572762116
 30
0.0
 11
3637.842617095432
 21
1035.792140205449
 31
0.0
  0
LINE
  5
1202
330
1F
100
AcDbEntity
  8
indusa
100
AcDbLine
 10
3637.842617095432
 20
1035.692039063973
 30
0.0
 11
3637.842617095432
 21
1035.731511509401
 31
0.0
  0
LINE
  5
1204
330
1F
100
AcDbEntity
  8
indusa
100
AcDbLine
 10
3637.842617095432
 20
1035.731675281059
 30
0.0
 11
3637.842617095432
 21
1035.765572762116
 31
0.0
  0
ARC
  5
1207
330
1F
100
AcDbEntity
  8
indusa
100
AcDbCircle
 10
3637.846617095431
 20
1035.670241955008
 30
0.0
 40
0.0040000000000003
100
AcDbArc
 50
180.0
 51
272.3610316800521
  0
LINE
  5
1209
330
1F
100
AcDbEntity
  8
indusa
100
AcDbLine
 10
3637.842617095432
 20
1035.661788904394
 30
0.0
 11
3637.842617095432
 21
1035.670241955008
 31
0.0
  0
LINE
  5
120A
330
1F
100
AcDbEntity
  8
indusa
100
AcDbLine
 10
3637.842617095432
 20
1035.670241955008
 30
0.0
 11
3637.842617095432
 21
1035.671079366426
 31
0.0
  0
LINE
  5
120C
330
1F
100
AcDbEntity
  8
indusa
100
AcDbLine
 10
3637.851632830397
 20
1035.666445360798
 30
0.0
 11
3637.846781879892
 21
1035.666245350689
 31
0.0
  0
LINE
  5
1210
330
1F
100
AcDbEntity
  8
indusa
100
AcDbLine
 10
3637.842617095432
 20
1035.671079366426
 30
0.0
 11
3637.842617095432
 21
1035.692039063973
 31
0.0
  0
LINE
  5
1213
330
1F
100
AcDbEntity
  8
indusa
100
AcDbLine
 10
3637.973556616931
 20
1035.671472414721
 30
0.0
 11
3637.851632830397
 21
1035.666445360798
 31
0.0
  0
LWPOLYLINE
  5
1217
330
1F
100
AcDbEntity
  8
indusa
100
AcDbPolyline
 90
        5
 70
   128
 43
0.0
 10
3637.935387517609
 20
1035.776746938024
 10
3637.923716052375
 20
1035.778360142836
 10
3637.900373802287
 20
1035.781591383928
 10
3637.875367018349
 20
1035.785061012492
 10
3637.846142420329
 20
1035.789127582876
  0
LINE
  5
1218
330
1F
100
AcDbEntity
  8
indusa
100
AcDbLine
 10
3637.842617095432
 20
1035.793338777809
 30
0.0
 11
3637.842617095432
 21
1035.847073631973
 31
0.0
  0
LWPOLYLINE
  5
121F
330
1F
100
AcDbEntity
  8
indusa
100
AcDbPolyline
 90
        4
 70
   128
 43
0.0
 10
3637.43731733899
 20
1035.835091419539
 10
3637.436699558591
 20
1035.835281691489
 10
3637.435899528111
 20
1035.835319661932
 10
3637.435088916541
 20
1035.835143286175
  0
LINE
  5
1221
330
1F
100
AcDbEntity
  8
indusa
100
AcDbLine
 10
3637.436699558591
 20
1035.835281691489
 30
0.0
 11
3637.435128643274
 21
1035.835713476596
 31
0.0
  0
LWPOLYLINE
  5
1223
330
1F
100
AcDbEntity
  8
indusa
100
AcDbPolyline
 90
        3
 70
   128
 43
0.0
 10
3637.437782093814
 20
1035.834927469904
 10
3637.43753339282
 20
1035.835000722632
 10
3637.43731733899
 20
1035.835091419539
  0
LWPOLYLINE
  5
1225
330
1F
100
AcDbEntity
  8
indusa
100
AcDbPolyline
 90
        9
 70
   128
 43
0.0
 10
3637.444155006676
 20
1035.828761862626
 10
3637.444103854687
 20
1035.828048369626
 10
3637.443951445678
 20
1035.82734948013
 10
3637.443700899101
 20
1035.826679498744
 10
3637.443357343047
 20
1035.826052138393
 10
3637.442927809291
 20
1035.825480239653
 10
3637.442421089369
 20
1035.824975507928
 10
3637.44184755463
 20
1035.824548273878
 10
3637.441218943968
 20
1035.824207281967
  0
LWPOLYLINE
  5
1227
330
1F
100
AcDbEntity
  8
indusa
100
AcDbPolyline
 90
        3
 70
   128
 43
0.0
 10
3637.441218943968
 20
1035.824207281967
 10
3637.440953608415
 20
1035.824048129012
 10
3637.439893393841
 20
1035.823550286622
  0
LINE
  5
122A
330
1F
100
AcDbEntity
  8
indusa
100
AcDbLine
 10
3637.444155006676
 20
1035.830581498623
 30
0.0
 11
3637.444155006676
 21
1035.828761862626
 31
0.0
  0
LWPOLYLINE
  5
122C
330
1F
100
AcDbEntity
  8
indusa
100
AcDbPolyline
 90
        9
 70
   128
 43
0.0
 10
3637.444155006676
 20
1035.830581498623
 10
3637.444065116901
 20
1035.831424868369
 10
3637.443799489011
 20
1035.832230320312
 10
3637.443370065604
 20
1035.832961641428
 10
3637.442796153504
 20
1035.833585951607
 10
3637.442103555732
 20
1035.834075181939
 10
3637.4413234114
 20
1035.834407336686
 10
3637.440490795705
 20
1035.834567482209
 10
3637.440156340617
 20
1035.834581498623
  0
LWPOLYLINE
  5
122F
330
1F
100
AcDbEntity
  8
indusa
100
AcDbPolyline
 90
        9
 70
   128
 43
0.0
 10
3637.369265170383
 20
1035.847068654106
 10
3637.36918916202
 20
1035.847849720857
 10
3637.368962118717
 20
1035.848600915823
 10
3637.368592779409
 20
1035.849293325392
 10
3637.368095360022
 20
1035.849900298608
 10
3637.367489006308
 20
1035.850398472977
 10
3637.366797056918
 20
1035.850768673688
 10
3637.366046145095
 20
1035.850996651656
 10
3637.365265173553
 20
1035.851073631974
  0
LWPOLYLINE
  5
1231
330
1F
100
AcDbEntity
  8
indusa
100
AcDbPolyline
 90
        8
 70
   128
 43
0.0
 10
3637.370079318096
 20
1035.844347937939
 10
3637.36998657532
 20
1035.845094508295
 10
3637.369726592093
 20
1035.846106932358
 10
3637.369324010148
 20
1035.846974712388
 10
3637.368749203603
 20
1035.847732225735
 10
3637.368045543564
 20
1035.84832191923
 10
3637.367135870408
 20
1035.848773520621
 10
3637.36711172506
 20
1035.848778534818
  0
LWPOLYLINE
  5
1232
330
1F
100
AcDbEntity
  8
indusa
100
AcDbPolyline
 90
        8
 70
   128
 43
0.0
 10
3637.370087526335
 20
1035.844376311075
 10
3637.370010404914
 20
1035.844645006341
 10
3637.369785581448
 20
1035.844967774214
 10
3637.369427293337
 20
1035.845253483727
 10
3637.36894855295
 20
1035.845491758432
 10
3637.368366747263
 20
1035.845673944628
 10
3637.367703006391
 20
1035.845793425647
 10
3637.36698143619
 20
1035.845845862156
  0
LWPOLYLINE
  5
1236
330
1F
100
AcDbEntity
  8
indusa
100
AcDbPolyline
 90
        4
 70
   128
 43
0.0
 10
3637.370303704585
 20
1035.842922975778
 10
3637.370276017889
 20
1035.843043886512
 10
3637.370142051358
 20
1035.843901812275
 10
3637.370094761995
 20
1035.844376214066
  0
LWPOLYLINE
  5
1237
330
1F
100
AcDbEntity
  8
indusa
100
AcDbPolyline
 90
        3
 70
   128
 43
0.0
 10
3637.371933307778
 20
1035.842705604286
 10
3637.370494454876
 20
1035.842891753089
 10
3637.370303704585
 20
1035.842922975778
  0
LWPOLYLINE
  5
123D
330
1F
100
AcDbEntity
  8
indusa
100
AcDbPolyline
 90
        3
 70
   128
 43
0.0
 10
3637.367113484253
 20
1035.848781418135
 10
3637.366593676046
 20
1035.848920085348
 10
3637.365817523348
 20
1035.848991064163
  0
LINE
  5
1240
330
1F
100
AcDbEntity
  8
indusa
100
AcDbLine
 10
3637.434790595751
 20
1035.835770927111
 30
0.0
 11
3637.371933307778
 21
1035.842705604286
 31
0.0
  0
LWPOLYLINE
  5
1244
330
1F
100
AcDbEntity
  8
indusa
100
AcDbPolyline
 90
        4
 70
   128
 43
0.0
 10
3637.36698143619
 20
1035.845845862156
 10
3637.349998613221
 20
1035.844959307076
 10
3637.332909638333
 20
1035.844094301997
 10
3637.311594940609
 20
1035.843052575414
  0
LWPOLYLINE
  5
1246
330
1F
100
AcDbEntity
  8
indusa
100
AcDbPolyline
 90
        3
 70
   128
 43
0.0
 10
3637.301743764032
 20
1035.714016329697
 10
3637.300359702686
 20
1035.711046904385
 10
3637.299337388338
 20
1035.708459053341
  0
LWPOLYLINE
  5
124A
330
1F
100
AcDbEntity
  8
indusa
100
AcDbPolyline
 90
        5
 70
   128
 43
0.0
 10
3637.299337388338
 20
1035.708459053341
 10
3637.296439495786
 20
1035.701123428755
 10
3637.293118230426
 20
1035.690942162465
 10
3637.29311821357
 20
1035.690942104892
 10
3637.29311821357
 20
1035.690942104892
  0
LWPOLYLINE
  5
124C
330
1F
100
AcDbEntity
  8
indusa
100
AcDbPolyline
 90
        6
 70
   128
 43
0.0
 10
3637.288450227201
 20
1035.670468176543
 10
3637.287936607684
 20
1035.66891647256
 10
3637.28696926007
 20
1035.667622197527
 10
3637.285642147528
 20
1035.666706657768
 10
3637.28406409794
 20
1035.666269389521
 10
3637.283623175483
 20
1035.666245350689
  0
ARC
  5
1253
330
1F
100
AcDbEntity
  8
indusa
100
AcDbCircle
 10
3637.576286632269
 20
1035.348779183223
 30
0.0
 40
0.4543553249470154
100
AcDbArc
 50
133.0000000000062
 51
136.4184592323276
  0
LINE
  5
1255
330
1F
100
AcDbEntity
  8
indusa
100
AcDbLine
 10
3637.253145116947
 20
1035.668182255192
 30
0.0
 11
3637.254737076974
 21
1035.667460630797
 31
0.0
  0
LWPOLYLINE
  5
1257
330
1F
100
AcDbEntity
  8
indusa
100
AcDbPolyline
 90
        9
 70
   128
 43
0.0
 10
3637.248417668425
 20
1035.658526146382
 10
3637.248491841758
 20
1035.658981120007
 10
3637.24845998596
 20
1035.659441008667
 10
3637.248323793486
 20
1035.659881379102
 10
3637.248090500055
 20
1035.660278835031
 10
3637.247772500231
 20
1035.660612260159
 10
3637.247386688914
 20
1035.660863940064
 10
3637.246953563732
 20
1035.661020503333
 10
3637.246496136039
 20
1035.661073631974
  0
LINE
  5
1259
330
1F
100
AcDbEntity
  8
indusa
100
AcDbLine
 10
3637.246496136039
 20
1035.661073631974
 30
0.0
 11
3637.244981178277
 21
1035.661073631974
 31
0.0
  0
ARC
  5
125A
330
1F
100
AcDbEntity
  8
indusa
100
AcDbCircle
 10
3637.244981178277
 20
1035.664073631973
 30
0.0
 40
0.0030000000000001
100
AcDbArc
 50
270.0
 51
316.4184592323096
  0
LWPOLYLINE
  5
125F
330
1F
100
AcDbEntity
  8
indusa
100
AcDbPolyline
 90
        3
 70
   128
 43
0.0
 10
3637.258173195475
 20
1035.666245350689
 10
3637.256517043642
 20
1035.666525169046
 10
3637.255221431393
 20
1035.66721625384
  0
LWPOLYLINE
  5
1263
330
1F
100
AcDbEntity
  8
indusa
100
AcDbPolyline
 90
        2
 70
   128
 43
0.0
 10
3637.254737076974
 20
1035.667460630797
 10
3637.255095112407
 20
1035.667284484627
  0
LINE
  5
1269
330
1F
100
AcDbEntity
  8
indusa
100
AcDbLine
 10
3637.258173195475
 20
1035.666241955008
 30
0.0
 11
3637.283623175483
 21
1035.666241955008
 31
0.0
  0
LINE
  5
126A
330
1F
100
AcDbEntity
  8
indusa
100
AcDbLine
 10
3637.366228580529
 20
1035.774149393908
 30
0.0
 11
3637.266417045769
 21
1035.681073631973
 31
0.0
  0
LWPOLYLINE
  5
126D
330
1F
100
AcDbEntity
  8
indusa
100
AcDbPolyline
 90
        5
 70
   128
 43
0.0
 10
3637.293118221275
 20
1035.690942107739
 10
3637.293118204478
 20
1035.690942050192
 10
3637.291444716399
 20
1035.684813923203
 10
3637.289795233855
 20
1035.677673394233
 10
3637.288450227201
 20
1035.670468176543
  0
ARC
  5
126F
330
1F
100
AcDbEntity
  8
indusa
100
AcDbCircle
 10
3637.556354084608
 20
1035.570264752356
 30
0.0
 40
0.2787770692900981
100
AcDbArc
 50
114.6929720334331
 51
133.0000000000062
  0
LINE
  5
1277
330
1F
100
AcDbEntity
  8
indusa
100
AcDbLine
 10
3637.922297930979
 20
1035.345563875675
 30
0.0
 11
3637.924519958292
 21
1035.346211966975
 31
0.0
  0
LWPOLYLINE
  5
127A
330
1F
100
AcDbEntity
  8
indusa
100
AcDbPolyline
 90
        5
 70
   128
 43
0.0
 10
3637.924519958292
 20
1035.346211966975
 10
3637.926035867492
 20
1035.34695025877
 10
3637.927225888599
 20
1035.348158664272
 10
3637.927942313291
 20
1035.349691023271
 10
3637.928070363969
 20
1035.350309483073
  0
ARC
  5
127E
330
1F
100
AcDbEntity
  8
indusa
100
AcDbCircle
 10
3637.882617095431
 20
1035.339198631973
 30
0.0
 40
0.0050000000000001
100
AcDbArc
 50
180.0
 51
286.2602047082973
  0
LINE
  5
1281
330
1F
100
AcDbEntity
  8
indusa
100
AcDbLine
 10
3637.884017095431
 20
1035.334398631974
 30
0.0
 11
3637.922297930979
 21
1035.345563875675
 31
0.0
  0
LINE
  5
1285
330
1F
100
AcDbEntity
  8
indusa
100
AcDbLine
 10
3637.932590188796
 20
1035.317315784205
 30
0.0
 11
3637.921377355543
 21
1035.314045374506
 31
0.0
  0
LWPOLYLINE
  5
1288
330
1F
100
AcDbEntity
  8
indusa
100
AcDbPolyline
 90
        8
 70
   128
 43
0.0
 10
3637.84286707167
 20
1035.296179121433
 10
3637.843350802092
 20
1035.295132859065
 10
3637.844157761912
 20
1035.294130172381
 10
3637.845252344119
 20
1035.293334853007
 10
3637.847003956022
 20
1035.292778035037
 10
3637.84876834944
 20
1035.292874642034
 10
3637.849003827136
 20
1035.292936448603
 10
3637.849017095431
 20
1035.29294029864
  0
LINE
  5
128A
330
1F
100
AcDbEntity
  8
indusa
100
AcDbLine
 10
3637.842617095432
 20
1035.29774029864
 30
0.0
 11
3637.84286707167
 21
1035.296179121433
 31
0.0
  0
LINE
  5
128D
330
1F
100
AcDbEntity
  8
indusa
100
AcDbLine
 10
3637.921377355543
 20
1035.314045374506
 30
0.0
 11
3637.849017095431
 21
1035.29294029864
 31
0.0
  0
LINE
  5
1291
330
1F
100
AcDbEntity
  8
indusa
100
AcDbLine
 10
3637.980770732655
 20
1035.33136844283
 30
0.0
 11
3637.932590188796
 21
1035.317315784205
 31
0.0
  0
LINE
  5
1294
330
1F
100
AcDbEntity
  8
indusa
100
AcDbLine
 10
3637.928070363969
 20
1035.350309483073
 30
0.0
 11
3637.971803234438
 21
1035.658495122314
 31
0.0
  0
LINE
  5
1296
330
1F
100
AcDbEntity
  8
indusa
100
AcDbLine
 10
3637.842617095432
 20
1035.29774029864
 30
0.0
 11
3637.842617095432
 21
1035.661788904394
 31
0.0
  0
LINE
  5
1297
330
1F
100
AcDbEntity
  8
indusa
100
AcDbLine
 10
3637.877617095431
 20
1035.661901652158
 30
0.0
 11
3637.877617095431
 21
1035.339198631973
 31
0.0
  0
LWPOLYLINE
  5
129D
330
1F
100
AcDbEntity
  8
indusa
100
AcDbPolyline
 90
        3
 70
   128
 43
0.0
 10
3637.212548744809
 20
1035.834581498623
 10
3637.206520712395
 20
1035.835525697806
 10
3637.206480882674
 20
1035.835532249463
  0
LWPOLYLINE
  5
12A2
330
1F
100
AcDbEntity
  8
indusa
100
AcDbPolyline
 90
       10
 70
   128
 43
0.0
 10
3637.117652897446
 20
1035.850309244388
 10
3637.117467130106
 20
1035.850244668249
 10
3637.116652419423
 20
1035.850136316891
 10
3637.115340161289
 20
1035.850028295264
 10
3637.113574160199
 20
1035.849925080748
 10
3637.111398828134
 20
1035.849831360774
 10
3637.108880562585
 20
1035.849751404902
 10
3637.105377270901
 20
1035.849677386236
 10
3637.10236721715
 20
1035.849642093064
 10
3637.099270059068
 20
1035.849629973125
  0
LWPOLYLINE
  5
12A5
330
1F
100
AcDbEntity
  8
indusa
100
AcDbPolyline
 90
       20
 70
   128
 43
0.0
 10
3637.08088571105
 20
1035.850413938744
 10
3637.08089716481
 20
1035.850425288875
 10
3637.081523578958
 20
1035.850516135816
 10
3637.082650908207
 20
1035.850596324826
 10
3637.084253260965
 20
1035.850664519202
 10
3637.086279557929
 20
1035.850720605838
 10
3637.088676342012
 20
1035.850764537808
 10
3637.091372177191
 20
1035.850797001842
 10
3637.094293000929
 20
1035.850818499322
 10
3637.097354324384
 20
1035.850829675197
 10
3637.099270059068
 20
1035.850831555029
 10
3637.103552001265
 20
1035.850821985559
 10
3637.106511778127
 20
1035.850802878069
 10
3637.109267167045
 20
1035.850773047673
 10
3637.111737024169
 20
1035.850731762098
 10
3637.113855225363
 20
1035.850678623461
 10
3637.115556948368
 20
1035.850613172984
 10
3637.116799565109
 20
1035.85053586499
 10
3637.117541611798
 20
1035.85044733055
 10
3637.117613707381
 20
1035.85041628018
  0
LWPOLYLINE
  5
12A6
330
1F
100
AcDbEntity
  8
indusa
100
AcDbPolyline
 90
       11
 70
   128
 43
0.0
 10
3637.099270059068
 20
1035.849629973125
 10
3637.099258842789
 20
1035.849629973281
 10
3637.096156305943
 20
1035.849642223554
 10
3637.093141653628
 20
1035.84967772288
 10
3637.090301906273
 20
1035.849734997649
 10
3637.087714967582
 20
1035.849810734016
 10
3637.085456006823
 20
1035.849901492032
 10
3637.083586374572
 20
1035.850002667148
 10
3637.08215822539
 20
1035.850110354272
 10
3637.081216744844
 20
1035.850219492898
 10
3637.080883570048
 20
1035.850303466036
  0
LWPOLYLINE
  5
12AA
330
1F
100
AcDbEntity
  8
indusa
100
AcDbPolyline
 90
        3
 70
   128
 43
0.0
 10
3636.985991373324
 20
1035.834581498623
 10
3636.992019405741
 20
1035.835525697806
 10
3636.992059235461
 20
1035.835532249463
  0
LWPOLYLINE
  5
12AE
330
1F
100
AcDbEntity
  8
indusa
100
AcDbPolyline
 90
        6
 70
   128
 43
0.0
 10
3636.886945177525
 20
1035.843052575414
 10
3636.89670371684
 20
1035.842307982088
 10
3636.916279932354
 20
1035.840843311085
 10
3636.935935066217
 20
1035.83941135616
 10
3636.963931943962
 20
1035.837437738813
 10
3636.992059235461
 20
1035.835532249463
  0
LWPOLYLINE
  5
12AF
330
1F
100
AcDbEntity
  8
indusa
100
AcDbPolyline
 90
        9
 70
   128
 43
0.0
 10
3636.963592681539
 20
1035.847314430728
 10
3636.997369974583
 20
1035.847019351812
 10
3637.031293495335
 20
1035.846801167968
 10
3637.065245036534
 20
1035.846667544372
 10
3637.099270059068
 20
1035.84662245635
 10
3637.133207656345
 20
1035.846667440564
 10
3637.167108747831
 20
1035.846800450498
 10
3637.201083154244
 20
1035.847018813276
 10
3637.234947436596
 20
1035.847314430728
  0
LWPOLYLINE
  5
12B5
330
1F
100
AcDbEntity
  8
indusa
100
AcDbPolyline
 90
        5
 70
   128
 43
0.0
 10
3636.899194437734
 20
1035.708480043584
 10
3636.902100622349
 20
1035.701123428755
 10
3636.905421887707
 20
1035.690942162465
 10
3636.905421904565
 20
1035.690942104892
 10
3636.905421904565
 20
1035.690942104892
  0
LWPOLYLINE
  5
12BA
330
1F
100
AcDbEntity
  8
indusa
100
AcDbPolyline
 90
        3
 70
   128
 43
0.0
 10
3636.896796354104
 20
1035.714016329697
 10
3636.898180415449
 20
1035.711046904385
 10
3636.899194437734
 20
1035.708480043584
  0
LINE
  5
12C2
330
1F
100
AcDbEntity
  8
indusa
100
AcDbLine
 10
3636.952043982095
 20
1035.661073631974
 30
0.0
 11
3636.953558939858
 21
1035.661073631974
 31
0.0
  0
LWPOLYLINE
  5
12C3
330
1F
100
AcDbEntity
  8
indusa
100
AcDbPolyline
 90
        9
 70
   128
 43
0.0
 10
3636.95012244971
 20
1035.658526146382
 10
3636.950048276375
 20
1035.658981120007
 10
3636.950080132174
 20
1035.659441008667
 10
3636.950216324649
 20
1035.659881379102
 10
3636.95044961808
 20
1035.660278835031
 10
3636.950767617903
 20
1035.660612260159
 10
3636.951153429221
 20
1035.660863940064
 10
3636.951586554403
 20
1035.661020503333
 10
3636.952043982095
 20
1035.661073631974
  0
LWPOLYLINE
  5
12C8
330
1F
100
AcDbEntity
  8
indusa
100
AcDbPolyline
 90
        3
 70
   128
 43
0.0
 10
3636.940366922661
 20
1035.666245350689
 10
3636.942023074493
 20
1035.666525169046
 10
3636.943337098478
 20
1035.667226766798
  0
ARC
  5
12CD
330
1F
100
AcDbEntity
  8
indusa
100
AcDbCircle
 10
3636.953558939858
 20
1035.664073631973
 30
0.0
 40
0.0030000000000001
100
AcDbArc
 50
223.5815407676903
 51
270.0
  0
LINE
  5
12D0
330
1F
100
AcDbEntity
  8
indusa
100
AcDbLine
 10
3636.943738870256
 20
1035.667432793963
 30
0.0
 11
3636.945395001188
 21
1035.668182255192
 31
0.0
  0
LWPOLYLINE
  5
12D5
330
1F
100
AcDbEntity
  8
indusa
100
AcDbPolyline
 90
        6
 70
   128
 43
0.0
 10
3636.910089890934
 20
1035.670468176543
 10
3636.910603510451
 20
1035.66891647256
 10
3636.911570858064
 20
1035.667622197527
 10
3636.912897970606
 20
1035.666706657768
 10
3636.914476020196
 20
1035.666269389521
 10
3636.914916942652
 20
1035.666245350689
  0
LINE
  5
12D8
330
1F
100
AcDbEntity
  8
indusa
100
AcDbLine
 10
3636.914916942652
 20
1035.666245350689
 30
0.0
 11
3636.940366922661
 21
1035.666245350689
 31
0.0
  0
ARC
  5
12DC
330
1F
100
AcDbEntity
  8
indusa
100
AcDbCircle
 10
3636.622253485866
 20
1035.348779183223
 30
0.0
 40
0.4543553249470154
100
AcDbArc
 50
43.58154076767241
 51
46.99999999999375
  0
LWPOLYLINE
  5
12DD
330
1F
100
AcDbEntity
  8
indusa
100
AcDbPolyline
 90
        5
 70
   128
 43
0.0
 10
3636.905421896861
 20
1035.690942107739
 10
3636.905421913656
 20
1035.690942050192
 10
3636.907095401736
 20
1035.684813923203
 10
3636.908744884279
 20
1035.677673394233
 10
3636.910089890934
 20
1035.670468176543
  0
LWPOLYLINE
  5
12E3
330
1F
100
AcDbEntity
  8
indusa
100
AcDbPolyline
 90
        3
 70
   128
 43
0.0
 10
3636.831438204834
 20
1035.848785360597
 10
3636.831946442089
 20
1035.848920085348
 10
3636.832722594788
 20
1035.848991064163
  0
LWPOLYLINE
  5
12E4
330
1F
100
AcDbEntity
  8
indusa
100
AcDbPolyline
 90
        8
 70
   128
 43
0.0
 10
3636.828444435024
 20
1035.844378889859
 10
3636.82852971322
 20
1035.844645006341
 10
3636.828754536687
 20
1035.844967774214
 10
3636.829112824798
 20
1035.845253483727
 10
3636.829591565184
 20
1035.845491758432
 10
3636.830173370873
 20
1035.845673944628
 10
3636.830837111744
 20
1035.845793425647
 10
3636.831558681945
 20
1035.845845862156
  0
LWPOLYLINE
  5
12E8
330
1F
100
AcDbEntity
  8
indusa
100
AcDbPolyline
 90
        9
 70
   128
 43
0.0
 10
3636.829274242692
 20
1035.847061408864
 10
3636.829350956115
 20
1035.847849720857
 10
3636.829577999418
 20
1035.848600915823
 10
3636.829947338727
 20
1035.849293325392
 10
3636.830444758113
 20
1035.849900298608
 10
3636.831051111828
 20
1035.850398472977
 10
3636.831743061217
 20
1035.850768673688
 10
3636.83249397304
 20
1035.850996651656
 10
3636.833274944582
 20
1035.851073631974
  0
LWPOLYLINE
  5
12F0
330
1F
100
AcDbEntity
  8
indusa
100
AcDbPolyline
 90
        9
 70
   128
 43
0.0
 10
3636.831445183822
 20
1035.848755899817
 10
3636.831085234252
 20
1035.848646862323
 10
3636.830298365528
 20
1035.848183344943
 10
3636.829687093171
 20
1035.847619340991
 10
3636.829243133282
 20
1035.847019367156
 10
3636.828925067792
 20
1035.846397298269
 10
3636.828699353389
 20
1035.845741131459
 10
3636.828526341954
 20
1035.844935004944
 10
3636.828444435024
 20
1035.844378889859
  0
LWPOLYLINE
  5
12F1
330
1F
100
AcDbEntity
  8
indusa
100
AcDbPolyline
 90
        4
 70
   128
 43
0.0
 10
3636.828444435024
 20
1035.844378889859
 10
3636.8283960754
 20
1035.843886145201
 10
3636.828257950962
 20
1035.843012157322
 10
3636.828237574547
 20
1035.842924958171
  0
LWPOLYLINE
  5
12F2
330
1F
100
AcDbEntity
  8
indusa
100
AcDbPolyline
 90
        3
 70
   128
 43
0.0
 10
3636.828237574547
 20
1035.842924958171
 10
3636.827270677716
 20
1035.842788663378
 10
3636.826606810357
 20
1035.842705604286
  0
LWPOLYLINE
  5
12F4
330
1F
100
AcDbEntity
  8
indusa
100
AcDbPolyline
 90
        4
 70
   128
 43
0.0
 10
3636.761223643138
 20
1035.835091799089
 10
3636.761840559544
 20
1035.835281691489
 10
3636.762640590023
 20
1035.835319661932
 10
3636.763451201595
 20
1035.835143286175
  0
LWPOLYLINE
  5
12F7
330
1F
100
AcDbEntity
  8
indusa
100
AcDbPolyline
 90
        3
 70
   128
 43
0.0
 10
3636.763411474861
 20
1035.835713476596
 10
3636.763693075093
 20
1035.83576414502
 10
3636.763749522384
 20
1035.835770927111
  0
LINE
  5
12FA
330
1F
100
AcDbEntity
  8
indusa
100
AcDbLine
 10
3636.763411474861
 20
1035.835713476596
 30
0.0
 11
3636.761840559544
 21
1035.835281691489
 31
0.0
  0
LWPOLYLINE
  5
12FB
330
1F
100
AcDbEntity
  8
indusa
100
AcDbPolyline
 90
        3
 70
   128
 43
0.0
 10
3636.761223643138
 20
1035.835091799089
 10
3636.760891330705
 20
1035.834955874458
 10
3636.760756466378
 20
1035.834919384558
  0
LWPOLYLINE
  5
12FE
330
1F
100
AcDbEntity
  8
indusa
100
AcDbPolyline
 90
        3
 70
   128
 43
0.0
 10
3636.757321174167
 20
1035.824207281967
 10
3636.757586509719
 20
1035.824048129012
 10
3636.758646724293
 20
1035.823550286622
  0
LINE
  5
12FF
330
1F
100
AcDbEntity
  8
indusa
100
AcDbLine
 10
3636.754385111459
 20
1035.830581498623
 30
0.0
 11
3636.754385111459
 21
1035.828761862626
 31
0.0
  0
LWPOLYLINE
  5
1300
330
1F
100
AcDbEntity
  8
indusa
100
AcDbPolyline
 90
        9
 70
   128
 43
0.0
 10
3636.754385111459
 20
1035.828761862626
 10
3636.754436263448
 20
1035.828048369626
 10
3636.754588672456
 20
1035.82734948013
 10
3636.754839219034
 20
1035.826679498744
 10
3636.755182775088
 20
1035.826052138393
 10
3636.755612308844
 20
1035.825480239653
 10
3636.756119028766
 20
1035.824975507928
 10
3636.756692563505
 20
1035.824548273878
 10
3636.757321174167
 20
1035.824207281967
  0
LWPOLYLINE
  5
1303
330
1F
100
AcDbEntity
  8
indusa
100
AcDbPolyline
 90
        9
 70
   128
 43
0.0
 10
3636.754385111459
 20
1035.830581498623
 10
3636.754475001234
 20
1035.831424868369
 10
3636.754740629123
 20
1035.832230320312
 10
3636.755170052531
 20
1035.832961641428
 10
3636.755743964631
 20
1035.833585951607
 10
3636.756436562404
 20
1035.834075181939
 10
3636.757216706735
 20
1035.834407336686
 10
3636.75804932243
 20
1035.834567482209
 10
3636.758383777518
 20
1035.834581498623
  0
LINE
  5
1306
330
1F
100
AcDbEntity
  8
indusa
100
AcDbLine
 10
3636.826606810357
 20
1035.842705604286
 30
0.0
 11
3636.763749522384
 21
1035.835770927111
 31
0.0
  0
LINE
  5
1307
330
1F
100
AcDbEntity
  8
indusa
100
AcDbLine
 10
3636.434914381426
 20
1035.649549606148
 30
0.0
 11
3636.434162054676
 21
1035.650803484065
 31
0.0
  0
LWPOLYLINE
  5
1309
330
1F
100
AcDbEntity
  8
indusa
100
AcDbPolyline
 90
        3
 70
   128
 43
0.0
 10
3636.439179589099
 20
1035.633340024988
 10
3636.439022278955
 20
1035.637278732185
 10
3636.438333311411
 20
1035.641231173278
  0
LWPOLYLINE
  5
130A
330
1F
100
AcDbEntity
  8
indusa
100
AcDbPolyline
 90
        9
 70
   128
 43
0.0
 10
3636.438333311411
 20
1035.641231173278
 10
3636.438240084686
 20
1035.641235615653
 10
3636.437977116282
 20
1035.641197392096
 10
3636.437556175615
 20
1035.64111821334
 10
3636.436996102299
 20
1035.641001623108
 10
3636.436321962971
 20
1035.640852839513
 10
3636.435563929405
 20
1035.640678521512
 10
3636.434755928146
 20
1035.640486470879
 10
3636.433934122091
 20
1035.640285283031
  0
LWPOLYLINE
  5
130E
330
1F
100
AcDbEntity
  8
indusa
100
AcDbPolyline
 90
        9
 70
   128
 43
0.0
 10
3636.434162054676
 20
1035.650803484065
 10
3636.434173469313
 20
1035.650570261806
 10
3636.433995256867
 20
1035.650236491679
 10
3636.433637237189
 20
1035.649820565066
 10
3636.433119137861
 20
1035.649345400334
 10
3636.432469507165
 20
1035.648837179983
 10
3636.431724141014
 20
1035.648323907945
 10
3636.430924110535
 20
1035.647833866506
 10
3636.430113498963
 20
1035.647394057905
  0
LWPOLYLINE
  5
130F
330
1F
100
AcDbEntity
  8
indusa
100
AcDbPolyline
 90
        4
 70
   128
 43
0.0
 10
3636.438333311411
 20
1035.641231173278
 10
3636.437906018608
 20
1035.642796146847
 10
3636.436629589333
 20
1035.646241012269
 10
3636.434914381426
 20
1035.649549606148
  0
LINE
  5
1312
330
1F
100
AcDbEntity
  8
indusa
100
AcDbLine
 10
3636.434162054676
 20
1035.650803484065
 30
0.0
 11
3636.432806514591
 21
1035.65306271754
 31
0.0
  0
ARC
  5
1314
330
1F
100
AcDbEntity
  8
indusa
100
AcDbCircle
 10
3636.642186033526
 20
1035.570264752356
 30
0.0
 40
0.2787770692900979
100
AcDbArc
 50
46.99999999999375
 51
65.30702796656685
  0
LINE
  5
1316
330
1F
100
AcDbEntity
  8
indusa
100
AcDbLine
 10
3636.832311537605
 20
1035.774149393908
 30
0.0
 11
3636.932123072366
 21
1035.681073631973
 31
0.0
  0
LWPOLYLINE
  5
1317
330
1F
100
AcDbEntity
  8
indusa
100
AcDbPolyline
 90
        5
 70
   128
 43
0.0
 10
3636.832722594788
 20
1035.848991064163
 10
3636.865030699873
 20
1035.848524414634
 10
3636.897610218298
 20
1035.848078889104
 10
3636.93049709126
 20
1035.847670392401
 10
3636.963592681539
 20
1035.847314430728
  0
LWPOLYLINE
  5
1318
330
1F
100
AcDbEntity
  8
indusa
100
AcDbPolyline
 90
        4
 70
   128
 43
0.0
 10
3636.831558681945
 20
1035.845845862156
 10
3636.848541504914
 20
1035.844959307076
 10
3636.865630479801
 20
1035.844094301997
 10
3636.886945177525
 20
1035.843052575414
  0
LWPOLYLINE
  5
131C
330
1F
100
AcDbEntity
  8
indusa
100
AcDbPolyline
 90
        3
 70
   128
 43
0.0
 10
3637.194521223616
 20
1035.335725626995
 10
3637.194495988169
 20
1035.337404511349
 10
3637.194365038743
 20
1035.337989467611
  0
LWPOLYLINE
  5
1320
330
1F
100
AcDbEntity
  8
indusa
100
AcDbPolyline
 90
        9
 70
   128
 43
0.0
 10
3637.162899828984
 20
1035.321700907103
 10
3637.162871382634
 20
1035.321469249196
 10
3637.162820027605
 20
1035.321237900845
 10
3637.162745803315
 20
1035.321007039627
 10
3637.162648766736
 20
1035.320776842745
 10
3637.162528992353
 20
1035.32054748689
 10
3637.162386572099
 20
1035.320319148111
 10
3637.162221615293
 20
1035.320092001673
 10
3637.162034248551
 20
1035.319866221929
  0
LWPOLYLINE
  5
1322
330
1F
100
AcDbEntity
  8
indusa
100
AcDbPolyline
 90
        4
 70
   128
 43
0.0
 10
3637.164077671104
 20
1035.335630389952
 10
3637.163751320811
 20
1035.332139766812
 10
3637.163443782522
 20
1035.328648668247
 10
3637.162899828984
 20
1035.321700907103
  0
LWPOLYLINE
  5
1328
330
1F
100
AcDbEntity
  8
indusa
100
AcDbPolyline
 90
        3
 70
   128
 43
0.0
 10
3637.19699982961
 20
1035.363647242948
 10
3637.19588767285
 20
1035.351236568186
 10
3637.193327042203
 20
1035.321676657857
  0
LWPOLYLINE
  5
132B
330
1F
100
AcDbEntity
  8
indusa
100
AcDbPolyline
 90
        8
 70
   128
 43
0.0
 10
3637.19699982961
 20
1035.363647242948
 10
3637.197850357999
 20
1035.372915928667
 10
3637.198788723539
 20
1035.382712038245
 10
3637.199821657314
 20
1035.393021761981
 10
3637.200957500939
 20
1035.403830209661
 10
3637.201946924948
 20
1035.412825582629
 10
3637.203014456237
 20
1035.422121907273
 10
3637.203135637108
 20
1035.42312945672
  0
LWPOLYLINE
  5
132F
330
1F
100
AcDbEntity
  8
indusa
100
AcDbPolyline
 90
        5
 70
   128
 43
0.0
 10
3637.129767665127
 20
1035.325456965307
 10
3637.131419501993
 20
1035.325735909228
 10
3637.132895660477
 20
1035.326291415482
 10
3637.13407780871
 20
1035.327079026254
 10
3637.134819756623
 20
1035.328018889067
  0
LWPOLYLINE
  5
1342
330
1F
100
AcDbEntity
  8
indusa
100
AcDbPolyline
 90
        7
 70
   128
 43
0.0
 10
3637.063720361512
 20
1035.328018889067
 10
3637.061349682134
 20
1035.330754288565
 10
3637.059334439432
 20
1035.333511937845
 10
3637.057677278607
 20
1035.336288217228
 10
3637.05638037484
 20
1035.33907948258
 10
3637.055445430443
 20
1035.341882070097
 10
3637.055209758595
 20
1035.342839003973
  0
LWPOLYLINE
  5
134C
330
1F
100
AcDbEntity
  8
indusa
100
AcDbPolyline
 90
        5
 70
   128
 43
0.0
 10
3637.068772453008
 20
1035.325456965307
 10
3637.067120616142
 20
1035.325735909228
 10
3637.065644457659
 20
1035.326291415482
 10
3637.064462309426
 20
1035.327079026254
 10
3637.063720361512
 20
1035.328018889067
  0
LWPOLYLINE
  5
134D
330
1F
100
AcDbEntity
  8
indusa
100
AcDbPolyline
 90
        7
 70
   128
 43
0.0
 10
3637.054694608934
 20
1035.338107158717
 10
3637.054750214587
 20
1035.339815664578
 10
3637.055143240603
 20
1035.342160298011
 10
3637.055850205728
 20
1035.344499365697
 10
3637.056856153249
 20
1035.346816944547
 10
3637.058150612514
 20
1035.349116737773
 10
3637.058473079564
 20
1035.349584335051
  0
LINE
  5
1352
330
1F
100
AcDbEntity
  8
indusa
100
AcDbLine
 10
3637.129767665126
 20
1035.325456965307
 30
0.0
 11
3637.068772453008
 21
1035.325456965307
 31
0.0
  0
LWPOLYLINE
  5
1354
330
1F
100
AcDbEntity
  8
indusa
100
AcDbPolyline
 90
       17
 70
   128
 43
0.0
 10
3637.194365038743
 20
1035.337989467611
 10
3637.194120123354
 20
1035.339083514339
 10
3637.192540984018
 20
1035.342099235396
 10
3637.189797876219
 20
1035.345075790898
 10
3637.18590112159
 20
1035.347964121284
 10
3637.182180045929
 20
1035.350069088619
 10
3637.177788824288
 20
1035.352098036301
 10
3637.172762147841
 20
1035.354026169121
 10
3637.167134707759
 20
1035.355828691872
 10
3637.161718456056
 20
1035.357294123532
 10
3637.155876349274
 20
1035.358642802896
 10
3637.147237946235
 20
1035.360276255301
 10
3637.137928348572
 20
1035.361646612014
 10
3637.128122619432
 20
1035.362720355428
 10
3637.118707960047
 20
1035.36342945278
 10
3637.109032984137
 20
1035.363862177745
 10
3637.099270059068
 20
1035.364008621387
  0
LWPOLYLINE
  5
1357
330
1F
100
AcDbEntity
  8
indusa
100
AcDbPolyline
 90
        7
 70
   128
 43
0.0
 10
3637.140065150636
 20
1035.349579062772
 10
3637.140518224935
 20
1035.348909390781
 10
3637.141743076187
 20
1035.346697685434
 10
3637.14269003514
 20
1035.3444990329
 10
3637.143363680318
 20
1035.342299012229
 10
3637.143762020055
 20
1035.3400757171
 10
3637.143856881893
 20
1035.338127840976
  0
LWPOLYLINE
  5
1358
330
1F
100
AcDbEntity
  8
indusa
100
AcDbPolyline
 90
       27
 70
   128
 43
0.0
 10
3637.099269649766
 20
1035.353869545509
 10
3637.102707399769
 20
1035.353846170879
 10
3637.107128731658
 20
1035.353730649908
 10
3637.111439303244
 20
1035.353531141469
 10
3637.115710197754
 20
1035.353246454564
 10
3637.119876355037
 20
1035.352880257003
 10
3637.123887908459
 20
1035.352437411156
 10
3637.12775787949
 20
1035.351919600315
 10
3637.131545809622
 20
1035.351320520563
 10
3637.135229556606
 20
1035.350642599092
 10
3637.138782637012
 20
1035.349889779013
 10
3637.142175868047
 20
1035.349067696523
 10
3637.145377987623
 20
1035.348184027935
 10
3637.148356537892
 20
1035.34724885469
 10
3637.15107475943
 20
1035.346276687868
 10
3637.153507219494
 20
1035.345282369133
 10
3637.155700924469
 20
1035.344257997143
 10
3637.157681072837
 20
1035.343195555668
 10
3637.159388835397
 20
1035.342131429653
 10
3637.160817949935
 20
1035.341083723583
 10
3637.161966468941
 20
1035.340074494725
 10
3637.162840201308
 20
1035.339128527382
 10
3637.163456387054
 20
1035.338269727883
 10
3637.163846309133
 20
1035.337512703982
 10
3637.164010995969
 20
1035.337008242499
 10
3637.164079213832
 20
1035.336445751373
 10
3637.164075528854
 20
1035.336056792812
  0
LWPOLYLINE
  5
135A
330
1F
100
AcDbEntity
  8
indusa
100
AcDbPolyline
 90
        7
 70
   128
 43
0.0
 10
3637.134819756623
 20
1035.328018889067
 10
3637.137190436001
 20
1035.330754288565
 10
3637.139205678703
 20
1035.333511937845
 10
3637.140862839529
 20
1035.336288217228
 10
3637.142159743295
 20
1035.33907948258
 10
3637.143094687692
 20
1035.341882070097
 10
3637.143332870427
 20
1035.342850219485
  0
LWPOLYLINE
  5
135C
330
1F
100
AcDbEntity
  8
indusa
100
AcDbPolyline
 90
        3
 70
   128
 43
0.0
 10
3637.20924929411
 20
1035.46984625643
 10
3637.205154023834
 20
1035.43961842178
 10
3637.203187541043
 20
1035.42312325493
  0
LWPOLYLINE
  5
1360
330
1F
100
AcDbEntity
  8
indusa
100
AcDbPolyline
 90
        9
 70
   128
 43
0.0
 10
3637.035640289151
 20
1035.321700907103
 10
3637.035668735501
 20
1035.321469249196
 10
3637.03572009053
 20
1035.321237900845
 10
3637.03579431482
 20
1035.321007039627
 10
3637.035891351398
 20
1035.320776842745
 10
3637.036011125782
 20
1035.32054748689
 10
3637.036153546036
 20
1035.320319148111
 10
3637.036318502842
 20
1035.320092001673
 10
3637.036505869583
 20
1035.319866221929
  0
LWPOLYLINE
  5
1361
330
1F
100
AcDbEntity
  8
indusa
100
AcDbPolyline
 90
        4
 70
   128
 43
0.0
 10
3637.034462447032
 20
1035.335630389952
 10
3637.034788797323
 20
1035.332139766812
 10
3637.035096335612
 20
1035.328648668247
 10
3637.035640289151
 20
1035.321700907103
  0
LWPOLYLINE
  5
1368
330
1F
100
AcDbEntity
  8
indusa
100
AcDbPolyline
 90
        3
 70
   128
 43
0.0
 10
3637.001540288525
 20
1035.363647242948
 10
3637.002652445285
 20
1035.351236568186
 10
3637.005213075931
 20
1035.321676657857
  0
LWPOLYLINE
  5
136A
330
1F
100
AcDbEntity
  8
indusa
100
AcDbPolyline
 90
        7
 70
   128
 43
0.0
 10
3636.995294851061
 20
1035.424000344576
 10
3636.996041605581
 20
1035.417678857524
 10
3636.997285631629
 20
1035.406568344231
 10
3636.998452721008
 20
1035.395597665431
 10
3636.999548143772
 20
1035.384778991526
 10
3637.000576252058
 20
1035.374124744662
 10
3637.001540288525
 20
1035.363647242948
  0
LWPOLYLINE
  5
136B
330
1F
100
AcDbEntity
  8
indusa
100
AcDbPolyline
 90
        4
 70
   128
 43
0.0
 10
3636.989270958728
 20
1035.469975919188
 10
3636.989290824025
 20
1035.46984625643
 10
3636.993386094302
 20
1035.43961842178
 10
3636.99524866899
 20
1035.423994852425
  0
LWPOLYLINE
  5
136C
330
1F
100
AcDbEntity
  8
indusa
100
AcDbPolyline
 90
       17
 70
   128
 43
0.0
 10
3637.004175079392
 20
1035.337989467611
 10
3637.004419994781
 20
1035.339083514339
 10
3637.005999134117
 20
1035.342099235396
 10
3637.008742241916
 20
1035.345075790898
 10
3637.012638996545
 20
1035.347964121284
 10
3637.016360072206
 20
1035.350069088619
 10
3637.020751293847
 20
1035.352098036301
 10
3637.025777970295
 20
1035.354026169121
 10
3637.031405410375
 20
1035.355828691872
 10
3637.036821662079
 20
1035.357294123532
 10
3637.042663768861
 20
1035.358642802896
 10
3637.051302171899
 20
1035.360276255301
 10
3637.060611769563
 20
1035.361646612014
 10
3637.070417498704
 20
1035.362720355428
 10
3637.079832158088
 20
1035.36342945278
 10
3637.089507133998
 20
1035.363862177745
 10
3637.099270059068
 20
1035.364008621387
  0
LWPOLYLINE
  5
136F
330
1F
100
AcDbEntity
  8
indusa
100
AcDbPolyline
 90
       26
 70
   128
 43
0.0
 10
3637.03445644768
 20
1035.336123094273
 10
3637.034489234022
 20
1035.336773880876
 10
3637.034593891721
 20
1035.337243640141
 10
3637.034871671982
 20
1035.337895193067
 10
3637.03536710834
 20
1035.338695137744
 10
3637.036178115968
 20
1035.339672503936
 10
3637.03725645547
 20
1035.340697534661
 10
3637.038612904919
 20
1035.341757328321
 10
3637.040252789155
 20
1035.342836352108
 10
3637.042175088739
 20
1035.343918459741
 10
3637.044374348855
 20
1035.344988988
 10
3637.046838024993
 20
1035.34603285785
 10
3637.049546068647
 20
1035.34703208551
 10
3637.052436072102
 20
1035.347967009854
 10
3637.055589126967
 20
1035.348864103764
 10
3637.058974812088
 20
1035.349709636508
 10
3637.062555431324
 20
1035.350491127611
 10
3637.066297912293
 20
1035.351199844702
 10
3637.070170747727
 20
1035.351829252436
 10
3637.074144575573
 20
1035.352374677102
 10
3637.078193068722
 20
1035.352833056645
 10
3637.082300142586
 20
1035.353204877139
 10
3637.086521885195
 20
1035.353497711233
 10
3637.090847573726
 20
1035.353709457099
 10
3637.095218572633
 20
1035.353835498936
 10
3637.099270583905
 20
1035.353871372432
  0
LWPOLYLINE
  5
1374
330
1F
100
AcDbEntity
  8
indusa
100
AcDbPolyline
 90
        3
 70
   128
 43
0.0
 10
3637.17190616752
 20
1035.29412694588
 10
3637.172277721734
 20
1035.294553212565
 10
3637.190587896608
 20
1035.31556092136
  0
LWPOLYLINE
  5
1376
330
1F
100
AcDbEntity
  8
indusa
100
AcDbPolyline
 90
        6
 70
   128
 43
0.0
 10
3637.17190616752
 20
1035.29412694588
 10
3637.171565915407
 20
1035.293783957274
 10
3637.170197347365
 20
1035.293031581373
 10
3637.168653652504
 20
1035.292907607273
 10
3637.168435344019
 20
1035.292938219477
 10
3637.16842295085
 20
1035.29294029864
  0
LINE
  5
137A
330
1F
100
AcDbEntity
  8
indusa
100
AcDbLine
 10
3637.14601024898
 20
1035.30754029864
 30
0.0
 11
3637.150864355815
 21
1035.307204573288
 31
0.0
  0
LWPOLYLINE
  5
137E
330
1F
100
AcDbEntity
  8
indusa
100
AcDbPolyline
 90
        8
 70
   128
 43
0.0
 10
3637.150864355815
 20
1035.307204573288
 10
3637.150518250322
 20
1035.306656170265
 10
3637.150007820532
 20
1035.306139995222
 10
3637.149351672477
 20
1035.305674863614
 10
3637.148573723866
 20
1035.305277730278
 10
3637.147702332246
 20
1035.304963071397
 10
3637.146769261319
 20
1035.304742356822
 10
3637.145808523106
 20
1035.304623631974
  0
LWPOLYLINE
  5
1387
330
1F
100
AcDbEntity
  8
indusa
100
AcDbPolyline
 90
        6
 70
   128
 43
0.0
 10
3637.133981271745
 20
1035.317507352817
 10
3637.133370479911
 20
1035.316417747932
 10
3637.132143582082
 20
1035.314230286966
 10
3637.130021831526
 20
1035.310451251191
 10
3637.128395462351
 20
1035.307557865685
 10
3637.128385582965
 20
1035.30754029864
  0
LINE
  5
138B
330
1F
100
AcDbEntity
  8
indusa
100
AcDbLine
 10
3637.052529869155
 20
1035.30754029864
 30
0.0
 11
3637.04767576232
 21
1035.307204573288
 31
0.0
  0
LWPOLYLINE
  5
1390
330
1F
100
AcDbEntity
  8
indusa
100
AcDbPolyline
 90
        8
 70
   128
 43
0.0
 10
3637.04767576232
 20
1035.307204573288
 10
3637.048021867812
 20
1035.306656170265
 10
3637.048532297602
 20
1035.306139995222
 10
3637.049188445658
 20
1035.305674863614
 10
3637.049966394269
 20
1035.305277730278
 10
3637.050837785889
 20
1035.304963071397
 10
3637.051770856815
 20
1035.304742356822
 10
3637.052731595029
 20
1035.304623631974
  0
LINE
  5
1397
330
1F
100
AcDbEntity
  8
indusa
100
AcDbLine
 10
3637.070154535171
 20
1035.30754029864
 30
0.0
 11
3637.052529869155
 21
1035.30754029864
 31
0.0
  0
LWPOLYLINE
  5
1399
330
1F
100
AcDbEntity
  8
indusa
100
AcDbPolyline
 90
        6
 70
   128
 43
0.0
 10
3637.06455884639
 20
1035.317507352817
 10
3637.065169638224
 20
1035.316417747932
 10
3637.066396536053
 20
1035.314230286966
 10
3637.068518286609
 20
1035.310451251191
 10
3637.070144655783
 20
1035.307557865685
 10
3637.070154535171
 20
1035.30754029864
  0
LINE
  5
139A
330
1F
100
AcDbEntity
  8
indusa
100
AcDbLine
 10
3637.052731595029
 20
1035.304623631974
 30
0.0
 11
3637.145808523106
 21
1035.304623631974
 31
0.0
  0
LINE
  5
139B
330
1F
100
AcDbEntity
  8
indusa
100
AcDbLine
 10
3637.128385582965
 20
1035.30754029864
 30
0.0
 11
3637.14601024898
 21
1035.30754029864
 31
0.0
  0
LWPOLYLINE
  5
139F
330
1F
100
AcDbEntity
  8
indusa
100
AcDbPolyline
 90
        6
 70
   128
 43
0.0
 10
3637.026635018355
 20
1035.294125839153
 10
3637.026974202728
 20
1035.293783957274
 10
3637.02834277077
 20
1035.293031581373
 10
3637.029886465631
 20
1035.292907607273
 10
3637.030104774115
 20
1035.292938219477
 10
3637.030117167285
 20
1035.29294029864
  0
LINE
  5
13A6
330
1F
100
AcDbEntity
  8
indusa
100
AcDbLine
 10
3637.007953664833
 20
1035.315558330193
 30
0.0
 11
3637.026635018355
 21
1035.294125839153
 31
0.0
  0
LINE
  5
13A7
330
1F
100
AcDbEntity
  8
indusa
100
AcDbLine
 10
3637.030117167285
 20
1035.29294029864
 30
0.0
 11
3637.16842295085
 21
1035.29294029864
 31
0.0
  0
LWPOLYLINE
  5
13AE
330
1F
100
AcDbEntity
  8
indusa
100
AcDbPolyline
 90
        6
 70
   128
 43
0.0
 10
3637.005213075931
 20
1035.321676657857
 10
3637.005359035538
 20
1035.320602946327
 10
3637.005826620534
 20
1035.319001800348
 10
3637.006558526042
 20
1035.317484915815
 10
3637.007554355289
 20
1035.316033886954
 10
3637.007953664833
 20
1035.315558330193
  0
LWPOLYLINE
  5
13AF
330
1F
100
AcDbEntity
  8
indusa
100
AcDbPolyline
 90
        9
 70
   128
 43
0.0
 10
3637.143875156427
 20
1035.338133254408
 10
3637.143865224192
 20
1035.337447306941
 10
3637.143588768921
 20
1035.334576174025
 10
3637.142933491318
 20
1035.331709864191
 10
3637.14190028693
 20
1035.328852294725
 10
3637.140490567798
 20
1035.326007370967
 10
3637.138706260538
 20
1035.323178980974
 10
3637.1365498037
 20
1035.320370990208
 10
3637.134024144437
 20
1035.317587236251
  0
LWPOLYLINE
  5
13B1
330
1F
100
AcDbEntity
  8
indusa
100
AcDbPolyline
 90
        9
 70
   128
 43
0.0
 10
3637.054664943759
 20
1035.338106876574
 10
3637.054674893942
 20
1035.337447306941
 10
3637.054951349214
 20
1035.334576174025
 10
3637.055606626816
 20
1035.331709864191
 10
3637.056639831205
 20
1035.328852294725
 10
3637.058049550336
 20
1035.326007370967
 10
3637.059833857597
 20
1035.323178980974
 10
3637.061990314435
 20
1035.320370990208
 10
3637.064515973698
 20
1035.317587236251
  0
LINE
  5
13B2
330
1F
100
AcDbEntity
  8
indusa
100
AcDbLine
 10
3637.068772453008
 20
1035.325456965307
 30
0.0
 11
3637.070154535171
 21
1035.30754029864
 31
0.0
  0
LINE
  5
13B3
330
1F
100
AcDbEntity
  8
indusa
100
AcDbLine
 10
3637.036505869583
 20
1035.319866221929
 30
0.0
 11
3637.04767576232
 21
1035.307204573288
 31
0.0
  0
LINE
  5
13B9
330
1F
100
AcDbEntity
  8
indusa
100
AcDbLine
 10
3637.129767665126
 20
1035.325456965307
 30
0.0
 11
3637.128385582965
 21
1035.30754029864
 31
0.0
  0
LINE
  5
13BC
330
1F
100
AcDbEntity
  8
indusa
100
AcDbLine
 10
3637.162034248551
 20
1035.319866221929
 30
0.0
 11
3637.150864355815
 21
1035.307204573288
 31
0.0
  0
LWPOLYLINE
  5
13C1
330
1F
100
AcDbEntity
  8
indusa
100
AcDbPolyline
 90
        6
 70
   128
 43
0.0
 10
3637.190587896608
 20
1035.31556092136
 10
3637.191483877506
 20
1035.316703632416
 10
3637.192367902937
 20
1035.318208864584
 10
3637.192971127892
 20
1035.319756524861
 10
3637.193298681407
 20
1035.321344302448
 10
3637.193327042203
 20
1035.321676657857
  0
LWPOLYLINE
  5
13C2
330
1F
100
AcDbEntity
  8
indusa
100
AcDbPolyline
 90
        8
 70
   128
 43
0.0
 10
3636.95012244971
 20
1035.658526146382
 10
3636.956684664382
 20
1035.634092977303
 10
3636.962799590618
 20
1035.609535397126
 10
3636.968482123801
 20
1035.584831885033
 10
3636.973733418376
 20
1035.560026487169
 10
3636.979493144965
 20
1035.530075143594
 10
3636.984668035811
 20
1035.500019651458
 10
3636.989270958728
 20
1035.469975919188
  0
LINE
  5
13CA
330
1F
100
AcDbEntity
  8
indusa
100
AcDbLine
 10
3637.440156340617
 20
1035.834581498623
 30
0.0
 11
3636.758383777518
 21
1035.834581498623
 31
0.0
  0
LWPOLYLINE
  5
13CB
330
1F
100
AcDbEntity
  8
indusa
100
AcDbPolyline
 90
        8
 70
   128
 43
0.0
 10
3637.248417668425
 20
1035.658526146382
 10
3637.241855453753
 20
1035.634092977303
 10
3637.235740527516
 20
1035.609535397126
 10
3637.230057994333
 20
1035.584831885033
 10
3637.224806699759
 20
1035.560026487169
 10
3637.219046973168
 20
1035.530075143594
 10
3637.213872082323
 20
1035.500019651458
 10
3637.20924929411
 20
1035.46984625643
  0
LINE
  5
13CD
330
1F
100
AcDbEntity
  8
indusa
100
AcDbLine
 10
3637.244981178277
 20
1035.661073631974
 30
0.0
 11
3636.953558939858
 21
1035.661073631974
 31
0.0
  0
LINE
  5
13D0
330
1F
100
AcDbEntity
  8
indusa
100
AcDbLine
 10
3637.365265173553
 20
1035.851073631973
 30
0.0
 11
3636.833274944582
 21
1035.851073631973
 31
0.0
  0
LWPOLYLINE
  5
13D1
330
1F
100
AcDbEntity
  8
indusa
100
AcDbPolyline
 90
        6
 70
   128
 43
0.0
 10
3637.311594940609
 20
1035.843052575414
 10
3637.301836401295
 20
1035.842307982088
 10
3637.282260185781
 20
1035.840843311085
 10
3637.262605051918
 20
1035.83941135616
 10
3637.234608174173
 20
1035.837437738813
 10
3637.206480882674
 20
1035.835532249463
  0
LWPOLYLINE
  5
13D4
330
1F
100
AcDbEntity
  8
indusa
100
AcDbPolyline
 90
        5
 70
   128
 43
0.0
 10
3637.365817523348
 20
1035.848991064163
 10
3637.333509418262
 20
1035.848524414634
 10
3637.300929899838
 20
1035.848078889104
 10
3637.268043026875
 20
1035.847670392401
 10
3637.234947436596
 20
1035.847314430728
  0
LWPOLYLINE
  5
13D6
330
1F
100
AcDbEntity
  8
indusa
100
AcDbPolyline
 90
        9
 70
   128
 43
0.0
 10
3636.364293881165
 20
1035.868248414331
 10
3636.364217151764
 20
1035.869028883156
 10
3636.363989616999
 20
1035.869779380935
 10
3636.363620023007
 20
1035.87047105952
 10
3636.363122576497
 20
1035.871077331693
 10
3636.362516398659
 20
1035.871574893149
 10
3636.361824790173
 20
1035.871944618279
 10
3636.361074335562
 20
1035.872172295334
 10
3636.360293881312
 20
1035.872249172708
  0
LWPOLYLINE
  5
13DB
330
1F
100
AcDbEntity
  8
indusa
100
AcDbPolyline
 90
        3
 70
   128
 43
0.0
 10
3636.364289752806
 20
1035.846415811604
 10
3636.364291267374
 20
1035.854415811314
 10
3636.364293881165
 20
1035.868248414331
  0
LWPOLYLINE
  5
13DD
330
1F
100
AcDbEntity
  8
indusa
100
AcDbPolyline
 90
        6
 70
   128
 43
0.0
 10
3636.365056723366
 20
1035.770479620437
 10
3636.365054316008
 20
1035.770491958885
 10
3636.364982005331
 20
1035.770869108433
 10
3636.364888893756
 20
1035.771380978474
 10
3636.364825027794
 20
1035.771753666645
 10
3636.364790599019
 20
1035.771963151081
  0
LINE
  5
13E3
330
1F
100
AcDbEntity
  8
indusa
100
AcDbLine
 10
3636.369949226617
 20
1035.757824864163
 30
0.0
 11
3636.366862759838
 21
1035.764184386655
 31
0.0
  0
LWPOLYLINE
  5
13E4
330
1F
100
AcDbEntity
  8
indusa
100
AcDbPolyline
 90
        5
 70
   128
 43
0.0
 10
3636.366862759838
 20
1035.764184386655
 10
3636.366100477235
 20
1035.766382591892
 10
3636.365626857119
 20
1035.768014395777
 10
3636.365169619394
 20
1035.769925016872
 10
3636.365056723366
 20
1035.770479620437
  0
LWPOLYLINE
  5
13E5
330
1F
100
AcDbEntity
  8
indusa
100
AcDbPolyline
 90
        9
 70
   128
 43
0.0
 10
3636.365056723366
 20
1035.770479620437
 10
3636.365118180983
 20
1035.769810935985
 10
3636.365034987337
 20
1035.769137888283
 10
3636.364810163871
 20
1035.768484921191
 10
3636.36445187576
 20
1035.767875749279
 10
3636.363973135374
 20
1035.767332496555
 10
3636.363391329685
 20
1035.766874892965
 10
3636.362727588814
 20
1035.766519557833
 10
3636.362006018613
 20
1035.76627939628
  0
LINE
  5
13E7
330
1F
100
AcDbEntity
  8
indusa
100
AcDbLine
 10
3636.364790599019
 20
1035.771963151081
 30
0.0
 11
3636.364277280663
 21
1035.778356424331
 31
0.0
  0
LWPOLYLINE
  5
13E9
330
1F
100
AcDbEntity
  8
indusa
100
AcDbPolyline
 90
        5
 70
   128
 43
0.0
 10
3636.369837106723
 20
1035.668903136727
 10
3636.369284442022
 20
1035.666047539075
 10
3636.368538739484
 20
1035.662806116558
 10
3636.367627344846
 20
1035.65929772038
 10
3636.366583678983
 20
1035.655650990045
  0
LWPOLYLINE
  5
13EA
330
1F
100
AcDbEntity
  8
indusa
100
AcDbPolyline
 90
        3
 70
   128
 43
0.0
 10
3636.364277280663
 20
1035.778356424331
 10
3636.364283392766
 20
1035.812364600684
 10
3636.364289752806
 20
1035.846415811604
  0
LWPOLYLINE
  5
13EC
330
1F
100
AcDbEntity
  8
indusa
100
AcDbPolyline
 90
        5
 70
   128
 43
0.0
 10
3636.430113498963
 20
1035.647394057905
 10
3636.425363532242
 20
1035.648889554322
 10
3636.411390535276
 20
1035.653606633851
 10
3636.397496564722
 20
1035.658571070839
 10
3636.369837130339
 20
1035.668903209852
  0
LWPOLYLINE
  5
13ED
330
1F
100
AcDbEntity
  8
indusa
100
AcDbPolyline
 90
        7
 70
   128
 43
0.0
 10
3636.366581961546
 20
1035.655651518929
 10
3636.380860130449
 20
1035.651401001781
 10
3636.395234612545
 20
1035.647472819707
 10
3636.409762447098
 20
1035.643993822731
 10
3636.417098411692
 20
1035.642500140641
 10
3636.424480161269
 20
1035.641263998929
 10
3636.433934122091
 20
1035.640285283031
  0
LINE
  5
13EE
330
1F
100
AcDbEntity
  8
indusa
100
AcDbLine
 10
3636.432806514591
 20
1035.65306271754
 30
0.0
 11
3636.369949226617
 21
1035.757824864163
 31
0.0
  0
LINE
  5
13F1
330
1F
100
AcDbEntity
  8
indusa
100
AcDbLine
 10
3638.079738321705
 20
1035.360233989637
 30
0.0
 11
3637.980770732655
 21
1035.33136844283
 31
0.0
  0
LINE
  5
13F3
330
1F
100
AcDbEntity
  8
indusa
100
AcDbLine
 10
3637.97521657431
 20
1035.661073631974
 30
0.0
 11
3638.072267095431
 21
1035.661073631974
 31
0.0
  0
LINE
  5
13F5
330
1F
100
AcDbEntity
  8
indusa
100
AcDbLine
 10
3638.072617095431
 20
1035.661073631974
 30
0.0
 11
3637.990916275113
 21
1035.661073631974
 31
0.0
  0
LWPOLYLINE
  5
13FA
330
1F
100
AcDbEntity
  8
indusa
100
AcDbPolyline
 90
       11
 70
   128
 43
0.0
 10
3638.067889140768
 20
1035.822544281605
 10
3638.056195841623
 20
1035.819186938736
 10
3638.044663591768
 20
1035.815641338277
 10
3638.033301112942
 20
1035.811910161732
 10
3638.022116998482
 20
1035.807996230955
 10
3638.011119706835
 20
1035.803902506017
 10
3638.000317555151
 20
1035.799632082966
 10
3637.989718713
 20
1035.795188191483
 10
3637.97933119619
 20
1035.790574192443
 10
3637.969162860706
 20
1035.785793575372
 10
3637.959221396768
 20
1035.780849955807
  0
LINE
  5
13FC
330
1F
100
AcDbEntity
  8
indusa
100
AcDbLine
 10
3638.064255935465
 20
1035.835769537342
 30
0.0
 11
3637.959363586779
 21
1035.842720992411
 31
0.0
  0
ARC
  5
13FD
330
1F
100
AcDbEntity
  8
indusa
100
AcDbCircle
 10
3639.362191608685
 20
1035.828761862626
 30
0.0
 40
0.005
100
AcDbArc
 50
294.3677372535947
 51
0.0
  0
LINE
  5
13FE
330
1F
100
AcDbEntity
  8
indusa
100
AcDbLine
 10
3639.367191608684
 20
1035.830581498623
 30
0.0
 11
3639.367191608684
 21
1035.828761862626
 31
0.0
  0
ARC
  5
13FF
330
1F
100
AcDbEntity
  8
indusa
100
AcDbCircle
 10
3639.363191608685
 20
1035.830581498623
 30
0.0
 40
0.0040000000000007
100
AcDbArc
 50
0.0
 51
97.37380586975362
  0
LINE
  5
1400
330
1F
100
AcDbEntity
  8
indusa
100
AcDbLine
 10
3639.315160093717
 20
1035.818348012534
 30
0.0
 11
3639.33616452462
 21
1035.821086214866
 31
0.0
  0
LWPOLYLINE
  5
1402
330
1F
100
AcDbEntity
  8
indusa
100
AcDbPolyline
 90
        9
 70
   128
 43
0.0
 10
3639.290756812349
 20
1035.81159905107
 10
3639.292590416987
 20
1035.814857104566
 10
3639.29477892042
 20
1035.817816316232
 10
3639.29732232265
 20
1035.820476686068
 10
3639.300220623677
 20
1035.822838214074
 10
3639.303381055569
 20
1035.824834264996
 10
3639.306711845703
 20
1035.826398919416
 10
3639.310212994079
 20
1035.827532177332
 10
3639.313884500698
 20
1035.828234038746
  0
ARC
  5
1403
330
1F
100
AcDbEntity
  8
indusa
100
AcDbCircle
 10
3639.317755399403
 20
1035.798517117739
 30
0.0
 40
0.02
100
AcDbArc
 50
97.45602920956415
 51
154.0863353020407
  0
LINE
  5
1404
330
1F
100
AcDbEntity
  8
indusa
100
AcDbLine
 10
3639.362678239816
 20
1035.834548418386
 30
0.0
 11
3639.31388451832
 21
1035.828233902571
 31
0.0
  0
ARC
  5
1405
330
1F
100
AcDbEntity
  8
indusa
100
AcDbCircle
 10
3639.479275634226
 20
1035.570264752356
 30
0.0
 40
0.2787770692900979
100
AcDbArc
 50
114.3677372535893
 51
133.0000000000062
  0
ARC
  5
1406
330
1F
100
AcDbEntity
  8
indusa
100
AcDbCircle
 10
3639.479275634226
 20
1035.570264752356
 30
0.0
 40
0.2887770692900977
100
AcDbArc
 50
119.7077680914271
 51
131.2171204726529
  0
ARC
  5
1407
330
1F
100
AcDbEntity
  8
indusa
100
AcDbCircle
 10
3639.082191608685
 20
1035.912970183697
 30
0.0
 40
0.2418965517241382
100
AcDbArc
 50
328.7520379684934
 51
334.0863353020407
  0
LINE
  5
140E
330
1F
100
AcDbEntity
  8
indusa
100
AcDbLine
 10
3639.013700246655
 20
1035.835786315237
 30
0.0
 11
3639.013830448718
 21
1035.835769537342
 31
0.0
  0
LWPOLYLINE
  5
140F
330
1F
100
AcDbEntity
  8
indusa
100
AcDbPolyline
 90
        4
 70
   128
 43
0.0
 10
3639.018105932595
 20
1035.834914267051
 10
3639.020435431362
 20
1035.834567126938
 10
3639.023021385465
 20
1035.83442050372
 10
3639.024155498361
 20
1035.834439521329
  0
LINE
  5
1410
330
1F
100
AcDbEntity
  8
indusa
100
AcDbLine
 10
3639.017046723488
 20
1035.835143286175
 30
0.0
 11
3639.018105932595
 21
1035.834914267051
 31
0.0
  0
LWPOLYLINE
  5
1411
330
1F
100
AcDbEntity
  8
indusa
100
AcDbPolyline
 90
        4
 70
   128
 43
0.0
 10
3639.013830448718
 20
1035.835769537342
 10
3639.014925092111
 20
1035.835638624598
 10
3639.016000044962
 20
1035.835429317084
 10
3639.017046723488
 20
1035.835143286175
  0
LWPOLYLINE
  5
1412
330
1F
100
AcDbEntity
  8
indusa
100
AcDbPolyline
 90
        3
 70
   128
 43
0.0
 10
3639.024155498361
 20
1035.834439521329
 10
3639.027514268616
 20
1035.834520598817
 10
3639.030984204897
 20
1035.834548418386
  0
LWPOLYLINE
  5
141A
330
1F
100
AcDbEntity
  8
indusa
100
AcDbPolyline
 90
        7
 70
   128
 43
0.0
 10
3638.999538847509
 20
1035.815201482404
 10
3639.001594674733
 20
1035.818685887039
 10
3639.003387721876
 20
1035.821639014334
 10
3639.005689254198
 20
1035.824245327698
 10
3639.007119751777
 20
1035.825147422601
 10
3639.008790731063
 20
1035.825765176311
 10
3639.008790756594
 20
1035.825765183113
  0
LWPOLYLINE
  5
141C
330
1F
100
AcDbEntity
  8
indusa
100
AcDbPolyline
 90
        7
 70
   128
 43
0.0
 10
3639.008789262463
 20
1035.82576523705
 10
3639.013039779611
 20
1035.827589257623
 10
3639.016967961686
 20
1035.829436454119
 10
3639.020446958662
 20
1035.831311294799
 10
3639.021940640751
 20
1035.832260051992
 10
3639.023176782464
 20
1035.833215516366
 10
3639.024155498361
 20
1035.834439521329
  0
ARC
  5
141E
330
1F
100
AcDbEntity
  8
indusa
100
AcDbCircle
 10
3638.935446877143
 20
1035.820725896815
 30
0.0
 40
0.0010000000000002
100
AcDbArc
 50
270.0
 51
8.000000000001781
  0
LINE
  5
141F
330
1F
100
AcDbEntity
  8
indusa
100
AcDbLine
 10
3638.935777635476
 20
1035.825557725518
 30
0.0
 11
3638.937949204987
 21
1035.825271865191
 31
0.0
  0
LINE
  5
1420
330
1F
100
AcDbEntity
  8
indusa
100
AcDbLine
 10
3638.933540314556
 20
1035.841477091053
 30
0.0
 11
3638.936437145211
 21
1035.820865069916
 31
0.0
  0
ARC
  5
1421
330
1F
100
AcDbEntity
  8
indusa
100
AcDbCircle
 10
3638.818024210913
 20
1034.488197507867
 30
0.0
 40
1.350876124106903
100
AcDbArc
 50
85.52828377946607
 51
86.2211483138572
  0
ARC
  5
1423
330
1F
100
AcDbEntity
  8
indusa
100
AcDbCircle
 10
3638.92635842899
 20
1035.820725896815
 30
0.0
 40
0.0010000000000002
100
AcDbArc
 50
188.0000000002376
 51
270.0
  0
ARC
  5
1424
330
1F
100
AcDbEntity
  8
indusa
100
AcDbCircle
 10
3638.894633659382
 20
1035.831891496037
 30
0.0
 40
0.0050000000000001
100
AcDbArc
 50
8.294274214613066
 51
86.73686769618983
  0
LINE
  5
1425
330
1F
100
AcDbEntity
  8
indusa
100
AcDbLine
 10
3638.923347919502
 20
1035.834961488336
 30
0.0
 11
3638.925368160921
 21
1035.820586723714
 31
0.0
  0
ARC
  5
1427
330
1F
100
AcDbEntity
  8
indusa
100
AcDbCircle
 10
3638.927598706143
 20
1035.840642052447
 30
0.0
 40
0.0060000000000006
100
AcDbArc
 50
7.999999999988879
 51
85.36803706517657
  0
LINE
  5
1428
330
1F
100
AcDbEntity
  8
indusa
100
AcDbLine
 10
3638.935446877143
 20
1035.819725896815
 30
0.0
 11
3638.92635842899
 21
1035.819725896815
 31
0.0
  0
LINE
  5
142B
330
1F
100
AcDbEntity
  8
indusa
100
AcDbLine
 10
3639.013700246655
 20
1035.835786315237
 30
0.0
 11
3638.933594878352
 21
1035.841088849473
 31
0.0
  0
LINE
  5
142C
330
1F
100
AcDbEntity
  8
indusa
100
AcDbLine
 10
3638.937949204987
 20
1035.825271865191
 30
0.0
 11
3638.983755101885
 21
1035.826713514295
 31
0.0
  0
ARC
  5
1431
330
1F
100
AcDbEntity
  8
indusa
100
AcDbCircle
 10
3639.164583006062
 20
1035.659073631974
 30
0.0
 40
0.0019999999999999
100
AcDbArc
 50
317.1864016549045
 51
90.0
  0
ARC
  5
1432
330
1F
100
AcDbEntity
  8
indusa
100
AcDbCircle
 10
3639.167902727894
 20
1035.664073631973
 30
0.0
 40
0.0030000000000001
100
AcDbArc
 50
270.0
 51
316.4184592323096
  0
ARC
  5
1433
330
1F
100
AcDbEntity
  8
indusa
100
AcDbCircle
 10
3639.153456684736
 20
1035.663073646727
 30
0.0
 40
0.0050000147530572
100
AcDbArc
 50
269.9999775926888
 51
325.1500071337203
  0
ARC
  5
1434
330
1F
100
AcDbEntity
  8
indusa
100
AcDbCircle
 10
3639.156292231299
 20
1035.664073631973
 30
0.0
 40
0.0030000000000001
100
AcDbArc
 50
200.0000000000137
 51
270.0
  0
LINE
  5
1435
330
1F
100
AcDbEntity
  8
indusa
100
AcDbLine
 10
3639.153473153437
 20
1035.663047571544
 30
0.0
 11
3639.148871568016
 21
1035.675690323582
 31
0.0
  0
ARC
  5
1436
330
1F
100
AcDbEntity
  8
indusa
100
AcDbCircle
 10
3639.144173104912
 20
1035.673980222865
 30
0.0
 40
0.0050000000000005
100
AcDbArc
 50
20.00000000001373
 51
104.5392030138293
  0
LWPOLYLINE
  5
1437
330
1F
100
AcDbEntity
  8
indusa
100
AcDbPolyline
 90
        5
 70
   128
 43
0.0
 10
3639.157559951474
 20
1035.660216489117
 10
3639.157639512349
 20
1035.660323015441
 10
3639.158141102599
 20
1035.660769531108
 10
3639.158762217946
 20
1035.661024847996
 10
3639.159201258854
 20
1035.661073631974
  0
LINE
  5
1438
330
1F
100
AcDbEntity
  8
indusa
100
AcDbLine
 10
3639.167902727894
 20
1035.661073631974
 30
0.0
 11
3639.156292231299
 21
1035.661073631974
 31
0.0
  0
ARC
  5
1439
330
1F
100
AcDbEntity
  8
indusa
100
AcDbCircle
 10
3639.097024523764
 20
1035.656073631973
 30
0.0
 40
0.0019999999999999
100
AcDbArc
 50
90.0
 51
154.6848245973071
  0
LINE
  5
143A
330
1F
100
AcDbEntity
  8
indusa
100
AcDbLine
 10
3639.097024523764
 20
1035.658073631974
 30
0.0
 11
3639.153456682781
 21
1035.658073631974
 31
0.0
  0
ARC
  5
143C
330
1F
100
AcDbEntity
  8
indusa
100
AcDbCircle
 10
3639.499208181886
 20
1035.348779183223
 30
0.0
 40
0.4543553249470156
100
AcDbArc
 50
133.0000000000062
 51
136.4184592323276
  0
LINE
  5
1440
330
1F
100
AcDbEntity
  8
indusa
100
AcDbLine
 10
3638.930434113196
 20
1035.792725896815
 30
0.0
 11
3638.939522561349
 21
1035.792725896815
 31
0.0
  0
ARC
  5
1441
330
1F
100
AcDbEntity
  8
indusa
100
AcDbCircle
 10
3638.930434113196
 20
1035.791725896815
 30
0.0
 40
0.0009999999999997
100
AcDbArc
 50
90.0
 51
188.0000000000018
  0
ARC
  5
1442
330
1F
100
AcDbEntity
  8
indusa
100
AcDbCircle
 10
3638.939522561349
 20
1035.791725896815
 30
0.0
 40
0.0010000000000002
100
AcDbArc
 50
8.000000000001781
 51
90.0
  0
LWPOLYLINE
  5
1445
330
1F
100
AcDbEntity
  8
indusa
100
AcDbPolyline
 90
        3
 70
   128
 43
0.0
 10
3638.962125481384
 20
1035.700152626024
 10
3638.962001320994
 20
1035.700814196158
 10
3638.962621592913
 20
1035.701817961506
  0
LWPOLYLINE
  5
1446
330
1F
100
AcDbEntity
  8
indusa
100
AcDbPolyline
 90
        9
 70
   128
 43
0.0
 10
3638.962125481384
 20
1035.700152626024
 10
3638.962290475736
 20
1035.699736921356
 10
3638.963508637277
 20
1035.696739736045
 10
3638.964627703911
 20
1035.69411037137
 10
3638.96593536158
 20
1035.69121992977
 10
3638.967052517968
 20
1035.688931892845
 10
3638.967963797929
 20
1035.687215189974
 10
3638.968914901055
 20
1035.685597634395
 10
3638.969250828173
 20
1035.685084027755
  0
LINE
  5
1447
330
1F
100
AcDbEntity
  8
indusa
100
AcDbLine
 10
3638.943439226232
 20
1035.692057710257
 30
0.0
 11
3638.943339040831
 21
1035.692717268918
 31
0.0
  0
ARC
  5
144A
330
1F
100
AcDbEntity
  8
indusa
100
AcDbCircle
 10
3638.972954270953
 20
1035.704738149754
 30
0.0
 40
0.0199999999999998
100
AcDbArc
 50
188.0000000000018
 51
259.3288313603929
  0
LWPOLYLINE
  5
1451
330
1F
100
AcDbEntity
  8
indusa
100
AcDbPolyline
 90
        5
 70
   128
 43
0.0
 10
3638.917864812174
 20
1035.686941872862
 10
3638.917234014956
 20
1035.688639476722
 10
3638.916122600114
 20
1035.689927024799
 10
3638.914601965403
 20
1035.690783373156
 10
3638.912904606316
 20
1035.691073631973
  0
LINE
  5
1454
330
1F
100
AcDbEntity
  8
indusa
100
AcDbLine
 10
3638.929443845127
 20
1035.791586723714
 30
0.0
 11
3638.943339040831
 21
1035.692717268918
 31
0.0
  0
LINE
  5
1455
330
1F
100
AcDbEntity
  8
indusa
100
AcDbLine
 10
3638.940512829418
 20
1035.791865069916
 30
0.0
 11
3638.953148909578
 21
1035.701954687735
 31
0.0
  0
LWPOLYLINE
  5
1456
330
1F
100
AcDbEntity
  8
indusa
100
AcDbPolyline
 90
       14
 70
   128
 43
0.0
 10
3638.962621592913
 20
1035.701817961506
 10
3638.966281298401
 20
1035.70460969289
 10
3638.969775912471
 20
1035.707932609681
 10
3638.973127944427
 20
1035.711840847461
 10
3638.976286819203
 20
1035.716307098698
 10
3638.98024764425
 20
1035.723280355314
 10
3638.983792831127
 20
1035.731277715164
 10
3638.986961278614
 20
1035.740521216351
 10
3638.98962707739
 20
1035.750774703326
 10
3638.991721418208
 20
1035.761741636163
 10
3638.993286088486
 20
1035.773559296106
 10
3638.994042696807
 20
1035.782119684708
 10
3638.994538481736
 20
1035.791026452243
 10
3638.994769705925
 20
1035.800236669926
  0
ARC
  5
1457
330
1F
100
AcDbEntity
  8
indusa
100
AcDbCircle
 10
3639.012191608685
 20
1035.912970183697
 30
0.0
 40
0.231896551724138
100
AcDbArc
 50
259.3288313603929
 51
262.5142540563435
  0
LINE
  5
1458
330
1F
100
AcDbEntity
  8
indusa
100
AcDbLine
 10
3639.061248846954
 20
1035.681073631973
 30
0.0
 11
3639.082191608685
 21
1035.681073631973
 31
0.0
  0
ARC
  5
1459
330
1F
100
AcDbEntity
  8
indusa
100
AcDbCircle
 10
3639.063416883338
 20
1035.666073631974
 30
0.0
 40
0.0050000000000004
100
AcDbArc
 50
90.0
 51
177.999999999996
  0
LINE
  5
145A
330
1F
100
AcDbEntity
  8
indusa
100
AcDbLine
 10
3639.082191608685
 20
1035.671073631974
 30
0.0
 11
3639.063416883338
 21
1035.671073631974
 31
0.0
  0
ARC
  5
145D
330
1F
100
AcDbEntity
  8
indusa
100
AcDbCircle
 10
3639.050691608685
 20
1035.668742093683
 30
0.0
 40
0.005
100
AcDbArc
 50
129.9999999999926
 51
180.0
  0
LINE
  5
145E
330
1F
100
AcDbEntity
  8
indusa
100
AcDbLine
 10
3639.054820970856
 20
1035.678734076405
 30
0.0
 11
3639.047477670636
 21
1035.672572315898
 31
0.0
  0
LINE
  5
145F
330
1F
100
AcDbEntity
  8
indusa
100
AcDbLine
 10
3639.040700965908
 20
1035.681073631973
 30
0.0
 11
3639.061248846954
 21
1035.681073631973
 31
0.0
  0
ARC
  5
1460
330
1F
100
AcDbEntity
  8
indusa
100
AcDbCircle
 10
3639.061248846954
 20
1035.671073631974
 30
0.0
 40
0.01
100
AcDbArc
 50
90.0
 51
129.9999999999926
  0
ARC
  5
1461
330
1F
100
AcDbEntity
  8
indusa
100
AcDbCircle
 10
3639.046691608684
 20
1035.632073631973
 30
0.0
 40
0.0010000000000002
100
AcDbArc
 50
180.0
 51
270.0
  0
LINE
  5
1462
330
1F
100
AcDbEntity
  8
indusa
100
AcDbLine
 10
3639.056225919909
 20
1035.631073631974
 30
0.0
 11
3639.046691608684
 21
1035.631073631974
 31
0.0
  0
ARC
  5
1463
330
1F
100
AcDbEntity
  8
indusa
100
AcDbCircle
 10
3639.056225919909
 20
1035.632073631973
 30
0.0
 40
0.0010000000000002
100
AcDbArc
 50
270.0
 51
357.9999999993711
  0
LINE
  5
1464
330
1F
100
AcDbEntity
  8
indusa
100
AcDbLine
 10
3639.045691608685
 20
1035.632073631973
 30
0.0
 11
3639.045691608685
 21
1035.668742093683
 31
0.0
  0
LINE
  5
1465
330
1F
100
AcDbEntity
  8
indusa
100
AcDbLine
 10
3639.058419929203
 20
1035.666248129457
 30
0.0
 11
3639.057225310736
 21
1035.632038732477
 31
0.0
  0
LINE
  5
1466
330
1F
100
AcDbEntity
  8
indusa
100
AcDbLine
 10
3638.997319996927
 20
1035.660071852892
 30
0.0
 11
3638.986021333855
 21
1035.664594439371
 31
0.0
  0
LINE
  5
1467
330
1F
100
AcDbEntity
  8
indusa
100
AcDbLine
 10
3638.996905546733
 20
1035.672572315898
 30
0.0
 11
3638.987105314186
 21
1035.680795687414
 31
0.0
  0
LWPOLYLINE
  5
1469
330
1F
100
AcDbEntity
  8
indusa
100
AcDbPolyline
 90
        9
 70
   128
 43
0.0
 10
3639.003129747636
 20
1035.658875204754
 10
3639.003129797687
 20
1035.658875189711
 10
3639.003709670772
 20
1035.658628031967
 10
3639.00447929419
 20
1035.65812228065
 10
3639.005138617205
 20
1035.657503929994
 10
3639.005459827552
 20
1035.657045647808
 10
3639.005560910076
 20
1035.656777676966
 10
3639.005574404985
 20
1035.656690860319
 10
3639.005574410232
 20
1035.656690800976
  0
LWPOLYLINE
  5
146A
330
1F
100
AcDbEntity
  8
indusa
100
AcDbPolyline
 90
        6
 70
   128
 43
0.0
 10
3638.997659798997
 20
1035.66000076077
 10
3638.997690130441
 20
1035.659994415715
 10
3638.998656331488
 20
1035.659793383526
 10
3639.000284763574
 20
1035.659458287036
 10
3639.002488962884
 20
1035.65900684453
 10
3639.003129866985
 20
1035.658875180738
  0
LINE
  5
146D
330
1F
100
AcDbEntity
  8
indusa
100
AcDbLine
 10
3638.998691608685
 20
1035.668742093683
 30
0.0
 11
3638.998691608685
 21
1035.66100024112
 31
0.0
  0
ARC
  5
146E
330
1F
100
AcDbEntity
  8
indusa
100
AcDbCircle
 10
3638.993691608685
 20
1035.668742093683
 30
0.0
 40
0.005
100
AcDbArc
 50
0.0
 51
50.00000000000739
  0
ARC
  5
146F
330
1F
100
AcDbEntity
  8
indusa
100
AcDbCircle
 10
3638.997691608685
 20
1035.66100024112
 30
0.0
 40
0.0010000000000061
100
AcDbArc
 50
248.1849470449535
 51
0.0
  0
LINE
  5
1473
330
1F
100
AcDbEntity
  8
indusa
100
AcDbLine
 10
3638.997691608685
 20
1035.631073631974
 30
0.0
 11
3638.98815729746
 21
1035.631073631974
 31
0.0
  0
ARC
  5
1474
330
1F
100
AcDbEntity
  8
indusa
100
AcDbCircle
 10
3638.982071874106
 20
1035.634415106382
 30
0.0
 40
0.0049999999999998
100
AcDbArc
 50
2.000000000003953
 51
80.9297343057813
  0
LINE
  5
1475
330
1F
100
AcDbEntity
  8
indusa
100
AcDbLine
 10
3638.987157906632
 20
1035.632038732477
 30
0.0
 11
3638.987068828241
 21
1035.634589603865
 31
0.0
  0
ARC
  5
1476
330
1F
100
AcDbEntity
  8
indusa
100
AcDbCircle
 10
3638.98815729746
 20
1035.632073631973
 30
0.0
 40
0.0010000000000004
100
AcDbArc
 50
182.0000000000169
 51
270.0
  0
LWPOLYLINE
  5
147A
330
1F
100
AcDbEntity
  8
indusa
100
AcDbPolyline
 90
        7
 70
   128
 43
0.0
 10
3639.004169288642
 20
1035.6455157168
 10
3639.004143794563
 20
1035.645373053843
 10
3639.004057380877
 20
1035.645214191843
 10
3639.004009957989
 20
1035.645160812198
 10
3639.003741533328
 20
1035.644985642373
 10
3639.003300479409
 20
1035.644879710274
 10
3639.002696443666
 20
1035.644913589186
  0
LINE
  5
147B
330
1F
100
AcDbEntity
  8
indusa
100
AcDbLine
 10
3638.997884865185
 20
1035.645861324456
 30
0.0
 11
3639.002696443666
 21
1035.644913589186
 31
0.0
  0
ARC
  5
147D
330
1F
100
AcDbEntity
  8
indusa
100
AcDbCircle
 10
3638.997691608685
 20
1035.632073631973
 30
0.0
 40
0.0010000000000002
100
AcDbArc
 50
270.0
 51
0.0
  0
ARC
  5
147E
330
1F
100
AcDbEntity
  8
indusa
100
AcDbCircle
 10
3638.997691608685
 20
1035.644880176187
 30
0.0
 40
0.0010000000000002
100
AcDbArc
 50
0.0
 51
78.85710882294045
  0
LINE
  5
1481
330
1F
100
AcDbEntity
  8
indusa
100
AcDbLine
 10
3638.998691608685
 20
1035.644880176187
 30
0.0
 11
3638.998691608685
 21
1035.632073631973
 31
0.0
  0
LINE
  5
1483
330
1F
100
AcDbEntity
  8
indusa
100
AcDbLine
 10
3639.005574442218
 20
1035.656691037498
 30
0.0
 11
3639.004169288642
 21
1035.6455157168
 31
0.0
  0
LINE
  5
1486
330
1F
100
AcDbEntity
  8
indusa
100
AcDbLine
 10
3639.046691608684
 20
1035.631073631974
 30
0.0
 11
3638.997691608685
 21
1035.631073631974
 31
0.0
  0
LINE
  5
1489
330
1F
100
AcDbEntity
  8
indusa
100
AcDbLine
 10
3638.996905546733
 20
1035.672572315898
 30
0.0
 11
3639.047477670636
 21
1035.672572315898
 31
0.0
  0
LWPOLYLINE
  5
148A
330
1F
100
AcDbEntity
  8
indusa
100
AcDbPolyline
 90
        5
 70
   128
 43
0.0
 10
3639.02213689542
 20
1035.681354451911
 10
3639.023250460603
 20
1035.681322050555
 10
3639.029999419306
 20
1035.681175017957
 10
3639.036528870723
 20
1035.681090375825
 10
3639.040700965908
 20
1035.681073631973
  0
LWPOLYLINE
  5
148D
330
1F
100
AcDbEntity
  8
indusa
100
AcDbPolyline
 90
        4
 70
   128
 43
0.0
 10
3638.924662922958
 20
1035.660564557788
 10
3638.924568387164
 20
1035.660624095984
 10
3638.922498568968
 20
1035.663212621911
 10
3638.921399866734
 20
1035.666337150197
  0
LINE
  5
1495
330
1F
100
AcDbEntity
  8
indusa
100
AcDbLine
 10
3638.921399866734
 20
1035.666337150197
 30
0.0
 11
3638.919342142031
 21
1035.678331784367
 31
0.0
  0
ARC
  5
149C
330
1F
100
AcDbEntity
  8
indusa
100
AcDbCircle
 10
3638.930859761008
 20
1035.652717327018
 30
0.0
 40
0.0050000000000003
100
AcDbArc
 50
188.2942742145706
 51
260.9297343057813
  0
LINE
  5
149F
330
1F
100
AcDbEntity
  8
indusa
100
AcDbLine
 10
3638.997884865185
 20
1035.645861324456
 30
0.0
 11
3638.932442241331
 21
1035.65875153981
 31
0.0
  0
LINE
  5
14A0
330
1F
100
AcDbEntity
  8
indusa
100
AcDbLine
 10
3638.982860102186
 20
1035.63935258514
 30
0.0
 11
3638.930071532927
 21
1035.647779848259
 31
0.0
  0
LINE
  5
14A1
330
1F
100
AcDbEntity
  8
indusa
100
AcDbLine
 10
3638.986021333855
 20
1035.664594439371
 30
0.0
 11
3638.955745562494
 21
1035.676713111583
 31
0.0
  0
LWPOLYLINE
  5
14A2
330
1F
100
AcDbEntity
  8
indusa
100
AcDbPolyline
 90
       11
 70
   128
 43
0.0
 10
3638.981980233452
 20
1035.683050016013
 10
3638.982478687613
 20
1035.683023092289
 10
3638.983947297094
 20
1035.682944645903
 10
3638.986199949281
 20
1035.682826195788
 10
3638.989228196539
 20
1035.682670941756
 10
3638.99341334403
 20
1035.682464101808
 10
3638.998342468306
 20
1035.682232851002
 10
3639.003969638725
 20
1035.681986752185
 10
3639.010065444949
 20
1035.681743980094
 10
3639.016588808011
 20
1035.681515884363
 10
3639.02213689542
 20
1035.681354451911
  0
LINE
  5
14A4
330
1F
100
AcDbEntity
  8
indusa
100
AcDbLine
 10
3638.919342142031
 20
1035.678331784367
 30
0.0
 11
3638.917864812174
 21
1035.686941872862
 31
0.0
  0
ARC
  5
14A7
330
1F
100
AcDbEntity
  8
indusa
100
AcDbCircle
 10
3638.963177797652
 20
1035.695280876137
 30
0.0
 40
0.0200000000000366
100
AcDbArc
 50
189.2741505959189
 51
248.1849470445277
  0
ARC
  5
14A8
330
1F
100
AcDbEntity
  8
indusa
100
AcDbCircle
 10
3638.98067743809
 20
1035.673135242983
 30
0.0
 40
0.01
100
AcDbArc
 50
50.00000000000739
 51
82.51425405636936
  0
LINE
  5
14AC
330
1F
100
AcDbEntity
  8
indusa
100
AcDbLine
 10
3639.156292231299
 20
1035.661073631974
 30
0.0
 11
3639.058239231769
 21
1035.661073631974
 31
0.0
  0
LINE
  5
14AE
330
1F
100
AcDbEntity
  8
indusa
100
AcDbLine
 10
3639.097024523764
 20
1035.658073631974
 30
0.0
 11
3639.058134469461
 21
1035.658073631974
 31
0.0
  0
LINE
  5
14B0
330
1F
100
AcDbEntity
  8
indusa
100
AcDbLine
 10
3638.925912059957
 20
1035.651996040452
 30
0.0
 11
3638.899581360433
 21
1035.832612782603
 31
0.0
  0
LINE
  5
14B1
330
1F
100
AcDbEntity
  8
indusa
100
AcDbLine
 10
3638.907054511967
 20
1035.836136641573
 30
0.0
 11
3638.932442241331
 21
1035.65875153981
 31
0.0
  0
LWPOLYLINE
  5
14B7
330
1F
100
AcDbEntity
  8
indusa
100
AcDbPolyline
 90
       20
 70
   128
 43
0.0
 10
3638.929443845127
 20
1035.791586723714
 10
3638.929443796484
 20
1035.79158703908
 10
3638.92941006145
 20
1035.791805787608
 10
3638.929315965967
 20
1035.792417903268
 10
3638.929161175454
 20
1035.793429672213
 10
3638.928953379729
 20
1035.794798007528
 10
3638.928654312476
 20
1035.79678805976
 10
3638.928353654139
 20
1035.798814414881
 10
3638.928026767498
 20
1035.801047437693
 10
3638.927684478771
 20
1035.803421425824
 10
3638.927336814663
 20
1035.805870915339
 10
3638.926996231429
 20
1035.808310845371
 10
3638.926669521263
 20
1035.810689767779
 10
3638.926368069702
 20
1035.812920744084
 10
3638.926096077015
 20
1035.814964010242
 10
3638.925861690944
 20
1035.816749398228
 10
3638.925668208683
 20
1035.818240793536
 10
3638.925520531842
 20
1035.819390214181
 10
3638.925421255522
 20
1035.820168602987
 10
3638.925368160921
 20
1035.820586723714
  0
LWPOLYLINE
  5
14B8
330
1F
100
AcDbEntity
  8
indusa
100
AcDbPolyline
 90
       19
 70
   128
 43
0.0
 10
3638.936437145211
 20
1035.820865069916
 10
3638.936481433844
 20
1035.820516455364
 10
3638.936574456969
 20
1035.819787072643
 10
3638.936716219432
 20
1035.818683242542
 10
3638.936904188771
 20
1035.817233190657
 10
3638.937133696335
 20
1035.815482991011
 10
3638.937401392531
 20
1035.813469102309
 10
3638.937699442133
 20
1035.811259573012
 10
3638.938023635839
 20
1035.808894501234
 10
3638.938362807689
 20
1035.806459739816
 10
3638.938710322993
 20
1035.804006126981
 10
3638.939053688051
 20
1035.801619602309
 10
3638.939383156936
 20
1035.799364256023
 10
3638.939687598199
 20
1035.797308339869
 10
3638.939955341247
 20
1035.795522170816
 10
3638.94017899274
 20
1035.79404511458
 10
3638.940369153248
 20
1035.792799759438
 10
3638.940476191255
 20
1035.792102767587
 10
3638.940512829418
 20
1035.791865069916
  0
LWPOLYLINE
  5
14B9
330
1F
100
AcDbEntity
  8
indusa
100
AcDbPolyline
 90
        7
 70
   128
 43
0.0
 10
3638.994775257094
 20
1035.800228754536
 10
3638.994775261755
 20
1035.800228806037
 10
3638.995199719233
 20
1035.803457174033
 10
3638.995852769851
 20
1035.80647469961
 10
3638.996746524181
 20
1035.80937280551
 10
3638.997830945383
 20
1035.812026376076
 10
3638.999538847509
 20
1035.815201482404
  0
LINE
  5
14BA
330
1F
100
AcDbEntity
  8
indusa
100
AcDbLine
 10
3639.289150130146
 20
1035.774149393908
 30
0.0
 11
3639.189338595386
 21
1035.681073631973
 31
0.0
  0
ARC
  5
14BB
330
1F
100
AcDbEntity
  8
indusa
100
AcDbCircle
 10
3639.082191608685
 20
1035.912970183697
 30
0.0
 40
0.2318965517241384
100
AcDbArc
 50
270.0
 51
334.0782872307752
  0
LINE
  5
14BC
330
1F
100
AcDbEntity
  8
indusa
100
AcDbLine
 10
3639.362678239816
 20
1035.834548418386
 30
0.0
 11
3639.030984204897
 21
1035.834548418386
 31
0.0
  0
LWPOLYLINE
  5
14BE
330
1F
100
AcDbEntity
  8
indusa
100
AcDbPolyline
 90
       37
 70
   128
 43
0.0
 10
3639.31388451832
 20
1035.828233902571
 10
3639.313432029132
 20
1035.828233892925
 10
3639.312083424273
 20
1035.828230137486
 10
3639.30989643714
 20
1035.828222636254
 10
3639.306930010251
 20
1035.82821138923
 10
3639.303243766277
 20
1035.828196396412
 10
3639.298897523428
 20
1035.828177657801
 10
3639.293950855463
 20
1035.828155173398
 10
3639.288462696077
 20
1035.828128943202
 10
3639.285105834966
 20
1035.828112272734
 10
3639.281601733296
 20
1035.82809437915
 10
3639.277960864244
 20
1035.82807526245
 10
3639.274193529399
 20
1035.828054922633
 10
3639.270023811983
 20
1035.828031767223
 10
3639.265121877341
 20
1035.828003933798
 10
3639.260045107326
 20
1035.827974472341
 10
3639.253918188741
 20
1035.827938042992
 10
3639.247590478976
 20
1035.827899397711
 10
3639.24108148613
 20
1035.8278585365
 10
3639.234410304847
 20
1035.827815459358
 10
3639.227595579973
 20
1035.827770166285
 10
3639.220655474122
 20
1035.827722657282
 10
3639.209063751978
 20
1035.827640678374
 10
3639.196967039519
 20
1035.827552139725
 10
3639.184405724138
 20
1035.827457041332
 10
3639.171421923087
 20
1035.827355383197
 10
3639.158059329144
 20
1035.827247165318
 10
3639.144363049008
 20
1035.827132387697
 10
3639.130379435015
 20
1035.827011050334
 10
3639.116155910787
 20
1035.826883153227
 10
3639.101893514597
 20
1035.82675040712
 10
3639.087327585997
 20
1035.826610289663
 10
3639.072503756489
 20
1035.826462800857
 10
3639.057470970286
 20
1035.826307940701
 10
3639.041331356138
 20
1035.826135360955
 10
3639.025081092676
 20
1035.825954463035
 10
3639.008790095373
 20
1035.825765246939
  0
ARC
  5
14C0
330
1F
100
AcDbEntity
  8
indusa
100
AcDbCircle
 10
3639.016762837385
 20
1035.393031907011
 30
0.0
 40
0.005
100
AcDbArc
 50
286.2602047082973
 51
354.2528646604329
  0
LINE
  5
14C1
330
1F
100
AcDbEntity
  8
indusa
100
AcDbLine
 10
3639.018162837384
 20
1035.388231907011
 30
0.0
 11
3638.999791608685
 21
1035.382873631973
 31
0.0
  0
LINE
  5
14C3
330
1F
100
AcDbEntity
  8
indusa
100
AcDbLine
 10
3639.029312834959
 20
1035.360233989637
 30
0.0
 11
3639.008191608685
 21
1035.354073631974
 31
0.0
  0
LWPOLYLINE
  5
14C4
330
1F
100
AcDbEntity
  8
indusa
100
AcDbPolyline
 90
       10
 70
   128
 43
0.0
 10
3638.982095445773
 20
1035.356878917791
 10
3638.985683558592
 20
1035.357815238273
 10
3638.989016085221
 20
1035.358491926066
 10
3638.992443848991
 20
1035.358985080981
 10
3638.995415198033
 20
1035.359206063129
 10
3638.998110609067
 20
1035.359157014928
 10
3639.000134698622
 20
1035.358822234647
 10
3639.001389662336
 20
1035.358261387081
 10
3639.00198897224
 20
1035.357482544412
 10
3639.001991608684
 20
1035.357473631973
  0
LINE
  5
14C5
330
1F
100
AcDbEntity
  8
indusa
100
AcDbLine
 10
3639.001991608684
 20
1035.357473631973
 30
0.0
 11
3638.996391608685
 21
1035.376673631973
 31
0.0
  0
ARC
  5
14C6
330
1F
100
AcDbEntity
  8
indusa
100
AcDbCircle
 10
3639.006791608685
 20
1035.358873631973
 30
0.0
 40
0.0049999999999998
100
AcDbArc
 50
196.2602047090686
 51
286.2602047083224
  0
ARC
  5
14C7
330
1F
100
AcDbEntity
  8
indusa
100
AcDbCircle
 10
3639.027912834958
 20
1035.365033989637
 30
0.0
 40
0.0049999999999999
100
AcDbArc
 50
286.2602047083224
 51
348.166189518804
  0
ARC
  5
14C8
330
1F
100
AcDbEntity
  8
indusa
100
AcDbCircle
 10
3639.001191608685
 20
1035.378073631973
 30
0.0
 40
0.0050000000000001
100
AcDbArc
 50
106.2602047082973
 51
196.2602047083349
  0
LINE
  5
14D3
330
1F
100
AcDbEntity
  8
indusa
100
AcDbLine
 10
3638.972511491565
 20
1035.374916931147
 30
0.0
 11
3638.999791608685
 21
1035.382873631973
 31
0.0
  0
LINE
  5
14D6
330
1F
100
AcDbEntity
  8
indusa
100
AcDbLine
 10
3638.928380668259
 20
1035.330795441016
 30
0.0
 11
3639.008191608685
 21
1035.354073631974
 31
0.0
  0
LINE
  5
14D8
330
1F
100
AcDbEntity
  8
indusa
100
AcDbLine
 10
3638.978111491564
 20
1035.355716931147
 30
0.0
 11
3638.982095445773
 21
1035.356878917791
 31
0.0
  0
LWPOLYLINE
  5
14DC
330
1F
100
AcDbEntity
  8
indusa
100
AcDbPolyline
 90
       15
 70
   128
 43
0.0
 10
3639.166050143238
 20
1035.657714401122
 10
3639.150819013636
 20
1035.640483182823
 10
3639.136445602314
 20
1035.622605538385
 10
3639.12294718966
 20
1035.604114534116
 10
3639.110341056059
 20
1035.585043236324
 10
3639.098644481902
 20
1035.565424711315
 10
3639.087874747576
 20
1035.545292025396
 10
3639.078049133469
 20
1035.524678244875
 10
3639.069184919968
 20
1035.503616436059
 10
3639.060948591654
 20
1035.481107174304
 10
3639.053806239714
 20
1035.458180507992
 10
3639.047777732582
 20
1035.434874455698
 10
3639.042710114201
 20
1035.411274869075
 10
3639.03775834094
 20
1035.387641745231
 10
3639.03280656768
 20
1035.364008621387
  0
ARC
  5
14DD
330
1F
100
AcDbEntity
  8
indusa
100
AcDbCircle
 10
3639.825106645301
 20
1035.311675610723
 30
0.0
 40
0.8074275713826773
100
AcDbArc
 50
154.6848746120693
 51
174.2527813599368
  0
LINE
  5
14DF
330
1F
100
AcDbEntity
  8
indusa
100
AcDbLine
 10
3637.440490795705
 20
1035.834567482209
 30
0.0
 11
3637.437782093814
 21
1035.834927469904
 31
0.0
  0
LINE
  5
14E0
330
1F
100
AcDbEntity
  8
indusa
100
AcDbLine
 10
3636.760756466378
 20
1035.834919384558
 30
0.0
 11
3636.75804932243
 21
1035.834567482209
 31
0.0
  0
LWPOLYLINE
  5
1535
330
1F
100
AcDbEntity
  8
indusa
100
AcDbPolyline
 90
        3
 70
   128
 43
0.0
 10
3636.943337098478
 20
1035.667226766798
 10
3636.943524060245
 20
1035.667324842976
 10
3636.943802694446
 20
1035.667460217631
  0
LWPOLYLINE
  5
1536
330
1F
100
AcDbEntity
  8
indusa
100
AcDbPolyline
 90
        2
 70
   128
 43
0.0
 10
3637.255095112407
 20
1035.667284484627
 10
3637.255221431393
 20
1035.66721625384
  0
LWPOLYLINE
  5
1538
330
1F
100
AcDbEntity
  8
indusa
100
AcDbPolyline
 90
        2
 70
   128
 43
0.0
 10
3637.369214647317
 20
1035.843101236564
 10
3637.368955125156
 20
1035.843156907782
  0
LWPOLYLINE
  5
1539
330
1F
100
AcDbEntity
  8
indusa
100
AcDbPolyline
 90
       20
 70
   128
 43
0.0
 10
3636.080843546305
 20
1035.727057195479
 10
3636.080832148744
 20
1035.727209153697
 10
3636.081192615533
 20
1035.727556440891
 10
3636.081971307094
 20
1035.727907500428
 10
3636.083133590797
 20
1035.728237162028
 10
3636.084550855487
 20
1035.728516868737
 10
3636.086240371166
 20
1035.728758291311
 10
3636.088145570066
 20
1035.728951316106
 10
3636.090222884567
 20
1035.729091694187
 10
3636.094294778221
 20
1035.729195310898
 10
3636.094664053248
 20
1035.729194450993
 10
3636.096900491374
 20
1035.729152904407
 10
3636.099063297484
 20
1035.729051341274
 10
3636.101122331002
 20
1035.728889548087
 10
3636.102984354089
 20
1035.72867560448
 10
3636.104837458378
 20
1035.728369461545
 10
3636.106115562657
 20
1035.728064902992
 10
3636.107051234675
 20
1035.727735435902
 10
3636.107613473919
 20
1035.727392028063
 10
3636.107788202695
 20
1035.727056334109
  0
LINE
  5
1553
330
1F
100
AcDbEntity
  8
indusa
100
AcDbLine
 10
3638.815791608685
 20
1035.308373631973
 30
0.0
 11
3638.802191608685
 21
1035.304406965307
 31
0.0
  0
LINE
  5
1554
330
1F
100
AcDbEntity
  8
indusa
100
AcDbLine
 10
3638.815791608685
 20
1035.308373631973
 30
0.0
 11
3638.815791608685
 21
1035.321792346037
 31
0.0
  0
LINE
  5
1555
330
1F
100
AcDbEntity
  8
indusa
100
AcDbLine
 10
3638.807195140449
 20
1035.335032995404
 30
0.0
 11
3638.802191608685
 21
1035.333573631973
 31
0.0
  0
LINE
  5
1556
330
1F
100
AcDbEntity
  8
indusa
100
AcDbLine
 10
3638.802191608685
 20
1035.304406965307
 30
0.0
 11
3638.802191608685
 21
1035.333573631973
 31
0.0
  0
ARC
  5
1557
330
1F
100
AcDbEntity
  8
indusa
100
AcDbCircle
 10
3638.822191608685
 20
1035.335358480343
 30
0.0
 40
0.015
100
AcDbArc
 50
181.2433584676855
 51
244.74379633759
  0
LINE
  5
1558
330
1F
100
AcDbEntity
  8
indusa
100
AcDbLine
 10
3639.023634061232
 20
1035.3689943473
 30
0.0
 11
3639.010191608684
 21
1035.365073631973
 31
0.0
  0
LINE
  5
1559
330
1F
100
AcDbEntity
  8
indusa
100
AcDbLine
 10
3639.010191608685
 20
1035.365073631973
 30
0.0
 11
3639.007391608685
 21
1035.374673631973
 31
0.0
  0
LINE
  5
155A
330
1F
100
AcDbEntity
  8
indusa
100
AcDbLine
 10
3639.020962837385
 20
1035.378631907011
 30
0.0
 11
3639.007391608685
 21
1035.374673631973
 31
0.0
  0
ARC
  5
155C
330
1F
100
AcDbEntity
  8
indusa
100
AcDbCircle
 10
3639.016762837385
 20
1035.393031907011
 30
0.0
 40
0.015
100
AcDbArc
 50
286.2602047082973
 51
309.1508194900193
  0
ARC
  5
155D
330
1F
100
AcDbEntity
  8
indusa
100
AcDbCircle
 10
3639.825106645301
 20
1035.311675610723
 30
0.0
 40
0.7974275713826775
100
AcDbArc
 50
155.0483054587067
 51
171.4628530785067
  0
LINE
  5
155E
330
1F
100
AcDbEntity
  8
indusa
100
AcDbLine
 10
3639.102107957267
 20
1035.648073631974
 30
0.0
 11
3639.14418177999
 21
1035.648073631974
 31
0.0
  0
LWPOLYLINE
  5
1560
330
1F
100
AcDbEntity
  8
indusa
100
AcDbPolyline
 90
        2
 70
   128
 43
0.0
 10
3639.026233295691
 20
1035.381399606316
 10
3639.023634061232
 20
1035.3689943473
  0
LWPOLYLINE
  5
1561
330
1F
100
AcDbEntity
  8
indusa
100
AcDbPolyline
 90
       13
 70
   128
 43
0.0
 10
3639.14418177999
 20
1035.648073631974
 10
3639.143171830454
 20
1035.64693106006
 10
3639.128506105456
 20
1035.628689835964
 10
3639.114733183936
 20
1035.609822791583
 10
3639.101870713699
 20
1035.590363692704
 10
3639.089936321698
 20
1035.570346278648
 10
3639.078947624955
 20
1035.54980426958
 10
3639.068922239463
 20
1035.528771375969
 10
3639.059875635816
 20
1035.507276199161
 10
3639.051473710416
 20
1035.484314373108
 10
3639.044186098054
 20
1035.460921426608
 10
3639.038044279081
 20
1035.437177313676
 10
3639.036514710694
 20
1035.43005420792
  0
LINE
  5
1562
330
1F
100
AcDbEntity
  8
indusa
100
AcDbLine
 10
3639.162219683468
 20
1035.668254721787
 30
0.0
 11
3639.158268494224
 21
1035.679110525015
 31
0.0
  0
ARC
  5
1564
330
1F
100
AcDbEntity
  8
indusa
100
AcDbCircle
 10
3639.082191608685
 20
1035.912970183697
 30
0.0
 40
0.2418965517241384
100
AcDbArc
 50
270.0
 51
284.5392030138452
  0
ARC
  5
1565
330
1F
100
AcDbEntity
  8
indusa
100
AcDbCircle
 10
3639.499208181886
 20
1035.348779183223
 30
0.0
 40
0.4643553249470156
100
AcDbArc
 50
133.0000000000062
 51
136.5281579970432
  0
LINE
  5
1566
330
1F
100
AcDbEntity
  8
indusa
100
AcDbLine
 10
3639.192485736354
 20
1035.697681663015
 30
0.0
 11
3639.182518611786
 21
1035.68838716899
 31
0.0
  0
ARC
  5
1567
330
1F
100
AcDbEntity
  8
indusa
100
AcDbCircle
 10
3639.144173104912
 20
1035.673980222865
 30
0.0
 40
0.0150000000000005
100
AcDbArc
 50
20.00000000001373
 51
35.65998596544045
  0
ARC
  5
1568
330
1F
100
AcDbEntity
  8
indusa
100
AcDbCircle
 10
3639.082191608685
 20
1035.912970183697
 30
0.0
 40
0.2418965517241384
100
AcDbArc
 50
287.85528986004
 51
297.1264468076327
  0
LINE
  5
156B
330
1F
100
AcDbEntity
  8
indusa
100
AcDbLine
 10
3638.816665446392
 20
1035.836151398963
 30
0.0
 11
3638.808706231509
 21
1035.781073631973
 31
0.0
  0
LINE
  5
156C
330
1F
100
AcDbEntity
  8
indusa
100
AcDbLine
 10
3638.802191608685
 20
1035.781073631973
 30
0.0
 11
3638.802191608685
 21
1035.839150571522
 31
0.0
  0
LINE
  5
156D
330
1F
100
AcDbEntity
  8
indusa
100
AcDbLine
 10
3638.802191608685
 20
1035.781073631973
 30
0.0
 11
3638.808706231508
 21
1035.781073631973
 31
0.0
  0
LINE
  5
156E
330
1F
100
AcDbEntity
  8
indusa
100
AcDbLine
 10
3638.802191608685
 20
1035.839150571522
 30
0.0
 11
3638.817421029758
 21
1035.839150571522
 31
0.0
  0
ARC
  5
156F
330
1F
100
AcDbEntity
  8
indusa
100
AcDbCircle
 10
3638.831511236804
 20
1035.834006053527
 30
0.0
 40
0.0150000000000003
100
AcDbArc
 50
159.9422039652606
 51
171.777186109388
  0
ARC
  5
15DE
330
1F
100
AcDbEntity
  8
indusa
100
AcDbCircle
 10
3638.992114860599
 20
1035.717165370733
 30
0.0
 40
0.1098666524640163
100
AcDbArc
 50
81.27587605659412
 51
94.36385636541087
  0
ENDSEC
  0
SECTION
  2
OBJECTS
  0
DICTIONARY
  5
C
330
0
100
AcDbDictionary
281
     1
  3
ACAD_COLOR
350
160E
  3
ACAD_GROUP
350
D
  3
ACAD_LAYOUT
350
1A
  3
ACAD_MATERIAL
350
15E1
  3
ACAD_MLEADERSTYLE
350
1623
  3
ACAD_MLINESTYLE
350
17
  3
ACAD_PLOTSETTINGS
350
19
  3
ACAD_PLOTSTYLENAME
350
E
  3
ACAD_SCALELIST
350
1611
  3
ACAD_TABLESTYLE
350
160F
  3
ACAD_VISUALSTYLE
350
15FA
  3
ACDB_RECOMPOSE_DATA
350
1651
  3
AcDbVariableDictionary
350
3D
  3
ASE_INDEX_DICTIONARY
350
1517
  3
DWGPROPS
350
1652
  0
DICTIONARY
  5
1629
330
10
100
AcDbDictionary
280
     1
281
     1
  3
ADSK_XREC_LAYER_RECONCILED
360
162A
  0
DICTIONARY
  5
162B
330
2F
100
AcDbDictionary
280
     1
281
     1
  3
ADSK_XREC_LAYER_RECONCILED
360
162C
  0
DICTIONARY
  5
162D
330
30
100
AcDbDictionary
280
     1
281
     1
  3
ADSK_XREC_LAYER_RECONCILED
360
162E
  0
DICTIONARY
  5
162F
330
31
100
AcDbDictionary
280
     1
281
     1
  3
ADSK_XREC_LAYER_RECONCILED
360
1630
  0
DICTIONARY
  5
1631
330
32
100
AcDbDictionary
280
     1
281
     1
  3
ADSK_XREC_LAYER_RECONCILED
360
1632
  0
DICTIONARY
  5
1633
330
33
100
AcDbDictionary
280
     1
281
     1
  3
ADSK_XREC_LAYER_RECONCILED
360
1634
  0
DICTIONARY
  5
1635
330
34
100
AcDbDictionary
280
     1
281
     1
  3
ADSK_XREC_LAYER_RECONCILED
360
1636
  0
DICTIONARY
  5
1637
330
35
100
AcDbDictionary
280
     1
281
     1
  3
ADSK_XREC_LAYER_RECONCILED
360
1638
  0
DICTIONARY
  5
1639
330
36
100
AcDbDictionary
280
     1
281
     1
  3
ADSK_XREC_LAYER_RECONCILED
360
163A
  0
DICTIONARY
  5
163B
330
37
100
AcDbDictionary
280
     1
281
     1
  3
ADSK_XREC_LAYER_RECONCILED
360
163C
  0
DICTIONARY
  5
163D
330
5D6
100
AcDbDictionary
280
     1
281
     1
  3
ADSK_XREC_LAYER_RECONCILED
360
163E
  0
DICTIONARY
  5
163F
330
8AF
100
AcDbDictionary
280
     1
281
     1
  3
ADSK_XREC_LAYER_RECONCILED
360
1640
  0
DICTIONARY
  5
1641
330
8F8
100
AcDbDictionary
280
     1
281
     1
  3
ADSK_XREC_LAYER_RECONCILED
360
1642
  0
DICTIONARY
  5
1643
330
91D
100
AcDbDictionary
280
     1
281
     1
  3
ADSK_XREC_LAYER_RECONCILED
360
1644
  0
DICTIONARY
  5
1645
330
B5B
100
AcDbDictionary
280
     1
281
     1
  3
ADSK_XREC_LAYER_RECONCILED
360
1646
  0
DICTIONARY
  5
1647
330
14E1
100
AcDbDictionary
280
     1
281
     1
  3
ADSK_XREC_LAYER_RECONCILED
360
1648
  0
DICTIONARY
  5
160E
102
{ACAD_REACTORS
330
C
102
}
330
C
100
AcDbDictionary
281
     1
  0
DICTIONARY
  5
D
102
{ACAD_REACTORS
330
C
102
}
330
C
100
AcDbDictionary
281
     1
  0
DICTIONARY
  5
1A
102
{ACAD_REACTORS
330
C
102
}
330
C
100
AcDbDictionary
281
     1
  3
Layout1
350
1E
  3
Layout2
350
26
  3
Model
350
22
  0
DICTIONARY
  5
15E1
102
{ACAD_REACTORS
330
C
102
}
330
C
100
AcDbDictionary
281
     1
  3
ByBlock
350
15EA
  3
ByLayer
350
15E2
  3
Global
350
15F2
  0
DICTIONARY
  5
1623
102
{ACAD_REACTORS
330
C
102
}
330
C
100
AcDbDictionary
281
     1
  3
Standard
350
1624
  0
DICTIONARY
  5
17
102
{ACAD_REACTORS
330
C
102
}
330
C
100
AcDbDictionary
281
     1
  3
Standard
350
18
  0
DICTIONARY
  5
19
102
{ACAD_REACTORS
330
C
102
}
330
C
100
AcDbDictionary
281
     1
  0
ACDBDICTIONARYWDFLT
  5
E
102
{ACAD_REACTORS
330
C
102
}
330
C
100
AcDbDictionary
281
     1
  3
Normal
350
F
100
AcDbDictionaryWithDefault
340
F
  0
DICTIONARY
  5
1611
102
{ACAD_REACTORS
330
C
102
}
330
C
100
AcDbDictionary
281
     1
  3
A0
350
1612
  3
A1
350
1613
  3
A2
350
1614
  3
A3
350
1615
  3
A4
350
1616
  3
A5
350
1617
  3
A6
350
1618
  3
A7
350
1619
  3
A8
350
161A
  3
A9
350
161B
  3
B0
350
161C
  3
B1
350
161D
  3
B2
350
161E
  3
B3
350
161F
  3
B4
350
1620
  3
B5
350
1621
  3
B6
350
1622
  0
DICTIONARY
  5
160F
102
{ACAD_REACTORS
330
C
102
}
330
C
100
AcDbDictionary
281
     1
  3
Standard
350
1610
  0
DICTIONARY
  5
15FA
102
{ACAD_REACTORS
330
C
102
}
330
C
100
AcDbDictionary
281
     1
  3
2dWireframe
350
1600
  3
3D Hidden
350
1602
  3
3dWireframe
350
1601
  3
Basic
350
15FF
  3
Brighten
350
1606
  3
ColorChange
350
160A
  3
Conceptual
350
1603
  3
Dim
350
1605
  3
EdgeColorOff
350
160D
  3
Facepattern
350
1609
  3
Flat
350
15FB
  3
FlatWithEdges
350
15FC
  3
Gouraud
350
15FD
  3
GouraudWithEdges
350
15FE
  3
JitterOff
350
160B
  3
Linepattern
350
1608
  3
OverhangOff
350
160C
  3
Realistic
350
1604
  3
Thicken
350
1607
  0
XRECORD
  5
1651
102
{ACAD_REACTORS
330
C
102
}
330
C
100
AcDbXrecord
280
     1
 90
        1
330
1610
  0
DICTIONARY
  5
3D
102
{ACAD_REACTORS
330
C
102
}
330
C
100
AcDbDictionary
281
     1
  3
CANNOSCALE
350
164B
  3
CMLEADERSTYLE
350
164A
  3
CTABLESTYLE
350
1649
  3
DIMASSOC
350
3F
  3
HIDETEXT
350
3E
  3
INDEXCTL
350
164D
  3
SORTENTS
350
164C
  3
XCLIPFRAME
350
164E
  0
DICTIONARY
  5
1517
102
{ACAD_REACTORS
330
C
102
}
330
C
100
AcDbDictionary
281
     1
  3
ASEBlockHierarchyIndexRecord
350
1518
1001
DCO15
1040
1492152640.671
  0
XRECORD
  5
1652
102
{ACAD_REACTORS
330
C
102
}
330
C
100
AcDbXrecord
280
     1
  1
DWGPROPS COOKIE
  2

  3

  4

  6

  7

  8
Julio
  9

300
=
301
=
302
=
303
=
304
=
305
=
306
=
307
=
308
=
309
=
 40
0.0250350810185185
 41
2453073.513811666
 42
2456146.461208044
  1

 90
        0
  0
XRECORD
  5
162A
102
{ACAD_REACTORS
330
1629
102
}
330
1629
100
AcDbXrecord
280
     1
290
     1
  0
XRECORD
  5
162C
102
{ACAD_REACTORS
330
162B
102
}
330
162B
100
AcDbXrecord
280
     1
290
     1
  0
XRECORD
  5
162E
102
{ACAD_REACTORS
330
162D
102
}
330
162D
100
AcDbXrecord
280
     1
290
     1
  0
XRECORD
  5
1630
102
{ACAD_REACTORS
330
162F
102
}
330
162F
100
AcDbXrecord
280
     1
290
     1
  0
XRECORD
  5
1632
102
{ACAD_REACTORS
330
1631
102
}
330
1631
100
AcDbXrecord
280
     1
290
     1
  0
XRECORD
  5
1634
102
{ACAD_REACTORS
330
1633
102
}
330
1633
100
AcDbXrecord
280
     1
290
     1
  0
XRECORD
  5
1636
102
{ACAD_REACTORS
330
1635
102
}
330
1635
100
AcDbXrecord
280
     1
290
     1
  0
XRECORD
  5
1638
102
{ACAD_REACTORS
330
1637
102
}
330
1637
100
AcDbXrecord
280
     1
290
     1
  0
XRECORD
  5
163A
102
{ACAD_REACTORS
330
1639
102
}
330
1639
100
AcDbXrecord
280
     1
290
     1
  0
XRECORD
  5
163C
102
{ACAD_REACTORS
330
163B
102
}
330
163B
100
AcDbXrecord
280
     1
290
     1
  0
XRECORD
  5
163E
102
{ACAD_REACTORS
330
163D
102
}
330
163D
100
AcDbXrecord
280
     1
290
     1
  0
XRECORD
  5
1640
102
{ACAD_REACTORS
330
163F
102
}
330
163F
100
AcDbXrecord
280
     1
290
     1
  0
XRECORD
  5
1642
102
{ACAD_REACTORS
330
1641
102
}
330
1641
100
AcDbXrecord
280
     1
290
     1
  0
XRECORD
  5
1644
102
{ACAD_REACTORS
330
1643
102
}
330
1643
100
AcDbXrecord
280
     1
290
     1
  0
XRECORD
  5
1646
102
{ACAD_REACTORS
330
1645
102
}
330
1645
100
AcDbXrecord
280
     1
290
     1
  0
XRECORD
  5
1648
102
{ACAD_REACTORS
330
1647
102
}
330
1647
100
AcDbXrecord
280
     1
290
     1
  0
LAYOUT
  5
1E
102
{ACAD_XDICTIONARY
360
1653
102
}
102
{ACAD_REACTORS
330
1A
102
}
330
1A
100
AcDbPlotSettings
  1

  2
Ploter HP500
  4

  6

 40
0.0
 41
0.0
 42
0.0
 43
0.0
 44
0.0
 45
0.0
 46
0.0
 47
0.0
 48
0.0
 49
0.0
140
0.0
141
0.0
142
1.0
143
1.0
 70
   688
 72
     0
 73
     0
 74
     5
  7
monochrome.ctb
 75
    16
147
1.0
148
0.0
149
0.0
100
AcDbLayout
  1
Layout1
 70
     1
 71
     1
 10
0.0
 20
0.0
 11
420.0
 21
297.0
 12
0.0
 22
0.0
 32
0.0
 14
1.000000000000000E+20
 24
1.000000000000000E+20
 34
1.000000000000000E+20
 15
-1.000000000000000E+20
 25
-1.000000000000000E+20
 35
-1.000000000000000E+20
146
0.0
 13
0.0
 23
0.0
 33
0.0
 16
1.0
 26
0.0
 36
0.0
 17
0.0
 27
1.0
 37
0.0
 76
     0
330
1B
  0
LAYOUT
  5
26
102
{ACAD_XDICTIONARY
360
1657
102
}
102
{ACAD_REACTORS
330
1A
102
}
330
1A
100
AcDbPlotSettings
  1

  2
Ploter HP500
  4

  6

 40
0.0
 41
0.0
 42
0.0
 43
0.0
 44
0.0
 45
0.0
 46
0.0
 47
0.0
 48
0.0
 49
0.0
140
0.0
141
0.0
142
1.0
143
1.0
 70
   688
 72
     0
 73
     0
 74
     5
  7
monochrome.ctb
 75
    16
147
1.0
148
0.0
149
0.0
100
AcDbLayout
  1
Layout2
 70
     1
 71
     2
 10
0.0
 20
0.0
 11
12.0
 21
9.0
 12
0.0
 22
0.0
 32
0.0
 14
0.0
 24
0.0
 34
0.0
 15
0.0
 25
0.0
 35
0.0
146
0.0
 13
0.0
 23
0.0
 33
0.0
 16
1.0
 26
0.0
 36
0.0
 17
0.0
 27
1.0
 37
0.0
 76
     0
330
23
  0
LAYOUT
  5
22
102
{ACAD_XDICTIONARY
360
1655
102
}
102
{ACAD_REACTORS
330
1A
102
}
330
1A
100
AcDbPlotSettings
  1

  2
Ploter HP500
  4
User268
  6

 40
4.995333194732666
 41
16.97565841674804
 42
4.995330810546875
 43
16.97567749023437
 44
209.9733276367187
 45
296.9259948730469
 46
0.0
 47
0.0
 48
0.0
 49
0.0
140
0.0
141
0.0
142
1.0
143
1.0
 70
 11952
 72
     1
 73
     1
 74
     0
  7

 75
     0
147
1.0
148
-427.5957866592534
149
7.362384574453926
100
AcDbLayout
  1
Model
 70
     1
 71
     0
 10
0.0
 20
0.0
 11
12.0
 21
9.0
 12
0.0
 22
0.0
 32
0.0
 14
0.0
 24
0.0
 34
0.0
 15
0.0
 25
0.0
 35
0.0
146
0.0
 13
0.0
 23
0.0
 33
0.0
 16
1.0
 26
0.0
 36
0.0
 17
0.0
 27
1.0
 37
0.0
 76
     0
330
1F
331
15DF
  0
MATERIAL
  5
15EA
102
{ACAD_XDICTIONARY
360
15EB
102
}
102
{ACAD_REACTORS
330
15E1
102
}
330
15E1
100
AcDbMaterial
  1
ByBlock
 72
     0
 43
0.0008202099737533
 43
0.0
 43
0.0
 43
0.0
 43
0.0
 43
0.0008202099737533
 43
0.0
 43
0.0
 43
0.0
 43
0.0
 43
1.0
 43
0.0
 43
0.0
 43
0.0
 43
0.0
 43
1.0
 77
     0
 47
0.0008202099737533
 47
0.0
 47
0.0
 47
0.0
 47
0.0
 47
0.0008202099737533
 47
0.0
 47
0.0
 47
0.0
 47
0.0
 47
1.0
 47
0.0
 47
0.0
 47
0.0
 47
0.0
 47
1.0
171
     0
 49
0.0008202099737533
 49
0.0
 49
0.0
 49
0.0
 49
0.0
 49
0.0008202099737533
 49
0.0
 49
0.0
 49
0.0
 49
0.0
 49
1.0
 49
0.0
 49
0.0
 49
0.0
 49
0.0
 49
1.0
175
     0
142
0.0008202099737533
142
0.0
142
0.0
142
0.0
142
0.0
142
0.0008202099737533
142
0.0
142
0.0
142
0.0
142
0.0
142
1.0
142
0.0
142
0.0
142
0.0
142
0.0
142
1.0
179
     0
144
0.0008202099737533
144
0.0
144
0.0
144
0.0
144
0.0
144
0.0008202099737533
144
0.0
144
0.0
144
0.0
144
0.0
144
1.0
144
0.0
144
0.0
144
0.0
144
0.0
144
1.0
147
0.0008202099737533
147
0.0
147
0.0
147
0.0
147
0.0
147
0.0008202099737533
147
0.0
147
0.0
147
0.0
147
0.0
147
1.0
147
0.0
147
0.0
147
0.0
147
0.0
147
1.0
  0
MATERIAL
  5
15E2
102
{ACAD_XDICTIONARY
360
15E3
102
}
102
{ACAD_REACTORS
330
15E1
102
}
330
15E1
100
AcDbMaterial
  1
ByLayer
 72
     0
 43
0.0008202099737533
 43
0.0
 43
0.0
 43
0.0
 43
0.0
 43
0.0008202099737533
 43
0.0
 43
0.0
 43
0.0
 43
0.0
 43
1.0
 43
0.0
 43
0.0
 43
0.0
 43
0.0
 43
1.0
 77
     0
 47
0.0008202099737533
 47
0.0
 47
0.0
 47
0.0
 47
0.0
 47
0.0008202099737533
 47
0.0
 47
0.0
 47
0.0
 47
0.0
 47
1.0
 47
0.0
 47
0.0
 47
0.0
 47
0.0
 47
1.0
171
     0
 49
0.0008202099737533
 49
0.0
 49
0.0
 49
0.0
 49
0.0
 49
0.0008202099737533
 49
0.0
 49
0.0
 49
0.0
 49
0.0
 49
1.0
 49
0.0
 49
0.0
 49
0.0
 49
0.0
 49
1.0
175
     0
142
0.0008202099737533
142
0.0
142
0.0
142
0.0
142
0.0
142
0.0008202099737533
142
0.0
142
0.0
142
0.0
142
0.0
142
1.0
142
0.0
142
0.0
142
0.0
142
0.0
142
1.0
179
     0
144
0.0008202099737533
144
0.0
144
0.0
144
0.0
144
0.0
144
0.0008202099737533
144
0.0
144
0.0
144
0.0
144
0.0
144
1.0
144
0.0
144
0.0
144
0.0
144
0.0
144
1.0
147
0.0008202099737533
147
0.0
147
0.0
147
0.0
147
0.0
147
0.0008202099737533
147
0.0
147
0.0
147
0.0
147
0.0
147
1.0
147
0.0
147
0.0
147
0.0
147
0.0
147
1.0
  0
MATERIAL
  5
15F2
102
{ACAD_XDICTIONARY
360
15F3
102
}
102
{ACAD_REACTORS
330
15E1
102
}
330
15E1
100
AcDbMaterial
  1
Global
 72
     0
 43
0.0008202099737533
 43
0.0
 43
0.0
 43
0.0
 43
0.0
 43
0.0008202099737533
 43
0.0
 43
0.0
 43
0.0
 43
0.0
 43
1.0
 43
0.0
 43
0.0
 43
0.0
 43
0.0
 43
1.0
 77
     0
 47
0.0008202099737533
 47
0.0
 47
0.0
 47
0.0
 47
0.0
 47
0.0008202099737533
 47
0.0
 47
0.0
 47
0.0
 47
0.0
 47
1.0
 47
0.0
 47
0.0
 47
0.0
 47
0.0
 47
1.0
171
     0
 49
0.0008202099737533
 49
0.0
 49
0.0
 49
0.0
 49
0.0
 49
0.0008202099737533
 49
0.0
 49
0.0
 49
0.0
 49
0.0
 49
1.0
 49
0.0
 49
0.0
 49
0.0
 49
0.0
 49
1.0
175
     0
142
0.0008202099737533
142
0.0
142
0.0
142
0.0
142
0.0
142
0.0008202099737533
142
0.0
142
0.0
142
0.0
142
0.0
142
1.0
142
0.0
142
0.0
142
0.0
142
0.0
142
1.0
179
     0
144
0.0008202099737533
144
0.0
144
0.0
144
0.0
144
0.0
144
0.0008202099737533
144
0.0
144
0.0
144
0.0
144
0.0
144
1.0
144
0.0
144
0.0
144
0.0
144
0.0
144
1.0
147
0.0008202099737533
147
0.0
147
0.0
147
0.0
147
0.0
147
0.0008202099737533
147
0.0
147
0.0
147
0.0
147
0.0
147
1.0
147
0.0
147
0.0
147
0.0
147
0.0
147
1.0
  0
MLEADERSTYLE
  5
1624
102
{ACAD_REACTORS
330
1623
102
}
330
1623
100
AcDbMLeaderStyle
170
     2
171
     1
172
     0
 90
        2
 40
0.0
 41
0.0
173
     1
 91
-1056964608
340
14
 92
       -2
290
     1
 42
2.0
291
     1
 43
0.36
  3
Standard
 44
4.0
300

342
11
174
     1
178
     6
175
     1
176
     0
 93
-1056964608
 45
4.0
292
     0
297
     0
 46
4.0
 94
-1056964608
 47
1.0
 49
1.0
140
1.0
293
     1
141
0.0
294
     1
177
     0
142
1.0
295
     0
296
     0
143
0.125
1001
ACAD_MLEADERVER
1070
     2
  0
MLINESTYLE
  5
18
102
{ACAD_REACTORS
330
17
102
}
330
17
100
AcDbMlineStyle
  2
STANDARD
 70
     0
  3

 62
   256
 51
90.0
 52
90.0
 71
     2
 49
0.5
 62
   256
  6
BYLAYER
 49
-0.5
 62
   256
  6
BYLAYER
  0
ACDBPLACEHOLDER
  5
F
102
{ACAD_REACTORS
330
E
102
}
330
E
  0
SCALE
  5
1612
102
{ACAD_REACTORS
330
1611
102
}
330
1611
100
AcDbScale
 70
     0
300
1:1
140
1.0
141
1.0
290
     1
  0
SCALE
  5
1613
102
{ACAD_REACTORS
330
1611
102
}
330
1611
100
AcDbScale
 70
     0
300
1:2
140
1.0
141
2.0
290
     0
  0
SCALE
  5
1614
102
{ACAD_REACTORS
330
1611
102
}
330
1611
100
AcDbScale
 70
     0
300
1:4
140
1.0
141
4.0
290
     0
  0
SCALE
  5
1615
102
{ACAD_REACTORS
330
1611
102
}
330
1611
100
AcDbScale
 70
     0
300
1:5
140
1.0
141
5.0
290
     0
  0
SCALE
  5
1616
102
{ACAD_REACTORS
330
1611
102
}
330
1611
100
AcDbScale
 70
     0
300
1:8
140
1.0
141
8.0
290
     0
  0
SCALE
  5
1617
102
{ACAD_REACTORS
330
1611
102
}
330
1611
100
AcDbScale
 70
     0
300
1:10
140
1.0
141
10.0
290
     0
  0
SCALE
  5
1618
102
{ACAD_REACTORS
330
1611
102
}
330
1611
100
AcDbScale
 70
     0
300
1:16
140
1.0
141
16.0
290
     0
  0
SCALE
  5
1619
102
{ACAD_REACTORS
330
1611
102
}
330
1611
100
AcDbScale
 70
     0
300
1:20
140
1.0
141
20.0
290
     0
  0
SCALE
  5
161A
102
{ACAD_REACTORS
330
1611
102
}
330
1611
100
AcDbScale
 70
     0
300
1:30
140
1.0
141
30.0
290
     0
  0
SCALE
  5
161B
102
{ACAD_REACTORS
330
1611
102
}
330
1611
100
AcDbScale
 70
     0
300
1:40
140
1.0
141
40.0
290
     0
  0
SCALE
  5
161C
102
{ACAD_REACTORS
330
1611
102
}
330
1611
100
AcDbScale
 70
     0
300
1:50
140
1.0
141
50.0
290
     0
  0
SCALE
  5
161D
102
{ACAD_REACTORS
330
1611
102
}
330
1611
100
AcDbScale
 70
     0
300
1:100
140
1.0
141
100.0
290
     0
  0
SCALE
  5
161E
102
{ACAD_REACTORS
330
1611
102
}
330
1611
100
AcDbScale
 70
     0
300
2:1
140
2.0
141
1.0
290
     0
  0
SCALE
  5
161F
102
{ACAD_REACTORS
330
1611
102
}
330
1611
100
AcDbScale
 70
     0
300
4:1
140
4.0
141
1.0
290
     0
  0
SCALE
  5
1620
102
{ACAD_REACTORS
330
1611
102
}
330
1611
100
AcDbScale
 70
     0
300
8:1
140
8.0
141
1.0
290
     0
  0
SCALE
  5
1621
102
{ACAD_REACTORS
330
1611
102
}
330
1611
100
AcDbScale
 70
     0
300
10:1
140
10.0
141
1.0
290
     0
  0
SCALE
  5
1622
102
{ACAD_REACTORS
330
1611
102
}
330
1611
100
AcDbScale
 70
     0
300
100:1
140
100.0
141
1.0
290
     0
  0
TABLESTYLE
  5
1610
102
{ACAD_XDICTIONARY
360
164F
102
}
102
{ACAD_REACTORS
330
160F
102
}
330
160F
100
AcDbTableStyle
  3
Standard
 70
     0
 71
     0
 40
1.5
 41
1.5
280
     0
281
     0
  7
Standard
140
4.5
170
     2
 62
     0
 63
     7
283
     0
274
    -2
284
     1
 64
     0
275
    -2
285
     1
 65
     0
276
    -2
286
     1
 66
     0
277
    -2
287
     1
 67
     0
278
    -2
288
     1
 68
     0
279
    -2
289
     1
 69
     0
  7
Standard
140
6.0
170
     5
 62
     0
 63
     7
283
     0
274
    -2
284
     1
 64
     0
275
    -2
285
     1
 65
     0
276
    -2
286
     1
 66
     0
277
    -2
287
     1
 67
     0
278
    -2
288
     1
 68
     0
279
    -2
289
     1
 69
     0
  7
Standard
140
4.5
170
     5
 62
     0
 63
     7
283
     0
274
    -2
284
     1
 64
     0
275
    -2
285
     1
 65
     0
276
    -2
286
     1
 66
     0
277
    -2
287
     1
 67
     0
278
    -2
288
     1
 68
     0
279
    -2
289
     1
 69
     0
  0
VISUALSTYLE
  5
1600
102
{ACAD_XDICTIONARY
360
1666
102
}
102
{ACAD_REACTORS
330
15FA
102
}
330
15FA
100
AcDbVisualStyle
  2
2dWireframe
 70
     4
 71
     0
 72
     2
 73
     0
 90
        0
 40
-0.6
 41
-30.0
 62
     5
 63
     7
 74
     1
 91
        4
 64
     7
 65
   257
 75
     1
175
     1
 42
1.0
 92
        0
 66
   257
 43
1.0
 76
     1
 77
     6
 78
     2
 67
     7
 79
     5
170
     0
171
     0
290
     0
174
     0
 93
        1
 44
0.0
173
     0
291
     0
 45
0.0
1001
ACAD
1000
AcDbSavedByObjectVersion
1070
     0
  0
VISUALSTYLE
  5
1602
102
{ACAD_XDICTIONARY
360
166A
102
}
102
{ACAD_REACTORS
330
15FA
102
}
330
15FA
100
AcDbVisualStyle
  2
3D Hidden
 70
     6
 71
     1
 72
     2
 73
     2
 90
        0
 40
-0.6
 41
-30.0
 62
     5
 63
     7
 74
     2
 91
        2
 64
     7
 65
   257
 75
     2
175
     1
 42
179.0
 92
        0
 66
   257
 43
1.0
 76
     1
 77
     6
 78
     2
 67
     7
 79
     3
170
     0
171
     0
290
     0
174
     0
 93
        1
 44
0.0
173
     0
291
     0
 45
0.0
1001
ACAD
1000
AcDbSavedByObjectVersion
1070
     0
  0
VISUALSTYLE
  5
1601
102
{ACAD_XDICTIONARY
360
1668
102
}
102
{ACAD_REACTORS
330
15FA
102
}
330
15FA
100
AcDbVisualStyle
  2
3dWireframe
 70
     5
 71
     0
 72
     2
 73
     0
 90
        0
 40
-0.6
 41
-30.0
 62
     5
 63
     7
 74
     1
 91
        4
 64
     7
 65
   257
 75
     1
175
     1
 42
1.0
 92
        0
 66
   257
 43
1.0
 76
     1
 77
     6
 78
     2
 67
     7
 79
     5
170
     0
171
     0
290
     0
174
     0
 93
        1
 44
0.0
173
     0
291
     0
 45
0.0
1001
ACAD
1000
AcDbSavedByObjectVersion
1070
     0
  0
VISUALSTYLE
  5
15FF
102
{ACAD_XDICTIONARY
360
1664
102
}
102
{ACAD_REACTORS
330
15FA
102
}
330
15FA
100
AcDbVisualStyle
  2
Basic
 70
     7
 71
     1
 72
     0
 73
     1
 90
        0
 40
-0.6
 41
-30.0
 62
     5
 63
     7
 74
     0
 91
        4
 64
     7
 65
   257
 75
     1
175
     1
 42
1.0
 92
        8
 66
     7
 43
1.0
 76
     1
 77
     6
 78
     2
 67
     7
 79
     5
170
     0
171
     0
290
     0
174
     0
 93
        1
 44
0.0
173
     0
291
     1
 45
0.0
1001
ACAD
1000
AcDbSavedByObjectVersion
1070
     0
  0
VISUALSTYLE
  5
1606
102
{ACAD_XDICTIONARY
360
1672
102
}
102
{ACAD_REACTORS
330
15FA
102
}
330
15FA
100
AcDbVisualStyle
  2
Brighten
 70
    12
 71
     2
 72
     2
 73
     0
 90
        0
 40
-0.6
 41
-30.0
 62
     5
 63
     7
 74
     1
 91
        4
 64
     7
 65
   257
 75
     1
175
     1
 42
1.0
 92
        8
 66
     7
 43
1.0
 76
     1
 77
     6
 78
     2
 67
     7
 79
     5
170
     0
171
     0
290
     0
174
     0
 93
        1
 44
50.0
173
     0
291
     1
 45
0.0
1001
ACAD
1000
AcDbSavedByObjectVersion
1070
     0
  0
VISUALSTYLE
  5
160A
102
{ACAD_XDICTIONARY
360
167A
102
}
102
{ACAD_REACTORS
330
15FA
102
}
330
15FA
100
AcDbVisualStyle
  2
ColorChange
 70
    16
 71
     2
 72
     2
 73
     3
 90
        0
 40
-0.6
 41
-30.0
 62
     5
 63
     8
 74
     1
 91
        4
 64
     7
 65
   257
 75
     1
175
     1
 42
1.0
 92
        8
 66
     8
 43
1.0
 76
     1
 77
     6
 78
     2
 67
     7
 79
     5
170
     0
171
     0
290
     0
174
     0
 93
        1
 44
0.0
173
     0
291
     1
 45
0.0
1001
ACAD
1000
AcDbSavedByObjectVersion
1070
     0
  0
VISUALSTYLE
  5
1603
102
{ACAD_XDICTIONARY
360
166C
102
}
102
{ACAD_REACTORS
330
15FA
102
}
330
15FA
100
AcDbVisualStyle
  2
Conceptual
 70
     9
 71
     3
 72
     2
 73
     0
 90
        0
 40
-0.6
 41
-30.0
 62
     5
 63
     7
 74
     2
 91
        2
 64
     7
 65
   257
 75
     1
175
     1
 42
179.0
 92
        8
 66
     7
 43
1.0
 76
     1
 77
     6
 78
     2
 67
     7
 79
     3
170
     0
171
     0
290
     0
174
     0
 93
        1
 44
0.0
173
     0
291
     0
 45
0.0
1001
ACAD
1000
AcDbSavedByObjectVersion
1070
     0
  0
VISUALSTYLE
  5
1605
102
{ACAD_XDICTIONARY
360
1670
102
}
102
{ACAD_REACTORS
330
15FA
102
}
330
15FA
100
AcDbVisualStyle
  2
Dim
 70
    11
 71
     2
 72
     2
 73
     0
 90
        0
 40
-0.6
 41
-30.0
 62
     5
 63
     7
 74
     1
 91
        4
 64
     7
 65
   257
 75
     1
175
     1
 42
1.0
 92
        8
 66
     7
 43
1.0
 76
     1
 77
     6
 78
     2
 67
     7
 79
     5
170
     0
171
     0
290
     0
174
     0
 93
        1
 44
-50.0
173
     0
291
     1
 45
0.0
1001
ACAD
1000
AcDbSavedByObjectVersion
1070
     0
  0
VISUALSTYLE
  5
160D
102
{ACAD_XDICTIONARY
360
1680
102
}
102
{ACAD_REACTORS
330
15FA
102
}
330
15FA
100
AcDbVisualStyle
  2
EdgeColorOff
 70
    22
 71
     2
 72
     2
 73
     0
 90
        0
 40
-0.6
 41
-30.0
 62
     5
 63
     7
 74
     1
 91
        4
 64
     7
 65
   257
 75
     1
175
     1
 42
1.0
 92
        8
 66
     7
 43
1.0
 76
     1
 77
     6
 78
     2
 67
     7
 79
     5
170
     0
171
     0
290
     0
174
     0
 93
        1
 44
0.0
173
     0
291
     1
 45
0.0
1001
ACAD
1000
AcDbSavedByObjectVersion
1070
     0
  0
VISUALSTYLE
  5
1609
102
{ACAD_XDICTIONARY
360
1678
102
}
102
{ACAD_REACTORS
330
15FA
102
}
330
15FA
100
AcDbVisualStyle
  2
Facepattern
 70
    15
 71
     2
 72
     2
 73
     0
 90
        0
 40
-0.6
 41
-30.0
 62
     5
 63
     7
 74
     1
 91
        4
 64
     7
 65
   257
 75
     1
175
     1
 42
1.0
 92
        8
 66
     7
 43
1.0
 76
     1
 77
     6
 78
     2
 67
     7
 79
     5
170
     0
171
     0
290
     0
174
     0
 93
        1
 44
0.0
173
     0
291
     1
 45
0.0
1001
ACAD
1000
AcDbSavedByObjectVersion
1070
     0
  0
VISUALSTYLE
  5
15FB
102
{ACAD_XDICTIONARY
360
165C
102
}
102
{ACAD_REACTORS
330
15FA
102
}
330
15FA
100
AcDbVisualStyle
  2
Flat
 70
     0
 71
     2
 72
     1
 73
     1
 90
        2
 40
-0.6
 41
30.0
 62
     5
 63
     7
 74
     0
 91
        4
 64
     7
 65
   257
 75
     1
175
     1
 42
1.0
 92
        8
 66
     7
 43
1.0
 76
     1
 77
     6
 78
     2
 67
     7
 79
     5
170
     0
171
     0
290
     0
174
     0
 93
       13
 44
0.0
173
     0
291
     1
 45
0.0
1001
ACAD
1000
AcDbSavedByObjectVersion
1070
     0
  0
VISUALSTYLE
  5
15FC
102
{ACAD_XDICTIONARY
360
165E
102
}
102
{ACAD_REACTORS
330
15FA
102
}
330
15FA
100
AcDbVisualStyle
  2
FlatWithEdges
 70
     1
 71
     2
 72
     1
 73
     1
 90
        2
 40
-0.6
 41
30.0
 62
     5
 63
     7
 74
     1
 91
        4
 64
     7
 65
   257
 75
     1
175
     1
 42
1.0
 92
        0
 66
   257
 43
1.0
 76
     1
 77
     6
 78
     2
 67
     7
 79
     5
170
     0
171
     0
290
     0
174
     0
 93
       13
 44
0.0
173
     0
291
     1
 45
0.0
1001
ACAD
1000
AcDbSavedByObjectVersion
1070
     0
  0
VISUALSTYLE
  5
15FD
102
{ACAD_XDICTIONARY
360
1660
102
}
102
{ACAD_REACTORS
330
15FA
102
}
330
15FA
100
AcDbVisualStyle
  2
Gouraud
 70
     2
 71
     2
 72
     2
 73
     1
 90
        2
 40
-0.6
 41
30.0
 62
     5
 63
     7
 74
     0
 91
        4
 64
     7
 65
   257
 75
     1
175
     1
 42
1.0
 92
        0
 66
     7
 43
1.0
 76
     1
 77
     6
 78
     2
 67
     7
 79
     5
170
     0
171
     0
290
     0
174
     0
 93
       13
 44
0.0
173
     0
291
     1
 45
0.0
1001
ACAD
1000
AcDbSavedByObjectVersion
1070
     0
  0
VISUALSTYLE
  5
15FE
102
{ACAD_XDICTIONARY
360
1662
102
}
102
{ACAD_REACTORS
330
15FA
102
}
330
15FA
100
AcDbVisualStyle
  2
GouraudWithEdges
 70
     3
 71
     2
 72
     2
 73
     1
 90
        2
 40
-0.6
 41
30.0
 62
     5
 63
     7
 74
     1
 91
        4
 64
     7
 65
   257
 75
     1
175
     1
 42
1.0
 92
        0
 66
   257
 43
1.0
 76
     1
 77
     6
 78
     2
 67
     7
 79
     5
170
     0
171
     0
290
     0
174
     0
 93
       13
 44
0.0
173
     0
291
     1
 45
0.0
1001
ACAD
1000
AcDbSavedByObjectVersion
1070
     0
  0
VISUALSTYLE
  5
160B
102
{ACAD_XDICTIONARY
360
167C
102
}
102
{ACAD_REACTORS
330
15FA
102
}
330
15FA
100
AcDbVisualStyle
  2
JitterOff
 70
    20
 71
     2
 72
     2
 73
     0
 90
        0
 40
-0.6
 41
-30.0
 62
     5
 63
     7
 74
     1
 91
        4
 64
     7
 65
   257
 75
     1
175
     1
 42
1.0
 92
       10
 66
     7
 43
1.0
 76
     1
 77
     6
 78
     2
 67
     7
 79
     5
170
     0
171
     0
290
     0
174
     0
 93
        1
 44
0.0
173
     0
291
     1
 45
0.0
1001
ACAD
1000
AcDbSavedByObjectVersion
1070
     0
  0
VISUALSTYLE
  5
1608
102
{ACAD_XDICTIONARY
360
1676
102
}
102
{ACAD_REACTORS
330
15FA
102
}
330
15FA
100
AcDbVisualStyle
  2
Linepattern
 70
    14
 71
     2
 72
     2
 73
     0
 90
        0
 40
-0.6
 41
-30.0
 62
     5
 63
     7
 74
     1
 91
        4
 64
     7
 65
   257
 75
     7
175
     7
 42
1.0
 92
        8
 66
     7
 43
1.0
 76
     1
 77
     6
 78
     2
 67
     7
 79
     5
170
     0
171
     0
290
     0
174
     0
 93
        1
 44
0.0
173
     0
291
     1
 45
0.0
1001
ACAD
1000
AcDbSavedByObjectVersion
1070
     0
  0
VISUALSTYLE
  5
160C
102
{ACAD_XDICTIONARY
360
167E
102
}
102
{ACAD_REACTORS
330
15FA
102
}
330
15FA
100
AcDbVisualStyle
  2
OverhangOff
 70
    21
 71
     2
 72
     2
 73
     0
 90
        0
 40
-0.6
 41
-30.0
 62
     5
 63
     7
 74
     1
 91
        4
 64
     7
 65
   257
 75
     1
175
     1
 42
1.0
 92
        9
 66
     7
 43
1.0
 76
     1
 77
     6
 78
     2
 67
     7
 79
     5
170
     0
171
     0
290
     0
174
     0
 93
        1
 44
0.0
173
     0
291
     1
 45
0.0
1001
ACAD
1000
AcDbSavedByObjectVersion
1070
     0
  0
VISUALSTYLE
  5
1604
102
{ACAD_XDICTIONARY
360
166E
102
}
102
{ACAD_REACTORS
330
15FA
102
}
330
15FA
100
AcDbVisualStyle
  2
Realistic
 70
     8
 71
     2
 72
     2
 73
     0
 90
        0
 40
-0.6
 41
-30.0
 62
     5
 63
     7
 74
     1
 91
        0
 64
     7
 65
   257
 75
     1
175
     1
 42
1.0
 92
        8
 66
     8
 43
1.0
 76
     1
 77
     6
 78
     2
 67
     7
 79
     5
170
     0
171
     0
290
     0
174
     0
 93
       13
 44
0.0
173
     0
291
     0
 45
0.0
1001
ACAD
1000
AcDbSavedByObjectVersion
1070
     0
  0
VISUALSTYLE
  5
1607
102
{ACAD_XDICTIONARY
360
1674
102
}
102
{ACAD_REACTORS
330
15FA
102
}
330
15FA
100
AcDbVisualStyle
  2
Thicken
 70
    13
 71
     2
 72
     2
 73
     0
 90
        0
 40
-0.6
 41
-30.0
 62
     5
 63
     7
 74
     1
 91
        4
 64
     7
 65
   257
 75
     1
175
     1
 42
1.0
 92
       12
 66
     7
 43
1.0
 76
     1
 77
     6
 78
     2
 67
     7
 79
     5
170
     0
171
     0
290
     0
174
     0
 93
        1
 44
0.0
173
     0
291
     1
 45
0.0
1001
ACAD
1000
AcDbSavedByObjectVersion
1070
     0
  0
DICTIONARYVAR
  5
164B
102
{ACAD_REACTORS
330
3D
102
}
330
3D
100
DictionaryVariables
280
     0
  1
1:1
  0
DICTIONARYVAR
  5
164A
102
{ACAD_REACTORS
330
3D
102
}
330
3D
100
DictionaryVariables
280
     0
  1
STANDARD
  0
DICTIONARYVAR
  5
1649
102
{ACAD_REACTORS
330
3D
102
}
330
3D
100
DictionaryVariables
280
     0
  1
STANDARD
  0
DICTIONARYVAR
  5
3F
102
{ACAD_REACTORS
330
3D
102
}
330
3D
100
DictionaryVariables
280
     0
  1
2
  0
DICTIONARYVAR
  5
3E
102
{ACAD_REACTORS
330
3D
102
}
330
3D
100
DictionaryVariables
280
     0
  1
1
  0
DICTIONARYVAR
  5
164D
102
{ACAD_REACTORS
330
3D
102
}
330
3D
100
DictionaryVariables
280
     0
  1
0
  0
DICTIONARYVAR
  5
164C
102
{ACAD_REACTORS
330
3D
102
}
330
3D
100
DictionaryVariables
280
     0
  1
127
  0
DICTIONARYVAR
  5
164E
102
{ACAD_REACTORS
330
3D
102
}
330
3D
100
DictionaryVariables
280
     0
  1
2
  0
XRECORD
  5
1518
102
{ACAD_REACTORS
330
1517
102
}
330
1517
100
AcDbXrecord
280
     1
330
0
  0
DICTIONARY
  5
1653
330
1E
100
AcDbDictionary
280
     1
281
     1
  3
ACAD_XREC_ROUNDTRIP
360
1654
  0
DICTIONARY
  5
1657
330
26
100
AcDbDictionary
280
     1
281
     1
  3
ACAD_XREC_ROUNDTRIP
360
1658
  0
DICTIONARY
  5
1655
330
22
100
AcDbDictionary
280
     1
281
     1
  3
ACAD_XREC_ROUNDTRIP
360
1656
  0
DICTIONARY
  5
15EB
330
15EA
100
AcDbDictionary
280
     1
281
     1
  3
ACAD_XREC_ROUNDTRIP
360
165A
  3
BUMPTILE
360
15ED
  3
DIFFUSETILE
360
15EC
  3
OPACITYTILE
360
15F0
  3
REFLECTIONTILE
360
15EF
  3
REFRACTIONTILE
360
15F1
  3
SPECULARTILE
360
15EE
  0
DICTIONARY
  5
15E3
330
15E2
100
AcDbDictionary
280
     1
281
     1
  3
ACAD_XREC_ROUNDTRIP
360
1659
  3
BUMPTILE
360
15E5
  3
DIFFUSETILE
360
15E4
  3
OPACITYTILE
360
15E8
  3
REFLECTIONTILE
360
15E7
  3
REFRACTIONTILE
360
15E9
  3
SPECULARTILE
360
15E6
  0
DICTIONARY
  5
15F3
330
15F2
100
AcDbDictionary
280
     1
281
     1
  3
ACAD_XREC_ROUNDTRIP
360
165B
  3
BUMPTILE
360
15F5
  3
DIFFUSETILE
360
15F4
  3
OPACITYTILE
360
15F8
  3
REFLECTIONTILE
360
15F7
  3
REFRACTIONTILE
360
15F9
  3
SPECULARTILE
360
15F6
  0
DICTIONARY
  5
164F
330
1610
100
AcDbDictionary
280
     1
281
     1
  3
ACAD_ROUNDTRIP_2008_TABLESTYLE_CELLSTYLEMAP
360
1650
  3
ACAD_XREC_ROUNDTRIP
360
1682
  0
DICTIONARY
  5
1666
330
1600
100
AcDbDictionary
280
     1
281
     1
  3
ACAD_XREC_ROUNDTRIP
360
1667
  0
DICTIONARY
  5
166A
330
1602
100
AcDbDictionary
280
     1
281
     1
  3
ACAD_XREC_ROUNDTRIP
360
166B
  0
DICTIONARY
  5
1668
330
1601
100
AcDbDictionary
280
     1
281
     1
  3
ACAD_XREC_ROUNDTRIP
360
1669
  0
DICTIONARY
  5
1664
330
15FF
100
AcDbDictionary
280
     1
281
     1
  3
ACAD_XREC_ROUNDTRIP
360
1665
  0
DICTIONARY
  5
1672
330
1606
100
AcDbDictionary
280
     1
281
     1
  3
ACAD_XREC_ROUNDTRIP
360
1673
  0
DICTIONARY
  5
167A
330
160A
100
AcDbDictionary
280
     1
281
     1
  3
ACAD_XREC_ROUNDTRIP
360
167B
  0
DICTIONARY
  5
166C
330
1603
100
AcDbDictionary
280
     1
281
     1
  3
ACAD_XREC_ROUNDTRIP
360
166D
  0
DICTIONARY
  5
1670
330
1605
100
AcDbDictionary
280
     1
281
     1
  3
ACAD_XREC_ROUNDTRIP
360
1671
  0
DICTIONARY
  5
1680
330
160D
100
AcDbDictionary
280
     1
281
     1
  3
ACAD_XREC_ROUNDTRIP
360
1681
  0
DICTIONARY
  5
1678
330
1609
100
AcDbDictionary
280
     1
281
     1
  3
ACAD_XREC_ROUNDTRIP
360
1679
  0
DICTIONARY
  5
165C
330
15FB
100
AcDbDictionary
280
     1
281
     1
  3
ACAD_XREC_ROUNDTRIP
360
165D
  0
DICTIONARY
  5
165E
330
15FC
100
AcDbDictionary
280
     1
281
     1
  3
ACAD_XREC_ROUNDTRIP
360
165F
  0
DICTIONARY
  5
1660
330
15FD
100
AcDbDictionary
280
     1
281
     1
  3
ACAD_XREC_ROUNDTRIP
360
1661
  0
DICTIONARY
  5
1662
330
15FE
100
AcDbDictionary
280
     1
281
     1
  3
ACAD_XREC_ROUNDTRIP
360
1663
  0
DICTIONARY
  5
167C
330
160B
100
AcDbDictionary
280
     1
281
     1
  3
ACAD_XREC_ROUNDTRIP
360
167D
  0
DICTIONARY
  5
1676
330
1608
100
AcDbDictionary
280
     1
281
     1
  3
ACAD_XREC_ROUNDTRIP
360
1677
  0
DICTIONARY
  5
167E
330
160C
100
AcDbDictionary
280
     1
281
     1
  3
ACAD_XREC_ROUNDTRIP
360
167F
  0
DICTIONARY
  5
166E
330
1604
100
AcDbDictionary
280
     1
281
     1
  3
ACAD_XREC_ROUNDTRIP
360
166F
  0
DICTIONARY
  5
1674
330
1607
100
AcDbDictionary
280
     1
281
     1
  3
ACAD_XREC_ROUNDTRIP
360
1675
  0
XRECORD
  5
1654
102
{ACAD_REACTORS
330
1653
102
}
330
1653
100
AcDbXrecord
280
     1
102
SHADEPLOT
 70
     0
102
SHADEPLOTRESLEVEL
 70
     2
102
SHADEPLOTCUSTOMDPI
 70
   300
  0
XRECORD
  5
1658
102
{ACAD_REACTORS
330
1657
102
}
330
1657
100
AcDbXrecord
280
     1
102
SHADEPLOT
 70
     0
102
SHADEPLOTRESLEVEL
 70
     2
102
SHADEPLOTCUSTOMDPI
 70
   300
  0
XRECORD
  5
1656
102
{ACAD_REACTORS
330
1655
102
}
330
1655
100
AcDbXrecord
280
     1
102
SHADEPLOT
 70
     0
102
SHADEPLOTRESLEVEL
 70
     2
102
SHADEPLOTCUSTOMDPI
 70
   300
  0
XRECORD
  5
165A
102
{ACAD_REACTORS
330
15EB
102
}
330
15EB
100
AcDbXrecord
280
     1
102
MATERIAL
148
0.0
149
0.0
149
0.0
 93
        0
 94
      127
282
     0
 72
     0
 77
     0
171
     0
175
     0
179
     0
273
     0
  0
XRECORD
  5
15ED
102
{ACAD_REACTORS
330
15EB
102
}
330
15EB
100
AcDbXrecord
280
     1
270
     1
271
     1
  0
XRECORD
  5
15EC
102
{ACAD_REACTORS
330
15EB
102
}
330
15EB
100
AcDbXrecord
280
     1
270
     1
271
     1
  0
XRECORD
  5
15F0
102
{ACAD_REACTORS
330
15EB
102
}
330
15EB
100
AcDbXrecord
280
     1
270
     1
271
     1
  0
XRECORD
  5
15EF
102
{ACAD_REACTORS
330
15EB
102
}
330
15EB
100
AcDbXrecord
280
     1
270
     1
271
     1
  0
XRECORD
  5
15F1
102
{ACAD_REACTORS
330
15EB
102
}
330
15EB
100
AcDbXrecord
280
     1
270
     1
271
     1
  0
XRECORD
  5
15EE
102
{ACAD_REACTORS
330
15EB
102
}
330
15EB
100
AcDbXrecord
280
     1
270
     1
271
     1
  0
XRECORD
  5
1659
102
{ACAD_REACTORS
330
15E3
102
}
330
15E3
100
AcDbXrecord
280
     1
102
MATERIAL
148
0.0
149
0.0
149
0.0
 93
        0
 94
      127
282
     0
 72
     0
 77
     0
171
     0
175
     0
179
     0
273
     0
  0
XRECORD
  5
15E5
102
{ACAD_REACTORS
330
15E3
102
}
330
15E3
100
AcDbXrecord
280
     1
270
     1
271
     1
  0
XRECORD
  5
15E4
102
{ACAD_REACTORS
330
15E3
102
}
330
15E3
100
AcDbXrecord
280
     1
270
     1
271
     1
  0
XRECORD
  5
15E8
102
{ACAD_REACTORS
330
15E3
102
}
330
15E3
100
AcDbXrecord
280
     1
270
     1
271
     1
  0
XRECORD
  5
15E7
102
{ACAD_REACTORS
330
15E3
102
}
330
15E3
100
AcDbXrecord
280
     1
270
     1
271
     1
  0
XRECORD
  5
15E9
102
{ACAD_REACTORS
330
15E3
102
}
330
15E3
100
AcDbXrecord
280
     1
270
     1
271
     1
  0
XRECORD
  5
15E6
102
{ACAD_REACTORS
330
15E3
102
}
330
15E3
100
AcDbXrecord
280
     1
270
     1
271
     1
  0
XRECORD
  5
165B
102
{ACAD_REACTORS
330
15F3
102
}
330
15F3
100
AcDbXrecord
280
     1
102
MATERIAL
148
0.0
149
0.0
149
0.0
 93
        0
 94
      127
282
     0
 72
     0
 77
     0
171
     0
175
     0
179
     0
273
     0
  0
XRECORD
  5
15F5
102
{ACAD_REACTORS
330
15F3
102
}
330
15F3
100
AcDbXrecord
280
     1
270
     1
271
     1
  0
XRECORD
  5
15F4
102
{ACAD_REACTORS
330
15F3
102
}
330
15F3
100
AcDbXrecord
280
     1
270
     1
271
     1
  0
XRECORD
  5
15F8
102
{ACAD_REACTORS
330
15F3
102
}
330
15F3
100
AcDbXrecord
280
     1
270
     1
271
     1
  0
XRECORD
  5
15F7
102
{ACAD_REACTORS
330
15F3
102
}
330
15F3
100
AcDbXrecord
280
     1
270
     1
271
     1
  0
XRECORD
  5
15F9
102
{ACAD_REACTORS
330
15F3
102
}
330
15F3
100
AcDbXrecord
280
     1
270
     1
271
     1
  0
XRECORD
  5
15F6
102
{ACAD_REACTORS
330
15F3
102
}
330
15F3
100
AcDbXrecord
280
     1
270
     1
271
     1
  0
CELLSTYLEMAP
  5
1650
102
{ACAD_REACTORS
330
164F
102
}
330
164F
100
AcDbCellStyleMap
 90
        3
300
CELLSTYLE
  1
TABLEFORMAT_BEGIN
 90
        5
170
     1
 91
        0
 92
    32768
 62
   257
 93
        1
300
CONTENTFORMAT
  1
CONTENTFORMAT_BEGIN
 90
        0
 91
        0
 92
      512
 93
        0
300

 40
0.0
140
1.0
 94
        5
 62
     0
340
11
144
6.0
309
CONTENTFORMAT_END
171
     1
301
MARGIN
  1
CELLMARGIN_BEGIN
 40
1.5
 40
1.5
 40
1.5
 40
1.5
 40
4.5
 40
4.5
309
CELLMARGIN_END
 94
        6
 95
        1
302
GRIDFORMAT
  1
GRIDFORMAT_BEGIN
 90
        0
 91
        1
 62
     0
 92
       -2
340
0
 93
        0
 40
1.125
309
GRIDFORMAT_END
 95
        2
302
GRIDFORMAT
  1
GRIDFORMAT_BEGIN
 90
        0
 91
        1
 62
     0
 92
       -2
340
0
 93
        0
 40
1.125
309
GRIDFORMAT_END
 95
        4
302
GRIDFORMAT
  1
GRIDFORMAT_BEGIN
 90
        0
 91
        1
 62
     0
 92
       -2
340
0
 93
        0
 40
1.125
309
GRIDFORMAT_END
 95
        8
302
GRIDFORMAT
  1
GRIDFORMAT_BEGIN
 90
        0
 91
        1
 62
     0
 92
       -2
340
0
 93
        0
 40
1.125
309
GRIDFORMAT_END
 95
       16
302
GRIDFORMAT
  1
GRIDFORMAT_BEGIN
 90
        0
 91
        1
 62
     0
 92
       -2
340
0
 93
        0
 40
1.125
309
GRIDFORMAT_END
 95
       32
302
GRIDFORMAT
  1
GRIDFORMAT_BEGIN
 90
        0
 91
        1
 62
     0
 92
       -2
340
0
 93
        0
 40
1.125
309
GRIDFORMAT_END
309
TABLEFORMAT_END
  1
CELLSTYLE_BEGIN
 90
        1
 91
        1
300
_TITLE
309
CELLSTYLE_END
300
CELLSTYLE
  1
TABLEFORMAT_BEGIN
 90
        5
170
     1
 91
        0
 92
        0
 62
   257
 93
        1
300
CONTENTFORMAT
  1
CONTENTFORMAT_BEGIN
 90
        0
 91
        0
 92
      512
 93
        0
300

 40
0.0
140
1.0
 94
        5
 62
     0
340
11
144
4.5
309
CONTENTFORMAT_END
171
     1
301
MARGIN
  1
CELLMARGIN_BEGIN
 40
1.5
 40
1.5
 40
1.5
 40
1.5
 40
4.5
 40
4.5
309
CELLMARGIN_END
 94
        6
 95
        1
302
GRIDFORMAT
  1
GRIDFORMAT_BEGIN
 90
        0
 91
        1
 62
     0
 92
       -2
340
0
 93
        0
 40
1.125
309
GRIDFORMAT_END
 95
        2
302
GRIDFORMAT
  1
GRIDFORMAT_BEGIN
 90
        0
 91
        1
 62
     0
 92
       -2
340
0
 93
        0
 40
1.125
309
GRIDFORMAT_END
 95
        4
302
GRIDFORMAT
  1
GRIDFORMAT_BEGIN
 90
        0
 91
        1
 62
     0
 92
       -2
340
0
 93
        0
 40
1.125
309
GRIDFORMAT_END
 95
        8
302
GRIDFORMAT
  1
GRIDFORMAT_BEGIN
 90
        0
 91
        1
 62
     0
 92
       -2
340
0
 93
        0
 40
1.125
309
GRIDFORMAT_END
 95
       16
302
GRIDFORMAT
  1
GRIDFORMAT_BEGIN
 90
        0
 91
        1
 62
     0
 92
       -2
340
0
 93
        0
 40
1.125
309
GRIDFORMAT_END
 95
       32
302
GRIDFORMAT
  1
GRIDFORMAT_BEGIN
 90
        0
 91
        1
 62
     0
 92
       -2
340
0
 93
        0
 40
1.125
309
GRIDFORMAT_END
309
TABLEFORMAT_END
  1
CELLSTYLE_BEGIN
 90
        2
 91
        1
300
_HEADER
309
CELLSTYLE_END
300
CELLSTYLE
  1
TABLEFORMAT_BEGIN
 90
        5
170
     1
 91
        0
 92
        0
 62
   257
 93
        1
300
CONTENTFORMAT
  1
CONTENTFORMAT_BEGIN
 90
        0
 91
        0
 92
      512
 93
        0
300

 40
0.0
140
1.0
 94
        2
 62
     0
340
11
144
4.5
309
CONTENTFORMAT_END
171
     1
301
MARGIN
  1
CELLMARGIN_BEGIN
 40
1.5
 40
1.5
 40
1.5
 40
1.5
 40
4.5
 40
4.5
309
CELLMARGIN_END
 94
        6
 95
        1
302
GRIDFORMAT
  1
GRIDFORMAT_BEGIN
 90
        0
 91
        1
 62
     0
 92
       -2
340
0
 93
        0
 40
1.125
309
GRIDFORMAT_END
 95
        2
302
GRIDFORMAT
  1
GRIDFORMAT_BEGIN
 90
        0
 91
        1
 62
     0
 92
       -2
340
0
 93
        0
 40
1.125
309
GRIDFORMAT_END
 95
        4
302
GRIDFORMAT
  1
GRIDFORMAT_BEGIN
 90
        0
 91
        1
 62
     0
 92
       -2
340
0
 93
        0
 40
1.125
309
GRIDFORMAT_END
 95
        8
302
GRIDFORMAT
  1
GRIDFORMAT_BEGIN
 90
        0
 91
        1
 62
     0
 92
       -2
340
0
 93
        0
 40
1.125
309
GRIDFORMAT_END
 95
       16
302
GRIDFORMAT
  1
GRIDFORMAT_BEGIN
 90
        0
 91
        1
 62
     0
 92
       -2
340
0
 93
        0
 40
1.125
309
GRIDFORMAT_END
 95
       32
302
GRIDFORMAT
  1
GRIDFORMAT_BEGIN
 90
        0
 91
        1
 62
     0
 92
       -2
340
0
 93
        0
 40
1.125
309
GRIDFORMAT_END
309
TABLEFORMAT_END
  1
CELLSTYLE_BEGIN
 90
        3
 91
        2
300
_DATA
309
CELLSTYLE_END
  0
XRECORD
  5
1682
102
{ACAD_REACTORS
330
164F
102
}
330
164F
100
AcDbXrecord
280
     1
102
ACAD_ROUNDTRIP_PRE2007_TABLESTYLE
 90
      512
 91
        0
  1

 92
      512
 93
        0
  2

 94
      512
 95
        0
  3

  0
XRECORD
  5
1667
102
{ACAD_REACTORS
330
1666
102
}
330
1666
100
AcDbXrecord
280
     1
102
RTVSPropertyOp0
 70
     1
102
RTVSPropertyOp1
 70
     1
102
RTVSPropertyOp2
 70
     1
102
RTVSPropertyOp3
 70
     1
102
RTVSPropertyOp4
 70
     1
102
RTVSPropertyOp5
 70
     1
102
RTVSPropertyOp6
 70
     1
102
RTVSPropertyOp7
 70
     1
102
RTVSPropertyOp8
 70
     1
102
RTVSPropertyOp9
 70
     1
102
RTVSPropertyOp10
 70
     1
102
RTVSPropertyOp11
 70
     1
102
RTVSPropertyOp12
 70
     1
102
RTVSPropertyOp13
 70
     1
102
RTVSPropertyOp14
 70
     1
102
RTVSPropertyOp15
 70
     1
102
RTVSPropertyOp16
 70
     1
102
RTVSPropertyOp17
 70
     1
102
RTVSPropertyOp18
 70
     1
102
RTVSPropertyOp19
 70
     1
102
RTVSPropertyOp20
 70
     1
102
RTVSPropertyOp21
 70
     1
102
RTVSPropertyOp22
 70
     1
102
RTVSPropertyOp23
 70
     1
102
RTVSPropertyOp24
 70
     1
102
RTVSPropertyOp25
 70
     1
102
RTVSPropertyOp26
 70
     1
102
RTVSPropertyOp27
 70
     1
  0
XRECORD
  5
166B
102
{ACAD_REACTORS
330
166A
102
}
330
166A
100
AcDbXrecord
280
     1
102
RTVSPropertyOp0
 70
     1
102
RTVSPropertyOp1
 70
     1
102
RTVSPropertyOp2
 70
     1
102
RTVSPropertyOp3
 70
     1
102
RTVSPropertyOp4
 70
     1
102
RTVSPropertyOp5
 70
     1
102
RTVSPropertyOp6
 70
     1
102
RTVSPropertyOp7
 70
     1
102
RTVSPropertyOp8
 70
     1
102
RTVSPropertyOp9
 70
     1
102
RTVSPropertyOp10
 70
     1
102
RTVSPropertyOp11
 70
     1
102
RTVSPropertyOp12
 70
     1
102
RTVSPropertyOp13
 70
     1
102
RTVSPropertyOp14
 70
     1
102
RTVSPropertyOp15
 70
     1
102
RTVSPropertyOp16
 70
     1
102
RTVSPropertyOp17
 70
     1
102
RTVSPropertyOp18
 70
     1
102
RTVSPropertyOp19
 70
     1
102
RTVSPropertyOp20
 70
     1
102
RTVSPropertyOp21
 70
     1
102
RTVSPropertyOp22
 70
     1
102
RTVSPropertyOp23
 70
     1
102
RTVSPropertyOp24
 70
     1
102
RTVSPropertyOp25
 70
     1
102
RTVSPropertyOp26
 70
     1
102
RTVSPropertyOp27
 70
     1
  0
XRECORD
  5
1669
102
{ACAD_REACTORS
330
1668
102
}
330
1668
100
AcDbXrecord
280
     1
102
RTVSPropertyOp0
 70
     1
102
RTVSPropertyOp1
 70
     1
102
RTVSPropertyOp2
 70
     1
102
RTVSPropertyOp3
 70
     1
102
RTVSPropertyOp4
 70
     1
102
RTVSPropertyOp5
 70
     1
102
RTVSPropertyOp6
 70
     1
102
RTVSPropertyOp7
 70
     1
102
RTVSPropertyOp8
 70
     1
102
RTVSPropertyOp9
 70
     1
102
RTVSPropertyOp10
 70
     1
102
RTVSPropertyOp11
 70
     1
102
RTVSPropertyOp12
 70
     1
102
RTVSPropertyOp13
 70
     1
102
RTVSPropertyOp14
 70
     1
102
RTVSPropertyOp15
 70
     1
102
RTVSPropertyOp16
 70
     1
102
RTVSPropertyOp17
 70
     1
102
RTVSPropertyOp18
 70
     1
102
RTVSPropertyOp19
 70
     1
102
RTVSPropertyOp20
 70
     1
102
RTVSPropertyOp21
 70
     1
102
RTVSPropertyOp22
 70
     1
102
RTVSPropertyOp23
 70
     1
102
RTVSPropertyOp24
 70
     1
102
RTVSPropertyOp25
 70
     1
102
RTVSPropertyOp26
 70
     1
102
RTVSPropertyOp27
 70
     1
  0
XRECORD
  5
1665
102
{ACAD_REACTORS
330
1664
102
}
330
1664
100
AcDbXrecord
280
     1
102
RTVSPropertyOp0
 70
     1
102
RTVSPropertyOp1
 70
     1
102
RTVSPropertyOp2
 70
     1
102
RTVSPropertyOp3
 70
     1
102
RTVSPropertyOp4
 70
     1
102
RTVSPropertyOp5
 70
     1
102
RTVSPropertyOp6
 70
     1
102
RTVSPropertyOp7
 70
     1
102
RTVSPropertyOp8
 70
     1
102
RTVSPropertyOp9
 70
     1
102
RTVSPropertyOp10
 70
     1
102
RTVSPropertyOp11
 70
     1
102
RTVSPropertyOp12
 70
     1
102
RTVSPropertyOp13
 70
     1
102
RTVSPropertyOp14
 70
     1
102
RTVSPropertyOp15
 70
     1
102
RTVSPropertyOp16
 70
     1
102
RTVSPropertyOp17
 70
     1
102
RTVSPropertyOp18
 70
     1
102
RTVSPropertyOp19
 70
     1
102
RTVSPropertyOp20
 70
     1
102
RTVSPropertyOp21
 70
     1
102
RTVSPropertyOp22
 70
     1
102
RTVSPropertyOp23
 70
     1
102
RTVSPropertyOp24
 70
     1
102
RTVSPropertyOp25
 70
     1
102
RTVSPropertyOp26
 70
     1
102
RTVSPropertyOp27
 70
     1
  0
XRECORD
  5
1673
102
{ACAD_REACTORS
330
1672
102
}
330
1672
100
AcDbXrecord
280
     1
102
RTVSPropertyOp0
 70
     1
102
RTVSPropertyOp1
 70
     1
102
RTVSPropertyOp2
 70
     1
102
RTVSPropertyOp3
 70
     1
102
RTVSPropertyOp4
 70
     1
102
RTVSPropertyOp5
 70
     1
102
RTVSPropertyOp6
 70
     1
102
RTVSPropertyOp7
 70
     1
102
RTVSPropertyOp8
 70
     1
102
RTVSPropertyOp9
 70
     1
102
RTVSPropertyOp10
 70
     1
102
RTVSPropertyOp11
 70
     1
102
RTVSPropertyOp12
 70
     1
102
RTVSPropertyOp13
 70
     1
102
RTVSPropertyOp14
 70
     1
102
RTVSPropertyOp15
 70
     1
102
RTVSPropertyOp16
 70
     1
102
RTVSPropertyOp17
 70
     1
102
RTVSPropertyOp18
 70
     1
102
RTVSPropertyOp19
 70
     1
102
RTVSPropertyOp20
 70
     1
102
RTVSPropertyOp21
 70
     1
102
RTVSPropertyOp22
 70
     1
102
RTVSPropertyOp23
 70
     1
102
RTVSPropertyOp24
 70
     1
102
RTVSPropertyOp25
 70
     1
102
RTVSPropertyOp26
 70
     1
102
RTVSPropertyOp27
 70
     1
  0
XRECORD
  5
167B
102
{ACAD_REACTORS
330
167A
102
}
330
167A
100
AcDbXrecord
280
     1
102
RTVSPropertyOp0
 70
     1
102
RTVSPropertyOp1
 70
     1
102
RTVSPropertyOp2
 70
     1
102
RTVSPropertyOp3
 70
     1
102
RTVSPropertyOp4
 70
     1
102
RTVSPropertyOp5
 70
     1
102
RTVSPropertyOp6
 70
     1
102
RTVSPropertyOp7
 70
     1
102
RTVSPropertyOp8
 70
     1
102
RTVSPropertyOp9
 70
     1
102
RTVSPropertyOp10
 70
     1
102
RTVSPropertyOp11
 70
     1
102
RTVSPropertyOp12
 70
     1
102
RTVSPropertyOp13
 70
     1
102
RTVSPropertyOp14
 70
     1
102
RTVSPropertyOp15
 70
     1
102
RTVSPropertyOp16
 70
     1
102
RTVSPropertyOp17
 70
     1
102
RTVSPropertyOp18
 70
     1
102
RTVSPropertyOp19
 70
     1
102
RTVSPropertyOp20
 70
     1
102
RTVSPropertyOp21
 70
     1
102
RTVSPropertyOp22
 70
     1
102
RTVSPropertyOp23
 70
     1
102
RTVSPropertyOp24
 70
     1
102
RTVSPropertyOp25
 70
     1
102
RTVSPropertyOp26
 70
     1
102
RTVSPropertyOp27
 70
     1
  0
XRECORD
  5
166D
102
{ACAD_REACTORS
330
166C
102
}
330
166C
100
AcDbXrecord
280
     1
102
RTVSPropertyOp0
 70
     1
102
RTVSPropertyOp1
 70
     1
102
RTVSPropertyOp2
 70
     1
102
RTVSPropertyOp3
 70
     1
102
RTVSPropertyOp4
 70
     1
102
RTVSPropertyOp5
 70
     1
102
RTVSPropertyOp6
 70
     1
102
RTVSPropertyOp7
 70
     1
102
RTVSPropertyOp8
 70
     1
102
RTVSPropertyOp9
 70
     1
102
RTVSPropertyOp10
 70
     1
102
RTVSPropertyOp11
 70
     1
102
RTVSPropertyOp12
 70
     1
102
RTVSPropertyOp13
 70
     1
102
RTVSPropertyOp14
 70
     1
102
RTVSPropertyOp15
 70
     1
102
RTVSPropertyOp16
 70
     1
102
RTVSPropertyOp17
 70
     1
102
RTVSPropertyOp18
 70
     1
102
RTVSPropertyOp19
 70
     1
102
RTVSPropertyOp20
 70
     1
102
RTVSPropertyOp21
 70
     1
102
RTVSPropertyOp22
 70
     1
102
RTVSPropertyOp23
 70
     1
102
RTVSPropertyOp24
 70
     1
102
RTVSPropertyOp25
 70
     1
102
RTVSPropertyOp26
 70
     1
102
RTVSPropertyOp27
 70
     1
  0
XRECORD
  5
1671
102
{ACAD_REACTORS
330
1670
102
}
330
1670
100
AcDbXrecord
280
     1
102
RTVSPropertyOp0
 70
     1
102
RTVSPropertyOp1
 70
     1
102
RTVSPropertyOp2
 70
     1
102
RTVSPropertyOp3
 70
     1
102
RTVSPropertyOp4
 70
     1
102
RTVSPropertyOp5
 70
     1
102
RTVSPropertyOp6
 70
     1
102
RTVSPropertyOp7
 70
     1
102
RTVSPropertyOp8
 70
     1
102
RTVSPropertyOp9
 70
     1
102
RTVSPropertyOp10
 70
     1
102
RTVSPropertyOp11
 70
     1
102
RTVSPropertyOp12
 70
     1
102
RTVSPropertyOp13
 70
     1
102
RTVSPropertyOp14
 70
     1
102
RTVSPropertyOp15
 70
     1
102
RTVSPropertyOp16
 70
     1
102
RTVSPropertyOp17
 70
     1
102
RTVSPropertyOp18
 70
     1
102
RTVSPropertyOp19
 70
     1
102
RTVSPropertyOp20
 70
     1
102
RTVSPropertyOp21
 70
     1
102
RTVSPropertyOp22
 70
     1
102
RTVSPropertyOp23
 70
     1
102
RTVSPropertyOp24
 70
     1
102
RTVSPropertyOp25
 70
     1
102
RTVSPropertyOp26
 70
     1
102
RTVSPropertyOp27
 70
     1
  0
XRECORD
  5
1681
102
{ACAD_REACTORS
330
1680
102
}
330
1680
100
AcDbXrecord
280
     1
102
RTVSPropertyOp0
 70
     0
102
RTVSPropertyOp1
 70
     0
102
RTVSPropertyOp2
 70
     0
102
RTVSPropertyOp3
 70
     0
102
RTVSPropertyOp4
 70
     0
102
RTVSPropertyOp5
 70
     0
102
RTVSPropertyOp6
 70
     0
102
RTVSPropertyOp7
 70
     0
102
RTVSPropertyOp8
 70
     0
102
RTVSPropertyOp9
 70
     0
102
RTVSPropertyOp10
 70
     0
102
RTVSPropertyOp11
 70
     0
102
RTVSPropertyOp12
 70
     0
102
RTVSPropertyOp13
 70
     0
102
RTVSPropertyOp14
 70
     2
102
RTVSPropertyOp15
 70
     0
102
RTVSPropertyOp16
 70
     0
102
RTVSPropertyOp17
 70
     0
102
RTVSPropertyOp18
 70
     0
102
RTVSPropertyOp19
 70
     0
102
RTVSPropertyOp20
 70
     0
102
RTVSPropertyOp21
 70
     0
102
RTVSPropertyOp22
 70
     0
102
RTVSPropertyOp23
 70
     0
102
RTVSPropertyOp24
 70
     0
102
RTVSPropertyOp25
 70
     0
102
RTVSPropertyOp26
 70
     0
102
RTVSPropertyOp27
 70
     0
  0
XRECORD
  5
1679
102
{ACAD_REACTORS
330
1678
102
}
330
1678
100
AcDbXrecord
280
     1
102
RTVSPropertyOp0
 70
     1
102
RTVSPropertyOp1
 70
     1
102
RTVSPropertyOp2
 70
     1
102
RTVSPropertyOp3
 70
     1
102
RTVSPropertyOp4
 70
     1
102
RTVSPropertyOp5
 70
     1
102
RTVSPropertyOp6
 70
     1
102
RTVSPropertyOp7
 70
     1
102
RTVSPropertyOp8
 70
     1
102
RTVSPropertyOp9
 70
     1
102
RTVSPropertyOp10
 70
     1
102
RTVSPropertyOp11
 70
     1
102
RTVSPropertyOp12
 70
     1
102
RTVSPropertyOp13
 70
     1
102
RTVSPropertyOp14
 70
     1
102
RTVSPropertyOp15
 70
     1
102
RTVSPropertyOp16
 70
     1
102
RTVSPropertyOp17
 70
     1
102
RTVSPropertyOp18
 70
     1
102
RTVSPropertyOp19
 70
     1
102
RTVSPropertyOp20
 70
     1
102
RTVSPropertyOp21
 70
     1
102
RTVSPropertyOp22
 70
     1
102
RTVSPropertyOp23
 70
     1
102
RTVSPropertyOp24
 70
     1
102
RTVSPropertyOp25
 70
     1
102
RTVSPropertyOp26
 70
     1
102
RTVSPropertyOp27
 70
     1
  0
XRECORD
  5
165D
102
{ACAD_REACTORS
330
165C
102
}
330
165C
100
AcDbXrecord
280
     1
102
RTVSPropertyOp0
 70
     1
102
RTVSPropertyOp1
 70
     1
102
RTVSPropertyOp2
 70
     1
102
RTVSPropertyOp3
 70
     1
102
RTVSPropertyOp4
 70
     1
102
RTVSPropertyOp5
 70
     1
102
RTVSPropertyOp6
 70
     1
102
RTVSPropertyOp7
 70
     1
102
RTVSPropertyOp8
 70
     1
102
RTVSPropertyOp9
 70
     1
102
RTVSPropertyOp10
 70
     1
102
RTVSPropertyOp11
 70
     1
102
RTVSPropertyOp12
 70
     1
102
RTVSPropertyOp13
 70
     1
102
RTVSPropertyOp14
 70
     1
102
RTVSPropertyOp15
 70
     1
102
RTVSPropertyOp16
 70
     1
102
RTVSPropertyOp17
 70
     1
102
RTVSPropertyOp18
 70
     1
102
RTVSPropertyOp19
 70
     1
102
RTVSPropertyOp20
 70
     1
102
RTVSPropertyOp21
 70
     1
102
RTVSPropertyOp22
 70
     1
102
RTVSPropertyOp23
 70
     1
102
RTVSPropertyOp24
 70
     1
102
RTVSPropertyOp25
 70
     1
102
RTVSPropertyOp26
 70
     1
102
RTVSPropertyOp27
 70
     1
  0
XRECORD
  5
165F
102
{ACAD_REACTORS
330
165E
102
}
330
165E
100
AcDbXrecord
280
     1
102
RTVSPropertyOp0
 70
     1
102
RTVSPropertyOp1
 70
     1
102
RTVSPropertyOp2
 70
     1
102
RTVSPropertyOp3
 70
     1
102
RTVSPropertyOp4
 70
     1
102
RTVSPropertyOp5
 70
     1
102
RTVSPropertyOp6
 70
     1
102
RTVSPropertyOp7
 70
     1
102
RTVSPropertyOp8
 70
     1
102
RTVSPropertyOp9
 70
     1
102
RTVSPropertyOp10
 70
     1
102
RTVSPropertyOp11
 70
     1
102
RTVSPropertyOp12
 70
     1
102
RTVSPropertyOp13
 70
     1
102
RTVSPropertyOp14
 70
     1
102
RTVSPropertyOp15
 70
     1
102
RTVSPropertyOp16
 70
     1
102
RTVSPropertyOp17
 70
     1
102
RTVSPropertyOp18
 70
     1
102
RTVSPropertyOp19
 70
     1
102
RTVSPropertyOp20
 70
     1
102
RTVSPropertyOp21
 70
     1
102
RTVSPropertyOp22
 70
     1
102
RTVSPropertyOp23
 70
     1
102
RTVSPropertyOp24
 70
     1
102
RTVSPropertyOp25
 70
     1
102
RTVSPropertyOp26
 70
     1
102
RTVSPropertyOp27
 70
     1
  0
XRECORD
  5
1661
102
{ACAD_REACTORS
330
1660
102
}
330
1660
100
AcDbXrecord
280
     1
102
RTVSPropertyOp0
 70
     1
102
RTVSPropertyOp1
 70
     1
102
RTVSPropertyOp2
 70
     1
102
RTVSPropertyOp3
 70
     1
102
RTVSPropertyOp4
 70
     1
102
RTVSPropertyOp5
 70
     1
102
RTVSPropertyOp6
 70
     1
102
RTVSPropertyOp7
 70
     1
102
RTVSPropertyOp8
 70
     1
102
RTVSPropertyOp9
 70
     1
102
RTVSPropertyOp10
 70
     1
102
RTVSPropertyOp11
 70
     1
102
RTVSPropertyOp12
 70
     1
102
RTVSPropertyOp13
 70
     1
102
RTVSPropertyOp14
 70
     1
102
RTVSPropertyOp15
 70
     1
102
RTVSPropertyOp16
 70
     1
102
RTVSPropertyOp17
 70
     1
102
RTVSPropertyOp18
 70
     1
102
RTVSPropertyOp19
 70
     1
102
RTVSPropertyOp20
 70
     1
102
RTVSPropertyOp21
 70
     1
102
RTVSPropertyOp22
 70
     1
102
RTVSPropertyOp23
 70
     1
102
RTVSPropertyOp24
 70
     1
102
RTVSPropertyOp25
 70
     1
102
RTVSPropertyOp26
 70
     1
102
RTVSPropertyOp27
 70
     1
  0
XRECORD
  5
1663
102
{ACAD_REACTORS
330
1662
102
}
330
1662
100
AcDbXrecord
280
     1
102
RTVSPropertyOp0
 70
     1
102
RTVSPropertyOp1
 70
     1
102
RTVSPropertyOp2
 70
     1
102
RTVSPropertyOp3
 70
     1
102
RTVSPropertyOp4
 70
     1
102
RTVSPropertyOp5
 70
     1
102
RTVSPropertyOp6
 70
     1
102
RTVSPropertyOp7
 70
     1
102
RTVSPropertyOp8
 70
     1
102
RTVSPropertyOp9
 70
     1
102
RTVSPropertyOp10
 70
     1
102
RTVSPropertyOp11
 70
     1
102
RTVSPropertyOp12
 70
     1
102
RTVSPropertyOp13
 70
     1
102
RTVSPropertyOp14
 70
     1
102
RTVSPropertyOp15
 70
     1
102
RTVSPropertyOp16
 70
     1
102
RTVSPropertyOp17
 70
     1
102
RTVSPropertyOp18
 70
     1
102
RTVSPropertyOp19
 70
     1
102
RTVSPropertyOp20
 70
     1
102
RTVSPropertyOp21
 70
     1
102
RTVSPropertyOp22
 70
     1
102
RTVSPropertyOp23
 70
     1
102
RTVSPropertyOp24
 70
     1
102
RTVSPropertyOp25
 70
     1
102
RTVSPropertyOp26
 70
     1
102
RTVSPropertyOp27
 70
     1
  0
XRECORD
  5
167D
102
{ACAD_REACTORS
330
167C
102
}
330
167C
100
AcDbXrecord
280
     1
102
RTVSPropertyOp0
 70
     0
102
RTVSPropertyOp1
 70
     0
102
RTVSPropertyOp2
 70
     0
102
RTVSPropertyOp3
 70
     0
102
RTVSPropertyOp4
 70
     0
102
RTVSPropertyOp5
 70
     0
102
RTVSPropertyOp6
 70
     0
102
RTVSPropertyOp7
 70
     0
102
RTVSPropertyOp8
 70
     0
102
RTVSPropertyOp9
 70
     0
102
RTVSPropertyOp10
 70
     0
102
RTVSPropertyOp11
 70
     0
102
RTVSPropertyOp12
 70
     0
102
RTVSPropertyOp13
 70
     0
102
RTVSPropertyOp14
 70
     2
102
RTVSPropertyOp15
 70
     0
102
RTVSPropertyOp16
 70
     0
102
RTVSPropertyOp17
 70
     0
102
RTVSPropertyOp18
 70
     0
102
RTVSPropertyOp19
 70
     0
102
RTVSPropertyOp20
 70
     0
102
RTVSPropertyOp21
 70
     0
102
RTVSPropertyOp22
 70
     0
102
RTVSPropertyOp23
 70
     0
102
RTVSPropertyOp24
 70
     0
102
RTVSPropertyOp25
 70
     0
102
RTVSPropertyOp26
 70
     0
102
RTVSPropertyOp27
 70
     0
  0
XRECORD
  5
1677
102
{ACAD_REACTORS
330
1676
102
}
330
1676
100
AcDbXrecord
280
     1
102
RTVSPropertyOp0
 70
     1
102
RTVSPropertyOp1
 70
     1
102
RTVSPropertyOp2
 70
     1
102
RTVSPropertyOp3
 70
     1
102
RTVSPropertyOp4
 70
     1
102
RTVSPropertyOp5
 70
     1
102
RTVSPropertyOp6
 70
     1
102
RTVSPropertyOp7
 70
     1
102
RTVSPropertyOp8
 70
     1
102
RTVSPropertyOp9
 70
     1
102
RTVSPropertyOp10
 70
     1
102
RTVSPropertyOp11
 70
     1
102
RTVSPropertyOp12
 70
     1
102
RTVSPropertyOp13
 70
     1
102
RTVSPropertyOp14
 70
     1
102
RTVSPropertyOp15
 70
     1
102
RTVSPropertyOp16
 70
     1
102
RTVSPropertyOp17
 70
     1
102
RTVSPropertyOp18
 70
     1
102
RTVSPropertyOp19
 70
     1
102
RTVSPropertyOp20
 70
     1
102
RTVSPropertyOp21
 70
     1
102
RTVSPropertyOp22
 70
     1
102
RTVSPropertyOp23
 70
     1
102
RTVSPropertyOp24
 70
     1
102
RTVSPropertyOp25
 70
     1
102
RTVSPropertyOp26
 70
     1
102
RTVSPropertyOp27
 70
     1
  0
XRECORD
  5
167F
102
{ACAD_REACTORS
330
167E
102
}
330
167E
100
AcDbXrecord
280
     1
102
RTVSPropertyOp0
 70
     0
102
RTVSPropertyOp1
 70
     0
102
RTVSPropertyOp2
 70
     0
102
RTVSPropertyOp3
 70
     0
102
RTVSPropertyOp4
 70
     0
102
RTVSPropertyOp5
 70
     0
102
RTVSPropertyOp6
 70
     0
102
RTVSPropertyOp7
 70
     0
102
RTVSPropertyOp8
 70
     0
102
RTVSPropertyOp9
 70
     0
102
RTVSPropertyOp10
 70
     0
102
RTVSPropertyOp11
 70
     0
102
RTVSPropertyOp12
 70
     0
102
RTVSPropertyOp13
 70
     0
102
RTVSPropertyOp14
 70
     2
102
RTVSPropertyOp15
 70
     0
102
RTVSPropertyOp16
 70
     0
102
RTVSPropertyOp17
 70
     0
102
RTVSPropertyOp18
 70
     0
102
RTVSPropertyOp19
 70
     0
102
RTVSPropertyOp20
 70
     0
102
RTVSPropertyOp21
 70
     0
102
RTVSPropertyOp22
 70
     0
102
RTVSPropertyOp23
 70
     0
102
RTVSPropertyOp24
 70
     0
102
RTVSPropertyOp25
 70
     0
102
RTVSPropertyOp26
 70
     0
102
RTVSPropertyOp27
 70
     0
  0
XRECORD
  5
166F
102
{ACAD_REACTORS
330
166E
102
}
330
166E
100
AcDbXrecord
280
     1
102
RTVSPropertyOp0
 70
     1
102
RTVSPropertyOp1
 70
     1
102
RTVSPropertyOp2
 70
     1
102
RTVSPropertyOp3
 70
     1
102
RTVSPropertyOp4
 70
     1
102
RTVSPropertyOp5
 70
     1
102
RTVSPropertyOp6
 70
     1
102
RTVSPropertyOp7
 70
     1
102
RTVSPropertyOp8
 70
     1
102
RTVSPropertyOp9
 70
     1
102
RTVSPropertyOp10
 70
     1
102
RTVSPropertyOp11
 70
     1
102
RTVSPropertyOp12
 70
     1
102
RTVSPropertyOp13
 70
     1
102
RTVSPropertyOp14
 70
     1
102
RTVSPropertyOp15
 70
     1
102
RTVSPropertyOp16
 70
     1
102
RTVSPropertyOp17
 70
     1
102
RTVSPropertyOp18
 70
     1
102
RTVSPropertyOp19
 70
     1
102
RTVSPropertyOp20
 70
     1
102
RTVSPropertyOp21
 70
     1
102
RTVSPropertyOp22
 70
     1
102
RTVSPropertyOp23
 70
     1
102
RTVSPropertyOp24
 70
     1
102
RTVSPropertyOp25
 70
     1
102
RTVSPropertyOp26
 70
     1
102
RTVSPropertyOp27
 70
     1
  0
XRECORD
  5
1675
102
{ACAD_REACTORS
330
1674
102
}
330
1674
100
AcDbXrecord
280
     1
102
RTVSPropertyOp0
 70
     1
102
RTVSPropertyOp1
 70
     1
102
RTVSPropertyOp2
 70
     1
102
RTVSPropertyOp3
 70
     1
102
RTVSPropertyOp4
 70
     1
102
RTVSPropertyOp5
 70
     1
102
RTVSPropertyOp6
 70
     1
102
RTVSPropertyOp7
 70
     1
102
RTVSPropertyOp8
 70
     1
102
RTVSPropertyOp9
 70
     1
102
RTVSPropertyOp10
 70
     1
102
RTVSPropertyOp11
 70
     1
102
RTVSPropertyOp12
 70
     1
102
RTVSPropertyOp13
 70
     1
102
RTVSPropertyOp14
 70
     1
102
RTVSPropertyOp15
 70
     1
102
RTVSPropertyOp16
 70
     1
102
RTVSPropertyOp17
 70
     1
102
RTVSPropertyOp18
 70
     1
102
RTVSPropertyOp19
 70
     1
102
RTVSPropertyOp20
 70
     1
102
RTVSPropertyOp21
 70
     1
102
RTVSPropertyOp22
 70
     1
102
RTVSPropertyOp23
 70
     1
102
RTVSPropertyOp24
 70
     1
102
RTVSPropertyOp25
 70
     1
102
RTVSPropertyOp26
 70
     1
102
RTVSPropertyOp27
 70
     1
  0
ENDSEC
  0
EOF
