  0
SECTION
  2
HEADER
  9
$ACADVER
  1
AC1015
  9
$ACADMAINTVER
 70
    20
  9
$DWGCODEPAGE
  3
ANSI_1252
  9
$INSBASE
 10
0.0
 20
0.0
 30
0.0
  9
$EXTMIN
 10
4694.707602926342
 20
1875.462226376539
 30
0.0
  9
$EXTMAX
 10
4697.273922866503
 20
1876.018827073688
 30
0.0
  9
$LIMMIN
 10
0.0
 20
0.0
  9
$LIMMAX
 10
420.0
 20
297.0
  9
$ORTHOMODE
 70
     1
  9
$REGENMODE
 70
     1
  9
$FILLMODE
 70
     1
  9
$QTEXTMODE
 70
     0
  9
$MIRRTEXT
 70
     1
  9
$LTSCALE
 40
1.0
  9
$ATTMODE
 70
     1
  9
$TEXTSIZE
 40
2.5
  9
$TRACEWID
 40
1.0
  9
$TEXTSTYLE
  7
SANINDUSA
  9
$CLAYER
  8
indusa
  9
$CELTYPE
  6
ByLayer
  9
$CECOLOR
 62
   256
  9
$CELTSCALE
 40
1.0
  9
$DISPSILH
 70
     0
  9
$DIMSCALE
 40
1.0
  9
$DIMASZ
 40
2.0
  9
$DIMEXO
 40
1.0
  9
$DIMDLI
 40
1.0
  9
$DIMRND
 40
0.0
  9
$DIMDLE
 40
0.0
  9
$DIMEXE
 40
1.0
  9
$DIMTP
 40
0.0
  9
$DIMTM
 40
0.0
  9
$DIMTXT
 40
2.0
  9
$DIMCEN
 40
0.0
  9
$DIMTSZ
 40
0.0
  9
$DIMTOL
 70
     0
  9
$DIMLIM
 70
     0
  9
$DIMTIH
 70
     0
  9
$DIMTOH
 70
     0
  9
$DIMSE1
 70
     0
  9
$DIMSE2
 70
     0
  9
$DIMTAD
 70
     1
  9
$DIMZIN
 70
     8
  9
$DIMBLK
  1

  9
$DIMASO
 70
     1
  9
$DIMSHO
 70
     1
  9
$DIMPOST
  1

  9
$DIMAPOST
  1

  9
$DIMALT
 70
     0
  9
$DIMALTD
 70
     3
  9
$DIMALTF
 40
0.03937007874016
  9
$DIMLFAC
 40
1.0
  9
$DIMTOFL
 70
     1
  9
$DIMTVP
 40
0.0
  9
$DIMTIX
 70
     0
  9
$DIMSOXD
 70
     0
  9
$DIMSAH
 70
     0
  9
$DIMBLK1
  1

  9
$DIMBLK2
  1

  9
$DIMSTYLE
  2
SANINDUSA
  9
$DIMCLRD
 70
   256
  9
$DIMCLRE
 70
   256
  9
$DIMCLRT
 70
   256
  9
$DIMTFAC
 40
1.0
  9
$DIMGAP
 40
1.0
  9
$DIMJUST
 70
     0
  9
$DIMSD1
 70
     0
  9
$DIMSD2
 70
     0
  9
$DIMTOLJ
 70
     0
  9
$DIMTZIN
 70
     8
  9
$DIMALTZ
 70
     0
  9
$DIMALTTZ
 70
     0
  9
$DIMUPT
 70
     0
  9
$DIMDEC
 70
     1
  9
$DIMTDEC
 70
     1
  9
$DIMALTU
 70
     2
  9
$DIMALTTD
 70
     3
  9
$DIMTXSTY
  7
SANINDUSA
  9
$DIMAUNIT
 70
     0
  9
$DIMADEC
 70
     1
  9
$DIMALTRND
 40
0.0
  9
$DIMAZIN
 70
     0
  9
$DIMDSEP
 70
    44
  9
$DIMATFIT
 70
     3
  9
$DIMFRAC
 70
     0
  9
$DIMLDRBLK
  1

  9
$DIMLUNIT
 70
     2
  9
$DIMLWD
 70
    -1
  9
$DIMLWE
 70
    -1
  9
$DIMTMOVE
 70
     0
  9
$LUNITS
 70
     2
  9
$LUPREC
 70
     4
  9
$SKETCHINC
 40
1.0
  9
$FILLETRAD
 40
0.0
  9
$AUNITS
 70
     0
  9
$AUPREC
 70
     0
  9
$MENU
  1
.
  9
$ELEVATION
 40
0.0
  9
$PELEVATION
 40
0.0
  9
$THICKNESS
 40
0.0
  9
$LIMCHECK
 70
     0
  9
$CHAMFERA
 40
10.0
  9
$CHAMFERB
 40
10.0
  9
$CHAMFERC
 40
20.0
  9
$CHAMFERD
 40
0.0
  9
$SKPOLY
 70
     0
  9
$TDCREATE
 40
2453095.532136134
  9
$TDUCREATE
 40
2453095.490469467
  9
$TDUPDATE
 40
2456146.459704132
  9
$TDUUPDATE
 40
2456146.418037465
  9
$TDINDWG
 40
0.0290972222
  9
$TDUSRTIMER
 40
0.0290972222
  9
$USRTIMER
 70
     1
  9
$ANGBASE
 50
0.0
  9
$ANGDIR
 70
     0
  9
$PDMODE
 70
     0
  9
$PDSIZE
 40
0.0
  9
$PLINEWID
 40
0.0
  9
$SPLFRAME
 70
     0
  9
$SPLINETYPE
 70
     6
  9
$SPLINESEGS
 70
     8
  9
$HANDSEED
  5
1956
  9
$SURFTAB1
 70
     6
  9
$SURFTAB2
 70
     6
  9
$SURFTYPE
 70
     6
  9
$SURFU
 70
     6
  9
$SURFV
 70
     6
  9
$UCSBASE
  2

  9
$UCSNAME
  2

  9
$UCSORG
 10
0.0
 20
0.0
 30
0.0
  9
$UCSXDIR
 10
1.0
 20
0.0
 30
0.0
  9
$UCSYDIR
 10
0.0
 20
1.0
 30
0.0
  9
$UCSORTHOREF
  2

  9
$UCSORTHOVIEW
 70
     0
  9
$UCSORGTOP
 10
0.0
 20
0.0
 30
0.0
  9
$UCSORGBOTTOM
 10
0.0
 20
0.0
 30
0.0
  9
$UCSORGLEFT
 10
0.0
 20
0.0
 30
0.0
  9
$UCSORGRIGHT
 10
0.0
 20
0.0
 30
0.0
  9
$UCSORGFRONT
 10
0.0
 20
0.0
 30
0.0
  9
$UCSORGBACK
 10
0.0
 20
0.0
 30
0.0
  9
$PUCSBASE
  2

  9
$PUCSNAME
  2

  9
$PUCSORG
 10
0.0
 20
0.0
 30
0.0
  9
$PUCSXDIR
 10
1.0
 20
0.0
 30
0.0
  9
$PUCSYDIR
 10
0.0
 20
1.0
 30
0.0
  9
$PUCSORTHOREF
  2

  9
$PUCSORTHOVIEW
 70
     0
  9
$PUCSORGTOP
 10
0.0
 20
0.0
 30
0.0
  9
$PUCSORGBOTTOM
 10
0.0
 20
0.0
 30
0.0
  9
$PUCSORGLEFT
 10
0.0
 20
0.0
 30
0.0
  9
$PUCSORGRIGHT
 10
0.0
 20
0.0
 30
0.0
  9
$PUCSORGFRONT
 10
0.0
 20
0.0
 30
0.0
  9
$PUCSORGBACK
 10
0.0
 20
0.0
 30
0.0
  9
$USERI1
 70
     0
  9
$USERI2
 70
     0
  9
$USERI3
 70
     0
  9
$USERI4
 70
     0
  9
$USERI5
 70
     0
  9
$USERR1
 40
0.0
  9
$USERR2
 40
0.0
  9
$USERR3
 40
0.0
  9
$USERR4
 40
0.0
  9
$USERR5
 40
0.0
  9
$WORLDVIEW
 70
     1
  9
$SHADEDGE
 70
     3
  9
$SHADEDIF
 70
    70
  9
$TILEMODE
 70
     1
  9
$MAXACTVP
 70
    64
  9
$PINSBASE
 10
0.0
 20
0.0
 30
0.0
  9
$PLIMCHECK
 70
     0
  9
$PEXTMIN
 10
1.000000000000000E+20
 20
1.000000000000000E+20
 30
1.000000000000000E+20
  9
$PEXTMAX
 10
-1.000000000000000E+20
 20
-1.000000000000000E+20
 30
-1.000000000000000E+20
  9
$PLIMMIN
 10
0.0
 20
0.0
  9
$PLIMMAX
 10
420.0
 20
297.0
  9
$UNITMODE
 70
     0
  9
$VISRETAIN
 70
     1
  9
$PLINEGEN
 70
     0
  9
$PSLTSCALE
 70
     1
  9
$TREEDEPTH
 70
  3020
  9
$CMLSTYLE
  2
Standard
  9
$CMLJUST
 70
     0
  9
$CMLSCALE
 40
20.0
  9
$PROXYGRAPHICS
 70
     1
  9
$MEASUREMENT
 70
     1
  9
$CELWEIGHT
370
    -1
  9
$ENDCAPS
280
     0
  9
$JOINSTYLE
280
     0
  9
$LWDISPLAY
290
     0
  9
$INSUNITS
 70
     4
  9
$HYPERLINKBASE
  1

  9
$STYLESHEET
  1
monochrome.ctb
  9
$XEDIT
290
     1
  9
$CEPSNTYPE
380
     0
  9
$PSTYLEMODE
290
     1
  9
$FINGERPRINTGUID
  2
{B98A73AA-52AA-4C10-B469-C0E7150AC31F}
  9
$VERSIONGUID
  2
{3EC40173-17FD-441F-AC18-31C1EF9D58E7}
  9
$EXTNAMES
290
     1
  9
$PSVPSCALE
 40
0.0
  9
$OLESTARTUP
290
     0
  0
ENDSEC
  0
SECTION
  2
CLASSES
  0
CLASS
  1
ACDBDICTIONARYWDFLT
  2
AcDbDictionaryWithDefault
  3
ObjectDBX Classes
 90
        0
280
     0
281
     0
  0
CLASS
  1
ACDBPLACEHOLDER
  2
AcDbPlaceHolder
  3
ObjectDBX Classes
 90
        0
280
     0
281
     0
  0
CLASS
  1
LAYOUT
  2
AcDbLayout
  3
ObjectDBX Classes
 90
        0
280
     0
281
     0
  0
CLASS
  1
DICTIONARYVAR
  2
AcDbDictionaryVar
  3
ObjectDBX Classes
 90
        0
280
     0
281
     0
  0
CLASS
  1
DIMASSOC
  2
AcDbDimAssoc
  3
"AcDbDimAssoc|Product Desc:     AcDim ARX App For Dimension|Company:          Autodesk, Inc.|WEB Address:      www.autodesk.com"
 90
    32768
280
     0
281
     0
  0
CLASS
  1
MATERIAL
  2
AcDbMaterial
  3
ObjectDBX Classes
 90
     1153
280
     0
281
     0
  0
CLASS
  1
VISUALSTYLE
  2
AcDbVisualStyle
  3
ObjectDBX Classes
 90
     4095
280
     0
281
     0
  0
CLASS
  1
TABLESTYLE
  2
AcDbTableStyle
  3
ObjectDBX Classes
 90
     4095
280
     0
281
     0
  0
CLASS
  1
SCALE
  2
AcDbScale
  3
ObjectDBX Classes
 90
     1153
280
     0
281
     0
  0
CLASS
  1
MLEADERSTYLE
  2
AcDbMLeaderStyle
  3
ACDB_MLEADERSTYLE_CLASS
 90
     4095
280
     0
281
     0
  0
CLASS
  1
CELLSTYLEMAP
  2
AcDbCellStyleMap
  3
ObjectDBX Classes
 90
     1152
280
     0
281
     0
  0
ENDSEC
  0
SECTION
  2
TABLES
  0
TABLE
  2
VPORT
  5
8
330
0
100
AcDbSymbolTable
 70
     1
  0
VPORT
  5
18A8
330
8
100
AcDbSymbolTableRecord
100
AcDbViewportTableRecord
  2
*Active
 70
     0
 10
0.0
 20
0.0
 11
1.0
 21
1.0
 12
4696.04913068776
 22
1875.68984204902
 13
0.0
 23
0.0
 14
10.0
 24
10.0
 15
10.0
 25
10.0
 16
0.0
 26
0.0
 36
1.0
 17
0.0
 27
0.0
 37
0.0
 40
2.281955575381743
 41
1.645464025026068
 42
50.0
 43
0.0
 44
0.0
 50
0.0
 51
0.0
 71
     0
 72
   100
 73
     1
 74
     2
 75
     0
 76
     0
 77
     0
 78
     0
281
     0
 65
     1
110
0.0
120
0.0
130
0.0
111
1.0
121
0.0
131
0.0
112
0.0
122
1.0
132
0.0
 79
     0
146
0.0
  0
ENDTAB
  0
TABLE
  2
LTYPE
  5
5
330
0
100
AcDbSymbolTable
 70
     4
  0
LTYPE
  5
14
330
5
100
AcDbSymbolTableRecord
100
AcDbLinetypeTableRecord
  2
ByBlock
 70
     0
  3

 72
    65
 73
     0
 40
0.0
  0
LTYPE
  5
15
330
5
100
AcDbSymbolTableRecord
100
AcDbLinetypeTableRecord
  2
ByLayer
 70
     0
  3

 72
    65
 73
     0
 40
0.0
  0
LTYPE
  5
16
330
5
100
AcDbSymbolTableRecord
100
AcDbLinetypeTableRecord
  2
Continuous
 70
     0
  3
Solid line
 72
    65
 73
     0
 40
0.0
  0
LTYPE
  5
2D
330
5
100
AcDbSymbolTableRecord
100
AcDbLinetypeTableRecord
  2
DASHDOT
 70
     0
  3
Dash dot __ . __ . __ . __ . __ . __ . __ . __
 72
    65
 73
     4
 40
25.4
 49
12.7
 74
     0
 49
-6.349999999999999
 74
     0
 49
0.0
 74
     0
 49
-6.349999999999999
 74
     0
  0
LTYPE
  5
2E
330
5
100
AcDbSymbolTableRecord
100
AcDbLinetypeTableRecord
  2
HIDDEN
 70
     0
  3
Hidden __ __ __ __ __ __ __ __ __ __ __ __ __ _
 72
    65
 73
     2
 40
9.524999999999998
 49
6.349999999999999
 74
     0
 49
-3.174999999999999
 74
     0
  0
LTYPE
  5
D86
330
5
100
AcDbSymbolTableRecord
100
AcDbLinetypeTableRecord
  2
CENTERX2
 70
     0
  3
Center (2x) ________  __  ________  __  _____
 72
    65
 73
     4
 40
20.32
 49
12.7
 74
     0
 49
-2.54
 74
     0
 49
2.54
 74
     0
 49
-2.54
 74
     0
  0
ENDTAB
  0
TABLE
  2
LAYER
  5
2
330
0
100
AcDbSymbolTable
 70
    17
  0
LAYER
  5
10
102
{ACAD_XDICTIONARY
360
18F3
102
}
330
2
100
AcDbSymbolTableRecord
100
AcDbLayerTableRecord
  2
0
 70
     0
 62
     7
  6
Continuous
370
    -3
390
F
  0
LAYER
  5
2F
102
{ACAD_XDICTIONARY
360
18F5
102
}
330
2
100
AcDbSymbolTableRecord
100
AcDbLayerTableRecord
  2
1
 70
     0
 62
     1
  6
Continuous
370
    -3
390
F
  0
LAYER
  5
30
102
{ACAD_XDICTIONARY
360
18F7
102
}
330
2
100
AcDbSymbolTableRecord
100
AcDbLayerTableRecord
  2
2
 70
     0
 62
     2
  6
Continuous
370
    -3
390
F
  0
LAYER
  5
31
102
{ACAD_XDICTIONARY
360
18F9
102
}
330
2
100
AcDbSymbolTableRecord
100
AcDbLayerTableRecord
  2
3
 70
     0
 62
     3
  6
Continuous
370
    -3
390
F
  0
LAYER
  5
32
102
{ACAD_XDICTIONARY
360
18FB
102
}
330
2
100
AcDbSymbolTableRecord
100
AcDbLayerTableRecord
  2
4
 70
     0
 62
     4
  6
Continuous
370
    -3
390
F
  0
LAYER
  5
33
102
{ACAD_XDICTIONARY
360
18FD
102
}
330
2
100
AcDbSymbolTableRecord
100
AcDbLayerTableRecord
  2
5
 70
     0
 62
     5
  6
Continuous
370
    -3
390
F
  0
LAYER
  5
34
102
{ACAD_XDICTIONARY
360
18FF
102
}
330
2
100
AcDbSymbolTableRecord
100
AcDbLayerTableRecord
  2
6
 70
     0
 62
     6
  6
Continuous
370
    -3
390
F
  0
LAYER
  5
35
102
{ACAD_XDICTIONARY
360
1901
102
}
330
2
100
AcDbSymbolTableRecord
100
AcDbLayerTableRecord
  2
7
 70
     0
 62
     7
  6
Continuous
370
    -3
390
F
  0
LAYER
  5
36
102
{ACAD_XDICTIONARY
360
1903
102
}
330
2
100
AcDbSymbolTableRecord
100
AcDbLayerTableRecord
  2
cen
 70
     0
 62
     7
  6
DASHDOT
370
    -3
390
F
  0
LAYER
  5
37
102
{ACAD_XDICTIONARY
360
1905
102
}
330
2
100
AcDbSymbolTableRecord
100
AcDbLayerTableRecord
  2
hid
 70
     0
 62
     7
  6
HIDDEN
370
    -3
390
F
  0
LAYER
  5
5D6
102
{ACAD_XDICTIONARY
360
1907
102
}
330
2
100
AcDbSymbolTableRecord
100
AcDbLayerTableRecord
  2
hatch
 70
     0
 62
     9
  6
Continuous
370
    -3
390
F
  0
LAYER
  5
8AF
102
{ACAD_XDICTIONARY
360
1909
102
}
330
2
100
AcDbSymbolTableRecord
100
AcDbLayerTableRecord
  2
9
 70
     0
 62
     9
  6
Continuous
370
    -3
390
F
  0
LAYER
  5
8F8
102
{ACAD_XDICTIONARY
360
190B
102
}
330
2
100
AcDbSymbolTableRecord
100
AcDbLayerTableRecord
  2
leg fin
 70
     0
 62
     9
  6
Continuous
370
    -3
390
F
  0
LAYER
  5
91D
102
{ACAD_XDICTIONARY
360
190D
102
}
330
2
100
AcDbSymbolTableRecord
100
AcDbLayerTableRecord
  2
cotas
 70
     0
 62
     1
  6
Continuous
370
    -3
390
F
  0
LAYER
  5
92F
330
2
100
AcDbSymbolTableRecord
100
AcDbLayerTableRecord
  2
Defpoints
 70
     0
 62
     7
  6
Continuous
290
     0
370
    -3
390
F
  0
LAYER
  5
B5B
102
{ACAD_XDICTIONARY
360
190F
102
}
330
2
100
AcDbSymbolTableRecord
100
AcDbLayerTableRecord
  2
indusa
 70
     0
 62
     3
  6
Continuous
370
    -3
390
F
  0
LAYER
  5
1720
102
{ACAD_XDICTIONARY
360
1911
102
}
330
2
100
AcDbSymbolTableRecord
100
AcDbLayerTableRecord
  2
SANINDUSA
 70
     0
 62
     3
  6
Continuous
370
    -3
390
F
  0
ENDTAB
  0
TABLE
  2
STYLE
  5
3
330
0
100
AcDbSymbolTable
 70
     4
  0
STYLE
  5
11
330
3
100
AcDbSymbolTableRecord
100
AcDbTextStyleTableRecord
  2
Standard
 70
     0
 40
0.0
 41
1.0
 50
0.0
 71
     0
 42
2.5
  3
Avgardn.ttf
  4

1001
ACAD
1000
AvantGarde Bk BT
1071
       34
  0
STYLE
  5
2C
330
3
100
AcDbSymbolTableRecord
100
AcDbTextStyleTableRecord
  2

 70
     1
 40
0.0
 41
1.0
 50
0.0
 71
     0
 42
2.5
  3
ltypeshp.shx
  4

  0
STYLE
  5
91F
330
3
100
AcDbSymbolTableRecord
100
AcDbTextStyleTableRecord
  2
SANINDUSA
 70
     0
 40
0.0
 41
1.0
 50
0.0
 71
     0
 42
2.5
  3
verdana.TTF
  4

1001
ACAD
1000
Verdana
1071
       34
  0
STYLE
  5
1721
330
3
100
AcDbSymbolTableRecord
100
AcDbTextStyleTableRecord
  2
cotas
 70
     0
 40
2.0
 41
0.8
 50
0.0
 71
     0
 42
4.0
  3
ISOCP.shx
  4

  0
ENDTAB
  0
TABLE
  2
VIEW
  5
6
330
0
100
AcDbSymbolTable
 70
     0
  0
ENDTAB
  0
TABLE
  2
UCS
  5
7
330
0
100
AcDbSymbolTable
 70
     0
  0
ENDTAB
  0
TABLE
  2
APPID
  5
9
330
0
100
AcDbSymbolTable
 70
     3
  0
APPID
  5
12
330
9
100
AcDbSymbolTableRecord
100
AcDbRegAppTableRecord
  2
ACAD
 70
     0
  0
APPID
  5
3A
330
9
100
AcDbSymbolTableRecord
100
AcDbRegAppTableRecord
  2
DCO15
 70
     0
  0
APPID
  5
1955
330
9
100
AcDbSymbolTableRecord
100
AcDbRegAppTableRecord
  2
ACAD_MLEADERVER
 70
     0
  0
ENDTAB
  0
TABLE
  2
DIMSTYLE
  5
A
330
0
100
AcDbSymbolTable
 70
     3
100
AcDbDimStyleTable
 71
     1
340
921
  0
DIMSTYLE
105
45
330
A
100
AcDbSymbolTableRecord
100
AcDbDimStyleTableRecord
  2
STANDARD
 70
     0
289
     0
340
11
  0
DIMSTYLE
105
921
330
A
100
AcDbSymbolTableRecord
100
AcDbDimStyleTableRecord
  2
SANINDUSA
 70
     0
 41
2.0
 42
1.0
 43
1.0
 44
1.0
 73
     0
 74
     0
 77
     1
 78
     8
140
2.0
141
0.0
143
0.03937007874016
147
1.0
171
     3
172
     1
176
   256
177
   256
178
   256
179
     1
271
     1
272
     1
274
     3
278
    44
283
     0
284
     8
340
91F
371
    -1
372
    -1
  0
DIMSTYLE
105
1722
330
A
100
AcDbSymbolTableRecord
100
AcDbDimStyleTableRecord
  2
ISO-25
 70
     0
 41
2.5
 42
0.625
 43
3.75
 44
1.25
 73
     0
 74
     0
 77
     1
 78
     8
140
2.5
141
2.5
143
0.03937007874016
147
0.625
171
     3
172
     1
271
     2
272
     2
274
     3
278
    44
283
     0
284
     8
340
11
  0
ENDTAB
  0
TABLE
  2
BLOCK_RECORD
  5
1
330
0
100
AcDbSymbolTable
 70
    92
  0
BLOCK_RECORD
  5
1F
330
1
100
AcDbSymbolTableRecord
100
AcDbBlockTableRecord
  2
*Model_Space
340
22
  0
BLOCK_RECORD
  5
1B
330
1
100
AcDbSymbolTableRecord
100
AcDbBlockTableRecord
  2
*Paper_Space
340
1E
  0
BLOCK_RECORD
  5
23
330
1
100
AcDbSymbolTableRecord
100
AcDbBlockTableRecord
  2
*Paper_Space0
340
26
  0
BLOCK_RECORD
  5
919
330
1
100
AcDbSymbolTableRecord
100
AcDbBlockTableRecord
  2
_DotSmall
340
0
  0
BLOCK_RECORD
  5
922
330
1
100
AcDbSymbolTableRecord
100
AcDbBlockTableRecord
  2
base para cotas
340
0
310
2800000020000000200000000100080000000000000400000000000000000000000000000000000000000000000080000080000000808000800000008000800080800000C0C0C000C0DCC000F0CAA6000020400000206000002080000020A0000020C0000020E00000400000004020000040400000406000004080000040A0
310
000040C0000040E00000600000006020000060400000606000006080000060A0000060C0000060E00000800000008020000080400000806000008080000080A0000080C0000080E00000A0000000A0200000A0400000A0600000A0800000A0A00000A0C00000A0E00000C0000000C0200000C0400000C0600000C0800000C0
310
A00000C0C00000C0E00000E0000000E0200000E0400000E0600000E0800000E0A00000E0C00000E0E00040000000400020004000400040006000400080004000A0004000C0004000E00040200000402020004020400040206000402080004020A0004020C0004020E000404000004040200040404000404060004040800040
310
40A0004040C0004040E00040600000406020004060400040606000406080004060A0004060C0004060E00040800000408020004080400040806000408080004080A0004080C0004080E00040A0000040A0200040A0400040A0600040A0800040A0A00040A0C00040A0E00040C0000040C0200040C0400040C0600040C08000
310
40C0A00040C0C00040C0E00040E0000040E0200040E0400040E0600040E0800040E0A00040E0C00040E0E00080000000800020008000400080006000800080008000A0008000C0008000E00080200000802020008020400080206000802080008020A0008020C0008020E00080400000804020008040400080406000804080
310
008040A0008040C0008040E00080600000806020008060400080606000806080008060A0008060C0008060E00080800000808020008080400080806000808080008080A0008080C0008080E00080A0000080A0200080A0400080A0600080A0800080A0A00080A0C00080A0E00080C0000080C0200080C0400080C0600080C0
310
800080C0A00080C0C00080C0E00080E0000080E0200080E0400080E0600080E0800080E0A00080E0C00080E0E000C0000000C0002000C0004000C0006000C0008000C000A000C000C000C000E000C0200000C0202000C0204000C0206000C0208000C020A000C020C000C020E000C0400000C0402000C0404000C0406000C0
310
408000C040A000C040C000C040E000C0600000C0602000C0604000C0606000C0608000C060A000C060C000C060E000C0800000C0802000C0804000C0806000C0808000C080A000C080C000C080E000C0A00000C0A02000C0A04000C0A06000C0A08000C0A0A000C0A0C000C0A0E000C0C00000C0C02000C0C04000C0C06000
310
C0C08000C0C0A000F0FBFF00A4A0A000808080000000FF0000FF000000FFFF00FF000000FF00FF00FFFF0000FFFFFF00A4A4A4A4A4A4A4A4A4A4A4A4A4A4A4A4A4A4A4A4A4A4A4A4A4A4A4A4A4A4A4A4A4A4A4A4A4A4A4A4A4A4A4A4A4A4A4A4A4A4A4A4A4A4A4A4A4A4A4A4A4A4A4A4A4A4A4A4A4A4A4A4A4A4A4A4A4A4A4
310
A4A4A4A4A4A4A4A4A4A4A4A4A4A4A4A4A4A4A4A4A4A4A4A4A4A4A4A4A4A4A4A4A4A4A4A4A4A4A4A4A4A4A4A4A4A4A4A4A4A4A4A4A4A4A4A4A4A4A4A4A4A4A4A4A4A4A4A4A4A4A4A4A4A4A4A4A4A4A4A4A4A4A4A4A4A4A4A4A4A4A4A4A4A4A4A4A4A4A4A4A4A4A4A4A4A4A4A4A4A4A4A4A4A4A4A4A4A4A4A4A4A4A4A4A4A4A4
310
A4A4A4A4A4A4A4A4A4A4A4A4A4A4A4A4A4A4A4A4A4A4A4A4A4A4A4A4A4A4A4A4A4A4A4A4A4A4A4A4A4A4A4A4A4A4A4A4A4A4A4A4A4A4A4A4A4A4A4A4A4A4A4A4A4A4A4A4A4A4A4A4A4A4A4A4A4A4A4A4A4A4A4A4A4A4A4A4A4A4A4A4A4A4A4A4A4A4A4A4A4A4A4A4A4A4A4A4A4A4A4A4A4A4A4A4A4A4A4A4A4A4A4A4A4A4A4
310
A4A4A4A4A4A4A4A4A4A4A4A4A4A4A4A4A4A4A4A4A4A4A4A4A4A4A4A4A4A4A4A4A4A4A4A4A4A4A4A4A4A4A4A4A4A4A4A4A4A4A4A4A4A4A4A4A4A4A4A4A4A4A4A4A4A4A4A4A4A4A4A4A4A4A4A4A4A4A4A4A4A4A4A4A4A4A4A4A4A4A4A4A4A4A4A4A4A4A4A4A4A4A4A4A4A4A4A4A4A4A4A4A4A4A4A4F9F9F9F9F9F9F9F9F9F9F9
310
F9F9F9F9F9F9F9F9F9F9F9F9F9F9F9F9F9F9F9A4A4F9F9F9F9F9F9F9F9F9F9F9F9F9F9F9F9F9F9F9F9F9F9F9F9F9F9F9F9F9F9A4A4F9F9F9F9F9F9F9F9F9F9F9F9F9F9F9F9F9F9F9F9F9F9F9F9F9F9F9F9F9F9A4A4F9A4A4A4A4A4A4A4A4A4A4A4A4A4A4A4A4A4A4A4A4A4A4A4A4A4A4A4A4F9A4A4A4A4A4A4A4A4A4A4A4A4
310
A4A4A4A4A4A4A4A4A4A4A4A4A4A4A4A4A4A4A4A4A4A4A4A4A4A4A4A4A4A4A4A4A4A4A4A4A4A4A4A4A4A4A4A4A4A4A4A4A4A4A4A4A4A4A4A4A4A4A4A4A4A4A4A4A4A4A4A4A4A4A4A4A4A4A4A4A4A4A4A4A4A4A4A4A4A4A4A4A4A4A4A4A4A4A4A4A4A4A4A4A4A4A4A4A4A4A4A4A4A4A4A4A4A4A4A4A4A4A4A4A4A4A4A4A4A4A4
310
A4A4A4A4A4A4A4A4A4A4A4A4A4A4A4A4A4A4A4A4A4A4A4A4A4A4A4A4A4A4A4A4A4A4A4A4A4A4A4A4A4A4A4A4A4A4A4A4A4A4A4A4A4A4A4A4A4A4A4A4A4A4A4A4A4A4A4A4A4A4A4A4A4A4A4A4A4A4A4A4A4A4A4A4A4A4A4A4A4A4A4A4A4A4A4A4A4A4A4A4A4A4A4A4A4A4A4A4A4A4A4A4A4A4A4A4A4A4A4A4A4A4A4A4A4A4A4
310
A4A4A4A4A4A4A4A4A4A4A4A4A4A4A4A4A4A4A4A4A4A4A4A4A4A4A4A4A4A4A4A4A4A4A4A4A4A4A4A4A4A4A4A4A4A4A4A4A4A4A4A4A4A4A4A4A4A4A4A4A4A4A4A4A4A4A4A4A4A4A4A4A4A4A4A4A4A4A4A4A4A4A4A4A4A4A4A4A4A4A4A4A4A4A4A4A4A4A4A4A4A4A4A4A4A4A4A4A4A4A4A4A4A4A4A4A4A4A4A4A4A4A4A4A4A4A4
310
A4A4A4A4A4A4A4A4A4A4A4A4A4A4A4A4A4A4A4A4A4A4A4A4A4A4A4A4A4A4A4A4A4A4A4A4A4A4A4A4A4A4A4A4A4A4A4A4A4A4A4A4A4A4A4A4
1001
ACAD
1000
DesignCenter Data
1002
{
1070
     1
1070
     4
1002
}
  0
BLOCK_RECORD
  5
AA8
330
1
100
AcDbSymbolTableRecord
100
AcDbBlockTableRecord
  2
_CLOSED
340
0
  0
BLOCK_RECORD
  5
B99
330
1
100
AcDbSymbolTableRecord
100
AcDbBlockTableRecord
  2
SW_CENTERMARK15
340
0
  0
BLOCK_RECORD
  5
BA4
330
1
100
AcDbSymbolTableRecord
100
AcDbBlockTableRecord
  2
SW_CENTERMARK16
340
0
  0
BLOCK_RECORD
  5
1723
330
1
100
AcDbSymbolTableRecord
100
AcDbBlockTableRecord
  2
104032CT
340
0
  0
BLOCK_RECORD
  5
17A0
330
1
100
AcDbSymbolTableRecord
100
AcDbBlockTableRecord
  2
104032PL
340
0
  0
BLOCK_RECORD
  5
17C8
330
1
100
AcDbSymbolTableRecord
100
AcDbBlockTableRecord
  2
104032AL
340
0
  0
BLOCK_RECORD
  5
187B
330
1
100
AcDbSymbolTableRecord
100
AcDbBlockTableRecord
  2
104032AF
340
0
  0
ENDTAB
  0
ENDSEC
  0
SECTION
  2
BLOCKS
  0
BLOCK
  5
20
330
1F
100
AcDbEntity
  8
0
100
AcDbBlockBegin
  2
*Model_Space
 70
     0
 10
0.0
 20
0.0
 30
0.0
  3
*Model_Space
  1

  0
ENDBLK
  5
21
330
1F
100
AcDbEntity
  8
0
100
AcDbBlockEnd
  0
BLOCK
  5
1C
330
1B
100
AcDbEntity
 67
     1
  8
0
100
AcDbBlockBegin
  2
*Paper_Space
 70
     0
 10
0.0
 20
0.0
 30
0.0
  3
*Paper_Space
  1

  0
ENDBLK
  5
1D
330
1B
100
AcDbEntity
 67
     1
  8
0
100
AcDbBlockEnd
  0
BLOCK
  5
24
330
23
100
AcDbEntity
 67
     1
  8
0
100
AcDbBlockBegin
  2
*Paper_Space0
 70
     0
 10
0.0
 20
0.0
 30
0.0
  3
*Paper_Space0
  1

  0
ENDBLK
  5
25
330
23
100
AcDbEntity
 67
     1
  8
0
100
AcDbBlockEnd
  0
BLOCK
  5
91B
330
919
100
AcDbEntity
  8
0
100
AcDbBlockBegin
  2
_DotSmall
 70
     0
 10
0.0
 20
0.0
 30
0.0
  3
_DotSmall
  1

  0
LWPOLYLINE
  5
91A
330
919
100
AcDbEntity
  8
0
  6
ByBlock
 62
     0
100
AcDbPolyline
 90
        2
 70
     1
 43
0.5
 10
-0.0625
 20
0.0
 42
1.0
 10
0.0625
 20
0.0
 42
1.0
  0
ENDBLK
  5
91C
330
919
100
AcDbEntity
  8
0
100
AcDbBlockEnd
  0
BLOCK
  5
92A
330
922
100
AcDbEntity
  8
0
100
AcDbBlockBegin
  2
base para cotas
 70
     0
 10
0.0
 20
0.0
 30
0.0
  3
base para cotas
  1

  0
LINE
  5
B36
330
922
100
AcDbEntity
  8
cotas
100
AcDbLine
 10
0.0
 20
-30.0
 30
0.0
 11
327.1260136525398
 21
-30.0
 31
0.0
  0
LINE
  5
B37
330
922
100
AcDbEntity
  8
cotas
100
AcDbLine
 10
0.0
 20
-25.0
 30
0.0
 11
327.1260136525398
 21
-25.0
 31
0.0
  0
LINE
  5
B38
330
922
100
AcDbEntity
  8
cotas
100
AcDbLine
 10
0.0
 20
-20.0
 30
0.0
 11
327.1260136525398
 21
-20.0
 31
0.0
  0
LINE
  5
B39
330
922
100
AcDbEntity
  8
cotas
100
AcDbLine
 10
0.0
 20
-15.0
 30
0.0
 11
327.1260136525398
 21
-15.0
 31
0.0
  0
LINE
  5
B3A
330
922
100
AcDbEntity
  8
cotas
100
AcDbLine
 10
0.0
 20
-10.0
 30
0.0
 11
327.1260136525398
 21
-10.0
 31
0.0
  0
LINE
  5
B3B
330
922
100
AcDbEntity
  8
cotas
100
AcDbLine
 10
0.0
 20
0.0
 30
0.0
 11
0.0
 21
-30.0
 31
0.0
  0
LINE
  5
B3C
330
922
100
AcDbEntity
  8
cotas
100
AcDbLine
 10
327.1260136525398
 20
-30.0
 30
0.0
 11
327.1260136525398
 21
0.0
 31
0.0
  0
ENDBLK
  5
92B
330
922
100
AcDbEntity
  8
0
100
AcDbBlockEnd
  0
BLOCK
  5
AAD
330
AA8
100
AcDbEntity
  8
0
100
AcDbBlockBegin
  2
_CLOSED
 70
     0
 10
0.0
 20
0.0
 30
0.0
  3
_CLOSED
  1

  0
LINE
  5
AA9
330
AA8
100
AcDbEntity
  8
0
100
AcDbLine
 10
-1.0
 20
0.166667
 30
0.0
 11
0.0
 21
0.0
 31
0.0
  0
LINE
  5
AAA
330
AA8
100
AcDbEntity
  8
0
100
AcDbLine
 10
0.0
 20
0.0
 30
0.0
 11
-1.0
 21
-0.166667
 31
0.0
  0
LINE
  5
AAB
330
AA8
100
AcDbEntity
  8
0
100
AcDbLine
 10
-1.0
 20
0.166667
 30
0.0
 11
-1.0
 21
-0.166667
 31
0.0
  0
LINE
  5
AAC
330
AA8
100
AcDbEntity
  8
0
100
AcDbLine
 10
0.0
 20
0.0
 30
0.0
 11
-1.0
 21
0.0
 31
0.0
  0
ENDBLK
  5
AAE
330
AA8
100
AcDbEntity
  8
0
100
AcDbBlockEnd
  0
BLOCK
  5
BA2
330
B99
100
AcDbEntity
  8
0
 62
     0
100
AcDbBlockBegin
  2
SW_CENTERMARK15
 70
     0
 10
0.0
 20
0.0
 30
0.0
  3
SW_CENTERMARK15
  1

  0
LINE
  5
B9A
330
B99
100
AcDbEntity
  8
0
  6
Continuous
 62
     7
100
AcDbLine
 10
137.9296561145046
 20
55.2354066943819
 30
0.0
 11
137.9296561145046
 21
55.4854066943819
 31
0.0
  0
LINE
  5
B9B
330
B99
100
AcDbEntity
  8
0
  6
Continuous
 62
     7
100
AcDbLine
 10
137.9296561145046
 20
55.2354066943819
 30
0.0
 11
137.6796561145046
 21
55.2354066943819
 31
0.0
  0
LINE
  5
B9C
330
B99
100
AcDbEntity
  8
0
  6
Continuous
 62
     7
100
AcDbLine
 10
137.9296561145046
 20
55.2354066943819
 30
0.0
 11
137.9296561145046
 21
54.9854066943819
 31
0.0
  0
LINE
  5
B9D
330
B99
100
AcDbEntity
  8
0
  6
Continuous
 62
     7
100
AcDbLine
 10
137.9296561145046
 20
55.2354066943819
 30
0.0
 11
138.1796561145046
 21
55.2354066943819
 31
0.0
  0
LINE
  5
B9E
330
B99
100
AcDbEntity
  8
0
  6
CENTERX2
 62
     7
100
AcDbLine
 10
137.9296561145046
 20
55.7354066943819
 30
0.0
 11
137.9296561145046
 21
56.28540669438191
 31
0.0
  0
LINE
  5
B9F
330
B99
100
AcDbEntity
  8
0
  6
CENTERX2
 62
     7
100
AcDbLine
 10
137.4296561145046
 20
55.2354066943819
 30
0.0
 11
136.8796561145046
 21
55.2354066943819
 31
0.0
  0
LINE
  5
BA0
330
B99
100
AcDbEntity
  8
0
  6
CENTERX2
 62
     7
100
AcDbLine
 10
137.9296561145046
 20
54.7354066943819
 30
0.0
 11
137.9296561145046
 21
54.1854066943819
 31
0.0
  0
LINE
  5
BA1
330
B99
100
AcDbEntity
  8
0
  6
CENTERX2
 62
     7
100
AcDbLine
 10
138.4296561145046
 20
55.2354066943819
 30
0.0
 11
138.9796561145046
 21
55.2354066943819
 31
0.0
  0
ENDBLK
  5
BA3
330
B99
100
AcDbEntity
  8
0
100
AcDbBlockEnd
  0
BLOCK
  5
BAD
330
BA4
100
AcDbEntity
  8
0
 62
     0
100
AcDbBlockBegin
  2
SW_CENTERMARK16
 70
     0
 10
0.0
 20
0.0
 30
0.0
  3
SW_CENTERMARK16
  1

  0
LINE
  5
BA5
330
BA4
100
AcDbEntity
  8
0
  6
Continuous
 62
     7
100
AcDbLine
 10
137.9296561145046
 20
38.7354066943819
 30
0.0
 11
137.9296561145046
 21
38.98540669438189
 31
0.0
  0
LINE
  5
BA6
330
BA4
100
AcDbEntity
  8
0
  6
Continuous
 62
     7
100
AcDbLine
 10
137.9296561145046
 20
38.7354066943819
 30
0.0
 11
137.6796561145046
 21
38.7354066943819
 31
0.0
  0
LINE
  5
BA7
330
BA4
100
AcDbEntity
  8
0
  6
Continuous
 62
     7
100
AcDbLine
 10
137.9296561145046
 20
38.7354066943819
 30
0.0
 11
137.9296561145046
 21
38.4854066943819
 31
0.0
  0
LINE
  5
BA8
330
BA4
100
AcDbEntity
  8
0
  6
Continuous
 62
     7
100
AcDbLine
 10
137.9296561145046
 20
38.7354066943819
 30
0.0
 11
138.1796561145046
 21
38.7354066943819
 31
0.0
  0
LINE
  5
BA9
330
BA4
100
AcDbEntity
  8
0
  6
CENTERX2
 62
     7
100
AcDbLine
 10
137.9296561145046
 20
39.23540669438189
 30
0.0
 11
137.9296561145046
 21
39.7854066943819
 31
0.0
  0
LINE
  5
BAA
330
BA4
100
AcDbEntity
  8
0
  6
CENTERX2
 62
     7
100
AcDbLine
 10
137.4296561145046
 20
38.7354066943819
 30
0.0
 11
136.8796561145045
 21
38.7354066943819
 31
0.0
  0
LINE
  5
BAB
330
BA4
100
AcDbEntity
  8
0
  6
CENTERX2
 62
     7
100
AcDbLine
 10
137.9296561145046
 20
38.2354066943819
 30
0.0
 11
137.9296561145046
 21
37.68540669438189
 31
0.0
  0
LINE
  5
BAC
330
BA4
100
AcDbEntity
  8
0
  6
CENTERX2
 62
     7
100
AcDbLine
 10
138.4296561145045
 20
38.7354066943819
 30
0.0
 11
138.9796561145046
 21
38.7354066943819
 31
0.0
  0
ENDBLK
  5
BAE
330
BA4
100
AcDbEntity
  8
0
100
AcDbBlockEnd
  0
BLOCK
  5
179C
330
1723
100
AcDbEntity
  8
0
100
AcDbBlockBegin
  2
104032CT
 70
     0
 10
0.0
 20
0.0
 30
0.0
  3
104032CT
  1

  0
ARC
  5
1724
330
1723
100
AcDbEntity
  8
SANINDUSA
100
AcDbCircle
 10
0.55499999999995
 20
0.3949999999999818
 30
0.0
 40
0.005
100
AcDbArc
 50
324.2043599999975
 51
90.0
  0
ARC
  5
1725
330
1723
100
AcDbEntity
  8
SANINDUSA
100
AcDbCircle
 10
0.5330000000000155
 20
0.3600000000000136
 30
0.0
 40
0.03
100
AcDbArc
 50
90.0
 51
143.1301019999994
  0
LINE
  5
1726
330
1723
100
AcDbEntity
  8
SANINDUSA
100
AcDbLine
 10
0.5184610000000021
 20
0.3700000000000045
 30
0.0
 11
0.5266609999999901
 21
0.3700000000000045
 31
0.0
  0
ARC
  5
1727
330
1723
100
AcDbEntity
  8
SANINDUSA
100
AcDbCircle
 10
0.5330000000000155
 20
0.3600000000000136
 30
0.0
 40
0.04
100
AcDbArc
 50
90.0
 51
180.0
  0
LINE
  5
1728
330
1723
100
AcDbEntity
  8
SANINDUSA
100
AcDbLine
 10
0.5184610000000021
 20
0.3700000000000045
 30
0.0
 11
0.5130000000000337
 21
0.3700000000000045
 31
0.0
  0
LINE
  5
1729
330
1723
100
AcDbEntity
  8
SANINDUSA
100
AcDbLine
 10
0.5130000000000337
 20
0.3700000000000045
 30
0.0
 11
0.5117559999999913
 21
0.3700000000000045
 31
0.0
  0
ARC
  5
172A
330
1723
100
AcDbEntity
  8
SANINDUSA
100
AcDbCircle
 10
0.5130000000000337
 20
0.375
 30
0.0
 40
0.005
100
AcDbArc
 50
143.1301019999994
 51
270.0
  0
ARC
  5
172B
330
1723
100
AcDbEntity
  8
SANINDUSA
100
AcDbCircle
 10
3.119939000000044
 20
-1.631648000000041
 30
0.0
 40
3.273982
100
AcDbArc
 50
142.0464480000033
 51
142.2677189999998
  0
LINE
  5
172C
330
1723
100
AcDbEntity
  8
SANINDUSA
100
AcDbLine
 10
0.5330000000000155
 20
0.3899999999999863
 30
0.0
 11
0.5344300000000431
 21
0.3899999999999863
 31
0.0
  0
ARC
  5
172D
330
1723
100
AcDbEntity
  8
SANINDUSA
100
AcDbCircle
 10
0.5344300000000431
 20
0.3849999999999909
 30
0.0
 40
0.005
100
AcDbArc
 50
322.0464480000034
 51
90.0
  0
ARC
  5
172E
330
1723
100
AcDbEntity
  8
SANINDUSA
100
AcDbCircle
 10
0.5266609999999901
 20
0.375
 30
0.0
 40
0.005
100
AcDbArc
 50
270.0
 51
322.2677189999999
  0
ARC
  5
172F
330
1723
100
AcDbEntity
  8
SANINDUSA
100
AcDbCircle
 10
0.3290299999999888
 20
0.1315570000000434
 30
0.0
 40
0.005
100
AcDbArc
 50
14.21560900000111
 51
143.8517159999996
  0
ARC
  5
1730
330
1723
100
AcDbEntity
  8
SANINDUSA
100
AcDbCircle
 10
0.2389389999999594
 20
0.1973679999999831
 30
0.0
 40
0.096432
100
AcDbArc
 50
321.1008370000012
 51
336.2023980000035
  0
ARC
  5
1731
330
1723
100
AcDbEntity
  8
SANINDUSA
100
AcDbCircle
 10
0.2389389999999594
 20
0.1973679999999831
 30
0.0
 40
0.106568
100
AcDbArc
 50
320.6070509999981
 51
323.8517159999996
  0
ARC
  5
1732
330
1723
100
AcDbEntity
  8
SANINDUSA
100
AcDbCircle
 10
0.3444869999999582
 20
0.1112620000000106
 30
0.0
 40
0.005
100
AcDbArc
 50
194.2156090000011
 51
278.4550280000011
  0
ARC
  5
1733
330
1723
100
AcDbEntity
  8
SANINDUSA
100
AcDbCircle
 10
0.3591320000000451
 20
0.1235490000000254
 30
0.0
 40
0.005
100
AcDbArc
 50
278.4550280000011
 51
338.3383939999977
  0
ARC
  5
1734
330
1723
100
AcDbEntity
  8
SANINDUSA
100
AcDbCircle
 10
0.3519599999999627
 20
0.1224829999999883
 30
0.0
 40
0.005
100
AcDbArc
 50
194.2156090000011
 51
278.4550280000011
  0
LINE
  5
1735
330
1723
100
AcDbEntity
  8
SANINDUSA
100
AcDbLine
 10
0.3598670000000084
 20
0.1186040000000048
 30
0.0
 11
0.3526950000000397
 21
0.1175379999999677
 31
0.0
  0
ARC
  5
1736
330
1723
100
AcDbEntity
  8
SANINDUSA
100
AcDbCircle
 10
0.3663510000000087
 20
0.1145119999999906
 30
0.0
 40
0.005
100
AcDbArc
 50
278.4550280000011
 51
339.2383579999983
  0
ARC
  5
1737
330
1723
100
AcDbEntity
  8
SANINDUSA
100
AcDbCircle
 10
0.7077010000000428
 20
-0.0148930000000291
 30
0.0
 40
0.370056
100
AcDbArc
 50
146.1688109999981
 51
158.3383939999976
  0
LINE
  5
1738
330
1723
100
AcDbEntity
  8
SANINDUSA
100
AcDbLine
 10
0.3396400000000312
 20
0.110035000000039
 30
0.0
 11
0.3338770000000295
 21
0.1327840000000151
 31
0.0
  0
LINE
  5
1739
330
1723
100
AcDbEntity
  8
SANINDUSA
100
AcDbLine
 10
0.3471130000000357
 20
0.1212550000000192
 30
0.0
 11
0.3379589999999553
 21
0.1573909999999614
 31
0.0
  0
ARC
  5
173A
330
1723
100
AcDbEntity
  8
SANINDUSA
100
AcDbCircle
 10
0.7077010000000428
 20
-0.0148930000000291
 30
0.0
 40
0.3600560000000001
100
AcDbArc
 50
146.1688109999981
 51
159.2383579999983
  0
ARC
  5
173B
330
1723
100
AcDbEntity
  8
SANINDUSA
100
AcDbCircle
 10
3.119939000000044
 20
-1.631648000000041
 30
0.0
 40
3.273982
100
AcDbArc
 50
143.2859120000029
 51
146.1688109999981
  0
ARC
  5
173C
330
1723
100
AcDbEntity
  8
SANINDUSA
100
AcDbCircle
 10
3.119939000000044
 20
-1.631648000000041
 30
0.0
 40
3.263981999999999
100
AcDbArc
 50
141.6826519999989
 51
146.1688109999981
  0
LWPOLYLINE
  5
173D
330
1723
100
AcDbEntity
  8
SANINDUSA
100
AcDbPolyline
 90
       32
 70
     0
 43
0.0
 10
0.5130000000000337
 20
0.3600000000000136
 10
0.5031300000000556
 20
0.3479999999999563
 10
0.4940659999999753
 20
0.3380600000000413
 10
0.4856780000000072
 20
0.3298969999999599
 10
0.4778320000000349
 20
0.3232289999999693
 10
0.4703970000000482
 20
0.3177719999999908
 10
0.4632410000000391
 20
0.3132419999999456
 10
0.4562310000000025
 20
0.3093569999999772
 10
0.4492360000000418
 20
0.3058330000000069
 10
0.4421589999999469
 20
0.3024370000000545
 10
0.4350369999999657
 20
0.299127999999996
 10
0.4279450000000225
 20
0.2959160000000338
 10
0.4209550000000491
 20
0.2928130000000237
 10
0.4141409999999724
 20
0.2898259999999482
 10
0.4075759999999491
 20
0.2869660000000067
 10
0.4013340000000199
 20
0.2842429999999467
 10
0.3954860000000053
 20
0.2816669999999703
 10
0.3900810000000092
 20
0.2791939999999613
 10
0.3850589999999556
 20
0.2765699999999924
 10
0.380333999999948
 20
0.273490000000038
 10
0.3758199999999761
 20
0.2696459999999661
 10
0.3714300000000321
 20
0.2647309999999834
 10
0.3670799999999872
 20
0.2584399999999505
 10
0.3626829999999472
 20
0.2504649999999629
 10
0.3581530000000157
 20
0.2404999999999973
 10
0.3534280000000081
 20
0.2284220000000232
 10
0.3485470000000532
 20
0.2148409999999785
 10
0.3435709999999972
 20
0.2005530000000135
 10
0.338561000000027
 20
0.1863530000000537
 10
0.333580999999981
 20
0.1730360000000246
 10
0.3286900000000514
 20
0.1613949999999704
 10
0.3271720000000187
 20
0.1584569999999985
  0
LWPOLYLINE
  5
173E
330
1723
100
AcDbEntity
  8
SANINDUSA
100
AcDbPolyline
 90
       30
 70
     0
 43
0.0
 10
0.4949139999999943
 20
0.3249319999999898
 10
0.4924099999999499
 20
0.322496000000001
 10
0.4840359999999464
 20
0.3153790000000072
 10
0.4760360000000219
 20
0.3095060000000558
 10
0.4683430000000044
 20
0.304636999999957
 10
0.4609060000000227
 20
0.3005150000000185
 10
0.4536500000000388
 20
0.2968590000000404
 10
0.4464289999999665
 20
0.2933940000000348
 10
0.4392070000000104
 20
0.2900379999999814
 10
0.4320370000000367
 20
0.2867919999999913
 10
0.4249919999999748
 20
0.2836630000000468
 10
0.4181350000000066
 20
0.2806580000000167
 10
0.4115719999999783
 20
0.277798999999959
 10
0.4053490000000011
 20
0.27508499999999
 10
0.3995830000000069
 20
0.272544000000039
 10
0.3944800000000441
 20
0.2702090000000226
 10
0.390117000000032
 20
0.2679299999999785
 10
0.386331000000041
 20
0.2654619999999568
 10
0.3828230000000303
 20
0.2624749999999949
 10
0.3793020000000524
 20
0.2585330000000567
 10
0.3755929999999807
 20
0.2531689999999571
 10
0.371625999999992
 20
0.245975000000044
 10
0.3673680000000559
 20
0.2366070000000491
 10
0.3627950000000055
 20
0.2249140000000125
 10
0.3579939999999624
 20
0.2115380000000186
 10
0.3530640000000176
 20
0.1973349999999527
 10
0.3481020000000399
 20
0.1831740000000081
 10
0.3431500000000369
 20
0.1697930000000269
 10
0.3382219999999734
 20
0.1579040000000305
 10
0.3379589999999553
 20
0.1573909999999614
  0
LINE
  5
173F
330
1723
100
AcDbEntity
  8
SANINDUSA
100
AcDbLine
 10
0.1545180000000528
 20
0.3600000000000136
 30
0.0
 11
0.1580500000000029
 21
0.3600000000000136
 31
0.0
  0
ARC
  5
1740
330
1723
100
AcDbEntity
  8
SANINDUSA
100
AcDbCircle
 10
0.1595180000000482
 20
0.3799999999999954
 30
0.0
 40
0.02
100
AcDbArc
 50
0.0
 51
90.0
  0
LINE
  5
1741
330
1723
100
AcDbEntity
  8
SANINDUSA
100
AcDbLine
 10
0.1399659999999585
 20
0.3700000000000045
 30
0.0
 11
0.1580500000000029
 21
0.3700000000000045
 31
0.0
  0
ARC
  5
1742
330
1723
100
AcDbEntity
  8
SANINDUSA
100
AcDbCircle
 10
0.1595180000000482
 20
0.3799999999999954
 30
0.0
 40
0.01
100
AcDbArc
 50
0.0
 51
90.0
  0
LINE
  5
1743
330
1723
100
AcDbEntity
  8
SANINDUSA
100
AcDbLine
 10
0.1580500000000029
 20
0.3600000000000136
 30
0.0
 11
0.1670870000000377
 21
0.3600000000000136
 31
0.0
  0
LINE
  5
1744
330
1723
100
AcDbEntity
  8
SANINDUSA
100
AcDbLine
 10
0.1545180000000528
 20
0.3600000000000136
 30
0.0
 11
0.1580500000000029
 21
0.3600000000000136
 31
0.0
  0
LINE
  5
1745
330
1723
100
AcDbEntity
  8
SANINDUSA
100
AcDbLine
 10
0.1580500000000029
 20
0.3700000000000045
 30
0.0
 11
0.1580500000000029
 21
0.3600000000000136
 31
0.0
  0
LINE
  5
1746
330
1723
100
AcDbEntity
  8
SANINDUSA
100
AcDbLine
 10
0.1670870000000377
 20
0.3700000000000045
 30
0.0
 11
0.1670870000000377
 21
0.3600000000000136
 31
0.0
  0
LINE
  5
1747
330
1723
100
AcDbEntity
  8
SANINDUSA
100
AcDbLine
 10
0.17951800000003
 20
0.3799999999999954
 30
0.0
 11
0.17951800000003
 21
0.3600000000000136
 31
0.0
  0
LINE
  5
1748
330
1723
100
AcDbEntity
  8
SANINDUSA
100
AcDbLine
 10
0.1695180000000391
 20
0.3799999999999954
 30
0.0
 11
0.1695180000000391
 21
0.3700000000000045
 31
0.0
  0
LINE
  5
1749
330
1723
100
AcDbEntity
  8
SANINDUSA
100
AcDbLine
 10
0.1670870000000377
 20
0.3700000000000045
 30
0.0
 11
0.1695180000000391
 21
0.3700000000000045
 31
0.0
  0
ARC
  5
174A
330
1723
100
AcDbEntity
  8
SANINDUSA
100
AcDbCircle
 10
0.1542950000000474
 20
0.3054489999999532
 30
0.0
 40
0.010613
100
AcDbArc
 50
256.9856580000023
 51
19.21093999999882
  0
ARC
  5
174B
330
1723
100
AcDbEntity
  8
SANINDUSA
100
AcDbCircle
 10
0.1542950000000474
 20
0.3054489999999532
 30
0.0
 40
0.022353
100
AcDbArc
 50
285.2339990000012
 51
304.1541350000027
  0
ARC
  5
174C
330
1723
100
AcDbEntity
  8
SANINDUSA
100
AcDbCircle
 10
0.1696520000000419
 20
0.2828130000000328
 30
0.0
 40
0.005
100
AcDbArc
 50
22.14764099999861
 51
124.1541350000026
  0
LWPOLYLINE
  5
174D
330
1723
100
AcDbEntity
  8
SANINDUSA
100
AcDbPolyline
 90
        3
 70
     0
 43
0.0
 10
0.1466880000000401
 20
0.3524939999999788
 10
0.1546570000000429
 20
0.3317409999999654
 10
0.1643209999999726
 20
0.3089429999999993
  0
ARC
  5
174E
330
1723
100
AcDbEntity
  8
SANINDUSA
100
AcDbCircle
 10
0.1373519999999644
 20
0.3489100000000462
 30
0.0
 40
0.01
100
AcDbArc
 50
21.0067500000014
 51
99.96642799999674
  0
LINE
  5
174F
330
1723
100
AcDbEntity
  8
SANINDUSA
100
AcDbLine
 10
0.1004860000000463
 20
0.3949999999999818
 30
0.0
 11
0.1004860000000463
 21
0.42999999999995
 31
0.0
  0
LINE
  5
1750
330
1723
100
AcDbEntity
  8
SANINDUSA
100
AcDbLine
 10
0.0589999999999691
 20
0.3591649999999618
 30
0.0
 11
0.0629999999999882
 21
0.3591649999999618
 31
0.0
  0
ARC
  5
1751
330
1723
100
AcDbEntity
  8
SANINDUSA
100
AcDbCircle
 10
0.1054860000000417
 20
0.3949999999999818
 30
0.0
 40
0.005
100
AcDbArc
 50
180.0
 51
270.0
  0
LINE
  5
1752
330
1723
100
AcDbEntity
  8
SANINDUSA
100
AcDbLine
 10
0.0629999999999882
 20
0.4135049999999865
 30
0.0
 11
0.0629999999999882
 21
0.4008350000000292
 31
0.0
  0
LINE
  5
1753
330
1723
100
AcDbEntity
  8
SANINDUSA
100
AcDbLine
 10
0.0589999999999691
 20
0.4059999999999491
 30
0.0
 11
0.0589999999999691
 21
0.4008350000000292
 31
0.0
  0
LINE
  5
1754
330
1723
100
AcDbEntity
  8
SANINDUSA
100
AcDbLine
 10
0.05499999999995
 20
0.4099999999999682
 30
0.0
 11
0.05499999999995
 21
0.4059999999999491
 31
0.0
  0
LINE
  5
1755
330
1723
100
AcDbEntity
  8
SANINDUSA
100
AcDbLine
 10
0.05499999999995
 20
0.4059999999999491
 30
0.0
 11
0.0589999999999691
 21
0.4059999999999491
 31
0.0
  0
LINE
  5
1756
330
1723
100
AcDbEntity
  8
SANINDUSA
100
AcDbLine
 10
0.0589999999999691
 20
0.4008350000000292
 30
0.0
 11
0.0629999999999882
 21
0.4008350000000292
 31
0.0
  0
LINE
  5
1757
330
1723
100
AcDbEntity
  8
SANINDUSA
100
AcDbLine
 10
0.1104860000000372
 20
0.4049999999999728
 30
0.0
 11
0.1104860000000372
 21
0.4400000000000546
 31
0.0
  0
ARC
  5
1758
330
1723
100
AcDbEntity
  8
SANINDUSA
100
AcDbCircle
 10
0.1154860000000326
 20
0.4049999999999728
 30
0.0
 40
0.005
100
AcDbArc
 50
180.0
 51
270.0
  0
ARC
  5
1759
330
1723
100
AcDbEntity
  8
SANINDUSA
100
AcDbCircle
 10
0.1054860000000417
 20
0.4400000000000546
 30
0.0
 40
0.005
100
AcDbArc
 50
0.0
 51
90.0
  0
ARC
  5
175A
330
1723
100
AcDbEntity
  8
SANINDUSA
100
AcDbCircle
 10
0.0954860000000508
 20
0.42999999999995
 30
0.0
 40
0.005
100
AcDbArc
 50
0.0
 51
90.0
  0
LINE
  5
175B
330
1723
100
AcDbEntity
  8
SANINDUSA
100
AcDbLine
 10
0.0019999999999527
 20
0.4170000000000301
 30
0.0
 11
0.0190000000000055
 21
0.4170000000000301
 31
0.0
  0
ARC
  5
175C
330
1723
100
AcDbEntity
  8
SANINDUSA
100
AcDbCircle
 10
0.0049999999999955
 20
0.4400000000000546
 30
0.0
 40
0.005
100
AcDbArc
 50
90.0
 51
180.0
  0
LINE
  5
175D
330
1723
100
AcDbEntity
  8
SANINDUSA
100
AcDbLine
 10
0.0
 20
0.4189999999999828
 30
0.0
 11
0.0
 21
0.4400000000000546
 31
0.0
  0
ARC
  5
175E
330
1723
100
AcDbEntity
  8
SANINDUSA
100
AcDbCircle
 10
0.0019999999999527
 20
0.4189999999999828
 30
0.0
 40
0.002
100
AcDbArc
 50
180.0
 51
270.0
  0
ARC
  5
175F
330
1723
100
AcDbEntity
  8
SANINDUSA
100
AcDbCircle
 10
0.0146710000000212
 20
0.4305409999999484
 30
0.0
 40
0.004471
100
AcDbArc
 50
85.78072599999964
 51
176.8960919999974
  0
LINE
  5
1760
330
1723
100
AcDbEntity
  8
SANINDUSA
100
AcDbLine
 10
0.0149810000000343
 20
0.4261099999999943
 30
0.0
 11
0.0247679999999946
 21
0.4261099999999943
 31
0.0
  0
ARC
  5
1761
330
1723
100
AcDbEntity
  8
SANINDUSA
100
AcDbCircle
 10
0.0190000000000055
 20
0.4160000000000537
 30
0.0
 40
0.001
100
AcDbArc
 50
0.0
 51
90.0
  0
ARC
  5
1762
330
1723
100
AcDbEntity
  8
SANINDUSA
100
AcDbCircle
 10
0.0144199999999728
 20
0.4303119999999581
 30
0.0
 40
0.004239
100
AcDbArc
 50
173.6213079999996
 51
277.6058570000015
  0
LINE
  5
1763
330
1723
100
AcDbEntity
  8
SANINDUSA
100
AcDbLine
 10
0.0199999999999818
 20
0.4099999999999682
 30
0.0
 11
0.05499999999995
 21
0.4099999999999682
 31
0.0
  0
ARC
  5
1764
330
1723
100
AcDbEntity
  8
SANINDUSA
100
AcDbCircle
 10
0.0198739999999589
 20
0.3469820000000254
 30
0.0
 40
0.079279
100
AcDbArc
 50
57.04552800000033
 51
93.53865399999945
  0
LINE
  5
1765
330
1723
100
AcDbEntity
  8
SANINDUSA
100
AcDbLine
 10
0.0049999999999955
 20
0.4450000000000501
 30
0.0
 11
0.1054860000000417
 21
0.4450000000000501
 31
0.0
  0
LINE
  5
1766
330
1723
100
AcDbEntity
  8
SANINDUSA
100
AcDbLine
 10
0.0149999999999864
 20
0.4349999999999455
 30
0.0
 11
0.0954860000000508
 21
0.4349999999999455
 31
0.0
  0
LINE
  5
1767
330
1723
100
AcDbEntity
  8
SANINDUSA
100
AcDbLine
 10
0.0544989999999643
 20
0.3401029999999992
 30
0.0
 11
0.0957969999999478
 21
0.3486080000000129
 31
0.0
  0
LINE
  5
1768
330
1723
100
AcDbEntity
  8
SANINDUSA
100
AcDbLine
 10
0.05499999999995
 20
0.3500000000000227
 30
0.0
 11
0.05499999999995
 21
0.3540000000000418
 31
0.0
  0
ARC
  5
1769
330
1723
100
AcDbEntity
  8
SANINDUSA
100
AcDbCircle
 10
0.0534900000000107
 20
0.3450000000000273
 30
0.0
 40
0.005
100
AcDbArc
 50
270.0
 51
281.6370699999991
  0
LINE
  5
176A
330
1723
100
AcDbEntity
  8
SANINDUSA
100
AcDbLine
 10
0.05499999999995
 20
0.3540000000000418
 30
0.0
 11
0.0589999999999691
 21
0.3540000000000418
 31
0.0
  0
LINE
  5
176B
330
1723
100
AcDbEntity
  8
SANINDUSA
100
AcDbLine
 10
0.0988310000000183
 20
0.3505629999999655
 30
0.0
 11
0.0990860000000566
 21
0.3509139999999888
 31
0.0
  0
ARC
  5
176C
330
1723
100
AcDbEntity
  8
SANINDUSA
100
AcDbCircle
 10
0.0947879999999941
 20
0.353505000000041
 30
0.0
 40
0.005
100
AcDbArc
 50
281.6370699999991
 51
323.9625260000041
  0
ARC
  5
176D
330
1723
100
AcDbEntity
  8
SANINDUSA
100
AcDbCircle
 10
0.1031289999999672
 20
0.347972000000027
 30
0.0
 40
0.005
100
AcDbArc
 50
99.96642799999674
 51
143.9625260000042
  0
ARC
  5
176E
330
1723
100
AcDbEntity
  8
SANINDUSA
100
AcDbCircle
 10
0.0209999999999582
 20
0.3410000000000082
 30
0.0
 40
0.001
100
AcDbArc
 50
180.0
 51
270.0
  0
LINE
  5
176F
330
1723
100
AcDbEntity
  8
SANINDUSA
100
AcDbLine
 10
0.0199999999999818
 20
0.29200000000003
 30
0.0
 11
0.0602109999999812
 21
0.29200000000003
 31
0.0
  0
LINE
  5
1770
330
1723
100
AcDbEntity
  8
SANINDUSA
100
AcDbLine
 10
0.0209999999999582
 20
0.3400000000000318
 30
0.0
 11
0.0534900000000107
 21
0.3400000000000318
 31
0.0
  0
LINE
  5
1771
330
1723
100
AcDbEntity
  8
SANINDUSA
100
AcDbLine
 10
0.0199999999999818
 20
0.3500000000000227
 30
0.0
 11
0.05499999999995
 21
0.3500000000000227
 31
0.0
  0
LINE
  5
1772
330
1723
100
AcDbEntity
  8
SANINDUSA
100
AcDbLine
 10
0.0199999999999818
 20
0.3410000000000082
 30
0.0
 11
0.0199999999999818
 21
0.4160000000000537
 31
0.0
  0
LINE
  5
1773
330
1723
100
AcDbEntity
  8
SANINDUSA
100
AcDbLine
 10
0.0589999999999691
 20
0.3540000000000418
 30
0.0
 11
0.0589999999999691
 21
0.3591649999999618
 31
0.0
  0
LINE
  5
1774
330
1723
100
AcDbEntity
  8
SANINDUSA
100
AcDbLine
 10
0.0629999999999882
 20
0.3540000000000418
 30
0.0
 11
0.0629999999999882
 21
0.3591649999999618
 31
0.0
  0
LINE
  5
1775
330
1723
100
AcDbEntity
  8
SANINDUSA
100
AcDbLine
 10
0.1054860000000417
 20
0.3899999999999863
 30
0.0
 11
0.1595180000000482
 21
0.3899999999999863
 31
0.0
  0
LINE
  5
1776
330
1723
100
AcDbEntity
  8
SANINDUSA
100
AcDbLine
 10
0.102263999999991
 20
0.3528969999999845
 30
0.0
 11
0.1356220000000121
 21
0.3587589999999636
 31
0.0
  0
ARC
  5
1777
330
1723
100
AcDbEntity
  8
SANINDUSA
100
AcDbCircle
 10
0.1811219999999594
 20
-0.0210949999999457
 30
0.0
 40
0.393254
100
AcDbArc
 50
96.00741900000313
 51
107.4799329999971
  0
ARC
  5
1778
330
1723
100
AcDbEntity
  8
SANINDUSA
100
AcDbCircle
 10
0.0439710000000559
 20
-0.5273140000000467
 30
0.0
 40
0.8194749999999999
100
AcDbArc
 50
81.84827699999985
 51
88.86445699999994
  0
ARC
  5
1779
330
1723
100
AcDbEntity
  8
SANINDUSA
100
AcDbCircle
 10
0.0439710000000559
 20
-0.5273140000000467
 30
0.0
 40
0.829475
100
AcDbArc
 50
82.52330100000042
 51
91.65604400000137
  0
LINE
  5
177A
330
1723
100
AcDbEntity
  8
SANINDUSA
100
AcDbLine
 10
0.2203500000000531
 20
0.1482760000000098
 30
0.0
 11
0.2256589999999505
 21
0.1502030000000332
 31
0.0
  0
ARC
  5
177B
330
1723
100
AcDbEntity
  8
SANINDUSA
100
AcDbCircle
 10
0.2239530000000514
 20
0.1549029999999902
 30
0.0
 40
0.005
100
AcDbArc
 50
289.9512899999994
 51
12.023436999999
  0
LINE
  5
177C
330
1723
100
AcDbEntity
  8
SANINDUSA
100
AcDbLine
 10
0.1337489999999661
 20
0.1504899999999907
 30
0.0
 11
0.1391370000000052
 21
0.1378069999999525
 31
0.0
  0
LINE
  5
177D
330
1723
100
AcDbEntity
  8
SANINDUSA
100
AcDbLine
 10
0.1440569999999752
 20
0.1527089999999589
 30
0.0
 11
0.1472370000000183
 21
0.1445569999999634
 31
0.0
  0
LINE
  5
177E
330
1723
100
AcDbEntity
  8
SANINDUSA
100
AcDbLine
 10
0.1440569999999752
 20
0.1527089999999589
 30
0.0
 11
0.1472370000000183
 21
0.1445569999999634
 31
0.0
  0
ARC
  5
177F
330
1723
100
AcDbEntity
  8
SANINDUSA
100
AcDbCircle
 10
0.2136659999999892
 20
0.1668819999999869
 30
0.0
 40
0.08
100
AcDbArc
 50
201.3113419999993
 51
234.6867770000009
  0
ARC
  5
1780
330
1723
100
AcDbEntity
  8
SANINDUSA
100
AcDbCircle
 10
0.2217669999999998
 20
0.1736319999999978
 30
0.0
 40
0.08
100
AcDbArc
 50
201.3113419999993
 51
242.7415590000014
  0
ARC
  5
1781
330
1723
100
AcDbEntity
  8
SANINDUSA
100
AcDbCircle
 10
0.0726919999999609
 20
0.1939539999999624
 30
0.0
 40
0.005
100
AcDbArc
 50
341.4130730000026
 51
80.42112199999747
  0
ARC
  5
1782
330
1723
100
AcDbEntity
  8
SANINDUSA
100
AcDbCircle
 10
0.0726919999999609
 20
0.1939539999999624
 30
0.0
 40
0.005
100
AcDbArc
 50
341.4130730000026
 51
80.42112199999747
  0
ARC
  5
1783
330
1723
100
AcDbEntity
  8
SANINDUSA
100
AcDbCircle
 10
0.0602109999999812
 20
0.1200000000000045
 30
0.0
 40
0.08
100
AcDbArc
 50
80.42112199999747
 51
90.0
  0
ARC
  5
1784
330
1723
100
AcDbEntity
  8
SANINDUSA
100
AcDbCircle
 10
0.0945940000000292
 20
0.1963379999999688
 30
0.0
 40
0.005
100
AcDbArc
 50
60.15641799999762
 51
161.4130730000025
  0
LINE
  5
1785
330
1723
100
AcDbEntity
  8
SANINDUSA
100
AcDbLine
 10
0.0847129999999652
 20
0.2123259999999618
 30
0.0
 11
0.083362999999963
 21
0.2100000000000364
 31
0.0
  0
ARC
  5
1786
330
1723
100
AcDbEntity
  8
SANINDUSA
100
AcDbCircle
 10
0.0920079999999644
 20
0.2037109999999984
 30
0.0
 40
0.011288
100
AcDbArc
 50
79.54792600000196
 51
130.2568179999993
  0
LINE
  5
1787
330
1723
100
AcDbEntity
  8
SANINDUSA
100
AcDbLine
 10
0.0199999999999818
 20
0.2000000000000455
 30
0.0
 11
0.0602109999999812
 21
0.2000000000000455
 31
0.0
  0
LINE
  5
1788
330
1723
100
AcDbEntity
  8
SANINDUSA
100
AcDbLine
 10
0.0199999999999818
 20
0.2100000000000364
 30
0.0
 11
0.083362999999963
 21
0.2100000000000364
 31
0.0
  0
ARC
  5
1789
330
1723
100
AcDbEntity
  8
SANINDUSA
100
AcDbCircle
 10
0.0380989999999883
 20
0.091085000000021
 30
0.0
 40
0.005
100
AcDbArc
 50
285.9453959999969
 51
341.4130730000026
  0
ARC
  5
178A
330
1723
100
AcDbEntity
  8
SANINDUSA
100
AcDbCircle
 10
0.040224999999964
 20
0.0660339999999451
 30
0.0
 40
0.005
100
AcDbArc
 50
278.4550280000011
 51
341.4130730000026
  0
ARC
  5
178B
330
1723
100
AcDbEntity
  8
SANINDUSA
100
AcDbCircle
 10
0.0049999999999955
 20
0.0712280000000192
 30
0.0
 40
0.005
100
AcDbArc
 50
105.9453959999969
 51
180.0
  0
LINE
  5
178C
330
1723
100
AcDbEntity
  8
SANINDUSA
100
AcDbLine
 10
0.0
 20
0.05499999999995
 30
0.0
 11
0.0
 21
0.0712280000000192
 31
0.0
  0
LINE
  5
178D
330
1723
100
AcDbEntity
  8
SANINDUSA
100
AcDbLine
 10
0.0394720000000461
 20
0.086277999999993
 30
0.0
 11
0.0036260000000539
 21
0.0760360000000446
 31
0.0
  0
LINE
  5
178E
330
1723
100
AcDbEntity
  8
SANINDUSA
100
AcDbLine
 10
0.0898549999999432
 20
0.1979320000000371
 30
0.0
 11
0.04496400000005
 21
0.064440999999988
 31
0.0
  0
LINE
  5
178F
330
1723
100
AcDbEntity
  8
SANINDUSA
100
AcDbLine
 10
0.0774310000000469
 20
0.1923610000000053
 30
0.0
 11
0.0428379999999606
 21
0.0894919999999502
 31
0.0
  0
ARC
  5
1790
330
1723
100
AcDbEntity
  8
SANINDUSA
100
AcDbCircle
 10
0.0556289999999535
 20
0.13269200000002
 30
0.0
 40
0.090666
100
AcDbArc
 50
12.75478499999922
 51
64.92342299999922
  0
ARC
  5
1791
330
1723
100
AcDbEntity
  8
SANINDUSA
100
AcDbCircle
 10
0.0590660000000298
 20
0.1344110000000001
 30
0.0
 40
0.076395
100
AcDbArc
 50
12.14990199999831
 51
60.15641799999762
  0
LINE
  5
1792
330
1723
100
AcDbEntity
  8
SANINDUSA
100
AcDbLine
 10
0.0
 20
0.05499999999995
 30
0.0
 11
0.2026499999999487
 21
0.0851239999999507
 31
0.0
  0
LINE
  5
1793
330
1723
100
AcDbEntity
  8
SANINDUSA
100
AcDbLine
 10
0.0
 20
0.0712280000000192
 30
0.0
 11
0.0
 21
0.4189999999999828
 31
0.0
  0
LINE
  5
1794
330
1723
100
AcDbEntity
  8
SANINDUSA
100
AcDbLine
 10
0.0199999999999818
 20
0.2000000000000455
 30
0.0
 11
0.0199999999999818
 21
0.3018140000000358
 31
0.0
  0
LWPOLYLINE
  5
1795
330
1723
100
AcDbEntity
  8
SANINDUSA
100
AcDbPolyline
 90
        9
 70
     0
 43
0.0
 10
0.1545180000000528
 20
0.3600000000000136
 10
0.1639030000000048
 20
0.3354759999999715
 10
0.17325900000003
 20
0.3128699999999753
 10
0.1825119999999742
 20
0.291007000000036
 10
0.194560000000024
 20
0.268711000000053
 10
0.2055360000000519
 20
0.2448070000000371
 10
0.2140319999999747
 20
0.218118000000004
 10
0.2221279999999979
 20
0.1874709999999595
 10
0.2288429999999835
 20
0.1559439999999768
  0
LWPOLYLINE
  5
1796
330
1723
100
AcDbEntity
  8
SANINDUSA
100
AcDbPolyline
 90
        6
 70
     0
 43
0.0
 10
0.1742829999999458
 20
0.2846980000000485
 10
0.1852350000000342
 20
0.2650939999999764
 10
0.1960759999999482
 20
0.2415569999999434
 10
0.2044280000000072
 20
0.2153230000000121
 10
0.2123980000000074
 20
0.1851510000000189
 10
0.2203500000000531
 20
0.1482760000000098
  0
LINE
  5
1797
330
1723
100
AcDbEntity
  8
SANINDUSA
100
AcDbLine
 10
0.1154860000000326
 20
0.3999999999999772
 30
0.0
 11
0.55499999999995
 21
0.3999999999999772
 31
0.0
  0
ARC
  5
1798
330
1723
100
AcDbEntity
  8
SANINDUSA
100
AcDbCircle
 10
0.2306200000000445
 20
0.1908140000000458
 30
0.0
 40
0.109329
100
AcDbArc
 50
234.6867770000009
 51
326.0366979999972
  0
ARC
  5
1799
330
1723
100
AcDbEntity
  8
SANINDUSA
100
AcDbCircle
 10
0.2306200000000445
 20
0.1908140000000458
 30
0.0
 40
0.099329
100
AcDbArc
 50
242.7415590000014
 51
327.067448999998
  0
LINE
  5
179A
330
1723
100
AcDbEntity
  8
SANINDUSA
100
AcDbLine
 10
0.2881220000000439
 20
0.097829000000047
 30
0.0
 11
0.367085999999972
 21
0.10956699999997
 31
0.0
  0
LINE
  5
179B
330
1723
100
AcDbEntity
  8
SANINDUSA
100
AcDbLine
 10
0.1670870000000377
 20
0.3600000000000136
 30
0.0
 11
0.5130000000000337
 21
0.3600000000000136
 31
0.0
  0
ENDBLK
  5
179D
330
1723
100
AcDbEntity
  8
0
100
AcDbBlockEnd
  0
BLOCK
  5
17C2
330
17A0
100
AcDbEntity
  8
0
100
AcDbBlockBegin
  2
104032PL
 70
     0
 10
0.0
 20
0.0
 30
0.0
  3
104032PL
  1

  0
ARC
  5
17A1
330
17A0
100
AcDbEntity
  8
SANINDUSA
100
AcDbCircle
 10
0.1775000000000094
 20
-0.0049999999999955
 30
0.0
 40
0.005
100
AcDbArc
 50
0.0
 51
89.99999999999998
  0
LINE
  5
17A2
330
17A0
100
AcDbEntity
  8
SANINDUSA
100
AcDbLine
 10
0.1825000000000051
 20
-0.0049999999999955
 30
0.0
 11
0.1825000000000051
 21
-0.3980360000000473
 31
0.0
  0
ARC
  5
17A3
330
17A0
100
AcDbEntity
  8
SANINDUSA
100
AcDbCircle
 10
-0.1775000000000092
 20
-0.0049999999999955
 30
0.0
 40
0.005
100
AcDbArc
 50
89.99999999999998
 51
180.0
  0
LINE
  5
17A4
330
17A0
100
AcDbEntity
  8
SANINDUSA
100
AcDbLine
 10
0.1675000000000188
 20
-0.1104860000000372
 30
0.0
 11
0.1133170000000524
 21
-0.1104860000000372
 31
0.0
  0
ARC
  5
17A5
330
17A0
100
AcDbEntity
  8
SANINDUSA
100
AcDbCircle
 10
0.0582900000000561
 20
-0.0580290000000332
 30
0.0
 40
0.01
100
AcDbArc
 50
35.62348200000104
 51
97.8022270000023
  0
LINE
  5
17A6
330
17A0
100
AcDbEntity
  8
SANINDUSA
100
AcDbLine
 10
0.0664189999999962
 20
-0.0522049999999581
 30
0.0
 11
0.1051889999999963
 21
-0.1063110000000051
 31
0.0
  0
CIRCLE
  5
17A7
330
17A0
100
AcDbEntity
  8
SANINDUSA
100
AcDbCircle
 10
0.0855219999999693
 20
-0.1402890000000525
 30
0.0
 40
0.008989
  0
ARC
  5
17A8
330
17A0
100
AcDbEntity
  8
SANINDUSA
100
AcDbCircle
 10
0.0306430000000543
 20
-0.233716999999956
 30
0.0
 40
0.01
100
AcDbArc
 50
0.0
 51
89.99999999999998
  0
ARC
  5
17A9
330
17A0
100
AcDbEntity
  8
SANINDUSA
100
AcDbCircle
 10
0.0073059999999714
 20
0.4206960000000209
 30
0.0
 40
0.473198
100
AcDbArc
 50
262.1977729999977
 51
269.1153609999988
  0
ARC
  5
17AA
330
17A0
100
AcDbEntity
  8
SANINDUSA
100
AcDbCircle
 10
-0.0582900000000566
 20
-0.0580290000000332
 30
0.0
 40
0.01
100
AcDbArc
 50
82.19777299999767
 51
144.3765179999989
  0
CIRCLE
  5
17AB
330
17A0
100
AcDbEntity
  8
SANINDUSA
100
AcDbCircle
 10
-0.0855219999999693
 20
-0.1402890000000525
 30
0.0
 40
0.008989
  0
LINE
  5
17AC
330
17A0
100
AcDbEntity
  8
SANINDUSA
100
AcDbLine
 10
-0.0664189999999962
 20
-0.0522049999999581
 30
0.0
 11
-0.1051889999999958
 21
-0.1063110000000051
 31
0.0
  0
ARC
  5
17AD
330
17A0
100
AcDbEntity
  8
SANINDUSA
100
AcDbCircle
 10
-0.0287799999999837
 20
-0.233716999999956
 30
0.0
 40
0.01
100
AcDbArc
 50
89.99999999999998
 51
180.0
  0
ARC
  5
17AE
330
17A0
100
AcDbEntity
  8
SANINDUSA
100
AcDbCircle
 10
-0.0015560000000508
 20
-0.309947999999963
 30
0.0
 40
0.130439
100
AcDbArc
 50
89.31651700000063
 51
161.5725589999969
  0
ARC
  5
17AF
330
17A0
100
AcDbEntity
  8
SANINDUSA
100
AcDbCircle
 10
-0.0073059999999714
 20
0.4206960000000209
 30
0.0
 40
0.473198
100
AcDbArc
 50
270.8846390000012
 51
277.8022270000023
  0
ARC
  5
17B0
330
17A0
100
AcDbEntity
  8
SANINDUSA
100
AcDbCircle
 10
0.0015560000000502
 20
-0.309947999999963
 30
0.0
 40
0.130439
100
AcDbArc
 50
18.42744100000302
 51
90.68348299999932
  0
LINE
  5
17B1
330
17A0
100
AcDbEntity
  8
SANINDUSA
100
AcDbLine
 10
-0.0287799999999834
 20
-0.2237169999999651
 30
0.0
 11
0.0306430000000546
 21
-0.2237169999999651
 31
0.0
  0
ARC
  5
17B2
330
17A0
100
AcDbEntity
  8
SANINDUSA
100
AcDbCircle
 10
-0.0018189999999552
 20
-0.2845039999999699
 30
0.0
 40
0.036963
100
AcDbArc
 50
179.528536000003
 51
272.0171160000014
  0
ARC
  5
17B3
330
17A0
100
AcDbEntity
  8
SANINDUSA
100
AcDbCircle
 10
0.0005409999999981
 20
-0.2812470000000076
 30
0.0
 40
0.04021
100
AcDbArc
 50
268.4912319999968
 51
4.210849999996941
  0
ARC
  5
17B4
330
17A0
100
AcDbEntity
  8
SANINDUSA
100
AcDbCircle
 10
-0.0000000000000003
 20
-0.3656009999999696
 30
0.0
 40
0.134775
100
AcDbArc
 50
176.581625999998
 51
3.41837400000197
  0
ARC
  5
17B5
330
17A0
100
AcDbEntity
  8
SANINDUSA
100
AcDbCircle
 10
0.2689400000000435
 20
-0.3545669999999751
 30
0.0
 40
0.4034870000000001
100
AcDbArc
 50
167.7150600000032
 51
180.425746000002
  0
LINE
  5
17B6
330
17A0
100
AcDbEntity
  8
SANINDUSA
100
AcDbLine
 10
-0.0387799999999743
 20
-0.2841989999999441
 30
0.0
 11
-0.0387799999999743
 21
-0.233716999999956
 31
0.0
  0
LINE
  5
17B7
330
17A0
100
AcDbEntity
  8
SANINDUSA
100
AcDbLine
 10
0.0406430000000455
 20
-0.2782939999999598
 30
0.0
 11
0.0406430000000455
 21
-0.233716999999956
 31
0.0
  0
ARC
  5
17B8
330
17A0
100
AcDbEntity
  8
SANINDUSA
100
AcDbCircle
 10
-0.2604489999999944
 20
-0.3532050000000027
 30
0.0
 40
0.3949
100
AcDbArc
 50
359.3674890000015
 51
12.35410099999787
  0
LINE
  5
17B9
330
17A0
100
AcDbEntity
  8
SANINDUSA
100
AcDbLine
 10
-0.1133170000000518
 20
-0.1104860000000372
 30
0.0
 11
-0.1675000000000182
 21
-0.1104860000000372
 31
0.0
  0
LINE
  5
17BA
330
17A0
100
AcDbEntity
  8
SANINDUSA
100
AcDbLine
 10
-0.1825000000000045
 20
-0.0049999999999955
 30
0.0
 11
-0.1825000000000045
 21
-0.3980360000000473
 31
0.0
  0
ARC
  5
17BB
330
17A0
100
AcDbEntity
  8
SANINDUSA
100
AcDbCircle
 10
-0.0240589999999656
 20
0.7217190000000074
 30
0.0
 40
0.7667890000000001
100
AcDbArc
 50
271.7980189999982
 51
284.5620729999999
  0
ARC
  5
17BC
330
17A0
100
AcDbEntity
  8
SANINDUSA
100
AcDbCircle
 10
0.0240589999999656
 20
0.7217190000000074
 30
0.0
 40
0.7667890000000001
100
AcDbArc
 50
255.437927
 51
268.2019810000018
  0
LINE
  5
17BD
330
17A0
100
AcDbEntity
  8
SANINDUSA
100
AcDbLine
 10
-0.1725000000000136
 20
-0.0049999999999955
 30
0.0
 11
-0.1725000000000136
 21
-0.1054860000000417
 31
0.0
  0
LINE
  5
17BE
330
17A0
100
AcDbEntity
  8
SANINDUSA
100
AcDbLine
 10
0.1725000000000142
 20
-0.0049999999999955
 30
0.0
 11
0.1725000000000142
 21
-0.1054860000000417
 31
0.0
  0
ARC
  5
17BF
330
17A0
100
AcDbEntity
  8
SANINDUSA
100
AcDbCircle
 10
-0.0000000000000003
 20
-0.3761980000000449
 30
0.0
 40
0.183802
100
AcDbArc
 50
186.8236989999988
 51
353.1763010000012
  0
LINE
  5
17C0
330
17A0
100
AcDbEntity
  8
SANINDUSA
100
AcDbLine
 10
-0.1825000000000045
 20
-0.1104860000000372
 30
0.0
 11
0.1825000000000051
 21
-0.1104860000000372
 31
0.0
  0
LINE
  5
17C1
330
17A0
100
AcDbEntity
  8
SANINDUSA
100
AcDbLine
 10
-0.1775000000000091
 20
0.0
 30
0.0
 11
0.1775000000000097
 21
0.0
 31
0.0
  0
ENDBLK
  5
17C3
330
17A0
100
AcDbEntity
  8
0
100
AcDbBlockEnd
  0
BLOCK
  5
17E2
330
17C8
100
AcDbEntity
  8
0
100
AcDbBlockBegin
  2
104032AL
 70
     0
 10
0.0
 20
0.0
 30
0.0
  3
104032AL
  1

  0
ARC
  5
17C9
330
17C8
100
AcDbEntity
  8
SANINDUSA
100
AcDbCircle
 10
0.55499999999995
 20
0.3949999999999823
 30
0.0
 40
0.005
100
AcDbArc
 50
324.2043599999975
 51
90.0
  0
LINE
  5
17CA
330
17C8
100
AcDbEntity
  8
SANINDUSA
100
AcDbLine
 10
0.367085999999972
 20
0.10956699999997
 30
0.0
 11
0.3452220000000352
 21
0.10631699999999
 31
0.0
  0
ARC
  5
17CB
330
17C8
100
AcDbEntity
  8
SANINDUSA
100
AcDbCircle
 10
0.3663510000000087
 20
0.1145119999999906
 30
0.0
 40
0.005
100
AcDbArc
 50
278.4550280000011
 51
339.2383579999983
  0
ARC
  5
17CC
330
17C8
100
AcDbEntity
  8
SANINDUSA
100
AcDbCircle
 10
0.7077010000000428
 20
-0.0148930000000291
 30
0.0
 40
0.3600560000000001
100
AcDbArc
 50
146.1688109999981
 51
159.2383579999983
  0
ARC
  5
17CD
330
17C8
100
AcDbEntity
  8
SANINDUSA
100
AcDbCircle
 10
3.119939000000044
 20
-1.631648000000041
 30
0.0
 40
3.263981999999999
100
AcDbArc
 50
141.6826519999989
 51
146.1688109999981
  0
LINE
  5
17CE
330
17C8
100
AcDbEntity
  8
SANINDUSA
100
AcDbLine
 10
0.1104860000000372
 20
0.3999999999999778
 30
0.0
 11
0.1104860000000372
 21
0.4400000000000551
 31
0.0
  0
ARC
  5
17CF
330
17C8
100
AcDbEntity
  8
SANINDUSA
100
AcDbCircle
 10
0.1054860000000417
 20
0.4400000000000551
 30
0.0
 40
0.005
100
AcDbArc
 50
0.0
 51
90.0
  0
ARC
  5
17D0
330
17C8
100
AcDbEntity
  8
SANINDUSA
100
AcDbCircle
 10
0.0359999999999445
 20
0.3529999999999523
 30
0.0
 40
0.005
100
AcDbArc
 50
90.0
 51
180.0
  0
ARC
  5
17D1
330
17C8
100
AcDbEntity
  8
SANINDUSA
100
AcDbCircle
 10
0.0049999999999955
 20
0.4400000000000551
 30
0.0
 40
0.005
100
AcDbArc
 50
90.0
 51
180.0
  0
LINE
  5
17D2
330
17C8
100
AcDbEntity
  8
SANINDUSA
100
AcDbLine
 10
0.0
 20
0.4189999999999833
 30
0.0
 11
0.0
 21
0.4400000000000551
 31
0.0
  0
LINE
  5
17D3
330
17C8
100
AcDbEntity
  8
SANINDUSA
100
AcDbLine
 10
0.0049999999999955
 20
0.4450000000000506
 30
0.0
 11
0.1054860000000417
 21
0.4450000000000506
 31
0.0
  0
ARC
  5
17D4
330
17C8
100
AcDbEntity
  8
SANINDUSA
100
AcDbCircle
 10
0.1788209999999708
 20
0.2530000000000427
 30
0.0
 40
0.045
100
AcDbArc
 50
90.0
 51
176.6975300000026
  0
ARC
  5
17D5
330
17C8
100
AcDbEntity
  8
SANINDUSA
100
AcDbCircle
 10
0.1202100000000428
 20
0.1052210000000286
 30
0.0
 40
0.005
100
AcDbArc
 50
278.4550280000011
 51
356.6975300000026
  0
ARC
  5
17D6
330
17C8
100
AcDbEntity
  8
SANINDUSA
100
AcDbCircle
 10
0.0049999999999955
 20
0.060797999999977
 30
0.0
 40
0.005
100
AcDbArc
 50
180.0
 51
278.4550280000011
  0
LINE
  5
17D7
330
17C8
100
AcDbEntity
  8
SANINDUSA
100
AcDbLine
 10
0.0
 20
0.060797999999977
 30
0.0
 11
0.0
 21
0.0712280000000192
 31
0.0
  0
ARC
  5
17D8
330
17C8
100
AcDbEntity
  8
SANINDUSA
100
AcDbCircle
 10
0.0359999999999445
 20
0.0927030000000286
 30
0.0
 40
0.005
100
AcDbArc
 50
180.0
 51
278.4550280000011
  0
LINE
  5
17D9
330
17C8
100
AcDbEntity
  8
SANINDUSA
100
AcDbLine
 10
0.040960000000041
 20
0.0610890000000382
 30
0.0
 11
0.0057349999999587
 21
0.0558529999999564
 31
0.0
  0
LINE
  5
17DA
330
17C8
100
AcDbEntity
  8
SANINDUSA
100
AcDbLine
 10
0.0367350000000215
 20
0.0877570000000105
 30
0.0
 11
0.1209450000000061
 21
0.1002750000000105
 31
0.0
  0
LINE
  5
17DB
330
17C8
100
AcDbEntity
  8
SANINDUSA
100
AcDbLine
 10
0.0309999999999491
 20
0.0927030000000286
 30
0.0
 11
0.0309999999999491
 21
0.3529999999999523
 31
0.0
  0
LINE
  5
17DC
330
17C8
100
AcDbEntity
  8
SANINDUSA
100
AcDbLine
 10
0.0
 20
0.0712280000000192
 30
0.0
 11
0.0
 21
0.4189999999999833
 31
0.0
  0
LINE
  5
17DD
330
17C8
100
AcDbEntity
  8
SANINDUSA
100
AcDbLine
 10
0.1252019999999447
 20
0.10493299999996
 30
0.0
 11
0.1338950000000523
 21
0.2555919999999787
 31
0.0
  0
LINE
  5
17DE
330
17C8
100
AcDbEntity
  8
SANINDUSA
100
AcDbLine
 10
0.0
 20
0.3999999999999778
 30
0.0
 11
0.55499999999995
 21
0.3999999999999778
 31
0.0
  0
LINE
  5
17DF
330
17C8
100
AcDbEntity
  8
SANINDUSA
100
AcDbLine
 10
0.0359999999999445
 20
0.3579999999999478
 30
0.0
 11
0.390769999999975
 21
0.3579999999999478
 31
0.0
  0
LINE
  5
17E0
330
17C8
100
AcDbEntity
  8
SANINDUSA
100
AcDbLine
 10
0.1788209999999708
 20
0.2980000000000023
 30
0.0
 11
0.3057310000000371
 21
0.3085370000000017
 31
0.0
  0
LINE
  5
17E1
330
17C8
100
AcDbEntity
  8
SANINDUSA
100
AcDbLine
 10
0.040960000000041
 20
0.0610890000000382
 30
0.0
 11
0.3452220000000352
 21
0.10631699999999
 31
0.0
  0
ENDBLK
  5
17E3
330
17C8
100
AcDbEntity
  8
0
100
AcDbBlockEnd
  0
BLOCK
  5
18A2
330
187B
100
AcDbEntity
  8
0
100
AcDbBlockBegin
  2
104032AF
 70
     0
 10
0.0
 20
0.0
 30
0.0
  3
104032AF
  1

  0
ARC
  5
187C
330
187B
100
AcDbEntity
  8
SANINDUSA
100
AcDbCircle
 10
0.1755399999999554
 20
0.3949999999999818
 30
0.0
 40
0.005
100
AcDbArc
 50
340.5146340000036
 51
90.0
  0
ARC
  5
187D
330
187B
100
AcDbEntity
  8
SANINDUSA
100
AcDbCircle
 10
0.1755399999999554
 20
0.3949999999999818
 30
0.0
 40
0.005
100
AcDbArc
 50
340.5146340000036
 51
90.0
  0
ARC
  5
187E
330
187B
100
AcDbEntity
  8
SANINDUSA
100
AcDbCircle
 10
0.133440999999948
 20
0.4257499999999937
 30
0.0
 40
0.021693
100
AcDbArc
 50
113.817126000001
 51
151.2044020000004
  0
ARC
  5
187F
330
187B
100
AcDbEntity
  8
SANINDUSA
100
AcDbCircle
 10
0.133440999999948
 20
0.4257499999999937
 30
0.0
 40
0.021693
100
AcDbArc
 50
113.817126000001
 51
151.2044020000004
  0
ARC
  5
1880
330
187B
100
AcDbEntity
  8
SANINDUSA
100
AcDbCircle
 10
0.1135530000000244
 20
0.4366810000000215
 30
0.0
 40
0.001
100
AcDbArc
 50
270.0
 51
331.2044020000005
  0
ARC
  5
1881
330
187B
100
AcDbEntity
  8
SANINDUSA
100
AcDbCircle
 10
0.1135530000000244
 20
0.4366810000000215
 30
0.0
 40
0.001
100
AcDbArc
 50
270.0
 51
331.2044020000005
  0
ARC
  5
1882
330
187B
100
AcDbEntity
  8
SANINDUSA
100
AcDbCircle
 10
0.1250840000000153
 20
0.444680999999946
 30
0.0
 40
0.001
100
AcDbArc
 50
90.0
 51
113.817126000001
  0
ARC
  5
1883
330
187B
100
AcDbEntity
  8
SANINDUSA
100
AcDbCircle
 10
0.1250840000000153
 20
0.444680999999946
 30
0.0
 40
0.001
100
AcDbArc
 50
90.0
 51
113.817126000001
  0
LINE
  5
1884
330
187B
100
AcDbEntity
  8
SANINDUSA
100
AcDbLine
 10
0.1723329999999805
 20
0.3999999999999772
 30
0.0
 11
0.1723329999999805
 21
0.4406810000000406
 31
0.0
  0
ARC
  5
1885
330
187B
100
AcDbEntity
  8
SANINDUSA
100
AcDbCircle
 10
0.1673329999999851
 20
0.4406810000000406
 30
0.0
 40
0.005
100
AcDbArc
 50
0.0
 51
90.0
  0
ARC
  5
1886
330
187B
100
AcDbEntity
  8
SANINDUSA
100
AcDbCircle
 10
0.1673329999999851
 20
0.4406810000000406
 30
0.0
 40
0.005
100
AcDbArc
 50
0.0
 51
90.0
  0
LINE
  5
1887
330
187B
100
AcDbEntity
  8
SANINDUSA
100
AcDbLine
 10
0.1723329999999805
 20
0.3999999999999772
 30
0.0
 11
0.1723329999999805
 21
0.4406810000000406
 31
0.0
  0
ARC
  5
1888
330
187B
100
AcDbEntity
  8
SANINDUSA
100
AcDbCircle
 10
-0.1319690000000264
 20
0.4257499999999937
 30
0.0
 40
0.021693
100
AcDbArc
 50
28.79559799999954
 51
66.18287399999897
  0
ARC
  5
1889
330
187B
100
AcDbEntity
  8
SANINDUSA
100
AcDbCircle
 10
-0.1319690000000264
 20
0.4257499999999937
 30
0.0
 40
0.021693
100
AcDbArc
 50
28.79559799999954
 51
66.18287399999897
  0
ARC
  5
188A
330
187B
100
AcDbEntity
  8
SANINDUSA
100
AcDbCircle
 10
-0.1236129999999775
 20
0.444680999999946
 30
0.0
 40
0.001
100
AcDbArc
 50
66.18287399999897
 51
90.0
  0
ARC
  5
188B
330
187B
100
AcDbEntity
  8
SANINDUSA
100
AcDbCircle
 10
-0.1236129999999775
 20
0.444680999999946
 30
0.0
 40
0.001
100
AcDbArc
 50
66.18287399999897
 51
90.0
  0
ARC
  5
188C
330
187B
100
AcDbEntity
  8
SANINDUSA
100
AcDbCircle
 10
-0.1120819999999867
 20
0.4366810000000215
 30
0.0
 40
0.001
100
AcDbArc
 50
208.7955979999995
 51
270.0
  0
ARC
  5
188D
330
187B
100
AcDbEntity
  8
SANINDUSA
100
AcDbCircle
 10
-0.1120819999999867
 20
0.4366810000000215
 30
0.0
 40
0.001
100
AcDbArc
 50
208.7955979999995
 51
270.0
  0
LINE
  5
188E
330
187B
100
AcDbEntity
  8
SANINDUSA
100
AcDbLine
 10
-0.1120819999999867
 20
0.4356810000000451
 30
0.0
 11
0.1135530000000244
 21
0.4356810000000451
 31
0.0
  0
LINE
  5
188F
330
187B
100
AcDbEntity
  8
SANINDUSA
100
AcDbLine
 10
-0.1120819999999867
 20
0.4356810000000451
 30
0.0
 11
0.1135530000000244
 21
0.4356810000000451
 31
0.0
  0
ARC
  5
1890
330
187B
100
AcDbEntity
  8
SANINDUSA
100
AcDbCircle
 10
0.0
 20
-0.014095999999995
 30
0.0
 40
0.12497
100
AcDbArc
 50
33.94201599999676
 51
146.0579840000032
  0
ARC
  5
1891
330
187B
100
AcDbEntity
  8
SANINDUSA
100
AcDbCircle
 10
0.0
 20
-0.014095999999995
 30
0.0
 40
0.12497
100
AcDbArc
 50
33.94201599999676
 51
146.0579840000032
  0
LINE
  5
1892
330
187B
100
AcDbEntity
  8
SANINDUSA
100
AcDbLine
 10
-0.1036749999999529
 20
0.0556810000000496
 30
0.0
 11
0.1036749999999529
 21
0.0556810000000496
 31
0.0
  0
LINE
  5
1893
330
187B
100
AcDbEntity
  8
SANINDUSA
100
AcDbLine
 10
-0.1036749999999529
 20
0.0556810000000496
 30
0.0
 11
0.1036749999999529
 21
0.0556810000000496
 31
0.0
  0
ARC
  5
1894
330
187B
100
AcDbEntity
  8
SANINDUSA
100
AcDbCircle
 10
-0.1755450000000565
 20
0.3949999999999818
 30
0.0
 40
0.005
100
AcDbArc
 50
90.0
 51
199.4868489999973
  0
ARC
  5
1895
330
187B
100
AcDbEntity
  8
SANINDUSA
100
AcDbCircle
 10
-0.1755450000000565
 20
0.3949999999999818
 30
0.0
 40
0.005
100
AcDbArc
 50
90.0
 51
199.4868489999973
  0
LINE
  5
1896
330
187B
100
AcDbEntity
  8
SANINDUSA
100
AcDbLine
 10
-0.1708620000000565
 20
0.3999999999999772
 30
0.0
 11
-0.1708620000000565
 21
0.4406810000000406
 31
0.0
  0
ARC
  5
1897
330
187B
100
AcDbEntity
  8
SANINDUSA
100
AcDbCircle
 10
-0.1658619999999473
 20
0.4406810000000406
 30
0.0
 40
0.005
100
AcDbArc
 50
90.0
 51
180.0
  0
ARC
  5
1898
330
187B
100
AcDbEntity
  8
SANINDUSA
100
AcDbCircle
 10
-0.1658619999999473
 20
0.4406810000000406
 30
0.0
 40
0.005
100
AcDbArc
 50
90.0
 51
180.0
  0
LINE
  5
1899
330
187B
100
AcDbEntity
  8
SANINDUSA
100
AcDbLine
 10
-0.1708620000000565
 20
0.3999999999999772
 30
0.0
 11
-0.1708620000000565
 21
0.4406810000000406
 31
0.0
  0
LINE
  5
189A
330
187B
100
AcDbEntity
  8
SANINDUSA
100
AcDbLine
 10
-0.1658619999999473
 20
0.445681000000036
 30
0.0
 11
0.1673329999999851
 21
0.445681000000036
 31
0.0
  0
LINE
  5
189B
330
187B
100
AcDbEntity
  8
SANINDUSA
100
AcDbLine
 10
-0.1658619999999473
 20
0.445681000000036
 30
0.0
 11
0.1673329999999851
 21
0.445681000000036
 31
0.0
  0
ARC
  5
189C
330
187B
100
AcDbEntity
  8
SANINDUSA
100
AcDbCircle
 10
-1.577448000000003
 20
-0.1010780000000295
 30
0.0
 40
1.482085999999999
100
AcDbArc
 50
6.071477000002493
 51
19.48684899999723
  0
ARC
  5
189D
330
187B
100
AcDbEntity
  8
SANINDUSA
100
AcDbCircle
 10
-1.577448000000003
 20
-0.1010780000000295
 30
0.0
 40
1.482085999999999
100
AcDbArc
 50
6.071477000002493
 51
19.48684899999723
  0
LINE
  5
189E
330
187B
100
AcDbEntity
  8
SANINDUSA
100
AcDbLine
 10
-0.1755450000000565
 20
0.3999999999999772
 30
0.0
 11
0.1755399999999554
 21
0.3999999999999772
 31
0.0
  0
LINE
  5
189F
330
187B
100
AcDbEntity
  8
SANINDUSA
100
AcDbLine
 10
-0.1755450000000565
 20
0.3999999999999772
 30
0.0
 11
0.1755399999999554
 21
0.3999999999999772
 31
0.0
  0
ARC
  5
18A0
330
187B
100
AcDbEntity
  8
SANINDUSA
100
AcDbCircle
 10
1.577587999999991
 20
-0.1010880000000043
 30
0.0
 40
1.482227
100
AcDbArc
 50
160.5146340000035
 51
173.9286889999987
  0
ARC
  5
18A1
330
187B
100
AcDbEntity
  8
SANINDUSA
100
AcDbCircle
 10
1.577587999999991
 20
-0.1010880000000043
 30
0.0
 40
1.482227
100
AcDbArc
 50
160.5146340000035
 51
173.9286889999987
  0
ENDBLK
  5
18A3
330
187B
100
AcDbEntity
  8
0
100
AcDbBlockEnd
  0
ENDSEC
  0
SECTION
  2
ENTITIES
  0
LWPOLYLINE
  5
11DF
330
1F
100
AcDbEntity
  8
indusa
100
AcDbPolyline
 90
       41
 70
   128
 43
0.0
 10
4694.887566399516
 20
1875.541988864176
 10
4694.881211218972
 20
1875.542124854682
 10
4694.869498549603
 20
1875.543095037227
 10
4694.857862245875
 20
1875.544990676756
 10
4694.84641053836
 20
1875.5477920395
 10
4694.835251657632
 20
1875.551479391692
 10
4694.824561870444
 20
1875.55595823675
 10
4694.814215312433
 20
1875.561266447624
 10
4694.804348681937
 20
1875.567401886184
 10
4694.79509867729
 20
1875.574362414298
 10
4694.786562229862
 20
1875.582290128158
 10
4694.778932774894
 20
1875.591142517336
 10
4694.772352535324
 20
1875.600755916882
 10
4694.766905828354
 20
1875.611049728408
 10
4694.762630953098
 20
1875.62192290415
 10
4694.759607933603
 20
1875.633169809208
 10
4694.757797101131
 20
1875.644179748402
 10
4694.756814401897
 20
1875.655316893444
 10
4694.756497040092
 20
1875.666525348242
 10
4694.756682219913
 20
1875.677749216699
 10
4694.757207145555
 20
1875.688932602723
 10
4694.758528173642
 20
1875.704915514542
 10
4694.76067270016
 20
1875.72084707568
 10
4694.763668577722
 20
1875.736647220353
 10
4694.76754365894
 20
1875.752235882779
 10
4694.772325796431
 20
1875.767532997175
 10
4694.776093640022
 20
1875.777069866262
 10
4694.780663993618
 20
1875.786290227072
 10
4694.785989082031
 20
1875.795095232624
 10
4694.792021130082
 20
1875.803386035936
 10
4694.798745249365
 20
1875.811126487341
 10
4694.806123732387
 20
1875.8182986455
 10
4694.814074539062
 20
1875.824830930383
 10
4694.822515629305
 20
1875.830651761963
 10
4694.831419765969
 20
1875.835729513409
 10
4694.840752258001
 20
1875.840056391503
 10
4694.850412527301
 20
1875.843591943391
 10
4694.860299995772
 20
1875.84629571622
 10
4694.869299703563
 20
1875.847996364948
 10
4694.878413888076
 20
1875.849023116409
 10
4694.887566399516
 20
1875.849367294844
  0
LWPOLYLINE
  5
11E1
330
1F
100
AcDbEntity
  8
indusa
100
AcDbPolyline
 90
       44
 70
   128
 43
0.0
 10
4694.709265097065
 20
1875.898818926188
 10
4694.709394418731
 20
1875.731676227836
 10
4694.709390803932
 20
1875.683515651502
 10
4694.709238192444
 20
1875.658100093614
 10
4694.709245996653
 20
1875.644933273501
 10
4694.70937894969
 20
1875.636255041782
 10
4694.709617782285
 20
1875.629176299571
 10
4694.710113761656
 20
1875.622248851338
 10
4694.710942272929
 20
1875.614961703965
 10
4694.71208575355
 20
1875.607683065896
 10
4694.713543472322
 20
1875.600429677612
 10
4694.715313586795
 20
1875.593219705949
 10
4694.717393202451
 20
1875.58607156777
 10
4694.719778366811
 20
1875.579003736271
 10
4694.722464092044
 20
1875.572034539333
 10
4694.725444310278
 20
1875.565182166367
 10
4694.728711423792
 20
1875.558465398009
 10
4694.732257618314
 20
1875.551900740356
 10
4694.736074445599
 20
1875.545503791156
 10
4694.740152960586
 20
1875.539289130758
 10
4694.744481945271
 20
1875.533272441158
 10
4694.749038631218
 20
1875.527475135167
 10
4694.753861506345
 20
1875.521844834437
 10
4694.758930647213
 20
1875.516408414405
 10
4694.764237578071
 20
1875.511176580603
 10
4694.769772910095
 20
1875.506160150098
 10
4694.775526375237
 20
1875.50136989879
 10
4694.781486845586
 20
1875.496816445927
 10
4694.787642374463
 20
1875.492510136026
 10
4694.793980259047
 20
1875.488460921958
 10
4694.800487123566
 20
1875.484678253064
 10
4694.807148499483
 20
1875.481171232942
 10
4694.813949494224
 20
1875.47794814749
 10
4694.820875379407
 20
1875.475016224348
 10
4694.827912099689
 20
1875.472381743245
 10
4694.83502228203
 20
1875.470057859915
 10
4694.842225367839
 20
1875.468032193598
 10
4694.849555205208
 20
1875.466294894495
 10
4694.856978888391
 20
1875.464857007288
 10
4694.864460850359
 20
1875.463727745247
 10
4694.871957072789
 20
1875.462914638585
 10
4694.879435997599
 20
1875.462422250352
 10
4694.88675464655
 20
1875.462228118099
 10
4694.88756631598
 20
1875.462226376539
  0
LWPOLYLINE
  5
11E2
330
1F
100
AcDbEntity
  8
indusa
100
AcDbPolyline
 90
       41
 70
   128
 43
0.0
 10
4694.887566399516
 20
1875.541988864176
 10
4694.893921580059
 20
1875.542124854682
 10
4694.905634249429
 20
1875.543095037227
 10
4694.917270553156
 20
1875.544990676756
 10
4694.92872226067
 20
1875.5477920395
 10
4694.9398811414
 20
1875.551479391692
 10
4694.950570928589
 20
1875.55595823675
 10
4694.960917486599
 20
1875.561266447624
 10
4694.970784117095
 20
1875.567401886184
 10
4694.980034121742
 20
1875.574362414298
 10
4694.98857056917
 20
1875.582290128158
 10
4694.996200024138
 20
1875.591142517336
 10
4695.002780263706
 20
1875.600755916882
 10
4695.008226970678
 20
1875.611049728408
 10
4695.012501845933
 20
1875.62192290415
 10
4695.015524865429
 20
1875.633169809208
 10
4695.0173356979
 20
1875.644179748402
 10
4695.018318397136
 20
1875.655316893444
 10
4695.01863575894
 20
1875.666525348242
 10
4695.018450579119
 20
1875.677749216699
 10
4695.017925653477
 20
1875.688932602723
 10
4695.016604625389
 20
1875.704915514542
 10
4695.014460098871
 20
1875.72084707568
 10
4695.01146422131
 20
1875.736647220353
 10
4695.007589140091
 20
1875.752235882779
 10
4695.002807002601
 20
1875.767532997175
 10
4694.99903915901
 20
1875.777069866262
 10
4694.994468805414
 20
1875.786290227072
 10
4694.989143717
 20
1875.795095232624
 10
4694.98311166895
 20
1875.803386035936
 10
4694.976387549666
 20
1875.811126487341
 10
4694.969009066645
 20
1875.8182986455
 10
4694.961058259971
 20
1875.824830930383
 10
4694.952617169726
 20
1875.830651761963
 10
4694.943713033063
 20
1875.835729513409
 10
4694.93438054103
 20
1875.840056391503
 10
4694.924720271729
 20
1875.843591943391
 10
4694.914832803259
 20
1875.84629571622
 10
4694.905833095468
 20
1875.847996364948
 10
4694.896718910955
 20
1875.849023116409
 10
4694.887566399516
 20
1875.849367294844
  0
LWPOLYLINE
  5
11E3
330
1F
100
AcDbEntity
  8
indusa
100
AcDbPolyline
 90
       45
 70
   128
 43
0.0
 10
4694.887566508208
 20
1875.462236597167
 10
4694.88953100005
 20
1875.462243960411
 10
4694.896680973175
 20
1875.462468340234
 10
4694.903653227274
 20
1875.462956950587
 10
4694.911007128419
 20
1875.463771529067
 10
4694.918484494909
 20
1875.464914269601
 10
4694.925941027182
 20
1875.466373521886
 10
4694.933339398249
 20
1875.46814464558
 10
4694.940635426965
 20
1875.470218195276
 10
4694.947794305063
 20
1875.472583818963
 10
4694.954782597365
 20
1875.475226569518
 10
4694.961653102484
 20
1875.47815961632
 10
4694.968423302603
 20
1875.481391455743
 10
4694.975062412563
 20
1875.484909680998
 10
4694.981555729065
 20
1875.488707497841
 10
4694.987888700055
 20
1875.492777282388
 10
4694.994046610275
 20
1875.497110290686
 10
4695.000015321107
 20
1875.501697055085
 10
4695.005781732859
 20
1875.506527791159
 10
4695.011333449429
 20
1875.511592234361
 10
4695.016658861141
 20
1875.516879754074
 10
4695.021747206766
 20
1875.522379473272
 10
4695.026588613284
 20
1875.528080389691
 10
4695.03117411316
 20
1875.533971494677
 10
4695.035488158454
 20
1875.540032731611
 10
4695.039500580368
 20
1875.546213963645
 10
4695.043254142463
 20
1875.55257128385
 10
4695.046745534088
 20
1875.559100469872
 10
4695.049965829212
 20
1875.565787571333
 10
4695.052906504097
 20
1875.57261761856
 10
4695.055559559929
 20
1875.579574676499
 10
4695.057917656124
 20
1875.586641955183
 10
4695.059973786331
 20
1875.59380025967
 10
4695.061722468536
 20
1875.601031359258
 10
4695.063159243893
 20
1875.608316800868
 10
4695.06428070009
 20
1875.615638036872
 10
4695.065084492696
 20
1875.622976628061
 10
4695.065569337832
 20
1875.630314441621
 10
4695.065781941025
 20
1875.637536358736
 10
4695.065896271752
 20
1875.64622298479
 10
4695.065885504104
 20
1875.659701234089
 10
4695.065761142648
 20
1875.676767310705
 10
4695.065738925072
 20
1875.710119139822
 10
4695.065739101807
 20
1875.743727095183
 10
4695.065882604399
 20
1875.898818898637
  0
LWPOLYLINE
  5
11F5
330
1F
100
AcDbEntity
  8
indusa
100
AcDbPolyline
 90
       13
 70
   128
 43
0.0
 10
4694.95080443217
 20
1875.968905419804
 10
4694.953720840207
 20
1875.964649587181
 10
4694.956766952237
 20
1875.96016875834
 10
4694.959933872269
 20
1875.955476019275
 10
4694.963212351505
 20
1875.950585074847
 10
4694.966592815343
 20
1875.945510208769
 10
4694.97006539134
 20
1875.940266241882
 10
4694.973619938046
 20
1875.934868488877
 10
4694.977246074621
 20
1875.929332713569
 10
4694.980933211149
 20
1875.923675082858
 10
4694.984670579569
 20
1875.917912119516
 10
4694.98844726512
 20
1875.912060653931
 10
4694.992252238219
 20
1875.906137774959
  0
LWPOLYLINE
  5
11F9
330
1F
100
AcDbEntity
  8
indusa
100
AcDbPolyline
 90
       21
 70
   128
 43
0.0
 10
4695.067482589998
 20
1876.016827074793
 10
4695.067483482511
 20
1876.012438081787
 10
4695.067484682972
 20
1876.007932811759
 10
4695.067486191383
 20
1876.003311264711
 10
4695.06748800774
 20
1875.998573440641
 10
4695.067490132047
 20
1875.993719339551
 10
4695.067491768357
 20
1875.990333385333
 10
4695.067493584923
 20
1875.986806965295
 10
4695.067496085832
 20
1875.982137297494
 10
4695.067499113362
 20
1875.976639376039
 10
4695.067502667512
 20
1875.970313200931
 10
4695.067506501366
 20
1875.963564651817
 10
4695.067509840756
 20
1875.957534054887
 10
4695.067513045566
 20
1875.951487411322
 10
4695.06751569955
 20
1875.946162216459
 10
4695.067517802707
 20
1875.941558470294
 10
4695.067519941978
 20
1875.936124375326
 10
4695.067521823736
 20
1875.930160623947
 10
4695.067523109884
 20
1875.924456711433
 10
4695.067523800424
 20
1875.919012637785
 10
4695.067523895356
 20
1875.913828403002
  0
LWPOLYLINE
  5
11FD
330
1F
100
AcDbEntity
  8
indusa
100
AcDbPolyline
 90
       13
 70
   128
 43
0.0
 10
4694.824328366862
 20
1875.968905419804
 10
4694.821411958825
 20
1875.964649587181
 10
4694.818365846796
 20
1875.96016875834
 10
4694.815198926763
 20
1875.955476019275
 10
4694.811920447526
 20
1875.950585074847
 10
4694.808539983688
 20
1875.945510208769
 10
4694.805067407691
 20
1875.940266241882
 10
4694.801512860985
 20
1875.934868488877
 10
4694.797886724411
 20
1875.929332713569
 10
4694.794199587883
 20
1875.923675082858
 10
4694.790462219462
 20
1875.917912119516
 10
4694.786685533911
 20
1875.912060653931
 10
4694.782880560813
 20
1875.906137774959
  0
LWPOLYLINE
  5
11FF
330
1F
100
AcDbEntity
  8
indusa
100
AcDbPolyline
 90
       21
 70
   128
 43
0.0
 10
4694.707650209034
 20
1876.016827074793
 10
4694.707649316521
 20
1876.012438081787
 10
4694.70764811606
 20
1876.007932811759
 10
4694.70764660765
 20
1876.003311264711
 10
4694.707644791292
 20
1875.998573440641
 10
4694.707642666986
 20
1875.993719339551
 10
4694.707641030675
 20
1875.990333385333
 10
4694.707639214107
 20
1875.986806965295
 10
4694.7076367132
 20
1875.982137297494
 10
4694.707633685671
 20
1875.976639376039
 10
4694.707630131519
 20
1875.970313200931
 10
4694.707626297665
 20
1875.963564651817
 10
4694.707622958277
 20
1875.957534054887
 10
4694.707619753465
 20
1875.951487411322
 10
4694.707617099481
 20
1875.946162216459
 10
4694.707614996326
 20
1875.941558470294
 10
4694.707612857054
 20
1875.936124375326
 10
4694.707610975297
 20
1875.930160623947
 10
4694.707609689148
 20
1875.924456711433
 10
4694.707608998608
 20
1875.919012637785
 10
4694.707608903677
 20
1875.913828403002
  0
LINE
  5
1207
330
1F
100
AcDbEntity
  8
indusa
100
AcDbLine
 10
4694.985043143833
 20
1875.903827073688
 30
0.0
 11
4694.790089655199
 21
1875.903827073688
 31
0.0
  0
LWPOLYLINE
  5
120B
330
1F
100
AcDbEntity
  8
indusa
100
AcDbPolyline
 90
       13
 70
   128
 43
0.0
 10
4694.842679794049
 20
1875.71316926014
 10
4694.842679797626
 20
1875.713169200492
 10
4694.843168917022
 20
1875.708982900394
 10
4694.844786870413
 20
1875.702845101636
 10
4694.847407515999
 20
1875.697058046936
 10
4694.850974801523
 20
1875.691787983422
 10
4694.855375158623
 20
1875.687184751333
 10
4694.860490135584
 20
1875.683397040272
 10
4694.866167875765
 20
1875.680519163971
 10
4694.870750977409
 20
1875.679008922
 10
4694.875508780497
 20
1875.678091939782
 10
4694.880324011784
 20
1875.67779139912
 10
4694.880324071768
 20
1875.677791399313
  0
LWPOLYLINE
  5
120D
330
1F
100
AcDbEntity
  8
indusa
100
AcDbPolyline
 90
        5
 70
   128
 43
0.0
 10
4694.8779231101
 20
1875.782465629007
 10
4694.870938011747
 20
1875.782527055577
 10
4694.863964180945
 20
1875.782610918397
 10
4694.858671932929
 20
1875.782682972638
 10
4694.853396832396
 20
1875.782757390973
  0
LWPOLYLINE
  5
1211
330
1F
100
AcDbEntity
  8
indusa
100
AcDbPolyline
 90
       11
 70
   128
 43
0.0
 10
4694.936295139222
 20
1875.766710180975
 10
4694.936229814742
 20
1875.769097716615
 10
4694.935779749067
 20
1875.77144969916
 10
4694.934956610914
 20
1875.77370514946
 10
4694.933781741545
 20
1875.775805591126
 10
4694.932285601447
 20
1875.777696566634
 10
4694.930506980596
 20
1875.779329049225
 10
4694.928491992765
 20
1875.78066071401
 10
4694.926292879947
 20
1875.781657035311
 10
4694.92396665788
 20
1875.782292181805
 10
4694.921735966635
 20
1875.782757390973
  0
LWPOLYLINE
  5
1216
330
1F
100
AcDbEntity
  8
indusa
100
AcDbPolyline
 90
       13
 70
   128
 43
0.0
 10
4694.932453004983
 20
1875.71316926014
 10
4694.932453001405
 20
1875.713169200492
 10
4694.93196388201
 20
1875.708982900394
 10
4694.930345928619
 20
1875.702845101636
 10
4694.927725283033
 20
1875.697058046936
 10
4694.924157997509
 20
1875.691787983422
 10
4694.919757640408
 20
1875.687184751333
 10
4694.914642663447
 20
1875.683397040272
 10
4694.908964923267
 20
1875.680519163971
 10
4694.904381821624
 20
1875.679008922
 10
4694.899624018535
 20
1875.678091939782
 10
4694.894808787246
 20
1875.67779139912
 10
4694.894808727265
 20
1875.677791399313
  0
ARC
  5
1218
330
1F
100
AcDbEntity
  8
indusa
100
AcDbCircle
 10
4694.88757647522
 20
1872.833083219791
 30
0.0
 40
2.844717424278194
100
AcDbArc
 50
90.0
 51
90.14607164692471
  0
ARC
  5
121A
330
1F
100
AcDbEntity
  8
indusa
100
AcDbCircle
 10
4694.887556323812
 20
1872.833083219791
 30
0.0
 40
2.844717424278223
100
AcDbArc
 50
89.85392835302317
 51
90.0
  0
LWPOLYLINE
  5
121D
330
1F
100
AcDbEntity
  8
indusa
100
AcDbPolyline
 90
        5
 70
   128
 43
0.0
 10
4694.936295139222
 20
1875.766710180975
 10
4694.935726134473
 20
1875.759677394453
 10
4694.935261207624
 20
1875.75367369167
 10
4694.934373132514
 20
1875.74159748306
 10
4694.933946939635
 20
1875.73553875065
  0
ARC
  5
1221
330
1F
100
AcDbEntity
  8
indusa
100
AcDbCircle
 10
4699.518412184112
 20
1875.418133020946
 30
0.0
 40
4.595439910942551
100
AcDbArc
 50
176.039443456606
 51
176.3189670195024
  0
LINE
  5
1224
330
1F
100
AcDbEntity
  8
indusa
100
AcDbLine
 10
4694.985043143833
 20
1875.903827073688
 30
0.0
 11
4694.99643458884
 21
1875.903827073688
 31
0.0
  0
LINE
  5
1226
330
1F
100
AcDbEntity
  8
indusa
100
AcDbLine
 10
4694.99643458884
 20
1875.903827073688
 30
0.0
 11
4695.06082089693
 21
1875.903827073688
 31
0.0
  0
LWPOLYLINE
  5
122A
330
1F
100
AcDbEntity
  8
indusa
100
AcDbPolyline
 90
        9
 70
   128
 43
0.0
 10
4695.067303915112
 20
1875.908827073688
 10
4695.067207961382
 20
1875.907851622078
 10
4695.066923787638
 20
1875.906913656526
 10
4695.066462314517
 20
1875.906049222523
 10
4695.065841276174
 20
1875.905291539782
 10
4695.065084538765
 20
1875.904669725626
 10
4695.064221183282
 20
1875.904207676025
 10
4695.063284387995
 20
1875.903923147286
 10
4695.062310153417
 20
1875.903827073688
  0
LWPOLYLINE
  5
122C
330
1F
100
AcDbEntity
  8
indusa
100
AcDbPolyline
 90
        8
 70
   128
 43
0.0
 10
4695.065865125505
 20
1875.898818113194
 10
4695.06588179286
 20
1875.899934071688
 10
4695.065977733519
 20
1875.901366174859
 10
4695.066137701477
 20
1875.902661054635
 10
4695.066322863644
 20
1875.903668800796
 10
4695.066538096074
 20
1875.904509736645
 10
4695.066702149857
 20
1875.904988556387
 10
4695.066948978277
 20
1875.905545191005
  0
LWPOLYLINE
  5
122D
330
1F
100
AcDbEntity
  8
indusa
100
AcDbPolyline
 90
        5
 70
   128
 43
0.0
 10
4695.067523895356
 20
1875.913828403002
 10
4695.06752383839
 20
1875.912413050362
 10
4695.067523781196
 20
1875.910997697725
 10
4695.067523716567
 20
1875.909403663861
 10
4695.067523651784
 20
1875.90780963
  0
LWPOLYLINE
  5
122E
330
1F
100
AcDbEntity
  8
indusa
100
AcDbPolyline
 90
        4
 70
   128
 43
0.0
 10
4695.067523651784
 20
1875.90780963
 10
4695.067453270524
 20
1875.908370510394
 10
4695.067379460073
 20
1875.908712273915
 10
4695.067303915112
 20
1875.908827073688
  0
LWPOLYLINE
  5
1230
330
1F
100
AcDbEntity
  8
indusa
100
AcDbPolyline
 90
        5
 70
   128
 43
0.0
 10
4695.067523651784
 20
1875.90780963
 10
4695.067524039603
 20
1875.907796971205
 10
4695.067529872689
 20
1875.907405832524
 10
4695.067528576701
 20
1875.907208401516
 10
4695.067524644812
 20
1875.907009823742
  0
LINE
  5
1233
330
1F
100
AcDbEntity
  8
indusa
100
AcDbLine
 10
4695.06082089693
 20
1875.903827073688
 30
0.0
 11
4695.062310153417
 21
1875.903827073688
 31
0.0
  0
LWPOLYLINE
  5
1235
330
1F
100
AcDbEntity
  8
indusa
100
AcDbPolyline
 90
        3
 70
   128
 43
0.0
 10
4695.066948978277
 20
1875.905545191005
 10
4695.067246626509
 20
1875.905991411733
 10
4695.067524644812
 20
1875.907009823742
  0
LWPOLYLINE
  5
1238
330
1F
100
AcDbEntity
  8
indusa
100
AcDbPolyline
 90
        9
 70
   128
 43
0.0
 10
4694.992252238219
 20
1875.906137774959
 10
4694.99261869624
 20
1875.905631838016
 10
4694.993045045406
 20
1875.905176050891
 10
4694.993524594086
 20
1875.904777567248
 10
4694.994049815675
 20
1875.904442641362
 10
4694.994612466724
 20
1875.904176529957
 10
4694.995203716318
 20
1875.903983409701
 10
4694.995814284684
 20
1875.903866311653
 10
4694.99643458884
 20
1875.903827073688
  0
ARC
  5
123C
330
1F
100
AcDbEntity
  8
indusa
100
AcDbCircle
 10
4694.888457665455
 20
1877.3038455873
 30
0.0
 40
1.521416430289313
100
AcDbArc
 50
269.603270760004
 51
269.9664353699739
  0
ARC
  5
123E
330
1F
100
AcDbEntity
  8
indusa
100
AcDbCircle
 10
4694.886675133576
 20
1877.303845587301
 30
0.0
 40
1.521416430289405
100
AcDbArc
 50
270.0335646300783
 51
270.396729239944
  0
LWPOLYLINE
  5
1242
330
1F
100
AcDbEntity
  8
indusa
100
AcDbPolyline
 90
        5
 70
   128
 43
0.0
 10
4694.897209688932
 20
1875.782465629007
 10
4694.904194787286
 20
1875.782527055577
 10
4694.911168618086
 20
1875.782610918397
 10
4694.916460866102
 20
1875.782682972638
 10
4694.921735966635
 20
1875.782757390973
  0
CIRCLE
  5
1244
330
1F
100
AcDbEntity
  8
indusa
100
AcDbCircle
 10
4694.970066399515
 20
1875.882227073688
 30
0.0
 40
0.0080000000000001
  0
LWPOLYLINE
  5
1248
330
1F
100
AcDbEntity
  8
indusa
100
AcDbPolyline
 90
       11
 70
   128
 43
0.0
 10
4694.83883765981
 20
1875.766710180975
 10
4694.838902984291
 20
1875.769097716615
 10
4694.839353049967
 20
1875.77144969916
 10
4694.840176188117
 20
1875.77370514946
 10
4694.841351057486
 20
1875.775805591126
 10
4694.842847197585
 20
1875.777696566634
 10
4694.844625818435
 20
1875.779329049225
 10
4694.846640806265
 20
1875.78066071401
 10
4694.848839919085
 20
1875.781657035311
 10
4694.851166141152
 20
1875.782292181805
 10
4694.853396832396
 20
1875.782757390973
  0
ARC
  5
124B
330
1F
100
AcDbEntity
  8
indusa
100
AcDbCircle
 10
4690.256720614921
 20
1875.418133020947
 30
0.0
 40
4.595439910940997
100
AcDbArc
 50
3.681032980497586
 51
3.960556543393973
  0
LWPOLYLINE
  5
1250
330
1F
100
AcDbEntity
  8
indusa
100
AcDbPolyline
 90
        5
 70
   128
 43
0.0
 10
4694.83883765981
 20
1875.766710180975
 10
4694.839406664558
 20
1875.759677394453
 10
4694.839871591407
 20
1875.75367369167
 10
4694.840759666518
 20
1875.74159748306
 10
4694.841185859397
 20
1875.73553875065
  0
LINE
  5
1257
330
1F
100
AcDbEntity
  8
indusa
100
AcDbLine
 10
4694.778698210192
 20
1875.903827073688
 30
0.0
 11
4694.714311902101
 21
1875.903827073688
 31
0.0
  0
CIRCLE
  5
125C
330
1F
100
AcDbEntity
  8
indusa
100
AcDbCircle
 10
4694.805066399515
 20
1875.882227073688
 30
0.0
 40
0.0080000000000001
  0
LWPOLYLINE
  5
125F
330
1F
100
AcDbEntity
  8
indusa
100
AcDbPolyline
 90
        9
 70
   128
 43
0.0
 10
4694.782880560813
 20
1875.906137774959
 10
4694.782514102791
 20
1875.905631838016
 10
4694.782087753625
 20
1875.905176050891
 10
4694.781608204945
 20
1875.904777567248
 10
4694.781082983356
 20
1875.904442641362
 10
4694.780520332308
 20
1875.904176529957
 10
4694.779929082716
 20
1875.903983409701
 10
4694.779318514347
 20
1875.903866311653
 10
4694.778698210192
 20
1875.903827073688
  0
LINE
  5
1263
330
1F
100
AcDbEntity
  8
indusa
100
AcDbLine
 10
4694.790089655199
 20
1875.903827073688
 30
0.0
 11
4694.778698210192
 21
1875.903827073688
 31
0.0
  0
LINE
  5
1268
330
1F
100
AcDbEntity
  8
indusa
100
AcDbLine
 10
4694.714311902101
 20
1875.903827073688
 30
0.0
 11
4694.712822645614
 21
1875.903827073688
 31
0.0
  0
LWPOLYLINE
  5
126A
330
1F
100
AcDbEntity
  8
indusa
100
AcDbPolyline
 90
        8
 70
   128
 43
0.0
 10
4694.708193625387
 20
1875.905530492347
 10
4694.708439151483
 20
1875.904966891683
 10
4694.708607598025
 20
1875.904466650036
 10
4694.70880144488
 20
1875.903707606903
 10
4694.708997796076
 20
1875.902643530245
 10
4694.709150788753
 20
1875.901410916722
 10
4694.709248771948
 20
1875.899987500865
 10
4694.709268661816
 20
1875.898818006065
  0
LWPOLYLINE
  5
126C
330
1F
100
AcDbEntity
  8
indusa
100
AcDbPolyline
 90
        4
 70
   128
 43
0.0
 10
4694.707609147248
 20
1875.90780963
 10
4694.707679528506
 20
1875.908370510394
 10
4694.707753338959
 20
1875.908712273915
 10
4694.707828883919
 20
1875.908827073688
  0
LWPOLYLINE
  5
126D
330
1F
100
AcDbEntity
  8
indusa
100
AcDbPolyline
 90
        5
 70
   128
 43
0.0
 10
4694.707608903677
 20
1875.913828403002
 10
4694.707608960642
 20
1875.912413050362
 10
4694.707609017837
 20
1875.910997697725
 10
4694.707609082463
 20
1875.909403663861
 10
4694.707609147248
 20
1875.90780963
  0
LWPOLYLINE
  5
126E
330
1F
100
AcDbEntity
  8
indusa
100
AcDbPolyline
 90
        9
 70
   128
 43
0.0
 10
4694.707828883919
 20
1875.908827073688
 10
4694.707924837651
 20
1875.907851622078
 10
4694.708209011395
 20
1875.906913656526
 10
4694.708670484515
 20
1875.906049222523
 10
4694.709291522856
 20
1875.905291539782
 10
4694.710048260266
 20
1875.904669725626
 10
4694.710911615749
 20
1875.904207676025
 10
4694.711848411038
 20
1875.903923147286
 10
4694.712822645614
 20
1875.903827073688
  0
LWPOLYLINE
  5
1271
330
1F
100
AcDbEntity
  8
indusa
100
AcDbPolyline
 90
        5
 70
   128
 43
0.0
 10
4694.707609147248
 20
1875.90780963
 10
4694.707608759429
 20
1875.907796971205
 10
4694.707602926342
 20
1875.907405832524
 10
4694.707604222331
 20
1875.907208401516
 10
4694.707608154219
 20
1875.907009823742
  0
LWPOLYLINE
  5
1272
330
1F
100
AcDbEntity
  8
indusa
100
AcDbPolyline
 90
        3
 70
   128
 43
0.0
 10
4694.708193625387
 20
1875.905530492347
 10
4694.707886172523
 20
1875.905991411733
 10
4694.707608154219
 20
1875.907009823742
  0
LINE
  5
1274
330
1F
100
AcDbEntity
  8
indusa
100
AcDbLine
 10
4694.714322645615
 20
1876.018827073688
 30
0.0
 11
4695.060810153417
 21
1876.018827073688
 31
0.0
  0
LWPOLYLINE
  5
1275
330
1F
100
AcDbEntity
  8
indusa
100
AcDbPolyline
 90
        7
 70
   128
 43
0.0
 10
4694.827764405234
 20
1875.971690269625
 10
4694.83896078348
 20
1875.970741990911
 10
4694.858775867748
 20
1875.969546102655
 10
4694.887566399516
 20
1875.968900791383
 10
4694.912960414121
 20
1875.969402932051
 10
4694.938314702402
 20
1875.970908195045
 10
4694.947368393797
 20
1875.971690269625
  0
LWPOLYLINE
  5
127A
330
1F
100
AcDbEntity
  8
indusa
100
AcDbPolyline
 90
        8
 70
   128
 43
0.0
 10
4695.061067289799
 20
1875.996759128792
 10
4695.051999666893
 20
1875.993539608334
 10
4695.032931814469
 20
1875.987873120694
 10
4695.013614969833
 20
1875.983106390589
 10
4694.993997925954
 20
1875.979034763829
 10
4694.974246736054
 20
1875.975671835324
 10
4694.964423440253
 20
1875.974261322031
 10
4694.954574725715
 20
1875.973017769286
  0
ARC
  5
127C
330
1F
100
AcDbEntity
  8
indusa
100
AcDbCircle
 10
4695.065483834508
 20
1876.016828334355
 30
0.0
 40
0.0019987397235451
100
AcDbArc
 50
359.9638617524777
 51
89.96414444264697
  0
LWPOLYLINE
  5
1281
330
1F
100
AcDbEntity
  8
indusa
100
AcDbPolyline
 90
        9
 70
   128
 43
0.0
 10
4695.061067289799
 20
1875.996759128792
 10
4695.061975447322
 20
1875.996791453756
 10
4695.06284435764
 20
1875.996853550142
 10
4695.063644755776
 20
1875.99694332654
 10
4695.064349684243
 20
1875.997057759271
 10
4695.06493540099
 20
1875.997192994231
 10
4695.065382179022
 20
1875.997344476695
 10
4695.065674970814
 20
1875.997507104718
 10
4695.065803915112
 20
1875.997675400975
  0
LINE
  5
128A
330
1F
100
AcDbEntity
  8
indusa
100
AcDbLine
 10
4695.065485085314
 20
1876.018827073688
 30
0.0
 11
4695.063806410433
 21
1876.018827073688
 31
0.0
  0
LINE
  5
128B
330
1F
100
AcDbEntity
  8
indusa
100
AcDbLine
 10
4695.063806410433
 20
1876.018827073688
 30
0.0
 11
4695.060810153417
 21
1876.018827073688
 31
0.0
  0
LWPOLYLINE
  5
128C
330
1F
100
AcDbEntity
  8
indusa
100
AcDbPolyline
 90
        9
 70
   128
 43
0.0
 10
4694.95080443217
 20
1875.968905419804
 10
4694.950489443902
 20
1875.969473040656
 10
4694.950127440281
 20
1875.969993548594
 10
4694.949724803994
 20
1875.970457766251
 10
4694.949288634146
 20
1875.970857508747
 10
4694.948826621089
 20
1875.971185727999
 10
4694.948346910837
 20
1875.97143663699
 10
4694.947857961427
 20
1875.971605811804
 10
4694.947368393797
 20
1875.971690269625
  0
LWPOLYLINE
  5
1290
330
1F
100
AcDbEntity
  8
indusa
100
AcDbPolyline
 90
        6
 70
   128
 43
0.0
 10
4694.954574725715
 20
1875.973017769286
 10
4694.952868199486
 20
1875.972784342183
 10
4694.951172172753
 20
1875.972487861006
 10
4694.949681281287
 20
1875.972182593444
 10
4694.948223359907
 20
1875.971866310812
 10
4694.947368393797
 20
1875.971690269625
  0
LWPOLYLINE
  5
1292
330
1F
100
AcDbEntity
  8
indusa
100
AcDbPolyline
 90
        8
 70
   128
 43
0.0
 10
4694.714065509233
 20
1875.996759128792
 10
4694.723133132139
 20
1875.993539608334
 10
4694.742200984562
 20
1875.987873120694
 10
4694.761517829199
 20
1875.983106390589
 10
4694.781134873077
 20
1875.979034763829
 10
4694.800886062977
 20
1875.975671835324
 10
4694.810709358779
 20
1875.974261322031
 10
4694.820558073316
 20
1875.973017769286
  0
LWPOLYLINE
  5
1297
330
1F
100
AcDbEntity
  8
indusa
100
AcDbPolyline
 90
        6
 70
   128
 43
0.0
 10
4694.820558073316
 20
1875.973017769286
 10
4694.822264599546
 20
1875.972784342183
 10
4694.823960626279
 20
1875.972487861006
 10
4694.825451517743
 20
1875.972182593444
 10
4694.826909439124
 20
1875.971866310812
 10
4694.827764405234
 20
1875.971690269625
  0
LWPOLYLINE
  5
1298
330
1F
100
AcDbEntity
  8
indusa
100
AcDbPolyline
 90
        9
 70
   128
 43
0.0
 10
4694.824328366862
 20
1875.968905419804
 10
4694.824643355129
 20
1875.969473040656
 10
4694.82500535875
 20
1875.969993548594
 10
4694.825407995039
 20
1875.970457766251
 10
4694.825844164887
 20
1875.970857508747
 10
4694.826306177941
 20
1875.971185727999
 10
4694.826785888195
 20
1875.97143663699
 10
4694.827274837605
 20
1875.971605811804
 10
4694.827764405234
 20
1875.971690269625
  0
ARC
  5
129F
330
1F
100
AcDbEntity
  8
indusa
100
AcDbCircle
 10
4694.709648964524
 20
1876.016828334355
 30
0.0
 40
0.0019987397235445
100
AcDbArc
 50
90.03585555735304
 51
180.0361382475222
  0
LWPOLYLINE
  5
12A8
330
1F
100
AcDbEntity
  8
indusa
100
AcDbPolyline
 90
        9
 70
   128
 43
0.0
 10
4694.714065509233
 20
1875.996759128792
 10
4694.713157351709
 20
1875.996791453756
 10
4694.712288441391
 20
1875.996853550142
 10
4694.711488043256
 20
1875.99694332654
 10
4694.710783114788
 20
1875.997057759271
 10
4694.710197398041
 20
1875.997192994231
 10
4694.70975062001
 20
1875.997344476695
 10
4694.709457828218
 20
1875.997507104718
 10
4694.70932888392
 20
1875.997675400975
  0
LINE
  5
12AC
330
1F
100
AcDbEntity
  8
indusa
100
AcDbLine
 10
4694.711326388597
 20
1876.018827073688
 30
0.0
 11
4694.714322645615
 21
1876.018827073688
 31
0.0
  0
LINE
  5
12AD
330
1F
100
AcDbEntity
  8
indusa
100
AcDbLine
 10
4694.70964771371
 20
1876.018827073688
 30
0.0
 11
4694.711326388597
 21
1876.018827073688
 31
0.0
  0
LWPOLYLINE
  5
12B5
330
1F
100
AcDbEntity
  8
indusa
100
AcDbPolyline
 90
        5
 70
   128
 43
0.0
 10
4696.456031017806
 20
1875.785615513869
 10
4696.45110683324
 20
1875.760965615249
 10
4696.450150650165
 20
1875.756385103006
 10
4696.448281618033
 20
1875.747215161024
 10
4696.444716874257
 20
1875.728839013155
  0
LWPOLYLINE
  5
12B6
330
1F
100
AcDbEntity
  8
indusa
100
AcDbPolyline
 90
        4
 70
   128
 43
0.0
 10
4696.156335381572
 20
1875.776817050698
 10
4696.156621729319
 20
1875.775324513734
 10
4696.156970309005
 20
1875.773576915131
 10
4696.166001165845
 20
1875.728839013155
  0
LWPOLYLINE
  5
12B7
330
1F
100
AcDbEntity
  8
indusa
100
AcDbPolyline
 90
       17
 70
   128
 43
0.0
 10
4696.367912912769
 20
1875.595870601052
 10
4696.373961233319
 20
1875.594763876856
 10
4696.377073912781
 20
1875.594119378556
 10
4696.379928904902
 20
1875.593449391299
 10
4696.382534063581
 20
1875.592753453586
 10
4696.384874773849
 20
1875.592036560226
 10
4696.386935733642
 20
1875.591305545506
 10
4696.388699556563
 20
1875.59057084579
 10
4696.390150961152
 20
1875.589847067154
 10
4696.391277669584
 20
1875.589155822847
 10
4696.392075108586
 20
1875.588529166697
 10
4696.392557302773
 20
1875.588011286587
 10
4696.392775109955
 20
1875.587649503834
 10
4696.392874967941
 20
1875.587371469244
 10
4696.393015179471
 20
1875.586972090703
 10
4696.396012782396
 20
1875.578067764044
 10
4696.396997388375
 20
1875.575182793664
  0
LINE
  5
12B9
330
1F
100
AcDbEntity
  8
indusa
100
AcDbLine
 10
4696.226551741875
 20
1875.543633841548
 30
0.0
 11
4696.384166298229
 21
1875.543633841548
 31
0.0
  0
LINE
  5
12BA
330
1F
100
AcDbEntity
  8
indusa
100
AcDbLine
 10
4696.233059606347
 20
1875.553810016656
 30
0.0
 11
4696.377658433756
 21
1875.553810016656
 31
0.0
  0
LWPOLYLINE
  5
12BC
330
1F
100
AcDbEntity
  8
indusa
100
AcDbPolyline
 90
       23
 70
   128
 43
0.0
 10
4696.422408447676
 20
1875.56772473932
 10
4696.4175694813
 20
1875.582411055086
 10
4696.417156354217
 20
1875.584001862786
 10
4696.416819946281
 20
1875.585592636932
 10
4696.416347160311
 20
1875.587175031658
 10
4696.415524899121
 20
1875.588740701099
 10
4696.41414006553
 20
1875.59028129939
 10
4696.411979562355
 20
1875.591788480664
 10
4696.409179882714
 20
1875.59314694254
 10
4696.405633684148
 20
1875.594472479353
 10
4696.401383109046
 20
1875.595750692774
 10
4696.396470299798
 20
1875.596967184475
 10
4696.390909886051
 20
1875.598115493678
 10
4696.384726781262
 20
1875.59919291598
 10
4696.377989395028
 20
1875.600188239764
 10
4696.370766136942
 20
1875.601090253413
 10
4696.363059561995
 20
1875.601895744961
 10
4696.354917981208
 20
1875.602600622115
 10
4696.346429356662
 20
1875.603197968341
 10
4696.337681650442
 20
1875.603680867104
 10
4696.327092609427
 20
1875.604098399256
 10
4696.316265664186
 20
1875.604351613679
 10
4696.305359020051
 20
1875.604436835192
  0
LWPOLYLINE
  5
12C3
330
1F
100
AcDbEntity
  8
indusa
100
AcDbPolyline
 90
        4
 70
   128
 43
0.0
 10
4696.212700277977
 20
1875.564806720127
 10
4696.213637287153
 20
1875.564184244563
 10
4696.217384808979
 20
1875.561694347816
 10
4696.228260941853
 20
1875.554468118983
  0
LINE
  5
12C6
330
1F
100
AcDbEntity
  8
indusa
100
AcDbLine
 10
4696.220255834226
 20
1875.543633841548
 30
0.0
 11
4696.226551741875
 21
1875.543633841548
 31
0.0
  0
LWPOLYLINE
  5
12C7
330
1F
100
AcDbEntity
  8
indusa
100
AcDbPolyline
 90
       18
 70
   128
 43
0.0
 10
4696.21599924526
 20
1875.581906222788
 10
4696.217435587606
 20
1875.586205660081
 10
4696.217874103496
 20
1875.587459603385
 10
4696.217951266704
 20
1875.587668733785
 10
4696.218030301881
 20
1875.587819282415
 10
4696.218355732635
 20
1875.58824396877
 10
4696.218980071295
 20
1875.588815559096
 10
4696.21989873326
 20
1875.58945616719
 10
4696.221126465148
 20
1875.59014282322
 10
4696.222671253127
 20
1875.590857533272
 10
4696.224530412314
 20
1875.591584056202
 10
4696.226694684354
 20
1875.592309212211
 10
4696.229151160185
 20
1875.593022735518
 10
4696.23188391459
 20
1875.593716446564
 10
4696.234876741212
 20
1875.594384219273
 10
4696.238115012898
 20
1875.595021662446
 10
4696.241569985406
 20
1875.595624342179
 10
4696.246576726001
 20
1875.59640105468
  0
LWPOLYLINE
  5
12C9
330
1F
100
AcDbEntity
  8
indusa
100
AcDbPolyline
 90
       23
 70
   128
 43
0.0
 10
4696.188309592428
 20
1875.56772473932
 10
4696.193148558804
 20
1875.582411055086
 10
4696.193561685887
 20
1875.584001862786
 10
4696.193898093822
 20
1875.585592636932
 10
4696.194370879793
 20
1875.587175031658
 10
4696.195193140982
 20
1875.588740701099
 10
4696.196577974574
 20
1875.59028129939
 10
4696.198738477749
 20
1875.591788480664
 10
4696.20153815739
 20
1875.59314694254
 10
4696.205084355956
 20
1875.594472479353
 10
4696.209334931057
 20
1875.595750692774
 10
4696.214247740306
 20
1875.596967184475
 10
4696.219808154053
 20
1875.598115493678
 10
4696.225991258841
 20
1875.59919291598
 10
4696.232728645076
 20
1875.600188239764
 10
4696.239951903162
 20
1875.601090253413
 10
4696.247658478108
 20
1875.601895744961
 10
4696.255800058896
 20
1875.602600622115
 10
4696.26428868344
 20
1875.603197968341
 10
4696.273036389661
 20
1875.603680867104
 10
4696.283625430676
 20
1875.604098399256
 10
4696.294452375918
 20
1875.604351613679
 10
4696.305359020051
 20
1875.604436835192
  0
LWPOLYLINE
  5
12CB
330
1F
100
AcDbEntity
  8
indusa
100
AcDbPolyline
 90
        3
 70
   128
 43
0.0
 10
4696.17896810887
 20
1875.64709478063
 10
4696.180321648468
 20
1875.636600877529
 10
4696.181523939817
 20
1875.6272348745
  0
LWPOLYLINE
  5
12CD
330
1F
100
AcDbEntity
  8
indusa
100
AcDbPolyline
 90
        5
 70
   128
 43
0.0
 10
4696.181518016799
 20
1875.627234133682
 10
4696.18403498018
 20
1875.60668698868
 10
4696.186011354213
 20
1875.58867136434
 10
4696.187873571772
 20
1875.569655027568
 10
4696.188189644305
 20
1875.566894603309
  0
ARC
  5
12D0
330
1F
100
AcDbEntity
  8
indusa
100
AcDbCircle
 10
4696.220255834226
 20
1875.545633841548
 30
0.0
 40
0.002000000000001
100
AcDbArc
 50
236.2930584973552
 51
270.0
  0
LWPOLYLINE
  5
12D2
330
1F
100
AcDbEntity
  8
indusa
100
AcDbPolyline
 90
        4
 70
   128
 43
0.0
 10
4696.211121962035
 20
1875.566908364681
 10
4696.211110036672
 20
1875.566804741993
 10
4696.211557064877
 20
1875.565804802906
 10
4696.212700277977
 20
1875.564806720127
  0
LWPOLYLINE
  5
12D6
330
1F
100
AcDbEntity
  8
indusa
100
AcDbPolyline
 90
        4
 70
   128
 43
0.0
 10
4696.21599924526
 20
1875.581906222788
 10
4696.215661190662
 20
1875.58089101565
 10
4696.213375837365
 20
1875.574168499705
 10
4696.211183745001
 20
1875.567445213472
  0
LWPOLYLINE
  5
12D8
330
1F
100
AcDbEntity
  8
indusa
100
AcDbPolyline
 90
        7
 70
   128
 43
0.0
 10
4696.188189644305
 20
1875.566894603309
 10
4696.188222628874
 20
1875.5667515417
 10
4696.188503975261
 20
1875.565682563666
 10
4696.189034148063
 20
1875.564715847326
 10
4696.189820253261
 20
1875.563797051254
 10
4696.190932911445
 20
1875.562875744959
 10
4696.191193036167
 20
1875.562694742034
  0
LWPOLYLINE
  5
12D9
330
1F
100
AcDbEntity
  8
indusa
100
AcDbPolyline
 90
        3
 70
   128
 43
0.0
 10
4696.188189644305
 20
1875.566894603309
 10
4696.188211632801
 20
1875.567286049398
 10
4696.188309592266
 20
1875.567724738833
  0
LWPOLYLINE
  5
12DD
330
1F
100
AcDbEntity
  8
indusa
100
AcDbPolyline
 90
        3
 70
   128
 43
0.0
 10
4696.191193036167
 20
1875.562694742034
 10
4696.19706999819
 20
1875.558737201013
 10
4696.219153410985
 20
1875.543965112649
  0
ARC
  5
12DE
330
1F
100
AcDbEntity
  8
indusa
100
AcDbCircle
 10
4694.712702241162
 20
1875.456404199098
 30
0.0
 40
1.478613706279786
100
AcDbArc
 50
7.409903669189959
 51
10.6174183229456
  0
LWPOLYLINE
  5
12ED
330
1F
100
AcDbEntity
  8
indusa
100
AcDbPolyline
 90
        5
 70
   128
 43
0.0
 10
4696.228260941853
 20
1875.554468118983
 10
4696.228910795947
 20
1875.554150648172
 10
4696.23003813374
 20
1875.553920057486
 10
4696.231501672016
 20
1875.553804298996
 10
4696.233059606348
 20
1875.553810016656
  0
LWPOLYLINE
  5
12F2
330
1F
100
AcDbEntity
  8
indusa
100
AcDbPolyline
 90
        3
 70
   128
 43
0.0
 10
4696.431749931234
 20
1875.64709478063
 10
4696.430396391636
 20
1875.636600877529
 10
4696.429209344549
 20
1875.627252804634
  0
LWPOLYLINE
  5
12F4
330
1F
100
AcDbEntity
  8
indusa
100
AcDbPolyline
 90
        5
 70
   128
 43
0.0
 10
4696.422604529632
 20
1875.566863075282
 10
4696.423018129799
 20
1875.571512934081
 10
4696.425009266396
 20
1875.591571124648
 10
4696.427098084959
 20
1875.610227178728
 10
4696.429209344549
 20
1875.627252804634
  0
LWPOLYLINE
  5
12F7
330
1F
100
AcDbEntity
  8
indusa
100
AcDbPolyline
 90
        4
 70
   128
 43
0.0
 10
4696.391571046111
 20
1875.543969367697
 10
4696.395072469865
 20
1875.546305806114
 10
4696.419413386281
 20
1875.562615407096
 10
4696.419530603935
 20
1875.562694482287
  0
ARC
  5
12FA
330
1F
100
AcDbEntity
  8
indusa
100
AcDbCircle
 10
4696.390462205876
 20
1875.545633841548
 30
0.0
 40
0.002000000000001
100
AcDbArc
 50
270.0
 51
303.7069415026448
  0
LWPOLYLINE
  5
12FC
330
1F
100
AcDbEntity
  8
indusa
100
AcDbPolyline
 90
        4
 70
   128
 43
0.0
 10
4696.399598462885
 20
1875.566887642369
 10
4696.399608003432
 20
1875.566804741993
 10
4696.399160975226
 20
1875.565804802906
 10
4696.398017762127
 20
1875.564806720127
  0
LWPOLYLINE
  5
12FF
330
1F
100
AcDbEntity
  8
indusa
100
AcDbPolyline
 90
        3
 70
   128
 43
0.0
 10
4696.396997388375
 20
1875.575182793664
 10
4696.397342202737
 20
1875.574168499705
 10
4696.399534295102
 20
1875.567445213472
  0
LWPOLYLINE
  5
1301
330
1F
100
AcDbEntity
  8
indusa
100
AcDbPolyline
 90
        5
 70
   128
 43
0.0
 10
4696.382457098251
 20
1875.554468118983
 10
4696.381807244156
 20
1875.554150648172
 10
4696.380679906363
 20
1875.553920057486
 10
4696.379216368087
 20
1875.553804298996
 10
4696.377658433756
 20
1875.553810016656
  0
LWPOLYLINE
  5
1309
330
1F
100
AcDbEntity
  8
indusa
100
AcDbPolyline
 90
        4
 70
   128
 43
0.0
 10
4696.398017762127
 20
1875.564806720127
 10
4696.397080752951
 20
1875.564184244563
 10
4696.393333231124
 20
1875.561694347816
 10
4696.382457098251
 20
1875.554468118983
  0
LINE
  5
130C
330
1F
100
AcDbEntity
  8
indusa
100
AcDbLine
 10
4696.384166298229
 20
1875.543633841548
 30
0.0
 11
4696.390462205876
 21
1875.543633841548
 31
0.0
  0
LWPOLYLINE
  5
130E
330
1F
100
AcDbEntity
  8
indusa
100
AcDbPolyline
 90
        3
 70
   128
 43
0.0
 10
4696.422604529632
 20
1875.566863075282
 10
4696.422539486197
 20
1875.567292545232
 10
4696.422408447837
 20
1875.567724738833
  0
LWPOLYLINE
  5
1312
330
1F
100
AcDbEntity
  8
indusa
100
AcDbPolyline
 90
        6
 70
   128
 43
0.0
 10
4696.419530603935
 20
1875.562694482287
 10
4696.419685740094
 20
1875.56280564901
 10
4696.42097482358
 20
1875.563873497153
 10
4696.421774960334
 20
1875.564850593024
 10
4696.422277812059
 20
1875.565848735657
 10
4696.422604529632
 20
1875.566863075282
  0
ARC
  5
1313
330
1F
100
AcDbEntity
  8
indusa
100
AcDbCircle
 10
4697.898015798941
 20
1875.456404199098
 30
0.0
 40
1.478613706279422
100
AcDbArc
 50
169.3825816770544
 51
172.59009633081
  0
LINE
  5
1314
330
1F
100
AcDbEntity
  8
indusa
100
AcDbLine
 10
4696.414006186699
 20
1875.930214681858
 30
0.0
 11
4696.373034435583
 21
1875.928401772516
 31
0.0
  0
LINE
  5
1319
330
1F
100
AcDbEntity
  8
indusa
100
AcDbLine
 10
4696.13211526615
 20
1875.933283391298
 30
0.0
 11
4696.478602773953
 21
1875.933283391298
 31
0.0
  0
LINE
  5
131C
330
1F
100
AcDbEntity
  8
indusa
100
AcDbLine
 10
4696.207882275735
 20
1875.921572184446
 30
0.0
 11
4696.402835764369
 21
1875.921572184446
 31
0.0
  0
LINE
  5
131E
330
1F
100
AcDbEntity
  8
indusa
100
AcDbLine
 10
4696.478650626082
 20
1875.893283391298
 30
0.0
 11
4696.305359020051
 21
1875.893283391298
 31
0.0
  0
LINE
  5
131F
330
1F
100
AcDbEntity
  8
indusa
100
AcDbLine
 10
4696.196711853405
 20
1875.930214681858
 30
0.0
 11
4696.237683604521
 21
1875.928401772516
 31
0.0
  0
LINE
  5
1322
330
1F
100
AcDbEntity
  8
indusa
100
AcDbLine
 10
4696.13206741402
 20
1875.893283391298
 30
0.0
 11
4696.305359020051
 21
1875.893283391298
 31
0.0
  0
LWPOLYLINE
  5
1326
330
1F
100
AcDbEntity
  8
indusa
100
AcDbPolyline
 90
        8
 70
   128
 43
0.0
 10
4696.125603996893
 20
1875.892464458019
 10
4696.12634006413
 20
1875.889801757036
 10
4696.127453049316
 20
1875.88583620574
 10
4696.12880616948
 20
1875.880991983659
 10
4696.130331792372
 20
1875.875498098861
 10
4696.131937819427
 20
1875.869675583849
 10
4696.133534416481
 20
1875.8638448669
 10
4696.135398805522
 20
1875.856977205865
  0
LINE
  5
1328
330
1F
100
AcDbEntity
  8
indusa
100
AcDbLine
 10
4696.154687022297
 20
1875.785615513869
 30
0.0
 11
4696.138264298993
 21
1875.846962571635
 31
0.0
  0
LWPOLYLINE
  5
132C
330
1F
100
AcDbEntity
  8
indusa
100
AcDbPolyline
 90
        5
 70
   128
 43
0.0
 10
4696.138264298993
 20
1875.846962571635
 10
4696.137323877692
 20
1875.850368946263
 10
4696.136478555734
 20
1875.853389555737
 10
4696.135845475769
 20
1875.855621511529
 10
4696.135398874406
 20
1875.856979747264
  0
LINE
  5
1331
330
1F
100
AcDbEntity
  8
indusa
100
AcDbLine
 10
4696.156335381572
 20
1875.776817050698
 30
0.0
 11
4696.154687022297
 21
1875.785615513869
 31
0.0
  0
LINE
  5
1332
330
1F
100
AcDbEntity
  8
indusa
100
AcDbLine
 10
4696.132325545314
 20
1875.933063633543
 30
0.0
 11
4696.196711853405
 21
1875.930214681858
 31
0.0
  0
LINE
  5
1334
330
1F
100
AcDbEntity
  8
indusa
100
AcDbLine
 10
4696.125621504456
 20
1875.898533079383
 30
0.0
 11
4696.127110760943
 21
1875.928318209119
 31
0.0
  0
LINE
  5
1336
330
1F
100
AcDbEntity
  8
indusa
100
AcDbLine
 10
4696.125401767783
 20
1875.894138345932
 30
0.0
 11
4696.125621504456
 21
1875.898533079383
 31
0.0
  0
LWPOLYLINE
  5
1337
330
1F
100
AcDbEntity
  8
indusa
100
AcDbPolyline
 90
        5
 70
   128
 43
0.0
 10
4696.125401767783
 20
1875.894138345932
 10
4696.125401379965
 20
1875.894130464547
 10
4696.125395546878
 20
1875.893892113183
 10
4696.125396842867
 20
1875.893775622986
 10
4696.125400774755
 20
1875.893661053692
  0
LWPOLYLINE
  5
133B
330
1F
100
AcDbEntity
  8
indusa
100
AcDbPolyline
 90
       12
 70
   128
 43
0.0
 10
4696.125400774755
 20
1875.893661053692
 10
4696.125426400277
 20
1875.893366791377
 10
4696.125471929167
 20
1875.893053822408
 10
4696.125564098292
 20
1875.892615139022
 10
4696.125593390173
 20
1875.892502998802
 10
4696.125601206595
 20
1875.892474480638
 10
4696.125603241148
 20
1875.892467154356
 10
4696.125603779572
 20
1875.892465227245
 10
4696.125603928415
 20
1875.892464697882
 10
4696.125603972702
 20
1875.892464541762
 10
4696.125603987311
 20
1875.892464490843
 10
4696.125603996893
 20
1875.892464458019
  0
LWPOLYLINE
  5
133F
330
1F
100
AcDbEntity
  8
indusa
100
AcDbPolyline
 90
        9
 70
   128
 43
0.0
 10
4696.127272867872
 20
1875.886864847945
 10
4696.127075078548
 20
1875.888006770013
 10
4696.127145498801
 20
1875.889163553358
 10
4696.127480345352
 20
1875.890273050639
 10
4696.128061628814
 20
1875.891275654926
 10
4696.12885812016
 20
1875.892117502036
 10
4696.129827028474
 20
1875.892753364348
 10
4696.130916299863
 20
1875.893149080625
 10
4696.13206741402
 20
1875.893283391298
  0
ARC
  5
1340
330
1F
100
AcDbEntity
  8
indusa
100
AcDbCircle
 10
4696.13211526615
 20
1875.928283391298
 30
0.0
 40
0.0050000000000001
100
AcDbArc
 50
90.0
 51
177.1375947738869
  0
LINE
  5
1344
330
1F
100
AcDbEntity
  8
indusa
100
AcDbLine
 10
4696.127110760943
 20
1875.928318209119
 30
0.0
 11
4696.127121504455
 21
1875.928533079383
 31
0.0
  0
LWPOLYLINE
  5
1347
330
1F
100
AcDbEntity
  8
indusa
100
AcDbPolyline
 90
        9
 70
   128
 43
0.0
 10
4696.196711853405
 20
1875.930214681858
 10
4696.197453123839
 20
1875.930102310796
 10
4696.198163795776
 20
1875.929834680851
 10
4696.198821271638
 20
1875.929420301983
 10
4696.199404645347
 20
1875.928872350396
 10
4696.199895367089
 20
1875.92820824957
 10
4696.200277833148
 20
1875.927449116239
 10
4696.200539882066
 20
1875.926619088932
 10
4696.200673181349
 20
1875.925744560426
  0
LWPOLYLINE
  5
134C
330
1F
100
AcDbEntity
  8
indusa
100
AcDbPolyline
 90
        9
 70
   128
 43
0.0
 10
4696.200673181349
 20
1875.925744560426
 10
4696.200912880469
 20
1875.924875234483
 10
4696.201387929893
 20
1875.924061081584
 10
4696.202083138177
 20
1875.923328137255
 10
4696.202976273483
 20
1875.92269984008
 10
4696.204038774531
 20
1875.922196282169
 10
4696.205236663952
 20
1875.921833566632
 10
4696.206531634836
 20
1875.92162329263
 10
4696.207882275735
 20
1875.921572184446
  0
LWPOLYLINE
  5
134E
330
1F
100
AcDbEntity
  8
indusa
100
AcDbPolyline
 90
        7
 70
   128
 43
0.0
 10
4696.365615518804
 20
1875.925177606644
 10
4696.356493377883
 20
1875.925128832071
 10
4696.330946500004
 20
1875.925034973596
 10
4696.305359020051
 20
1875.925003671097
 10
4696.2763491292
 20
1875.925043901019
 10
4696.256383576971
 20
1875.925118467546
 10
4696.245102521299
 20
1875.925177606644
  0
LWPOLYLINE
  5
1351
330
1F
100
AcDbEntity
  8
indusa
100
AcDbPolyline
 90
        4
 70
   128
 43
0.0
 10
4696.242120987398
 20
1875.92675031407
 10
4696.240499823728
 20
1875.92779101756
 10
4696.238410329942
 20
1875.928343350053
 10
4696.237683604521
 20
1875.928401772516
  0
LWPOLYLINE
  5
1352
330
1F
100
AcDbEntity
  8
indusa
100
AcDbPolyline
 90
        9
 70
   128
 43
0.0
 10
4696.245102521299
 20
1875.925177606644
 10
4696.244689390685
 20
1875.925217639158
 10
4696.244280224073
 20
1875.925305172132
 10
4696.243878947428
 20
1875.925439365683
 10
4696.243489411012
 20
1875.925618932219
 10
4696.24311535244
 20
1875.925842148796
 10
4696.242760360815
 20
1875.926106873642
 10
4696.242427842292
 20
1875.926410566716
 10
4696.242120987398
 20
1875.92675031407
  0
LWPOLYLINE
  5
1357
330
1F
100
AcDbEntity
  8
indusa
100
AcDbPolyline
 90
        4
 70
   128
 43
0.0
 10
4696.368597052706
 20
1875.92675031407
 10
4696.370218216375
 20
1875.92779101756
 10
4696.372307710162
 20
1875.928343350053
 10
4696.373034435583
 20
1875.928401772516
  0
LWPOLYLINE
  5
1358
330
1F
100
AcDbEntity
  8
indusa
100
AcDbPolyline
 90
        9
 70
   128
 43
0.0
 10
4696.365615518804
 20
1875.925177606644
 10
4696.366028649418
 20
1875.925217639158
 10
4696.36643781603
 20
1875.925305172132
 10
4696.366839092676
 20
1875.925439365683
 10
4696.367228629092
 20
1875.925618932219
 10
4696.367602687664
 20
1875.925842148796
 10
4696.367957679289
 20
1875.926106873642
 10
4696.368290197812
 20
1875.926410566716
 10
4696.368597052706
 20
1875.92675031407
  0
LWPOLYLINE
  5
1360
330
1F
100
AcDbEntity
  8
indusa
100
AcDbPolyline
 90
        9
 70
   128
 43
0.0
 10
4696.475320690821
 20
1875.856977484871
 10
4696.475690392502
 20
1875.858350800603
 10
4696.47791615485
 20
1875.86652560629
 10
4696.480013001543
 20
1875.874148574026
 10
4696.481246845318
 20
1875.878601454624
 10
4696.482306607796
 20
1875.882408114214
 10
4696.483199354984
 20
1875.885602655873
 10
4696.484251226102
 20
1875.889352660863
 10
4696.485115258714
 20
1875.892464135369
  0
LINE
  5
1362
330
1F
100
AcDbEntity
  8
indusa
100
AcDbLine
 10
4696.456031017806
 20
1875.785615513869
 30
0.0
 11
4696.472453741109
 21
1875.846962571635
 31
0.0
  0
LWPOLYLINE
  5
1366
330
1F
100
AcDbEntity
  8
indusa
100
AcDbPolyline
 90
        5
 70
   128
 43
0.0
 10
4696.472453741109
 20
1875.846962571635
 10
4696.473394162412
 20
1875.850368946263
 10
4696.474239484369
 20
1875.853389555737
 10
4696.474872564333
 20
1875.855621511529
 10
4696.475320690821
 20
1875.856977484871
  0
LINE
  5
136A
330
1F
100
AcDbEntity
  8
indusa
100
AcDbLine
 10
4696.478392494788
 20
1875.933063633543
 30
0.0
 11
4696.414006186699
 21
1875.930214681858
 31
0.0
  0
LWPOLYLINE
  5
136C
330
1F
100
AcDbEntity
  8
indusa
100
AcDbPolyline
 90
        9
 70
   128
 43
0.0
 10
4696.414006186699
 20
1875.930214681858
 10
4696.413264916264
 20
1875.930102310796
 10
4696.412554244327
 20
1875.929834680851
 10
4696.411896768466
 20
1875.929420301983
 10
4696.411313394757
 20
1875.928872350396
 10
4696.410822673015
 20
1875.92820824957
 10
4696.410440206956
 20
1875.927449116239
 10
4696.410178158037
 20
1875.926619088932
 10
4696.410044858755
 20
1875.925744560426
  0
LWPOLYLINE
  5
1371
330
1F
100
AcDbEntity
  8
indusa
100
AcDbPolyline
 90
        9
 70
   128
 43
0.0
 10
4696.410044858755
 20
1875.925744560426
 10
4696.409805159635
 20
1875.924875234483
 10
4696.409330110209
 20
1875.924061081584
 10
4696.408634901925
 20
1875.923328137255
 10
4696.40774176662
 20
1875.92269984008
 10
4696.406679265571
 20
1875.922196282169
 10
4696.40548137615
 20
1875.921833566632
 10
4696.404186405268
 20
1875.92162329263
 10
4696.402835764369
 20
1875.921572184446
  0
LINE
  5
1373
330
1F
100
AcDbEntity
  8
indusa
100
AcDbLine
 10
4696.485096535647
 20
1875.898533079383
 30
0.0
 11
4696.48360727916
 21
1875.928318209119
 31
0.0
  0
LINE
  5
1377
330
1F
100
AcDbEntity
  8
indusa
100
AcDbLine
 10
4696.48531627232
 20
1875.894138345932
 30
0.0
 11
4696.485096535647
 21
1875.898533079383
 31
0.0
  0
LWPOLYLINE
  5
1379
330
1F
100
AcDbEntity
  8
indusa
100
AcDbPolyline
 90
        5
 70
   128
 43
0.0
 10
4696.48531627232
 20
1875.894138345932
 10
4696.485316660139
 20
1875.894130464547
 10
4696.485322493225
 20
1875.893892113183
 10
4696.485321197236
 20
1875.893775622986
 10
4696.485317265349
 20
1875.893661053692
  0
LWPOLYLINE
  5
137D
330
1F
100
AcDbEntity
  8
indusa
100
AcDbPolyline
 90
        9
 70
   128
 43
0.0
 10
4696.485317265349
 20
1875.893661053692
 10
4696.485295135511
 20
1875.893366907552
 10
4696.485252044298
 20
1875.893052645265
 10
4696.485159047159
 20
1875.892620805242
 10
4696.485128281044
 20
1875.892508718331
 10
4696.485119366503
 20
1875.892478031378
 10
4696.485116695744
 20
1875.892468978904
 10
4696.485115496475
 20
1875.892464935277
 10
4696.485115251168
 20
1875.892464109995
  0
LWPOLYLINE
  5
1380
330
1F
100
AcDbEntity
  8
indusa
100
AcDbPolyline
 90
        9
 70
   128
 43
0.0
 10
4696.483445172233
 20
1875.886864847945
 10
4696.483642961555
 20
1875.888006770013
 10
4696.483572541302
 20
1875.889163553358
 10
4696.483237694752
 20
1875.890273050639
 10
4696.482656411289
 20
1875.891275654926
 10
4696.481859919943
 20
1875.892117502036
 10
4696.48089101163
 20
1875.892753364348
 10
4696.47980174024
 20
1875.893149080625
 10
4696.478650626083
 20
1875.893283391298
  0
ARC
  5
1382
330
1F
100
AcDbEntity
  8
indusa
100
AcDbCircle
 10
4696.478602773953
 20
1875.928283391298
 30
0.0
 40
0.0050000000000001
100
AcDbArc
 50
2.862405226113048
 51
90.0
  0
LINE
  5
1386
330
1F
100
AcDbEntity
  8
indusa
100
AcDbLine
 10
4696.483596535648
 20
1875.928533079383
 30
0.0
 11
4696.48360727916
 21
1875.928318209119
 31
0.0
  0
LINE
  5
1392
330
1F
100
AcDbEntity
  8
indusa
100
AcDbLine
 10
4696.732317876693
 20
1875.686283499412
 30
0.0
 11
4696.732200242354
 21
1875.678284364324
 31
0.0
  0
LWPOLYLINE
  5
1393
330
1F
100
AcDbEntity
  8
indusa
100
AcDbPolyline
 90
       13
 70
   128
 43
0.0
 10
4697.272235431148
 20
1875.884538138907
 10
4697.251430241236
 20
1875.865303980179
 10
4697.231513520443
 20
1875.845190544279
 10
4697.212485268767
 20
1875.824197831204
 10
4697.194469152694
 20
1875.802476165736
 10
4697.177440953492
 20
1875.780005321373
 10
4697.161400671162
 20
1875.756785298116
 10
4697.146388723148
 20
1875.732876766548
 10
4697.13245599654
 20
1875.708356287007
 10
4697.119602491338
 20
1875.683223859495
 10
4697.107811660507
 20
1875.657432034073
 10
4697.097181357494
 20
1875.631169692638
 10
4697.087711582297
 20
1875.604436835192
  0
LINE
  5
1394
330
1F
100
AcDbEntity
  8
indusa
100
AcDbLine
 10
4697.046695630758
 20
1875.647569959618
 30
0.0
 11
4697.058359010621
 21
1875.733878970605
 31
0.0
  0
LINE
  5
1395
330
1F
100
AcDbEntity
  8
indusa
100
AcDbLine
 10
4696.874679912291
 20
1875.620361837791
 30
0.0
 11
4696.832840887827
 21
1875.698079883991
 31
0.0
  0
LINE
  5
1396
330
1F
100
AcDbEntity
  8
indusa
100
AcDbLine
 10
4697.05742521766
 20
1875.652296283879
 30
0.0
 11
4697.068408807543
 21
1875.733574849015
 31
0.0
  0
ARC
  5
1397
330
1F
100
AcDbEntity
  8
indusa
100
AcDbCircle
 10
4697.697864802097
 20
1875.40330885996
 30
0.0
 40
0.6524481015417745
100
AcDbArc
 50
144.6445211017477
 51
160.2120334484851
  0
LWPOLYLINE
  5
139B
330
1F
100
AcDbEntity
  8
indusa
100
AcDbPolyline
 90
        5
 70
   128
 43
0.0
 10
4696.953783843482
 20
1875.732366546727
 10
4696.957806300626
 20
1875.706153029125
 10
4696.962014479227
 20
1875.678810149253
 10
4696.964354016326
 20
1875.663632820272
 10
4696.966695630758
 20
1875.648455634672
  0
LINE
  5
139C
330
1F
100
AcDbEntity
  8
indusa
100
AcDbLine
 10
4696.956695630758
 20
1875.648283391298
 30
0.0
 11
4696.94380141065
 21
1875.731539805174
 31
0.0
  0
LINE
  5
139E
330
1F
100
AcDbEntity
  8
indusa
100
AcDbLine
 10
4696.732200242354
 20
1875.778282418272
 30
0.0
 11
4696.732200242354
 21
1875.678284364324
 31
0.0
  0
LINE
  5
139F
330
1F
100
AcDbEntity
  8
indusa
100
AcDbLine
 10
4696.717332580985
 20
1875.851820720401
 30
0.0
 11
4696.717332580985
 21
1875.545633841548
 31
0.0
  0
ARC
  5
13A6
330
1F
100
AcDbEntity
  8
indusa
100
AcDbCircle
 10
4696.967416236325
 20
1875.658283391298
 30
0.0
 40
0.0899999999999999
100
AcDbArc
 50
270.0
 51
335.6476625050837
  0
ARC
  5
13A7
330
1F
100
AcDbEntity
  8
indusa
100
AcDbCircle
 10
4696.967416236325
 20
1875.658283391298
 30
0.0
 40
0.08
100
AcDbArc
 50
270.0
 51
352.3039482779737
  0
LINE
  5
13AA
330
1F
100
AcDbEntity
  8
indusa
100
AcDbLine
 10
4696.832306187119
 20
1875.675812109952
 30
0.0
 11
4696.799819543799
 21
1875.676289854706
 31
0.0
  0
LINE
  5
13AB
330
1F
100
AcDbEntity
  8
indusa
100
AcDbLine
 10
4696.775317516523
 20
1875.552686353818
 30
0.0
 11
4696.839080630996
 21
1875.563026318327
 31
0.0
  0
LINE
  5
13B0
330
1F
100
AcDbEntity
  8
indusa
100
AcDbLine
 10
4696.726160998387
 20
1875.590406747855
 30
0.0
 11
4696.727273635763
 21
1875.54719431792
 31
0.0
  0
LINE
  5
13B1
330
1F
100
AcDbEntity
  8
indusa
100
AcDbLine
 10
4696.771752327484
 20
1875.611535379881
 30
0.0
 11
4696.771752327484
 21
1875.553810016656
 31
0.0
  0
LINE
  5
13B2
330
1F
100
AcDbEntity
  8
indusa
100
AcDbLine
 10
4696.761752327484
 20
1875.560617223062
 30
0.0
 11
4696.761752327484
 21
1875.589521855782
 31
0.0
  0
LINE
  5
13B3
330
1F
100
AcDbEntity
  8
indusa
100
AcDbLine
 10
4696.736273506933
 20
1875.586165878346
 30
0.0
 11
4696.737034541699
 21
1875.556608933475
 31
0.0
  0
LINE
  5
13B5
330
1F
100
AcDbEntity
  8
indusa
100
AcDbLine
 10
4696.729593115446
 20
1875.545271586075
 30
0.0
 11
4696.770072469802
 21
1875.551835805701
 31
0.0
  0
LINE
  5
13B6
330
1F
100
AcDbEntity
  8
indusa
100
AcDbLine
 10
4696.737034541699
 20
1875.556608933475
 30
0.0
 11
4696.761752327484
 21
1875.560617223062
 31
0.0
  0
ARC
  5
13B7
330
1F
100
AcDbEntity
  8
indusa
100
AcDbCircle
 10
4696.729272973128
 20
1875.547245797031
 30
0.0
 40
0.002
100
AcDbArc
 50
181.4749307906683
 51
279.2110265408521
  0
LINE
  5
13B8
330
1F
100
AcDbEntity
  8
indusa
100
AcDbLine
 10
4696.719652723302
 20
1875.543659630593
 30
0.0
 11
4696.729593115446
 21
1875.545271586075
 31
0.0
  0
ARC
  5
13BA
330
1F
100
AcDbEntity
  8
indusa
100
AcDbCircle
 10
4696.719332580985
 20
1875.545633841548
 30
0.0
 40
0.0020000000000001
100
AcDbArc
 50
180.0
 51
279.2110265408521
  0
ARC
  5
13BE
330
1F
100
AcDbEntity
  8
indusa
100
AcDbCircle
 10
4696.769752327483
 20
1875.553810016656
 30
0.0
 40
0.0020000000000001
100
AcDbArc
 50
279.2110265408521
 51
0.0
  0
LINE
  5
13C0
330
1F
100
AcDbEntity
  8
indusa
100
AcDbLine
 10
4696.770072469802
 20
1875.551835805701
 30
0.0
 11
4696.775317516523
 21
1875.552686353818
 31
0.0
  0
LINE
  5
13C2
330
1F
100
AcDbEntity
  8
indusa
100
AcDbLine
 10
4696.77851051668
 20
1875.676603222752
 30
0.0
 11
4696.733185429947
 21
1875.677269768145
 31
0.0
  0
ARC
  5
13C3
330
1F
100
AcDbEntity
  8
indusa
100
AcDbCircle
 10
4696.752189065179
 20
1875.603391777175
 30
0.0
 40
0.0050000000000005
100
AcDbArc
 50
277.5035965373922
 51
338.9533058627709
  0
LINE
  5
13C4
330
1F
100
AcDbEntity
  8
indusa
100
AcDbLine
 10
4696.761752327484
 20
1875.589521855782
 30
0.0
 11
4696.736273506933
 21
1875.586165878346
 31
0.0
  0
LINE
  5
13C9
330
1F
100
AcDbEntity
  8
indusa
100
AcDbLine
 10
4696.73050639967
 20
1875.595492628963
 30
0.0
 11
4696.752842007311
 21
1875.598434593845
 31
0.0
  0
ARC
  5
13CA
330
1F
100
AcDbEntity
  8
indusa
100
AcDbCircle
 10
4696.731159341801
 20
1875.590535445633
 30
0.0
 40
0.0050000000000001
100
AcDbArc
 50
97.50359653739222
 51
181.4749307907074
  0
ARC
  5
13D0
330
1F
100
AcDbEntity
  8
indusa
100
AcDbCircle
 10
4696.733200134239
 20
1875.678269660031
 30
0.0
 40
0.0010000000000001
100
AcDbArc
 50
179.1574757376079
 51
269.1574757392629
  0
LINE
  5
13D4
330
1F
100
AcDbEntity
  8
indusa
100
AcDbLine
 10
4696.756855505473
 20
1875.601596133839
 30
0.0
 11
4696.783103435512
 21
1875.669808119986
 31
0.0
  0
LINE
  5
13D5
330
1F
100
AcDbEntity
  8
indusa
100
AcDbLine
 10
4696.795079582044
 20
1875.673086038612
 30
0.0
 11
4696.77208588719
 21
1875.613331018217
 31
0.0
  0
ARC
  5
13D7
330
1F
100
AcDbEntity
  8
indusa
100
AcDbCircle
 10
4696.776752327484
 20
1875.611535374882
 30
0.0
 40
0.0050000000000025
100
AcDbArc
 50
158.9533058626764
 51
180.0
  0
ARC
  5
13DB
330
1F
100
AcDbEntity
  8
indusa
100
AcDbCircle
 10
4696.778436995219
 20
1875.671603763322
 30
0.0
 40
0.0050000000000001
100
AcDbArc
 50
338.9533058627709
 51
89.15747573926283
  0
ARC
  5
13E4
330
1F
100
AcDbEntity
  8
indusa
100
AcDbCircle
 10
4696.799746022337
 20
1875.671290395276
 30
0.0
 40
0.005
100
AcDbArc
 50
89.15747573926283
 51
158.9533058627709
  0
ARC
  5
13E5
330
1F
100
AcDbEntity
  8
indusa
100
AcDbCircle
 10
4696.94512106347
 20
1875.658283391298
 30
0.0
 40
0.0900000000000001
100
AcDbArc
 50
208.2955236717323
 51
270.0
  0
LINE
  5
13E6
330
1F
100
AcDbEntity
  8
indusa
100
AcDbLine
 10
4696.839080630996
 20
1875.563026318327
 30
0.0
 11
4696.855896536319
 21
1875.565753221893
 31
0.0
  0
ARC
  5
13E7
330
1F
100
AcDbEntity
  8
indusa
100
AcDbCircle
 10
4696.94512106347
 20
1875.658283391298
 30
0.0
 40
0.0799999999999999
100
AcDbArc
 50
208.2955236717323
 51
270.0
  0
LINE
  5
13E8
330
1F
100
AcDbEntity
  8
indusa
100
AcDbLine
 10
4696.855896536319
 20
1875.565753221893
 30
0.0
 11
4696.911874881211
 21
1875.574830791334
 31
0.0
  0
LINE
  5
13EB
330
1F
100
AcDbEntity
  8
indusa
100
AcDbLine
 10
4696.865874768393
 20
1875.615621643603
 30
0.0
 11
4696.834037807314
 21
1875.674760365017
 31
0.0
  0
ARC
  5
13EE
330
1F
100
AcDbEntity
  8
indusa
100
AcDbCircle
 10
4696.832276778535
 20
1875.67381232618
 30
0.0
 40
0.002
100
AcDbArc
 50
28.29552367174375
 51
89.15747573931495
  0
LINE
  5
13F2
330
1F
100
AcDbEntity
  8
indusa
100
AcDbLine
 10
4696.94512106347
 20
1875.568283391298
 30
0.0
 11
4696.967416236325
 21
1875.568283391298
 31
0.0
  0
LINE
  5
13F3
330
1F
100
AcDbEntity
  8
indusa
100
AcDbLine
 10
4696.94512106347
 20
1875.578283391298
 30
0.0
 11
4696.967416236325
 21
1875.578283391298
 31
0.0
  0
LINE
  5
13F7
330
1F
100
AcDbEntity
  8
indusa
100
AcDbLine
 10
4696.966695630758
 20
1875.648283391298
 30
0.0
 11
4696.966695630758
 21
1875.648455634672
 31
0.0
  0
LINE
  5
13FA
330
1F
100
AcDbEntity
  8
indusa
100
AcDbLine
 10
4696.956695630758
 20
1875.648271351829
 30
0.0
 11
4696.966695630758
 21
1875.648271351829
 31
0.0
  0
ARC
  5
13FB
330
1F
100
AcDbEntity
  8
indusa
100
AcDbCircle
 10
4697.053963800743
 20
1875.619110453021
 30
0.0
 40
0.0050000000000001
100
AcDbArc
 50
16.97619255925781
 51
155.6476625050836
  0
LINE
  5
13FC
330
1F
100
AcDbEntity
  8
indusa
100
AcDbLine
 10
4697.064252340919
 20
1875.629932538553
 30
0.0
 11
4697.05742521766
 21
1875.652296283879
 31
0.0
  0
LINE
  5
13FD
330
1F
100
AcDbEntity
  8
indusa
100
AcDbLine
 10
4697.030271434323
 20
1875.59403023238
 30
0.0
 11
4697.06684597883
 21
1875.599961239597
 31
0.0
  0
ARC
  5
1401
330
1F
100
AcDbEntity
  8
indusa
100
AcDbCircle
 10
4697.69789491725
 20
1875.403303145655
 30
0.0
 40
0.6524783729923742
100
AcDbArc
 50
160.212456556195
 51
161.3288175391725
  0
LINE
  5
1402
330
1F
100
AcDbEntity
  8
indusa
100
AcDbLine
 10
4697.070145869939
 20
1875.610626986703
 30
0.0
 11
4697.064252340919
 21
1875.629932538553
 31
0.0
  0
LINE
  5
1403
330
1F
100
AcDbEntity
  8
indusa
100
AcDbLine
 10
4697.05874593154
 20
1875.620570324608
 30
0.0
 11
4697.064612984195
 21
1875.601351501918
 31
0.0
  0
ARC
  5
1404
330
1F
100
AcDbEntity
  8
indusa
100
AcDbCircle
 10
4697.066525836514
 20
1875.601935450553
 30
0.0
 40
0.0020000000000001
100
AcDbArc
 50
196.9761925592951
 51
279.2110265408521
  0
LINE
  5
1405
330
1F
100
AcDbEntity
  8
indusa
100
AcDbLine
 10
4697.06684597883
 20
1875.599961239597
 30
0.0
 11
4697.08613225794
 21
1875.603088744318
 31
0.0
  0
ARC
  5
1406
330
1F
100
AcDbEntity
  8
indusa
100
AcDbCircle
 10
4697.085812115623
 20
1875.605062955273
 30
0.0
 40
0.002
100
AcDbArc
 50
279.2110265408521
 51
341.7562601445288
  0
LINE
  5
1407
330
1F
100
AcDbEntity
  8
indusa
100
AcDbLine
 10
4697.070145869939
 20
1875.610626986703
 30
0.0
 11
4697.079755558589
 21
1875.612185314593
 31
0.0
  0
LINE
  5
141C
330
1F
100
AcDbEntity
  8
indusa
100
AcDbLine
 10
4696.991619900166
 20
1875.893283391298
 30
0.0
 11
4696.848832389847
 21
1875.893283391298
 31
0.0
  0
LINE
  5
141F
330
1F
100
AcDbEntity
  8
indusa
100
AcDbLine
 10
4696.884845503163
 20
1875.848283391298
 30
0.0
 11
4697.195865838345
 21
1875.848283391298
 31
0.0
  0
LINE
  5
1427
330
1F
100
AcDbEntity
  8
indusa
100
AcDbLine
 10
4696.832332580985
 20
1875.916581625096
 30
0.0
 11
4696.832332580985
 21
1875.898283391298
 31
0.0
  0
LINE
  5
1428
330
1F
100
AcDbEntity
  8
indusa
100
AcDbLine
 10
4696.822332580985
 20
1875.911879858895
 30
0.0
 11
4696.822332580985
 21
1875.898283391298
 31
0.0
  0
LINE
  5
1429
330
1F
100
AcDbEntity
  8
indusa
100
AcDbLine
 10
4696.757332580985
 20
1875.923283391298
 30
0.0
 11
4696.757332580985
 21
1875.900737842448
 31
0.0
  0
LINE
  5
142A
330
1F
100
AcDbEntity
  8
indusa
100
AcDbLine
 10
4696.767332580985
 20
1875.91450561823
 30
0.0
 11
4696.767332580985
 21
1875.900737842448
 31
0.0
  0
ARC
  5
142B
330
1F
100
AcDbEntity
  8
indusa
100
AcDbCircle
 10
4696.730332580985
 20
1875.901283391298
 30
0.0
 40
0.0120000000000002
100
AcDbArc
 50
0.0
 51
90.0
  0
ARC
  5
142C
330
1F
100
AcDbEntity
  8
indusa
100
AcDbCircle
 10
4696.722977940278
 20
1875.908283391298
 30
0.0
 40
0.005
100
AcDbArc
 50
181.4749307907861
 51
270.0
  0
LINE
  5
142D
330
1F
100
AcDbEntity
  8
indusa
100
AcDbLine
 10
4696.717332580985
 20
1875.913889441188
 30
0.0
 11
4696.717332580985
 21
1875.892449671378
 31
0.0
  0
ARC
  5
1433
330
1F
100
AcDbEntity
  8
indusa
100
AcDbCircle
 10
4696.828389705239
 20
1875.695802391166
 30
0.0
 40
0.005
100
AcDbArc
 50
27.09701737799887
 51
159.5858315103489
  0
ARC
  5
1434
330
1F
100
AcDbEntity
  8
indusa
100
AcDbCircle
 10
4696.837332580986
 20
1875.898283391298
 30
0.0
 40
0.015
100
AcDbArc
 50
180.0
 51
270.0
  0
LINE
  5
1435
330
1F
100
AcDbEntity
  8
indusa
100
AcDbLine
 10
4696.836332580985
 20
1875.863283391298
 30
0.0
 11
4696.777332580985
 21
1875.839768898545
 31
0.0
  0
LINE
  5
1436
330
1F
100
AcDbEntity
  8
indusa
100
AcDbLine
 10
4696.835963626796
 20
1875.853129808893
 30
0.0
 11
4696.767332580985
 21
1875.824561164366
 31
0.0
  0
LINE
  5
143A
330
1F
100
AcDbEntity
  8
indusa
100
AcDbLine
 10
4696.733185429947
 20
1875.779297014451
 30
0.0
 11
4696.874091843044
 21
1875.781369167585
 31
0.0
  0
LINE
  5
143B
330
1F
100
AcDbEntity
  8
indusa
100
AcDbLine
 10
4696.733332472871
 20
1875.769298095591
 30
0.0
 11
4696.887764738962
 21
1875.771569158327
 31
0.0
  0
LINE
  5
143C
330
1F
100
AcDbEntity
  8
indusa
100
AcDbLine
 10
4696.816812299561
 20
1875.686041042495
 30
0.0
 11
4696.733332472871
 21
1875.687268687006
 31
0.0
  0
ARC
  5
143E
330
1F
100
AcDbEntity
  8
indusa
100
AcDbCircle
 10
4696.733317768578
 20
1875.68626879512
 30
0.0
 40
0.0010000000000001
100
AcDbArc
 50
89.15747573926283
 51
179.1574757386634
  0
ARC
  5
143F
330
1F
100
AcDbEntity
  8
indusa
100
AcDbCircle
 10
4696.733200134239
 20
1875.778297122565
 30
0.0
 40
0.0010000000000001
100
AcDbArc
 50
90.84252426073716
 51
180.8425242612844
  0
ARC
  5
1440
330
1F
100
AcDbEntity
  8
indusa
100
AcDbCircle
 10
4696.733317768578
 20
1875.770297987477
 30
0.0
 40
0.0010000000000001
100
AcDbArc
 50
180.8425242612975
 51
270.8425242607372
  0
LINE
  5
1441
330
1F
100
AcDbEntity
  8
indusa
100
AcDbLine
 10
4696.732200242354
 20
1875.778282418272
 30
0.0
 11
4696.732317876693
 21
1875.770283283184
 31
0.0
  0
LINE
  5
1442
330
1F
100
AcDbEntity
  8
indusa
100
AcDbLine
 10
4696.823703726422
 20
1875.697546410236
 30
0.0
 11
4696.81962020462
 21
1875.687873905066
 31
0.0
  0
ARC
  5
1443
330
1F
100
AcDbEntity
  8
indusa
100
AcDbCircle
 10
4696.816856412439
 20
1875.689040718154
 30
0.0
 40
0.003
100
AcDbArc
 50
269.1574757392629
 51
337.1115841213574
  0
LINE
  5
1445
330
1F
100
AcDbEntity
  8
indusa
100
AcDbLine
 10
4696.757332580985
 20
1875.900783391298
 30
0.0
 11
4696.742332580985
 21
1875.900783391298
 31
0.0
  0
LINE
  5
1446
330
1F
100
AcDbEntity
  8
indusa
100
AcDbLine
 10
4696.766332580985
 20
1875.890783391298
 30
0.0
 11
4696.733332580985
 21
1875.890783391298
 31
0.0
  0
LINE
  5
1447
330
1F
100
AcDbEntity
  8
indusa
100
AcDbLine
 10
4696.733332580985
 20
1875.835783391298
 30
0.0
 11
4696.766332580985
 21
1875.835783391298
 31
0.0
  0
LINE
  5
1448
330
1F
100
AcDbEntity
  8
indusa
100
AcDbLine
 10
4696.734262781991
 20
1875.825715987194
 30
0.0
 11
4696.767332580985
 21
1875.824561164366
 31
0.0
  0
LINE
  5
144A
330
1F
100
AcDbEntity
  8
indusa
100
AcDbLine
 10
4696.732332580985
 20
1875.834783391298
 30
0.0
 11
4696.732332580985
 21
1875.891783391298
 31
0.0
  0
ARC
  5
144B
330
1F
100
AcDbEntity
  8
indusa
100
AcDbCircle
 10
4696.733332580985
 20
1875.834783391298
 30
0.0
 40
0.0009999999999999
100
AcDbArc
 50
90.0
 51
180.0
  0
LINE
  5
144C
330
1F
100
AcDbEntity
  8
indusa
100
AcDbLine
 10
4696.732332580985
 20
1875.834783391298
 30
0.0
 11
4696.732332580985
 21
1875.827714768848
 31
0.0
  0
ARC
  5
144D
330
1F
100
AcDbEntity
  8
indusa
100
AcDbCircle
 10
4696.734332580985
 20
1875.827714768848
 30
0.0
 40
0.002
100
AcDbArc
 50
180.0
 51
267.9999999999963
  0
LINE
  5
144F
330
1F
100
AcDbEntity
  8
indusa
100
AcDbLine
 10
4696.730332580985
 20
1875.903283391298
 30
0.0
 11
4696.722977940278
 21
1875.903283391298
 31
0.0
  0
ARC
  5
1450
330
1F
100
AcDbEntity
  8
indusa
100
AcDbCircle
 10
4696.730332580985
 20
1875.901283391298
 30
0.0
 40
0.0020000000000002
100
AcDbArc
 50
0.0
 51
90.0
  0
LINE
  5
1451
330
1F
100
AcDbEntity
  8
indusa
100
AcDbLine
 10
4696.717332580985
 20
1875.892449671378
 30
0.0
 11
4696.717332580985
 21
1875.890918431549
 31
0.0
  0
ARC
  5
1452
330
1F
100
AcDbEntity
  8
indusa
100
AcDbCircle
 10
4696.733332580985
 20
1875.891783391298
 30
0.0
 40
0.0009999999999999
100
AcDbArc
 50
180.0
 51
270.0
  0
LINE
  5
1453
330
1F
100
AcDbEntity
  8
indusa
100
AcDbLine
 10
4696.732332580985
 20
1875.901283391298
 30
0.0
 11
4696.732332580985
 21
1875.891783391298
 31
0.0
  0
LINE
  5
1456
330
1F
100
AcDbEntity
  8
indusa
100
AcDbLine
 10
4696.717332580985
 20
1875.890918431549
 30
0.0
 11
4696.717332580985
 21
1875.851820726814
 31
0.0
  0
LINE
  5
1458
330
1F
100
AcDbEntity
  8
indusa
100
AcDbLine
 10
4696.777332580985
 20
1875.881783391298
 30
0.0
 11
4696.777332580985
 21
1875.844783391298
 31
0.0
  0
LINE
  5
1459
330
1F
100
AcDbEntity
  8
indusa
100
AcDbLine
 10
4696.767332580985
 20
1875.844783391298
 30
0.0
 11
4696.767332580985
 21
1875.881783391298
 31
0.0
  0
LINE
  5
145A
330
1F
100
AcDbEntity
  8
indusa
100
AcDbLine
 10
4696.777332580985
 20
1875.839768898545
 30
0.0
 11
4696.777332580985
 21
1875.844783391298
 31
0.0
  0
ARC
  5
145B
330
1F
100
AcDbEntity
  8
indusa
100
AcDbCircle
 10
4696.776332580985
 20
1875.844783391298
 30
0.0
 40
0.0010000000000002
100
AcDbArc
 50
0.0
 51
90.0
  0
ARC
  5
145C
330
1F
100
AcDbEntity
  8
indusa
100
AcDbCircle
 10
4696.768332580986
 20
1875.844783391298
 30
0.0
 40
0.0009999999999999
100
AcDbArc
 50
90.0
 51
180.0
  0
LINE
  5
145D
330
1F
100
AcDbEntity
  8
indusa
100
AcDbLine
 10
4696.767332580985
 20
1875.836783391298
 30
0.0
 11
4696.767332580985
 21
1875.844783391298
 31
0.0
  0
ARC
  5
145E
330
1F
100
AcDbEntity
  8
indusa
100
AcDbCircle
 10
4696.766332580985
 20
1875.836783391298
 30
0.0
 40
0.0010000000000002
100
AcDbArc
 50
270.0
 51
0.0
  0
LINE
  5
145F
330
1F
100
AcDbEntity
  8
indusa
100
AcDbLine
 10
4696.768332580986
 20
1875.845783391298
 30
0.0
 11
4696.776332580985
 21
1875.845783391298
 31
0.0
  0
ARC
  5
1460
330
1F
100
AcDbEntity
  8
indusa
100
AcDbCircle
 10
4696.776332580985
 20
1875.881783391298
 30
0.0
 40
0.0010000000000002
100
AcDbArc
 50
270.0
 51
0.0
  0
LINE
  5
1461
330
1F
100
AcDbEntity
  8
indusa
100
AcDbLine
 10
4696.777332580985
 20
1875.881783391298
 30
0.0
 11
4696.777332580985
 21
1875.889783391298
 31
0.0
  0
ARC
  5
1462
330
1F
100
AcDbEntity
  8
indusa
100
AcDbCircle
 10
4696.766332580985
 20
1875.889783391298
 30
0.0
 40
0.0010000000000002
100
AcDbArc
 50
0.0
 51
90.0
  0
LINE
  5
1463
330
1F
100
AcDbEntity
  8
indusa
100
AcDbLine
 10
4696.767332580985
 20
1875.881783391298
 30
0.0
 11
4696.767332580985
 21
1875.889783391298
 31
0.0
  0
ARC
  5
1464
330
1F
100
AcDbEntity
  8
indusa
100
AcDbCircle
 10
4696.768332580986
 20
1875.881783391298
 30
0.0
 40
0.0009999999999999
100
AcDbArc
 50
180.0
 51
270.0
  0
ARC
  5
1465
330
1F
100
AcDbEntity
  8
indusa
100
AcDbCircle
 10
4696.766332580985
 20
1875.889783391298
 30
0.0
 40
0.0110000000000002
100
AcDbArc
 50
0.0
 51
84.78409142955058
  0
LINE
  5
1466
330
1F
100
AcDbEntity
  8
indusa
100
AcDbLine
 10
4696.776332580985
 20
1875.880783391298
 30
0.0
 11
4696.768332580986
 21
1875.880783391298
 31
0.0
  0
LWPOLYLINE
  5
1469
330
1F
100
AcDbEntity
  8
indusa
100
AcDbPolyline
 90
        8
 70
   128
 43
0.0
 10
4696.842376083496
 20
1875.849805416308
 10
4696.845715001018
 20
1875.840024800258
 10
4696.849431064948
 20
1875.830398872369
 10
4696.853524275285
 20
1875.820927632642
 10
4696.858017841167
 20
1875.811562454081
 10
4696.863011021422
 20
1875.802319783985
 10
4696.868865070114
 20
1875.793280528274
 10
4696.875584139744
 20
1875.784666800742
  0
LWPOLYLINE
  5
146A
330
1F
100
AcDbEntity
  8
indusa
100
AcDbPolyline
 90
        9
 70
   128
 43
0.0
 10
4696.852352465747
 20
1875.848283391298
 10
4696.855624626421
 20
1875.83920729582
 10
4696.859235870361
 20
1875.830275221357
 10
4696.863186197568
 20
1875.821487167907
 10
4696.867475608041
 20
1875.812843135471
 10
4696.87222633899
 20
1875.804469355311
 10
4696.877715058364
 20
1875.796417571791
 10
4696.883971264606
 20
1875.788737822176
 10
4696.89086727998
 20
1875.781616212973
  0
LWPOLYLINE
  5
146B
330
1F
100
AcDbEntity
  8
indusa
100
AcDbPolyline
 90
        4
 70
   128
 43
0.0
 10
4696.902706766195
 20
1875.771788894022
 10
4696.912421480734
 20
1875.765473303293
 10
4696.922662430067
 20
1875.76018152537
 10
4696.93330625237
 20
1875.755957675737
  0
LWPOLYLINE
  5
146C
330
1F
100
AcDbEntity
  8
indusa
100
AcDbPolyline
 90
        5
 70
   128
 43
0.0
 10
4696.889099908457
 20
1875.771084296482
 10
4696.898586683071
 20
1875.763670986756
 10
4696.908746647088
 20
1875.757204566292
 10
4696.919340161458
 20
1875.75180590955
 10
4696.93040229587
 20
1875.747439046936
  0
ARC
  5
147A
330
1F
100
AcDbEntity
  8
indusa
100
AcDbCircle
 10
4696.887794147547
 20
1875.769569374555
 30
0.0
 40
0.0019999999999999
100
AcDbArc
 50
49.24087178232456
 51
90.84252426073716
  0
ARC
  5
147B
330
1F
100
AcDbEntity
  8
indusa
100
AcDbCircle
 10
4696.970992231364
 20
1875.866101457198
 30
0.0
 40
0.1164378131286536
100
AcDbArc
 50
226.5173299013317
 51
234.0941983315592
  0
ARC
  5
147C
330
1F
100
AcDbEntity
  8
indusa
100
AcDbCircle
 10
4696.874062434459
 20
1875.783368951357
 30
0.0
 40
0.002
100
AcDbArc
 50
270.8425242607372
 51
40.4605772845645
  0
LWPOLYLINE
  5
147D
330
1F
100
AcDbEntity
  8
indusa
100
AcDbPolyline
 90
        8
 70
   128
 43
0.0
 10
4696.943801410651
 20
1875.731539805174
 10
4696.943005078959
 20
1875.734813876208
 10
4696.9416740677
 20
1875.737909372022
 10
4696.939838890378
 20
1875.740735289463
 10
4696.937558283468
 20
1875.743215716308
 10
4696.934891162666
 20
1875.745274879685
 10
4696.931918080959
 20
1875.746860588473
 10
4696.930468000283
 20
1875.747416691769
  0
LWPOLYLINE
  5
147F
330
1F
100
AcDbEntity
  8
indusa
100
AcDbPolyline
 90
        8
 70
   128
 43
0.0
 10
4696.933592050937
 20
1875.755861209763
 10
4696.938232572473
 20
1875.753858371675
 10
4696.942474258573
 20
1875.75110993584
 10
4696.946190237716
 20
1875.747683961575
 10
4696.949283067184
 20
1875.743686436526
 10
4696.95165555522
 20
1875.739223578881
 10
4696.953250834758
 20
1875.734427655507
 10
4696.953783843482
 20
1875.732366546727
  0
LINE
  5
1487
330
1F
100
AcDbEntity
  8
indusa
100
AcDbLine
 10
4696.933306252369
 20
1875.755957675737
 30
0.0
 11
4696.933592050934
 21
1875.755861209764
 31
0.0
  0
ARC
  5
148C
330
1F
100
AcDbEntity
  8
indusa
100
AcDbCircle
 10
4696.884845503163
 20
1875.850283391298
 30
0.0
 40
0.002
100
AcDbArc
 50
270.0
 51
13.23772672095062
  0
ARC
  5
148E
330
1F
100
AcDbEntity
  8
indusa
100
AcDbCircle
 10
4696.837613369997
 20
1875.848283391298
 30
0.0
 40
0.005
100
AcDbArc
 50
17.72237367480805
 51
90.0
  0
LINE
  5
148F
330
1F
100
AcDbEntity
  8
indusa
100
AcDbLine
 10
4696.852352465747
 20
1875.848283391298
 30
0.0
 11
4696.884845503163
 21
1875.848283391298
 31
0.0
  0
ARC
  5
1492
330
1F
100
AcDbEntity
  8
indusa
100
AcDbCircle
 10
4696.848832389847
 20
1875.863283391298
 30
0.0
 40
0.03
100
AcDbArc
 50
35.32294933218206
 51
90.0
  0
LINE
  5
1493
330
1F
100
AcDbEntity
  8
indusa
100
AcDbLine
 10
4696.849784966551
 20
1875.856283391298
 30
0.0
 11
4696.87476301969
 21
1875.856283391298
 31
0.0
  0
LWPOLYLINE
  5
1494
330
1F
100
AcDbEntity
  8
indusa
100
AcDbPolyline
 90
        4
 70
   128
 43
0.0
 10
4696.863198870425
 20
1875.87747835086
 10
4696.867801544522
 20
1875.870842730045
 10
4696.871673038578
 20
1875.863747380459
 10
4696.874763021571
 20
1875.856283385964
  0
ARC
  5
1495
330
1F
100
AcDbEntity
  8
indusa
100
AcDbCircle
 10
4696.851347595445
 20
1875.868283391298
 30
0.0
 40
0.015
100
AcDbArc
 50
37.80654453753223
 51
90.0
  0
LINE
  5
1496
330
1F
100
AcDbEntity
  8
indusa
100
AcDbLine
 10
4696.847776129248
 20
1875.863283391298
 30
0.0
 11
4696.849785868737
 21
1875.856283664373
 31
0.0
  0
ARC
  5
1499
330
1F
100
AcDbEntity
  8
indusa
100
AcDbCircle
 10
4696.837332580986
 20
1875.898283391298
 30
0.0
 40
0.005
100
AcDbArc
 50
180.0
 51
270.0
  0
LINE
  5
149A
330
1F
100
AcDbEntity
  8
indusa
100
AcDbLine
 10
4696.837613369997
 20
1875.853283391298
 30
0.0
 11
4696.836732224262
 21
1875.853283391298
 31
0.0
  0
ARC
  5
149B
330
1F
100
AcDbEntity
  8
indusa
100
AcDbCircle
 10
4696.836732224262
 20
1875.851283391298
 30
0.0
 40
0.0020000000000002
100
AcDbArc
 50
90.0
 51
112.6002116593942
  0
LINE
  5
149C
330
1F
100
AcDbEntity
  8
indusa
100
AcDbLine
 10
4696.848832389847
 20
1875.893283391298
 30
0.0
 11
4696.837332580986
 21
1875.893283391298
 31
0.0
  0
LINE
  5
149D
330
1F
100
AcDbEntity
  8
indusa
100
AcDbLine
 10
4696.851347595445
 20
1875.883283391298
 30
0.0
 11
4696.837332580986
 21
1875.883283391298
 31
0.0
  0
LINE
  5
149E
330
1F
100
AcDbEntity
  8
indusa
100
AcDbLine
 10
4696.847776129248
 20
1875.863283391298
 30
0.0
 11
4696.836332580985
 21
1875.863283391298
 31
0.0
  0
ARC
  5
149F
330
1F
100
AcDbEntity
  8
indusa
100
AcDbCircle
 10
4696.803474943941
 20
1875.831140390141
 30
0.0
 40
0.0855919996254906
100
AcDbArc
 50
13.23849147802149
 51
35.32341702296836
  0
ARC
  5
14A3
330
1F
100
AcDbEntity
  8
indusa
100
AcDbCircle
 10
4696.827332580985
 20
1875.928068521034
 30
0.0
 40
0.005
100
AcDbArc
 50
0.0
 51
90.0
  0
ARC
  5
14A6
330
1F
100
AcDbEntity
  8
indusa
100
AcDbCircle
 10
4696.827332580985
 20
1875.916581625096
 30
0.0
 40
0.005
100
AcDbArc
 50
0.0
 51
86.47854662308256
  0
LINE
  5
14A9
330
1F
100
AcDbEntity
  8
indusa
100
AcDbLine
 10
4696.762332580985
 20
1875.933283391298
 30
0.0
 11
4696.719332580985
 21
1875.933283391298
 31
0.0
  0
LINE
  5
14AA
330
1F
100
AcDbEntity
  8
indusa
100
AcDbLine
 10
4696.757332580985
 20
1875.923283391298
 30
0.0
 11
4696.727593376119
 21
1875.923283391298
 31
0.0
  0
ARC
  5
14AB
330
1F
100
AcDbEntity
  8
indusa
100
AcDbCircle
 10
4696.719332580985
 20
1875.931283391298
 30
0.0
 40
0.0020000000000002
100
AcDbArc
 50
90.0
 51
180.0
  0
LINE
  5
14AC
330
1F
100
AcDbEntity
  8
indusa
100
AcDbLine
 10
4696.727593376119
 20
1875.923283391298
 30
0.0
 11
4696.727850856982
 21
1875.913283391298
 31
0.0
  0
LINE
  5
14AD
330
1F
100
AcDbEntity
  8
indusa
100
AcDbLine
 10
4696.730332580985
 20
1875.913283391298
 30
0.0
 11
4696.727850856982
 21
1875.913283391298
 31
0.0
  0
LINE
  5
14AF
330
1F
100
AcDbEntity
  8
indusa
100
AcDbLine
 10
4696.717332580985
 20
1875.92372063776
 30
0.0
 11
4696.717332580985
 21
1875.918560402767
 31
0.0
  0
ARC
  5
14B1
330
1F
100
AcDbEntity
  8
indusa
100
AcDbCircle
 10
4696.717832580985
 20
1875.92372063776
 30
0.0
 40
0.0005
100
AcDbArc
 50
180.0
 51
222.563605574801
  0
ARC
  5
14B2
330
1F
100
AcDbEntity
  8
indusa
100
AcDbCircle
 10
4696.717096054093
 20
1875.923044229497
 30
0.0
 40
0.0005
100
AcDbArc
 50
1.47493079108575
 51
42.56360557480099
  0
LINE
  5
14B3
330
1F
100
AcDbEntity
  8
indusa
100
AcDbLine
 10
4696.717595888435
 20
1875.923057099275
 30
0.0
 11
4696.717979596864
 21
1875.908154693521
 31
0.0
  0
LINE
  5
14B4
330
1F
100
AcDbEntity
  8
indusa
100
AcDbLine
 10
4696.717332580985
 20
1875.918560402767
 30
0.0
 11
4696.717332580985
 21
1875.913889441188
 31
0.0
  0
LINE
  5
14B5
330
1F
100
AcDbEntity
  8
indusa
100
AcDbLine
 10
4696.717332580985
 20
1875.931283391298
 30
0.0
 11
4696.717332580985
 21
1875.92372063776
 31
0.0
  0
LINE
  5
14B7
330
1F
100
AcDbEntity
  8
indusa
100
AcDbLine
 10
4696.827332580985
 20
1875.933068521034
 30
0.0
 11
4696.763782592506
 21
1875.933068521034
 31
0.0
  0
LINE
  5
14B8
330
1F
100
AcDbEntity
  8
indusa
100
AcDbLine
 10
4696.767332580985
 20
1875.915264474279
 30
0.0
 11
4696.822332580985
 21
1875.911879858895
 31
0.0
  0
LINE
  5
14B9
330
1F
100
AcDbEntity
  8
indusa
100
AcDbLine
 10
4696.771878034251
 20
1875.925003671097
 30
0.0
 11
4696.82763969233
 21
1875.921572184446
 31
0.0
  0
ARC
  5
14BA
330
1F
100
AcDbEntity
  8
indusa
100
AcDbCircle
 10
4696.762332580985
 20
1875.928283391298
 30
0.0
 40
0.0050000000000001
100
AcDbArc
 50
9.850846127531202
 51
90.0
  0
LINE
  5
14BB
330
1F
100
AcDbEntity
  8
indusa
100
AcDbLine
 10
4696.767332580985
 20
1875.91450561823
 30
0.0
 11
4696.767332580985
 21
1875.915264474279
 31
0.0
  0
ARC
  5
14BC
330
1F
100
AcDbEntity
  8
indusa
100
AcDbCircle
 10
4696.772185145596
 20
1875.929994230447
 30
0.0
 40
0.0050000000000003
100
AcDbArc
 50
189.850846127544
 51
266.4785466230826
  0
LINE
  5
14BF
330
1F
100
AcDbEntity
  8
indusa
100
AcDbLine
 10
4696.832332580985
 20
1875.925219569349
 30
0.0
 11
4696.832332580985
 21
1875.928068521034
 31
0.0
  0
LINE
  5
14C1
330
1F
100
AcDbEntity
  8
indusa
100
AcDbLine
 10
4696.832332580985
 20
1875.916581625096
 30
0.0
 11
4696.832332580985
 21
1875.925219569349
 31
0.0
  0
LWPOLYLINE
  5
14C4
330
1F
100
AcDbEntity
  8
indusa
100
AcDbPolyline
 90
       16
 70
   128
 43
0.0
 10
4697.079204318843
 20
1875.755220272075
 10
4697.092926554334
 20
1875.757911680003
 10
4697.106409424214
 20
1875.761579707475
 10
4697.119674312414
 20
1875.766234868186
 10
4697.132616043947
 20
1875.771858170118
 10
4697.145115959316
 20
1875.778401824726
 10
4697.156281697952
 20
1875.785282145653
 10
4697.16692166425
 20
1875.792868780249
 10
4697.176947069332
 20
1875.801079273787
 10
4697.180171583594
 20
1875.80396891751
 10
4697.183335387759
 20
1875.806933516214
 10
4697.186438481824
 20
1875.809973069901
 10
4697.189452452577
 20
1875.813059246217
 10
4697.192371052493
 20
1875.816185945678
 10
4697.19522529425
 20
1875.81938840115
 10
4697.198020417993
 20
1875.822647925389
  0
ARC
  5
14C5
330
1F
100
AcDbEntity
  8
indusa
100
AcDbCircle
 10
4697.048595341295
 20
1875.947542062412
 30
0.0
 40
0.2037423435837905
100
AcDbArc
 50
279.1218839715611
 51
305.0980968200207
  0
LINE
  5
14C6
330
1F
100
AcDbEntity
  8
indusa
100
AcDbLine
 10
4697.211394092975
 20
1875.893283391298
 30
0.0
 11
4696.991619900166
 21
1875.893283391298
 31
0.0
  0
LWPOLYLINE
  5
14CD
330
1F
100
AcDbEntity
  8
indusa
100
AcDbPolyline
 90
        7
 70
   128
 43
0.0
 10
4697.067145725997
 20
1875.749750305344
 10
4697.06499942892
 20
1875.747739852625
 10
4697.063166934465
 20
1875.74562940383
 10
4697.061415298512
 20
1875.742963593782
 10
4697.060017487046
 20
1875.740096440344
 10
4697.058996262641
 20
1875.737074633499
 10
4697.058368255361
 20
1875.733947381672
  0
LWPOLYLINE
  5
14CE
330
1F
100
AcDbEntity
  8
indusa
100
AcDbPolyline
 90
        8
 70
   128
 43
0.0
 10
4697.068408807543
 20
1875.733574849015
 10
4697.069650053328
 20
1875.737842736918
 10
4697.070898428298
 20
1875.74004000962
 10
4697.07249564274
 20
1875.741998415455
 10
4697.074400954855
 20
1875.743658606147
 10
4697.076556375672
 20
1875.744977927372
 10
4697.078672892407
 20
1875.745842013913
 10
4697.080895670024
 20
1875.746376381112
  0
ARC
  5
14D0
330
1F
100
AcDbEntity
  8
indusa
100
AcDbCircle
 10
4697.083133821382
 20
1875.730531023204
 30
0.0
 40
0.0249999999999959
100
AcDbArc
 50
99.04325694833751
 51
129.7563207727559
  0
LWPOLYLINE
  5
14D2
330
1F
100
AcDbEntity
  8
indusa
100
AcDbPolyline
 90
        8
 70
   128
 43
0.0
 10
4697.194170790459
 20
1875.851344905622
 10
4697.199078388457
 20
1875.858444888041
 10
4697.20461030306
 20
1875.865068856565
 10
4697.210666576964
 20
1875.871117185044
 10
4697.217244544995
 20
1875.876596560821
 10
4697.226722798658
 20
1875.882938802179
 10
4697.236941035362
 20
1875.888121604393
 10
4697.247741675764
 20
1875.892046573451
  0
LINE
  5
14D3
330
1F
100
AcDbEntity
  8
indusa
100
AcDbLine
 10
4697.195865838345
 20
1875.848283391298
 30
0.0
 11
4697.220694663226
 21
1875.848283391298
 31
0.0
  0
LINE
  5
14D4
330
1F
100
AcDbEntity
  8
indusa
100
AcDbLine
 10
4697.220695454555
 20
1875.848284239916
 30
0.0
 11
4697.205155127593
 21
1875.831008501645
 31
0.0
  0
ARC
  5
14D5
330
1F
100
AcDbEntity
  8
indusa
100
AcDbCircle
 10
4697.274775890561
 20
1875.800857089082
 30
0.0
 40
0.0851123491056965
100
AcDbArc
 50
105.9100149841077
 51
139.3668806125943
  0
ARC
  5
14D6
330
1F
100
AcDbEntity
  8
indusa
100
AcDbCircle
 10
4697.195865838345
 20
1875.850283391298
 30
0.0
 40
0.002
100
AcDbArc
 50
147.9433703821424
 51
270.0
  0
LINE
  5
14D7
330
1F
100
AcDbEntity
  8
indusa
100
AcDbLine
 10
4697.205155127592
 20
1875.831008501644
 30
0.0
 11
4697.198029988762
 21
1875.822659207711
 31
0.0
  0
LINE
  5
14D8
330
1F
100
AcDbEntity
  8
indusa
100
AcDbLine
 10
4697.25626689438
 20
1875.893283391298
 30
0.0
 11
4697.240573027695
 21
1875.893283391298
 31
0.0
  0
LWPOLYLINE
  5
14D9
330
1F
100
AcDbEntity
  8
indusa
100
AcDbPolyline
 90
        3
 70
   128
 43
0.0
 10
4697.255919775074
 20
1875.883283391298
 10
4697.24189292545
 20
1875.869979748969
 10
4697.228282395946
 20
1875.856283391298
  0
LINE
  5
14DA
330
1F
100
AcDbEntity
  8
indusa
100
AcDbLine
 10
4697.240573027695
 20
1875.893283391298
 30
0.0
 11
4697.211394092975
 21
1875.893283391298
 31
0.0
  0
LINE
  5
14DB
330
1F
100
AcDbEntity
  8
indusa
100
AcDbLine
 10
4697.210184514225
 20
1875.856283391298
 30
0.0
 11
4697.228282395946
 21
1875.856283391298
 31
0.0
  0
ARC
  5
14DC
330
1F
100
AcDbEntity
  8
indusa
100
AcDbCircle
 10
4697.268922866503
 20
1875.888283391298
 30
0.0
 40
0.0050000000000002
100
AcDbArc
 50
311.491805794549
 51
90.0
  0
LINE
  5
14DD
330
1F
100
AcDbEntity
  8
indusa
100
AcDbLine
 10
4697.268922866503
 20
1875.893283391298
 30
0.0
 11
4697.25626689438
 21
1875.893283391298
 31
0.0
  0
ARC
  5
14DE
330
1F
100
AcDbEntity
  8
indusa
100
AcDbCircle
 10
4697.25626689438
 20
1875.863283391298
 30
0.0
 40
0.03
100
AcDbArc
 50
90.0
 51
106.5094785194441
  0
ARC
  5
14DF
330
1F
100
AcDbEntity
  8
indusa
100
AcDbCircle
 10
4697.255555191495
 20
1875.868283391298
 30
0.0
 40
0.015
100
AcDbArc
 50
90.0
 51
105.90608870817
  0
LWPOLYLINE
  5
17E7
330
1F
100
AcDbEntity
  8
indusa
100
AcDbPolyline
 90
        5
 70
   128
 43
0.0
 10
4695.488980673748
 20
1875.648192855021
 10
4695.491195830569
 20
1875.668746714368
 10
4695.493426991585
 20
1875.689261654923
 10
4695.495654843581
 20
1875.709743730769
 10
4695.49787820177
 20
1875.730181058195
  0
LINE
  5
17EF
330
1F
100
AcDbEntity
  8
indusa
100
AcDbLine
 10
4695.363735118372
 20
1875.545633841548
 30
0.0
 11
4695.363735118372
 21
1875.892230946496
 31
0.0
  0
LINE
  5
17F0
330
1F
100
AcDbEntity
  8
indusa
100
AcDbLine
 10
4695.395735118372
 20
1875.848283391298
 30
0.0
 11
4695.395735118372
 21
1875.584740595001
 31
0.0
  0
ARC
  5
17F1
330
1F
100
AcDbEntity
  8
indusa
100
AcDbCircle
 10
4696.344294205913
 20
1875.403295741996
 30
0.0
 40
0.6424776081726403
100
AcDbArc
 50
131.4925815056976
 51
161.7556002884487
  0
LINE
  5
17F2
330
1F
100
AcDbEntity
  8
indusa
100
AcDbLine
 10
4695.613818773712
 20
1875.568283391298
 30
0.0
 11
4695.591523600858
 21
1875.568283391298
 31
0.0
  0
LINE
  5
17F4
330
1F
100
AcDbEntity
  8
indusa
100
AcDbLine
 10
4695.732534795327
 20
1875.603088744318
 30
0.0
 11
4695.503344724983
 21
1875.565922786965
 31
0.0
  0
LWPOLYLINE
  5
17F6
330
1F
100
AcDbEntity
  8
indusa
100
AcDbPolyline
 90
       14
 70
   128
 43
0.0
 10
4695.676828795769
 20
1875.594020360554
 10
4695.675870268259
 20
1875.593094342949
 10
4695.671615700588
 20
1875.589294151239
 10
4695.667128926248
 20
1875.585771132771
 10
4695.662427971439
 20
1875.582539441728
 10
4695.657531722859
 20
1875.579612061851
 10
4695.652459851823
 20
1875.577000754268
 10
4695.64723273523
 20
1875.574716010248
 10
4695.641871373704
 20
1875.572767009044
 10
4695.63639730721
 20
1875.571161581026
 10
4695.630832528522
 20
1875.569906176207
 10
4695.625199394863
 20
1875.56900583834
 10
4695.619520538077
 20
1875.568464184649
 10
4695.613818773713
 20
1875.568283391298
  0
ARC
  5
17F7
330
1F
100
AcDbEntity
  8
indusa
100
AcDbCircle
 10
4695.73221465301
 20
1875.605062955273
 30
0.0
 40
0.0020000000000001
100
AcDbArc
 50
279.2110265408254
 51
341.7562601445411
  0
LWPOLYLINE
  5
17FA
330
1F
100
AcDbEntity
  8
indusa
100
AcDbPolyline
 90
        7
 70
   128
 43
0.0
 10
4695.395735118372
 20
1875.584740595001
 10
4695.39575600855
 20
1875.584284014916
 10
4695.396156379448
 20
1875.582731826757
 10
4695.397026615588
 20
1875.581386939221
 10
4695.398308016928
 20
1875.580369190356
 10
4695.399885118775
 20
1875.57981337462
 10
4695.401535474166
 20
1875.579805067613
  0
LINE
  5
17FD
330
1F
100
AcDbEntity
  8
indusa
100
AcDbLine
 10
4695.401535474166
 20
1875.579805067612
 30
0.0
 11
4695.478697262274
 21
1875.59231779001
 31
0.0
  0
LINE
  5
17FF
330
1F
100
AcDbEntity
  8
indusa
100
AcDbLine
 10
4695.48149030085
 20
1875.562378826294
 30
0.0
 11
4695.36605526069
 21
1875.543659630593
 31
0.0
  0
LWPOLYLINE
  5
1800
330
1F
100
AcDbEntity
  8
indusa
100
AcDbPolyline
 90
        8
 70
   128
 43
0.0
 10
4695.591523600858
 20
1875.568283391298
 10
4695.585825933338
 20
1875.568463924673
 10
4695.580151124021
 20
1875.569004800524
 10
4695.574521939406
 20
1875.569903848938
 10
4695.568960962955
 20
1875.571157463063
 10
4695.563490504485
 20
1875.572760613585
 10
4695.558132510671
 20
1875.574706868901
 10
4695.55801467859
 20
1875.574754042394
  0
LINE
  5
1803
330
1F
100
AcDbEntity
  8
indusa
100
AcDbLine
 10
4695.503344724983
 20
1875.565922786965
 30
0.0
 11
4695.48149030085
 21
1875.562378826294
 31
0.0
  0
ARC
  5
1807
330
1F
100
AcDbEntity
  8
indusa
100
AcDbCircle
 10
4695.365735118373
 20
1875.545633841548
 30
0.0
 40
0.0020000000000002
100
AcDbArc
 50
180.0
 51
279.2110265407997
  0
LWPOLYLINE
  5
180B
330
1F
100
AcDbEntity
  8
indusa
100
AcDbPolyline
 90
        6
 70
   128
 43
0.0
 10
4695.483504297384
 20
1875.596945423359
 10
4695.484492242625
 20
1875.606193057604
 10
4695.485480279235
 20
1875.615440656502
 10
4695.486468403608
 20
1875.624687924073
 10
4695.487456600949
 20
1875.633934574242
 10
4695.488980673747
 20
1875.648192855021
  0
LWPOLYLINE
  5
1814
330
1F
100
AcDbEntity
  8
indusa
100
AcDbPolyline
 90
        4
 70
   128
 43
0.0
 10
4695.48020344143
 20
1875.592761686926
 10
4695.481814695579
 20
1875.593801215319
 10
4695.482976897323
 20
1875.595299092968
 10
4695.483504297384
 20
1875.596945423359
  0
LINE
  5
1815
330
1F
100
AcDbEntity
  8
indusa
100
AcDbLine
 10
4695.478697262274
 20
1875.59231779001
 30
0.0
 11
4695.48020344143
 21
1875.592761686926
 31
0.0
  0
LINE
  5
181C
330
1F
100
AcDbEntity
  8
indusa
100
AcDbLine
 10
4695.483735118372
 20
1875.893283391298
 30
0.0
 11
4695.91532540389
 21
1875.893283391298
 31
0.0
  0
ARC
  5
181D
330
1F
100
AcDbEntity
  8
indusa
100
AcDbCircle
 10
4695.91532540389
 20
1875.888283391298
 30
0.0
 40
0.0050000000000002
100
AcDbArc
 50
311.4918057945814
 51
90.0
  0
LWPOLYLINE
  5
1822
330
1F
100
AcDbEntity
  8
indusa
100
AcDbPolyline
 90
        3
 70
   128
 43
0.0
 10
4695.69433049171
 20
1875.848119594077
 10
4695.608439704584
 20
1875.818626469751
 10
4695.607374294183
 20
1875.818257333792
  0
LWPOLYLINE
  5
1824
330
1F
100
AcDbEntity
  8
indusa
100
AcDbPolyline
 90
        4
 70
   128
 43
0.0
 10
4695.515276814931
 20
1875.783424174123
 10
4695.532496756722
 20
1875.789934220749
 10
4695.570823246431
 20
1875.804432699669
 10
4695.607374294183
 20
1875.818257333792
  0
LWPOLYLINE
  5
1827
330
1F
100
AcDbEntity
  8
indusa
100
AcDbPolyline
 90
        5
 70
   128
 43
0.0
 10
4695.49787820177
 20
1875.730181058195
 10
4695.499897044594
 20
1875.748736464832
 10
4695.500904742435
 20
1875.757997870984
 10
4695.50140757117
 20
1875.762623930905
 10
4695.501943371626
 20
1875.767255346115
  0
LWPOLYLINE
  5
1828
330
1F
100
AcDbEntity
  8
indusa
100
AcDbPolyline
 90
        3
 70
   128
 43
0.0
 10
4695.512728486781
 20
1875.782292779965
 10
4695.513878434058
 20
1875.782845641918
 10
4695.515196942145
 20
1875.783392955124
  0
LINE
  5
1833
330
1F
100
AcDbEntity
  8
indusa
100
AcDbLine
 10
4695.504570210972
 20
1875.774556985061
 30
0.0
 11
4695.504942613534
 21
1875.775160494226
 31
0.0
  0
LWPOLYLINE
  5
1834
330
1F
100
AcDbEntity
  8
indusa
100
AcDbPolyline
 90
        4
 70
   128
 43
0.0
 10
4695.504942613534
 20
1875.775160494226
 10
4695.507025799067
 20
1875.777882204697
 10
4695.509616167707
 20
1875.780287623821
 10
4695.512728486781
 20
1875.782292779965
  0
LWPOLYLINE
  5
1835
330
1F
100
AcDbEntity
  8
indusa
100
AcDbPolyline
 90
        3
 70
   128
 43
0.0
 10
4695.501943371626
 20
1875.767255346115
 10
4695.502387384705
 20
1875.76937474209
 10
4695.503220815622
 20
1875.771848456234
  0
LINE
  5
1836
330
1F
100
AcDbEntity
  8
indusa
100
AcDbLine
 10
4695.50360852468
 20
1875.77273524695
 30
0.0
 11
4695.504570210972
 21
1875.774556985061
 31
0.0
  0
LWPOLYLINE
  5
1837
330
1F
100
AcDbEntity
  8
indusa
100
AcDbPolyline
 90
        3
 70
   128
 43
0.0
 10
4695.503220815622
 20
1875.771848456234
 10
4695.503393878833
 20
1875.772258385868
 10
4695.50360852468
 20
1875.77273524695
  0
LWPOLYLINE
  5
183F
330
1F
100
AcDbEntity
  8
indusa
100
AcDbPolyline
 90
        3
 70
   128
 43
0.0
 10
4695.515196942145
 20
1875.783392955124
 10
4695.515224551809
 20
1875.783403765076
 10
4695.515276814931
 20
1875.783424174123
  0
LINE
  5
1843
330
1F
100
AcDbEntity
  8
indusa
100
AcDbLine
 10
4695.6931524738
 20
1875.854126514537
 30
0.0
 11
4695.48014397548
 21
1875.853283391298
 31
0.0
  0
LWPOLYLINE
  5
1844
330
1F
100
AcDbEntity
  8
indusa
100
AcDbPolyline
 90
        6
 70
   128
 43
0.0
 10
4695.727365071973
 20
1875.856864063338
 10
4695.72730316473
 20
1875.856847465447
 10
4695.720268963884
 20
1875.854941270659
 10
4695.71323703352
 20
1875.853056343865
 10
4695.703779604724
 20
1875.8505556995
 10
4695.69433049171
 20
1875.848119594077
  0
LWPOLYLINE
  5
1845
330
1F
100
AcDbEntity
  8
indusa
100
AcDbPolyline
 90
        6
 70
   128
 43
0.0
 10
4695.693152473801
 20
1875.854126514537
 10
4695.702936527131
 20
1875.854842337273
 10
4695.712741226848
 20
1875.85562352912
 10
4695.720026115861
 20
1875.856230866702
 10
4695.72731555835
 20
1875.856859876111
 10
4695.727365071973
 20
1875.856864063338
  0
LINE
  5
1847
330
1F
100
AcDbEntity
  8
indusa
100
AcDbLine
 10
4695.363735118372
 20
1875.894859706411
 30
0.0
 11
4695.363735118372
 21
1875.928433204149
 31
0.0
  0
LINE
  5
1849
330
1F
100
AcDbEntity
  8
indusa
100
AcDbLine
 10
4695.478735118373
 20
1875.928068521034
 30
0.0
 11
4695.478735118373
 21
1875.898283391298
 31
0.0
  0
LINE
  5
184E
330
1F
100
AcDbEntity
  8
indusa
100
AcDbLine
 10
4695.480136253682
 20
1875.853283391298
 30
0.0
 11
4695.400735118372
 21
1875.853283391298
 31
0.0
  0
LWPOLYLINE
  5
1858
330
1F
100
AcDbEntity
  8
indusa
100
AcDbPolyline
 90
        4
 70
   128
 43
0.0
 10
4695.478735118373
 20
1875.898283391298
 10
4695.47879249763
 20
1875.897528076669
 10
4695.478963318448
 20
1875.896790097797
 10
4695.479243660201
 20
1875.896086392553
  0
LWPOLYLINE
  5
1859
330
1F
100
AcDbEntity
  8
indusa
100
AcDbPolyline
 90
        5
 70
   128
 43
0.0
 10
4695.479243660201
 20
1875.896086392553
 10
4695.479594015192
 20
1875.895481380512
 10
4695.480706930304
 20
1875.894304688366
 10
4695.482130148321
 20
1875.893547985177
 10
4695.483735118373
 20
1875.893283391298
  0
ARC
  5
1863
330
1F
100
AcDbEntity
  8
indusa
100
AcDbCircle
 10
4695.400735118372
 20
1875.848283391298
 30
0.0
 40
0.0050000000000009
100
AcDbArc
 50
90.0
 51
180.0
  0
LINE
  5
1867
330
1F
100
AcDbEntity
  8
indusa
100
AcDbLine
 10
4695.363735118372
 20
1875.892230947718
 30
0.0
 11
4695.363735118372
 21
1875.894859706411
 31
0.0
  0
LINE
  5
1869
330
1F
100
AcDbEntity
  8
indusa
100
AcDbLine
 10
4695.410185129893
 20
1875.933068521034
 30
0.0
 11
4695.473735118373
 21
1875.933068521034
 31
0.0
  0
ARC
  5
186C
330
1F
100
AcDbEntity
  8
indusa
100
AcDbCircle
 10
4695.473735118373
 20
1875.928068521034
 30
0.0
 40
0.005
100
AcDbArc
 50
0.000000000000007
 51
90.0
  0
LINE
  5
186D
330
1F
100
AcDbEntity
  8
indusa
100
AcDbLine
 10
4695.408735118372
 20
1875.933283391298
 30
0.0
 11
4695.384886791085
 21
1875.933283391298
 31
0.0
  0
ARC
  5
186F
330
1F
100
AcDbEntity
  8
indusa
100
AcDbCircle
 10
4695.408735118372
 20
1875.928283391298
 30
0.0
 40
0.005
100
AcDbArc
 50
73.14190604029365
 51
90.0
  0
ARC
  5
1871
330
1F
100
AcDbEntity
  8
indusa
100
AcDbCircle
 10
4695.365735118373
 20
1875.931283391298
 30
0.0
 40
0.0020000000000002
100
AcDbArc
 50
90.0
 51
180.0
  0
LINE
  5
1877
330
1F
100
AcDbEntity
  8
indusa
100
AcDbLine
 10
4695.365735118373
 20
1875.933283391298
 30
0.0
 11
4695.384886791085
 21
1875.933283391298
 31
0.0
  0
LINE
  5
1878
330
1F
100
AcDbEntity
  8
indusa
100
AcDbLine
 10
4695.363735118372
 20
1875.928433204149
 30
0.0
 11
4695.363735118372
 21
1875.931283391298
 31
0.0
  0
LINE
  5
187A
330
1F
100
AcDbEntity
  8
indusa
100
AcDbLine
 10
4695.483735118372
 20
1875.893283391298
 30
0.0
 11
4695.363735118372
 21
1875.893283391298
 31
0.0
  0
LWPOLYLINE
  5
18A5
330
1F
100
AcDbEntity
  8
indusa
100
AcDbPolyline
 90
        9
 70
   128
 43
0.0
 10
4696.367912912769
 20
1875.595870601052
 10
4696.367784100411
 20
1875.595893078955
 10
4696.360188136894
 20
1875.596952313495
 10
4696.351927869708
 20
1875.597866432402
 10
4696.34307168708
 20
1875.598624662579
 10
4696.333711644414
 20
1875.599221552849
 10
4696.324024086367
 20
1875.599645539896
 10
4696.314742970002
 20
1875.599881581918
 10
4696.305359020051
 20
1875.599961239598
  0
LWPOLYLINE
  5
18A6
330
1F
100
AcDbEntity
  8
indusa
100
AcDbPolyline
 90
        8
 70
   128
 43
0.0
 10
4696.246576726001
 20
1875.59640105468
 10
4696.25052990321
 20
1875.596952313495
 10
4696.258790170396
 20
1875.597866432402
 10
4696.267646353024
 20
1875.598624662579
 10
4696.277006395689
 20
1875.599221552849
 10
4696.286693953736
 20
1875.599645539896
 10
4696.295975070102
 20
1875.599881581918
 10
4696.305359020051
 20
1875.599961239598
  0
ENDSEC
  0
SECTION
  2
OBJECTS
  0
DICTIONARY
  5
C
330
0
100
AcDbDictionary
281
     1
  3
ACAD_COLOR
350
18D7
  3
ACAD_GROUP
350
D
  3
ACAD_LAYOUT
350
1A
  3
ACAD_MATERIAL
350
18AA
  3
ACAD_MLEADERSTYLE
350
18EC
  3
ACAD_MLINESTYLE
350
17
  3
ACAD_PLOTSETTINGS
350
19
  3
ACAD_PLOTSTYLENAME
350
E
  3
ACAD_SCALELIST
350
18DA
  3
ACAD_TABLESTYLE
350
18D8
  3
ACAD_VISUALSTYLE
350
18C3
  3
ACDB_RECOMPOSE_DATA
350
191B
  3
AcDbVariableDictionary
350
3D
  3
ASE_INDEX_DICTIONARY
350
17C5
  3
DWGPROPS
350
191C
  0
DICTIONARY
  5
18F3
330
10
100
AcDbDictionary
280
     1
281
     1
  3
ADSK_XREC_LAYER_RECONCILED
360
18F4
  0
DICTIONARY
  5
18F5
330
2F
100
AcDbDictionary
280
     1
281
     1
  3
ADSK_XREC_LAYER_RECONCILED
360
18F6
  0
DICTIONARY
  5
18F7
330
30
100
AcDbDictionary
280
     1
281
     1
  3
ADSK_XREC_LAYER_RECONCILED
360
18F8
  0
DICTIONARY
  5
18F9
330
31
100
AcDbDictionary
280
     1
281
     1
  3
ADSK_XREC_LAYER_RECONCILED
360
18FA
  0
DICTIONARY
  5
18FB
330
32
100
AcDbDictionary
280
     1
281
     1
  3
ADSK_XREC_LAYER_RECONCILED
360
18FC
  0
DICTIONARY
  5
18FD
330
33
100
AcDbDictionary
280
     1
281
     1
  3
ADSK_XREC_LAYER_RECONCILED
360
18FE
  0
DICTIONARY
  5
18FF
330
34
100
AcDbDictionary
280
     1
281
     1
  3
ADSK_XREC_LAYER_RECONCILED
360
1900
  0
DICTIONARY
  5
1901
330
35
100
AcDbDictionary
280
     1
281
     1
  3
ADSK_XREC_LAYER_RECONCILED
360
1902
  0
DICTIONARY
  5
1903
330
36
100
AcDbDictionary
280
     1
281
     1
  3
ADSK_XREC_LAYER_RECONCILED
360
1904
  0
DICTIONARY
  5
1905
330
37
100
AcDbDictionary
280
     1
281
     1
  3
ADSK_XREC_LAYER_RECONCILED
360
1906
  0
DICTIONARY
  5
1907
330
5D6
100
AcDbDictionary
280
     1
281
     1
  3
ADSK_XREC_LAYER_RECONCILED
360
1908
  0
DICTIONARY
  5
1909
330
8AF
100
AcDbDictionary
280
     1
281
     1
  3
ADSK_XREC_LAYER_RECONCILED
360
190A
  0
DICTIONARY
  5
190B
330
8F8
100
AcDbDictionary
280
     1
281
     1
  3
ADSK_XREC_LAYER_RECONCILED
360
190C
  0
DICTIONARY
  5
190D
330
91D
100
AcDbDictionary
280
     1
281
     1
  3
ADSK_XREC_LAYER_RECONCILED
360
190E
  0
DICTIONARY
  5
190F
330
B5B
100
AcDbDictionary
280
     1
281
     1
  3
ADSK_XREC_LAYER_RECONCILED
360
1910
  0
DICTIONARY
  5
1911
330
1720
100
AcDbDictionary
280
     1
281
     1
  3
ADSK_XREC_LAYER_RECONCILED
360
1912
  0
DICTIONARY
  5
18D7
102
{ACAD_REACTORS
330
C
102
}
330
C
100
AcDbDictionary
281
     1
  0
DICTIONARY
  5
D
102
{ACAD_REACTORS
330
C
102
}
330
C
100
AcDbDictionary
281
     1
  0
DICTIONARY
  5
1A
102
{ACAD_REACTORS
330
C
102
}
330
C
100
AcDbDictionary
281
     1
  3
Layout1
350
1E
  3
Layout2
350
26
  3
Model
350
22
  0
DICTIONARY
  5
18AA
102
{ACAD_REACTORS
330
C
102
}
330
C
100
AcDbDictionary
281
     1
  3
ByBlock
350
18B3
  3
ByLayer
350
18AB
  3
Global
350
18BB
  0
DICTIONARY
  5
18EC
102
{ACAD_REACTORS
330
C
102
}
330
C
100
AcDbDictionary
281
     1
  3
Standard
350
18ED
  0
DICTIONARY
  5
17
102
{ACAD_REACTORS
330
C
102
}
330
C
100
AcDbDictionary
281
     1
  3
Standard
350
18
  0
DICTIONARY
  5
19
102
{ACAD_REACTORS
330
C
102
}
330
C
100
AcDbDictionary
281
     1
  0
ACDBDICTIONARYWDFLT
  5
E
102
{ACAD_REACTORS
330
C
102
}
330
C
100
AcDbDictionary
281
     1
  3
Normal
350
F
100
AcDbDictionaryWithDefault
340
F
  0
DICTIONARY
  5
18DA
102
{ACAD_REACTORS
330
C
102
}
330
C
100
AcDbDictionary
281
     1
  3
A0
350
18DB
  3
A1
350
18DC
  3
A2
350
18DD
  3
A3
350
18DE
  3
A4
350
18DF
  3
A5
350
18E0
  3
A6
350
18E1
  3
A7
350
18E2
  3
A8
350
18E3
  3
A9
350
18E4
  3
B0
350
18E5
  3
B1
350
18E6
  3
B2
350
18E7
  3
B3
350
18E8
  3
B4
350
18E9
  3
B5
350
18EA
  3
B6
350
18EB
  0
DICTIONARY
  5
18D8
102
{ACAD_REACTORS
330
C
102
}
330
C
100
AcDbDictionary
281
     1
  3
Standard
350
18D9
  0
DICTIONARY
  5
18C3
102
{ACAD_REACTORS
330
C
102
}
330
C
100
AcDbDictionary
281
     1
  3
2dWireframe
350
18C9
  3
3D Hidden
350
18CB
  3
3dWireframe
350
18CA
  3
Basic
350
18C8
  3
Brighten
350
18CF
  3
ColorChange
350
18D3
  3
Conceptual
350
18CC
  3
Dim
350
18CE
  3
EdgeColorOff
350
18D6
  3
Facepattern
350
18D2
  3
Flat
350
18C4
  3
FlatWithEdges
350
18C5
  3
Gouraud
350
18C6
  3
GouraudWithEdges
350
18C7
  3
JitterOff
350
18D4
  3
Linepattern
350
18D1
  3
OverhangOff
350
18D5
  3
Realistic
350
18CD
  3
Thicken
350
18D0
  0
XRECORD
  5
191B
102
{ACAD_REACTORS
330
C
102
}
330
C
100
AcDbXrecord
280
     1
 90
        1
330
18D9
  0
DICTIONARY
  5
3D
102
{ACAD_REACTORS
330
C
102
}
330
C
100
AcDbDictionary
281
     1
  3
CANNOSCALE
350
1915
  3
CMLEADERSTYLE
350
1914
  3
CTABLESTYLE
350
1913
  3
DIMASSOC
350
3F
  3
HIDETEXT
350
3E
  3
INDEXCTL
350
1917
  3
SORTENTS
350
1916
  3
XCLIPFRAME
350
1918
  0
DICTIONARY
  5
17C5
102
{ACAD_REACTORS
330
C
102
}
330
C
100
AcDbDictionary
281
     1
  3
ASEBlockHierarchyIndexRecord
350
17C6
1001
DCO15
1040
1494058972.562
  0
XRECORD
  5
191C
102
{ACAD_REACTORS
330
C
102
}
330
C
100
AcDbXrecord
280
     1
  1
DWGPROPS COOKIE
  2

  3

  4

  6

  7

  8
Julio
  9

300
=
301
=
302
=
303
=
304
=
305
=
306
=
307
=
308
=
309
=
 40
0.0290968518518519
 41
2453095.532136134
 42
2456146.459704132
  1

 90
        0
  0
XRECORD
  5
18F4
102
{ACAD_REACTORS
330
18F3
102
}
330
18F3
100
AcDbXrecord
280
     1
290
     1
  0
XRECORD
  5
18F6
102
{ACAD_REACTORS
330
18F5
102
}
330
18F5
100
AcDbXrecord
280
     1
290
     1
  0
XRECORD
  5
18F8
102
{ACAD_REACTORS
330
18F7
102
}
330
18F7
100
AcDbXrecord
280
     1
290
     1
  0
XRECORD
  5
18FA
102
{ACAD_REACTORS
330
18F9
102
}
330
18F9
100
AcDbXrecord
280
     1
290
     1
  0
XRECORD
  5
18FC
102
{ACAD_REACTORS
330
18FB
102
}
330
18FB
100
AcDbXrecord
280
     1
290
     1
  0
XRECORD
  5
18FE
102
{ACAD_REACTORS
330
18FD
102
}
330
18FD
100
AcDbXrecord
280
     1
290
     1
  0
XRECORD
  5
1900
102
{ACAD_REACTORS
330
18FF
102
}
330
18FF
100
AcDbXrecord
280
     1
290
     1
  0
XRECORD
  5
1902
102
{ACAD_REACTORS
330
1901
102
}
330
1901
100
AcDbXrecord
280
     1
290
     1
  0
XRECORD
  5
1904
102
{ACAD_REACTORS
330
1903
102
}
330
1903
100
AcDbXrecord
280
     1
290
     1
  0
XRECORD
  5
1906
102
{ACAD_REACTORS
330
1905
102
}
330
1905
100
AcDbXrecord
280
     1
290
     1
  0
XRECORD
  5
1908
102
{ACAD_REACTORS
330
1907
102
}
330
1907
100
AcDbXrecord
280
     1
290
     1
  0
XRECORD
  5
190A
102
{ACAD_REACTORS
330
1909
102
}
330
1909
100
AcDbXrecord
280
     1
290
     1
  0
XRECORD
  5
190C
102
{ACAD_REACTORS
330
190B
102
}
330
190B
100
AcDbXrecord
280
     1
290
     1
  0
XRECORD
  5
190E
102
{ACAD_REACTORS
330
190D
102
}
330
190D
100
AcDbXrecord
280
     1
290
     1
  0
XRECORD
  5
1910
102
{ACAD_REACTORS
330
190F
102
}
330
190F
100
AcDbXrecord
280
     1
290
     1
  0
XRECORD
  5
1912
102
{ACAD_REACTORS
330
1911
102
}
330
1911
100
AcDbXrecord
280
     1
290
     1
  0
LAYOUT
  5
1E
102
{ACAD_XDICTIONARY
360
191D
102
}
102
{ACAD_REACTORS
330
1A
102
}
330
1A
100
AcDbPlotSettings
  1

  2
Ploter HP500
  4

  6

 40
0.0
 41
0.0
 42
0.0
 43
0.0
 44
0.0
 45
0.0
 46
0.0
 47
0.0
 48
0.0
 49
0.0
140
0.0
141
0.0
142
1.0
143
1.0
 70
   688
 72
     0
 73
     0
 74
     5
  7
monochrome.ctb
 75
    16
147
1.0
148
0.0
149
0.0
100
AcDbLayout
  1
Layout1
 70
     1
 71
     1
 10
0.0
 20
0.0
 11
420.0
 21
297.0
 12
0.0
 22
0.0
 32
0.0
 14
1.000000000000000E+20
 24
1.000000000000000E+20
 34
1.000000000000000E+20
 15
-1.000000000000000E+20
 25
-1.000000000000000E+20
 35
-1.000000000000000E+20
146
0.0
 13
0.0
 23
0.0
 33
0.0
 16
1.0
 26
0.0
 36
0.0
 17
0.0
 27
1.0
 37
0.0
 76
     0
330
1B
  0
LAYOUT
  5
26
102
{ACAD_XDICTIONARY
360
1921
102
}
102
{ACAD_REACTORS
330
1A
102
}
330
1A
100
AcDbPlotSettings
  1

  2
Ploter HP500
  4

  6

 40
0.0
 41
0.0
 42
0.0
 43
0.0
 44
0.0
 45
0.0
 46
0.0
 47
0.0
 48
0.0
 49
0.0
140
0.0
141
0.0
142
1.0
143
1.0
 70
   688
 72
     0
 73
     0
 74
     5
  7
monochrome.ctb
 75
    16
147
1.0
148
0.0
149
0.0
100
AcDbLayout
  1
Layout2
 70
     1
 71
     2
 10
0.0
 20
0.0
 11
12.0
 21
9.0
 12
0.0
 22
0.0
 32
0.0
 14
0.0
 24
0.0
 34
0.0
 15
0.0
 25
0.0
 35
0.0
146
0.0
 13
0.0
 23
0.0
 33
0.0
 16
1.0
 26
0.0
 36
0.0
 17
0.0
 27
1.0
 37
0.0
 76
     0
330
23
  0
LAYOUT
  5
22
102
{ACAD_XDICTIONARY
360
191F
102
}
102
{ACAD_REACTORS
330
1A
102
}
330
1A
100
AcDbPlotSettings
  1

  2
Ploter HP500
  4
User268
  6

 40
4.995333194732666
 41
16.97565841674804
 42
4.995330810546875
 43
16.97567749023437
 44
209.9733276367187
 45
296.9259948730469
 46
0.0
 47
0.0
 48
0.0
 49
0.0
140
0.0
141
0.0
142
1.0
143
1.0
 70
 11952
 72
     1
 73
     1
 74
     0
  7

 75
     0
147
1.0
148
-427.5957866592534
149
7.362384574453926
100
AcDbLayout
  1
Model
 70
     1
 71
     0
 10
0.0
 20
0.0
 11
12.0
 21
9.0
 12
0.0
 22
0.0
 32
0.0
 14
0.0
 24
0.0
 34
0.0
 15
0.0
 25
0.0
 35
0.0
146
0.0
 13
0.0
 23
0.0
 33
0.0
 16
1.0
 26
0.0
 36
0.0
 17
0.0
 27
1.0
 37
0.0
 76
     0
330
1F
331
18A8
  0
MATERIAL
  5
18B3
102
{ACAD_XDICTIONARY
360
18B4
102
}
102
{ACAD_REACTORS
330
18AA
102
}
330
18AA
100
AcDbMaterial
  1
ByBlock
 72
     0
 43
0.0008202099737533
 43
0.0
 43
0.0
 43
0.0
 43
0.0
 43
0.0008202099737533
 43
0.0
 43
0.0
 43
0.0
 43
0.0
 43
1.0
 43
0.0
 43
0.0
 43
0.0
 43
0.0
 43
1.0
 77
     0
 47
0.0008202099737533
 47
0.0
 47
0.0
 47
0.0
 47
0.0
 47
0.0008202099737533
 47
0.0
 47
0.0
 47
0.0
 47
0.0
 47
1.0
 47
0.0
 47
0.0
 47
0.0
 47
0.0
 47
1.0
171
     0
 49
0.0008202099737533
 49
0.0
 49
0.0
 49
0.0
 49
0.0
 49
0.0008202099737533
 49
0.0
 49
0.0
 49
0.0
 49
0.0
 49
1.0
 49
0.0
 49
0.0
 49
0.0
 49
0.0
 49
1.0
175
     0
142
0.0008202099737533
142
0.0
142
0.0
142
0.0
142
0.0
142
0.0008202099737533
142
0.0
142
0.0
142
0.0
142
0.0
142
1.0
142
0.0
142
0.0
142
0.0
142
0.0
142
1.0
179
     0
144
0.0008202099737533
144
0.0
144
0.0
144
0.0
144
0.0
144
0.0008202099737533
144
0.0
144
0.0
144
0.0
144
0.0
144
1.0
144
0.0
144
0.0
144
0.0
144
0.0
144
1.0
147
0.0008202099737533
147
0.0
147
0.0
147
0.0
147
0.0
147
0.0008202099737533
147
0.0
147
0.0
147
0.0
147
0.0
147
1.0
147
0.0
147
0.0
147
0.0
147
0.0
147
1.0
  0
MATERIAL
  5
18AB
102
{ACAD_XDICTIONARY
360
18AC
102
}
102
{ACAD_REACTORS
330
18AA
102
}
330
18AA
100
AcDbMaterial
  1
ByLayer
 72
     0
 43
0.0008202099737533
 43
0.0
 43
0.0
 43
0.0
 43
0.0
 43
0.0008202099737533
 43
0.0
 43
0.0
 43
0.0
 43
0.0
 43
1.0
 43
0.0
 43
0.0
 43
0.0
 43
0.0
 43
1.0
 77
     0
 47
0.0008202099737533
 47
0.0
 47
0.0
 47
0.0
 47
0.0
 47
0.0008202099737533
 47
0.0
 47
0.0
 47
0.0
 47
0.0
 47
1.0
 47
0.0
 47
0.0
 47
0.0
 47
0.0
 47
1.0
171
     0
 49
0.0008202099737533
 49
0.0
 49
0.0
 49
0.0
 49
0.0
 49
0.0008202099737533
 49
0.0
 49
0.0
 49
0.0
 49
0.0
 49
1.0
 49
0.0
 49
0.0
 49
0.0
 49
0.0
 49
1.0
175
     0
142
0.0008202099737533
142
0.0
142
0.0
142
0.0
142
0.0
142
0.0008202099737533
142
0.0
142
0.0
142
0.0
142
0.0
142
1.0
142
0.0
142
0.0
142
0.0
142
0.0
142
1.0
179
     0
144
0.0008202099737533
144
0.0
144
0.0
144
0.0
144
0.0
144
0.0008202099737533
144
0.0
144
0.0
144
0.0
144
0.0
144
1.0
144
0.0
144
0.0
144
0.0
144
0.0
144
1.0
147
0.0008202099737533
147
0.0
147
0.0
147
0.0
147
0.0
147
0.0008202099737533
147
0.0
147
0.0
147
0.0
147
0.0
147
1.0
147
0.0
147
0.0
147
0.0
147
0.0
147
1.0
  0
MATERIAL
  5
18BB
102
{ACAD_XDICTIONARY
360
18BC
102
}
102
{ACAD_REACTORS
330
18AA
102
}
330
18AA
100
AcDbMaterial
  1
Global
 72
     0
 43
0.0008202099737533
 43
0.0
 43
0.0
 43
0.0
 43
0.0
 43
0.0008202099737533
 43
0.0
 43
0.0
 43
0.0
 43
0.0
 43
1.0
 43
0.0
 43
0.0
 43
0.0
 43
0.0
 43
1.0
 77
     0
 47
0.0008202099737533
 47
0.0
 47
0.0
 47
0.0
 47
0.0
 47
0.0008202099737533
 47
0.0
 47
0.0
 47
0.0
 47
0.0
 47
1.0
 47
0.0
 47
0.0
 47
0.0
 47
0.0
 47
1.0
171
     0
 49
0.0008202099737533
 49
0.0
 49
0.0
 49
0.0
 49
0.0
 49
0.0008202099737533
 49
0.0
 49
0.0
 49
0.0
 49
0.0
 49
1.0
 49
0.0
 49
0.0
 49
0.0
 49
0.0
 49
1.0
175
     0
142
0.0008202099737533
142
0.0
142
0.0
142
0.0
142
0.0
142
0.0008202099737533
142
0.0
142
0.0
142
0.0
142
0.0
142
1.0
142
0.0
142
0.0
142
0.0
142
0.0
142
1.0
179
     0
144
0.0008202099737533
144
0.0
144
0.0
144
0.0
144
0.0
144
0.0008202099737533
144
0.0
144
0.0
144
0.0
144
0.0
144
1.0
144
0.0
144
0.0
144
0.0
144
0.0
144
1.0
147
0.0008202099737533
147
0.0
147
0.0
147
0.0
147
0.0
147
0.0008202099737533
147
0.0
147
0.0
147
0.0
147
0.0
147
1.0
147
0.0
147
0.0
147
0.0
147
0.0
147
1.0
  0
MLEADERSTYLE
  5
18ED
102
{ACAD_REACTORS
330
18EC
102
}
330
18EC
100
AcDbMLeaderStyle
170
     2
171
     1
172
     0
 90
        2
 40
0.0
 41
0.0
173
     1
 91
-1056964608
340
14
 92
       -2
290
     1
 42
2.0
291
     1
 43
0.36
  3
Standard
 44
4.0
300

342
11
174
     1
178
     6
175
     1
176
     0
 93
-1056964608
 45
4.0
292
     0
297
     0
 46
4.0
 94
-1056964608
 47
1.0
 49
1.0
140
1.0
293
     1
141
0.0
294
     1
177
     0
142
1.0
295
     0
296
     0
143
0.125
1001
ACAD_MLEADERVER
1070
     2
  0
MLINESTYLE
  5
18
102
{ACAD_REACTORS
330
17
102
}
330
17
100
AcDbMlineStyle
  2
STANDARD
 70
     0
  3

 62
   256
 51
90.0
 52
90.0
 71
     2
 49
0.5
 62
   256
  6
BYLAYER
 49
-0.5
 62
   256
  6
BYLAYER
  0
ACDBPLACEHOLDER
  5
F
102
{ACAD_REACTORS
330
E
102
}
330
E
  0
SCALE
  5
18DB
102
{ACAD_REACTORS
330
18DA
102
}
330
18DA
100
AcDbScale
 70
     0
300
1:1
140
1.0
141
1.0
290
     1
  0
SCALE
  5
18DC
102
{ACAD_REACTORS
330
18DA
102
}
330
18DA
100
AcDbScale
 70
     0
300
1:2
140
1.0
141
2.0
290
     0
  0
SCALE
  5
18DD
102
{ACAD_REACTORS
330
18DA
102
}
330
18DA
100
AcDbScale
 70
     0
300
1:4
140
1.0
141
4.0
290
     0
  0
SCALE
  5
18DE
102
{ACAD_REACTORS
330
18DA
102
}
330
18DA
100
AcDbScale
 70
     0
300
1:5
140
1.0
141
5.0
290
     0
  0
SCALE
  5
18DF
102
{ACAD_REACTORS
330
18DA
102
}
330
18DA
100
AcDbScale
 70
     0
300
1:8
140
1.0
141
8.0
290
     0
  0
SCALE
  5
18E0
102
{ACAD_REACTORS
330
18DA
102
}
330
18DA
100
AcDbScale
 70
     0
300
1:10
140
1.0
141
10.0
290
     0
  0
SCALE
  5
18E1
102
{ACAD_REACTORS
330
18DA
102
}
330
18DA
100
AcDbScale
 70
     0
300
1:16
140
1.0
141
16.0
290
     0
  0
SCALE
  5
18E2
102
{ACAD_REACTORS
330
18DA
102
}
330
18DA
100
AcDbScale
 70
     0
300
1:20
140
1.0
141
20.0
290
     0
  0
SCALE
  5
18E3
102
{ACAD_REACTORS
330
18DA
102
}
330
18DA
100
AcDbScale
 70
     0
300
1:30
140
1.0
141
30.0
290
     0
  0
SCALE
  5
18E4
102
{ACAD_REACTORS
330
18DA
102
}
330
18DA
100
AcDbScale
 70
     0
300
1:40
140
1.0
141
40.0
290
     0
  0
SCALE
  5
18E5
102
{ACAD_REACTORS
330
18DA
102
}
330
18DA
100
AcDbScale
 70
     0
300
1:50
140
1.0
141
50.0
290
     0
  0
SCALE
  5
18E6
102
{ACAD_REACTORS
330
18DA
102
}
330
18DA
100
AcDbScale
 70
     0
300
1:100
140
1.0
141
100.0
290
     0
  0
SCALE
  5
18E7
102
{ACAD_REACTORS
330
18DA
102
}
330
18DA
100
AcDbScale
 70
     0
300
2:1
140
2.0
141
1.0
290
     0
  0
SCALE
  5
18E8
102
{ACAD_REACTORS
330
18DA
102
}
330
18DA
100
AcDbScale
 70
     0
300
4:1
140
4.0
141
1.0
290
     0
  0
SCALE
  5
18E9
102
{ACAD_REACTORS
330
18DA
102
}
330
18DA
100
AcDbScale
 70
     0
300
8:1
140
8.0
141
1.0
290
     0
  0
SCALE
  5
18EA
102
{ACAD_REACTORS
330
18DA
102
}
330
18DA
100
AcDbScale
 70
     0
300
10:1
140
10.0
141
1.0
290
     0
  0
SCALE
  5
18EB
102
{ACAD_REACTORS
330
18DA
102
}
330
18DA
100
AcDbScale
 70
     0
300
100:1
140
100.0
141
1.0
290
     0
  0
TABLESTYLE
  5
18D9
102
{ACAD_XDICTIONARY
360
1919
102
}
102
{ACAD_REACTORS
330
18D8
102
}
330
18D8
100
AcDbTableStyle
  3
Standard
 70
     0
 71
     0
 40
1.5
 41
1.5
280
     0
281
     0
  7
Standard
140
4.5
170
     2
 62
     0
 63
     7
283
     0
274
    -2
284
     1
 64
     0
275
    -2
285
     1
 65
     0
276
    -2
286
     1
 66
     0
277
    -2
287
     1
 67
     0
278
    -2
288
     1
 68
     0
279
    -2
289
     1
 69
     0
  7
Standard
140
6.0
170
     5
 62
     0
 63
     7
283
     0
274
    -2
284
     1
 64
     0
275
    -2
285
     1
 65
     0
276
    -2
286
     1
 66
     0
277
    -2
287
     1
 67
     0
278
    -2
288
     1
 68
     0
279
    -2
289
     1
 69
     0
  7
Standard
140
4.5
170
     5
 62
     0
 63
     7
283
     0
274
    -2
284
     1
 64
     0
275
    -2
285
     1
 65
     0
276
    -2
286
     1
 66
     0
277
    -2
287
     1
 67
     0
278
    -2
288
     1
 68
     0
279
    -2
289
     1
 69
     0
  0
VISUALSTYLE
  5
18C9
102
{ACAD_XDICTIONARY
360
1938
102
}
102
{ACAD_REACTORS
330
18C3
102
}
330
18C3
100
AcDbVisualStyle
  2
2dWireframe
 70
     4
 71
     0
 72
     2
 73
     0
 90
        0
 40
-0.6
 41
-30.0
 62
     5
 63
     7
 74
     1
 91
        4
 64
     7
 65
   257
 75
     1
175
     1
 42
1.0
 92
        0
 66
   257
 43
1.0
 76
     1
 77
     6
 78
     2
 67
     7
 79
     5
170
     0
171
     0
290
     0
174
     0
 93
        1
 44
0.0
173
     0
291
     0
 45
0.0
1001
ACAD
1000
AcDbSavedByObjectVersion
1070
     0
  0
VISUALSTYLE
  5
18CB
102
{ACAD_XDICTIONARY
360
193C
102
}
102
{ACAD_REACTORS
330
18C3
102
}
330
18C3
100
AcDbVisualStyle
  2
3D Hidden
 70
     6
 71
     1
 72
     2
 73
     2
 90
        0
 40
-0.6
 41
-30.0
 62
     5
 63
     7
 74
     2
 91
        2
 64
     7
 65
   257
 75
     2
175
     1
 42
179.0
 92
        0
 66
   257
 43
1.0
 76
     1
 77
     6
 78
     2
 67
     7
 79
     3
170
     0
171
     0
290
     0
174
     0
 93
        1
 44
0.0
173
     0
291
     0
 45
0.0
1001
ACAD
1000
AcDbSavedByObjectVersion
1070
     0
  0
VISUALSTYLE
  5
18CA
102
{ACAD_XDICTIONARY
360
193A
102
}
102
{ACAD_REACTORS
330
18C3
102
}
330
18C3
100
AcDbVisualStyle
  2
3dWireframe
 70
     5
 71
     0
 72
     2
 73
     0
 90
        0
 40
-0.6
 41
-30.0
 62
     5
 63
     7
 74
     1
 91
        4
 64
     7
 65
   257
 75
     1
175
     1
 42
1.0
 92
        0
 66
   257
 43
1.0
 76
     1
 77
     6
 78
     2
 67
     7
 79
     5
170
     0
171
     0
290
     0
174
     0
 93
        1
 44
0.0
173
     0
291
     0
 45
0.0
1001
ACAD
1000
AcDbSavedByObjectVersion
1070
     0
  0
VISUALSTYLE
  5
18C8
102
{ACAD_XDICTIONARY
360
1936
102
}
102
{ACAD_REACTORS
330
18C3
102
}
330
18C3
100
AcDbVisualStyle
  2
Basic
 70
     7
 71
     1
 72
     0
 73
     1
 90
        0
 40
-0.6
 41
-30.0
 62
     5
 63
     7
 74
     0
 91
        4
 64
     7
 65
   257
 75
     1
175
     1
 42
1.0
 92
        8
 66
     7
 43
1.0
 76
     1
 77
     6
 78
     2
 67
     7
 79
     5
170
     0
171
     0
290
     0
174
     0
 93
        1
 44
0.0
173
     0
291
     1
 45
0.0
1001
ACAD
1000
AcDbSavedByObjectVersion
1070
     0
  0
VISUALSTYLE
  5
18CF
102
{ACAD_XDICTIONARY
360
1944
102
}
102
{ACAD_REACTORS
330
18C3
102
}
330
18C3
100
AcDbVisualStyle
  2
Brighten
 70
    12
 71
     2
 72
     2
 73
     0
 90
        0
 40
-0.6
 41
-30.0
 62
     5
 63
     7
 74
     1
 91
        4
 64
     7
 65
   257
 75
     1
175
     1
 42
1.0
 92
        8
 66
     7
 43
1.0
 76
     1
 77
     6
 78
     2
 67
     7
 79
     5
170
     0
171
     0
290
     0
174
     0
 93
        1
 44
50.0
173
     0
291
     1
 45
0.0
1001
ACAD
1000
AcDbSavedByObjectVersion
1070
     0
  0
VISUALSTYLE
  5
18D3
102
{ACAD_XDICTIONARY
360
194C
102
}
102
{ACAD_REACTORS
330
18C3
102
}
330
18C3
100
AcDbVisualStyle
  2
ColorChange
 70
    16
 71
     2
 72
     2
 73
     3
 90
        0
 40
-0.6
 41
-30.0
 62
     5
 63
     8
 74
     1
 91
        4
 64
     7
 65
   257
 75
     1
175
     1
 42
1.0
 92
        8
 66
     8
 43
1.0
 76
     1
 77
     6
 78
     2
 67
     7
 79
     5
170
     0
171
     0
290
     0
174
     0
 93
        1
 44
0.0
173
     0
291
     1
 45
0.0
1001
ACAD
1000
AcDbSavedByObjectVersion
1070
     0
  0
VISUALSTYLE
  5
18CC
102
{ACAD_XDICTIONARY
360
193E
102
}
102
{ACAD_REACTORS
330
18C3
102
}
330
18C3
100
AcDbVisualStyle
  2
Conceptual
 70
     9
 71
     3
 72
     2
 73
     0
 90
        0
 40
-0.6
 41
-30.0
 62
     5
 63
     7
 74
     2
 91
        2
 64
     7
 65
   257
 75
     1
175
     1
 42
179.0
 92
        8
 66
     7
 43
1.0
 76
     1
 77
     6
 78
     2
 67
     7
 79
     3
170
     0
171
     0
290
     0
174
     0
 93
        1
 44
0.0
173
     0
291
     0
 45
0.0
1001
ACAD
1000
AcDbSavedByObjectVersion
1070
     0
  0
VISUALSTYLE
  5
18CE
102
{ACAD_XDICTIONARY
360
1942
102
}
102
{ACAD_REACTORS
330
18C3
102
}
330
18C3
100
AcDbVisualStyle
  2
Dim
 70
    11
 71
     2
 72
     2
 73
     0
 90
        0
 40
-0.6
 41
-30.0
 62
     5
 63
     7
 74
     1
 91
        4
 64
     7
 65
   257
 75
     1
175
     1
 42
1.0
 92
        8
 66
     7
 43
1.0
 76
     1
 77
     6
 78
     2
 67
     7
 79
     5
170
     0
171
     0
290
     0
174
     0
 93
        1
 44
-50.0
173
     0
291
     1
 45
0.0
1001
ACAD
1000
AcDbSavedByObjectVersion
1070
     0
  0
VISUALSTYLE
  5
18D6
102
{ACAD_XDICTIONARY
360
1952
102
}
102
{ACAD_REACTORS
330
18C3
102
}
330
18C3
100
AcDbVisualStyle
  2
EdgeColorOff
 70
    22
 71
     2
 72
     2
 73
     0
 90
        0
 40
-0.6
 41
-30.0
 62
     5
 63
     7
 74
     1
 91
        4
 64
     7
 65
   257
 75
     1
175
     1
 42
1.0
 92
        8
 66
     7
 43
1.0
 76
     1
 77
     6
 78
     2
 67
     7
 79
     5
170
     0
171
     0
290
     0
174
     0
 93
        1
 44
0.0
173
     0
291
     1
 45
0.0
1001
ACAD
1000
AcDbSavedByObjectVersion
1070
     0
  0
VISUALSTYLE
  5
18D2
102
{ACAD_XDICTIONARY
360
194A
102
}
102
{ACAD_REACTORS
330
18C3
102
}
330
18C3
100
AcDbVisualStyle
  2
Facepattern
 70
    15
 71
     2
 72
     2
 73
     0
 90
        0
 40
-0.6
 41
-30.0
 62
     5
 63
     7
 74
     1
 91
        4
 64
     7
 65
   257
 75
     1
175
     1
 42
1.0
 92
        8
 66
     7
 43
1.0
 76
     1
 77
     6
 78
     2
 67
     7
 79
     5
170
     0
171
     0
290
     0
174
     0
 93
        1
 44
0.0
173
     0
291
     1
 45
0.0
1001
ACAD
1000
AcDbSavedByObjectVersion
1070
     0
  0
VISUALSTYLE
  5
18C4
102
{ACAD_XDICTIONARY
360
192E
102
}
102
{ACAD_REACTORS
330
18C3
102
}
330
18C3
100
AcDbVisualStyle
  2
Flat
 70
     0
 71
     2
 72
     1
 73
     1
 90
        2
 40
-0.6
 41
30.0
 62
     5
 63
     7
 74
     0
 91
        4
 64
     7
 65
   257
 75
     1
175
     1
 42
1.0
 92
        8
 66
     7
 43
1.0
 76
     1
 77
     6
 78
     2
 67
     7
 79
     5
170
     0
171
     0
290
     0
174
     0
 93
       13
 44
0.0
173
     0
291
     1
 45
0.0
1001
ACAD
1000
AcDbSavedByObjectVersion
1070
     0
  0
VISUALSTYLE
  5
18C5
102
{ACAD_XDICTIONARY
360
1930
102
}
102
{ACAD_REACTORS
330
18C3
102
}
330
18C3
100
AcDbVisualStyle
  2
FlatWithEdges
 70
     1
 71
     2
 72
     1
 73
     1
 90
        2
 40
-0.6
 41
30.0
 62
     5
 63
     7
 74
     1
 91
        4
 64
     7
 65
   257
 75
     1
175
     1
 42
1.0
 92
        0
 66
   257
 43
1.0
 76
     1
 77
     6
 78
     2
 67
     7
 79
     5
170
     0
171
     0
290
     0
174
     0
 93
       13
 44
0.0
173
     0
291
     1
 45
0.0
1001
ACAD
1000
AcDbSavedByObjectVersion
1070
     0
  0
VISUALSTYLE
  5
18C6
102
{ACAD_XDICTIONARY
360
1932
102
}
102
{ACAD_REACTORS
330
18C3
102
}
330
18C3
100
AcDbVisualStyle
  2
Gouraud
 70
     2
 71
     2
 72
     2
 73
     1
 90
        2
 40
-0.6
 41
30.0
 62
     5
 63
     7
 74
     0
 91
        4
 64
     7
 65
   257
 75
     1
175
     1
 42
1.0
 92
        0
 66
     7
 43
1.0
 76
     1
 77
     6
 78
     2
 67
     7
 79
     5
170
     0
171
     0
290
     0
174
     0
 93
       13
 44
0.0
173
     0
291
     1
 45
0.0
1001
ACAD
1000
AcDbSavedByObjectVersion
1070
     0
  0
VISUALSTYLE
  5
18C7
102
{ACAD_XDICTIONARY
360
1934
102
}
102
{ACAD_REACTORS
330
18C3
102
}
330
18C3
100
AcDbVisualStyle
  2
GouraudWithEdges
 70
     3
 71
     2
 72
     2
 73
     1
 90
        2
 40
-0.6
 41
30.0
 62
     5
 63
     7
 74
     1
 91
        4
 64
     7
 65
   257
 75
     1
175
     1
 42
1.0
 92
        0
 66
   257
 43
1.0
 76
     1
 77
     6
 78
     2
 67
     7
 79
     5
170
     0
171
     0
290
     0
174
     0
 93
       13
 44
0.0
173
     0
291
     1
 45
0.0
1001
ACAD
1000
AcDbSavedByObjectVersion
1070
     0
  0
VISUALSTYLE
  5
18D4
102
{ACAD_XDICTIONARY
360
194E
102
}
102
{ACAD_REACTORS
330
18C3
102
}
330
18C3
100
AcDbVisualStyle
  2
JitterOff
 70
    20
 71
     2
 72
     2
 73
     0
 90
        0
 40
-0.6
 41
-30.0
 62
     5
 63
     7
 74
     1
 91
        4
 64
     7
 65
   257
 75
     1
175
     1
 42
1.0
 92
       10
 66
     7
 43
1.0
 76
     1
 77
     6
 78
     2
 67
     7
 79
     5
170
     0
171
     0
290
     0
174
     0
 93
        1
 44
0.0
173
     0
291
     1
 45
0.0
1001
ACAD
1000
AcDbSavedByObjectVersion
1070
     0
  0
VISUALSTYLE
  5
18D1
102
{ACAD_XDICTIONARY
360
1948
102
}
102
{ACAD_REACTORS
330
18C3
102
}
330
18C3
100
AcDbVisualStyle
  2
Linepattern
 70
    14
 71
     2
 72
     2
 73
     0
 90
        0
 40
-0.6
 41
-30.0
 62
     5
 63
     7
 74
     1
 91
        4
 64
     7
 65
   257
 75
     7
175
     7
 42
1.0
 92
        8
 66
     7
 43
1.0
 76
     1
 77
     6
 78
     2
 67
     7
 79
     5
170
     0
171
     0
290
     0
174
     0
 93
        1
 44
0.0
173
     0
291
     1
 45
0.0
1001
ACAD
1000
AcDbSavedByObjectVersion
1070
     0
  0
VISUALSTYLE
  5
18D5
102
{ACAD_XDICTIONARY
360
1950
102
}
102
{ACAD_REACTORS
330
18C3
102
}
330
18C3
100
AcDbVisualStyle
  2
OverhangOff
 70
    21
 71
     2
 72
     2
 73
     0
 90
        0
 40
-0.6
 41
-30.0
 62
     5
 63
     7
 74
     1
 91
        4
 64
     7
 65
   257
 75
     1
175
     1
 42
1.0
 92
        9
 66
     7
 43
1.0
 76
     1
 77
     6
 78
     2
 67
     7
 79
     5
170
     0
171
     0
290
     0
174
     0
 93
        1
 44
0.0
173
     0
291
     1
 45
0.0
1001
ACAD
1000
AcDbSavedByObjectVersion
1070
     0
  0
VISUALSTYLE
  5
18CD
102
{ACAD_XDICTIONARY
360
1940
102
}
102
{ACAD_REACTORS
330
18C3
102
}
330
18C3
100
AcDbVisualStyle
  2
Realistic
 70
     8
 71
     2
 72
     2
 73
     0
 90
        0
 40
-0.6
 41
-30.0
 62
     5
 63
     7
 74
     1
 91
        0
 64
     7
 65
   257
 75
     1
175
     1
 42
1.0
 92
        8
 66
     8
 43
1.0
 76
     1
 77
     6
 78
     2
 67
     7
 79
     5
170
     0
171
     0
290
     0
174
     0
 93
       13
 44
0.0
173
     0
291
     0
 45
0.0
1001
ACAD
1000
AcDbSavedByObjectVersion
1070
     0
  0
VISUALSTYLE
  5
18D0
102
{ACAD_XDICTIONARY
360
1946
102
}
102
{ACAD_REACTORS
330
18C3
102
}
330
18C3
100
AcDbVisualStyle
  2
Thicken
 70
    13
 71
     2
 72
     2
 73
     0
 90
        0
 40
-0.6
 41
-30.0
 62
     5
 63
     7
 74
     1
 91
        4
 64
     7
 65
   257
 75
     1
175
     1
 42
1.0
 92
       12
 66
     7
 43
1.0
 76
     1
 77
     6
 78
     2
 67
     7
 79
     5
170
     0
171
     0
290
     0
174
     0
 93
        1
 44
0.0
173
     0
291
     1
 45
0.0
1001
ACAD
1000
AcDbSavedByObjectVersion
1070
     0
  0
DICTIONARYVAR
  5
1915
102
{ACAD_REACTORS
330
3D
102
}
330
3D
100
DictionaryVariables
280
     0
  1
1:1
  0
DICTIONARYVAR
  5
1914
102
{ACAD_REACTORS
330
3D
102
}
330
3D
100
DictionaryVariables
280
     0
  1
STANDARD
  0
DICTIONARYVAR
  5
1913
102
{ACAD_REACTORS
330
3D
102
}
330
3D
100
DictionaryVariables
280
     0
  1
STANDARD
  0
DICTIONARYVAR
  5
3F
102
{ACAD_REACTORS
330
3D
102
}
330
3D
100
DictionaryVariables
280
     0
  1
2
  0
DICTIONARYVAR
  5
3E
102
{ACAD_REACTORS
330
3D
102
}
330
3D
100
DictionaryVariables
280
     0
  1
1
  0
DICTIONARYVAR
  5
1917
102
{ACAD_REACTORS
330
3D
102
}
330
3D
100
DictionaryVariables
280
     0
  1
0
  0
DICTIONARYVAR
  5
1916
102
{ACAD_REACTORS
330
3D
102
}
330
3D
100
DictionaryVariables
280
     0
  1
127
  0
DICTIONARYVAR
  5
1918
102
{ACAD_REACTORS
330
3D
102
}
330
3D
100
DictionaryVariables
280
     0
  1
2
  0
XRECORD
  5
17C6
102
{ACAD_REACTORS
330
17C5
102
}
330
17C5
100
AcDbXrecord
280
     1
330
0
330
0
330
0
  0
DICTIONARY
  5
191D
330
1E
100
AcDbDictionary
280
     1
281
     1
  3
ACAD_XREC_ROUNDTRIP
360
191E
  0
DICTIONARY
  5
1921
330
26
100
AcDbDictionary
280
     1
281
     1
  3
ACAD_XREC_ROUNDTRIP
360
1922
  0
DICTIONARY
  5
191F
330
22
100
AcDbDictionary
280
     1
281
     1
  3
ACAD_XREC_ROUNDTRIP
360
1920
  0
DICTIONARY
  5
18B4
330
18B3
100
AcDbDictionary
280
     1
281
     1
  3
ACAD_XREC_ROUNDTRIP
360
192C
  3
BUMPTILE
360
18B6
  3
DIFFUSETILE
360
18B5
  3
OPACITYTILE
360
18B9
  3
REFLECTIONTILE
360
18B8
  3
REFRACTIONTILE
360
18BA
  3
SPECULARTILE
360
18B7
  0
DICTIONARY
  5
18AC
330
18AB
100
AcDbDictionary
280
     1
281
     1
  3
ACAD_XREC_ROUNDTRIP
360
192B
  3
BUMPTILE
360
18AE
  3
DIFFUSETILE
360
18AD
  3
OPACITYTILE
360
18B1
  3
REFLECTIONTILE
360
18B0
  3
REFRACTIONTILE
360
18B2
  3
SPECULARTILE
360
18AF
  0
DICTIONARY
  5
18BC
330
18BB
100
AcDbDictionary
280
     1
281
     1
  3
ACAD_XREC_ROUNDTRIP
360
192D
  3
BUMPTILE
360
18BE
  3
DIFFUSETILE
360
18BD
  3
OPACITYTILE
360
18C1
  3
REFLECTIONTILE
360
18C0
  3
REFRACTIONTILE
360
18C2
  3
SPECULARTILE
360
18BF
  0
DICTIONARY
  5
1919
330
18D9
100
AcDbDictionary
280
     1
281
     1
  3
ACAD_ROUNDTRIP_2008_TABLESTYLE_CELLSTYLEMAP
360
191A
  3
ACAD_XREC_ROUNDTRIP
360
1954
  0
DICTIONARY
  5
1938
330
18C9
100
AcDbDictionary
280
     1
281
     1
  3
ACAD_XREC_ROUNDTRIP
360
1939
  0
DICTIONARY
  5
193C
330
18CB
100
AcDbDictionary
280
     1
281
     1
  3
ACAD_XREC_ROUNDTRIP
360
193D
  0
DICTIONARY
  5
193A
330
18CA
100
AcDbDictionary
280
     1
281
     1
  3
ACAD_XREC_ROUNDTRIP
360
193B
  0
DICTIONARY
  5
1936
330
18C8
100
AcDbDictionary
280
     1
281
     1
  3
ACAD_XREC_ROUNDTRIP
360
1937
  0
DICTIONARY
  5
1944
330
18CF
100
AcDbDictionary
280
     1
281
     1
  3
ACAD_XREC_ROUNDTRIP
360
1945
  0
DICTIONARY
  5
194C
330
18D3
100
AcDbDictionary
280
     1
281
     1
  3
ACAD_XREC_ROUNDTRIP
360
194D
  0
DICTIONARY
  5
193E
330
18CC
100
AcDbDictionary
280
     1
281
     1
  3
ACAD_XREC_ROUNDTRIP
360
193F
  0
DICTIONARY
  5
1942
330
18CE
100
AcDbDictionary
280
     1
281
     1
  3
ACAD_XREC_ROUNDTRIP
360
1943
  0
DICTIONARY
  5
1952
330
18D6
100
AcDbDictionary
280
     1
281
     1
  3
ACAD_XREC_ROUNDTRIP
360
1953
  0
DICTIONARY
  5
194A
330
18D2
100
AcDbDictionary
280
     1
281
     1
  3
ACAD_XREC_ROUNDTRIP
360
194B
  0
DICTIONARY
  5
192E
330
18C4
100
AcDbDictionary
280
     1
281
     1
  3
ACAD_XREC_ROUNDTRIP
360
192F
  0
DICTIONARY
  5
1930
330
18C5
100
AcDbDictionary
280
     1
281
     1
  3
ACAD_XREC_ROUNDTRIP
360
1931
  0
DICTIONARY
  5
1932
330
18C6
100
AcDbDictionary
280
     1
281
     1
  3
ACAD_XREC_ROUNDTRIP
360
1933
  0
DICTIONARY
  5
1934
330
18C7
100
AcDbDictionary
280
     1
281
     1
  3
ACAD_XREC_ROUNDTRIP
360
1935
  0
DICTIONARY
  5
194E
330
18D4
100
AcDbDictionary
280
     1
281
     1
  3
ACAD_XREC_ROUNDTRIP
360
194F
  0
DICTIONARY
  5
1948
330
18D1
100
AcDbDictionary
280
     1
281
     1
  3
ACAD_XREC_ROUNDTRIP
360
1949
  0
DICTIONARY
  5
1950
330
18D5
100
AcDbDictionary
280
     1
281
     1
  3
ACAD_XREC_ROUNDTRIP
360
1951
  0
DICTIONARY
  5
1940
330
18CD
100
AcDbDictionary
280
     1
281
     1
  3
ACAD_XREC_ROUNDTRIP
360
1941
  0
DICTIONARY
  5
1946
330
18D0
100
AcDbDictionary
280
     1
281
     1
  3
ACAD_XREC_ROUNDTRIP
360
1947
  0
XRECORD
  5
191E
102
{ACAD_REACTORS
330
191D
102
}
330
191D
100
AcDbXrecord
280
     1
102
SHADEPLOT
 70
     0
102
SHADEPLOTRESLEVEL
 70
     2
102
SHADEPLOTCUSTOMDPI
 70
   300
  0
XRECORD
  5
1922
102
{ACAD_REACTORS
330
1921
102
}
330
1921
100
AcDbXrecord
280
     1
102
SHADEPLOT
 70
     0
102
SHADEPLOTRESLEVEL
 70
     2
102
SHADEPLOTCUSTOMDPI
 70
   300
  0
XRECORD
  5
1920
102
{ACAD_REACTORS
330
191F
102
}
330
191F
100
AcDbXrecord
280
     1
102
SHADEPLOT
 70
     0
102
SHADEPLOTRESLEVEL
 70
     2
102
SHADEPLOTCUSTOMDPI
 70
   300
  0
XRECORD
  5
192C
102
{ACAD_REACTORS
330
18B4
102
}
330
18B4
100
AcDbXrecord
280
     1
102
MATERIAL
148
0.0
149
0.0
149
0.0
 93
        0
 94
      127
282
     0
 72
     0
 77
     0
171
     0
175
     0
179
     0
273
     0
  0
XRECORD
  5
18B6
102
{ACAD_REACTORS
330
18B4
102
}
330
18B4
100
AcDbXrecord
280
     1
270
     1
271
     1
  0
XRECORD
  5
18B5
102
{ACAD_REACTORS
330
18B4
102
}
330
18B4
100
AcDbXrecord
280
     1
270
     1
271
     1
  0
XRECORD
  5
18B9
102
{ACAD_REACTORS
330
18B4
102
}
330
18B4
100
AcDbXrecord
280
     1
270
     1
271
     1
  0
XRECORD
  5
18B8
102
{ACAD_REACTORS
330
18B4
102
}
330
18B4
100
AcDbXrecord
280
     1
270
     1
271
     1
  0
XRECORD
  5
18BA
102
{ACAD_REACTORS
330
18B4
102
}
330
18B4
100
AcDbXrecord
280
     1
270
     1
271
     1
  0
XRECORD
  5
18B7
102
{ACAD_REACTORS
330
18B4
102
}
330
18B4
100
AcDbXrecord
280
     1
270
     1
271
     1
  0
XRECORD
  5
192B
102
{ACAD_REACTORS
330
18AC
102
}
330
18AC
100
AcDbXrecord
280
     1
102
MATERIAL
148
0.0
149
0.0
149
0.0
 93
        0
 94
      127
282
     0
 72
     0
 77
     0
171
     0
175
     0
179
     0
273
     0
  0
XRECORD
  5
18AE
102
{ACAD_REACTORS
330
18AC
102
}
330
18AC
100
AcDbXrecord
280
     1
270
     1
271
     1
  0
XRECORD
  5
18AD
102
{ACAD_REACTORS
330
18AC
102
}
330
18AC
100
AcDbXrecord
280
     1
270
     1
271
     1
  0
XRECORD
  5
18B1
102
{ACAD_REACTORS
330
18AC
102
}
330
18AC
100
AcDbXrecord
280
     1
270
     1
271
     1
  0
XRECORD
  5
18B0
102
{ACAD_REACTORS
330
18AC
102
}
330
18AC
100
AcDbXrecord
280
     1
270
     1
271
     1
  0
XRECORD
  5
18B2
102
{ACAD_REACTORS
330
18AC
102
}
330
18AC
100
AcDbXrecord
280
     1
270
     1
271
     1
  0
XRECORD
  5
18AF
102
{ACAD_REACTORS
330
18AC
102
}
330
18AC
100
AcDbXrecord
280
     1
270
     1
271
     1
  0
XRECORD
  5
192D
102
{ACAD_REACTORS
330
18BC
102
}
330
18BC
100
AcDbXrecord
280
     1
102
MATERIAL
148
0.0
149
0.0
149
0.0
 93
        0
 94
      127
282
     0
 72
     0
 77
     0
171
     0
175
     0
179
     0
273
     0
  0
XRECORD
  5
18BE
102
{ACAD_REACTORS
330
18BC
102
}
330
18BC
100
AcDbXrecord
280
     1
270
     1
271
     1
  0
XRECORD
  5
18BD
102
{ACAD_REACTORS
330
18BC
102
}
330
18BC
100
AcDbXrecord
280
     1
270
     1
271
     1
  0
XRECORD
  5
18C1
102
{ACAD_REACTORS
330
18BC
102
}
330
18BC
100
AcDbXrecord
280
     1
270
     1
271
     1
  0
XRECORD
  5
18C0
102
{ACAD_REACTORS
330
18BC
102
}
330
18BC
100
AcDbXrecord
280
     1
270
     1
271
     1
  0
XRECORD
  5
18C2
102
{ACAD_REACTORS
330
18BC
102
}
330
18BC
100
AcDbXrecord
280
     1
270
     1
271
     1
  0
XRECORD
  5
18BF
102
{ACAD_REACTORS
330
18BC
102
}
330
18BC
100
AcDbXrecord
280
     1
270
     1
271
     1
  0
CELLSTYLEMAP
  5
191A
102
{ACAD_REACTORS
330
1919
102
}
330
1919
100
AcDbCellStyleMap
 90
        3
300
CELLSTYLE
  1
TABLEFORMAT_BEGIN
 90
        5
170
     1
 91
        0
 92
    32768
 62
   257
 93
        1
300
CONTENTFORMAT
  1
CONTENTFORMAT_BEGIN
 90
        0
 91
        0
 92
      512
 93
        0
300

 40
0.0
140
1.0
 94
        5
 62
     0
340
11
144
6.0
309
CONTENTFORMAT_END
171
     1
301
MARGIN
  1
CELLMARGIN_BEGIN
 40
1.5
 40
1.5
 40
1.5
 40
1.5
 40
4.5
 40
4.5
309
CELLMARGIN_END
 94
        6
 95
        1
302
GRIDFORMAT
  1
GRIDFORMAT_BEGIN
 90
        0
 91
        1
 62
     0
 92
       -2
340
0
 93
        0
 40
1.125
309
GRIDFORMAT_END
 95
        2
302
GRIDFORMAT
  1
GRIDFORMAT_BEGIN
 90
        0
 91
        1
 62
     0
 92
       -2
340
0
 93
        0
 40
1.125
309
GRIDFORMAT_END
 95
        4
302
GRIDFORMAT
  1
GRIDFORMAT_BEGIN
 90
        0
 91
        1
 62
     0
 92
       -2
340
0
 93
        0
 40
1.125
309
GRIDFORMAT_END
 95
        8
302
GRIDFORMAT
  1
GRIDFORMAT_BEGIN
 90
        0
 91
        1
 62
     0
 92
       -2
340
0
 93
        0
 40
1.125
309
GRIDFORMAT_END
 95
       16
302
GRIDFORMAT
  1
GRIDFORMAT_BEGIN
 90
        0
 91
        1
 62
     0
 92
       -2
340
0
 93
        0
 40
1.125
309
GRIDFORMAT_END
 95
       32
302
GRIDFORMAT
  1
GRIDFORMAT_BEGIN
 90
        0
 91
        1
 62
     0
 92
       -2
340
0
 93
        0
 40
1.125
309
GRIDFORMAT_END
309
TABLEFORMAT_END
  1
CELLSTYLE_BEGIN
 90
        1
 91
        1
300
_TITLE
309
CELLSTYLE_END
300
CELLSTYLE
  1
TABLEFORMAT_BEGIN
 90
        5
170
     1
 91
        0
 92
        0
 62
   257
 93
        1
300
CONTENTFORMAT
  1
CONTENTFORMAT_BEGIN
 90
        0
 91
        0
 92
      512
 93
        0
300

 40
0.0
140
1.0
 94
        5
 62
     0
340
11
144
4.5
309
CONTENTFORMAT_END
171
     1
301
MARGIN
  1
CELLMARGIN_BEGIN
 40
1.5
 40
1.5
 40
1.5
 40
1.5
 40
4.5
 40
4.5
309
CELLMARGIN_END
 94
        6
 95
        1
302
GRIDFORMAT
  1
GRIDFORMAT_BEGIN
 90
        0
 91
        1
 62
     0
 92
       -2
340
0
 93
        0
 40
1.125
309
GRIDFORMAT_END
 95
        2
302
GRIDFORMAT
  1
GRIDFORMAT_BEGIN
 90
        0
 91
        1
 62
     0
 92
       -2
340
0
 93
        0
 40
1.125
309
GRIDFORMAT_END
 95
        4
302
GRIDFORMAT
  1
GRIDFORMAT_BEGIN
 90
        0
 91
        1
 62
     0
 92
       -2
340
0
 93
        0
 40
1.125
309
GRIDFORMAT_END
 95
        8
302
GRIDFORMAT
  1
GRIDFORMAT_BEGIN
 90
        0
 91
        1
 62
     0
 92
       -2
340
0
 93
        0
 40
1.125
309
GRIDFORMAT_END
 95
       16
302
GRIDFORMAT
  1
GRIDFORMAT_BEGIN
 90
        0
 91
        1
 62
     0
 92
       -2
340
0
 93
        0
 40
1.125
309
GRIDFORMAT_END
 95
       32
302
GRIDFORMAT
  1
GRIDFORMAT_BEGIN
 90
        0
 91
        1
 62
     0
 92
       -2
340
0
 93
        0
 40
1.125
309
GRIDFORMAT_END
309
TABLEFORMAT_END
  1
CELLSTYLE_BEGIN
 90
        2
 91
        1
300
_HEADER
309
CELLSTYLE_END
300
CELLSTYLE
  1
TABLEFORMAT_BEGIN
 90
        5
170
     1
 91
        0
 92
        0
 62
   257
 93
        1
300
CONTENTFORMAT
  1
CONTENTFORMAT_BEGIN
 90
        0
 91
        0
 92
      512
 93
        0
300

 40
0.0
140
1.0
 94
        2
 62
     0
340
11
144
4.5
309
CONTENTFORMAT_END
171
     1
301
MARGIN
  1
CELLMARGIN_BEGIN
 40
1.5
 40
1.5
 40
1.5
 40
1.5
 40
4.5
 40
4.5
309
CELLMARGIN_END
 94
        6
 95
        1
302
GRIDFORMAT
  1
GRIDFORMAT_BEGIN
 90
        0
 91
        1
 62
     0
 92
       -2
340
0
 93
        0
 40
1.125
309
GRIDFORMAT_END
 95
        2
302
GRIDFORMAT
  1
GRIDFORMAT_BEGIN
 90
        0
 91
        1
 62
     0
 92
       -2
340
0
 93
        0
 40
1.125
309
GRIDFORMAT_END
 95
        4
302
GRIDFORMAT
  1
GRIDFORMAT_BEGIN
 90
        0
 91
        1
 62
     0
 92
       -2
340
0
 93
        0
 40
1.125
309
GRIDFORMAT_END
 95
        8
302
GRIDFORMAT
  1
GRIDFORMAT_BEGIN
 90
        0
 91
        1
 62
     0
 92
       -2
340
0
 93
        0
 40
1.125
309
GRIDFORMAT_END
 95
       16
302
GRIDFORMAT
  1
GRIDFORMAT_BEGIN
 90
        0
 91
        1
 62
     0
 92
       -2
340
0
 93
        0
 40
1.125
309
GRIDFORMAT_END
 95
       32
302
GRIDFORMAT
  1
GRIDFORMAT_BEGIN
 90
        0
 91
        1
 62
     0
 92
       -2
340
0
 93
        0
 40
1.125
309
GRIDFORMAT_END
309
TABLEFORMAT_END
  1
CELLSTYLE_BEGIN
 90
        3
 91
        2
300
_DATA
309
CELLSTYLE_END
  0
XRECORD
  5
1954
102
{ACAD_REACTORS
330
1919
102
}
330
1919
100
AcDbXrecord
280
     1
102
ACAD_ROUNDTRIP_PRE2007_TABLESTYLE
 90
      512
 91
        0
  1

 92
      512
 93
        0
  2

 94
      512
 95
        0
  3

  0
XRECORD
  5
1939
102
{ACAD_REACTORS
330
1938
102
}
330
1938
100
AcDbXrecord
280
     1
102
RTVSPropertyOp0
 70
     1
102
RTVSPropertyOp1
 70
     1
102
RTVSPropertyOp2
 70
     1
102
RTVSPropertyOp3
 70
     1
102
RTVSPropertyOp4
 70
     1
102
RTVSPropertyOp5
 70
     1
102
RTVSPropertyOp6
 70
     1
102
RTVSPropertyOp7
 70
     1
102
RTVSPropertyOp8
 70
     1
102
RTVSPropertyOp9
 70
     1
102
RTVSPropertyOp10
 70
     1
102
RTVSPropertyOp11
 70
     1
102
RTVSPropertyOp12
 70
     1
102
RTVSPropertyOp13
 70
     1
102
RTVSPropertyOp14
 70
     1
102
RTVSPropertyOp15
 70
     1
102
RTVSPropertyOp16
 70
     1
102
RTVSPropertyOp17
 70
     1
102
RTVSPropertyOp18
 70
     1
102
RTVSPropertyOp19
 70
     1
102
RTVSPropertyOp20
 70
     1
102
RTVSPropertyOp21
 70
     1
102
RTVSPropertyOp22
 70
     1
102
RTVSPropertyOp23
 70
     1
102
RTVSPropertyOp24
 70
     1
102
RTVSPropertyOp25
 70
     1
102
RTVSPropertyOp26
 70
     1
102
RTVSPropertyOp27
 70
     1
  0
XRECORD
  5
193D
102
{ACAD_REACTORS
330
193C
102
}
330
193C
100
AcDbXrecord
280
     1
102
RTVSPropertyOp0
 70
     1
102
RTVSPropertyOp1
 70
     1
102
RTVSPropertyOp2
 70
     1
102
RTVSPropertyOp3
 70
     1
102
RTVSPropertyOp4
 70
     1
102
RTVSPropertyOp5
 70
     1
102
RTVSPropertyOp6
 70
     1
102
RTVSPropertyOp7
 70
     1
102
RTVSPropertyOp8
 70
     1
102
RTVSPropertyOp9
 70
     1
102
RTVSPropertyOp10
 70
     1
102
RTVSPropertyOp11
 70
     1
102
RTVSPropertyOp12
 70
     1
102
RTVSPropertyOp13
 70
     1
102
RTVSPropertyOp14
 70
     1
102
RTVSPropertyOp15
 70
     1
102
RTVSPropertyOp16
 70
     1
102
RTVSPropertyOp17
 70
     1
102
RTVSPropertyOp18
 70
     1
102
RTVSPropertyOp19
 70
     1
102
RTVSPropertyOp20
 70
     1
102
RTVSPropertyOp21
 70
     1
102
RTVSPropertyOp22
 70
     1
102
RTVSPropertyOp23
 70
     1
102
RTVSPropertyOp24
 70
     1
102
RTVSPropertyOp25
 70
     1
102
RTVSPropertyOp26
 70
     1
102
RTVSPropertyOp27
 70
     1
  0
XRECORD
  5
193B
102
{ACAD_REACTORS
330
193A
102
}
330
193A
100
AcDbXrecord
280
     1
102
RTVSPropertyOp0
 70
     1
102
RTVSPropertyOp1
 70
     1
102
RTVSPropertyOp2
 70
     1
102
RTVSPropertyOp3
 70
     1
102
RTVSPropertyOp4
 70
     1
102
RTVSPropertyOp5
 70
     1
102
RTVSPropertyOp6
 70
     1
102
RTVSPropertyOp7
 70
     1
102
RTVSPropertyOp8
 70
     1
102
RTVSPropertyOp9
 70
     1
102
RTVSPropertyOp10
 70
     1
102
RTVSPropertyOp11
 70
     1
102
RTVSPropertyOp12
 70
     1
102
RTVSPropertyOp13
 70
     1
102
RTVSPropertyOp14
 70
     1
102
RTVSPropertyOp15
 70
     1
102
RTVSPropertyOp16
 70
     1
102
RTVSPropertyOp17
 70
     1
102
RTVSPropertyOp18
 70
     1
102
RTVSPropertyOp19
 70
     1
102
RTVSPropertyOp20
 70
     1
102
RTVSPropertyOp21
 70
     1
102
RTVSPropertyOp22
 70
     1
102
RTVSPropertyOp23
 70
     1
102
RTVSPropertyOp24
 70
     1
102
RTVSPropertyOp25
 70
     1
102
RTVSPropertyOp26
 70
     1
102
RTVSPropertyOp27
 70
     1
  0
XRECORD
  5
1937
102
{ACAD_REACTORS
330
1936
102
}
330
1936
100
AcDbXrecord
280
     1
102
RTVSPropertyOp0
 70
     1
102
RTVSPropertyOp1
 70
     1
102
RTVSPropertyOp2
 70
     1
102
RTVSPropertyOp3
 70
     1
102
RTVSPropertyOp4
 70
     1
102
RTVSPropertyOp5
 70
     1
102
RTVSPropertyOp6
 70
     1
102
RTVSPropertyOp7
 70
     1
102
RTVSPropertyOp8
 70
     1
102
RTVSPropertyOp9
 70
     1
102
RTVSPropertyOp10
 70
     1
102
RTVSPropertyOp11
 70
     1
102
RTVSPropertyOp12
 70
     1
102
RTVSPropertyOp13
 70
     1
102
RTVSPropertyOp14
 70
     1
102
RTVSPropertyOp15
 70
     1
102
RTVSPropertyOp16
 70
     1
102
RTVSPropertyOp17
 70
     1
102
RTVSPropertyOp18
 70
     1
102
RTVSPropertyOp19
 70
     1
102
RTVSPropertyOp20
 70
     1
102
RTVSPropertyOp21
 70
     1
102
RTVSPropertyOp22
 70
     1
102
RTVSPropertyOp23
 70
     1
102
RTVSPropertyOp24
 70
     1
102
RTVSPropertyOp25
 70
     1
102
RTVSPropertyOp26
 70
     1
102
RTVSPropertyOp27
 70
     1
  0
XRECORD
  5
1945
102
{ACAD_REACTORS
330
1944
102
}
330
1944
100
AcDbXrecord
280
     1
102
RTVSPropertyOp0
 70
     1
102
RTVSPropertyOp1
 70
     1
102
RTVSPropertyOp2
 70
     1
102
RTVSPropertyOp3
 70
     1
102
RTVSPropertyOp4
 70
     1
102
RTVSPropertyOp5
 70
     1
102
RTVSPropertyOp6
 70
     1
102
RTVSPropertyOp7
 70
     1
102
RTVSPropertyOp8
 70
     1
102
RTVSPropertyOp9
 70
     1
102
RTVSPropertyOp10
 70
     1
102
RTVSPropertyOp11
 70
     1
102
RTVSPropertyOp12
 70
     1
102
RTVSPropertyOp13
 70
     1
102
RTVSPropertyOp14
 70
     1
102
RTVSPropertyOp15
 70
     1
102
RTVSPropertyOp16
 70
     1
102
RTVSPropertyOp17
 70
     1
102
RTVSPropertyOp18
 70
     1
102
RTVSPropertyOp19
 70
     1
102
RTVSPropertyOp20
 70
     1
102
RTVSPropertyOp21
 70
     1
102
RTVSPropertyOp22
 70
     1
102
RTVSPropertyOp23
 70
     1
102
RTVSPropertyOp24
 70
     1
102
RTVSPropertyOp25
 70
     1
102
RTVSPropertyOp26
 70
     1
102
RTVSPropertyOp27
 70
     1
  0
XRECORD
  5
194D
102
{ACAD_REACTORS
330
194C
102
}
330
194C
100
AcDbXrecord
280
     1
102
RTVSPropertyOp0
 70
     1
102
RTVSPropertyOp1
 70
     1
102
RTVSPropertyOp2
 70
     1
102
RTVSPropertyOp3
 70
     1
102
RTVSPropertyOp4
 70
     1
102
RTVSPropertyOp5
 70
     1
102
RTVSPropertyOp6
 70
     1
102
RTVSPropertyOp7
 70
     1
102
RTVSPropertyOp8
 70
     1
102
RTVSPropertyOp9
 70
     1
102
RTVSPropertyOp10
 70
     1
102
RTVSPropertyOp11
 70
     1
102
RTVSPropertyOp12
 70
     1
102
RTVSPropertyOp13
 70
     1
102
RTVSPropertyOp14
 70
     1
102
RTVSPropertyOp15
 70
     1
102
RTVSPropertyOp16
 70
     1
102
RTVSPropertyOp17
 70
     1
102
RTVSPropertyOp18
 70
     1
102
RTVSPropertyOp19
 70
     1
102
RTVSPropertyOp20
 70
     1
102
RTVSPropertyOp21
 70
     1
102
RTVSPropertyOp22
 70
     1
102
RTVSPropertyOp23
 70
     1
102
RTVSPropertyOp24
 70
     1
102
RTVSPropertyOp25
 70
     1
102
RTVSPropertyOp26
 70
     1
102
RTVSPropertyOp27
 70
     1
  0
XRECORD
  5
193F
102
{ACAD_REACTORS
330
193E
102
}
330
193E
100
AcDbXrecord
280
     1
102
RTVSPropertyOp0
 70
     1
102
RTVSPropertyOp1
 70
     1
102
RTVSPropertyOp2
 70
     1
102
RTVSPropertyOp3
 70
     1
102
RTVSPropertyOp4
 70
     1
102
RTVSPropertyOp5
 70
     1
102
RTVSPropertyOp6
 70
     1
102
RTVSPropertyOp7
 70
     1
102
RTVSPropertyOp8
 70
     1
102
RTVSPropertyOp9
 70
     1
102
RTVSPropertyOp10
 70
     1
102
RTVSPropertyOp11
 70
     1
102
RTVSPropertyOp12
 70
     1
102
RTVSPropertyOp13
 70
     1
102
RTVSPropertyOp14
 70
     1
102
RTVSPropertyOp15
 70
     1
102
RTVSPropertyOp16
 70
     1
102
RTVSPropertyOp17
 70
     1
102
RTVSPropertyOp18
 70
     1
102
RTVSPropertyOp19
 70
     1
102
RTVSPropertyOp20
 70
     1
102
RTVSPropertyOp21
 70
     1
102
RTVSPropertyOp22
 70
     1
102
RTVSPropertyOp23
 70
     1
102
RTVSPropertyOp24
 70
     1
102
RTVSPropertyOp25
 70
     1
102
RTVSPropertyOp26
 70
     1
102
RTVSPropertyOp27
 70
     1
  0
XRECORD
  5
1943
102
{ACAD_REACTORS
330
1942
102
}
330
1942
100
AcDbXrecord
280
     1
102
RTVSPropertyOp0
 70
     1
102
RTVSPropertyOp1
 70
     1
102
RTVSPropertyOp2
 70
     1
102
RTVSPropertyOp3
 70
     1
102
RTVSPropertyOp4
 70
     1
102
RTVSPropertyOp5
 70
     1
102
RTVSPropertyOp6
 70
     1
102
RTVSPropertyOp7
 70
     1
102
RTVSPropertyOp8
 70
     1
102
RTVSPropertyOp9
 70
     1
102
RTVSPropertyOp10
 70
     1
102
RTVSPropertyOp11
 70
     1
102
RTVSPropertyOp12
 70
     1
102
RTVSPropertyOp13
 70
     1
102
RTVSPropertyOp14
 70
     1
102
RTVSPropertyOp15
 70
     1
102
RTVSPropertyOp16
 70
     1
102
RTVSPropertyOp17
 70
     1
102
RTVSPropertyOp18
 70
     1
102
RTVSPropertyOp19
 70
     1
102
RTVSPropertyOp20
 70
     1
102
RTVSPropertyOp21
 70
     1
102
RTVSPropertyOp22
 70
     1
102
RTVSPropertyOp23
 70
     1
102
RTVSPropertyOp24
 70
     1
102
RTVSPropertyOp25
 70
     1
102
RTVSPropertyOp26
 70
     1
102
RTVSPropertyOp27
 70
     1
  0
XRECORD
  5
1953
102
{ACAD_REACTORS
330
1952
102
}
330
1952
100
AcDbXrecord
280
     1
102
RTVSPropertyOp0
 70
     0
102
RTVSPropertyOp1
 70
     0
102
RTVSPropertyOp2
 70
     0
102
RTVSPropertyOp3
 70
     0
102
RTVSPropertyOp4
 70
     0
102
RTVSPropertyOp5
 70
     0
102
RTVSPropertyOp6
 70
     0
102
RTVSPropertyOp7
 70
     0
102
RTVSPropertyOp8
 70
     0
102
RTVSPropertyOp9
 70
     0
102
RTVSPropertyOp10
 70
     0
102
RTVSPropertyOp11
 70
     0
102
RTVSPropertyOp12
 70
     0
102
RTVSPropertyOp13
 70
     0
102
RTVSPropertyOp14
 70
     2
102
RTVSPropertyOp15
 70
     0
102
RTVSPropertyOp16
 70
     0
102
RTVSPropertyOp17
 70
     0
102
RTVSPropertyOp18
 70
     0
102
RTVSPropertyOp19
 70
     0
102
RTVSPropertyOp20
 70
     0
102
RTVSPropertyOp21
 70
     0
102
RTVSPropertyOp22
 70
     0
102
RTVSPropertyOp23
 70
     0
102
RTVSPropertyOp24
 70
     0
102
RTVSPropertyOp25
 70
     0
102
RTVSPropertyOp26
 70
     0
102
RTVSPropertyOp27
 70
     0
  0
XRECORD
  5
194B
102
{ACAD_REACTORS
330
194A
102
}
330
194A
100
AcDbXrecord
280
     1
102
RTVSPropertyOp0
 70
     1
102
RTVSPropertyOp1
 70
     1
102
RTVSPropertyOp2
 70
     1
102
RTVSPropertyOp3
 70
     1
102
RTVSPropertyOp4
 70
     1
102
RTVSPropertyOp5
 70
     1
102
RTVSPropertyOp6
 70
     1
102
RTVSPropertyOp7
 70
     1
102
RTVSPropertyOp8
 70
     1
102
RTVSPropertyOp9
 70
     1
102
RTVSPropertyOp10
 70
     1
102
RTVSPropertyOp11
 70
     1
102
RTVSPropertyOp12
 70
     1
102
RTVSPropertyOp13
 70
     1
102
RTVSPropertyOp14
 70
     1
102
RTVSPropertyOp15
 70
     1
102
RTVSPropertyOp16
 70
     1
102
RTVSPropertyOp17
 70
     1
102
RTVSPropertyOp18
 70
     1
102
RTVSPropertyOp19
 70
     1
102
RTVSPropertyOp20
 70
     1
102
RTVSPropertyOp21
 70
     1
102
RTVSPropertyOp22
 70
     1
102
RTVSPropertyOp23
 70
     1
102
RTVSPropertyOp24
 70
     1
102
RTVSPropertyOp25
 70
     1
102
RTVSPropertyOp26
 70
     1
102
RTVSPropertyOp27
 70
     1
  0
XRECORD
  5
192F
102
{ACAD_REACTORS
330
192E
102
}
330
192E
100
AcDbXrecord
280
     1
102
RTVSPropertyOp0
 70
     1
102
RTVSPropertyOp1
 70
     1
102
RTVSPropertyOp2
 70
     1
102
RTVSPropertyOp3
 70
     1
102
RTVSPropertyOp4
 70
     1
102
RTVSPropertyOp5
 70
     1
102
RTVSPropertyOp6
 70
     1
102
RTVSPropertyOp7
 70
     1
102
RTVSPropertyOp8
 70
     1
102
RTVSPropertyOp9
 70
     1
102
RTVSPropertyOp10
 70
     1
102
RTVSPropertyOp11
 70
     1
102
RTVSPropertyOp12
 70
     1
102
RTVSPropertyOp13
 70
     1
102
RTVSPropertyOp14
 70
     1
102
RTVSPropertyOp15
 70
     1
102
RTVSPropertyOp16
 70
     1
102
RTVSPropertyOp17
 70
     1
102
RTVSPropertyOp18
 70
     1
102
RTVSPropertyOp19
 70
     1
102
RTVSPropertyOp20
 70
     1
102
RTVSPropertyOp21
 70
     1
102
RTVSPropertyOp22
 70
     1
102
RTVSPropertyOp23
 70
     1
102
RTVSPropertyOp24
 70
     1
102
RTVSPropertyOp25
 70
     1
102
RTVSPropertyOp26
 70
     1
102
RTVSPropertyOp27
 70
     1
  0
XRECORD
  5
1931
102
{ACAD_REACTORS
330
1930
102
}
330
1930
100
AcDbXrecord
280
     1
102
RTVSPropertyOp0
 70
     1
102
RTVSPropertyOp1
 70
     1
102
RTVSPropertyOp2
 70
     1
102
RTVSPropertyOp3
 70
     1
102
RTVSPropertyOp4
 70
     1
102
RTVSPropertyOp5
 70
     1
102
RTVSPropertyOp6
 70
     1
102
RTVSPropertyOp7
 70
     1
102
RTVSPropertyOp8
 70
     1
102
RTVSPropertyOp9
 70
     1
102
RTVSPropertyOp10
 70
     1
102
RTVSPropertyOp11
 70
     1
102
RTVSPropertyOp12
 70
     1
102
RTVSPropertyOp13
 70
     1
102
RTVSPropertyOp14
 70
     1
102
RTVSPropertyOp15
 70
     1
102
RTVSPropertyOp16
 70
     1
102
RTVSPropertyOp17
 70
     1
102
RTVSPropertyOp18
 70
     1
102
RTVSPropertyOp19
 70
     1
102
RTVSPropertyOp20
 70
     1
102
RTVSPropertyOp21
 70
     1
102
RTVSPropertyOp22
 70
     1
102
RTVSPropertyOp23
 70
     1
102
RTVSPropertyOp24
 70
     1
102
RTVSPropertyOp25
 70
     1
102
RTVSPropertyOp26
 70
     1
102
RTVSPropertyOp27
 70
     1
  0
XRECORD
  5
1933
102
{ACAD_REACTORS
330
1932
102
}
330
1932
100
AcDbXrecord
280
     1
102
RTVSPropertyOp0
 70
     1
102
RTVSPropertyOp1
 70
     1
102
RTVSPropertyOp2
 70
     1
102
RTVSPropertyOp3
 70
     1
102
RTVSPropertyOp4
 70
     1
102
RTVSPropertyOp5
 70
     1
102
RTVSPropertyOp6
 70
     1
102
RTVSPropertyOp7
 70
     1
102
RTVSPropertyOp8
 70
     1
102
RTVSPropertyOp9
 70
     1
102
RTVSPropertyOp10
 70
     1
102
RTVSPropertyOp11
 70
     1
102
RTVSPropertyOp12
 70
     1
102
RTVSPropertyOp13
 70
     1
102
RTVSPropertyOp14
 70
     1
102
RTVSPropertyOp15
 70
     1
102
RTVSPropertyOp16
 70
     1
102
RTVSPropertyOp17
 70
     1
102
RTVSPropertyOp18
 70
     1
102
RTVSPropertyOp19
 70
     1
102
RTVSPropertyOp20
 70
     1
102
RTVSPropertyOp21
 70
     1
102
RTVSPropertyOp22
 70
     1
102
RTVSPropertyOp23
 70
     1
102
RTVSPropertyOp24
 70
     1
102
RTVSPropertyOp25
 70
     1
102
RTVSPropertyOp26
 70
     1
102
RTVSPropertyOp27
 70
     1
  0
XRECORD
  5
1935
102
{ACAD_REACTORS
330
1934
102
}
330
1934
100
AcDbXrecord
280
     1
102
RTVSPropertyOp0
 70
     1
102
RTVSPropertyOp1
 70
     1
102
RTVSPropertyOp2
 70
     1
102
RTVSPropertyOp3
 70
     1
102
RTVSPropertyOp4
 70
     1
102
RTVSPropertyOp5
 70
     1
102
RTVSPropertyOp6
 70
     1
102
RTVSPropertyOp7
 70
     1
102
RTVSPropertyOp8
 70
     1
102
RTVSPropertyOp9
 70
     1
102
RTVSPropertyOp10
 70
     1
102
RTVSPropertyOp11
 70
     1
102
RTVSPropertyOp12
 70
     1
102
RTVSPropertyOp13
 70
     1
102
RTVSPropertyOp14
 70
     1
102
RTVSPropertyOp15
 70
     1
102
RTVSPropertyOp16
 70
     1
102
RTVSPropertyOp17
 70
     1
102
RTVSPropertyOp18
 70
     1
102
RTVSPropertyOp19
 70
     1
102
RTVSPropertyOp20
 70
     1
102
RTVSPropertyOp21
 70
     1
102
RTVSPropertyOp22
 70
     1
102
RTVSPropertyOp23
 70
     1
102
RTVSPropertyOp24
 70
     1
102
RTVSPropertyOp25
 70
     1
102
RTVSPropertyOp26
 70
     1
102
RTVSPropertyOp27
 70
     1
  0
XRECORD
  5
194F
102
{ACAD_REACTORS
330
194E
102
}
330
194E
100
AcDbXrecord
280
     1
102
RTVSPropertyOp0
 70
     0
102
RTVSPropertyOp1
 70
     0
102
RTVSPropertyOp2
 70
     0
102
RTVSPropertyOp3
 70
     0
102
RTVSPropertyOp4
 70
     0
102
RTVSPropertyOp5
 70
     0
102
RTVSPropertyOp6
 70
     0
102
RTVSPropertyOp7
 70
     0
102
RTVSPropertyOp8
 70
     0
102
RTVSPropertyOp9
 70
     0
102
RTVSPropertyOp10
 70
     0
102
RTVSPropertyOp11
 70
     0
102
RTVSPropertyOp12
 70
     0
102
RTVSPropertyOp13
 70
     0
102
RTVSPropertyOp14
 70
     2
102
RTVSPropertyOp15
 70
     0
102
RTVSPropertyOp16
 70
     0
102
RTVSPropertyOp17
 70
     0
102
RTVSPropertyOp18
 70
     0
102
RTVSPropertyOp19
 70
     0
102
RTVSPropertyOp20
 70
     0
102
RTVSPropertyOp21
 70
     0
102
RTVSPropertyOp22
 70
     0
102
RTVSPropertyOp23
 70
     0
102
RTVSPropertyOp24
 70
     0
102
RTVSPropertyOp25
 70
     0
102
RTVSPropertyOp26
 70
     0
102
RTVSPropertyOp27
 70
     0
  0
XRECORD
  5
1949
102
{ACAD_REACTORS
330
1948
102
}
330
1948
100
AcDbXrecord
280
     1
102
RTVSPropertyOp0
 70
     1
102
RTVSPropertyOp1
 70
     1
102
RTVSPropertyOp2
 70
     1
102
RTVSPropertyOp3
 70
     1
102
RTVSPropertyOp4
 70
     1
102
RTVSPropertyOp5
 70
     1
102
RTVSPropertyOp6
 70
     1
102
RTVSPropertyOp7
 70
     1
102
RTVSPropertyOp8
 70
     1
102
RTVSPropertyOp9
 70
     1
102
RTVSPropertyOp10
 70
     1
102
RTVSPropertyOp11
 70
     1
102
RTVSPropertyOp12
 70
     1
102
RTVSPropertyOp13
 70
     1
102
RTVSPropertyOp14
 70
     1
102
RTVSPropertyOp15
 70
     1
102
RTVSPropertyOp16
 70
     1
102
RTVSPropertyOp17
 70
     1
102
RTVSPropertyOp18
 70
     1
102
RTVSPropertyOp19
 70
     1
102
RTVSPropertyOp20
 70
     1
102
RTVSPropertyOp21
 70
     1
102
RTVSPropertyOp22
 70
     1
102
RTVSPropertyOp23
 70
     1
102
RTVSPropertyOp24
 70
     1
102
RTVSPropertyOp25
 70
     1
102
RTVSPropertyOp26
 70
     1
102
RTVSPropertyOp27
 70
     1
  0
XRECORD
  5
1951
102
{ACAD_REACTORS
330
1950
102
}
330
1950
100
AcDbXrecord
280
     1
102
RTVSPropertyOp0
 70
     0
102
RTVSPropertyOp1
 70
     0
102
RTVSPropertyOp2
 70
     0
102
RTVSPropertyOp3
 70
     0
102
RTVSPropertyOp4
 70
     0
102
RTVSPropertyOp5
 70
     0
102
RTVSPropertyOp6
 70
     0
102
RTVSPropertyOp7
 70
     0
102
RTVSPropertyOp8
 70
     0
102
RTVSPropertyOp9
 70
     0
102
RTVSPropertyOp10
 70
     0
102
RTVSPropertyOp11
 70
     0
102
RTVSPropertyOp12
 70
     0
102
RTVSPropertyOp13
 70
     0
102
RTVSPropertyOp14
 70
     2
102
RTVSPropertyOp15
 70
     0
102
RTVSPropertyOp16
 70
     0
102
RTVSPropertyOp17
 70
     0
102
RTVSPropertyOp18
 70
     0
102
RTVSPropertyOp19
 70
     0
102
RTVSPropertyOp20
 70
     0
102
RTVSPropertyOp21
 70
     0
102
RTVSPropertyOp22
 70
     0
102
RTVSPropertyOp23
 70
     0
102
RTVSPropertyOp24
 70
     0
102
RTVSPropertyOp25
 70
     0
102
RTVSPropertyOp26
 70
     0
102
RTVSPropertyOp27
 70
     0
  0
XRECORD
  5
1941
102
{ACAD_REACTORS
330
1940
102
}
330
1940
100
AcDbXrecord
280
     1
102
RTVSPropertyOp0
 70
     1
102
RTVSPropertyOp1
 70
     1
102
RTVSPropertyOp2
 70
     1
102
RTVSPropertyOp3
 70
     1
102
RTVSPropertyOp4
 70
     1
102
RTVSPropertyOp5
 70
     1
102
RTVSPropertyOp6
 70
     1
102
RTVSPropertyOp7
 70
     1
102
RTVSPropertyOp8
 70
     1
102
RTVSPropertyOp9
 70
     1
102
RTVSPropertyOp10
 70
     1
102
RTVSPropertyOp11
 70
     1
102
RTVSPropertyOp12
 70
     1
102
RTVSPropertyOp13
 70
     1
102
RTVSPropertyOp14
 70
     1
102
RTVSPropertyOp15
 70
     1
102
RTVSPropertyOp16
 70
     1
102
RTVSPropertyOp17
 70
     1
102
RTVSPropertyOp18
 70
     1
102
RTVSPropertyOp19
 70
     1
102
RTVSPropertyOp20
 70
     1
102
RTVSPropertyOp21
 70
     1
102
RTVSPropertyOp22
 70
     1
102
RTVSPropertyOp23
 70
     1
102
RTVSPropertyOp24
 70
     1
102
RTVSPropertyOp25
 70
     1
102
RTVSPropertyOp26
 70
     1
102
RTVSPropertyOp27
 70
     1
  0
XRECORD
  5
1947
102
{ACAD_REACTORS
330
1946
102
}
330
1946
100
AcDbXrecord
280
     1
102
RTVSPropertyOp0
 70
     1
102
RTVSPropertyOp1
 70
     1
102
RTVSPropertyOp2
 70
     1
102
RTVSPropertyOp3
 70
     1
102
RTVSPropertyOp4
 70
     1
102
RTVSPropertyOp5
 70
     1
102
RTVSPropertyOp6
 70
     1
102
RTVSPropertyOp7
 70
     1
102
RTVSPropertyOp8
 70
     1
102
RTVSPropertyOp9
 70
     1
102
RTVSPropertyOp10
 70
     1
102
RTVSPropertyOp11
 70
     1
102
RTVSPropertyOp12
 70
     1
102
RTVSPropertyOp13
 70
     1
102
RTVSPropertyOp14
 70
     1
102
RTVSPropertyOp15
 70
     1
102
RTVSPropertyOp16
 70
     1
102
RTVSPropertyOp17
 70
     1
102
RTVSPropertyOp18
 70
     1
102
RTVSPropertyOp19
 70
     1
102
RTVSPropertyOp20
 70
     1
102
RTVSPropertyOp21
 70
     1
102
RTVSPropertyOp22
 70
     1
102
RTVSPropertyOp23
 70
     1
102
RTVSPropertyOp24
 70
     1
102
RTVSPropertyOp25
 70
     1
102
RTVSPropertyOp26
 70
     1
102
RTVSPropertyOp27
 70
     1
  0
ENDSEC
  0
EOF
