  0
SECTION
  2
HEADER
  9
$ACADVER
  1
AC1015
  9
$ACADMAINTVER
 70
    20
  9
$DWGCODEPAGE
  3
ANSI_1252
  9
$INSBASE
 10
0.0
 20
0.0
 30
0.0
  9
$EXTMIN
 10
3631.859015578658
 20
1716.437557123762
 30
0.0
  9
$EXTMAX
 10
3634.649680556241
 20
1717.345790575286
 30
0.0
  9
$LIMMIN
 10
0.0
 20
0.0
  9
$LIMMAX
 10
420.0
 20
297.0
  9
$ORTHOMODE
 70
     1
  9
$REGENMODE
 70
     1
  9
$FILLMODE
 70
     1
  9
$QTEXTMODE
 70
     0
  9
$MIRRTEXT
 70
     1
  9
$LTSCALE
 40
1.0
  9
$ATTMODE
 70
     1
  9
$TEXTSIZE
 40
2.5
  9
$TRACEWID
 40
1.0
  9
$TEXTSTYLE
  7
SANINDUSA
  9
$CLAYER
  8
cotas
  9
$CELTYPE
  6
ByLayer
  9
$CECOLOR
 62
   256
  9
$CELTSCALE
 40
1.0
  9
$DISPSILH
 70
     0
  9
$DIMSCALE
 40
1.0
  9
$DIMASZ
 40
2.0
  9
$DIMEXO
 40
1.0
  9
$DIMDLI
 40
1.0
  9
$DIMRND
 40
0.0
  9
$DIMDLE
 40
0.0
  9
$DIMEXE
 40
1.0
  9
$DIMTP
 40
0.0
  9
$DIMTM
 40
0.0
  9
$DIMTXT
 40
2.0
  9
$DIMCEN
 40
0.0
  9
$DIMTSZ
 40
0.0
  9
$DIMTOL
 70
     0
  9
$DIMLIM
 70
     0
  9
$DIMTIH
 70
     0
  9
$DIMTOH
 70
     0
  9
$DIMSE1
 70
     0
  9
$DIMSE2
 70
     0
  9
$DIMTAD
 70
     1
  9
$DIMZIN
 70
     8
  9
$DIMBLK
  1

  9
$DIMASO
 70
     1
  9
$DIMSHO
 70
     1
  9
$DIMPOST
  1

  9
$DIMAPOST
  1

  9
$DIMALT
 70
     0
  9
$DIMALTD
 70
     3
  9
$DIMALTF
 40
0.03937007874016
  9
$DIMLFAC
 40
1.0
  9
$DIMTOFL
 70
     1
  9
$DIMTVP
 40
0.0
  9
$DIMTIX
 70
     0
  9
$DIMSOXD
 70
     0
  9
$DIMSAH
 70
     0
  9
$DIMBLK1
  1

  9
$DIMBLK2
  1

  9
$DIMSTYLE
  2
SANINDUSA
  9
$DIMCLRD
 70
   256
  9
$DIMCLRE
 70
   256
  9
$DIMCLRT
 70
   256
  9
$DIMTFAC
 40
1.0
  9
$DIMGAP
 40
1.0
  9
$DIMJUST
 70
     0
  9
$DIMSD1
 70
     0
  9
$DIMSD2
 70
     0
  9
$DIMTOLJ
 70
     0
  9
$DIMTZIN
 70
     8
  9
$DIMALTZ
 70
     0
  9
$DIMALTTZ
 70
     0
  9
$DIMUPT
 70
     0
  9
$DIMDEC
 70
     1
  9
$DIMTDEC
 70
     1
  9
$DIMALTU
 70
     2
  9
$DIMALTTD
 70
     3
  9
$DIMTXSTY
  7
SANINDUSA
  9
$DIMAUNIT
 70
     0
  9
$DIMADEC
 70
     1
  9
$DIMALTRND
 40
0.0
  9
$DIMAZIN
 70
     0
  9
$DIMDSEP
 70
    44
  9
$DIMATFIT
 70
     3
  9
$DIMFRAC
 70
     0
  9
$DIMLDRBLK
  1

  9
$DIMLUNIT
 70
     2
  9
$DIMLWD
 70
    -1
  9
$DIMLWE
 70
    -1
  9
$DIMTMOVE
 70
     0
  9
$LUNITS
 70
     2
  9
$LUPREC
 70
     4
  9
$SKETCHINC
 40
1.0
  9
$FILLETRAD
 40
0.0
  9
$AUNITS
 70
     0
  9
$AUPREC
 70
     0
  9
$MENU
  1
.
  9
$ELEVATION
 40
0.0
  9
$PELEVATION
 40
0.0
  9
$THICKNESS
 40
0.0
  9
$LIMCHECK
 70
     0
  9
$CHAMFERA
 40
10.0
  9
$CHAMFERB
 40
10.0
  9
$CHAMFERC
 40
20.0
  9
$CHAMFERD
 40
0.0
  9
$SKPOLY
 70
     0
  9
$TDCREATE
 40
2455016.694043148
  9
$TDUCREATE
 40
2455016.652376482
  9
$TDUPDATE
 40
2456146.436920382
  9
$TDUUPDATE
 40
2456146.395253715
  9
$TDINDWG
 40
0.0049987269
  9
$TDUSRTIMER
 40
0.0049985417
  9
$USRTIMER
 70
     1
  9
$ANGBASE
 50
0.0
  9
$ANGDIR
 70
     0
  9
$PDMODE
 70
     0
  9
$PDSIZE
 40
0.0
  9
$PLINEWID
 40
0.0
  9
$SPLFRAME
 70
     0
  9
$SPLINETYPE
 70
     6
  9
$SPLINESEGS
 70
     8
  9
$HANDSEED
  5
1660
  9
$SURFTAB1
 70
     6
  9
$SURFTAB2
 70
     6
  9
$SURFTYPE
 70
     6
  9
$SURFU
 70
     6
  9
$SURFV
 70
     6
  9
$UCSBASE
  2

  9
$UCSNAME
  2

  9
$UCSORG
 10
0.0
 20
0.0
 30
0.0
  9
$UCSXDIR
 10
1.0
 20
0.0
 30
0.0
  9
$UCSYDIR
 10
0.0
 20
1.0
 30
0.0
  9
$UCSORTHOREF
  2

  9
$UCSORTHOVIEW
 70
     0
  9
$UCSORGTOP
 10
0.0
 20
0.0
 30
0.0
  9
$UCSORGBOTTOM
 10
0.0
 20
0.0
 30
0.0
  9
$UCSORGLEFT
 10
0.0
 20
0.0
 30
0.0
  9
$UCSORGRIGHT
 10
0.0
 20
0.0
 30
0.0
  9
$UCSORGFRONT
 10
0.0
 20
0.0
 30
0.0
  9
$UCSORGBACK
 10
0.0
 20
0.0
 30
0.0
  9
$PUCSBASE
  2

  9
$PUCSNAME
  2

  9
$PUCSORG
 10
0.0
 20
0.0
 30
0.0
  9
$PUCSXDIR
 10
1.0
 20
0.0
 30
0.0
  9
$PUCSYDIR
 10
0.0
 20
1.0
 30
0.0
  9
$PUCSORTHOREF
  2

  9
$PUCSORTHOVIEW
 70
     0
  9
$PUCSORGTOP
 10
0.0
 20
0.0
 30
0.0
  9
$PUCSORGBOTTOM
 10
0.0
 20
0.0
 30
0.0
  9
$PUCSORGLEFT
 10
0.0
 20
0.0
 30
0.0
  9
$PUCSORGRIGHT
 10
0.0
 20
0.0
 30
0.0
  9
$PUCSORGFRONT
 10
0.0
 20
0.0
 30
0.0
  9
$PUCSORGBACK
 10
0.0
 20
0.0
 30
0.0
  9
$USERI1
 70
     0
  9
$USERI2
 70
     0
  9
$USERI3
 70
     0
  9
$USERI4
 70
     0
  9
$USERI5
 70
     0
  9
$USERR1
 40
0.0
  9
$USERR2
 40
0.0
  9
$USERR3
 40
0.0
  9
$USERR4
 40
0.0
  9
$USERR5
 40
0.0
  9
$WORLDVIEW
 70
     1
  9
$SHADEDGE
 70
     3
  9
$SHADEDIF
 70
    70
  9
$TILEMODE
 70
     1
  9
$MAXACTVP
 70
    64
  9
$PINSBASE
 10
0.0
 20
0.0
 30
0.0
  9
$PLIMCHECK
 70
     0
  9
$PEXTMIN
 10
1.000000000000000E+20
 20
1.000000000000000E+20
 30
1.000000000000000E+20
  9
$PEXTMAX
 10
-1.000000000000000E+20
 20
-1.000000000000000E+20
 30
-1.000000000000000E+20
  9
$PLIMMIN
 10
0.0
 20
0.0
  9
$PLIMMAX
 10
420.0
 20
297.0
  9
$UNITMODE
 70
     0
  9
$VISRETAIN
 70
     1
  9
$PLINEGEN
 70
     0
  9
$PSLTSCALE
 70
     1
  9
$TREEDEPTH
 70
  3020
  9
$CMLSTYLE
  2
Standard
  9
$CMLJUST
 70
     0
  9
$CMLSCALE
 40
20.0
  9
$PROXYGRAPHICS
 70
     1
  9
$MEASUREMENT
 70
     1
  9
$CELWEIGHT
370
    -1
  9
$ENDCAPS
280
     0
  9
$JOINSTYLE
280
     0
  9
$LWDISPLAY
290
     0
  9
$INSUNITS
 70
     4
  9
$HYPERLINKBASE
  1

  9
$STYLESHEET
  1
sanindusa.ctb
  9
$XEDIT
290
     1
  9
$CEPSNTYPE
380
     0
  9
$PSTYLEMODE
290
     1
  9
$FINGERPRINTGUID
  2
{F1D8D5A2-F466-461E-9C55-18C54BC52F7D}
  9
$VERSIONGUID
  2
{65CCA17E-F24E-4996-B975-A34F0D2AF7E0}
  9
$EXTNAMES
290
     1
  9
$PSVPSCALE
 40
0.0
  9
$OLESTARTUP
290
     0
  0
ENDSEC
  0
SECTION
  2
CLASSES
  0
CLASS
  1
ACDBDICTIONARYWDFLT
  2
AcDbDictionaryWithDefault
  3
ObjectDBX Classes
 90
        0
280
     0
281
     0
  0
CLASS
  1
ACDBPLACEHOLDER
  2
AcDbPlaceHolder
  3
ObjectDBX Classes
 90
        0
280
     0
281
     0
  0
CLASS
  1
LAYOUT
  2
AcDbLayout
  3
ObjectDBX Classes
 90
        0
280
     0
281
     0
  0
CLASS
  1
DICTIONARYVAR
  2
AcDbDictionaryVar
  3
ObjectDBX Classes
 90
        0
280
     0
281
     0
  0
CLASS
  1
DIMASSOC
  2
AcDbDimAssoc
  3
"AcDbDimAssoc|Product Desc:     AcDim ARX App For Dimension|Company:          Autodesk, Inc.|WEB Address:      www.autodesk.com"
 90
    32768
280
     0
281
     0
  0
CLASS
  1
TABLESTYLE
  2
AcDbTableStyle
  3
ObjectDBX Classes
 90
     4095
280
     0
281
     0
  0
CLASS
  1
MATERIAL
  2
AcDbMaterial
  3
ObjectDBX Classes
 90
     1153
280
     0
281
     0
  0
CLASS
  1
VISUALSTYLE
  2
AcDbVisualStyle
  3
ObjectDBX Classes
 90
     4095
280
     0
281
     0
  0
CLASS
  1
SCALE
  2
AcDbScale
  3
ObjectDBX Classes
 90
     1153
280
     0
281
     0
  0
CLASS
  1
MLEADERSTYLE
  2
AcDbMLeaderStyle
  3
ACDB_MLEADERSTYLE_CLASS
 90
     4095
280
     0
281
     0
  0
CLASS
  1
SORTENTSTABLE
  2
AcDbSortentsTable
  3
ObjectDBX Classes
 90
        0
280
     0
281
     0
  0
CLASS
  1
AEC_REFEDIT_STATUS_TRACKER
  2
AecDbRefEditStatusTracker
  3
AecArchBase60|Product Desc: Autodesk Architectural Desktop 2007 |Company: Autodesk,Inc. |WEB Address: www.autodesk.com
 90
    32897
280
     0
281
     0
  0
CLASS
  1
NPOCOLLECTION
  2
AcDbImpNonPersistentObjectsCollection
  3
ObjectDBX Classes
 90
    33921
280
     0
281
     0
  0
CLASS
  1
CELLSTYLEMAP
  2
AcDbCellStyleMap
  3
ObjectDBX Classes
 90
     1152
280
     0
281
     0
  0
ENDSEC
  0
SECTION
  2
TABLES
  0
TABLE
  2
VPORT
  5
8
102
{ACAD_XDICTIONARY
360
15E7
102
}
330
0
100
AcDbSymbolTable
 70
     1
  0
VPORT
  5
1068
330
8
100
AcDbSymbolTableRecord
100
AcDbViewportTableRecord
  2
*Active
 70
     0
 10
0.0
 20
0.0
 11
1.0
 21
1.0
 12
3633.254348067449
 22
1716.891673849524
 13
0.0
 23
0.0
 14
10.0
 24
10.0
 15
10.0
 25
10.0
 16
0.0
 26
0.0
 36
1.0
 17
0.0
 27
0.0
 37
0.0
 40
1.702416324765825
 41
1.645464025026068
 42
50.0
 43
0.0
 44
0.0
 50
0.0
 51
0.0
 71
     0
 72
   100
 73
     1
 74
     2
 75
     0
 76
     0
 77
     0
 78
     0
281
     0
 65
     1
110
0.0
120
0.0
130
0.0
111
1.0
121
0.0
131
0.0
112
0.0
122
1.0
132
0.0
 79
     0
146
0.0
  0
ENDTAB
  0
TABLE
  2
LTYPE
  5
5
330
0
100
AcDbSymbolTable
 70
     5
  0
LTYPE
  5
14
330
5
100
AcDbSymbolTableRecord
100
AcDbLinetypeTableRecord
  2
ByBlock
 70
     0
  3

 72
    65
 73
     0
 40
0.0
  0
LTYPE
  5
15
330
5
100
AcDbSymbolTableRecord
100
AcDbLinetypeTableRecord
  2
ByLayer
 70
     0
  3

 72
    65
 73
     0
 40
0.0
  0
LTYPE
  5
16
330
5
100
AcDbSymbolTableRecord
100
AcDbLinetypeTableRecord
  2
Continuous
 70
     0
  3
Solid line
 72
    65
 73
     0
 40
0.0
  0
LTYPE
  5
2D
330
5
100
AcDbSymbolTableRecord
100
AcDbLinetypeTableRecord
  2
DASHDOT
 70
     0
  3
Dash dot __ . __ . __ . __ . __ . __ . __ . __
 72
    65
 73
     4
 40
25.4
 49
12.7
 74
     0
 49
-6.349999999999999
 74
     0
 49
0.0
 74
     0
 49
-6.349999999999999
 74
     0
  0
LTYPE
  5
2E
330
5
100
AcDbSymbolTableRecord
100
AcDbLinetypeTableRecord
  2
HIDDEN
 70
     0
  3
Hidden __ __ __ __ __ __ __ __ __ __ __ __ __ _
 72
    65
 73
     2
 40
9.524999999999998
 49
6.349999999999999
 74
     0
 49
-3.174999999999999
 74
     0
  0
LTYPE
  5
C75
330
5
100
AcDbSymbolTableRecord
100
AcDbLinetypeTableRecord
  2
AM_ISO02W050
 70
     0
  3
__ __ __ __ __ __ __ __ __ __ __ __ __ __ __
 72
    65
 73
     2
 40
7.5
 49
6.0
 74
     0
 49
-1.5
 74
     0
  0
LTYPE
  5
C76
330
5
100
AcDbSymbolTableRecord
100
AcDbLinetypeTableRecord
  2
AM_ISO08W050
 70
     0
  3
____ . ____ . ____ . ____ . ____ . ____ . ____
 72
    65
 73
     4
 40
18.0
 49
12.0
 74
     0
 49
-1.5
 74
     0
 49
3.0
 74
     0
 49
-1.5
 74
     0
  0
ENDTAB
  0
TABLE
  2
LAYER
  5
2
102
{ACAD_XDICTIONARY
360
1051
102
}
330
0
100
AcDbSymbolTable
 70
    18
  0
LAYER
  5
10
102
{ACAD_XDICTIONARY
360
1580
102
}
330
2
100
AcDbSymbolTableRecord
100
AcDbLayerTableRecord
  2
0
 70
     0
 62
     7
  6
Continuous
370
    -3
390
F
  0
LAYER
  5
2F
102
{ACAD_XDICTIONARY
360
1582
102
}
330
2
100
AcDbSymbolTableRecord
100
AcDbLayerTableRecord
  2
1
 70
     0
 62
     1
  6
Continuous
370
    -3
390
F
  0
LAYER
  5
30
102
{ACAD_XDICTIONARY
360
1584
102
}
330
2
100
AcDbSymbolTableRecord
100
AcDbLayerTableRecord
  2
2
 70
     0
 62
     2
  6
Continuous
370
    -3
390
F
  0
LAYER
  5
31
102
{ACAD_XDICTIONARY
360
1586
102
}
330
2
100
AcDbSymbolTableRecord
100
AcDbLayerTableRecord
  2
3
 70
     0
 62
     3
  6
Continuous
370
    -3
390
F
  0
LAYER
  5
32
102
{ACAD_XDICTIONARY
360
1588
102
}
330
2
100
AcDbSymbolTableRecord
100
AcDbLayerTableRecord
  2
4
 70
     0
 62
     4
  6
Continuous
370
    -3
390
F
  0
LAYER
  5
33
102
{ACAD_XDICTIONARY
360
158A
102
}
330
2
100
AcDbSymbolTableRecord
100
AcDbLayerTableRecord
  2
5
 70
     0
 62
     5
  6
Continuous
370
    -3
390
F
  0
LAYER
  5
34
102
{ACAD_XDICTIONARY
360
158C
102
}
330
2
100
AcDbSymbolTableRecord
100
AcDbLayerTableRecord
  2
6
 70
     0
 62
     6
  6
Continuous
370
    -3
390
F
  0
LAYER
  5
35
102
{ACAD_XDICTIONARY
360
158E
102
}
330
2
100
AcDbSymbolTableRecord
100
AcDbLayerTableRecord
  2
7
 70
     0
 62
     7
  6
Continuous
370
    -3
390
F
  0
LAYER
  5
36
102
{ACAD_XDICTIONARY
360
1590
102
}
330
2
100
AcDbSymbolTableRecord
100
AcDbLayerTableRecord
  2
cen
 70
     0
 62
     7
  6
DASHDOT
370
    -3
390
F
  0
LAYER
  5
37
102
{ACAD_XDICTIONARY
360
1592
102
}
330
2
100
AcDbSymbolTableRecord
100
AcDbLayerTableRecord
  2
hid
 70
     0
 62
     7
  6
HIDDEN
370
    -3
390
F
  0
LAYER
  5
5D6
102
{ACAD_XDICTIONARY
360
1594
102
}
330
2
100
AcDbSymbolTableRecord
100
AcDbLayerTableRecord
  2
hatch
 70
     0
 62
     9
  6
Continuous
370
    -3
390
F
  0
LAYER
  5
8AF
102
{ACAD_XDICTIONARY
360
1596
102
}
330
2
100
AcDbSymbolTableRecord
100
AcDbLayerTableRecord
  2
9
 70
     0
 62
     9
  6
Continuous
370
    -3
390
F
  0
LAYER
  5
8F8
102
{ACAD_XDICTIONARY
360
1598
102
}
330
2
100
AcDbSymbolTableRecord
100
AcDbLayerTableRecord
  2
leg fin
 70
     0
 62
     9
  6
Continuous
370
    -3
390
F
  0
LAYER
  5
91D
102
{ACAD_XDICTIONARY
360
159A
102
}
330
2
100
AcDbSymbolTableRecord
100
AcDbLayerTableRecord
  2
cotas
 70
     0
 62
     1
  6
Continuous
370
    -3
390
F
  0
LAYER
  5
92F
330
2
100
AcDbSymbolTableRecord
100
AcDbLayerTableRecord
  2
Defpoints
 70
     0
 62
     7
  6
Continuous
290
     0
370
    -3
390
F
  0
LAYER
  5
C7B
102
{ACAD_XDICTIONARY
360
159C
102
}
330
2
100
AcDbSymbolTableRecord
100
AcDbLayerTableRecord
  2
SANINDUSA
 70
     0
 62
     3
  6
Continuous
370
    -3
390
F
  0
LAYER
  5
1060
102
{ACAD_XDICTIONARY
360
159E
102
}
330
2
100
AcDbSymbolTableRecord
100
AcDbLayerTableRecord
  2
hid1
 70
     0
 62
     9
  6
HIDDEN
370
    -3
390
F
1001
AcAecLayerStandard
1000

1000

  0
LAYER
  5
10B3
102
{ACAD_XDICTIONARY
360
10B4
102
}
330
2
100
AcDbSymbolTableRecord
100
AcDbLayerTableRecord
  2
BLOCKS
 70
     0
 62
     3
  6
Continuous
370
    -3
390
F
  0
ENDTAB
  0
TABLE
  2
STYLE
  5
3
330
0
100
AcDbSymbolTable
 70
     6
  0
STYLE
  5
11
330
3
100
AcDbSymbolTableRecord
100
AcDbTextStyleTableRecord
  2
Standard
 70
     0
 40
0.0
 41
1.0
 50
0.0
 71
     0
 42
2.5
  3
Avgardn.ttf
  4

1001
ACAD
1000
AvantGarde Bk BT
1071
       34
  0
STYLE
  5
2C
330
3
100
AcDbSymbolTableRecord
100
AcDbTextStyleTableRecord
  2

 70
     1
 40
0.0
 41
1.0
 50
0.0
 71
     0
 42
2.5
  3
ltypeshp.shx
  4

  0
STYLE
  5
91F
330
3
100
AcDbSymbolTableRecord
100
AcDbTextStyleTableRecord
  2
SANINDUSA
 70
     0
 40
0.0
 41
1.0
 50
0.0
 71
     0
 42
2.5
  3
verdana.TTF
  4

1001
ACAD
1000
Verdana
1071
       34
  0
STYLE
  5
C7C
330
3
100
AcDbSymbolTableRecord
100
AcDbTextStyleTableRecord
  2
futura
 70
     0
 40
0.0
 41
1.0
 50
0.0
 71
     0
 42
2.5
  3
ZURCHN.TTF
  4

1001
ACAD
1000
Zurich BT
1071
       34
  0
STYLE
  5
10B5
330
3
100
AcDbSymbolTableRecord
100
AcDbTextStyleTableRecord
  2
Legend
 70
     0
 40
0.0
 41
1.0
 50
0.0
 71
     0
 42
2.5
  3
CALIBRI.TTF
  4

1001
ACAD
1000
Calibri
1071
      256
  0
STYLE
  5
110C
330
3
100
AcDbSymbolTableRecord
100
AcDbTextStyleTableRecord
  2
cotas
 70
     0
 40
2.0
 41
0.8
 50
0.0
 71
     0
 42
4.0
  3
ISOCP.shx
  4

  0
ENDTAB
  0
TABLE
  2
VIEW
  5
6
330
0
100
AcDbSymbolTable
 70
     0
  0
ENDTAB
  0
TABLE
  2
UCS
  5
7
330
0
100
AcDbSymbolTable
 70
     0
  0
ENDTAB
  0
TABLE
  2
APPID
  5
9
330
0
100
AcDbSymbolTable
 70
    15
  0
APPID
  5
12
330
9
100
AcDbSymbolTableRecord
100
AcDbRegAppTableRecord
  2
ACAD
 70
     0
  0
APPID
  5
3A
330
9
100
AcDbSymbolTableRecord
100
AcDbRegAppTableRecord
  2
DCO15
 70
     0
  0
APPID
  5
EEE
330
9
100
AcDbSymbolTableRecord
100
AcDbRegAppTableRecord
  2
ACAD_DSTYLE_DIMTEXT_FILL
 70
     0
  0
APPID
  5
EEF
330
9
100
AcDbSymbolTableRecord
100
AcDbRegAppTableRecord
  2
ACAD_DSTYLE_DIMEXT_LENGTH
 70
     0
  0
APPID
  5
EF0
330
9
100
AcDbSymbolTableRecord
100
AcDbRegAppTableRecord
  2
ACAD_DSTYLE_DIMEXT_ENABLED
 70
     0
  0
APPID
  5
EF1
330
9
100
AcDbSymbolTableRecord
100
AcDbRegAppTableRecord
  2
ACAD_DSTYLE_DIM_LINETYPE
 70
     0
  0
APPID
  5
EF2
330
9
100
AcDbSymbolTableRecord
100
AcDbRegAppTableRecord
  2
ACAD_DSTYLE_DIM_EXT1_LINETYPE
 70
     0
  0
APPID
  5
EF3
330
9
100
AcDbSymbolTableRecord
100
AcDbRegAppTableRecord
  2
ACAD_DSTYLE_DIM_EXT2_LINETYPE
 70
     0
  0
APPID
  5
FAF
330
9
100
AcDbSymbolTableRecord
100
AcDbRegAppTableRecord
  2
ACAD_DSTYLE_DIMJOGGED_JOGANGLE_SYMBOL
 70
     0
  0
APPID
  5
1013
330
9
100
AcDbSymbolTableRecord
100
AcDbRegAppTableRecord
  2
ACAD_DSTYLE_DIMARC_LENGTH_SYMBOL
 70
     0
  0
APPID
  5
1061
330
9
100
AcDbSymbolTableRecord
100
AcDbRegAppTableRecord
  2
AcAecLayerStandard
 70
     0
  0
APPID
  5
10B6
330
9
100
AcDbSymbolTableRecord
100
AcDbRegAppTableRecord
  2
ACAD_MLEADERVER
 70
     0
  0
APPID
  5
10B7
330
9
100
AcDbSymbolTableRecord
100
AcDbRegAppTableRecord
  2
AcMapDMDisplayStyleRegapp
 70
     0
  0
APPID
  5
10B8
330
9
100
AcDbSymbolTableRecord
100
AcDbRegAppTableRecord
  2
ADE
 70
     0
  0
APPID
  5
10B9
330
9
100
AcDbSymbolTableRecord
100
AcDbRegAppTableRecord
  2
MapGWS
 70
     0
  0
ENDTAB
  0
TABLE
  2
DIMSTYLE
  5
A
330
0
100
AcDbSymbolTable
 70
     4
100
AcDbDimStyleTable
 71
     1
340
921
  0
DIMSTYLE
105
45
330
A
100
AcDbSymbolTableRecord
100
AcDbDimStyleTableRecord
  2
STANDARD
 70
     0
289
     0
340
11
  0
DIMSTYLE
105
921
330
A
100
AcDbSymbolTableRecord
100
AcDbDimStyleTableRecord
  2
SANINDUSA
 70
     0
 41
2.0
 42
1.0
 43
1.0
 44
1.0
 73
     0
 74
     0
 77
     1
 78
     8
140
2.0
141
0.0
143
0.03937007874016
147
1.0
171
     3
172
     1
176
   256
177
   256
178
   256
179
     1
271
     1
272
     1
274
     3
278
    44
283
     0
284
     8
340
91F
371
    -1
372
    -1
1001
ACAD_DSTYLE_DIMJOGGED_JOGANGLE_SYMBOL
1070
   384
1040
1.570796326794896
  0
DIMSTYLE
105
C7D
330
A
100
AcDbSymbolTableRecord
100
AcDbDimStyleTableRecord
  2
AM_ISO
 70
     0
  4
"
 41
2.5
 42
1.0
 43
10.0
 44
1.0
 47
0.1
 48
0.1
 73
     0
 74
     0
 77
     1
 78
     8
 79
     2
140
3.5
141
0.0
143
0.0393701
146
0.71
147
1.5
172
     1
176
   256
177
   256
178
     2
271
     2
272
     3
274
     4
283
     0
284
     8
340
11
371
    -1
372
    -1
  0
DIMSTYLE
105
110D
330
A
100
AcDbSymbolTableRecord
100
AcDbDimStyleTableRecord
  2
ISO-25
 70
     0
 41
2.5
 42
0.625
 43
3.75
 44
1.25
 73
     0
 74
     0
 77
     1
 78
     8
140
2.5
141
2.5
143
0.03937007874016
147
0.625
171
     3
172
     1
271
     2
272
     2
274
     3
278
    44
283
     0
284
     8
340
11
  0
ENDTAB
  0
TABLE
  2
BLOCK_RECORD
  5
1
330
0
100
AcDbSymbolTable
 70
    13
  0
BLOCK_RECORD
  5
1F
330
1
100
AcDbSymbolTableRecord
100
AcDbBlockTableRecord
  2
*Model_Space
340
22
  0
BLOCK_RECORD
  5
1B
330
1
100
AcDbSymbolTableRecord
100
AcDbBlockTableRecord
  2
*Paper_Space
340
1E
  0
BLOCK_RECORD
  5
23
330
1
100
AcDbSymbolTableRecord
100
AcDbBlockTableRecord
  2
*Paper_Space0
340
26
  0
BLOCK_RECORD
  5
919
330
1
100
AcDbSymbolTableRecord
100
AcDbBlockTableRecord
  2
_DotSmall
340
0
  0
BLOCK_RECORD
  5
922
330
1
100
AcDbSymbolTableRecord
100
AcDbBlockTableRecord
  2
base para cotas
340
0
310
2800000020000000200000000100080000000000000400000000000000000000000000000000000000000000000080000080000000808000800000008000800080800000C0C0C000C0DCC000F0CAA6000020400000206000002080000020A0000020C0000020E00000400000004020000040400000406000004080000040A0
310
000040C0000040E00000600000006020000060400000606000006080000060A0000060C0000060E00000800000008020000080400000806000008080000080A0000080C0000080E00000A0000000A0200000A0400000A0600000A0800000A0A00000A0C00000A0E00000C0000000C0200000C0400000C0600000C0800000C0
310
A00000C0C00000C0E00000E0000000E0200000E0400000E0600000E0800000E0A00000E0C00000E0E00040000000400020004000400040006000400080004000A0004000C0004000E00040200000402020004020400040206000402080004020A0004020C0004020E000404000004040200040404000404060004040800040
310
40A0004040C0004040E00040600000406020004060400040606000406080004060A0004060C0004060E00040800000408020004080400040806000408080004080A0004080C0004080E00040A0000040A0200040A0400040A0600040A0800040A0A00040A0C00040A0E00040C0000040C0200040C0400040C0600040C08000
310
40C0A00040C0C00040C0E00040E0000040E0200040E0400040E0600040E0800040E0A00040E0C00040E0E00080000000800020008000400080006000800080008000A0008000C0008000E00080200000802020008020400080206000802080008020A0008020C0008020E00080400000804020008040400080406000804080
310
008040A0008040C0008040E00080600000806020008060400080606000806080008060A0008060C0008060E00080800000808020008080400080806000808080008080A0008080C0008080E00080A0000080A0200080A0400080A0600080A0800080A0A00080A0C00080A0E00080C0000080C0200080C0400080C0600080C0
310
800080C0A00080C0C00080C0E00080E0000080E0200080E0400080E0600080E0800080E0A00080E0C00080E0E000C0000000C0002000C0004000C0006000C0008000C000A000C000C000C000E000C0200000C0202000C0204000C0206000C0208000C020A000C020C000C020E000C0400000C0402000C0404000C0406000C0
310
408000C040A000C040C000C040E000C0600000C0602000C0604000C0606000C0608000C060A000C060C000C060E000C0800000C0802000C0804000C0806000C0808000C080A000C080C000C080E000C0A00000C0A02000C0A04000C0A06000C0A08000C0A0A000C0A0C000C0A0E000C0C00000C0C02000C0C04000C0C06000
310
C0C08000C0C0A000F0FBFF00A4A0A000808080000000FF0000FF000000FFFF00FF000000FF00FF00FFFF0000FFFFFF00A4A4A4A4A4A4A4A4A4A4A4A4A4A4A4A4A4A4A4A4A4A4A4A4A4A4A4A4A4A4A4A4A4A4A4A4A4A4A4A4A4A4A4A4A4A4A4A4A4A4A4A4A4A4A4A4A4A4A4A4A4A4A4A4A4A4A4A4A4A4A4A4A4A4A4A4A4A4A4
310
A4A4A4A4A4A4A4A4A4A4A4A4A4A4A4A4A4A4A4A4A4A4A4A4A4A4A4A4A4A4A4A4A4A4A4A4A4A4A4A4A4A4A4A4A4A4A4A4A4A4A4A4A4A4A4A4A4A4A4A4A4A4A4A4A4A4A4A4A4A4A4A4A4A4A4A4A4A4A4A4A4A4A4A4A4A4A4A4A4A4A4A4A4A4A4A4A4A4A4A4A4A4A4A4A4A4A4A4A4A4A4A4A4A4A4A4A4A4A4A4A4A4A4A4A4A4A4
310
A4A4A4A4A4A4A4A4A4A4A4A4A4A4A4A4A4A4A4A4A4A4A4A4A4A4A4A4A4A4A4A4A4A4A4A4A4A4A4A4A4A4A4A4A4A4A4A4A4A4A4A4A4A4A4A4A4A4A4A4A4A4A4A4A4A4A4A4A4A4A4A4A4A4A4A4A4A4A4A4A4A4A4A4A4A4A4A4A4A4A4A4A4A4A4A4A4A4A4A4A4A4A4A4A4A4A4A4A4A4A4A4A4A4A4A4A4A4A4A4A4A4A4A4A4A4A4
310
A4A4A4A4A4A4A4A4A4A4A4A4A4A4A4A4A4A4A4A4A4A4A4A4A4A4A4A4A4A4A4A4A4A4A4A4A4A4A4A4A4A4A4A4A4A4A4A4A4A4A4A4A4A4A4A4A4A4A4A4A4A4A4A4A4A4A4A4A4A4A4A4A4A4A4A4A4A4A4A4A4A4A4A4A4A4A4A4A4A4A4A4A4A4A4A4A4A4A4A4A4A4A4A4A4A4A4A4A4A4A4A4A4A4A4A4F9F9F9F9F9F9F9F9F9F9F9
310
F9F9F9F9F9F9F9F9F9F9F9F9F9F9F9F9F9F9F9A4A4F9F9F9F9F9F9F9F9F9F9F9F9F9F9F9F9F9F9F9F9F9F9F9F9F9F9F9F9F9F9A4A4F9F9F9F9F9F9F9F9F9F9F9F9F9F9F9F9F9F9F9F9F9F9F9F9F9F9F9F9F9F9A4A4F9A4A4A4A4A4A4A4A4A4A4A4A4A4A4A4A4A4A4A4A4A4A4A4A4A4A4A4A4F9A4A4A4A4A4A4A4A4A4A4A4A4
310
A4A4A4A4A4A4A4A4A4A4A4A4A4A4A4A4A4A4A4A4A4A4A4A4A4A4A4A4A4A4A4A4A4A4A4A4A4A4A4A4A4A4A4A4A4A4A4A4A4A4A4A4A4A4A4A4A4A4A4A4A4A4A4A4A4A4A4A4A4A4A4A4A4A4A4A4A4A4A4A4A4A4A4A4A4A4A4A4A4A4A4A4A4A4A4A4A4A4A4A4A4A4A4A4A4A4A4A4A4A4A4A4A4A4A4A4A4A4A4A4A4A4A4A4A4A4A4
310
A4A4A4A4A4A4A4A4A4A4A4A4A4A4A4A4A4A4A4A4A4A4A4A4A4A4A4A4A4A4A4A4A4A4A4A4A4A4A4A4A4A4A4A4A4A4A4A4A4A4A4A4A4A4A4A4A4A4A4A4A4A4A4A4A4A4A4A4A4A4A4A4A4A4A4A4A4A4A4A4A4A4A4A4A4A4A4A4A4A4A4A4A4A4A4A4A4A4A4A4A4A4A4A4A4A4A4A4A4A4A4A4A4A4A4A4A4A4A4A4A4A4A4A4A4A4A4
310
A4A4A4A4A4A4A4A4A4A4A4A4A4A4A4A4A4A4A4A4A4A4A4A4A4A4A4A4A4A4A4A4A4A4A4A4A4A4A4A4A4A4A4A4A4A4A4A4A4A4A4A4A4A4A4A4A4A4A4A4A4A4A4A4A4A4A4A4A4A4A4A4A4A4A4A4A4A4A4A4A4A4A4A4A4A4A4A4A4A4A4A4A4A4A4A4A4A4A4A4A4A4A4A4A4A4A4A4A4A4A4A4A4A4A4A4A4A4A4A4A4A4A4A4A4A4A4
310
A4A4A4A4A4A4A4A4A4A4A4A4A4A4A4A4A4A4A4A4A4A4A4A4A4A4A4A4A4A4A4A4A4A4A4A4A4A4A4A4A4A4A4A4A4A4A4A4A4A4A4A4A4A4A4A4
1001
ACAD
1000
DesignCenter Data
1002
{
1070
     1
1070
     4
1002
}
  0
BLOCK_RECORD
  5
AA8
330
1
100
AcDbSymbolTableRecord
100
AcDbBlockTableRecord
  2
_CLOSED
340
0
  0
BLOCK_RECORD
  5
B79
330
1
100
AcDbSymbolTableRecord
100
AcDbBlockTableRecord
  2
nota revisoes
340
0
1001
ACAD
1000
DesignCenter Data
1002
{
1070
     1
1070
     4
1002
}
  0
BLOCK_RECORD
  5
B8E
330
1
100
AcDbSymbolTableRecord
100
AcDbBlockTableRecord
  2
a3l
340
0
1001
ACAD
1000
DesignCenter Data
1002
{
1070
     1
1070
     4
1002
}
  0
BLOCK_RECORD
  5
B9E
330
1
100
AcDbSymbolTableRecord
100
AcDbBlockTableRecord
  2
legenda desenvolvimento
340
0
1001
ACAD
1000
DesignCenter Data
1002
{
1070
     1
1070
     4
1002
}
  0
BLOCK_RECORD
  5
10BC
102
{ACAD_XDICTIONARY
360
1103
102
}
330
1
100
AcDbSymbolTableRecord
100
AcDbBlockTableRecord
  2
104012PL
340
0
1001
ACAD
1000
DesignCenter Data
1002
{
1070
     1
1070
     4
1002
}
  0
BLOCK_RECORD
  5
110E
102
{ACAD_XDICTIONARY
360
1129
102
}
330
1
100
AcDbSymbolTableRecord
100
AcDbBlockTableRecord
  2
104021PL
340
0
102
{BLKREFS
331
112E
102
}
1001
ACAD
1000
DesignCenter Data
1002
{
1070
     1
1070
     4
1002
}
  0
BLOCK_RECORD
  5
112F
102
{ACAD_XDICTIONARY
360
1200
102
}
330
1
100
AcDbSymbolTableRecord
100
AcDbBlockTableRecord
  2
104021CT
340
0
1001
ACAD
1000
DesignCenter Data
1002
{
1070
     1
1070
     4
1002
}
  0
BLOCK_RECORD
  5
1205
102
{ACAD_XDICTIONARY
360
1234
102
}
330
1
100
AcDbSymbolTableRecord
100
AcDbBlockTableRecord
  2
104021AL
340
0
102
{BLKREFS
331
1238
102
}
1001
ACAD
1000
DesignCenter Data
1002
{
1070
     1
1070
     4
1002
}
  0
BLOCK_RECORD
  5
1239
102
{ACAD_XDICTIONARY
360
125A
102
}
330
1
100
AcDbSymbolTableRecord
100
AcDbBlockTableRecord
  2
104021AF
340
0
102
{BLKREFS
331
125E
102
}
1001
ACAD
1000
DesignCenter Data
1002
{
1070
     1
1070
     4
1002
}
  0
ENDTAB
  0
ENDSEC
  0
SECTION
  2
BLOCKS
  0
BLOCK
  5
20
330
1F
100
AcDbEntity
  8
0
100
AcDbBlockBegin
  2
*Model_Space
 70
     0
 10
0.0
 20
0.0
 30
0.0
  3
*Model_Space
  1

  0
ENDBLK
  5
21
330
1F
100
AcDbEntity
  8
0
100
AcDbBlockEnd
  0
BLOCK
  5
1C
330
1B
100
AcDbEntity
 67
     1
  8
0
100
AcDbBlockBegin
  2
*Paper_Space
 70
     0
 10
0.0
 20
0.0
 30
0.0
  3
*Paper_Space
  1

  0
ENDBLK
  5
1D
330
1B
100
AcDbEntity
 67
     1
  8
0
100
AcDbBlockEnd
  0
BLOCK
  5
24
330
23
100
AcDbEntity
 67
     1
  8
0
100
AcDbBlockBegin
  2
*Paper_Space0
 70
     0
 10
0.0
 20
0.0
 30
0.0
  3
*Paper_Space0
  1

  0
ENDBLK
  5
25
330
23
100
AcDbEntity
 67
     1
  8
0
100
AcDbBlockEnd
  0
BLOCK
  5
91B
330
919
100
AcDbEntity
  8
0
100
AcDbBlockBegin
  2
_DotSmall
 70
     0
 10
0.0
 20
0.0
 30
0.0
  3
_DotSmall
  1

  0
LWPOLYLINE
  5
91A
330
919
100
AcDbEntity
  8
0
  6
ByBlock
 62
     0
100
AcDbPolyline
 90
        2
 70
     1
 43
0.5
 10
-0.0625
 20
0.0
 42
1.0
 10
0.0625
 20
0.0
 42
1.0
  0
ENDBLK
  5
91C
330
919
100
AcDbEntity
  8
0
100
AcDbBlockEnd
  0
BLOCK
  5
92A
330
922
100
AcDbEntity
  8
0
100
AcDbBlockBegin
  2
base para cotas
 70
     0
 10
0.0
 20
0.0
 30
0.0
  3
base para cotas
  1

  0
LINE
  5
B36
330
922
100
AcDbEntity
  8
cotas
100
AcDbLine
 10
0.0
 20
-30.0
 30
0.0
 11
327.1260136525398
 21
-30.0
 31
0.0
  0
LINE
  5
B37
330
922
100
AcDbEntity
  8
cotas
100
AcDbLine
 10
0.0
 20
-25.0
 30
0.0
 11
327.1260136525398
 21
-25.0
 31
0.0
  0
LINE
  5
B38
330
922
100
AcDbEntity
  8
cotas
100
AcDbLine
 10
0.0
 20
-20.0
 30
0.0
 11
327.1260136525398
 21
-20.0
 31
0.0
  0
LINE
  5
B39
330
922
100
AcDbEntity
  8
cotas
100
AcDbLine
 10
0.0
 20
-15.0
 30
0.0
 11
327.1260136525398
 21
-15.0
 31
0.0
  0
LINE
  5
B3A
330
922
100
AcDbEntity
  8
cotas
100
AcDbLine
 10
0.0
 20
-10.0
 30
0.0
 11
327.1260136525398
 21
-10.0
 31
0.0
  0
LINE
  5
B3B
330
922
100
AcDbEntity
  8
cotas
100
AcDbLine
 10
0.0
 20
0.0
 30
0.0
 11
0.0
 21
-30.0
 31
0.0
  0
LINE
  5
B3C
330
922
100
AcDbEntity
  8
cotas
100
AcDbLine
 10
327.1260136525398
 20
-30.0
 30
0.0
 11
327.1260136525398
 21
0.0
 31
0.0
  0
ENDBLK
  5
92B
330
922
100
AcDbEntity
  8
0
100
AcDbBlockEnd
  0
BLOCK
  5
AAD
330
AA8
100
AcDbEntity
  8
0
100
AcDbBlockBegin
  2
_CLOSED
 70
     0
 10
0.0
 20
0.0
 30
0.0
  3
_CLOSED
  1

  0
LINE
  5
AA9
330
AA8
100
AcDbEntity
  8
0
100
AcDbLine
 10
-1.0
 20
0.166667
 30
0.0
 11
0.0
 21
0.0
 31
0.0
  0
LINE
  5
AAA
330
AA8
100
AcDbEntity
  8
0
100
AcDbLine
 10
0.0
 20
0.0
 30
0.0
 11
-1.0
 21
-0.166667
 31
0.0
  0
LINE
  5
AAB
330
AA8
100
AcDbEntity
  8
0
100
AcDbLine
 10
-1.0
 20
0.166667
 30
0.0
 11
-1.0
 21
-0.166667
 31
0.0
  0
LINE
  5
AAC
330
AA8
100
AcDbEntity
  8
0
100
AcDbLine
 10
0.0
 20
0.0
 30
0.0
 11
-1.0
 21
0.0
 31
0.0
  0
ENDBLK
  5
AAE
330
AA8
100
AcDbEntity
  8
0
100
AcDbBlockEnd
  0
BLOCK
  5
B7C
330
B79
100
AcDbEntity
  8
0
100
AcDbBlockBegin
  2
nota revisoes
 70
     0
 10
0.0
 20
0.0
 30
0.0
  3
nota revisoes
  1

  0
CIRCLE
  5
B7A
330
B79
100
AcDbEntity
  8
4
100
AcDbCircle
 10
0.0
 20
0.0
 30
0.0
 40
13.69426055101189
  0
TEXT
  5
B7B
330
B79
100
AcDbEntity
  8
4
100
AcDbText
 10
-5.496248358154345
 20
-5.354545554066362
 30
0.0
 40
12.0
  1
1
  7
SANINDUSA
 72
     1
 11
-0.249774214433728
 21
-5.354545554066362
 31
0.0
100
AcDbText
  0
ENDBLK
  5
B7D
330
B79
100
AcDbEntity
  8
0
100
AcDbBlockEnd
  0
BLOCK
  5
B9C
330
B8E
100
AcDbEntity
  8
0
100
AcDbBlockBegin
  2
a3l
 70
     0
 10
0.0
 20
0.0
 30
0.0
  3
a3l
  1

  0
LINE
  5
B8F
330
B8E
100
AcDbEntity
  8
1
100
AcDbLine
 10
-364.2925296599447
 20
-362.1188951399395
 30
0.0
 11
-364.2925296599447
 21
-65.11889513993946
 31
0.0
  0
LINE
  5
B90
330
B8E
100
AcDbEntity
  8
4
100
AcDbLine
 10
-369.2925296599447
 20
-357.1188951399395
 30
0.0
 11
-369.2925296599447
 21
-70.11889513993946
 31
0.0
  0
LINE
  5
B91
330
B8E
100
AcDbEntity
  8
1
100
AcDbLine
 10
-784.2925296599446
 20
-65.11889513993946
 30
0.0
 11
-784.2925296599446
 21
-362.1188951399395
 31
0.0
  0
LINE
  5
B92
330
B8E
100
AcDbEntity
  8
4
100
AcDbLine
 10
-759.2925296599446
 20
-357.1188951399395
 30
0.0
 11
-759.2925296599446
 21
-70.11889513993946
 31
0.0
  0
LINE
  5
B93
330
B8E
100
AcDbEntity
  8
1
100
AcDbLine
 10
-784.2925296599446
 20
-362.1188951399395
 30
0.0
 11
-364.2925296599447
 21
-362.1188951399395
 31
0.0
  0
LINE
  5
B94
330
B8E
100
AcDbEntity
  8
4
100
AcDbLine
 10
-759.2925296599446
 20
-357.1188951399395
 30
0.0
 11
-369.2925296599447
 21
-357.1188951399395
 31
0.0
  0
LINE
  5
B95
330
B8E
100
AcDbEntity
  8
1
100
AcDbLine
 10
-654.2925296599446
 20
-357.1188951399395
 30
0.0
 11
-654.2925296599446
 21
-362.1188951399395
 31
0.0
  0
LINE
  5
B96
330
B8E
100
AcDbEntity
  8
1
100
AcDbLine
 10
-364.2925296599447
 20
-65.11889513993946
 30
0.0
 11
-784.2925296599446
 21
-65.11889513993946
 31
0.0
  0
LINE
  5
B97
330
B8E
100
AcDbEntity
  8
4
100
AcDbLine
 10
-369.2925296599447
 20
-70.11889513993946
 30
0.0
 11
-759.2925296599446
 21
-70.11889513993946
 31
0.0
  0
LINE
  5
B98
330
B8E
100
AcDbEntity
  8
1
100
AcDbLine
 10
-654.2925296599446
 20
-65.11889513993946
 30
0.0
 11
-654.2925296599446
 21
-70.11889513993946
 31
0.0
  0
LINE
  5
B99
330
B8E
100
AcDbEntity
  8
1
100
AcDbLine
 10
-549.2925296599446
 20
-70.11889513993946
 30
0.0
 11
-549.2925296599446
 21
-65.11889513993946
 31
0.0
  0
LINE
  5
B9A
330
B8E
100
AcDbEntity
  8
1
100
AcDbLine
 10
-369.2925296599447
 20
-65.11889513993946
 30
0.0
 11
-364.2925296599447
 21
-65.11889513993946
 31
0.0
  0
LINE
  5
B9B
330
B8E
100
AcDbEntity
  8
1
100
AcDbLine
 10
-549.2925296599446
 20
-357.1188951399395
 30
0.0
 11
-549.2925296599446
 21
-362.1188951399395
 31
0.0
  0
ENDBLK
  5
B9D
330
B8E
100
AcDbEntity
  8
0
100
AcDbBlockEnd
  0
BLOCK
  5
C13
330
B9E
100
AcDbEntity
  8
0
100
AcDbBlockBegin
  2
legenda desenvolvimento
 70
     2
 10
0.0
 20
0.0
 30
0.0
  3
legenda desenvolvimento
  1

  0
ATTDEF
  5
B9F
330
B9E
100
AcDbEntity
  8
1
100
AcDbText
 10
-108.606245802552
 20
55.5
 30
0.0
 40
4.0
  1
XXXXXXXXXXXXXX
 41
0.8
  7
SANINDUSA
 72
     4
 11
-87.5
 21
57.5
 31
0.0
100
AcDbAttributeDefinition
  3
Nome do Produto:
  2
PRODUTO
 70
     0
  0
ATTDEF
  5
BA0
330
B9E
100
AcDbEntity
  8
1
100
AcDbText
 10
-97.9997966101695
 20
41.25
 30
0.0
 40
3.0
  1
XXXXXXXXX
 41
0.8
  7
futura
 72
     4
 11
-87.5
 21
42.75
 31
0.0
100
AcDbAttributeDefinition
  3
Nome da Peça:
  2
PECA
 70
     0
  0
ATTDEF
  5
BA1
330
B9E
100
AcDbEntity
  8
1
100
AcDbText
 10
-133.4422431161853
 20
21.11745296763252
 30
0.0
 40
2.5
  1
X
 41
0.8
  7
SANINDUSA
 72
     4
 11
-132.5
 21
22.36745296763252
 31
0.0
100
AcDbAttributeDefinition
  3
Cod. TESTE:
  2
TESTE
 70
     0
  0
ATTDEF
  5
BA2
330
B9E
100
AcDbEntity
  8
1
100
AcDbText
 10
-124.3844862323707
 20
21.11745296763252
 30
0.0
 40
2.5
  1
XX
 41
0.8
  7
SANINDUSA
 72
     4
 11
-122.5
 21
22.36745296763252
 31
0.0
100
AcDbAttributeDefinition
  3
Cod. Ano:
  2
ANO
 70
     0
  0
ATTDEF
  5
BA3
330
B9E
100
AcDbEntity
  8
1
100
AcDbText
 10
-112.526889953052
 20
21.11745296763252
 30
0.0
 40
2.5
  1
XXX
 41
0.8
  7
SANINDUSA
 72
     4
 11
-109.700160604496
 21
22.36745296763252
 31
0.0
100
AcDbAttributeDefinition
  3
Cod. Sequência:
  2
SEQUENCIA
 70
     0
  0
ATTDEF
  5
BA4
330
B9E
100
AcDbEntity
  8
1
100
AcDbText
 10
-99.35382430979316
 20
21.11745296763252
 30
0.0
 40
2.5
  1
XX
 41
0.8
  7
SANINDUSA
 72
     4
 11
-97.46933807742244
 21
22.36745296763252
 31
0.0
100
AcDbAttributeDefinition
  3
Cod. Tipo:
  2
TIPO
 70
     0
  0
ATTDEF
  5
BA5
330
B9E
100
AcDbEntity
  8
1
100
AcDbText
 10
-87.42035911468438
 20
21.11745296763252
 30
0.0
 40
2.5
  1
XXX
 41
0.8
  7
SANINDUSA
 72
     4
 11
-84.59362976612828
 21
22.36745296763252
 31
0.0
100
AcDbAttributeDefinition
  3
Cod. Produto:
  2
PRODUTO
 70
     0
  0
ATTDEF
  5
BA6
330
B9E
100
AcDbEntity
  8
1
100
AcDbText
 10
-74.62051971917853
 20
21.11745296763252
 30
0.0
 40
2.5
  1
XXX
 41
0.8
  7
SANINDUSA
 72
     4
 11
-71.79379037062244
 21
22.36745296763252
 31
0.0
100
AcDbAttributeDefinition
  3
Cod. Peça:
  2
PECA
 70
     0
  0
ATTDEF
  5
BA7
330
B9E
100
AcDbEntity
  8
1
100
AcDbText
 10
-61.10603446650329
 20
21.11745296763252
 30
0.0
 40
2.5
  1
XX
 41
0.8
  7
SANINDUSA
 72
     4
 11
-59.22154823413257
 21
22.36745296763252
 31
0.0
100
AcDbAttributeDefinition
  3
Cod. Revisão:
  2
REV
 70
     0
  0
ATTDEF
  5
BA8
330
B9E
100
AcDbEntity
  8
1
100
AcDbText
 10
-48.43615325006194
 20
21.11745296763252
 30
0.0
 40
2.5
  1
XX
 41
0.8
  7
SANINDUSA
 72
     4
 11
-46.55166701769121
 21
22.36745296763252
 31
0.0
100
AcDbAttributeDefinition
  3
Cod. Alteração:
  2
ALT
 70
     0
  0
ATTDEF
  5
BA9
330
B9E
100
AcDbEntity
  8
1
100
AcDbText
 10
-35.19086635325722
 20
23.98875083948959
 30
0.0
 40
3.0
  1
1/XXX
 41
0.8
  7
SANINDUSA
 72
     4
 11
-30.0
 21
25.25
 31
0.0
100
AcDbAttributeDefinition
  3
Escala geral:
  2
ESCALA
 70
     0
  0
ATTDEF
  5
BAA
330
B9E
100
AcDbEntity
  8
1
100
AcDbText
 10
-15.65345869711215
 20
23.75
 30
0.0
 40
3.0
  1
XXXXX
 41
0.8
  7
SANINDUSA
 72
     4
 11
-10.0
 21
25.25
 31
0.0
100
AcDbAttributeDefinition
  3
Folha:
  2
FOLHA
 70
     0
  0
ATTDEF
  5
BAB
330
B9E
100
AcDbEntity
  8
1
100
AcDbText
 10
-178.5146998822042
 20
56.9531347542807
 30
0.0
 40
2.0
  1
xx
 41
0.8
  7
SANINDUSA
 72
     4
 11
-177.2123493113513
 21
57.70330265219877
 31
0.0
100
AcDbAttributeDefinition
  3
revisão
  2
REV.
 70
     0
  0
ATTDEF
  5
BAC
330
B9E
100
AcDbEntity
  8
1
100
AcDbText
 10
-172.7849640077129
 20
56.9531347542807
 30
0.0
 40
2.0
  1
xx
 41
0.8
  7
SANINDUSA
 72
     4
 11
-171.48261343686
 21
57.70330265219877
 31
0.0
100
AcDbAttributeDefinition
  3
alteração
  2
ALT.
 70
     0
  0
ATTDEF
  5
BAD
330
B9E
100
AcDbEntity
  8
1
100
AcDbText
 10
-168.007199951307
 20
56.70330265219877
 30
0.0
 40
2.0
  1
xx/xx/xxxx
 41
0.8
  7
SANINDUSA
 11
-168.007199951307
 21
57.70330265219877
 31
0.0
100
AcDbAttributeDefinition
  3
data
  2
DATA
 70
     0
 74
     2
  0
ATTDEF
  5
BAE
330
B9E
100
AcDbEntity
  8
1
100
AcDbText
 10
-168.5396372253371
 20
13.15916722632639
 30
0.0
 40
2.0
  1
XX/XX/XXXX
 41
0.8
  7
SANINDUSA
 72
     4
 11
-161.5099528734231
 21
14.0
 31
0.0
100
AcDbAttributeDefinition
  3
Data projecto
  2
DATA_PROJ
 70
     0
  0
ATTDEF
  5
BAF
330
B9E
100
AcDbEntity
  8
1
100
AcDbText
 10
-150.8658110728766
 20
13.24983210208193
 30
0.0
 40
2.0
  1
xxxxxxxx
 41
0.8
  7
SANINDUSA
 72
     4
 11
-145.6564087894649
 21
14.0
 31
0.0
100
AcDbAttributeDefinition
  3
nome de quem projectou
  2
NOME
 70
     0
  0
ATTDEF
  5
BB0
330
B9E
100
AcDbEntity
  8
1
100
AcDbText
 10
-168.5396372253371
 20
9.159167226326394
 30
0.0
 40
2.0
  1
XX/XX/XXXX
 41
0.8
  7
SANINDUSA
 72
     4
 11
-161.5099528734231
 21
10.0
 31
0.0
100
AcDbAttributeDefinition
  3
Data desenhou
  2
DATA_DES
 70
     0
  0
ATTDEF
  5
BB1
330
B9E
100
AcDbEntity
  8
1
100
AcDbText
 10
-151.516986358303
 20
9.249832102081933
 30
0.0
 40
2.0
  1
xxxxxxxxx
 41
0.8
  7
SANINDUSA
 72
     4
 11
-145.6564087894649
 21
10.0
 31
0.0
100
AcDbAttributeDefinition
  3
nome
  2
NOME
 70
     0
  0
ATTDEF
  5
BB2
330
B9E
100
AcDbEntity
  8
1
100
AcDbText
 10
-127.2924214135946
 20
14.1979876583216
 30
0.0
 40
2.0
  1
Vitreous China
 41
0.8
  7
SANINDUSA
 72
     4
 11
-119.231709526422
 21
15.22216495852308
 31
0.0
100
AcDbAttributeDefinition
  3
Nome do Material:
  2
MATERIAL
 70
     0
  0
ATTDEF
  5
BB3
330
B9E
100
AcDbEntity
  8
1
100
AcDbText
 10
-103.1563452122093
 20
14.38019043949261
 30
0.0
 40
2.0
  1
Branco
 41
0.8
  7
SANINDUSA
 72
     4
 11
-99.33418268702462
 21
15.35937109765245
 31
0.0
100
AcDbAttributeDefinition
  3
cor da peça
  2
COR
 70
     0
  0
ATTDEF
  5
BB4
330
B9E
100
AcDbEntity
  8
1
100
AcDbText
 10
-116.7235057085292
 20
5.975822699798522
 30
0.0
 40
2.0
  1
Vidrado
 41
0.8
  7
SANINDUSA
 72
     4
 11
-112.5
 21
7.0
 31
0.0
100
AcDbAttributeDefinition
  3
Tipo de acabamento:
  2
ACABAMENTO
 70
     0
  0
ATTDEF
  5
BB5
330
B9E
100
AcDbEntity
  8
1
100
AcDbText
 10
-79.18527869967246
 20
16.65066409850533
 30
0.0
 40
2.0
  1
XXXXXXX
 41
0.8
  7
SANINDUSA
 72
     4
 11
-73.90871724903445
 21
17.65066409850533
 31
0.0
100
AcDbAttributeDefinition
  3
Normas
  2
NORMAS
 70
     0
  0
ATTDEF
  5
BB6
330
B9E
100
AcDbEntity
  8
1
100
AcDbText
 10
-30.55312290127603
 20
14.0
 30
0.0
 40
2.0
  1
XXXXXXXXXXXXXX
 41
0.8
  7
SANINDUSA
 72
     4
 11
-20.0
 21
15.0
 31
0.0
100
AcDbAttributeDefinition
  3
Substitui o desenho:
  2
SUBSTITUI
 70
     0
  0
ATTDEF
  5
BB7
330
B9E
100
AcDbEntity
  8
1
100
AcDbText
 10
-31.30691739422431
 20
6.0
 30
0.0
 40
2.0
  1
XXXXXXXXXXXXXXX
 41
0.8
  7
SANINDUSA
 72
     4
 11
-20.0
 21
7.0
 31
0.0
100
AcDbAttributeDefinition
  3
Substituido por:
  2
SUBSTITUIDO
 70
     0
  0
ATTDEF
  5
BB8
330
B9E
100
AcDbEntity
  8
1
100
AcDbText
 10
-110.0220608548302
 20
1.478208457928303
 30
0.0
 40
2.0
  1
XXXXXXXXXXXXXXXXXXXXXXXXXXXXXXXXXX
 41
0.8
  7
SANINDUSA
 11
-110.0220608548302
 21
2.478208457928303
 31
0.0
100
AcDbAttributeDefinition
  3
Localização do desenho:
  2
LOC-DWG
 70
     0
 74
     2
  0
LINE
  5
BB9
330
B9E
100
AcDbEntity
  8
3
100
AcDbLine
 10
-135.0
 20
4.0
 30
0.0
 11
0.0000000000004547
 21
4.0
 31
0.0
  0
LINE
  5
BBA
330
B9E
100
AcDbEntity
  8
3
100
AcDbLine
 10
-90.00000000000046
 20
12.0
 30
0.0
 11
-135.0
 21
12.0
 31
0.0
  0
LINE
  5
BBB
330
B9E
100
AcDbEntity
  8
3
100
AcDbLine
 10
-135.0
 20
32.5
 30
0.0
 11
-40.0
 21
32.5
 31
0.0
  0
TEXT
  5
BBC
330
B9E
100
AcDbEntity
  8
1
100
AcDbText
 10
-134.0
 20
1.25
 30
0.0
 40
2.0
  1
Localização do des.:
 41
0.8
  7
SANINDUSA
 11
-134.0
 21
2.25
 31
0.0
100
AcDbText
 73
     2
  0
LINE
  5
BBD
330
B9E
100
AcDbEntity
  8
3
100
AcDbLine
 10
-180.0
 20
65.0
 30
0.0
 11
0.0
 21
65.0
 31
0.0
  0
LINE
  5
BBE
330
B9E
100
AcDbEntity
  8
leg fin
100
AcDbLine
 10
-40.0
 20
25.05956924886846
 30
0.0
 11
-135.0
 21
25.05956924886846
 31
0.0
  0
LINE
  5
BBF
330
B9E
100
AcDbEntity
  8
leg fin
100
AcDbLine
 10
-40.0
 20
28.5
 30
0.0
 11
-135.0
 21
28.5
 31
0.0
  0
LINE
  5
BC0
330
B9E
100
AcDbEntity
  8
3
100
AcDbLine
 10
-135.0
 20
50.0
 30
0.0
 11
-40.0
 21
50.0
 31
0.0
  0
TEXT
  5
BC1
330
B9E
100
AcDbEntity
  8
1
100
AcDbText
 10
-134.0
 20
29.75
 30
0.0
 40
2.0
  1
Desenho nº:
 41
0.8
  7
SANINDUSA
 11
-134.0
 21
30.75
 31
0.0
100
AcDbText
 73
     2
  0
TEXT
  5
BC2
330
B9E
100
AcDbEntity
  8
1
100
AcDbText
 10
-134.0
 20
9.25
 30
0.0
 40
2.0
  1
Acabamento:
 41
0.8
  7
SANINDUSA
 11
-134.0
 21
10.25
 31
0.0
100
AcDbText
 73
     2
  0
LINE
  5
BC3
330
B9E
100
AcDbEntity
  8
3
100
AcDbLine
 10
-180.0
 20
20.0
 30
0.0
 11
0.0
 21
20.0
 31
0.0
  0
LINE
  5
BC4
330
B9E
100
AcDbEntity
  8
1
100
AcDbLine
 10
-174.5810776056337
 20
55.5
 30
0.0
 11
-174.5810776056337
 21
65.0
 31
0.0
  0
LINE
  5
BC5
330
B9E
100
AcDbEntity
  8
1
100
AcDbLine
 10
-168.9210461879161
 20
55.5
 30
0.0
 11
-168.9210461879161
 21
65.0
 31
0.0
  0
LINE
  5
BC6
330
B9E
100
AcDbEntity
  8
1
100
AcDbLine
 10
-154.0988595589306
 20
55.5
 30
0.0
 11
-154.0988595589306
 21
65.0
 31
0.0
  0
LINE
  5
BC7
330
B9E
100
AcDbEntity
  8
3
100
AcDbLine
 10
-180.0
 20
65.0
 30
0.0
 11
-180.0
 21
0.0
 31
0.0
  0
LINE
  5
BC8
330
B9E
100
AcDbEntity
  8
3
100
AcDbLine
 10
-135.0
 20
0.0
 30
0.0
 11
-135.0
 21
65.0
 31
0.0
  0
TEXT
  5
BC9
330
B9E
100
AcDbEntity
  8
1
100
AcDbText
 10
-179.0
 20
9.75
 30
0.0
 40
1.5
  1
Des.
 41
0.8
  7
SANINDUSA
 11
-179.0
 21
10.5
 31
0.0
100
AcDbText
 73
     2
  0
LINE
  5
BCA
330
B9E
100
AcDbEntity
  8
1
100
AcDbLine
 10
-168.9210461879161
 20
20.0
 30
0.0
 11
-168.9210461879161
 21
0.0
 31
0.0
  0
LINE
  5
BCB
330
B9E
100
AcDbEntity
  8
1
100
AcDbLine
 10
-154.0988595589306
 20
20.0
 30
0.0
 11
-154.0988595589306
 21
0.0
 31
0.0
  0
LINE
  5
BCC
330
B9E
100
AcDbEntity
  8
1
100
AcDbLine
 10
-180.0
 20
4.0
 30
0.0
 11
-135.0
 21
4.0
 31
0.0
  0
LINE
  5
BCD
330
B9E
100
AcDbEntity
  8
1
100
AcDbLine
 10
-180.0
 20
8.0
 30
0.0
 11
-135.0
 21
8.0
 31
0.0
  0
TEXT
  5
BCE
330
B9E
100
AcDbEntity
  8
1
100
AcDbText
 10
-179.0
 20
1.73257823687436
 30
0.0
 40
1.5
  1
Aprov.
 41
0.8
  7
SANINDUSA
 11
-179.0
 21
2.48257823687436
 31
0.0
100
AcDbText
 73
     2
  0
TEXT
  5
BCF
330
B9E
100
AcDbEntity
  8
1
100
AcDbText
 10
-179.0
 20
5.75
 30
0.0
 40
1.5
  1
Ver.
 41
0.8
  7
SANINDUSA
 11
-179.0
 21
6.5
 31
0.0
100
AcDbText
 73
     2
  0
LINE
  5
BD0
330
B9E
100
AcDbEntity
  8
1
100
AcDbLine
 10
-180.0
 20
16.0
 30
0.0
 11
-135.0
 21
16.0
 31
0.0
  0
LINE
  5
BD1
330
B9E
100
AcDbEntity
  8
1
100
AcDbLine
 10
-180.0
 20
12.0
 30
0.0
 11
-135.0
 21
12.0
 31
0.0
  0
TEXT
  5
BD2
330
B9E
100
AcDbEntity
  8
1
100
AcDbText
 10
-179.0
 20
13.75
 30
0.0
 40
1.5
  1
Proj.
 41
0.8
  7
SANINDUSA
 11
-179.0
 21
14.5
 31
0.0
100
AcDbText
 73
     2
  0
TEXT
  5
BD3
330
B9E
100
AcDbEntity
  8
1
100
AcDbText
 10
-167.9210461879161
 20
17.75
 30
0.0
 40
1.5
  1
Data
 41
0.8
  7
SANINDUSA
 11
-167.9210461879161
 21
18.5
 31
0.0
100
AcDbText
 73
     2
  0
TEXT
  5
BD4
330
B9E
100
AcDbEntity
  8
1
100
AcDbText
 10
-153.0988595589306
 20
17.75
 30
0.0
 40
1.5
  1
Nome
 41
0.8
  7
SANINDUSA
 11
-153.0988595589306
 21
18.5
 31
0.0
100
AcDbText
 73
     2
  0
LINE
  5
BD5
330
B9E
100
AcDbEntity
  8
leg fin
100
AcDbLine
 10
-130.0
 20
20.0
 30
0.0
 11
-130.0
 21
28.5
 31
0.0
  0
TEXT
  5
BD6
330
B9E
100
AcDbEntity
  8
1
100
AcDbText
 10
-134.0
 20
17.25
 30
0.0
 40
2.0
  1
Material:
 41
0.8
  7
SANINDUSA
 11
-134.0
 21
18.25
 31
0.0
100
AcDbText
 73
     2
  0
TEXT
  5
BD7
330
B9E
100
AcDbEntity
  8
1
100
AcDbText
 10
-129.0
 20
26.43288406845113
 30
0.0
 40
1.5
  1
Ano:
 41
0.8
  7
SANINDUSA
 11
-129.0
 21
27.18288406845113
 31
0.0
100
AcDbText
 73
     2
  0
LINE
  5
BD8
330
B9E
100
AcDbEntity
  8
1
100
AcDbLine
 10
-180.0
 20
55.5
 30
0.0
 11
-135.0
 21
55.5
 31
0.0
  0
TEXT
  5
BD9
330
B9E
100
AcDbEntity
  8
1
100
AcDbText
 10
-179.0
 20
52.67772246885193
 30
0.0
 40
1.5
  1
descrição
 41
0.8
  7
SANINDUSA
 11
-179.0
 21
53.42772246885193
 31
0.0
100
AcDbText
 73
     2
  0
TEXT
  5
BDA
330
B9E
100
AcDbEntity
  8
1
100
AcDbText
 10
-134.0
 20
47.25
 30
0.0
 40
2.0
  1
Peça:
 41
0.8
  7
SANINDUSA
 11
-134.0
 21
48.25
 31
0.0
100
AcDbText
 73
     2
  0
LINE
  5
BDB
330
B9E
100
AcDbEntity
  8
1
100
AcDbLine
 10
-180.0
 20
59.5
 30
0.0
 11
-135.0
 21
59.5
 31
0.0
  0
TEXT
  5
BDC
330
B9E
100
AcDbEntity
  8
1
100
AcDbText
 10
-173.5810776056337
 20
62.75
 30
0.0
 40
1.5
  1
Alt.
 41
0.8
  7
SANINDUSA
 11
-173.5810776056337
 21
63.5
 31
0.0
100
AcDbText
 73
     2
  0
TEXT
  5
BDD
330
B9E
100
AcDbEntity
  8
1
100
AcDbText
 10
-179.0
 20
62.75
 30
0.0
 40
1.5
  1
Rev.
 41
0.8
  7
SANINDUSA
 11
-179.0
 21
63.5
 31
0.0
100
AcDbText
 73
     2
  0
TEXT
  5
BDE
330
B9E
100
AcDbEntity
  8
1
100
AcDbText
 10
-167.9210461879161
 20
62.75
 30
0.0
 40
1.5
  1
Data
 41
0.8
  7
SANINDUSA
 11
-167.9210461879161
 21
63.5
 31
0.0
100
AcDbText
 73
     2
  0
TEXT
  5
BDF
330
B9E
100
AcDbEntity
  8
1
100
AcDbText
 10
-153.0988595589306
 20
62.75
 30
0.0
 40
1.5
  1
Nome
 41
0.8
  7
SANINDUSA
 11
-153.0988595589306
 21
63.5
 31
0.0
100
AcDbText
 73
     2
  0
TEXT
  5
BE0
330
B9E
100
AcDbEntity
  8
1
100
AcDbText
 10
-134.0
 20
62.25
 30
0.0
 40
2.0
  1
Produto:
 41
0.8
  7
SANINDUSA
 11
-134.0
 21
63.25
 31
0.0
100
AcDbText
 73
     2
  0
LINE
  5
BE1
330
B9E
100
AcDbEntity
  8
3
100
AcDbLine
 10
-40.0
 20
4.0
 30
0.0
 11
-40.0
 21
65.0
 31
0.0
  0
LWPOLYLINE
  5
BE2
102
{ACAD_REACTORS
330
BEC
102
}
330
B9E
100
AcDbEntity
  8
9
100
AcDbPolyline
 90
       12
 70
     1
 43
0.0
 10
-3.038714600644652
 20
58.90010174665076
 10
-5.726962862472191
 20
58.90010174665076
 10
-5.726962862472191
 20
58.5001017466509
 10
-3.038748516195028
 20
58.5001017466509
 42
-0.4142135623731731
 10
-2.638748516194482
 20
58.1001017466508
 10
-2.638748516194482
 20
57.42799728675596
 10
-5.21497371544865
 20
57.42799728675596
 42
0.4142135623731289
 10
-6.014973715448377
 20
56.627997286756
 10
-6.014973715448377
 20
55.92380871629643
 42
0.4142135623731132
 10
-5.21497371544865
 20
55.12380871629648
 10
-2.23871460064447
 20
55.12380871629648
 10
-2.23871460064447
 20
58.10010174665103
 42
0.4142135623730717
  0
LWPOLYLINE
  5
BE3
102
{ACAD_REACTORS
330
BEC
102
}
330
B9E
100
AcDbEntity
  8
9
100
AcDbPolyline
 90
       20
 70
     1
 43
0.0
 10
-10.01531287095122
 20
57.82799728675581
 10
-10.01531287095122
 20
58.10010174665103
 42
-0.4142135623730744
 10
-9.615312870951584
 20
58.5001017466509
 10
-6.92703069357276
 20
58.5001017466509
 10
-6.92703069357276
 20
58.90010174665076
 10
-9.615346786501959
 20
58.90010174665076
 42
0.4142135623730883
 10
-10.41534678650168
 20
58.1001017466508
 10
-10.41534678650168
 20
57.82796337120567
 42
0.4142135623730717
 10
-9.615346786501959
 20
57.02796337120571
 10
-7.423079531965413
 20
57.02796337120571
 42
-0.4142135623730847
 10
-7.023079531965322
 20
56.62796337120562
 10
-7.023079531965322
 20
55.90786840766487
 42
-0.4142135623730744
 10
-7.423079531965413
 20
55.507868407665
 10
-10.41534678650168
 20
55.507868407665
 10
-10.41534678650168
 20
55.12380871629648
 10
-7.445787917283723
 20
55.12380871629648
 42
0.4114777732064574
 10
-6.645822882998345
 20
55.9163291493976
 10
-6.639238813324936
 20
56.62051771985716
 42
0.4169546541682913
 10
-7.439203847610315
 20
57.42799728675596
 10
-9.615312870951584
 20
57.42799728675596
 42
-0.4142135623731576
  0
LWPOLYLINE
  5
BE4
102
{ACAD_REACTORS
330
BEC
102
}
330
B9E
100
AcDbEntity
  8
9
100
AcDbPolyline
 90
       12
 70
     1
 43
0.0
 10
-14.41561811090378
 20
58.90010174665076
 10
-14.79964388672215
 20
58.90010174665076
 10
-14.79964388672215
 20
55.92380871629643
 42
0.4142135623731133
 10
-13.99964388672242
 20
55.12380871629648
 10
-11.8233508563676
 20
55.12380871629648
 42
0.4142135623730872
 10
-11.02335085636741
 20
55.92380871629643
 10
-11.02335085636741
 20
58.90010174665076
 10
-11.42338477191788
 20
58.90010174665076
 10
-11.42338477191788
 20
55.91567577726095
 42
-0.4131711701795318
 10
-11.82196067063523
 20
55.51567831234956
 10
-14.0141940096214
 20
55.50787335710947
 42
-0.4152567234624407
 10
-14.41561811090378
 20
55.90787082202087
  0
LWPOLYLINE
  5
BE5
102
{ACAD_REACTORS
330
BEC
102
}
330
B9E
100
AcDbEntity
  8
9
100
AcDbPolyline
 90
        6
 70
     1
 43
0.0
 10
-15.80771578768872
 20
55.507868407665
 10
-18.39994912667453
 20
55.507868407665
 42
-0.4142135623731731
 10
-18.79994912667462
 20
55.90786840766487
 10
-18.79994912667462
 20
58.10010174665103
 42
-0.4142135623730744
 10
-18.39994912667453
 20
58.5001017466509
 10
-15.80771578768872
 20
58.5001017466509
  0
LWPOLYLINE
  5
BE6
102
{ACAD_REACTORS
330
BEC
102
}
330
B9E
100
AcDbEntity
  8
9
100
AcDbPolyline
 90
        8
 70
     1
 43
0.0
 10
-15.4236900118708
 20
59.87619128370352
 10
-15.80771578768872
 20
59.87619128370352
 10
-15.80771578768872
 20
58.90010174665076
 10
-18.39176256411201
 20
58.90010174665076
 42
0.4131164467977967
 10
-19.19175694739761
 20
58.1030995310698
 10
-19.1999120763262
 20
55.92680650071542
 42
0.4153115297271718
 10
-18.39991769304061
 20
55.12380871629648
 10
-15.4236900118708
 20
55.12380871629648
  0
LWPOLYLINE
  5
BE7
102
{ACAD_REACTORS
330
BEC
102
}
330
B9E
100
AcDbEntity
  8
9
100
AcDbPolyline
 90
       10
 70
     1
 43
0.0
 10
-20.59201288790928
 20
58.90010174665076
 10
-23.56830591826338
 20
58.90010174665076
 10
-23.56830591826338
 20
55.12380871629648
 10
-23.18424622689509
 20
55.12380871629648
 10
-23.18424622689509
 20
58.5001017466509
 10
-20.59204680345965
 20
58.5001017466509
 42
-0.4142135623730898
 10
-20.19204680345956
 20
58.1001017466508
 10
-20.19204680345956
 20
55.12380871629648
 10
-19.79201288790909
 20
55.12380871629648
 10
-19.79201288790909
 20
58.10010174665103
 42
0.4142135623731132
  0
LWPOLYLINE
  5
BE8
102
{ACAD_REACTORS
330
BEC
102
}
330
B9E
100
AcDbEntity
  8
9
100
AcDbPolyline
 90
        4
 70
     1
 43
0.0
 10
-24.19231812786165
 20
58.90010174665076
 10
-24.57637781922995
 20
58.90010174665076
 10
-24.57637781922995
 20
55.12380871629648
 10
-24.19231812786165
 20
55.12380871629648
  0
LWPOLYLINE
  5
BE9
102
{ACAD_REACTORS
330
BEC
102
}
330
B9E
100
AcDbEntity
  8
9
100
AcDbPolyline
 90
       10
 70
     1
 43
0.0
 10
-28.57661522808212
 20
58.5001017466509
 10
-25.98444972019706
 20
58.5001017466509
 42
-0.4142135623731731
 10
-25.58444972019652
 20
58.1001017466508
 10
-25.58444972019652
 20
55.12380871629648
 10
-25.2004239443786
 20
55.12380871629648
 10
-25.2004239443786
 20
58.10010174665103
 42
0.4142135623730717
 10
-26.00042394437833
 20
58.90010174665076
 10
-28.97664914363259
 20
58.90010174665076
 10
-28.97664914363259
 20
55.12380871629648
 10
-28.57661522808212
 20
55.12380871629648
  0
LWPOLYLINE
  5
BEA
102
{ACAD_REACTORS
330
BEC
102
}
330
B9E
100
AcDbEntity
  8
9
100
AcDbPolyline
 90
       12
 70
     1
 43
0.0
 10
-29.58465321349832
 20
58.10010174665103
 42
0.4142135623730716
 10
-30.3846532134985
 20
58.90010174665076
 10
-33.07296930642724
 20
58.90010174665076
 10
-33.07296930642724
 20
58.5001017466509
 10
-30.38468712904842
 20
58.5001017466509
 42
-0.4142135623730067
 10
-29.98468712904878
 20
58.1001017466508
 10
-29.98468712904878
 20
57.42799728675618
 10
-32.56098015940324
 20
57.42799728675596
 42
0.4142135623731289
 10
-33.36098015940343
 20
56.627997286756
 10
-33.36098015940343
 20
55.92380871629643
 42
0.4142135623731132
 10
-32.56098015940324
 20
55.12380871629648
 10
-29.58465321349832
 20
55.12380871629648
  0
LWPOLYLINE
  5
BEB
102
{ACAD_REACTORS
330
BEC
102
}
330
B9E
100
AcDbEntity
  8
9
100
AcDbPolyline
 90
       20
 70
     1
 43
0.0
 10
-34.7850262845518
 20
57.42799728675596
 10
-36.96125148380543
 20
57.42799728675596
 42
-0.4142135623730898
 10
-37.36125148380552
 20
57.82799728675604
 10
-37.36125148380552
 20
58.10010174665103
 42
-0.4142135623730744
 10
-36.96125148380543
 20
58.5001017466509
 10
-34.27303713752781
 20
58.50010174665067
 10
-34.27303713752781
 20
58.90010174665076
 10
-36.96128539935535
 20
58.90010174665076
 42
0.4142135623731289
 10
-37.76128539935553
 20
58.1001017466508
 10
-37.76128539935553
 20
57.82796337120567
 42
0.4142135623730716
 10
-36.9612853993558
 20
57.02796337120571
 10
-34.76901814481926
 20
57.02796337120571
 42
-0.414213562373168
 10
-34.36901814481962
 20
56.62796337120562
 10
-34.36901814481962
 20
55.90786840766487
 42
-0.4142135623730744
 10
-34.76901814481926
 20
55.507868407665
 10
-37.76128539935553
 20
55.507868407665
 10
-37.76128539935553
 20
55.12380871629648
 10
-34.7850262845518
 20
55.12380871629648
 42
0.4142135623731289
 10
-33.98502628455162
 20
55.92380871629643
 10
-33.98502628455162
 20
56.627997286756
 42
0.4142135623731132
  0
HATCH
  5
BEC
330
B9E
100
AcDbEntity
  8
9
100
AcDbHatch
 10
0.0
 20
0.0
 30
0.0
210
0.0
220
0.0
230
1.0
  2
SOLID
 70
     1
 71
     1
 91
       13
 92
        7
 72
     1
 73
     1
 93
       20
 10
-34.36901814481962
 20
55.90786840766487
 42
-0.414213562372991
 10
-34.76901814481926
 20
55.507868407665
 42
0.0
 10
-37.76128539935553
 20
55.507868407665
 42
0.0
 10
-37.76128539935553
 20
55.12380871629648
 42
0.0
 10
-34.7850262845518
 20
55.12380871629648
 42
0.4142135623731705
 10
-33.98502628455162
 20
55.92380871629666
 42
0.0
 10
-33.98502628455162
 20
56.627997286756
 42
0.4142135623731547
 10
-34.7850262845518
 20
57.42799728675596
 42
0.0
 10
-36.96125148380543
 20
57.42799728675596
 42
-0.4142135623730898
 10
-37.36125148380552
 20
57.82799728675604
 42
0.0
 10
-37.36125148380552
 20
58.1001017466508
 42
-0.4142135623731575
 10
-36.96125148380543
 20
58.5001017466509
 42
0.0
 10
-34.27303713752781
 20
58.50010174665067
 42
0.0
 10
-34.27303713752781
 20
58.90010174665076
 42
0.0
 10
-36.96128539935535
 20
58.90010174665076
 42
0.4142135623731705
 10
-37.76128539935553
 20
58.10010174665058
 42
0.0
 10
-37.76128539935553
 20
57.82796337120544
 42
0.4142135623730299
 10
-36.9612853993558
 20
57.02796337120571
 42
0.0
 10
-34.76901814481926
 20
57.02796337120571
 42
-0.4142135623730015
 10
-34.36901814481962
 20
56.62796337120608
 42
0.0
 97
        1
330
BEB
 92
        7
 72
     1
 73
     1
 93
       12
 10
-33.36098015940343
 20
55.92380871629666
 42
0.4142135623731547
 10
-32.56098015940324
 20
55.12380871629648
 42
0.0
 10
-29.58465321349877
 20
55.12380871629648
 42
0.0
 10
-29.58465321349832
 20
58.10010174665058
 42
0.4142135623731964
 10
-30.3846532134985
 20
58.90010174665076
 42
0.0
 10
-33.07296930642724
 20
58.90010174665076
 42
0.0
 10
-33.07296930642724
 20
58.50010174665067
 42
0.0
 10
-30.38468712904887
 20
58.5001017466509
 42
-0.4142135623732564
 10
-29.98468712904878
 20
58.10010174665103
 42
0.0
 10
-29.98468712904923
 20
57.42799728675596
 42
0.0
 10
-32.56098015940324
 20
57.42799728675596
 42
0.4142135623731705
 10
-33.36098015940343
 20
56.627997286756
 42
0.0
 97
        1
330
BEA
 92
       22
 72
     1
 73
     1
 93
        6
 10
-32.97692046803468
 20
56.62796337120562
 42
-0.4142135623731576
 10
-32.57692046803459
 20
57.02796337120571
 42
0.0
 10
-29.98468712904878
 20
57.02796337120571
 42
0.0
 10
-29.98468712904878
 20
55.507868407665
 42
0.0
 10
-32.57692046803459
 20
55.507868407665
 42
-0.4142135623731731
 10
-32.97692046803468
 20
55.90786840766487
 42
0.0
 97
        1
330
C11
 92
        7
 72
     1
 73
     1
 93
       10
 10
-28.57661522808212
 20
58.5001017466509
 42
0.0
 10
-25.98444972019661
 20
58.5001017466509
 42
-0.4142135623730067
 10
-25.58444972019652
 20
58.10010174665058
 42
0.0
 10
-25.58444972019606
 20
55.12380871629648
 42
0.0
 10
-25.20042394437906
 20
55.12380871629648
 42
0.0
 10
-25.2004239443786
 20
58.1001017466508
 42
0.4142135623731134
 10
-26.00042394437833
 20
58.90010174665076
 42
0.0
 10
-28.97664914363259
 20
58.90010174665076
 42
0.0
 10
-28.97664914363259
 20
55.12380871629648
 42
0.0
 10
-28.57661522808212
 20
55.12380871629648
 42
0.0
 97
        1
330
BE9
 92
        7
 72
     0
 73
     1
 93
        4
 10
-24.57637781922995
 20
55.12380871629648
 10
-24.19231812786165
 20
55.12380871629648
 10
-24.19231812786165
 20
58.90010174665076
 10
-24.57637781922995
 20
58.90010174665076
 97
        1
330
BE8
 92
        7
 72
     0
 73
     1
 93
        4
 10
-24.19231812786165
 20
59.87619128370352
 10
-24.5763778192304
 20
59.87619128370352
 10
-24.5763778192304
 20
59.28412752246913
 10
-24.1923181278612
 20
59.28412752246913
 97
        1
330
C12
 92
        7
 72
     1
 73
     1
 93
       10
 10
-23.18424622689509
 20
58.5001017466509
 42
0.0
 10
-20.59204680345965
 20
58.5001017466509
 42
-0.4142135623730898
 10
-20.19204680345956
 20
58.1001017466508
 42
0.0
 10
-20.19204680345956
 20
55.12380871629648
 42
0.0
 10
-19.79201288790909
 20
55.12380871629648
 42
0.0
 10
-19.79201288790909
 20
58.1001017466508
 42
0.4142135623731547
 10
-20.59201288790928
 20
58.90010174665076
 42
0.0
 10
-23.56830591826338
 20
58.90010174665076
 42
0.0
 10
-23.56830591826338
 20
55.12380871629648
 42
0.0
 10
-23.18424622689463
 20
55.12380871629648
 42
0.0
 97
        1
330
BE7
 92
        7
 72
     1
 73
     1
 93
        8
 10
-19.1999120763262
 20
55.92680650071542
 42
0.4153115297271299
 10
-18.39991769304061
 20
55.12380871629648
 42
0.0
 10
-15.4236900118708
 20
55.12380871629648
 42
0.0
 10
-15.4236900118708
 20
59.87619128370352
 42
0.0
 10
-15.80771578768872
 20
59.87619128370352
 42
0.0
 10
-15.80771578768872
 20
58.90010174665076
 42
0.0
 10
-18.39176256411201
 20
58.90010174665076
 42
0.4131164467977965
 10
-19.19175694739761
 20
58.1030995310698
 42
0.0
 97
        1
330
BE6
 92
       22
 72
     1
 73
     1
 93
        6
 10
-18.79994912667462
 20
58.1001017466508
 42
-0.4142135623731575
 10
-18.39994912667453
 20
58.5001017466509
 42
0.0
 10
-15.80771578768872
 20
58.50010174665067
 42
0.0
 10
-15.80771578768827
 20
55.507868407665
 42
0.0
 10
-18.39994912667453
 20
55.507868407665
 42
-0.4142135623731731
 10
-18.79994912667462
 20
55.90786840766487
 42
0.0
 97
        1
330
BE5
 92
        7
 72
     1
 73
     1
 93
       12
 10
-14.79964388672215
 20
55.92380871629621
 42
0.4142135623729885
 10
-13.99964388672242
 20
55.12380871629648
 42
0.0
 10
-11.8233508563676
 20
55.12380871629648
 42
0.4142135623731289
 10
-11.02335085636741
 20
55.92380871629666
 42
0.0
 10
-11.02335085636741
 20
58.90010174665076
 42
0.0
 10
-11.42338477191788
 20
58.90010174665076
 42
0.0
 10
-11.42338477191788
 20
55.91567577726095
 42
-0.4131711701795319
 10
-11.82196067063523
 20
55.51567831234956
 42
0.0
 10
-14.01419400962095
 20
55.50787335710947
 42
-0.4152567234626918
 10
-14.41561811090378
 20
55.90787082202087
 42
0.0
 10
-14.41561811090378
 20
58.90010174665076
 42
0.0
 10
-14.7996438867226
 20
58.90010174665076
 42
0.0
 97
        1
330
BE4
 92
        7
 72
     1
 73
     1
 93
       20
 10
-7.423079531965413
 20
57.02796337120571
 42
-0.414213562373168
 10
-7.023079531965322
 20
56.62796337120562
 42
0.0
 10
-7.023079531965322
 20
55.90786840766487
 42
-0.4142135623731575
 10
-7.423079531965413
 20
55.507868407665
 42
0.0
 10
-10.41534678650168
 20
55.507868407665
 42
0.0
 10
-10.41534678650168
 20
55.12380871629648
 42
0.0
 10
-7.445787917283723
 20
55.12380871629648
 42
0.4114777732065809
 10
-6.645822882998345
 20
55.91632914939783
 42
0.0
 10
-6.639238813324936
 20
56.62051771985716
 42
0.4169546541682913
 10
-7.439203847610315
 20
57.42799728675596
 42
0.0
 10
-9.615312870951584
 20
57.42799728675596
 42
-0.4142135623729911
 10
-10.01531287095122
 20
57.82799728675581
 42
0.0
 10
-10.01531287095122
 20
58.10010174665103
 42
-0.414213562372991
 10
-9.615312870951584
 20
58.5001017466509
 42
0.0
 10
-6.92703069357276
 20
58.50010174665067
 42
0.0
 10
-6.927030693572305
 20
58.90010174665076
 42
0.0
 10
-9.615346786501959
 20
58.90010174665076
 42
0.4142135623730467
 10
-10.41534678650168
 20
58.10010174665103
 42
0.0
 10
-10.41534678650168
 20
57.82796337120544
 42
0.4142135623730301
 10
-9.615346786501959
 20
57.02796337120571
 42
0.0
 97
        1
330
BE3
 92
        7
 72
     1
 73
     1
 93
       12
 10
-5.21497371544865
 20
57.42799728675596
 42
0.4142135623730871
 10
-6.014973715448377
 20
56.627997286756
 42
0.0
 10
-6.014973715448377
 20
55.92380871629621
 42
0.4142135623730715
 10
-5.21497371544865
 20
55.12380871629648
 42
0.0
 10
-2.23871460064447
 20
55.12380871629648
 42
0.0
 10
-2.23871460064447
 20
58.10010174665058
 42
0.414213562373155
 10
-3.038714600644652
 20
58.90010174665076
 42
0.0
 10
-5.726962862471737
 20
58.90010174665076
 42
0.0
 10
-5.726962862472191
 20
58.5001017466509
 42
0.0
 10
-3.038748516194573
 20
58.5001017466509
 42
-0.4142135623730067
 10
-2.638748516194482
 20
58.10010174665058
 42
0.0
 10
-2.638748516194482
 20
57.42799728675596
 42
0.0
 97
        1
330
BE2
 92
       22
 72
     1
 73
     1
 93
        6
 10
-2.638748516194937
 20
57.02796337120571
 42
0.0
 10
-2.638748516194482
 20
55.50786840766477
 42
0.0
 10
-5.21497371544865
 20
55.507868407665
 42
-0.4142135623731731
 10
-5.614973715448741
 20
55.90786840766509
 42
0.0
 10
-5.614973715448741
 20
56.62796337120562
 42
-0.4142135623731576
 10
-5.21497371544865
 20
57.02796337120571
 42
0.0
 97
        1
330
C0D
 75
     0
 76
     1
 47
0.0407044778999864
 98
       13
 10
-34.18710075113677
 20
56.16907953933765
 10
-33.12851374392494
 20
56.49471602641233
 10
-33.12851374392494
 20
56.49471602641233
 10
-28.77202873835904
 20
57.51232930166111
 10
-24.41554807250941
 20
57.91937341678636
 10
-24.41554807250941
 20
59.384734621186
 10
-23.31624584658039
 20
58.3264175319116
 10
-19.04119127844888
 20
57.75655517324913
 10
-19.04119127844888
 20
57.75655517324913
 10
-14.64399105416578
 20
57.43091868617466
 10
-8.048195057457178
 20
57.22739662861204
 10
-4.017427461911665
 20
57.18669281458665
 10
-4.017427461911665
 20
57.18669281458665
  0
TEXT
  5
BED
330
B9E
100
AcDbEntity
  8
leg fin
100
AcDbText
 10
3.391127401597259
 20
2.107634911895729
 30
0.0
 40
1.5
  1
Este desenho é propriedade da Sanindusa, S.A., e não pode ser copiado nem divulgado sem nossa autorização.
 50
90.0
 41
0.8
  7
SANINDUSA
100
AcDbText
  0
LINE
  5
BEE
330
B9E
100
AcDbEntity
  8
3
100
AcDbLine
 10
-90.0
 20
4.0
 30
0.0
 11
-90.0
 21
12.0
 31
0.0
  0
TEXT
  5
BEF
330
B9E
100
AcDbEntity
  8
1
100
AcDbText
 10
-39.0
 20
9.25
 30
0.0
 40
2.0
  1
Substituido por:
 41
0.8
  7
SANINDUSA
 11
-39.0
 21
10.25
 31
0.0
100
AcDbText
 73
     2
  0
POINT
  5
BF0
330
B9E
100
AcDbEntity
  8
SANINDUSA
100
AcDbPoint
 10
0.0
 20
0.0
 30
0.0
  0
TEXT
  5
BF1
330
B9E
100
AcDbEntity
  8
1
100
AcDbText
 10
-89.0
 20
16.74927010445663
 30
0.0
 40
2.0
  1
Normas:
 41
0.8
  7
SANINDUSA
 11
-89.0
 21
17.74927010445663
 31
0.0
100
AcDbText
 73
     2
  0
LINE
  5
BF2
330
B9E
100
AcDbEntity
  8
3
100
AcDbLine
 10
-90.0
 20
12.0
 30
0.0
 11
-90.0
 21
20.0
 31
0.0
  0
LINE
  5
BF3
330
B9E
100
AcDbEntity
  8
3
100
AcDbLine
 10
-110.546019464768
 20
12.0
 30
0.0
 11
-110.546019464768
 21
20.0
 31
0.0
  0
TEXT
  5
BF4
330
B9E
100
AcDbEntity
  8
1
100
AcDbText
 10
-109.6177520618648
 20
17.25
 30
0.0
 40
2.0
  1
Cor:
 41
0.8
  7
SANINDUSA
 11
-109.6177520618648
 21
18.25
 31
0.0
100
AcDbText
 73
     2
  0
LINE
  5
BF5
330
B9E
100
AcDbEntity
  8
leg fin
100
AcDbLine
 10
-91.42857142857156
 20
20.0
 30
0.0
 11
-91.42857142857156
 21
28.5
 31
0.0
  0
LINE
  5
BF6
330
B9E
100
AcDbEntity
  8
leg fin
100
AcDbLine
 10
-104.2857142857142
 20
20.0
 30
0.0
 11
-104.2857142857142
 21
28.5
 31
0.0
  0
LINE
  5
BF7
330
B9E
100
AcDbEntity
  8
leg fin
100
AcDbLine
 10
-117.1428571428573
 20
20.0
 30
0.0
 11
-117.1428571428573
 21
28.5
 31
0.0
  0
POINT
  5
BF8
330
B9E
100
AcDbEntity
  8
SANINDUSA
100
AcDbPoint
 10
-117.1428571428573
 20
28.5
 30
0.0
  0
POINT
  5
BF9
330
B9E
100
AcDbEntity
  8
SANINDUSA
100
AcDbPoint
 10
-104.2857142857142
 20
28.5
 30
0.0
  0
POINT
  5
BFA
330
B9E
100
AcDbEntity
  8
SANINDUSA
100
AcDbPoint
 10
-91.42857142857156
 20
28.5
 30
0.0
  0
TEXT
  5
BFB
330
B9E
100
AcDbEntity
  8
1
100
AcDbText
 10
-116.200160604496
 20
26.43288406845113
 30
0.0
 40
1.5
  1
Nº Seq.:
 41
0.8
  7
SANINDUSA
 11
-116.200160604496
 21
27.18288406845113
 31
0.0
100
AcDbText
 73
     2
  0
TEXT
  5
BFC
330
B9E
100
AcDbEntity
  8
1
100
AcDbText
 10
-103.2106584078738
 20
26.43288406845113
 30
0.0
 40
1.5
  1
Tipo:
 41
0.8
  7
SANINDUSA
 11
-103.2106584078738
 21
27.18288406845113
 31
0.0
100
AcDbText
 73
     2
  0
TEXT
  5
BFD
330
B9E
100
AcDbEntity
  8
1
100
AcDbText
 10
-90.22114672289353
 20
26.43288406845113
 30
0.0
 40
1.5
  1
Prod.:
 41
0.8
  7
SANINDUSA
 11
-90.22114672289353
 21
27.18288406845113
 31
0.0
100
AcDbText
 73
     2
  0
TEXT
  5
BFE
330
B9E
100
AcDbEntity
  8
1
100
AcDbText
 10
-64.77320576346574
 20
26.43288406845113
 30
0.0
 40
1.5
  1
Rev.:
 41
0.8
  7
SANINDUSA
 11
-64.77320576346574
 21
27.18288406845113
 31
0.0
100
AcDbText
 73
     2
  0
LINE
  5
BFF
330
B9E
100
AcDbEntity
  8
leg fin
100
AcDbLine
 10
-52.85714285714266
 20
20.0
 30
0.0
 11
-52.85714285714266
 21
28.5
 31
0.0
  0
LINE
  5
C00
330
B9E
100
AcDbEntity
  8
leg fin
100
AcDbLine
 10
-65.71428571428578
 20
20.0
 30
0.0
 11
-65.71428571428578
 21
28.5
 31
0.0
  0
LINE
  5
C01
330
B9E
100
AcDbEntity
  8
leg fin
100
AcDbLine
 10
-78.57142857142844
 20
20.0
 30
0.0
 11
-78.57142857142844
 21
28.5
 31
0.0
  0
POINT
  5
C02
330
B9E
100
AcDbEntity
  8
SANINDUSA
100
AcDbPoint
 10
-78.57142857142844
 20
28.5
 30
0.0
  0
POINT
  5
C03
330
B9E
100
AcDbEntity
  8
SANINDUSA
100
AcDbPoint
 10
-65.71428571428578
 20
28.5
 30
0.0
  0
POINT
  5
C04
330
B9E
100
AcDbEntity
  8
SANINDUSA
100
AcDbPoint
 10
-52.85714285714266
 20
28.5
 30
0.0
  0
TEXT
  5
C05
330
B9E
100
AcDbEntity
  8
1
100
AcDbText
 10
-77.61097961686573
 20
26.43288406845113
 30
0.0
 40
1.5
  1
Peça:
 41
0.8
  7
SANINDUSA
 11
-77.61097961686573
 21
27.18288406845113
 31
0.0
100
AcDbText
 73
     2
  0
TEXT
  5
C06
330
B9E
100
AcDbEntity
  8
1
100
AcDbText
 10
-52.06538060077036
 20
26.43288406845113
 30
0.0
 40
1.5
  1
Alt.:
 41
0.8
  7
SANINDUSA
 11
-52.06538060077036
 21
27.18288406845113
 31
0.0
100
AcDbText
 73
     2
  0
LINE
  5
C07
330
B9E
100
AcDbEntity
  8
3
100
AcDbLine
 10
0.0
 20
12.0
 30
0.0
 11
-40.0
 21
12.0
 31
0.0
  0
LINE
  5
C08
330
B9E
100
AcDbEntity
  8
3
100
AcDbLine
 10
-40.0
 20
32.5
 30
0.0
 11
0.0
 21
32.5
 31
0.0
  0
TEXT
  5
C09
330
B9E
100
AcDbEntity
  8
1
100
AcDbText
 10
-19.0
 20
29.75
 30
0.0
 40
2.0
  1
Folha:
 41
0.8
  7
SANINDUSA
 11
-19.0
 21
30.75
 31
0.0
100
AcDbText
 73
     2
  0
LINE
  5
C0A
330
B9E
100
AcDbEntity
  8
3
100
AcDbLine
 10
-20.0
 20
32.5
 30
0.0
 11
-20.0
 21
20.0
 31
0.0
  0
TEXT
  5
C0B
330
B9E
100
AcDbEntity
  8
1
100
AcDbText
 10
-39.0
 20
29.75
 30
0.0
 40
2.0
  1
Escala:
 41
0.8
  7
SANINDUSA
 11
-39.0
 21
30.75
 31
0.0
100
AcDbText
 73
     2
  0
TEXT
  5
C0C
330
B9E
100
AcDbEntity
  8
1
100
AcDbText
 10
-39.0
 20
17.25
 30
0.0
 40
2.0
  1
Substitui:
 41
0.8
  7
SANINDUSA
 11
-39.0
 21
18.25
 31
0.0
100
AcDbText
 73
     2
  0
LWPOLYLINE
  5
C0D
102
{ACAD_REACTORS
330
BEC
102
}
330
B9E
100
AcDbEntity
  8
9
100
AcDbPolyline
 90
        6
 70
     1
 43
0.0
 10
-2.638748516194482
 20
57.02796337120571
 10
-2.638748516194482
 20
55.50786840766477
 10
-5.21497371544865
 20
55.507868407665
 42
-0.4142135623730898
 10
-5.614973715448741
 20
55.90786840766487
 10
-5.614973715448741
 20
56.62796337120562
 42
-0.4142135623731576
 10
-5.21497371544865
 20
57.02796337120571
  0
LINE
  5
C0E
330
B9E
100
AcDbEntity
  8
3
100
AcDbLine
 10
-40.0
 20
50.0
 30
0.0
 11
0.0
 21
50.0
 31
0.0
  0
ATTDEF
  5
C0F
330
B9E
100
AcDbEntity
  8
1
100
AcDbText
 10
-31.30691739422431
 20
40.25
 30
0.0
 40
2.0
  1
XXXXXXXXXXXXXXX
 41
0.8
  7
SANINDUSA
 72
     4
 11
-20.0
 21
41.25
 31
0.0
100
AcDbAttributeDefinition
  3
Observações:
  2
OBS
 70
     0
  0
TEXT
  5
C10
330
B9E
100
AcDbEntity
  8
1
100
AcDbText
 10
-39.0
 20
47.25
 30
0.0
 40
2.0
  1
Observações:
 41
0.8
  7
SANINDUSA
 11
-39.0
 21
48.25
 31
0.0
100
AcDbText
 73
     2
  0
LWPOLYLINE
  5
C11
102
{ACAD_REACTORS
330
BEC
102
}
330
B9E
100
AcDbEntity
  8
9
100
AcDbPolyline
 90
        6
 70
     1
 43
0.0
 10
-29.98468712904878
 20
57.02796337120571
 10
-29.98468712904878
 20
55.507868407665
 10
-32.57692046803459
 20
55.507868407665
 42
-0.4142135623731731
 10
-32.97692046803468
 20
55.90786840766487
 10
-32.97692046803468
 20
56.62796337120562
 42
-0.4142135623731576
 10
-32.57692046803459
 20
57.02796337120571
  0
LWPOLYLINE
  5
C12
102
{ACAD_REACTORS
330
BEC
102
}
330
B9E
100
AcDbEntity
  8
9
100
AcDbPolyline
 90
        4
 70
     1
 43
0.0
 10
-24.19231812786165
 20
59.87619128370352
 10
-24.57637781922995
 20
59.87619128370352
 10
-24.57637781922995
 20
59.28412752246913
 10
-24.19231812786165
 20
59.28412752246913
  0
ENDBLK
  5
C14
330
B9E
100
AcDbEntity
  8
0
100
AcDbBlockEnd
  0
BLOCK
  5
1105
330
10BC
100
AcDbEntity
  8
0
100
AcDbBlockBegin
  2
104012PL
 70
     0
 10
0.0
 20
0.0
 30
0.0
  3
104012PL
  1

  0
LINE
  5
10BD
330
10BC
100
AcDbEntity
  8
BLOCKS
100
AcDbLine
 10
-0.0000000000004547
 20
-0.2907742486396501
 30
0.0
 11
0.0294438689757044
 21
-0.2907742486398774
 31
0.0
  0
LWPOLYLINE
  5
10BE
330
10BC
100
AcDbEntity
  8
BLOCKS
100
AcDbPolyline
 90
        5
 70
   128
 43
0.0
 10
-0.0483431294819639
 20
-0.3055652942410916
 10
-0.0483431401339658
 20
-0.3055653485926086
 10
-0.0487474322708295
 20
-0.3086781457390089
 10
-0.0487502188302642
 20
-0.3118704795095937
 10
-0.048750215299151
 20
-0.3118705350781283
  0
LWPOLYLINE
  5
10BF
330
10BC
100
AcDbEntity
  8
BLOCKS
100
AcDbPolyline
 90
        8
 70
   128
 43
0.0
 10
-0.0483431315301459
 20
-0.305565301798083
 10
-0.047785067741188
 20
-0.3038310080311248
 10
-0.0460098659282267
 20
-0.3002442505938916
 10
-0.0434797500270179
 20
-0.2970091048184713
 10
-0.0403328810994026
 20
-0.2943444909936943
 10
-0.0367841270026474
 20
-0.2923983712202016
 10
-0.0330789383078809
 20
-0.2912220859399213
 10
-0.0294438689761591
 20
-0.2907742486398774
  0
LWPOLYLINE
  5
10C0
330
10BC
100
AcDbEntity
  8
BLOCKS
100
AcDbPolyline
 90
        9
 70
   128
 43
0.0
 10
-0.1785000000004402
 20
-0.1266107659414501
 10
-0.1792803612884199
 20
-0.1265339538833814
 10
-0.1800307337298363
 20
-0.1263064695535832
 10
-0.180722280932514
 20
-0.1259370550473022
 10
-0.1813284271252087
 20
-0.1254399067566965
 10
-0.181825878449672
 20
-0.1248341298119158
 10
-0.1821955181303565
 20
-0.1241430038811586
 10
-0.1824231411219443
 20
-0.1233930885463224
 10
-0.1825000000003456
 20
-0.1226132026333744
  0
LWPOLYLINE
  5
10C1
330
10BC
100
AcDbEntity
  8
BLOCKS
100
AcDbPolyline
 90
        4
 70
   128
 43
0.0
 10
-0.1785000000004402
 20
-0.1266107659414501
 10
-0.1780287619512819
 20
-0.1267042465708528
 10
-0.1765080903824128
 20
-0.1268308907821165
 10
-0.1765000000004875
 20
-0.1268314897389473
  0
LINE
  5
10C2
330
10BC
100
AcDbEntity
  8
BLOCKS
100
AcDbLine
 10
-0.1825000000003456
 20
-0.1221297206616327
 30
0.0
 11
-0.1825000000003456
 21
-0.117132797454019
 31
0.0
  0
LINE
  5
10C3
330
10BC
100
AcDbEntity
  8
BLOCKS
100
AcDbLine
 10
-0.1799054360722039
 20
-0.1318284698012349
 30
0.0
 11
-0.1799054787561545
 21
-0.1350000016431068
 31
0.0
  0
LWPOLYLINE
  5
10C4
330
10BC
100
AcDbEntity
  8
BLOCKS
100
AcDbPolyline
 90
        7
 70
   128
 43
0.0
 10
-0.18082020474003
 20
-0.1258567400108177
 10
-0.1806432632247379
 20
-0.1263234765718835
 10
-0.1804198868458115
 20
-0.1271010118545064
 10
-0.1802012595353517
 20
-0.1281558995131036
 10
-0.1800320182560426
 20
-0.1293827407454273
 10
-0.1799286030709482
 20
-0.1307801743466825
 10
-0.1799141964615956
 20
-0.1318295134763048
  0
LWPOLYLINE
  5
10C5
330
10BC
100
AcDbEntity
  8
BLOCKS
100
AcDbPolyline
 90
       11
 70
   128
 43
0.0
 10
0.0458903817743703
 20
-0.3843359628765484
 10
0.0454306873493806
 20
-0.3894809417128044
 10
0.0443315724801323
 20
-0.3945017166435036
 10
0.0421940648207055
 20
-0.4002519989952589
 10
0.0391950535049546
 20
-0.4055915886063986
 10
0.0357677692086327
 20
-0.4099390475450946
 10
0.0316832839248491
 20
-0.413725068643771
 10
0.0272417532482905
 20
-0.4166607830430849
 10
0.0223336446242684
 20
-0.4188391476119478
 10
0.0171372556360439
 20
-0.4201192616492336
 10
0.0118006561342554
 20
-0.4204843193547277
  0
LWPOLYLINE
  5
10C6
330
10BC
100
AcDbEntity
  8
BLOCKS
100
AcDbPolyline
 90
       39
 70
   128
 43
0.0
 10
0.0000009911191228
 20
-0.5726716265729693
 10
0.0058992299882448
 20
-0.5725592914157005
 10
0.013059526942925
 20
-0.5721877681361321
 10
0.0206108288234646
 20
-0.571489478306944
 10
0.0281683801163126
 20
-0.5704749270646517
 10
0.0357012923286675
 20
-0.5691455245070074
 10
0.0431759966377285
 20
-0.5675052136766681
 10
0.0505550468042202
 20
-0.5655614615950526
 10
0.0578076190076899
 20
-0.563322832178983
 10
0.0649089261883091
 20
-0.5607973305329779
 10
0.0718094666344769
 20
-0.5580057478971412
 10
0.0785891707846531
 20
-0.5549248303351533
 10
0.0852736127740173
 20
-0.5515433406142165
 10
0.091843859081564
 20
-0.547868181049239
 10
0.0982808346980164
 20
-0.5439075917088303
 10
0.104565393196026
 20
-0.5396712088961522
 10
0.1106785689225944
 20
-0.5351700098740367
 10
0.1166013578949787
 20
-0.5304166144119336
 10
0.122314185457526
 20
-0.5254260374696287
 10
0.1278004637479171
 20
-0.5202127569959885
 10
0.1330448010457985
 20
-0.5147919024312842
 10
0.1380331523873792
 20
-0.5091790338685769
 10
0.1427529272013999
 20
-0.5033899157372162
 10
0.147193050946953
 20
-0.4974402945607608
 10
0.1513434193866487
 20
-0.4913467945173125
 10
0.1552124764057225
 20
-0.4851123099131201
 10
0.1588651405841119
 20
-0.4786341382722413
 10
0.162254615026086
 20
-0.4719828009647245
 10
0.1653689566824141
 20
-0.4651776685043388
 10
0.1681971242355758
 20
-0.4582393385238675
 10
0.1707284884705587
 20
-0.4511914982209646
 10
0.1729545212165249
 20
-0.4440571442344208
 10
0.1748681443327769
 20
-0.4368629077332571
 10
0.1764738157517058
 20
-0.4296127609094356
 10
0.1777798151938441
 20
-0.4222620386470908
 10
0.1787757282954772
 20
-0.4148540903885305
 10
0.179385635034123
 20
-0.4082903848384376
 10
0.1797377970215166
 20
-0.4013898073486644
 10
0.1798701669222282
 20
-0.3945646829332645
  0
LWPOLYLINE
  5
10C7
330
10BC
100
AcDbEntity
  8
BLOCKS
100
AcDbPolyline
 90
        3
 70
   128
 43
0.0
 10
0.1799030023803425
 20
-0.3920221218613733
 10
0.1799043050814362
 20
-0.3909592187702628
 10
0.1798992997737514
 20
-0.3721278610059926
  0
LINE
  5
10C8
330
10BC
100
AcDbEntity
  8
BLOCKS
100
AcDbLine
 10
0.1799031198556804
 20
-0.3945644933551193
 30
0.0
 11
0.1799031461177947
 21
-0.3920221080763895
 31
0.0
  0
LWPOLYLINE
  5
10C9
330
10BC
100
AcDbEntity
  8
BLOCKS
100
AcDbPolyline
 90
        3
 70
   128
 43
0.0
 10
0.0467939184259194
 20
-0.359956885380825
 10
0.0463289378458285
 20
-0.3721447518508967
 10
0.0458903817743703
 20
-0.3843359628765484
  0
LWPOLYLINE
  5
10CA
330
10BC
100
AcDbEntity
  8
BLOCKS
100
AcDbPolyline
 90
       39
 70
   128
 43
0.0
 10
-0.1798690718869693
 20
-0.3945667785194473
 10
-0.1797306786324952
 20
-0.4016005098376354
 10
-0.1793835984267389
 20
-0.408319020085969
 10
-0.1787724246341895
 20
-0.4148832848226221
 10
-0.1778666412023995
 20
-0.4216994041211138
 10
-0.1765814730556485
 20
-0.4290688005239645
 10
-0.1749858284665606
 20
-0.4363767576453484
 10
-0.1730790062824781
 20
-0.4436240697314134
 10
-0.1708766876677146
 20
-0.450747754249619
 10
-0.168377139470067
 20
-0.4577675815230578
 10
-0.1655757521721171
 20
-0.4646975048070772
 10
-0.1624796645196511
 20
-0.4715154749671911
 10
-0.1590978141498454
 20
-0.4781989285297641
 10
-0.1554415373889242
 20
-0.4847242387712641
 10
-0.1515223060505377
 20
-0.491071030313492
 10
-0.1473465176454738
 20
-0.4972247718969811
 10
-0.1429665096952704
 20
-0.5031156173959062
 10
-0.1383214300467443
 20
-0.5088395697100623
 10
-0.1334057710064371
 20
-0.5144014911334125
 10
-0.1282295997611982
 20
-0.5197860338469127
 10
-0.1228043939568124
 20
-0.5249777402909786
 10
-0.1171430991039415
 20
-0.5299611545293601
 10
-0.1112600729193218
 20
-0.5347210371763822
 10
-0.1051709858625145
 20
-0.5392425862213486
 10
-0.0988926787736091
 20
-0.5435116556598132
 10
-0.0924448184964604
 20
-0.5475138750176712
 10
-0.0858469136232998
 20
-0.5512368309064187
 10
-0.0791181542731465
 20
-0.5546699001387197
 10
-0.0722778981112242
 20
-0.5578038243793344
 10
-0.0653454130965656
 20
-0.5606307722573547
 10
-0.058340767116988
 20
-0.5631449581961761
 10
-0.0512370820874821
 20
-0.5653650517199367
 10
-0.0439454764537004
 20
-0.5673177920373292
 10
-0.0365316324264313
 20
-0.5689792700528642
 10
-0.0290245916276035
 20
-0.5703399293122402
 10
-0.0214552506822656
 20
-0.5713918352745396
 10
-0.0138604020726234
 20
-0.5721286097170833
 10
-0.006274417862187
 20
-0.5725468704208652
 10
-0.0000011148172234
 20
-0.5726744741806442
  0
LWPOLYLINE
  5
10CB
330
10BC
100
AcDbEntity
  8
BLOCKS
100
AcDbPolyline
 90
       11
 70
   128
 43
0.0
 10
-0.0458903817752798
 20
-0.3843359628765484
 10
-0.0454306873502901
 20
-0.3894809417128044
 10
-0.0443315724810418
 20
-0.3945017166435036
 10
-0.042194064821615
 20
-0.4002519989952589
 10
-0.0391950535058641
 20
-0.4055915886063986
 10
-0.0357677692095422
 20
-0.4099390475450946
 10
-0.0316832839257586
 20
-0.413725068643771
 10
-0.0272417532496547
 20
-0.4166607830430849
 10
-0.0223336446251779
 20
-0.4188391476119478
 10
-0.0171372556369534
 20
-0.4201192616492336
 10
-0.0118006561351649
 20
-0.4204843193547277
  0
LWPOLYLINE
  5
10CC
330
10BC
100
AcDbEntity
  8
BLOCKS
100
AcDbPolyline
 90
        3
 70
   128
 43
0.0
 10
-0.0467939184268289
 20
-0.359956885380825
 10
-0.046328937846738
 20
-0.3721447518508967
 10
-0.0458903817752798
 20
-0.3843359628765484
  0
LINE
  5
10CD
330
10BC
100
AcDbEntity
  8
BLOCKS
100
AcDbLine
 10
-0.0118006553561827
 20
-0.420484326178439
 30
0.0
 11
-0.0091838829271182
 21
-0.4204625078066329
 31
0.0
  0
LINE
  5
10CE
330
10BC
100
AcDbEntity
  8
BLOCKS
100
AcDbLine
 10
0.011800655355728
 20
-0.420484326178439
 30
0.0
 11
0.0091838829262088
 21
-0.4204625078066329
 31
0.0
  0
LWPOLYLINE
  5
10CF
330
10BC
100
AcDbEntity
  8
BLOCKS
100
AcDbPolyline
 90
        4
 70
   128
 43
0.0
 10
0.0091838829262088
 20
-0.4204625078066329
 10
0.0088515512793492
 20
-0.4204612411804192
 10
0.0059009710366809
 20
-0.420452137068196
 10
-0.0000000000004547
 20
-0.4204449927620999
  0
LWPOLYLINE
  5
10D0
330
10BC
100
AcDbEntity
  8
BLOCKS
100
AcDbPolyline
 90
        4
 70
   128
 43
0.0
 10
-0.0091838829271182
 20
-0.4204625078066329
 10
-0.0088515512802587
 20
-0.4204612411804192
 10
-0.0059009710375904
 20
-0.420452137068196
 10
-0.0000000000004547
 20
-0.4204449927620999
  0
LINE
  5
10D1
330
10BC
100
AcDbEntity
  8
BLOCKS
100
AcDbLine
 10
-0.1799031730915885
 20
-0.3920221080787769
 30
0.0
 11
-0.1799031464342988
 21
-0.3945666065269506
 31
0.0
  0
LWPOLYLINE
  5
10D2
330
10BC
100
AcDbEntity
  8
BLOCKS
100
AcDbPolyline
 90
        3
 70
   128
 43
0.0
 10
-0.1799025521372641
 20
-0.372127851252344
 10
-0.1799068505479227
 20
-0.3759125274892767
 10
-0.1798984542256221
 20
-0.3920221114933611
  0
LWPOLYLINE
  5
10D3
330
10BC
100
AcDbEntity
  8
BLOCKS
100
AcDbPolyline
 90
        4
 70
   128
 43
0.0
 10
0.0487502525429591
 20
-0.3118697233688863
 10
0.0482254287094293
 20
-0.3238142853556383
 10
0.0477351963927504
 20
-0.3358009683015553
 10
0.0467963901464827
 20
-0.3598930176777912
  0
LWPOLYLINE
  5
10D4
330
10BC
100
AcDbEntity
  8
BLOCKS
100
AcDbPolyline
 90
        4
 70
   128
 43
0.0
 10
-0.0487502525438686
 20
-0.3118697233688863
 10
-0.0482254287103388
 20
-0.3238142853556383
 10
-0.0477351963936599
 20
-0.3358009683015553
 10
-0.0467963901473922
 20
-0.3598930176777912
  0
LWPOLYLINE
  5
10D5
330
10BC
100
AcDbEntity
  8
BLOCKS
100
AcDbPolyline
 90
       56
 70
   128
 43
0.0
 10
-0.0000000000004547
 20
-0.5039999995395874
 10
-0.003485031152195
 20
-0.5039511525291119
 10
-0.0070511310868824
 20
-0.5037965158825273
 10
-0.0106280371805951
 20
-0.5035390226664731
 10
-0.0142302411941273
 20
-0.5031739618672191
 10
-0.0178748392054331
 20
-0.5026949984240901
 10
-0.0215014433733813
 20
-0.5021074717094507
 10
-0.0251100536975173
 20
-0.5014113817230737
 10
-0.0336804752423632
 20
-0.4992980325173449
 10
-0.0422129738622061
 20
-0.4965269162754567
 10
-0.0506012621708578
 20
-0.4931107277385536
 10
-0.0589158833599868
 20
-0.4889788074550552
 10
-0.0668861223803106
 20
-0.484231644457509
 10
-0.0745119792313744
 20
-0.4788692387458014
 10
-0.0817980050601364
 20
-0.4728762063735985
 10
-0.0885751143969174
 20
-0.4663692493161307
 10
-0.0948433072417174
 20
-0.4593483675733978
 10
-0.1005260859428745
 20
-0.4519182064473171
 10
-0.1055992148726546
 20
-0.4441328938593188
 10
-0.1100351150216738
 20
-0.4360466845186011
 10
-0.1137823246299376
 20
-0.4278156290417883
 10
-0.1168935786713519
 20
-0.4194136119908763
 10
-0.11935492216071
 20
-0.4109463056829555
 10
-0.1214428945590953
 20
-0.4008820243223
 10
-0.1226827067048362
 20
-0.3906368819580166
 10
-0.1229731327302943
 20
-0.3812564200718498
 10
-0.1229814758703469
 20
-0.3713845076500775
 10
-0.1229784601982828
 20
-0.3616368152480618
 10
-0.1229759174443643
 20
-0.3518895733279805
 10
-0.1229779018121917
 20
-0.34199849724655
 10
-0.1226024433776729
 20
-0.3323594662356299
 10
-0.1213996401561417
 20
-0.3223488855960568
 10
-0.1193384824123314
 20
-0.3122789404691275
 10
-0.1168968976444376
 20
-0.303791465468862
 10
-0.1137991344235161
 20
-0.2953683119213792
 10
-0.1100604747584839
 20
-0.2871154543472585
 10
-0.1056311144302526
 20
-0.2790088906637038
 10
-0.1005618723183943
 20
-0.2712021013338699
 10
-0.0948823074991197
 20
-0.2637526305408073
 10
-0.0886145502222462
 20
-0.2567127608347164
 10
-0.0818360334196768
 20
-0.2501888085034807
 10
-0.0745467570909568
 20
-0.2441807735471002
 10
-0.0669169935695209
 20
-0.2388059750625189
 10
-0.0589416500042717
 20
-0.234048079508625
 10
-0.0506207263942997
 20
-0.2299070868856461
 10
-0.0422270277158532
 20
-0.2264842345794022
 10
-0.0336897417828368
 20
-0.223708302079217
 10
-0.0251155010564617
 20
-0.2215917283909903
 10
-0.0219576283179777
 20
-0.2209758541504243
 10
-0.0187861864801562
 20
-0.2204432542042696
 10
-0.0156011755429972
 20
-0.2199939285524124
 10
-0.0124025955065008
 20
-0.2196278771948528
 10
-0.0092918139789617
 20
-0.219352971209787
 10
-0.0061508873172897
 20
-0.2191548852338201
 10
-0.0030610713824899
 20
-0.2190378603377212
 10
-0.0000000000004547
 20
-0.2189999995396192
  0
LWPOLYLINE
  5
10D6
330
10BC
100
AcDbEntity
  8
BLOCKS
100
AcDbPolyline
 90
       56
 70
   128
 43
0.0
 10
-0.0000000000004547
 20
-0.5039999995395874
 10
0.0034850311512855
 20
-0.5039511525291119
 10
0.0070511310859729
 20
-0.5037965158825273
 10
0.0106280371796856
 20
-0.5035390226664731
 10
0.0142302411927631
 20
-0.5031739618672191
 10
0.0178748392045236
 20
-0.5026949984240901
 10
0.0215014433720171
 20
-0.5021074717094507
 10
0.0251100536966078
 20
-0.5014113817230737
 10
0.0336804752414537
 20
-0.4992980325173449
 10
0.0422129738612966
 20
-0.4965269162754567
 10
0.0506012621699483
 20
-0.4931107277385536
 10
0.0589158833590773
 20
-0.4889788074550552
 10
0.0668861223794011
 20
-0.484231644457509
 10
0.0745119792304649
 20
-0.4788692387458014
 10
0.0817980050592269
 20
-0.4728762063735985
 10
0.0885751143960079
 20
-0.4663692493161307
 10
0.0948433072408079
 20
-0.4593483675733978
 10
0.100526085941965
 20
-0.4519182064473171
 10
0.1055992148717451
 20
-0.4441328938593188
 10
0.1100351150207643
 20
-0.4360466845186011
 10
0.1137823246285734
 20
-0.4278156290417883
 10
0.1168935786704424
 20
-0.4194136119908763
 10
0.1193549221598005
 20
-0.4109463056829555
 10
0.1214428945581858
 20
-0.4008820243223
 10
0.1226827067039267
 20
-0.3906368819580166
 10
0.1229731327293848
 20
-0.3812564200718498
 10
0.1229814758694374
 20
-0.3713845076500775
 10
0.1229784601973733
 20
-0.3616368152480618
 10
0.1229759174430001
 20
-0.3518895733279805
 10
0.1229779018112822
 20
-0.34199849724655
 10
0.1226024433767634
 20
-0.3323594662356299
 10
0.1213996401552322
 20
-0.3223488855960568
 10
0.1193384824114219
 20
-0.3122789404691275
 10
0.1168968976435281
 20
-0.303791465468862
 10
0.1137991344226066
 20
-0.2953683119213792
 10
0.1100604747575744
 20
-0.2871154543472585
 10
0.1056311144293431
 20
-0.2790088906637038
 10
0.1005618723174848
 20
-0.2712021013338699
 10
0.0948823074982102
 20
-0.2637526305408073
 10
0.0886145502213367
 20
-0.2567127608347164
 10
0.0818360334187673
 20
-0.2501888085034807
 10
0.0745467570900473
 20
-0.2441807735471002
 10
0.0669169935686114
 20
-0.2388059750625189
 10
0.0589416500029074
 20
-0.234048079508625
 10
0.0506207263929355
 20
-0.2299070868856461
 10
0.0422270277149437
 20
-0.2264842345794022
 10
0.0336897417819273
 20
-0.223708302079217
 10
0.0251155010550974
 20
-0.2215917283909903
 10
0.0219576283170682
 20
-0.2209758541504243
 10
0.0187861864792467
 20
-0.2204432542042696
 10
0.0156011755420877
 20
-0.2199939285524124
 10
0.0124025955051366
 20
-0.2196278771948528
 10
0.0092918139780522
 20
-0.219352971209787
 10
0.0061508873163803
 20
-0.2191548852338201
 10
0.0030610713811257
 20
-0.2190378603377212
 10
-0.0000000000004547
 20
-0.2189999995396192
  0
LWPOLYLINE
  5
10D7
330
10BC
100
AcDbEntity
  8
BLOCKS
100
AcDbPolyline
 90
        3
 70
   128
 43
0.0
 10
0.1799033767010769
 20
-0.3721278629315066
 10
0.1799038138760807
 20
-0.3309361868299447
 10
0.1799053203153562
 20
-0.1350000018098854
  0
LWPOLYLINE
  5
10D8
330
10BC
100
AcDbEntity
  8
BLOCKS
100
AcDbPolyline
 90
        3
 70
   128
 43
0.0
 10
-0.1799054302955483
 20
-0.1350000016429931
 10
-0.1799052394021601
 20
-0.176930806311816
 10
-0.1799033443085136
 20
-0.3721278629217295
  0
LWPOLYLINE
  5
10D9
330
10BC
100
AcDbEntity
  8
BLOCKS
100
AcDbPolyline
 90
        8
 70
   128
 43
0.0
 10
0.0483431315292364
 20
-0.305565301798083
 10
0.0477850677398237
 20
-0.3038310080311248
 10
0.0460098659273172
 20
-0.3002442505938916
 10
0.0434797500256536
 20
-0.2970091048184713
 10
0.0403328810984931
 20
-0.2943444909936943
 10
0.036784127001738
 20
-0.2923983712202016
 10
0.0330789383069714
 20
-0.2912220859399213
 10
0.0294438689752497
 20
-0.2907742486398774
  0
LINE
  5
10DA
330
10BC
100
AcDbEntity
  8
BLOCKS
100
AcDbLine
 10
-0.1765000000004875
 20
-0.1268314897389473
 30
0.0
 11
0.176499999999578
 21
-0.1268314897389473
 31
0.0
  0
LINE
  5
10DB
330
10BC
100
AcDbEntity
  8
BLOCKS
100
AcDbLine
 10
-0.1762904988281662
 20
0.0
 30
0.0
 11
0.1762904988277114
 21
0.0
 31
0.0
  0
LWPOLYLINE
  5
10DC
330
10BC
100
AcDbEntity
  8
BLOCKS
100
AcDbPolyline
 90
       10
 70
   128
 43
0.0
 10
0.0639666333140667
 20
-0.0672269411824118
 10
0.0460677635091997
 20
-0.0710958455820219
 10
0.0282187022348808
 20
-0.0736678857708739
 10
0.0102345465024882
 20
-0.0750006173454949
 10
-0.0000000000004547
 20
-0.0752017819479534
 10
-0.008117455404772
 20
-0.0750752520463038
 10
-0.0264735400892278
 20
-0.0738520578370299
 10
-0.0446977266783506
 20
-0.0713382072450486
 10
-0.0543710201022805
 20
-0.0694645375792789
 10
-0.0639666333149762
 20
-0.0672269411824118
  0
LWPOLYLINE
  5
10DD
330
10BC
100
AcDbEntity
  8
BLOCKS
100
AcDbPolyline
 90
        4
 70
   128
 43
0.0
 10
0.0840056531214941
 20
-0.0939847893896513
 10
0.0858685223593057
 20
-0.0965705047158281
 10
0.0951253416160398
 20
-0.1095591406891572
 10
0.1052745058150322
 20
-0.1240535089857531
  0
LINE
  5
10DE
330
10BC
100
AcDbEntity
  8
BLOCKS
100
AcDbLine
 10
0.1824999999998908
 20
-0.117132797454019
 30
0.0
 11
0.1824999999998908
 21
-0.0197036520210077
 31
0.0
  0
LWPOLYLINE
  5
10DF
330
10BC
100
AcDbEntity
  8
BLOCKS
100
AcDbPolyline
 90
       11
 70
   128
 43
0.0
 10
0.0689795342459547
 20
-0.0662234985187524
 10
0.073690706587513
 20
-0.0649287826274758
 10
0.0911258117289435
 20
-0.0593151183502414
 10
0.1081397944653872
 20
-0.0525302638960739
 10
0.1244914366052399
 20
-0.0446954715425818
 10
0.1402912580965676
 20
-0.0357987193292502
 10
0.1511756604691072
 20
-0.0288464474211878
 10
0.1546199352565054
 20
-0.0264993676142922
 10
0.1670980847802639
 20
-0.017392498881577
 10
0.1698181918090995
 20
-0.0152861372481539
 10
0.170298485418698
 20
-0.0149101849498266
  0
LINE
  5
10E0
330
10BC
100
AcDbEntity
  8
BLOCKS
100
AcDbLine
 10
0.1794999999997344
 20
0.0
 30
0.0
 11
0.1782959581196337
 21
0.0
 31
0.0
  0
ARC
  5
10E1
330
10BC
100
AcDbEntity
  8
BLOCKS
100
AcDbCircle
 10
0.1794999999997344
 20
-0.0029999999999291
 30
0.0
 40
0.0030000000000001
100
AcDbArc
 50
0.0
 51
90.0
  0
LWPOLYLINE
  5
10E2
330
10BC
100
AcDbEntity
  8
BLOCKS
100
AcDbPolyline
 90
        9
 70
   128
 43
0.0
 10
0.1809949476496513
 20
-0.0038938630804068
 10
0.1811167604732873
 20
-0.0032049825672402
 10
0.1810846008879707
 20
-0.0025049131596688
 10
0.1809002243112445
 20
-0.0018318678764899
 10
0.180573694868599
 20
-0.0012225846351157
 10
0.1801228360432105
 20
-0.0007103209263732
 10
0.1795722577908236
 20
-0.0003230384672861
 10
0.178952013212438
 20
-0.000081876921854
 10
0.1782959581196337
 20
0.0
  0
LINE
  5
10E3
330
10BC
100
AcDbEntity
  8
BLOCKS
100
AcDbLine
 10
0.1782959581196337
 20
0.0
 30
0.0
 11
0.1762904988277114
 21
0.0
 31
0.0
  0
LWPOLYLINE
  5
10E4
330
10BC
100
AcDbEntity
  8
BLOCKS
100
AcDbPolyline
 90
        6
 70
   128
 43
0.0
 10
0.170298485418698
 20
-0.0149101849498266
 10
0.1723677660756948
 20
-0.0138712550582341
 10
0.1751146485771642
 20
-0.011846550812038
 10
0.1775641561116572
 20
-0.0093792644707946
 10
0.1794722006857228
 20
-0.0067958321687911
 10
0.1809949476496513
 20
-0.0038938630804068
  0
LINE
  5
10E5
330
10BC
100
AcDbEntity
  8
BLOCKS
100
AcDbLine
 10
0.1824999999998908
 20
-0.0197036520210077
 30
0.0
 11
0.1824999999998908
 21
-0.0030000000000427
 31
0.0
  0
LWPOLYLINE
  5
10E6
330
10BC
100
AcDbEntity
  8
BLOCKS
100
AcDbPolyline
 90
        3
 70
   128
 43
0.0
 10
0.0669687113258988
 20
-0.0696073864952496
 10
0.0695616974867335
 20
-0.0734197440856406
 10
0.0840056531214941
 20
-0.0939847893896513
  0
LWPOLYLINE
  5
10E7
330
10BC
100
AcDbEntity
  8
BLOCKS
100
AcDbPolyline
 90
        9
 70
   128
 43
0.0
 10
0.0669687113258988
 20
-0.0696073864952496
 10
0.0667671374708334
 20
-0.069145662669257
 10
0.0665346714631596
 20
-0.0687142367146407
 10
0.0662751769305032
 20
-0.0683202790091855
 10
0.0659929667194774
 20
-0.0679703372018139
 10
0.0656927312147673
 20
-0.0676702273889305
 10
0.0653794603849747
 20
-0.0674249374502551
 10
0.0650583608485249
 20
-0.0672385441490633
 10
0.064734769338429
 20
-0.0671141453761948
  0
LWPOLYLINE
  5
10E8
330
10BC
100
AcDbEntity
  8
BLOCKS
100
AcDbPolyline
 90
        3
 70
   128
 43
0.0
 10
0.064734769338429
 20
-0.0671141453761948
 10
0.0667896455829578
 20
-0.0667428720167891
 10
0.0689795342459547
 20
-0.0662234985187524
  0
ARC
  5
10E9
330
10BC
100
AcDbEntity
  8
BLOCKS
100
AcDbCircle
 10
0.0649084242249956
 20
-0.0709686193305288
 30
0.0
 40
0.003858383791747
100
AcDbArc
 50
92.57959155275022
 51
104.1280314903406
  0
LINE
  5
10EA
330
10BC
100
AcDbEntity
  8
BLOCKS
100
AcDbLine
 10
0.1824999999998908
 20
-0.1226132026332607
 30
0.0
 11
0.1824999999998908
 21
-0.1221297206616327
 31
0.0
  0
LWPOLYLINE
  5
10EB
330
10BC
100
AcDbEntity
  8
BLOCKS
100
AcDbPolyline
 90
        9
 70
   128
 43
0.0
 10
0.1784999999995307
 20
-0.1266107659414501
 10
0.1792803612875105
 20
-0.1265339538833814
 10
0.1800307337289268
 20
-0.1263064695535832
 10
0.1807222809316045
 20
-0.1259370550473022
 10
0.1813284271242992
 20
-0.1254399067566965
 10
0.1818258784487625
 20
-0.1248341298119158
 10
0.182195518129447
 20
-0.1241430038811586
 10
0.1824231411210348
 20
-0.1233930885463224
 10
0.1824999999994361
 20
-0.1226132026333744
  0
LWPOLYLINE
  5
10EC
330
10BC
100
AcDbEntity
  8
BLOCKS
100
AcDbPolyline
 90
        4
 70
   128
 43
0.0
 10
0.1784999999995307
 20
-0.1266107659414501
 10
0.1780287619503724
 20
-0.1267042465708528
 10
0.1765080903815033
 20
-0.1268308907821165
 10
0.176499999999578
 20
-0.1268314897389473
  0
LINE
  5
10ED
330
10BC
100
AcDbEntity
  8
BLOCKS
100
AcDbLine
 10
0.1824999999998908
 20
-0.1221297206616327
 30
0.0
 11
0.1824999999998908
 21
-0.117132797454019
 31
0.0
  0
LINE
  5
10EE
330
10BC
100
AcDbEntity
  8
BLOCKS
100
AcDbLine
 10
0.1799054787625209
 20
-0.1350000016431068
 30
0.0
 11
0.1799054324555982
 21
-0.1318284698012349
 31
0.0
  0
LWPOLYLINE
  5
10EF
330
10BC
100
AcDbEntity
  8
BLOCKS
100
AcDbPolyline
 90
        7
 70
   128
 43
0.0
 10
0.1799144477145091
 20
-0.1318294843049443
 10
0.1799282245665381
 20
-0.1307888337197482
 10
0.1800323512816249
 20
-0.1293795932919011
 10
0.1802091758027018
 20
-0.128110290745326
 10
0.1804403499409091
 20
-0.1270193972360403
 10
0.180679257806787
 20
-0.126218260460405
 10
0.1808234408545104
 20
-0.1258540858173092
  0
CIRCLE
  5
10F0
330
10BC
100
AcDbEntity
  8
BLOCKS
100
AcDbCircle
 10
0.0799999999999273
 20
-0.1520000000000437
 30
0.0
 40
0.0065000000000001
  0
LWPOLYLINE
  5
10F1
330
10BC
100
AcDbEntity
  8
BLOCKS
100
AcDbPolyline
 90
        9
 70
   128
 43
0.0
 10
0.108554370793172
 20
-0.1257840022639129
 10
0.1080742207063849
 20
-0.1257537066164787
 10
0.1076010519700503
 20
-0.1256657271568429
 10
0.1071417444272811
 20
-0.1255213431005586
 10
0.106702976379438
 20
-0.1253226537822911
 10
0.1062911274852922
 20
-0.1250725481318113
 10
0.1059121860007508
 20
-0.1247746626688695
 10
0.1055716617106555
 20
-0.1244333286286974
 10
0.1052745058150322
 20
-0.1240535089857531
  0
LWPOLYLINE
  5
10F2
330
10BC
100
AcDbEntity
  8
BLOCKS
100
AcDbPolyline
 90
        5
 70
   128
 43
0.0
 10
0.0483431294810544
 20
-0.3055652942410916
 10
0.0483431401330563
 20
-0.3055653485926086
 10
0.0487474322694652
 20
-0.3086781457390089
 10
0.0487502188293547
 20
-0.3118704795095937
 10
0.0487502152982415
 20
-0.3118705350781283
  0
LWPOLYLINE
  5
10F3
330
10BC
100
AcDbEntity
  8
BLOCKS
100
AcDbPolyline
 90
        4
 70
   128
 43
0.0
 10
-0.0840056531224036
 20
-0.0939847893896513
 10
-0.0858685223602152
 20
-0.0965705047158281
 10
-0.0951253416169493
 20
-0.1095591406891572
 10
-0.1052745058159417
 20
-0.1240535089857531
  0
LINE
  5
10F4
330
10BC
100
AcDbEntity
  8
BLOCKS
100
AcDbLine
 10
-0.1825000000003456
 20
-0.117132797454019
 30
0.0
 11
-0.1825000000003456
 21
-0.0197036520210077
 31
0.0
  0
LWPOLYLINE
  5
10F5
330
10BC
100
AcDbEntity
  8
BLOCKS
100
AcDbPolyline
 90
       11
 70
   128
 43
0.0
 10
-0.0689795342468642
 20
-0.0662234985187524
 10
-0.0736907065884225
 20
-0.0649287826274758
 10
-0.091125811729853
 20
-0.0593151183502414
 10
-0.1081397944667515
 20
-0.0525302638960739
 10
-0.1244914366066041
 20
-0.0446954715425818
 10
-0.1402912580974771
 20
-0.0357987193292502
 10
-0.1511756604700167
 20
-0.0288464474211878
 10
-0.1546199352574149
 20
-0.0264993676142922
 10
-0.1670980847811734
 20
-0.017392498881577
 10
-0.169818191810009
 20
-0.0152861372481539
 10
-0.1702984854196075
 20
-0.0149101849498266
  0
LWPOLYLINE
  5
10F6
330
10BC
100
AcDbEntity
  8
BLOCKS
100
AcDbPolyline
 90
        3
 70
   128
 43
0.0
 10
-0.0669687113268083
 20
-0.0696073864952496
 10
-0.069561697487643
 20
-0.0734197440856406
 10
-0.0840056531224036
 20
-0.0939847893896513
  0
LWPOLYLINE
  5
10F7
330
10BC
100
AcDbEntity
  8
BLOCKS
100
AcDbPolyline
 90
        9
 70
   128
 43
0.0
 10
-0.0669687113268083
 20
-0.0696073864952496
 10
-0.0667671374717429
 20
-0.069145662669257
 10
-0.0665346714640691
 20
-0.0687142367146407
 10
-0.0662751769314127
 20
-0.0683202790091855
 10
-0.0659929667203869
 20
-0.0679703372018139
 10
-0.0656927312156768
 20
-0.0676702273889305
 10
-0.0653794603858842
 20
-0.0674249374502551
 10
-0.0650583608498892
 20
-0.0672385441490633
 10
-0.0647347693393385
 20
-0.0671141453761948
  0
LWPOLYLINE
  5
10F8
330
10BC
100
AcDbEntity
  8
BLOCKS
100
AcDbPolyline
 90
        3
 70
   128
 43
0.0
 10
-0.0647347693393385
 20
-0.0671141453761948
 10
-0.0667896455838673
 20
-0.0667428720167891
 10
-0.0689795342468642
 20
-0.0662234985187524
  0
ARC
  5
10F9
330
10BC
100
AcDbEntity
  8
BLOCKS
100
AcDbCircle
 10
-0.0649084242254503
 20
-0.0709686193305288
 30
0.0
 40
0.003858383791747
100
AcDbArc
 50
75.87196850965935
 51
87.42040844724973
  0
LWPOLYLINE
  5
10FA
330
10BC
100
AcDbEntity
  8
BLOCKS
100
AcDbPolyline
 90
        6
 70
   128
 43
0.0
 10
-0.1702984854196075
 20
-0.0149101849498266
 10
-0.1723677660766043
 20
-0.0138712550582341
 10
-0.1751146485780737
 20
-0.011846550812038
 10
-0.1775641561125667
 20
-0.0093792644707946
 10
-0.1794722006866323
 20
-0.0067958321687911
 10
-0.1809949476505608
 20
-0.0038938630804068
  0
LINE
  5
10FB
330
10BC
100
AcDbEntity
  8
BLOCKS
100
AcDbLine
 10
-0.1795000000001892
 20
0.0
 30
0.0
 11
-0.1782959581205432
 21
0.0
 31
0.0
  0
ARC
  5
10FC
330
10BC
100
AcDbEntity
  8
BLOCKS
100
AcDbCircle
 10
-0.1795000000001892
 20
-0.0029999999999291
 30
0.0
 40
0.0030000000000001
100
AcDbArc
 50
90.0
 51
180.0
  0
LINE
  5
10FD
330
10BC
100
AcDbEntity
  8
BLOCKS
100
AcDbLine
 10
-0.1782959581205432
 20
0.0
 30
0.0
 11
-0.1762904988281662
 21
0.0
 31
0.0
  0
LWPOLYLINE
  5
10FE
330
10BC
100
AcDbEntity
  8
BLOCKS
100
AcDbPolyline
 90
        9
 70
   128
 43
0.0
 10
-0.1809949476505608
 20
-0.0038938630804068
 10
-0.1811167604741968
 20
-0.0032049825672402
 10
-0.1810846008888802
 20
-0.0025049131596688
 10
-0.1809002243126088
 20
-0.0018318678764899
 10
-0.1805736948695085
 20
-0.0012225846351157
 10
-0.1801228360445748
 20
-0.0007103209263732
 10
-0.1795722577917331
 20
-0.0003230384672861
 10
-0.1789520132133475
 20
-0.000081876921854
 10
-0.1782959581205432
 20
0.0
  0
LINE
  5
10FF
330
10BC
100
AcDbEntity
  8
BLOCKS
100
AcDbLine
 10
-0.1825000000003456
 20
-0.0197036520210077
 30
0.0
 11
-0.1825000000003456
 21
-0.0030000000000427
 31
0.0
  0
CIRCLE
  5
1100
330
10BC
100
AcDbEntity
  8
BLOCKS
100
AcDbCircle
 10
-0.080000000000382
 20
-0.1520000000000437
 30
0.0
 40
0.0065000000000001
  0
LWPOLYLINE
  5
1101
330
10BC
100
AcDbEntity
  8
BLOCKS
100
AcDbPolyline
 90
        9
 70
   128
 43
0.0
 10
-0.1085543707940815
 20
-0.1257840022639129
 10
-0.1080742207072944
 20
-0.1257537066164787
 10
-0.1076010519709598
 20
-0.1256657271568429
 10
-0.1071417444281906
 20
-0.1255213431005586
 10
-0.1067029763808023
 20
-0.1253226537822911
 10
-0.1062911274866565
 20
-0.1250725481318113
 10
-0.105912186002115
 20
-0.1247746626688695
 10
-0.105571661711565
 20
-0.1244333286286974
 10
-0.1052745058159417
 20
-0.1240535089857531
  0
LINE
  5
1102
330
10BC
100
AcDbEntity
  8
BLOCKS
100
AcDbLine
 10
-0.0000000000004547
 20
-0.2907742486396501
 30
0.0
 11
-0.0294438689761591
 21
-0.2907742486398774
 31
0.0
  0
ENDBLK
  5
1106
330
10BC
100
AcDbEntity
  8
0
100
AcDbBlockEnd
  0
BLOCK
  5
112B
330
110E
100
AcDbEntity
  8
0
100
AcDbBlockBegin
  2
104021PL
 70
     0
 10
0.0
 20
0.0
 30
0.0
  3
104021PL
  1

  0
ARC
  5
110F
330
110E
100
AcDbEntity
  8
BLOCKS
100
AcDbCircle
 10
0.1725000000000136
 20
-0.1233160000000453
 30
0.0
 40
0.01
100
AcDbArc
 50
298.1491100000008
 51
0.0
  0
LINE
  5
1110
330
110E
100
AcDbEntity
  8
BLOCKS
100
AcDbLine
 10
0.1825000000000045
 20
-0.0099999999999909
 30
0.0
 11
0.1825000000000045
 21
-0.1233160000000453
 31
0.0
  0
ARC
  5
1111
330
110E
100
AcDbEntity
  8
BLOCKS
100
AcDbCircle
 10
-0.1725000000000136
 20
-0.0099999999999909
 30
0.0
 40
0.01
100
AcDbArc
 50
90.0
 51
180.0
  0
LINE
  5
1112
330
110E
100
AcDbEntity
  8
BLOCKS
100
AcDbLine
 10
-0.1725000000000136
 20
0.0
 30
0.0
 11
0.1725000000000136
 21
0.0
 31
0.0
  0
CIRCLE
  5
1113
330
110E
100
AcDbEntity
  8
BLOCKS
100
AcDbCircle
 10
0.091293999999948
 20
-0.2508380000000443
 30
0.0
 40
0.007203
  0
LINE
  5
1114
330
110E
100
AcDbEntity
  8
BLOCKS
100
AcDbLine
 10
0.0793830000000071
 20
-0.1677329999999984
 30
0.0
 11
0.1147760000000062
 21
-0.2259649999999738
 31
0.0
  0
CIRCLE
  5
1115
330
110E
100
AcDbEntity
  8
BLOCKS
100
AcDbCircle
 10
-0.0904450000000452
 20
-0.2508380000000443
 30
0.0
 40
0.007203
  0
LINE
  5
1116
330
110E
100
AcDbEntity
  8
BLOCKS
100
AcDbLine
 10
-0.0793830000000071
 20
-0.1677329999999984
 30
0.0
 11
-0.1147760000000062
 21
-0.2259649999999738
 31
0.0
  0
ARC
  5
1117
330
110E
100
AcDbEntity
  8
BLOCKS
100
AcDbCircle
 10
0.0471109999999726
 20
-0.4326240000000331
 30
0.0
 40
0.01
100
AcDbArc
 50
19.57349800000054
 51
90.0
  0
LINE
  5
1118
330
110E
100
AcDbEntity
  8
BLOCKS
100
AcDbLine
 10
0.1253219999999828
 20
-0.4282660000000084
 30
0.0
 11
0.1248470000000452
 21
-0.4782659999999629
 31
0.0
  0
ARC
  5
1119
330
110E
100
AcDbEntity
  8
BLOCKS
100
AcDbCircle
 10
-0.0471109999999726
 20
-0.4326240000000331
 30
0.0
 40
0.01
100
AcDbArc
 50
90.0
 51
160.4265019999994
  0
LINE
  5
111A
330
110E
100
AcDbEntity
  8
BLOCKS
100
AcDbLine
 10
-0.1248970000000327
 20
-0.4282660000000084
 30
0.0
 11
-0.1244219999999814
 21
-0.4782659999999629
 31
0.0
  0
ARC
  5
111B
330
110E
100
AcDbEntity
  8
BLOCKS
100
AcDbCircle
 10
0.0
 20
-0.4493750000000324
 30
0.0
 40
0.06
100
AcDbArc
 50
160.4265019999994
 51
19.57349800000054
  0
LINE
  5
111C
330
110E
100
AcDbEntity
  8
BLOCKS
100
AcDbLine
 10
0.0471109999999726
 20
-0.4226240000000422
 30
0.0
 11
-0.0471109999999726
 21
-0.4226240000000422
 31
0.0
  0
ARC
  5
111D
330
110E
100
AcDbEntity
  8
BLOCKS
100
AcDbCircle
 10
0.0002120000000332
 20
-0.4321559999999641
 30
0.0
 40
0.12517
100
AcDbArc
 50
1.780768000000537
 51
178.2192319999994
  0
LINE
  5
111E
330
110E
100
AcDbEntity
  8
BLOCKS
100
AcDbLine
 10
0.1749999999999545
 20
-0.4897590000000497
 30
0.0
 11
0.1749999999999545
 21
-0.1333100000000513
 31
0.0
  0
ARC
  5
111F
330
110E
100
AcDbEntity
  8
BLOCKS
100
AcDbCircle
 10
-0.1725000000000136
 20
-0.1221229999999878
 30
0.0
 40
0.01
100
AcDbArc
 50
180.0
 51
241.4547369999985
  0
LINE
  5
1120
330
110E
100
AcDbEntity
  8
BLOCKS
100
AcDbLine
 10
-0.1749999999999545
 20
-0.4897590000000497
 30
0.0
 11
-0.1749999999999545
 21
-0.1321369999999433
 31
0.0
  0
LINE
  5
1121
330
110E
100
AcDbEntity
  8
BLOCKS
100
AcDbLine
 10
0.1749999999999545
 20
-0.2259649999999738
 30
0.0
 11
-0.1749999999999545
 21
-0.2259649999999738
 31
0.0
  0
CIRCLE
  5
1122
330
110E
100
AcDbEntity
  8
BLOCKS
100
AcDbCircle
 10
0.0
 20
-0.088141999999948
 30
0.0
 40
0.06
  0
LINE
  5
1123
330
110E
100
AcDbEntity
  8
BLOCKS
100
AcDbLine
 10
-0.1825000000000045
 20
-0.0099999999999909
 30
0.0
 11
-0.1825000000000045
 21
-0.1221229999999878
 31
0.0
  0
CIRCLE
  5
1124
330
110E
100
AcDbEntity
  8
BLOCKS
100
AcDbCircle
 10
0.0
 20
-0.088141999999948
 30
0.0
 40
0.03
  0
ARC
  5
1125
330
110E
100
AcDbEntity
  8
BLOCKS
100
AcDbCircle
 10
0.0
 20
-0.4900020000000046
 30
0.0
 40
0.175
100
AcDbArc
 50
179.9203320000021
 51
0.0796679999978939
  0
ARC
  5
1126
330
110E
100
AcDbEntity
  8
BLOCKS
100
AcDbCircle
 10
0.0002120000000332
 20
-0.4898299999999841
 30
0.0
 40
0.12517
100
AcDbArc
 50
174.6989770000022
 51
5.301022999997709
  0
ARC
  5
1127
330
110E
100
AcDbEntity
  8
BLOCKS
100
AcDbCircle
 10
0.0011050000000523
 20
0.1970169999999598
 30
0.0
 40
0.373303
100
AcDbArc
 50
241.4547369999985
 51
298.1491100000008
  0
ARC
  5
1128
330
110E
100
AcDbEntity
  8
BLOCKS
100
AcDbCircle
 10
0.1725000000000136
 20
-0.0099999999999909
 30
0.0
 40
0.01
100
AcDbArc
 50
0.0
 51
90.0
  0
ENDBLK
  5
112C
330
110E
100
AcDbEntity
  8
0
100
AcDbBlockEnd
  0
BLOCK
  5
1202
330
112F
100
AcDbEntity
  8
0
100
AcDbBlockBegin
  2
104021CT
 70
     0
 10
0.0
 20
0.0
 30
0.0
  3
104021CT
  1

  0
LINE
  5
1130
330
112F
100
AcDbEntity
  8
BLOCKS
100
AcDbLine
 10
0.1615040000000363
 20
0.7842000000000553
 30
0.0
 11
0.1620739999999614
 21
0.7876410000000078
 31
0.0
  0
LINE
  5
1131
330
112F
100
AcDbEntity
  8
BLOCKS
100
AcDbLine
 10
0.1081420000000435
 20
0.8350000000000363
 30
0.0
 11
0.1081420000000435
 21
0.8250000000000454
 31
0.0
  0
LINE
  5
1132
330
112F
100
AcDbEntity
  8
BLOCKS
100
AcDbLine
 10
0.1582319999999981
 20
0.8040720000000192
 30
0.0
 11
0.155713999999989
 21
0.8212839999999914
 31
0.0
  0
ARC
  5
1133
330
112F
100
AcDbEntity
  8
BLOCKS
100
AcDbCircle
 10
0.1352849999999535
 20
0.8138139999999793
 30
0.0
 40
0.01
100
AcDbArc
 50
8.324689999998044
 51
34.7571669999982
  0
LINE
  5
1134
330
112F
100
AcDbEntity
  8
BLOCKS
100
AcDbLine
 10
0.1662850000000162
 20
0.8220079999999825
 30
0.0
 11
0.1662850000000162
 21
0.8065070000000105
 31
0.0
  0
ARC
  5
1135
330
112F
100
AcDbEntity
  8
BLOCKS
100
AcDbCircle
 10
0.1612010000000055
 20
0.8045069999999441
 30
0.0
 40
0.003
100
AcDbArc
 50
188.324689999998
 51
270.0
  0
ARC
  5
1136
330
112F
100
AcDbEntity
  8
BLOCKS
100
AcDbCircle
 10
0.1612850000000208
 20
0.8065070000000105
 30
0.0
 40
0.005
100
AcDbArc
 50
270.0
 51
0.0
  0
LINE
  5
1137
330
112F
100
AcDbEntity
  8
BLOCKS
100
AcDbLine
 10
0.1612010000000055
 20
0.801507000000015
 30
0.0
 11
0.1612850000000208
 21
0.801507000000015
 31
0.0
  0
ARC
  5
1138
330
112F
100
AcDbEntity
  8
BLOCKS
100
AcDbCircle
 10
0.1670070000000123
 20
0.7868230000000267
 30
0.0
 40
0.005
100
AcDbArc
 50
146.2926409999973
 51
170.5869030000024
  0
ARC
  5
1139
330
112F
100
AcDbEntity
  8
BLOCKS
100
AcDbCircle
 10
0.1676139999999577
 20
0.7877340000000004
 30
0.0
 40
0.005
100
AcDbArc
 50
90.0
 51
146.2926409999973
  0
LINE
  5
113A
330
112F
100
AcDbEntity
  8
BLOCKS
100
AcDbLine
 10
0.1628470000000561
 20
0.7895979999999554
 30
0.0
 11
0.163454999999999
 21
0.7905090000000428
 31
0.0
  0
LINE
  5
113B
330
112F
100
AcDbEntity
  8
BLOCKS
100
AcDbLine
 10
0.1676139999999577
 20
0.7927339999999959
 30
0.0
 11
0.1762850000000071
 21
0.7927339999999959
 31
0.0
  0
ARC
  5
113C
330
112F
100
AcDbEntity
  8
BLOCKS
100
AcDbCircle
 10
0.1606610000000046
 20
0.8220079999999825
 30
0.0
 40
0.005
100
AcDbArc
 50
90.0
 51
188.324689999998
  0
LINE
  5
113D
330
112F
100
AcDbEntity
  8
BLOCKS
100
AcDbLine
 10
0.1435010000000148
 20
0.8195150000000239
 30
0.0
 11
0.1396949999999606
 21
0.8250000000000454
 31
0.0
  0
ARC
  5
113E
330
112F
100
AcDbEntity
  8
BLOCKS
100
AcDbCircle
 10
0.1612850000000208
 20
0.8220079999999825
 30
0.0
 40
0.005
100
AcDbArc
 50
0.0
 51
90.0
  0
LINE
  5
113F
330
112F
100
AcDbEntity
  8
BLOCKS
100
AcDbLine
 10
0.1606610000000046
 20
0.8270079999999779
 30
0.0
 11
0.1612850000000208
 21
0.8270079999999779
 31
0.0
  0
ARC
  5
1140
330
112F
100
AcDbEntity
  8
BLOCKS
100
AcDbCircle
 10
0.1662850000000162
 20
0.8250000000000454
 30
0.0
 40
0.01
100
AcDbArc
 50
0.0
 51
90.0
  0
ARC
  5
1141
330
112F
100
AcDbEntity
  8
BLOCKS
100
AcDbCircle
 10
0.0409990000000562
 20
0.8138139999999793
 30
0.0
 40
0.01
100
AcDbArc
 50
145.2428330000018
 51
171.6753100000019
  0
LINE
  5
1142
330
112F
100
AcDbEntity
  8
BLOCKS
100
AcDbLine
 10
0.0327839999999924
 20
0.8195150000000239
 30
0.0
 11
0.0365900000000465
 21
0.8250000000000454
 31
0.0
  0
LINE
  5
1143
330
112F
100
AcDbEntity
  8
BLOCKS
100
AcDbLine
 10
0.0681419999999662
 20
0.8350000000000363
 30
0.0
 11
0.0681419999999662
 21
0.8250000000000454
 31
0.0
  0
LINE
  5
1144
330
112F
100
AcDbEntity
  8
BLOCKS
100
AcDbLine
 10
0.1396949999999606
 20
0.8250000000000454
 30
0.0
 11
0.0365900000000465
 21
0.8250000000000454
 31
0.0
  0
ARC
  5
1145
330
112F
100
AcDbEntity
  8
BLOCKS
100
AcDbCircle
 10
0.1599390000000085
 20
0.7841710000000149
 30
0.0
 40
0.001
100
AcDbArc
 50
270.0
 51
288.4282079999999
  0
LINE
  5
1146
330
112F
100
AcDbEntity
  8
BLOCKS
100
AcDbLine
 10
0.1602550000000065
 20
0.7832220000000234
 30
0.0
 11
0.1608330000000251
 21
0.7834149999999909
 31
0.0
  0
LINE
  5
1147
330
112F
100
AcDbEntity
  8
BLOCKS
100
AcDbLine
 10
0.1498759999999493
 20
0.7831710000000385
 30
0.0
 11
0.1451799999999821
 21
0.8152619999999615
 31
0.0
  0
LINE
  5
1148
330
112F
100
AcDbEntity
  8
BLOCKS
100
AcDbLine
 10
0.0264089999999442
 20
0.7831710000000385
 30
0.0
 11
0.031105000000025
 21
0.8152619999999615
 31
0.0
  0
ARC
  5
1149
330
112F
100
AcDbEntity
  8
BLOCKS
100
AcDbCircle
 10
0.1605170000000271
 20
0.7843639999999823
 30
0.0
 40
0.001
100
AcDbArc
 50
288.4282079999999
 51
350.5869030000024
  0
ARC
  5
114A
330
112F
100
AcDbEntity
  8
BLOCKS
100
AcDbCircle
 10
0.6180419999999458
 20
0.3360730000000558
 30
0.0
 40
0.005
100
AcDbArc
 50
326.2119429999986
 51
90.0
  0
ARC
  5
114B
330
112F
100
AcDbEntity
  8
BLOCKS
100
AcDbCircle
 10
0.6540529999999763
 20
0.3435779999999795
 30
0.0
 40
0.056427
100
AcDbArc
 50
90.81257999999822
 51
139.8093130000011
  0
LINE
  5
114C
330
112F
100
AcDbEntity
  8
BLOCKS
100
AcDbLine
 10
0.6145539999999983
 20
0.3510730000000422
 30
0.0
 11
0.6319529999999532
 21
0.3510730000000422
 31
0.0
  0
ARC
  5
114D
330
112F
100
AcDbEntity
  8
BLOCKS
100
AcDbCircle
 10
0.6540529999999763
 20
0.3435779999999795
 30
0.0
 40
0.046427
100
AcDbArc
 50
96.70801699999733
 51
162.4465859999996
  0
ARC
  5
114E
330
112F
100
AcDbEntity
  8
BLOCKS
100
AcDbCircle
 10
0.6415040000000545
 20
0.3541790000000446
 30
0.0
 40
0.04
100
AcDbArc
 50
139.8093130000011
 51
153.3184469999976
  0
ARC
  5
114F
330
112F
100
AcDbEntity
  8
BLOCKS
100
AcDbCircle
 10
0.6145539999999983
 20
0.3560730000000376
 30
0.0
 40
0.005
100
AcDbArc
 50
162.4465859999996
 51
270.0
  0
ARC
  5
1150
330
112F
100
AcDbEntity
  8
BLOCKS
100
AcDbCircle
 10
0.6436179999999468
 20
0.3818850000000111
 30
0.0
 40
0.011274
100
AcDbArc
 50
318.0731159999996
 51
26.89049300000294
  0
ARC
  5
1151
330
112F
100
AcDbEntity
  8
BLOCKS
100
AcDbCircle
 10
0.6436179999999468
 20
0.3818850000000111
 30
0.0
 40
0.021274
100
AcDbArc
 50
318.0731159999996
 51
53.70030199999851
  0
ARC
  5
1152
330
112F
100
AcDbEntity
  8
BLOCKS
100
AcDbCircle
 10
0.6319529999999532
 20
0.3560730000000376
 30
0.0
 40
0.005
100
AcDbArc
 50
270.0
 51
324.1485300000008
  0
ARC
  5
1153
330
112F
100
AcDbEntity
  8
BLOCKS
100
AcDbCircle
 10
1.180287000000021
 20
-0.0401480000000447
 30
0.0
 40
0.6715070000000001
100
AcDbArc
 50
141.939108999998
 51
144.1485300000009
  0
ARC
  5
1154
330
112F
100
AcDbEntity
  8
BLOCKS
100
AcDbCircle
 10
0.6492140000000291
 20
0.3847220000000107
 30
0.0
 40
0.005
100
AcDbArc
 50
26.89049300000294
 51
96.70801699999733
  0
ARC
  5
1155
330
112F
100
AcDbEntity
  8
BLOCKS
100
AcDbCircle
 10
0.6532529999999497
 20
0.3949999999999818
 30
0.0
 40
0.005
100
AcDbArc
 50
53.70030199999851
 51
90.0
  0
LINE
  5
1156
330
112F
100
AcDbEntity
  8
BLOCKS
100
AcDbLine
 10
0.5901499999999942
 20
0.3410730000000512
 30
0.0
 11
0.6057630000000245
 21
0.372141000000056
 31
0.0
  0
ARC
  5
1157
330
112F
100
AcDbEntity
  8
BLOCKS
100
AcDbCircle
 10
0.4615740000000415
 20
0.3386410000000524
 30
0.0
 40
0.140867
100
AcDbArc
 50
296.2901010000032
 51
329.6840249999986
  0
ARC
  5
1158
330
112F
100
AcDbEntity
  8
BLOCKS
100
AcDbCircle
 10
0.553309000000013
 20
0.2139369999999872
 30
0.0
 40
0.005
100
AcDbArc
 50
337.9395699999975
 51
126.3013319999986
  0
LINE
  5
1159
330
112F
100
AcDbEntity
  8
BLOCKS
100
AcDbLine
 10
0.5831789999999728
 20
0.2675349999999526
 30
0.0
 11
0.6221980000000258
 21
0.3332920000000286
 31
0.0
  0
ARC
  5
115A
330
112F
100
AcDbEntity
  8
BLOCKS
100
AcDbCircle
 10
0.3317409999999654
 20
0.576960999999983
 30
0.0
 40
0.4121850000000002
100
AcDbArc
 50
295.5706760000001
 51
297.7980629999974
  0
LINE
  5
115B
330
112F
100
AcDbEntity
  8
BLOCKS
100
AcDbLine
 10
0.1181420000000344
 20
0.4616590000000543
 30
0.0
 11
0.1181420000000344
 21
0.4500000000000455
 31
0.0
  0
LINE
  5
115C
330
112F
100
AcDbEntity
  8
BLOCKS
100
AcDbLine
 10
0.1347660000000133
 20
0.437404000000015
 30
0.0
 11
0.1376800000000458
 21
0.4468739999999798
 31
0.0
  0
ARC
  5
115D
330
112F
100
AcDbEntity
  8
BLOCKS
100
AcDbCircle
 10
0.1562850000000253
 20
0.4716590000000452
 30
0.0
 40
0.01
100
AcDbArc
 50
270.0
 51
0.0
  0
LINE
  5
115E
330
112F
100
AcDbEntity
  8
BLOCKS
100
AcDbLine
 10
0.1732849999999644
 20
0.4468739999999798
 30
0.0
 11
0.1376800000000458
 21
0.4468739999999798
 31
0.0
  0
ARC
  5
115F
330
112F
100
AcDbEntity
  8
BLOCKS
100
AcDbCircle
 10
0.1732849999999644
 20
0.4438740000000508
 30
0.0
 40
0.003
100
AcDbArc
 50
0.0
 51
90.0
  0
ARC
  5
1160
330
112F
100
AcDbEntity
  8
BLOCKS
100
AcDbCircle
 10
0.1662850000000162
 20
0.4600000000000364
 30
0.0
 40
0.01
100
AcDbArc
 50
270.0
 51
0.0
  0
LINE
  5
1161
330
112F
100
AcDbEntity
  8
BLOCKS
100
AcDbLine
 10
0.0415189999999939
 20
0.437404000000015
 30
0.0
 11
0.0386049999999614
 21
0.4468739999999798
 31
0.0
  0
LINE
  5
1162
330
112F
100
AcDbEntity
  8
BLOCKS
100
AcDbLine
 10
0.0581419999999753
 20
0.4616590000000543
 30
0.0
 11
0.0581419999999753
 21
0.4500000000000455
 31
0.0
  0
LINE
  5
1163
330
112F
100
AcDbEntity
  8
BLOCKS
100
AcDbLine
 10
0.1562850000000253
 20
0.4616590000000543
 30
0.0
 11
0.0199999999999818
 21
0.4616590000000543
 31
0.0
  0
LINE
  5
1164
330
112F
100
AcDbEntity
  8
BLOCKS
100
AcDbLine
 10
0.2933359999999538
 20
0.3410730000000512
 30
0.0
 11
0.290616
 21
0.3510730000000422
 31
0.0
  0
LINE
  5
1165
330
112F
100
AcDbEntity
  8
BLOCKS
100
AcDbLine
 10
0.2880410000000211
 20
0.3410730000000512
 30
0.0
 11
0.2853209999999535
 21
0.3510730000000422
 31
0.0
  0
LINE
  5
1166
330
112F
100
AcDbEntity
  8
BLOCKS
100
AcDbLine
 10
0.3063949999999522
 20
0.3473850000000311
 30
0.0
 11
0.293089000000009
 21
0.3963119999999662
 31
0.0
  0
ARC
  5
1167
330
112F
100
AcDbEntity
  8
BLOCKS
100
AcDbCircle
 10
0.28937499999995
 20
0.3310729999999467
 30
0.0
 40
0.01
100
AcDbArc
 50
90.0
 51
198.6307840000016
  0
ARC
  5
1168
330
112F
100
AcDbEntity
  8
BLOCKS
100
AcDbCircle
 10
0.3015699999999697
 20
0.3460730000000467
 30
0.0
 40
0.005
100
AcDbArc
 50
270.0
 51
15.21406900000003
  0
LINE
  5
1169
330
112F
100
AcDbEntity
  8
BLOCKS
100
AcDbLine
 10
0.2933120000000144
 20
0.357385000000022
 30
0.0
 11
0.2854449999999815
 21
0.3863119999999753
 31
0.0
  0
ARC
  5
116A
330
112F
100
AcDbEntity
  8
BLOCKS
100
AcDbCircle
 10
0.2884870000000319
 20
0.3560730000000376
 30
0.0
 40
0.005
100
AcDbArc
 50
270.0
 51
15.21406900000003
  0
ARC
  5
116B
330
112F
100
AcDbEntity
  8
BLOCKS
100
AcDbCircle
 10
0.280619999999999
 20
0.3849999999999909
 30
0.0
 40
0.005
100
AcDbArc
 50
15.21406900000003
 51
90.0
  0
ARC
  5
116C
330
112F
100
AcDbEntity
  8
BLOCKS
100
AcDbCircle
 10
0.2882640000000265
 20
0.3949999999999818
 30
0.0
 40
0.005
100
AcDbArc
 50
15.21406900000003
 51
90.0
  0
ARC
  5
116D
330
112F
100
AcDbEntity
  8
BLOCKS
100
AcDbCircle
 10
0.2109649999999874
 20
0.4088739999999689
 30
0.0
 40
0.005
100
AcDbArc
 50
0.0
 51
90.0
  0
LINE
  5
116E
330
112F
100
AcDbEntity
  8
BLOCKS
100
AcDbLine
 10
0.2259649999999738
 20
0.4288739999999507
 30
0.0
 11
0.2259649999999738
 21
0.4049999999999728
 31
0.0
  0
LINE
  5
116F
330
112F
100
AcDbEntity
  8
BLOCKS
100
AcDbLine
 10
0.2398080000000391
 20
0.3410730000000512
 30
0.0
 11
0.2579170000000204
 21
0.3410730000000512
 31
0.0
  0
ARC
  5
1170
330
112F
100
AcDbEntity
  8
BLOCKS
100
AcDbCircle
 10
0.2398080000000391
 20
0.371073000000024
 30
0.0
 40
0.03
100
AcDbArc
 50
257.8010629999978
 51
270.0
  0
ARC
  5
1171
330
112F
100
AcDbEntity
  8
BLOCKS
100
AcDbCircle
 10
0.2408769999999549
 20
0.3810730000000149
 30
0.0
 40
0.03
100
AcDbArc
 50
257.8010629999978
 51
270.0
  0
ARC
  5
1172
330
112F
100
AcDbEntity
  8
BLOCKS
100
AcDbCircle
 10
0.2209649999999783
 20
0.3949999999999818
 30
0.0
 40
0.005
100
AcDbArc
 50
180.0
 51
270.0
  0
LINE
  5
1173
330
112F
100
AcDbEntity
  8
BLOCKS
100
AcDbLine
 10
0.2159649999999829
 20
0.4088739999999689
 30
0.0
 11
0.2159649999999829
 21
0.3949999999999818
 31
0.0
  0
ARC
  5
1174
330
112F
100
AcDbEntity
  8
BLOCKS
100
AcDbCircle
 10
0.2309649999999692
 20
0.4049999999999728
 30
0.0
 40
0.005
100
AcDbArc
 50
180.0
 51
270.0
  0
ARC
  5
1175
330
112F
100
AcDbEntity
  8
BLOCKS
100
AcDbCircle
 10
0.2209649999999783
 20
0.4288739999999507
 30
0.0
 40
0.005
100
AcDbArc
 50
0.0
 51
90.0
  0
ARC
  5
1176
330
112F
100
AcDbEntity
  8
BLOCKS
100
AcDbCircle
 10
0.2579170000000204
 20
0.3310729999999467
 30
0.0
 40
0.01
100
AcDbArc
 50
16.46752800000199
 51
90.0
  0
LINE
  5
1177
330
112F
100
AcDbEntity
  8
BLOCKS
100
AcDbLine
 10
0.280619999999999
 20
0.3899999999999863
 30
0.0
 11
0.2209649999999783
 21
0.3899999999999863
 31
0.0
  0
LINE
  5
1178
330
112F
100
AcDbEntity
  8
BLOCKS
100
AcDbLine
 10
0.2408769999999549
 20
0.3510730000000422
 30
0.0
 11
0.2884870000000319
 21
0.3510730000000422
 31
0.0
  0
ARC
  5
1179
330
112F
100
AcDbEntity
  8
BLOCKS
100
AcDbCircle
 10
0.7168619999999919
 20
0.556824000000006
 30
0.0
 40
0.5090209999999999
100
AcDbArc
 50
216.8817780000021
 51
222.1951259999989
  0
ARC
  5
117A
330
112F
100
AcDbEntity
  8
BLOCKS
100
AcDbCircle
 10
0.3020030000000133
 20
0.197035000000028
 30
0.0
 40
0.03
100
AcDbArc
 50
43.45381100000001
 51
107.2142259999978
  0
ARC
  5
117B
330
112F
100
AcDbEntity
  8
BLOCKS
100
AcDbCircle
 10
0.270336000000043
 20
0.2992420000000493
 30
0.0
 40
0.077
100
AcDbArc
 50
272.3879780000032
 51
287.2142259999979
  0
ARC
  5
117C
330
112F
100
AcDbEntity
  8
BLOCKS
100
AcDbCircle
 10
0.270336000000043
 20
0.2992420000000493
 30
0.0
 40
0.067
100
AcDbArc
 50
271.9683619999982
 51
296.9206680000026
  0
ARC
  5
117D
330
112F
100
AcDbEntity
  8
BLOCKS
100
AcDbCircle
 10
0.2991570000000365
 20
0.2427589999999782
 30
0.0
 40
0.003592
100
AcDbArc
 50
294.9395680000003
 51
39.07498699999875
  0
ARC
  5
117E
330
112F
100
AcDbEntity
  8
BLOCKS
100
AcDbCircle
 10
0.2903549999999768
 20
0.1075680000000148
 30
0.0
 40
0.115965
100
AcDbArc
 50
98.33507099999842
 51
123.7387340000033
  0
ARC
  5
117F
330
112F
100
AcDbEntity
  8
BLOCKS
100
AcDbCircle
 10
0.2903549999999768
 20
0.1075680000000148
 30
0.0
 40
0.125965
100
AcDbArc
 50
98.08569999999889
 51
123.7387340000033
  0
ARC
  5
1180
330
112F
100
AcDbEntity
  8
BLOCKS
100
AcDbCircle
 10
0.4940970000000107
 20
0.3672070000000076
 30
0.0
 40
0.217778
100
AcDbArc
 50
190.4043600000006
 51
212.1476799999972
  0
ARC
  5
1181
330
112F
100
AcDbEntity
  8
BLOCKS
100
AcDbCircle
 10
0.4954709999999523
 20
0.3711210000000165
 30
0.0
 40
0.230982
100
AcDbArc
 50
189.2712720000029
 51
213.0874159999996
  0
LINE
  5
1182
330
112F
100
AcDbEntity
  8
BLOCKS
100
AcDbLine
 10
0.1299870000000283
 20
0.4338739999999462
 30
0.0
 11
0.1221420000000535
 21
0.4338739999999462
 31
0.0
  0
LINE
  5
1183
330
112F
100
AcDbEntity
  8
BLOCKS
100
AcDbLine
 10
0.1201419999999871
 20
0.4239479999999958
 30
0.0
 11
0.1221420000000535
 21
0.4338739999999462
 31
0.0
  0
LINE
  5
1184
330
112F
100
AcDbEntity
  8
BLOCKS
100
AcDbLine
 10
0.1403410000000349
 20
0.4270770000000539
 30
0.0
 11
0.1456369999999651
 21
0.4318009999999504
 31
0.0
  0
ARC
  5
1185
330
112F
100
AcDbEntity
  8
BLOCKS
100
AcDbCircle
 10
0.133006000000023
 20
0.4338739999999462
 30
0.0
 40
0.01
100
AcDbArc
 50
270.0
 51
317.1826249999974
  0
LINE
  5
1186
330
112F
100
AcDbEntity
  8
BLOCKS
100
AcDbLine
 10
0.1662850000000162
 20
0.4238739999999553
 30
0.0
 11
0.1662850000000162
 21
0.426513
 31
0.0
  0
ARC
  5
1187
330
112F
100
AcDbEntity
  8
BLOCKS
100
AcDbCircle
 10
0.1762850000000071
 20
0.4238739999999553
 30
0.0
 40
0.01
100
AcDbArc
 50
180.0
 51
270.0
  0
ARC
  5
1188
330
112F
100
AcDbEntity
  8
BLOCKS
100
AcDbCircle
 10
0.1792850000000499
 20
0.426873999999998
 30
0.0
 40
0.003
100
AcDbArc
 50
180.0
 51
270.0
  0
ARC
  5
1189
330
112F
100
AcDbEntity
  8
BLOCKS
100
AcDbCircle
 10
0.0880750000000035
 20
0.4550309999999627
 30
0.0
 40
0.07
100
AcDbArc
 50
205.9538900000036
 51
257.8010629999978
  0
ARC
  5
118A
330
112F
100
AcDbEntity
  8
BLOCKS
100
AcDbCircle
 10
0.050974999999994
 20
0.3769340000000056
 30
0.0
 40
0.014086
100
AcDbArc
 50
328.5601199999983
 51
5.952442000001849
  0
ARC
  5
118B
330
112F
100
AcDbEntity
  8
BLOCKS
100
AcDbCircle
 10
0.0544609999999466
 20
0.3748030000000426
 30
0.0
 40
0.01
100
AcDbArc
 50
270.0
 51
328.5601199999983
  0
ARC
  5
118C
330
112F
100
AcDbEntity
  8
BLOCKS
100
AcDbCircle
 10
0.0391419999999698
 20
0.4308740000000171
 30
0.0
 40
0.007
100
AcDbArc
 50
180.0
 51
270.0
  0
ARC
  5
118D
330
112F
100
AcDbEntity
  8
BLOCKS
100
AcDbCircle
 10
0.0311420000000453
 20
0.4318319999999858
 30
0.0
 40
0.001
100
AcDbArc
 50
0.0
 51
47.68405499999877
  0
LINE
  5
118E
330
112F
100
AcDbEntity
  8
BLOCKS
100
AcDbLine
 10
0.0321420000000217
 20
0.4318319999999858
 30
0.0
 11
0.0321420000000217
 21
0.4308740000000171
 31
0.0
  0
ARC
  5
118F
330
112F
100
AcDbEntity
  8
BLOCKS
100
AcDbCircle
 10
0.0284500000000207
 20
0.4288739999999507
 30
0.0
 40
0.005
100
AcDbArc
 50
47.68405499999877
 51
197.1027290000004
  0
LINE
  5
1190
330
112F
100
AcDbEntity
  8
BLOCKS
100
AcDbLine
 10
0.0251349999999775
 20
0.4243950000000041
 30
0.0
 11
0.0236710000000358
 21
0.4274040000000241
 31
0.0
  0
LINE
  5
1191
330
112F
100
AcDbEntity
  8
BLOCKS
100
AcDbLine
 10
0.0541419999999562
 20
0.4338739999999462
 30
0.0
 11
0.0462979999999789
 21
0.4338739999999462
 31
0.0
  0
LINE
  5
1192
330
112F
100
AcDbEntity
  8
BLOCKS
100
AcDbLine
 10
0.0561420000000226
 20
0.4239479999999958
 30
0.0
 11
0.0541419999999562
 21
0.4338739999999462
 31
0.0
  0
LINE
  5
1193
330
112F
100
AcDbEntity
  8
BLOCKS
100
AcDbLine
 10
0.133006000000023
 20
0.4238739999999553
 30
0.0
 11
0.0391419999999698
 21
0.4238739999999553
 31
0.0
  0
LINE
  5
1194
330
112F
100
AcDbEntity
  8
BLOCKS
100
AcDbLine
 10
0.0732839999999442
 20
0.3866110000000162
 30
0.0
 11
0.2345380000000432
 21
0.3517500000000382
 31
0.0
  0
LINE
  5
1195
330
112F
100
AcDbEntity
  8
BLOCKS
100
AcDbLine
 10
0.0664199999999937
 20
0.377864000000045
 30
0.0
 11
0.2334690000000137
 21
0.3417500000000473
 31
0.0
  0
LINE
  5
1196
330
112F
100
AcDbEntity
  8
BLOCKS
100
AcDbLine
 10
0.2209649999999783
 20
0.4338739999999462
 30
0.0
 11
0.1762850000000071
 21
0.4338739999999462
 31
0.0
  0
LINE
  5
1197
330
112F
100
AcDbEntity
  8
BLOCKS
100
AcDbLine
 10
0.2109649999999874
 20
0.4138739999999644
 30
0.0
 11
0.1762850000000071
 21
0.4138739999999644
 31
0.0
  0
LINE
  5
1198
330
112F
100
AcDbEntity
  8
BLOCKS
100
AcDbLine
 10
0.2259649999999738
 20
0.4238739999999553
 30
0.0
 11
0.1792850000000499
 21
0.4238739999999553
 31
0.0
  0
ARC
  5
1199
330
112F
100
AcDbEntity
  8
BLOCKS
100
AcDbCircle
 10
0.0462979999999789
 20
0.4388740000000553
 30
0.0
 40
0.005
100
AcDbArc
 50
197.1027290000004
 51
270.0
  0
LINE
  5
119A
330
112F
100
AcDbEntity
  8
BLOCKS
100
AcDbLine
 10
0.1762850000000071
 20
0.4438740000000508
 30
0.0
 11
0.1762850000000071
 21
0.426873999999998
 31
0.0
  0
ARC
  5
119B
330
112F
100
AcDbEntity
  8
BLOCKS
100
AcDbCircle
 10
0.1562850000000253
 20
0.426513
 30
0.0
 40
0.01
100
AcDbArc
 50
0.0
 51
105.4480620000008
  0
ARC
  5
119C
330
112F
100
AcDbEntity
  8
BLOCKS
100
AcDbCircle
 10
0.1589480000000094
 20
0.4168740000000071
 30
0.0
 40
0.02
100
AcDbArc
 50
105.4480620000008
 51
131.7273439999969
  0
ARC
  5
119D
330
112F
100
AcDbEntity
  8
BLOCKS
100
AcDbCircle
 10
0.1299870000000283
 20
0.4388740000000553
 30
0.0
 40
0.005
100
AcDbArc
 50
270.0
 51
342.8972709999995
  0
LINE
  5
119E
330
112F
100
AcDbEntity
  8
BLOCKS
100
AcDbLine
 10
0.28937499999995
 20
0.3410730000000512
 30
0.0
 11
0.6180419999999458
 21
0.3410730000000512
 31
0.0
  0
LINE
  5
119F
330
112F
100
AcDbEntity
  8
BLOCKS
100
AcDbLine
 10
0.6532529999999497
 20
0.3999999999999772
 30
0.0
 11
0.2309649999999692
 21
0.3999999999999772
 31
0.0
  0
ARC
  5
11A0
330
112F
100
AcDbEntity
  8
BLOCKS
100
AcDbCircle
 10
0.5239659999999731
 20
0.189879000000019
 30
0.0
 40
0.01
100
AcDbArc
 50
116.4089669999969
 51
180.0
  0
ARC
  5
11A1
330
112F
100
AcDbEntity
  8
BLOCKS
100
AcDbCircle
 10
0.3317409999999654
 20
0.576960999999983
 30
0.0
 40
0.422185
100
AcDbArc
 50
296.4089669999969
 51
297.7980629999974
  0
ARC
  5
11A2
330
112F
100
AcDbEntity
  8
BLOCKS
100
AcDbCircle
 10
0.4265249999999697
 20
0.0838649999999461
 30
0.0
 40
0.081118
100
AcDbArc
 50
315.5002220000006
 51
345.9507319999977
  0
ARC
  5
11A3
330
112F
100
AcDbEntity
  8
BLOCKS
100
AcDbCircle
 10
0.4252350000000434
 20
0.0830690000000232
 30
0.0
 40
0.071409
100
AcDbArc
 50
313.4987040000029
 51
343.069341999998
  0
ARC
  5
11A4
330
112F
100
AcDbEntity
  8
BLOCKS
100
AcDbCircle
 10
0.4915150000000495
 20
0.0199999999999818
 30
0.0
 40
0.02
100
AcDbArc
 50
211.0791949999968
 51
270.0
  0
ARC
  5
11A5
330
112F
100
AcDbEntity
  8
BLOCKS
100
AcDbCircle
 10
0.453738000000044
 20
0.0530320000000302
 30
0.0
 40
0.03
100
AcDbArc
 50
283.7659009999971
 51
313.4987040000029
  0
ARC
  5
11A6
330
112F
100
AcDbEntity
  8
BLOCKS
100
AcDbCircle
 10
0.4658210000000054
 20
0.0045129999999745
 30
0.0
 40
0.01
100
AcDbArc
 50
31.07919499999682
 51
103.8194669999985
  0
ARC
  5
11A7
330
112F
100
AcDbEntity
  8
BLOCKS
100
AcDbCircle
 10
0.4915150000000495
 20
0.0199999999999818
 30
0.0
 40
0.01
100
AcDbArc
 50
135.5002220000006
 51
270.0
  0
LINE
  5
11A8
330
112F
100
AcDbEntity
  8
BLOCKS
100
AcDbLine
 10
0.5014400000000024
 20
0.0099999999999909
 30
0.0
 11
0.4915150000000495
 21
0.0099999999999909
 31
0.0
  0
ARC
  5
11A9
330
112F
100
AcDbEntity
  8
BLOCKS
100
AcDbCircle
 10
0.2289500000000544
 20
0.0942280000000437
 30
0.0
 40
0.2670710000000001
100
AcDbArc
 50
353.8305520000023
 51
357.9471650000019
  0
ARC
  5
11AA
330
112F
100
AcDbEntity
  8
BLOCKS
100
AcDbCircle
 10
0.4845330000000559
 20
0.0666009999999915
 30
0.0
 40
0.01
100
AcDbArc
 50
334.3614999999973
 51
353.8305520000023
  0
ARC
  5
11AB
330
112F
100
AcDbEntity
  8
BLOCKS
100
AcDbCircle
 10
0.4958500000000186
 20
0.0676770000000033
 30
0.0
 40
0.01
100
AcDbArc
 50
339.4878460000005
 51
0.0
  0
ARC
  5
11AC
330
112F
100
AcDbEntity
  8
BLOCKS
100
AcDbCircle
 10
0.4958500000000186
 20
0.0676770000000033
 30
0.0
 40
0.01
100
AcDbArc
 50
339.4878460000005
 51
0.0
  0
ARC
  5
11AD
330
112F
100
AcDbEntity
  8
BLOCKS
100
AcDbCircle
 10
0.383132000000046
 20
0.0587500000000318
 30
0.0
 40
0.03
100
AcDbArc
 50
212.7983490000005
 51
232.3392140000015
  0
ARC
  5
11AE
330
112F
100
AcDbEntity
  8
BLOCKS
100
AcDbCircle
 10
0.3756130000000439
 20
0.0519560000000183
 30
0.0
 40
0.03
100
AcDbArc
 50
212.7983490000005
 51
230.5431660000001
  0
ARC
  5
11AF
330
112F
100
AcDbEntity
  8
BLOCKS
100
AcDbCircle
 10
0.4121420000000171
 20
0.0963369999999486
 30
0.0
 40
0.077481
100
AcDbArc
 50
232.3392140000015
 51
274.0542359999994
  0
ARC
  5
11B0
330
112F
100
AcDbEntity
  8
BLOCKS
100
AcDbCircle
 10
0.4121420000000171
 20
0.0963369999999486
 30
0.0
 40
0.087481
100
AcDbArc
 50
230.5431660000001
 51
274.0542359999994
  0
ARC
  5
11B1
330
112F
100
AcDbEntity
  8
BLOCKS
100
AcDbCircle
 10
0.3968899999999849
 20
0.0874919999999975
 30
0.0
 40
0.003
100
AcDbArc
 50
192.9635500000003
 51
224.6579369999975
  0
ARC
  5
11B2
330
112F
100
AcDbEntity
  8
BLOCKS
100
AcDbCircle
 10
0.3985649999999623
 20
0.0891470000000254
 30
0.0
 40
0.005355
100
AcDbArc
 50
224.6579369999975
 51
340.9251990000011
  0
ARC
  5
11B3
330
112F
100
AcDbEntity
  8
BLOCKS
100
AcDbCircle
 10
0.3995350000000144
 20
0.3762000000000398
 30
0.0
 40
0.357607
100
AcDbArc
 50
272.8987380000024
 51
279.876964000003
  0
ARC
  5
11B4
330
112F
100
AcDbEntity
  8
BLOCKS
100
AcDbCircle
 10
0.3995650000000523
 20
0.3736179999999649
 30
0.0
 40
0.365025
100
AcDbArc
 50
272.946168000001
 51
280.0767949999992
  0
ARC
  5
11B5
330
112F
100
AcDbEntity
  8
BLOCKS
100
AcDbCircle
 10
0.4007910000000266
 20
0.0883770000000368
 30
0.0
 40
0.003
100
AcDbArc
 50
340.9251990000011
 51
12.96117200000132
  0
LINE
  5
11B6
330
112F
100
AcDbEntity
  8
BLOCKS
100
AcDbLine
 10
0.5039659999999913
 20
0.1961280000000443
 30
0.0
 11
0.4958500000000186
 21
0.0846609999999828
 31
0.0
  0
LINE
  5
11B7
330
112F
100
AcDbEntity
  8
BLOCKS
100
AcDbLine
 10
0.5139659999999822
 20
0.189879000000019
 30
0.0
 11
0.5058500000000095
 21
0.0676770000000033
 31
0.0
  0
ARC
  5
11B8
330
112F
100
AcDbEntity
  8
BLOCKS
100
AcDbCircle
 10
0.5014400000000024
 20
0.0199999999999818
 30
0.0
 40
0.01
100
AcDbArc
 50
270.0
 51
354.9366460000004
  0
ARC
  5
11B9
330
112F
100
AcDbEntity
  8
BLOCKS
100
AcDbCircle
 10
0.2840939999999818
 20
0.1201300000000174
 30
0.0
 40
0.01
100
AcDbArc
 50
32.79834900000053
 51
180.0
  0
ARC
  5
11BA
330
112F
100
AcDbEntity
  8
BLOCKS
100
AcDbCircle
 10
0.2840939999999818
 20
0.1201300000000174
 30
0.0
 40
0.02
100
AcDbArc
 50
32.79834900000053
 51
180.0
  0
ARC
  5
11BB
330
112F
100
AcDbEntity
  8
BLOCKS
100
AcDbCircle
 10
0.2707689999999729
 20
0.0505279999999857
 30
0.0
 40
0.034652
100
AcDbArc
 50
275.5066859999967
 51
0.0
  0
LINE
  5
11BC
330
112F
100
AcDbEntity
  8
BLOCKS
100
AcDbLine
 10
0.274093999999991
 20
0.0105770000000121
 30
0.0
 11
0.1859060000000454
 21
0.0105770000000121
 31
0.0
  0
LINE
  5
11BD
330
112F
100
AcDbEntity
  8
BLOCKS
100
AcDbLine
 10
0.264094
 20
0.1201300000000174
 30
0.0
 11
0.264094
 21
0.0105770000000121
 31
0.0
  0
LINE
  5
11BE
330
112F
100
AcDbEntity
  8
BLOCKS
100
AcDbLine
 10
0.274093999999991
 20
0.1201300000000174
 30
0.0
 11
0.274093999999991
 21
0.0105770000000121
 31
0.0
  0
LINE
  5
11BF
330
112F
100
AcDbEntity
  8
BLOCKS
100
AcDbLine
 10
0.3054210000000239
 20
0.1054970000000139
 30
0.0
 11
0.3054210000000239
 21
0.0505279999999857
 31
0.0
  0
ARC
  5
11C0
330
112F
100
AcDbEntity
  8
BLOCKS
100
AcDbCircle
 10
-0.5519090000000233
 20
-0.0053560000000061
 30
0.0
 40
0.678565
100
AcDbArc
 50
9.692853000002154
 51
17.10855899999848
  0
ARC
  5
11C1
330
112F
100
AcDbEntity
  8
BLOCKS
100
AcDbCircle
 10
0.0228459999999586
 20
0.041831000000002
 30
0.0
 40
0.151385
100
AcDbArc
 50
353.9462549999984
 51
4.341701000002148
  0
ARC
  5
11C2
330
112F
100
AcDbEntity
  8
BLOCKS
100
AcDbCircle
 10
0.2070889999999963
 20
0.0210110000000441
 30
0.0
 40
0.054936
100
AcDbArc
 50
138.9677609999997
 51
181.8314659999973
  0
ARC
  5
11C3
330
112F
100
AcDbEntity
  8
BLOCKS
100
AcDbCircle
 10
0.2039170000000467
 20
0.0098779999999579
 30
0.0
 40
0.070762
100
AcDbArc
 50
115.3061629999998
 51
179.4340679999972
  0
ARC
  5
11C4
330
112F
100
AcDbEntity
  8
BLOCKS
100
AcDbCircle
 10
0.1345010000000002
 20
-0.0262800000000425
 30
0.0
 40
0.036881
100
AcDbArc
 50
92.08603500000004
 51
118.7935780000022
  0
ARC
  5
11C5
330
112F
100
AcDbEntity
  8
BLOCKS
100
AcDbCircle
 10
0.1196240000000444
 20
-0.0035329999999476
 30
0.0
 40
0.01
100
AcDbArc
 50
106.7825210000027
 51
159.3105009999974
  0
ARC
  5
11C6
330
112F
100
AcDbEntity
  8
BLOCKS
100
AcDbCircle
 10
0.1571790000000419
 20
0.0194149999999809
 30
0.0
 40
0.005
100
AcDbArc
 50
181.8314659999973
 51
293.9311590000011
  0
ARC
  5
11C7
330
112F
100
AcDbEntity
  8
BLOCKS
100
AcDbCircle
 10
0.1723930000000564
 20
0.0259710000000268
 30
0.0
 40
0.001
100
AcDbArc
 50
321.2432739999974
 51
353.9462549999984
  0
ARC
  5
11C8
330
112F
100
AcDbEntity
  8
BLOCKS
100
AcDbCircle
 10
0.1549489999999878
 20
0.0399740000000293
 30
0.0
 40
0.023368
100
AcDbArc
 50
310.804179999998
 51
321.2432739999974
  0
ARC
  5
11C9
330
112F
100
AcDbEntity
  8
BLOCKS
100
AcDbCircle
 10
0.1438530000000355
 20
0.0494419999999991
 30
0.0
 40
0.037852
100
AcDbArc
 50
293.9311590000011
 51
314.1543890000014
  0
ARC
  5
11CA
330
112F
100
AcDbEntity
  8
BLOCKS
100
AcDbCircle
 10
0.168798000000038
 20
0.0531909999999698
 30
0.0
 40
0.005
100
AcDbArc
 50
1.14444000000015
 51
129.0354650000025
  0
ARC
  5
11CB
330
112F
100
AcDbEntity
  8
BLOCKS
100
AcDbCircle
 10
-0.2224179999999478
 20
0.0025170000000117
 30
0.0
 40
0.355668
100
AcDbArc
 50
1.29848899999924
 51
17.40262399999986
  0
ARC
  5
11CC
330
112F
100
AcDbEntity
  8
BLOCKS
100
AcDbCircle
 10
0.9200630000000273
 20
0.0681990000000496
 30
0.0
 40
0.746415
100
AcDbArc
 50
174.8643959999992
 51
179.5662910000022
  0
ARC
  5
11CD
330
112F
100
AcDbEntity
  8
BLOCKS
100
AcDbCircle
 10
0.9200630000000273
 20
0.0681990000000496
 30
0.0
 40
0.7364150000000001
100
AcDbArc
 50
174.8643959999992
 51
184.4878539999967
  0
LINE
  5
11CE
330
112F
100
AcDbEntity
  8
BLOCKS
100
AcDbLine
 10
0.5199999999999818
 20
0.0
 30
0.0
 11
0.1100000000000136
 21
0.0
 31
0.0
  0
LINE
  5
11CF
330
112F
100
AcDbEntity
  8
BLOCKS
100
AcDbLine
 10
0.3009060000000545
 20
0.130963999999949
 30
0.0
 11
0.3579140000000507
 21
0.0424990000000207
 31
0.0
  0
LINE
  5
11D0
330
112F
100
AcDbEntity
  8
BLOCKS
100
AcDbLine
 10
0.2925000000000182
 20
0.1255469999999832
 30
0.0
 11
0.3503950000000486
 21
0.0357060000000047
 31
0.0
  0
ARC
  5
11D1
330
112F
100
AcDbEntity
  8
BLOCKS
100
AcDbCircle
 10
0.1188190000000304
 20
0.0234799999999496
 30
0.0
 40
0.292344
100
AcDbArc
 50
12.96117200000132
 51
40.91206100000113
  0
ARC
  5
11D2
330
112F
100
AcDbEntity
  8
BLOCKS
100
AcDbCircle
 10
0.1188190000000304
 20
0.0234799999999496
 30
0.0
 40
0.282344
100
AcDbArc
 50
12.96355000000035
 51
43.45381100000001
  0
ARC
  5
11D3
330
112F
100
AcDbEntity
  8
BLOCKS
100
AcDbCircle
 10
0.2838410000000522
 20
0.1253789999999526
 30
0.0
 40
0.097629
100
AcDbArc
 50
126.1218849999993
 51
174.8643959999992
  0
ARC
  5
11D4
330
112F
100
AcDbEntity
  8
BLOCKS
100
AcDbCircle
 10
0.2838410000000522
 20
0.1253789999999526
 30
0.0
 40
0.107629
100
AcDbArc
 50
126.1218849999993
 51
174.8643959999992
  0
ARC
  5
11D5
330
112F
100
AcDbEntity
  8
BLOCKS
100
AcDbCircle
 10
-0.2104990000000271
 20
0.0406900000000405
 30
0.0
 40
0.323072
100
AcDbArc
 50
352.764619000002
 51
31.61793400000307
  0
ARC
  5
11D6
330
112F
100
AcDbEntity
  8
BLOCKS
100
AcDbCircle
 10
0.5297329999999647
 20
0.391840000000002
 30
0.0
 40
0.47604
100
AcDbArc
 50
183.2559039999987
 51
204.521556000002
  0
ARC
  5
11D7
330
112F
100
AcDbEntity
  8
BLOCKS
100
AcDbCircle
 10
1.180287000000021
 20
-0.0401480000000447
 30
0.0
 40
0.6715070000000001
100
AcDbArc
 50
157.9395699999975
 51
174.9366460000003
  0
ARC
  5
11D8
330
112F
100
AcDbEntity
  8
BLOCKS
100
AcDbCircle
 10
1.180287000000021
 20
-0.0401480000000447
 30
0.0
 40
0.6615070000000002
100
AcDbArc
 50
141.939108999998
 51
176.520490000003
  0
ARC
  5
11D9
330
112F
100
AcDbEntity
  8
BLOCKS
100
AcDbCircle
 10
0.470931999999948
 20
0.3136899999999514
 30
0.0
 40
0.124378
100
AcDbArc
 50
297.4639609999988
 51
309.680724000001
  0
ARC
  5
11DA
330
112F
100
AcDbEntity
  8
BLOCKS
100
AcDbCircle
 10
0.5139659999999822
 20
0.1961280000000443
 30
0.0
 40
0.01
100
AcDbArc
 50
115.5706760000001
 51
180.0
  0
LINE
  5
11DB
330
112F
100
AcDbEntity
  8
BLOCKS
100
AcDbLine
 10
0.1662850000000162
 20
0.7907340000000432
 30
0.0
 11
0.1662850000000162
 21
0.4716590000000452
 31
0.0
  0
LINE
  5
11DC
330
112F
100
AcDbEntity
  8
BLOCKS
100
AcDbLine
 10
0.1762850000000071
 20
0.8250000000000454
 30
0.0
 11
0.1762850000000071
 21
0.4600000000000364
 31
0.0
  0
LINE
  5
11DD
330
112F
100
AcDbEntity
  8
BLOCKS
100
AcDbLine
 10
0.0147809999999709
 20
0.7842000000000553
 30
0.0
 11
0.0142110000000457
 21
0.7876410000000078
 31
0.0
  0
LINE
  5
11DE
330
112F
100
AcDbEntity
  8
BLOCKS
100
AcDbLine
 10
0.0086700000000519
 20
0.7927339999999959
 30
0.0
 11
0.0
 21
0.7927339999999959
 31
0.0
  0
ARC
  5
11DF
330
112F
100
AcDbEntity
  8
BLOCKS
100
AcDbCircle
 10
0.0099999999999909
 20
0.8250000000000454
 30
0.0
 40
0.01
100
AcDbArc
 50
90.0
 51
180.0
  0
LINE
  5
11E0
330
112F
100
AcDbEntity
  8
BLOCKS
100
AcDbLine
 10
0.0099999999999909
 20
0.8220079999999825
 30
0.0
 11
0.0099999999999909
 21
0.8065070000000105
 31
0.0
  0
ARC
  5
11E1
330
112F
100
AcDbEntity
  8
BLOCKS
100
AcDbCircle
 10
0.0149999999999864
 20
0.8065070000000105
 30
0.0
 40
0.005
100
AcDbArc
 50
180.0
 51
270.0
  0
LINE
  5
11E2
330
112F
100
AcDbEntity
  8
BLOCKS
100
AcDbLine
 10
0.0150840000000017
 20
0.801507000000015
 30
0.0
 11
0.0149999999999864
 21
0.801507000000015
 31
0.0
  0
ARC
  5
11E3
330
112F
100
AcDbEntity
  8
BLOCKS
100
AcDbCircle
 10
0.0150840000000017
 20
0.8045069999999441
 30
0.0
 40
0.003
100
AcDbArc
 50
270.0
 51
351.675310000002
  0
LINE
  5
11E4
330
112F
100
AcDbEntity
  8
BLOCKS
100
AcDbLine
 10
0.013437999999951
 20
0.7895979999999554
 30
0.0
 11
0.0128300000000081
 21
0.7905090000000428
 31
0.0
  0
ARC
  5
11E5
330
112F
100
AcDbEntity
  8
BLOCKS
100
AcDbCircle
 10
0.0086700000000519
 20
0.7877340000000004
 30
0.0
 40
0.005
100
AcDbArc
 50
33.70735900000263
 51
90.0
  0
ARC
  5
11E6
330
112F
100
AcDbEntity
  8
BLOCKS
100
AcDbCircle
 10
0.0092779999999948
 20
0.7868230000000267
 30
0.0
 40
0.005
100
AcDbArc
 50
9.413096999997565
 51
33.70735900000263
  0
ARC
  5
11E7
330
112F
100
AcDbEntity
  8
BLOCKS
100
AcDbCircle
 10
0.0149999999999864
 20
0.8220079999999825
 30
0.0
 40
0.005
100
AcDbArc
 50
90.0
 51
180.0
  0
ARC
  5
11E8
330
112F
100
AcDbEntity
  8
BLOCKS
100
AcDbCircle
 10
0.0163459999999987
 20
0.7841710000000149
 30
0.0
 40
0.001
100
AcDbArc
 50
251.5717920000001
 51
270.0
  0
LINE
  5
11E9
330
112F
100
AcDbEntity
  8
BLOCKS
100
AcDbLine
 10
0.0160300000000007
 20
0.7832220000000234
 30
0.0
 11
0.015451999999982
 21
0.7834149999999909
 31
0.0
  0
ARC
  5
11EA
330
112F
100
AcDbEntity
  8
BLOCKS
100
AcDbCircle
 10
0.01576799999998
 20
0.7843639999999823
 30
0.0
 40
0.001
100
AcDbArc
 50
189.4130969999975
 51
251.5717920000001
  0
ARC
  5
11EB
330
112F
100
AcDbEntity
  8
BLOCKS
100
AcDbCircle
 10
0.0099999999999909
 20
0.4368739999999889
 30
0.0
 40
0.01
100
AcDbArc
 50
90.0
 51
180.0
  0
ARC
  5
11EC
330
112F
100
AcDbEntity
  8
BLOCKS
100
AcDbCircle
 10
0.0099999999999909
 20
0.4600000000000364
 30
0.0
 40
0.01
100
AcDbArc
 50
180.0
 51
270.0
  0
LINE
  5
11ED
330
112F
100
AcDbEntity
  8
BLOCKS
100
AcDbLine
 10
0.0
 20
0.4368739999999889
 30
0.0
 11
0.0
 21
0.4368090000000393
 31
0.0
  0
LINE
  5
11EE
330
112F
100
AcDbEntity
  8
BLOCKS
100
AcDbLine
 10
0.0
 20
0.4368739999999889
 30
0.0
 11
0.0
 21
0.4366690000000517
 31
0.0
  0
ARC
  5
11EF
330
112F
100
AcDbEntity
  8
BLOCKS
100
AcDbCircle
 10
0.0069999999999482
 20
0.4228090000000293
 30
0.0
 40
0.007
100
AcDbArc
 50
25.95389000000362
 51
90.0
  0
LINE
  5
11F0
330
112F
100
AcDbEntity
  8
BLOCKS
100
AcDbLine
 10
0.018271000000027
 20
0.4156480000000329
 30
0.0
 11
0.0132939999999735
 21
0.4258730000000242
 31
0.0
  0
ARC
  5
11F1
330
112F
100
AcDbEntity
  8
BLOCKS
100
AcDbCircle
 10
0.1176510000000235
 20
0.3579190000000381
 30
0.0
 40
0.117746
100
AcDbArc
 50
182.3034090000029
 51
206.7459829999976
  0
LINE
  5
11F2
330
112F
100
AcDbEntity
  8
BLOCKS
100
AcDbLine
 10
0.0
 20
0.4368739999999889
 30
0.0
 11
0.0
 21
0.3531860000000506
 31
0.0
  0
ARC
  5
11F3
330
112F
100
AcDbEntity
  8
BLOCKS
100
AcDbCircle
 10
0.0069999999999482
 20
0.4368090000000393
 30
0.0
 40
0.007
100
AcDbArc
 50
180.0
 51
270.0
  0
LINE
  5
11F4
330
112F
100
AcDbEntity
  8
BLOCKS
100
AcDbLine
 10
0.0099999999999909
 20
0.7907340000000432
 30
0.0
 11
0.0099999999999909
 21
0.4716590000000452
 31
0.0
  0
LINE
  5
11F5
330
112F
100
AcDbEntity
  8
BLOCKS
100
AcDbLine
 10
0.0
 20
0.8250000000000454
 30
0.0
 11
0.0
 21
0.4600000000000364
 31
0.0
  0
ARC
  5
11F6
330
112F
100
AcDbEntity
  8
BLOCKS
100
AcDbCircle
 10
0.081211000000053
 20
0.4462839999999915
 30
0.0
 40
0.07
100
AcDbArc
 50
205.9538900000036
 51
257.8010629999978
  0
ARC
  5
11F7
330
112F
100
AcDbEntity
  8
BLOCKS
100
AcDbCircle
 10
0.9959310000000414
 20
0.783411000000001
 30
0.0
 40
1.093652999999999
100
AcDbArc
 50
205.944992000001
 51
211.617934000003
  0
LINE
  5
11F8
330
112F
100
AcDbEntity
  8
BLOCKS
100
AcDbLine
 10
0.0544609999999466
 20
0.3648030000000517
 30
0.0
 11
0.0
 21
0.3648030000000517
 31
0.0
  0
LINE
  5
11F9
330
112F
100
AcDbEntity
  8
BLOCKS
100
AcDbLine
 10
0.1662850000000162
 20
0.4500000000000455
 30
0.0
 11
0.0099999999999909
 21
0.4500000000000455
 31
0.0
  0
LINE
  5
11FA
330
112F
100
AcDbEntity
  8
BLOCKS
100
AcDbLine
 10
0.0386049999999614
 20
0.4468739999999798
 30
0.0
 11
0.0099999999999909
 21
0.4468739999999798
 31
0.0
  0
ARC
  5
11FB
330
112F
100
AcDbEntity
  8
BLOCKS
100
AcDbCircle
 10
0.0199999999999818
 20
0.4716590000000452
 30
0.0
 40
0.01
100
AcDbArc
 50
180.0
 51
270.0
  0
LINE
  5
11FC
330
112F
100
AcDbEntity
  8
BLOCKS
100
AcDbLine
 10
0.1599390000000085
 20
0.7831710000000385
 30
0.0
 11
0.0163459999999987
 21
0.7831710000000385
 31
0.0
  0
LINE
  5
11FD
330
112F
100
AcDbEntity
  8
BLOCKS
100
AcDbLine
 10
0.1662850000000162
 20
0.8350000000000363
 30
0.0
 11
0.0099999999999909
 21
0.8350000000000363
 31
0.0
  0
LINE
  5
11FE
330
112F
100
AcDbEntity
  8
BLOCKS
100
AcDbLine
 10
0.0180520000000115
 20
0.8040720000000192
 30
0.0
 11
0.0205710000000181
 21
0.8212839999999914
 31
0.0
  0
ARC
  5
11FF
330
112F
100
AcDbEntity
  8
BLOCKS
100
AcDbCircle
 10
0.0156240000000025
 20
0.8220079999999825
 30
0.0
 40
0.005
100
AcDbArc
 50
351.675310000002
 51
90.0
  0
ENDBLK
  5
1203
330
112F
100
AcDbEntity
  8
0
100
AcDbBlockEnd
  0
BLOCK
  5
1236
330
1205
100
AcDbEntity
  8
0
100
AcDbBlockBegin
  2
104021AL
 70
     0
 10
0.0
 20
0.0
 30
0.0
  3
104021AL
  1

  0
ARC
  5
1206
330
1205
100
AcDbEntity
  8
BLOCKS
100
AcDbCircle
 10
0.1662850000000162
 20
0.825000000000046
 30
0.0
 40
0.01
100
AcDbArc
 50
0.0
 51
90.0
  0
ARC
  5
1207
330
1205
100
AcDbEntity
  8
BLOCKS
100
AcDbCircle
 10
0.6436179999999468
 20
0.3818850000000111
 30
0.0
 40
0.021274
100
AcDbArc
 50
318.0731159999996
 51
53.70030199999851
  0
ARC
  5
1208
330
1205
100
AcDbEntity
  8
BLOCKS
100
AcDbCircle
 10
0.6532529999999497
 20
0.3949999999999818
 30
0.0
 40
0.005
100
AcDbArc
 50
53.70030199999851
 51
90.0
  0
ARC
  5
1209
330
1205
100
AcDbEntity
  8
BLOCKS
100
AcDbCircle
 10
0.2209649999999783
 20
0.4288739999999507
 30
0.0
 40
0.005
100
AcDbArc
 50
0.0
 51
90.0
  0
ARC
  5
120A
330
1205
100
AcDbEntity
  8
BLOCKS
100
AcDbCircle
 10
0.155285000000049
 20
0.4358740000000126
 30
0.0
 40
0.001
100
AcDbArc
 50
0.0
 51
90.0
  0
LINE
  5
120B
330
1205
100
AcDbEntity
  8
BLOCKS
100
AcDbLine
 10
0.1762850000000071
 20
0.4438740000000508
 30
0.0
 11
0.1762850000000071
 21
0.4338739999999462
 31
0.0
  0
LINE
  5
120C
330
1205
100
AcDbEntity
  8
BLOCKS
100
AcDbLine
 10
0.2209649999999783
 20
0.4338739999999462
 30
0.0
 11
0.1762850000000071
 21
0.4338739999999462
 31
0.0
  0
ARC
  5
120D
330
1205
100
AcDbEntity
  8
BLOCKS
100
AcDbCircle
 10
0.205964999999992
 20
0.4038739999999735
 30
0.0
 40
0.01
100
AcDbArc
 50
0.0
 51
90.0
  0
ARC
  5
120E
330
1205
100
AcDbEntity
  8
BLOCKS
100
AcDbCircle
 10
0.2259649999999738
 20
0.3999999999999772
 30
0.0
 40
0.01
100
AcDbArc
 50
180.0
 51
270.0
  0
LINE
  5
120F
330
1205
100
AcDbEntity
  8
BLOCKS
100
AcDbLine
 10
0.2159649999999829
 20
0.4038739999999735
 30
0.0
 11
0.2159649999999829
 21
0.3999999999999772
 31
0.0
  0
ARC
  5
1210
330
1205
100
AcDbEntity
  8
BLOCKS
100
AcDbCircle
 10
0.2309649999999692
 20
0.4049999999999728
 30
0.0
 40
0.005
100
AcDbArc
 50
180.0
 51
270.0
  0
ARC
  5
1211
330
1205
100
AcDbEntity
  8
BLOCKS
100
AcDbCircle
 10
0.1662850000000162
 20
0.4238739999999553
 30
0.0
 40
0.01
100
AcDbArc
 50
180.0
 51
270.0
  0
ARC
  5
1212
330
1205
100
AcDbEntity
  8
BLOCKS
100
AcDbCircle
 10
0.0597830000000386
 20
0.3598030000000563
 30
0.0
 40
0.005
100
AcDbArc
 50
90.0
 51
183.8998890000029
  0
LINE
  5
1213
330
1205
100
AcDbEntity
  8
BLOCKS
100
AcDbLine
 10
0.205964999999992
 20
0.4138739999999644
 30
0.0
 11
0.1662850000000162
 21
0.4138739999999644
 31
0.0
  0
LINE
  5
1214
330
1205
100
AcDbEntity
  8
BLOCKS
100
AcDbLine
 10
0.2259649999999738
 20
0.4288739999999507
 30
0.0
 11
0.2259649999999738
 21
0.4049999999999728
 31
0.0
  0
LINE
  5
1215
330
1205
100
AcDbEntity
  8
BLOCKS
100
AcDbLine
 10
0.1562850000000253
 20
0.4358740000000126
 30
0.0
 11
0.1562850000000253
 21
0.4238739999999553
 31
0.0
  0
LINE
  5
1216
330
1205
100
AcDbEntity
  8
BLOCKS
100
AcDbLine
 10
0.6532529999999497
 20
0.3999999999999772
 30
0.0
 11
0.2309649999999692
 21
0.3999999999999772
 31
0.0
  0
LINE
  5
1217
330
1205
100
AcDbEntity
  8
BLOCKS
100
AcDbLine
 10
0.4312869999999976
 20
0.3648030000000517
 30
0.0
 11
0.0597830000000386
 21
0.3648030000000517
 31
0.0
  0
ARC
  5
1218
330
1205
100
AcDbEntity
  8
BLOCKS
100
AcDbCircle
 10
0.4992640000000393
 20
0.3958999999999833
 30
0.0
 40
0.219776
100
AcDbArc
 50
188.1344880000004
 51
236.9694860000027
  0
LINE
  5
1219
330
1205
100
AcDbEntity
  8
BLOCKS
100
AcDbLine
 10
0.1762850000000071
 20
0.825000000000046
 30
0.0
 11
0.1762850000000071
 21
0.4438740000000508
 31
0.0
  0
ARC
  5
121A
330
1205
100
AcDbEntity
  8
BLOCKS
100
AcDbCircle
 10
0.0099999999999909
 20
0.825000000000046
 30
0.0
 40
0.01
100
AcDbArc
 50
90.0
 51
180.0
  0
ARC
  5
121B
330
1205
100
AcDbEntity
  8
BLOCKS
100
AcDbCircle
 10
0.0099999999999909
 20
0.4368739999999889
 30
0.0
 40
0.01
100
AcDbArc
 50
105.5109510000026
 51
180.0
  0
LINE
  5
121C
330
1205
100
AcDbEntity
  8
BLOCKS
100
AcDbLine
 10
0.0
 20
0.4368739999999889
 30
0.0
 11
0.0
 21
0.4366690000000517
 31
0.0
  0
LINE
  5
121D
330
1205
100
AcDbEntity
  8
BLOCKS
100
AcDbLine
 10
0.0
 20
0.4368739999999889
 30
0.0
 11
0.0
 21
0.4368090000000393
 31
0.0
  0
ARC
  5
121E
330
1205
100
AcDbEntity
  8
BLOCKS
100
AcDbCircle
 10
0.0067910000000211
 20
0.4484370000000127
 30
0.0
 40
0.002
100
AcDbArc
 50
285.5109510000026
 51
74.48904899999734
  0
ARC
  5
121F
330
1205
100
AcDbEntity
  8
BLOCKS
100
AcDbCircle
 10
0.0099999999999909
 20
0.4600000000000364
 30
0.0
 40
0.01
100
AcDbArc
 50
180.0
 51
254.4890489999973
  0
ARC
  5
1220
330
1205
100
AcDbEntity
  8
BLOCKS
100
AcDbCircle
 10
0.1176510000000235
 20
0.3579190000000381
 30
0.0
 40
0.117746
100
AcDbArc
 50
182.3034090000029
 51
206.7459829999976
  0
LINE
  5
1221
330
1205
100
AcDbEntity
  8
BLOCKS
100
AcDbLine
 10
0.0
 20
0.4368739999999889
 30
0.0
 11
0.0
 21
0.3531860000000506
 31
0.0
  0
LINE
  5
1222
330
1205
100
AcDbEntity
  8
BLOCKS
100
AcDbLine
 10
0.0
 20
0.825000000000046
 30
0.0
 11
0.0
 21
0.4600000000000364
 31
0.0
  0
LINE
  5
1223
330
1205
100
AcDbEntity
  8
BLOCKS
100
AcDbLine
 10
0.6532529999999497
 20
0.3899999999999863
 30
0.0
 11
0.0
 21
0.3899999999999863
 31
0.0
  0
LINE
  5
1224
330
1205
100
AcDbEntity
  8
BLOCKS
100
AcDbLine
 10
0.155285000000049
 20
0.4368739999999889
 30
0.0
 11
0.0
 21
0.4368739999999889
 31
0.0
  0
LINE
  5
1225
330
1205
100
AcDbEntity
  8
BLOCKS
100
AcDbLine
 10
0.1762850000000071
 20
0.4468739999999798
 30
0.0
 11
0.0080390000000534
 21
0.4468739999999798
 31
0.0
  0
ARC
  5
1226
330
1205
100
AcDbEntity
  8
BLOCKS
100
AcDbCircle
 10
0.9959310000000414
 20
0.7834110000000015
 30
0.0
 40
1.093652999999999
100
AcDbArc
 50
205.944992000001
 51
211.617934000003
  0
LINE
  5
1227
330
1205
100
AcDbEntity
  8
BLOCKS
100
AcDbLine
 10
0.1762850000000071
 20
0.783171000000039
 30
0.0
 11
0.0
 21
0.783171000000039
 31
0.0
  0
LINE
  5
1228
330
1205
100
AcDbEntity
  8
BLOCKS
100
AcDbLine
 10
0.1662850000000162
 20
0.8350000000000369
 30
0.0
 11
0.0099999999999909
 21
0.8350000000000369
 31
0.0
  0
LINE
  5
1229
330
1205
100
AcDbEntity
  8
BLOCKS
100
AcDbLine
 10
0.2823590000000422
 20
0.0299999999999727
 30
0.0
 11
0.3423589999999876
 21
0.0299999999999727
 31
0.0
  0
LINE
  5
122A
330
1205
100
AcDbEntity
  8
BLOCKS
100
AcDbLine
 10
0.2823590000000422
 20
0.0299999999999727
 30
0.0
 11
0.2877670000000307
 21
0.169695000000047
 31
0.0
  0
LINE
  5
122B
330
1205
100
AcDbEntity
  8
BLOCKS
100
AcDbLine
 10
0.3423589999999876
 20
0.0299999999999727
 30
0.0
 11
0.3369509999999991
 21
0.169695000000047
 31
0.0
  0
ARC
  5
122C
330
1205
100
AcDbEntity
  8
BLOCKS
100
AcDbCircle
 10
0.0674209999999675
 20
0.1805970000000343
 30
0.0
 40
0.032006
100
AcDbArc
 50
22.39978799999996
 51
25.28331999999744
  0
ARC
  5
122D
330
1205
100
AcDbEntity
  8
BLOCKS
100
AcDbCircle
 10
-0.5519090000000233
 20
-0.0053560000000061
 30
0.0
 40
0.678565
100
AcDbArc
 50
9.692853000002154
 51
17.10855899999848
  0
ARC
  5
122E
330
1205
100
AcDbEntity
  8
BLOCKS
100
AcDbCircle
 10
-0.2224179999999478
 20
0.0025170000000117
 30
0.0
 40
0.355668
100
AcDbArc
 50
1.29848899999924
 51
17.40262399999983
  0
LINE
  5
122F
330
1205
100
AcDbEntity
  8
BLOCKS
100
AcDbLine
 10
0.5199999999999818
 20
0.0
 30
0.0
 11
0.1100000000000136
 21
0.0
 31
0.0
  0
ARC
  5
1230
330
1205
100
AcDbEntity
  8
BLOCKS
100
AcDbCircle
 10
1.180287000000021
 20
-0.0401480000000447
 30
0.0
 40
0.6615070000000002
100
AcDbArc
 50
141.939108999998
 51
176.520490000003
  0
ARC
  5
1231
330
1205
100
AcDbEntity
  8
BLOCKS
100
AcDbCircle
 10
0.3123590000000149
 20
0.1746150000000171
 30
0.0
 40
0.025079
100
AcDbArc
 50
348.6852989999986
 51
191.3147010000014
  0
ARC
  5
1232
330
1205
100
AcDbEntity
  8
BLOCKS
100
AcDbCircle
 10
-0.2104990000000271
 20
0.0406900000000405
 30
0.0
 40
0.323072
100
AcDbArc
 50
352.764619000002
 51
31.61793400000307
  0
ARC
  5
1233
330
1205
100
AcDbEntity
  8
BLOCKS
100
AcDbCircle
 10
0.5297329999999647
 20
0.391840000000002
 30
0.0
 40
0.47604
100
AcDbArc
 50
183.8998890000029
 51
204.521556000002
  0
ENDBLK
  5
1237
330
1205
100
AcDbEntity
  8
0
100
AcDbBlockEnd
  0
BLOCK
  5
125C
330
1239
100
AcDbEntity
  8
0
100
AcDbBlockBegin
  2
104021AF
 70
     0
 10
0.0
 20
0.0
 30
0.0
  3
104021AF
  1

  0
LINE
  5
123A
330
1239
100
AcDbEntity
  8
BLOCKS
100
AcDbLine
 10
0.1749999999999545
 20
0.8300000000000409
 30
0.0
 11
0.1749999999999545
 21
0.7906709999999748
 31
0.0
  0
ARC
  5
123B
330
1239
100
AcDbEntity
  8
BLOCKS
100
AcDbCircle
 10
-0.1699999999999591
 20
0.7906709999999748
 30
0.0
 40
0.005
100
AcDbArc
 50
180.0
 51
270.0
  0
LINE
  5
123C
330
1239
100
AcDbEntity
  8
BLOCKS
100
AcDbLine
 10
-0.1749999999999545
 20
0.8300000000000409
 30
0.0
 11
-0.1749999999999545
 21
0.7906709999999748
 31
0.0
  0
ARC
  5
123D
330
1239
100
AcDbEntity
  8
BLOCKS
100
AcDbCircle
 10
-0.1699999999999591
 20
0.8300000000000409
 30
0.0
 40
0.005
100
AcDbArc
 50
90.0
 51
180.0
  0
ARC
  5
123E
330
1239
100
AcDbEntity
  8
BLOCKS
100
AcDbCircle
 10
-0.1699999999999591
 20
0.7756709999999885
 30
0.0
 40
0.005
100
AcDbArc
 50
90.0
 51
180.0
  0
LINE
  5
123F
330
1239
100
AcDbEntity
  8
BLOCKS
100
AcDbLine
 10
0.1699999999999591
 20
0.7806709999999839
 30
0.0
 11
-0.1699999999999591
 21
0.7806709999999839
 31
0.0
  0
LINE
  5
1240
330
1239
100
AcDbEntity
  8
BLOCKS
100
AcDbLine
 10
0.1699999999999591
 20
0.7856709999999794
 30
0.0
 11
-0.1699999999999591
 21
0.7856709999999794
 31
0.0
  0
LINE
  5
1241
330
1239
100
AcDbEntity
  8
BLOCKS
100
AcDbLine
 10
0.1699999999999591
 20
0.8350000000000363
 30
0.0
 11
-0.1699999999999591
 21
0.8350000000000363
 31
0.0
  0
LINE
  5
1242
330
1239
100
AcDbEntity
  8
BLOCKS
100
AcDbLine
 10
0.1660799999999654
 20
0.3999999999999772
 30
0.0
 11
0.0
 21
0.3999999999999772
 31
0.0
  0
LINE
  5
1243
330
1239
100
AcDbEntity
  8
BLOCKS
100
AcDbLine
 10
0.1749999999999545
 20
0.4368739999999889
 30
0.0
 11
0.1749999999999545
 21
0.3945200000000568
 31
0.0
  0
ARC
  5
1244
330
1239
100
AcDbEntity
  8
BLOCKS
100
AcDbCircle
 10
-0.1649999999999636
 20
0.4368739999999889
 30
0.0
 40
0.01
100
AcDbArc
 50
90.0
 51
180.0
  0
ARC
  5
1245
330
1239
100
AcDbEntity
  8
BLOCKS
100
AcDbCircle
 10
-0.1699999999999591
 20
0.4518739999999753
 30
0.0
 40
0.005
100
AcDbArc
 50
180.0
 51
270.0
  0
ARC
  5
1246
330
1239
100
AcDbEntity
  8
BLOCKS
100
AcDbCircle
 10
-0.1660799999999654
 20
0.3899999999999863
 30
0.0
 40
0.01
100
AcDbArc
 50
90.0
 51
206.3186889999986
  0
LINE
  5
1247
330
1239
100
AcDbEntity
  8
BLOCKS
100
AcDbLine
 10
-0.1749999999999545
 20
0.4368739999999889
 30
0.0
 11
-0.1749999999999545
 21
0.3945200000000568
 31
0.0
  0
ARC
  5
1248
330
1239
100
AcDbEntity
  8
BLOCKS
100
AcDbCircle
 10
-0.1649999999999636
 20
0.4238739999999553
 30
0.0
 40
0.01
100
AcDbArc
 50
90.0
 51
180.0
  0
LINE
  5
1249
330
1239
100
AcDbEntity
  8
BLOCKS
100
AcDbLine
 10
0.1699999999999591
 20
0.4468739999999798
 30
0.0
 11
-0.1699999999999591
 21
0.4468739999999798
 31
0.0
  0
LINE
  5
124A
330
1239
100
AcDbEntity
  8
BLOCKS
100
AcDbLine
 10
0.1649999999999636
 20
0.4338739999999462
 30
0.0
 11
-0.1649999999999636
 21
0.4338739999999462
 31
0.0
  0
LINE
  5
124B
330
1239
100
AcDbEntity
  8
BLOCKS
100
AcDbLine
 10
-0.1660799999999654
 20
0.3999999999999772
 30
0.0
 11
0.0
 21
0.3999999999999772
 31
0.0
  0
ARC
  5
124C
330
1239
100
AcDbEntity
  8
BLOCKS
100
AcDbCircle
 10
0.0852609999999459
 20
0.0099999999999909
 30
0.0
 40
0.01
100
AcDbArc
 50
270.0
 51
2.304969999997592
  0
ARC
  5
124D
330
1239
100
AcDbEntity
  8
BLOCKS
100
AcDbCircle
 10
-0.0852609999999459
 20
0.0099999999999909
 30
0.0
 40
0.01
100
AcDbArc
 50
177.6950300000024
 51
270.0
  0
LINE
  5
124E
330
1239
100
AcDbEntity
  8
BLOCKS
100
AcDbLine
 10
0.0852609999999459
 20
0.0
 30
0.0
 11
-0.0852609999999459
 21
0.0
 31
0.0
  0
ARC
  5
124F
330
1239
100
AcDbEntity
  8
BLOCKS
100
AcDbCircle
 10
-0.8704269999999496
 20
0.0416040000000066
 30
0.0
 40
0.7758030000000002
100
AcDbArc
 50
357.6950300000024
 51
26.3186889999986
  0
LINE
  5
1250
330
1239
100
AcDbEntity
  8
BLOCKS
100
AcDbLine
 10
-0.1749999999999545
 20
0.7756709999999885
 30
0.0
 11
-0.1749999999999545
 21
0.4518739999999753
 31
0.0
  0
LINE
  5
1251
330
1239
100
AcDbEntity
  8
BLOCKS
100
AcDbLine
 10
0.1749999999999545
 20
0.7756709999999885
 30
0.0
 11
0.1749999999999545
 21
0.4518739999999753
 31
0.0
  0
ARC
  5
1252
330
1239
100
AcDbEntity
  8
BLOCKS
100
AcDbCircle
 10
0.8704269999999496
 20
0.0416040000000066
 30
0.0
 40
0.7758030000000002
100
AcDbArc
 50
153.6813110000014
 51
182.3049699999975
  0
ARC
  5
1253
330
1239
100
AcDbEntity
  8
BLOCKS
100
AcDbCircle
 10
0.1660799999999654
 20
0.3899999999999863
 30
0.0
 40
0.01
100
AcDbArc
 50
333.6813110000014
 51
90.0
  0
ARC
  5
1254
330
1239
100
AcDbEntity
  8
BLOCKS
100
AcDbCircle
 10
0.1649999999999636
 20
0.4238739999999553
 30
0.0
 40
0.01
100
AcDbArc
 50
0.0
 51
90.0
  0
ARC
  5
1255
330
1239
100
AcDbEntity
  8
BLOCKS
100
AcDbCircle
 10
0.1649999999999636
 20
0.4368739999999889
 30
0.0
 40
0.01
100
AcDbArc
 50
0.0
 51
90.0
  0
ARC
  5
1256
330
1239
100
AcDbEntity
  8
BLOCKS
100
AcDbCircle
 10
0.1699999999999591
 20
0.4518739999999753
 30
0.0
 40
0.005
100
AcDbArc
 50
270.0
 51
0.0
  0
ARC
  5
1257
330
1239
100
AcDbEntity
  8
BLOCKS
100
AcDbCircle
 10
0.1699999999999591
 20
0.7756709999999885
 30
0.0
 40
0.005
100
AcDbArc
 50
0.0
 51
90.0
  0
ARC
  5
1258
330
1239
100
AcDbEntity
  8
BLOCKS
100
AcDbCircle
 10
0.1699999999999591
 20
0.7906709999999748
 30
0.0
 40
0.005
100
AcDbArc
 50
270.0
 51
0.0
  0
ARC
  5
1259
330
1239
100
AcDbEntity
  8
BLOCKS
100
AcDbCircle
 10
0.1699999999999591
 20
0.8300000000000409
 30
0.0
 40
0.005
100
AcDbArc
 50
0.0
 51
90.0
  0
ENDBLK
  5
125D
330
1239
100
AcDbEntity
  8
0
100
AcDbBlockEnd
  0
ENDSEC
  0
SECTION
  2
ENTITIES
  0
INSERT
  5
112E
330
1F
100
AcDbEntity
  8
cotas
100
AcDbBlockReference
  2
104021PL
 10
3632.041515578658
 20
1717.218852410201
 30
0.0
  0
INSERT
  5
1238
330
1F
100
AcDbEntity
  8
cotas
100
AcDbBlockReference
  2
104021AL
 10
3633.083157178816
 20
1716.510790575286
 30
0.0
  0
INSERT
  5
125E
330
1F
100
AcDbEntity
  8
cotas
100
AcDbBlockReference
  2
104021AF
 10
3632.617871002856
 20
1716.510790483409
 30
0.0
  0
LINE
  5
13E4
330
1F
100
AcDbEntity
  8
SANINDUSA
100
AcDbLine
 10
3634.210857855208
 20
1716.94105712376
 30
0.0
 11
3634.155876782811
 21
1716.94105712376
 31
0.0
  0
LINE
  5
13E5
330
1F
100
AcDbEntity
  8
SANINDUSA
100
AcDbLine
 10
3634.211007954394
 20
1716.931184898127
 30
0.0
 11
3634.160745611219
 21
1716.932503950364
 31
0.0
  0
LINE
  5
13E6
330
1F
100
AcDbEntity
  8
SANINDUSA
100
AcDbLine
 10
3634.205876782814
 20
1716.921316114283
 30
0.0
 11
3634.153397610084
 21
1716.922693343553
 31
0.0
  0
LWPOLYLINE
  5
13E7
330
1F
100
AcDbEntity
  8
SANINDUSA
100
AcDbPolyline
 90
        4
 70
   128
 43
0.0
 10
3634.084722031724
 20
1716.759554071657
 10
3634.134147702237
 20
1716.759416216955
 10
3634.183540939769
 20
1716.759278270245
 10
3634.232880530465
 20
1716.759140406801
  0
LINE
  5
13E8
330
1F
100
AcDbEntity
  8
SANINDUSA
100
AcDbLine
 10
3634.238416912726
 20
1716.859725727041
 30
0.0
 11
3634.00842367713
 21
1716.911246494885
 31
0.0
  0
LINE
  5
13E9
330
1F
100
AcDbEntity
  8
SANINDUSA
100
AcDbLine
 10
3634.246108376887
 20
1716.868250593943
 30
0.0
 11
3634.01661902445
 21
1716.919658486957
 31
0.0
  0
LINE
  5
13EA
330
1F
100
AcDbEntity
  8
SANINDUSA
100
AcDbLine
 10
3634.163538426452
 20
1716.718080333816
 30
0.0
 11
3634.307610141347
 21
1716.720154046503
 31
0.0
  0
LINE
  5
13EB
330
1F
100
AcDbEntity
  8
SANINDUSA
100
AcDbLine
 10
3634.163515351059
 20
1716.728080600089
 30
0.0
 11
3634.298561964672
 21
1716.730050310121
 31
0.0
  0
LINE
  5
13EC
330
1F
100
AcDbEntity
  8
SANINDUSA
100
AcDbLine
 10
3634.163561501839
 20
1716.634033780585
 30
0.0
 11
3634.273486731371
 21
1716.632353932673
 31
0.0
  0
LINE
  5
13ED
330
1F
100
AcDbEntity
  8
SANINDUSA
100
AcDbLine
 10
3634.185399858194
 20
1716.623369654015
 30
0.0
 11
3634.27337135443
 21
1716.62235459829
 31
0.0
  0
LINE
  5
13EE
330
1F
100
AcDbEntity
  8
SANINDUSA
100
AcDbLine
 10
3634.432007546909
 20
1716.499057123761
 30
0.0
 11
3634.205783856117
 21
1716.499057123761
 31
0.0
  0
LWPOLYLINE
  5
13EF
330
1F
100
AcDbEntity
  8
SANINDUSA
100
AcDbPolyline
 90
        6
 70
   128
 43
0.0
 10
3634.029876782829
 20
1716.771795020704
 10
3634.043930278372
 20
1716.75463700615
 10
3634.057074754187
 20
1716.736714946397
 10
3634.069253654555
 20
1716.718096553959
 10
3634.080729501869
 20
1716.698270470235
 10
3634.082665875206
 20
1716.694453665386
  0
LWPOLYLINE
  5
13F0
330
1F
100
AcDbEntity
  8
SANINDUSA
100
AcDbPolyline
 90
        5
 70
   128
 43
0.0
 10
3634.055044111593
 20
1716.89805808798
 10
3634.054093081664
 20
1716.894168642415
 10
3634.051897217826
 20
1716.882754956866
 10
3634.050558756761
 20
1716.871253635388
 10
3634.050079183574
 20
1716.859698754189
  0
LWPOLYLINE
  5
13F1
330
1F
100
AcDbEntity
  8
SANINDUSA
100
AcDbPolyline
 90
        5
 70
   128
 43
0.0
 10
3634.028157976864
 20
1716.859737069572
 10
3634.027871158971
 20
1716.86349044431
 10
3634.027577316731
 20
1716.878553707258
 10
3634.028146558398
 20
1716.888517946779
 10
3634.029338261521
 20
1716.898468181815
  0
LINE
  5
13F2
330
1F
100
AcDbEntity
  8
SANINDUSA
100
AcDbLine
 10
3633.997376782813
 20
1716.89757134848
 30
0.0
 11
3633.997376782675
 21
1716.859057123009
 31
0.0
  0
LWPOLYLINE
  5
13F3
330
1F
100
AcDbEntity
  8
SANINDUSA
100
AcDbPolyline
 90
        9
 70
   128
 43
0.0
 10
3633.997378524597
 20
1716.858375407206
 10
3633.997565909741
 20
1716.851956215174
 10
3633.998712733971
 20
1716.840231588208
 10
3634.000901581262
 20
1716.828594295402
 10
3634.004255844041
 20
1716.816776153307
 10
3634.00870890476
 20
1716.805252226895
 10
3634.014609727915
 20
1716.793491068973
 10
3634.021695576391
 20
1716.782278383169
 10
3634.029876782829
 20
1716.771795020704
  0
LINE
  5
13F4
330
1F
100
AcDbEntity
  8
SANINDUSA
100
AcDbLine
 10
3633.997376782675
 20
1716.859057123009
 30
0.0
 11
3633.997378524597
 21
1716.858375407206
 31
0.0
  0
LWPOLYLINE
  5
13F5
330
1F
100
AcDbEntity
  8
SANINDUSA
100
AcDbPolyline
 90
        3
 70
   128
 43
0.0
 10
3634.075935375484
 20
1716.759578708654
 10
3634.089124795668
 20
1716.736332789056
 10
3634.099352594836
 20
1716.716134320799
  0
LWPOLYLINE
  5
13F6
330
1F
100
AcDbEntity
  8
SANINDUSA
100
AcDbPolyline
 90
        8
 70
   128
 43
0.0
 10
3634.098212656311
 20
1716.712378709453
 10
3634.089722130477
 20
1716.728633051756
 10
3634.077751120778
 20
1716.749101311343
 10
3634.06567017072
 20
1716.769574138132
 10
3634.053990002708
 20
1716.790161641332
 10
3634.042002234121
 20
1716.810468050425
 10
3634.042002203525
 20
1716.810468099953
 10
3634.042002203525
 20
1716.810468099953
  0
LINE
  5
13F8
330
1F
100
AcDbEntity
  8
SANINDUSA
100
AcDbLine
 10
3634.161538426445
 20
1716.720080333816
 30
0.0
 11
3634.161538426445
 21
1716.632033913705
 31
0.0
  0
LINE
  5
13F9
330
1F
100
AcDbEntity
  8
SANINDUSA
100
AcDbLine
 10
3634.163515351059
 20
1716.624033647437
 30
0.0
 11
3634.185399858194
 21
1716.623369654015
 31
0.0
  0
ARC
  5
13FA
330
1F
100
AcDbEntity
  8
SANINDUSA
100
AcDbCircle
 10
3634.163538426452
 20
1716.632033913705
 30
0.0
 40
0.0020000000000002
100
AcDbArc
 50
89.33892419808055
 51
180.0
  0
ARC
  5
13FB
330
1F
100
AcDbEntity
  8
SANINDUSA
100
AcDbCircle
 10
3634.163538426452
 20
1716.626033514312
 30
0.0
 40
0.0020000000000002
100
AcDbArc
 50
180.0
 51
269.3389241980805
  0
LINE
  5
13FC
330
1F
100
AcDbEntity
  8
SANINDUSA
100
AcDbLine
 10
3634.161538426445
 20
1716.626033514312
 30
0.0
 11
3634.161538426445
 21
1716.632033913705
 31
0.0
  0
ARC
  5
13FD
330
1F
100
AcDbEntity
  8
SANINDUSA
100
AcDbCircle
 10
3634.163538426452
 20
1716.720080333816
 30
0.0
 40
0.0020000000000002
100
AcDbArc
 50
180.0
 51
270.6610758019195
  0
LINE
  5
13FE
330
1F
100
AcDbEntity
  8
SANINDUSA
100
AcDbLine
 10
3634.161538426445
 20
1716.720080333816
 30
0.0
 11
3634.161538426445
 21
1716.726080733213
 31
0.0
  0
ARC
  5
13FF
330
1F
100
AcDbEntity
  8
SANINDUSA
100
AcDbCircle
 10
3634.163538426452
 20
1716.726080733213
 30
0.0
 40
0.0020000000000002
100
AcDbArc
 50
90.66107580191944
 51
180.0
  0
LWPOLYLINE
  5
1400
330
1F
100
AcDbEntity
  8
SANINDUSA
100
AcDbPolyline
 90
        8
 70
   128
 43
0.0
 10
3634.042002203525
 20
1716.810468099953
 10
3634.042002172887
 20
1716.81046814919
 10
3634.039108986159
 20
1716.815626947646
 10
3634.036640758394
 20
1716.820981135017
 10
3634.0332813672
 20
1716.830288797748
 10
3634.030857107035
 20
1716.839829539261
 10
3634.029218353601
 20
1716.849762159782
 10
3634.028157976864
 20
1716.859737069572
  0
LWPOLYLINE
  5
1401
330
1F
100
AcDbEntity
  8
SANINDUSA
100
AcDbPolyline
 90
       46
 70
   128
 43
0.0
 10
3634.050078940659
 20
1716.859698796285
 10
3634.050159950297
 20
1716.853263343746
 10
3634.050211461487
 20
1716.851675445498
 10
3634.050275482311
 20
1716.850086224811
 10
3634.0503519989
 20
1716.848496786388
 10
3634.050440958105
 20
1716.846908321135
 10
3634.050560191922
 20
1716.845040456715
 10
3634.050577278105
 20
1716.844791830193
 10
3634.050577279217
 20
1716.844791813946
 10
3634.05057728033
 20
1716.844791797699
 10
3634.050577282542
 20
1716.844791765201
 10
3634.050577286981
 20
1716.844791700208
 10
3634.050577295858
 20
1716.844791570224
 10
3634.050577313604
 20
1716.844791310242
 10
3634.050577349102
 20
1716.844790790274
 10
3634.050577420116
 20
1716.844789750281
 10
3634.050577562172
 20
1716.844787670074
 10
3634.050577846422
 20
1716.84478350879
 10
3634.050578415504
 20
1716.844775182722
 10
3634.05057955601
 20
1716.844758516617
 10
3634.050581846504
 20
1716.844725128543
 10
3634.050586466445
 20
1716.844658129063
 10
3634.050595721158
 20
1716.84452512845
 10
3634.050614410102
 20
1716.844260731264
 10
3634.050652938452
 20
1716.843732316018
 10
3634.05073457773
 20
1716.842677022596
 10
3634.050916176414
 20
1716.840572009609
 10
3634.051352507974
 20
1716.836384816754
 10
3634.051876419465
 20
1716.832296492754
 10
3634.052485466164
 20
1716.828302073634
 10
3634.053395411364
 20
1716.823278673924
 10
3634.054455134858
 20
1716.818387512121
 10
3634.055599687345
 20
1716.813924352864
 10
3634.056842551502
 20
1716.809829577796
 10
3634.057809558101
 20
1716.806235093452
 10
3634.058503124907
 20
1716.802816288371
 10
3634.059363275505
 20
1716.799158146121
 10
3634.060492425073
 20
1716.795068645551
 10
3634.061838880837
 20
1716.790778041915
 10
3634.063426703164
 20
1716.786234638617
 10
3634.065254563751
 20
1716.781491591322
 10
3634.067337338974
 20
1716.776556336754
 10
3634.069296525748
 20
1716.772268384382
 10
3634.071419742177
 20
1716.767934172301
 10
3634.073699762762
 20
1716.763583824373
 10
3634.075935375484
 20
1716.759578708654
  0
LINE
  5
1402
330
1F
100
AcDbEntity
  8
SANINDUSA
100
AcDbLine
 10
3634.023376782811
 20
1716.94105712376
 30
0.0
 11
3634.01661902445
 21
1716.94105712376
 31
0.0
  0
LINE
  5
1403
330
1F
100
AcDbEntity
  8
SANINDUSA
100
AcDbLine
 10
3633.999376782806
 20
1716.954057123763
 30
0.0
 11
3634.025876782813
 21
1716.954057123763
 31
0.0
  0
LINE
  5
1404
330
1F
100
AcDbEntity
  8
SANINDUSA
100
AcDbLine
 10
3634.006860862167
 20
1716.94105712376
 30
0.0
 11
3634.006860862167
 21
1716.913198127338
 31
0.0
  0
LINE
  5
1405
330
1F
100
AcDbEntity
  8
SANINDUSA
100
AcDbLine
 10
3634.016621738731
 20
1716.94105712376
 30
0.0
 11
3634.016619309041
 21
1716.919658423201
 31
0.0
  0
LINE
  5
1406
330
1F
100
AcDbEntity
  8
SANINDUSA
100
AcDbLine
 10
3633.997376782813
 20
1716.936057123763
 30
0.0
 11
3633.997376782813
 21
1716.899921583561
 31
0.0
  0
LINE
  5
1407
330
1F
100
AcDbEntity
  8
SANINDUSA
100
AcDbLine
 10
3634.01661902445
 20
1716.919658486957
 30
0.0
 11
3634.016619309041
 21
1716.919658423201
 31
0.0
  0
ARC
  5
1408
330
1F
100
AcDbEntity
  8
SANINDUSA
100
AcDbCircle
 10
3634.008860862174
 20
1716.913198127338
 30
0.0
 40
0.0019999999999998
100
AcDbArc
 50
180.0
 51
257.3736215484669
  0
LINE
  5
1409
330
1F
100
AcDbEntity
  8
SANINDUSA
100
AcDbLine
 10
3633.997376782813
 20
1716.899921583561
 30
0.0
 11
3633.997376782813
 21
1716.89757134848
 31
0.0
  0
LINE
  5
140A
330
1F
100
AcDbEntity
  8
SANINDUSA
100
AcDbLine
 10
3634.006860862167
 20
1716.94105712376
 30
0.0
 11
3633.999376782806
 21
1716.94105712376
 31
0.0
  0
ARC
  5
140B
330
1F
100
AcDbEntity
  8
SANINDUSA
100
AcDbCircle
 10
3633.999376782806
 20
1716.943057123761
 30
0.0
 40
0.002
100
AcDbArc
 50
180.0
 51
270.0
  0
LINE
  5
140C
330
1F
100
AcDbEntity
  8
SANINDUSA
100
AcDbLine
 10
3633.997376782813
 20
1716.943057123761
 30
0.0
 11
3633.997376782813
 21
1716.952057123762
 31
0.0
  0
ARC
  5
140D
330
1F
100
AcDbEntity
  8
SANINDUSA
100
AcDbCircle
 10
3633.999376782806
 20
1716.952057123762
 30
0.0
 40
0.0020000000000001
100
AcDbArc
 50
90.0
 51
180.0
  0
LINE
  5
140E
330
1F
100
AcDbEntity
  8
SANINDUSA
100
AcDbLine
 10
3633.999376782806
 20
1716.936057123763
 30
0.0
 11
3633.999376782806
 21
1716.94105712376
 31
0.0
  0
LINE
  5
140F
330
1F
100
AcDbEntity
  8
SANINDUSA
100
AcDbLine
 10
3633.999376782806
 20
1716.936057123763
 30
0.0
 11
3634.006860862167
 21
1716.936057123763
 31
0.0
  0
LINE
  5
1410
330
1F
100
AcDbEntity
  8
SANINDUSA
100
AcDbLine
 10
3633.999376782806
 20
1716.936057123763
 30
0.0
 11
3633.997376782813
 21
1716.936057123763
 31
0.0
  0
LINE
  5
1411
330
1F
100
AcDbEntity
  8
SANINDUSA
100
AcDbLine
 10
3633.997376782813
 20
1716.943057123761
 30
0.0
 11
3633.997376782813
 21
1716.936057123763
 31
0.0
  0
LINE
  5
1412
330
1F
100
AcDbEntity
  8
SANINDUSA
100
AcDbLine
 10
3634.126376782807
 20
1716.931057123762
 30
0.0
 11
3634.097585844488
 21
1716.931057123762
 31
0.0
  0
LINE
  5
1413
330
1F
100
AcDbEntity
  8
SANINDUSA
100
AcDbLine
 10
3634.030876782811
 20
1716.949057123762
 30
0.0
 11
3634.135876782806
 21
1716.949057123762
 31
0.0
  0
LINE
  5
1414
330
1F
100
AcDbEntity
  8
SANINDUSA
100
AcDbLine
 10
3634.025876782813
 20
1716.954057123763
 30
0.0
 11
3634.140876782812
 21
1716.954057123763
 31
0.0
  0
LINE
  5
1415
330
1F
100
AcDbEntity
  8
SANINDUSA
100
AcDbLine
 10
3634.040376782811
 20
1716.944057123761
 30
0.0
 11
3634.126376782807
 21
1716.944057123761
 31
0.0
  0
LINE
  5
1416
330
1F
100
AcDbEntity
  8
SANINDUSA
100
AcDbLine
 10
3634.075699609865
 20
1716.931057123762
 30
0.0
 11
3634.040376782811
 21
1716.931057123762
 31
0.0
  0
LINE
  5
1417
330
1F
100
AcDbEntity
  8
SANINDUSA
100
AcDbLine
 10
3634.028376782808
 20
1716.931057123762
 30
0.0
 11
3634.028376782808
 21
1716.936057123763
 31
0.0
  0
ARC
  5
1418
330
1F
100
AcDbEntity
  8
SANINDUSA
100
AcDbCircle
 10
3634.040376782811
 20
1716.933057123762
 30
0.0
 40
0.002
100
AcDbArc
 50
270.0
 51
0.0
  0
LINE
  5
1419
330
1F
100
AcDbEntity
  8
SANINDUSA
100
AcDbLine
 10
3634.028376782808
 20
1716.931057123762
 30
0.0
 11
3634.040376782811
 21
1716.931057123762
 31
0.0
  0
LINE
  5
141A
330
1F
100
AcDbEntity
  8
SANINDUSA
100
AcDbLine
 10
3634.029338261521
 20
1716.898468181815
 30
0.0
 11
3634.029535247443
 21
1716.89946373245
 31
0.0
  0
LINE
  5
141B
330
1F
100
AcDbEntity
  8
SANINDUSA
100
AcDbLine
 10
3634.029535247443
 20
1716.89946373245
 30
0.0
 11
3634.031407421106
 21
1716.906097908082
 31
0.0
  0
LWPOLYLINE
  5
141C
330
1F
100
AcDbEntity
  8
SANINDUSA
100
AcDbPolyline
 90
        3
 70
   128
 43
0.0
 10
3634.055225884907
 20
1716.898689419245
 10
3634.055107975117
 20
1716.898295713501
 10
3634.055044079011
 20
1716.898058115246
  0
LWPOLYLINE
  5
141D
330
1F
100
AcDbEntity
  8
SANINDUSA
100
AcDbPolyline
 90
        7
 70
   128
 43
0.0
 10
3634.055225884907
 20
1716.898689419245
 10
3634.055336748222
 20
1716.899344810801
 10
3634.055270987141
 20
1716.899919255211
 10
3634.054963259158
 20
1716.900540908482
 10
3634.054491704185
 20
1716.900905540409
 10
3634.054291164343
 20
1716.900971706848
 10
3634.054285442923
 20
1716.900973004092
  0
ARC
  5
141E
330
1F
100
AcDbEntity
  8
SANINDUSA
100
AcDbCircle
 10
3634.040376782811
 20
1716.94205712376
 30
0.0
 40
0.002
100
AcDbArc
 50
0.0
 51
90.0
  0
ARC
  5
141F
330
1F
100
AcDbEntity
  8
SANINDUSA
100
AcDbCircle
 10
3634.025876782813
 20
1716.949057123762
 30
0.0
 40
0.0050000000000001
100
AcDbArc
 50
0.0
 51
90.0
  0
ARC
  5
1420
330
1F
100
AcDbEntity
  8
SANINDUSA
100
AcDbCircle
 10
3634.035876782815
 20
1716.949057123762
 30
0.0
 40
0.005
100
AcDbArc
 50
180.0
 51
270.0
  0
LINE
  5
1421
330
1F
100
AcDbEntity
  8
SANINDUSA
100
AcDbLine
 10
3634.035876782815
 20
1716.944057123761
 30
0.0
 11
3634.040376782811
 21
1716.944057123761
 31
0.0
  0
ARC
  5
1422
330
1F
100
AcDbEntity
  8
SANINDUSA
100
AcDbCircle
 10
3634.023376782811
 20
1716.936057123763
 30
0.0
 40
0.005
100
AcDbArc
 50
0.0
 51
90.0
  0
LINE
  5
1423
330
1F
100
AcDbEntity
  8
SANINDUSA
100
AcDbLine
 10
3634.042376782812
 20
1716.933057123762
 30
0.0
 11
3634.042376782812
 21
1716.94205712376
 31
0.0
  0
LINE
  5
1424
330
1F
100
AcDbEntity
  8
SANINDUSA
100
AcDbLine
 10
3634.075699609865
 20
1716.931057123762
 30
0.0
 11
3634.097585844488
 21
1716.931057123762
 31
0.0
  0
ARC
  5
1425
330
1F
100
AcDbEntity
  8
SANINDUSA
100
AcDbCircle
 10
3634.160876782816
 20
1716.93750222947
 30
0.0
 40
0.0050000000000001
100
AcDbArc
 50
180.0
 51
268.4967118653342
  0
LINE
  5
1426
330
1F
100
AcDbEntity
  8
SANINDUSA
100
AcDbLine
 10
3634.145662706695
 20
1716.9328997763
 30
0.0
 11
3634.145610238048
 21
1716.930900464657
 31
0.0
  0
LINE
  5
1427
330
1F
100
AcDbEntity
  8
SANINDUSA
100
AcDbLine
 10
3634.138376782809
 20
1716.94105712376
 30
0.0
 11
3634.138376782809
 21
1716.931057123762
 31
0.0
  0
ARC
  5
1428
330
1F
100
AcDbEntity
  8
SANINDUSA
100
AcDbCircle
 10
3634.126376782807
 20
1716.933057123762
 30
0.0
 40
0.002
100
AcDbArc
 50
180.0
 51
270.0
  0
LINE
  5
1429
330
1F
100
AcDbEntity
  8
SANINDUSA
100
AcDbLine
 10
3634.126376782807
 20
1716.931057123762
 30
0.0
 11
3634.138376782809
 21
1716.931057123762
 31
0.0
  0
ARC
  5
142A
330
1F
100
AcDbEntity
  8
SANINDUSA
100
AcDbCircle
 10
3634.153607484623
 20
1716.930690590121
 30
0.0
 40
0.0080000000000001
100
AcDbArc
 50
178.4967118783451
 51
268.4967118653342
  0
ARC
  5
142B
330
1F
100
AcDbEntity
  8
SANINDUSA
100
AcDbCircle
 10
3634.130876782802
 20
1716.949057123762
 30
0.0
 40
0.005
100
AcDbArc
 50
270.0
 51
0.0
  0
LINE
  5
142C
330
1F
100
AcDbEntity
  8
SANINDUSA
100
AcDbLine
 10
3634.124376782806
 20
1716.94205712376
 30
0.0
 11
3634.124376782806
 21
1716.933057123762
 31
0.0
  0
ARC
  5
142D
330
1F
100
AcDbEntity
  8
SANINDUSA
100
AcDbCircle
 10
3634.126376782807
 20
1716.94205712376
 30
0.0
 40
0.002
100
AcDbArc
 50
90.0
 51
180.0
  0
LINE
  5
142E
330
1F
100
AcDbEntity
  8
SANINDUSA
100
AcDbLine
 10
3634.126376782807
 20
1716.944057123761
 30
0.0
 11
3634.130876782802
 21
1716.944057123761
 31
0.0
  0
LINE
  5
142F
330
1F
100
AcDbEntity
  8
SANINDUSA
100
AcDbLine
 10
3634.145876782809
 20
1716.932894158224
 30
0.0
 11
3634.145662706695
 21
1716.9328997763
 31
0.0
  0
LINE
  5
1430
330
1F
100
AcDbEntity
  8
SANINDUSA
100
AcDbLine
 10
3634.145876782809
 20
1716.932894158224
 30
0.0
 11
3634.145876782809
 21
1716.94105712376
 31
0.0
  0
ARC
  5
1431
330
1F
100
AcDbEntity
  8
SANINDUSA
100
AcDbCircle
 10
3634.150876782806
 20
1716.949057123762
 30
0.0
 40
0.005
100
AcDbArc
 50
0.0
 51
90.0
  0
LINE
  5
1432
330
1F
100
AcDbEntity
  8
SANINDUSA
100
AcDbLine
 10
3634.155876782811
 20
1716.949057123762
 30
0.0
 11
3634.155876782811
 21
1716.93750222947
 31
0.0
  0
LINE
  5
1433
330
1F
100
AcDbEntity
  8
SANINDUSA
100
AcDbLine
 10
3634.140876782812
 20
1716.954057123763
 30
0.0
 11
3634.150876782806
 21
1716.954057123763
 31
0.0
  0
LINE
  5
1434
330
1F
100
AcDbEntity
  8
SANINDUSA
100
AcDbLine
 10
3634.145876782809
 20
1716.94105712376
 30
0.0
 11
3634.138376782809
 21
1716.94105712376
 31
0.0
  0
ARC
  5
1435
330
1F
100
AcDbEntity
  8
SANINDUSA
100
AcDbCircle
 10
3634.140876782812
 20
1716.949057123762
 30
0.0
 40
0.0050000000000001
100
AcDbArc
 50
90.0
 51
180.0
  0
LINE
  5
1436
330
1F
100
AcDbEntity
  8
SANINDUSA
100
AcDbLine
 10
3634.492312597963
 20
1716.687672014705
 30
0.0
 11
3634.474232792943
 21
1716.579193184523
 31
0.0
  0
LINE
  5
1437
330
1F
100
AcDbEntity
  8
SANINDUSA
100
AcDbLine
 10
3634.500625803049
 20
1716.676723619894
 30
0.0
 11
3634.484096732173
 21
1716.577549194651
 31
0.0
  0
LWPOLYLINE
  5
1438
330
1F
100
AcDbEntity
  8
SANINDUSA
100
AcDbPolyline
 90
        9
 70
   128
 43
0.0
 10
3634.490876782802
 20
1716.499057123761
 10
3634.490876782802
 20
1716.538024534544
 10
3634.490999148206
 20
1716.557516394711
 10
3634.491685049667
 20
1716.576991945323
 10
3634.493218821925
 20
1716.596561571044
 10
3634.495547056155
 20
1716.616052642999
 10
3634.498690313049
 20
1716.635562225216
 10
3634.502629659285
 20
1716.654926766885
 10
3634.507878118596
 20
1716.676033248583
  0
LWPOLYLINE
  5
1439
330
1F
100
AcDbEntity
  8
SANINDUSA
100
AcDbPolyline
 90
       20
 70
   128
 43
0.0
 10
3634.500876782812
 20
1716.501057123761
 10
3634.500876782812
 20
1716.523935548994
 10
3634.500876782812
 20
1716.54681397423
 10
3634.501324587517
 20
1716.569638741086
 10
3634.502858599939
 20
1716.59231098384
 10
3634.50546853384
 20
1716.614794892706
 10
3634.509138786381
 20
1716.637055235515
 10
3634.513556456834
 20
1716.65780713535
 10
3634.518889780368
 20
1716.678299437925
 10
3634.525125679008
 20
1716.698502612314
 10
3634.532251074751
 20
1716.718387127592
 10
3634.540252889616
 20
1716.737923452831
 10
3634.55020235981
 20
1716.759280008744
 10
3634.561209040106
 20
1716.78012501583
 10
3634.573254749551
 20
1716.800417420323
 10
3634.586321307209
 20
1716.820116168455
 10
3634.600390532113
 20
1716.839180206458
 10
3634.615444243297
 20
1716.857568480565
 10
3634.631464259823
 20
1716.875239937009
 10
3634.64843240074
 20
1716.892153522025
  0
ARC
  5
143A
330
1F
100
AcDbEntity
  8
SANINDUSA
100
AcDbCircle
 10
3634.273025223637
 20
1716.59235659513
 30
0.0
 40
0.0300000000000002
100
AcDbArc
 50
14.62087038833904
 51
89.33892419808055
  0
ARC
  5
143B
330
1F
100
AcDbEntity
  8
SANINDUSA
100
AcDbCircle
 10
3634.273025223637
 20
1716.59235659513
 30
0.0
 40
0.0400000000000002
100
AcDbArc
 50
14.62087038833904
 51
89.33892419808055
  0
LWPOLYLINE
  5
143C
330
1F
100
AcDbEntity
  8
SANINDUSA
100
AcDbPolyline
 90
        9
 70
   128
 43
0.0
 10
3634.380931009015
 20
1716.592353932672
 10
3634.376794841862
 20
1716.610616949845
 10
3634.373863074638
 20
1716.629111554892
 10
3634.372131623052
 20
1716.648090355175
 10
3634.371668362452
 20
1716.667142341277
 10
3634.371136099391
 20
1716.670182958816
 10
3634.369554122728
 20
1716.672833620771
 10
3634.367335428688
 20
1716.674633814618
 10
3634.365211171048
 20
1716.675477919642
  0
LINE
  5
143D
330
1F
100
AcDbEntity
  8
SANINDUSA
100
AcDbLine
 10
3634.277056773878
 20
1716.622084470982
 30
0.0
 11
3634.276554992125
 21
1716.560955240959
 31
0.0
  0
LINE
  5
143E
330
1F
100
AcDbEntity
  8
SANINDUSA
100
AcDbLine
 10
3634.226491367052
 20
1716.561109508045
 30
0.0
 11
3634.226998491999
 21
1716.622889669775
 31
0.0
  0
ARC
  5
143F
330
1F
100
AcDbEntity
  8
SANINDUSA
100
AcDbCircle
 10
3634.632632371519
 20
1716.665061042069
 30
0.0
 40
0.2517013612956065
100
AcDbArc
 50
180.0
 51
196.789873820876
  0
LINE
  5
1440
330
1F
100
AcDbEntity
  8
SANINDUSA
100
AcDbLine
 10
3634.391660897135
 20
1716.592353932672
 30
0.0
 11
3634.380931009015
 21
1716.592353932672
 31
0.0
  0
LINE
  5
1441
330
1F
100
AcDbEntity
  8
SANINDUSA
100
AcDbLine
 10
3634.377232599677
 20
1716.52905712376
 30
0.0
 11
3634.415049157514
 21
1716.52905712376
 31
0.0
  0
LINE
  5
1442
330
1F
100
AcDbEntity
  8
SANINDUSA
100
AcDbLine
 10
3634.377232599677
 20
1716.519057123761
 30
0.0
 11
3634.415049157514
 21
1716.519057123761
 31
0.0
  0
LWPOLYLINE
  5
1443
330
1F
100
AcDbEntity
  8
SANINDUSA
100
AcDbPolyline
 90
       10
 70
   128
 43
0.0
 10
3634.276554992125
 20
1716.560955240959
 10
3634.27616458614
 20
1716.556782396863
 10
3634.275082640889
 20
1716.552728301361
 10
3634.273330757104
 20
1716.548911477272
 10
3634.270966910481
 20
1716.545434936339
 10
3634.268051431886
 20
1716.542404736708
 10
3634.264672366845
 20
1716.539898435156
 10
3634.260922213784
 20
1716.537996975836
 10
3634.25690930248
 20
1716.536744377325
 10
3634.251435187849
 20
1716.536153488531
  0
LWPOLYLINE
  5
1444
330
1F
100
AcDbEntity
  8
SANINDUSA
100
AcDbPolyline
 90
       10
 70
   128
 43
0.0
 10
3634.251194794416
 20
1716.536154209585
 10
3634.247015889407
 20
1716.536522573457
 10
3634.242960692813
 20
1716.537582202192
 10
3634.239146359935
 20
1716.539312963676
 10
3634.23567856937
 20
1716.541655676501
 10
3634.232659460686
 20
1716.544553099509
 10
3634.230169779243
 20
1716.547913432303
 10
3634.228285982362
 20
1716.551649586174
 10
3634.227054125136
 20
1716.55564814782
 10
3634.226491367052
 20
1716.561109508045
  0
LINE
  5
1445
330
1F
100
AcDbEntity
  8
SANINDUSA
100
AcDbLine
 10
3634.251435187849
 20
1716.536153488531
 30
0.0
 11
3634.251194794416
 21
1716.536154209585
 31
0.0
  0
ARC
  5
1446
330
1F
100
AcDbEntity
  8
SANINDUSA
100
AcDbCircle
 10
3634.377232599677
 20
1716.589057123761
 30
0.0
 40
0.06
100
AcDbArc
 50
194.620870388339
 51
270.0
  0
ARC
  5
1447
330
1F
100
AcDbEntity
  8
SANINDUSA
100
AcDbCircle
 10
3634.377232599677
 20
1716.589057123761
 30
0.0
 40
0.07
100
AcDbArc
 50
194.620870388339
 51
270.0
  0
LINE
  5
1448
330
1F
100
AcDbEntity
  8
SANINDUSA
100
AcDbLine
 10
3634.302053742279
 20
1716.599929250227
 30
0.0
 11
3634.309499389507
 21
1716.571387595206
 31
0.0
  0
LINE
  5
1449
330
1F
100
AcDbEntity
  8
SANINDUSA
100
AcDbLine
 10
3634.311729915157
 20
1716.602453468589
 30
0.0
 11
3634.319175562386
 21
1716.573911813571
 31
0.0
  0
LINE
  5
144A
330
1F
100
AcDbEntity
  8
SANINDUSA
100
AcDbLine
 10
3634.311729915157
 20
1716.602453468589
 30
0.0
 11
3634.311652553829
 21
1716.602750020425
 31
0.0
  0
LWPOLYLINE
  5
144B
330
1F
100
AcDbEntity
  8
SANINDUSA
100
AcDbPolyline
 90
        3
 70
   128
 43
0.0
 10
3634.380931009015
 20
1716.592353932672
 10
3634.380931050255
 20
1716.592211615949
 10
3634.38093102754
 20
1716.59220385124
  0
ARC
  5
144C
330
1F
100
AcDbEntity
  8
SANINDUSA
100
AcDbCircle
 10
3634.415049157514
 20
1716.589057123761
 30
0.0
 40
0.0600000000000001
100
AcDbArc
 50
270.0
 51
350.5376777876875
  0
LINE
  5
144D
330
1F
100
AcDbEntity
  8
SANINDUSA
100
AcDbLine
 10
3634.432495910682
 20
1716.499057123761
 30
0.0
 11
3634.490876782802
 21
1716.499057123761
 31
0.0
  0
ARC
  5
144E
330
1F
100
AcDbEntity
  8
SANINDUSA
100
AcDbCircle
 10
3634.415049157514
 20
1716.589057123761
 30
0.0
 40
0.07
100
AcDbArc
 50
270.0
 51
350.5376777876875
  0
LINE
  5
144F
330
1F
100
AcDbEntity
  8
SANINDUSA
100
AcDbLine
 10
3634.432007546909
 20
1716.499057123761
 30
0.0
 11
3634.432495910682
 21
1716.499057123761
 31
0.0
  0
LINE
  5
1450
330
1F
100
AcDbEntity
  8
SANINDUSA
100
AcDbLine
 10
3634.391660897135
 20
1716.592353932323
 30
0.0
 11
3634.391660777387
 21
1716.592906721653
 31
0.0
  0
ARC
  5
1451
330
1F
100
AcDbEntity
  8
SANINDUSA
100
AcDbCircle
 10
3634.498876782811
 20
1716.501057123761
 30
0.0
 40
0.0020000000000002
100
AcDbArc
 50
270.0
 51
0.0
  0
LINE
  5
1452
330
1F
100
AcDbEntity
  8
SANINDUSA
100
AcDbLine
 10
3634.498876782811
 20
1716.499057123761
 30
0.0
 11
3634.490876782802
 21
1716.499057123761
 31
0.0
  0
LINE
  5
1453
330
1F
100
AcDbEntity
  8
SANINDUSA
100
AcDbLine
 10
3634.584840126649
 20
1716.899057123763
 30
0.0
 11
3634.558108167309
 21
1716.899057123763
 31
0.0
  0
LINE
  5
1454
330
1F
100
AcDbEntity
  8
SANINDUSA
100
AcDbLine
 10
3634.461010982553
 20
1716.859057123762
 30
0.0
 11
3634.578208491003
 21
1716.859057123762
 31
0.0
  0
ARC
  5
1455
330
1F
100
AcDbEntity
  8
SANINDUSA
100
AcDbCircle
 10
3634.973587254965
 20
1716.549044299914
 30
0.0
 40
0.4827093884549213
100
AcDbArc
 50
140.5459936293376
 51
157.3080383436222
  0
ARC
  5
1456
330
1F
100
AcDbEntity
  8
SANINDUSA
100
AcDbCircle
 10
3634.213876782808
 20
1716.897057123762
 30
0.0
 40
0.0080000000000001
100
AcDbArc
 50
180.0
 51
270.0
  0
ARC
  5
1457
330
1F
100
AcDbEntity
  8
SANINDUSA
100
AcDbCircle
 10
3634.244327395158
 20
1716.869057123764
 30
0.0
 40
0.0300000000000001
100
AcDbArc
 50
10.0686922987051
 51
90.0
  0
LINE
  5
1458
330
1F
100
AcDbEntity
  8
SANINDUSA
100
AcDbLine
 10
3634.322937634883
 20
1716.859057123762
 30
0.0
 11
3634.391899540017
 21
1716.859057123762
 31
0.0
  0
LWPOLYLINE
  5
1459
330
1F
100
AcDbEntity
  8
SANINDUSA
100
AcDbPolyline
 90
        3
 70
   128
 43
0.0
 10
3634.391694687482
 20
1716.859057120615
 10
3634.370560474796
 20
1716.859057129786
 10
3634.339117017721
 20
1716.859057140762
  0
ARC
  5
145A
330
1F
100
AcDbEntity
  8
SANINDUSA
100
AcDbCircle
 10
3634.148957089878
 20
1716.696649215148
 30
0.0
 40
0.16693705972986
100
AcDbArc
 50
15.54588698628656
 51
38.16326668196537
  0
LWPOLYLINE
  5
145B
330
1F
100
AcDbEntity
  8
SANINDUSA
100
AcDbPolyline
 90
       14
 70
   128
 43
0.0
 10
3634.238416912726
 20
1716.859725727041
 10
3634.240846365349
 20
1716.849930222808
 10
3634.243981751338
 20
1716.840338133192
 10
3634.247795165626
 20
1716.831024278504
 10
3634.252245841832
 20
1716.822056606656
 10
3634.257289785514
 20
1716.813500256154
 10
3634.262871301086
 20
1716.805408353728
 10
3634.268974638013
 20
1716.797762924889
 10
3634.275045265429
 20
1716.790091202583
 10
3634.282013988428
 20
1716.779868422669
 10
3634.288207953483
 20
1716.76902688641
 10
3634.29355068515
 20
1716.757658377064
 10
3634.297977865325
 20
1716.745865172692
 10
3634.301443722537
 20
1716.733759451949
  0
LINE
  5
145C
330
1F
100
AcDbEntity
  8
SANINDUSA
100
AcDbLine
 10
3634.27340937005
 20
1716.632509198578
 30
0.0
 11
3634.273486731371
 21
1716.632353932673
 31
0.0
  0
LWPOLYLINE
  5
145D
330
1F
100
AcDbEntity
  8
SANINDUSA
100
AcDbPolyline
 90
        9
 70
   128
 43
0.0
 10
3634.365211171753
 20
1716.685824097702
 10
3634.368612996973
 20
1716.684544932112
 10
3634.371753965439
 20
1716.682716545824
 10
3634.374540614692
 20
1716.680383465184
 10
3634.3768993169
 20
1716.677618469111
 10
3634.378756616636
 20
1716.674494510557
 10
3634.38006712679
 20
1716.671104637036
 10
3634.380712865285
 20
1716.668113397154
 10
3634.380931009015
 20
1716.665061036183
  0
LWPOLYLINE
  5
145E
330
1F
100
AcDbEntity
  8
SANINDUSA
100
AcDbPolyline
 90
       11
 70
   128
 43
0.0
 10
3634.307610173113
 20
1716.720154050621
 10
3634.311430771152
 20
1716.713721883476
 10
3634.315771794937
 20
1716.707628827706
 10
3634.320752517379
 20
1716.701758133277
 10
3634.326215863643
 20
1716.696333688011
 10
3634.331950509587
 20
1716.691529300122
 10
3634.338063414537
 20
1716.687216433834
 10
3634.344705153956
 20
1716.683324519148
 10
3634.35165413643
 20
1716.68001219429
 10
3634.358321399094
 20
1716.67748340499
 10
3634.365211171048
 20
1716.675477915578
  0
LWPOLYLINE
  5
145F
330
1F
100
AcDbEntity
  8
SANINDUSA
100
AcDbPolyline
 90
       11
 70
   128
 43
0.0
 10
3634.309786944018
 20
1716.741390023486
 10
3634.312680550415
 20
1716.732893414526
 10
3634.316516754044
 20
1716.724746991964
 10
3634.321223091058
 20
1716.717103927425
 10
3634.326766089748
 20
1716.710044660227
 10
3634.333081666497
 20
1716.703627046605
 10
3634.340050902728
 20
1716.697971153578
 10
3634.347623365976
 20
1716.69313708357
 10
3634.35571285768
 20
1716.689164062951
 10
3634.364167537054
 20
1716.686125891599
 10
3634.365211171048
 20
1716.685824098101
  0
LWPOLYLINE
  5
1460
330
1F
100
AcDbEntity
  8
SANINDUSA
100
AcDbPolyline
 90
        3
 70
   128
 43
0.0
 10
3634.30148088946
 20
1716.733387965858
 10
3634.301494996239
 20
1716.733310104762
 10
3634.301498067165
 20
1716.733279958447
  0
LINE
  5
1461
330
1F
100
AcDbEntity
  8
SANINDUSA
100
AcDbLine
 10
3634.298799767451
 20
1716.730093633359
 30
0.0
 11
3634.29854211514
 21
1716.730068332104
 31
0.0
  0
LWPOLYLINE
  5
1462
330
1F
100
AcDbEntity
  8
SANINDUSA
100
AcDbPolyline
 90
        7
 70
   128
 43
0.0
 10
3634.298561964672
 20
1716.730050310121
 10
3634.299553855149
 20
1716.730231014091
 10
3634.300430013603
 20
1716.73072987642
 10
3634.301091395538
 20
1716.731490534745
 10
3634.30146335518
 20
1716.732426815386
 10
3634.301504293137
 20
1716.733432979024
 10
3634.301443722537
 20
1716.733759451949
  0
LWPOLYLINE
  5
1463
330
1F
100
AcDbEntity
  8
SANINDUSA
100
AcDbPolyline
 90
        4
 70
   128
 43
0.0
 10
3634.301443722537
 20
1716.733759451949
 10
3634.301443720557
 20
1716.733759452308
 10
3634.301394555217
 20
1716.73359245394
 10
3634.301463075078
 20
1716.7333828441
  0
LINE
  5
1464
330
1F
100
AcDbEntity
  8
SANINDUSA
100
AcDbLine
 10
3634.274938171657
 20
1716.859057123762
 30
0.0
 11
3634.322786831793
 21
1716.859057123762
 31
0.0
  0
LINE
  5
1465
330
1F
100
AcDbEntity
  8
SANINDUSA
100
AcDbLine
 10
3634.274535132696
 20
1716.859057156991
 30
0.0
 11
3634.322786831793
 21
1716.859057123762
 31
0.0
  0
ARC
  5
1466
330
1F
100
AcDbEntity
  8
SANINDUSA
100
AcDbCircle
 10
3634.406527446176
 20
1716.899065284302
 30
0.0
 40
0.1606522464218338
100
AcDbArc
 50
195.3538777339087
 51
218.1619883533603
  0
LWPOLYLINE
  5
1467
330
1F
100
AcDbEntity
  8
SANINDUSA
100
AcDbPolyline
 90
        3
 70
   128
 43
0.0
 10
3634.292304158219
 20
1716.759094432105
 10
3634.274757449596
 20
1716.759092694527
 10
3634.232879987307
 20
1716.759140443049
  0
LWPOLYLINE
  5
1468
330
1F
100
AcDbEntity
  8
SANINDUSA
100
AcDbPolyline
 90
        3
 70
   128
 43
0.0
 10
3634.232880530348
 20
1716.759140446604
 10
3634.274801156557
 20
1716.759023397404
 10
3634.292359377666
 20
1716.758974537922
  0
LINE
  5
1469
330
1F
100
AcDbEntity
  8
SANINDUSA
100
AcDbLine
 10
3634.265917428224
 20
1716.86805712376
 30
0.0
 11
3634.247857117058
 21
1716.86805712376
 31
0.0
  0
LWPOLYLINE
  5
146A
330
1F
100
AcDbEntity
  8
SANINDUSA
100
AcDbPolyline
 90
        9
 70
   128
 43
0.0
 10
3634.265917428224
 20
1716.86805712376
 10
3634.263995253714
 20
1716.872731377312
 10
3634.261320433798
 20
1716.877019625022
 10
3634.25795956867
 20
1716.880793920041
 10
3634.254017058172
 20
1716.883955825957
 10
3634.249592685316
 20
1716.886409125222
 10
3634.24482151559
 20
1716.88809133922
 10
3634.241072451398
 20
1716.888813727815
 10
3634.237262191593
 20
1716.889057123761
  0
LINE
  5
146B
330
1F
100
AcDbEntity
  8
SANINDUSA
100
AcDbLine
 10
3634.237262191593
 20
1716.889057123761
 30
0.0
 11
3634.213876782808
 21
1716.889057123761
 31
0.0
  0
ARC
  5
146C
330
1F
100
AcDbEntity
  8
SANINDUSA
100
AcDbCircle
 10
3634.247857117058
 20
1716.876057123761
 30
0.0
 40
0.008
100
AcDbArc
 50
257.3736215484669
 51
270.0
  0
LWPOLYLINE
  5
146D
330
1F
100
AcDbEntity
  8
SANINDUSA
100
AcDbPolyline
 90
        3
 70
   128
 43
0.0
 10
3634.241609125516
 20
1716.888874278233
 10
3634.242914437885
 20
1716.87750339718
 10
3634.244423733275
 20
1716.868627970834
  0
ARC
  5
146E
330
1F
100
AcDbEntity
  8
SANINDUSA
100
AcDbCircle
 10
3634.274571481249
 20
1716.861057123762
 30
0.0
 40
0.0020000000000004
100
AcDbArc
 50
270.0
 51
13.36774741927278
  0
LINE
  5
146F
330
1F
100
AcDbEntity
  8
SANINDUSA
100
AcDbLine
 10
3634.253538469785
 20
1716.859057123762
 30
0.0
 11
3634.274571481249
 21
1716.859057123762
 31
0.0
  0
LWPOLYLINE
  5
1470
330
1F
100
AcDbEntity
  8
SANINDUSA
100
AcDbPolyline
 90
        7
 70
   128
 43
0.0
 10
3634.253538469785
 20
1716.859057123762
 10
3634.252876019739
 20
1716.858944315747
 10
3634.252288254721
 20
1716.858618580358
 10
3634.251841568352
 20
1716.858116700056
 10
3634.251586355983
 20
1716.857495447588
 10
3634.251551240828
 20
1716.856824957922
 10
3634.25160906146
 20
1716.856527790736
  0
LWPOLYLINE
  5
1471
330
1F
100
AcDbEntity
  8
SANINDUSA
100
AcDbPolyline
 90
        3
 70
   128
 43
0.0
 10
3634.253098714137
 20
1716.86805712376
 10
3634.251264483458
 20
1716.878537984569
 10
3634.250394403964
 20
1716.885751702539
  0
LINE
  5
1472
330
1F
100
AcDbEntity
  8
SANINDUSA
100
AcDbLine
 10
3634.273865360877
 20
1716.874301986118
 30
0.0
 11
3634.276517293606
 21
1716.861519524318
 31
0.0
  0
LINE
  5
1473
330
1F
100
AcDbEntity
  8
SANINDUSA
100
AcDbLine
 10
3634.324154748917
 20
1716.861037189846
 30
0.0
 11
3634.324006469346
 21
1716.861037678282
 31
0.0
  0
LINE
  5
1474
330
1F
100
AcDbEntity
  8
SANINDUSA
100
AcDbLine
 10
3634.502500396485
 20
1716.678392409929
 30
0.0
 11
3634.505850399729
 21
1716.678557085401
 31
0.0
  0
LWPOLYLINE
  5
1475
330
1F
100
AcDbEntity
  8
SANINDUSA
100
AcDbPolyline
 90
        8
 70
   128
 43
0.0
 10
3634.500450527558
 20
1716.675671966975
 10
3634.500728365704
 20
1716.675685348262
 10
3634.503556638942
 20
1716.675822361969
 10
3634.505642844845
 20
1716.675923914528
 10
3634.506282344956
 20
1716.675955124814
 10
3634.507232769277
 20
1716.676001605363
 10
3634.507756132008
 20
1716.676027263984
 10
3634.507878118596
 20
1716.676033248583
  0
ARC
  5
1476
330
1F
100
AcDbEntity
  8
SANINDUSA
100
AcDbCircle
 10
3634.502598590895
 20
1716.676394821919
 30
0.0
 40
0.0020000000000007
100
AcDbArc
 50
92.81419387891032
 51
170.5376777876875
  0
ARC
  5
1477
330
1F
100
AcDbEntity
  8
SANINDUSA
100
AcDbCircle
 10
3634.505948594772
 20
1716.67655949742
 30
0.0
 40
0.0020000000000991
100
AcDbArc
 50
344.7444648758981
 51
92.81421240051678
  0
ARC
  5
1478
330
1F
100
AcDbEntity
  8
SANINDUSA
100
AcDbCircle
 10
3634.454436776971
 20
1716.766126397346
 30
0.0
 40
0.0800000000002618
100
AcDbArc
 50
305.1722859673854
 51
337.3065037168298
  0
LINE
  5
1479
330
1F
100
AcDbEntity
  8
SANINDUSA
100
AcDbLine
 10
3634.500519736554
 20
1716.700732507441
 30
0.0
 11
3634.500513230567
 21
1716.700858057786
 31
0.0
  0
ARC
  5
147A
330
1F
100
AcDbEntity
  8
SANINDUSA
100
AcDbCircle
 10
3634.512040476454
 20
1716.684384034957
 30
0.0
 40
0.0200000000102772
100
AcDbArc
 50
125.1722859749032
 51
170.5376778005344
  0
LINE
  5
147B
330
1F
100
AcDbEntity
  8
SANINDUSA
100
AcDbLine
 10
3634.427402799266
 20
1716.859057123762
 30
0.0
 11
3634.460990657004
 21
1716.859057123762
 31
0.0
  0
LINE
  5
147C
330
1F
100
AcDbEntity
  8
SANINDUSA
100
AcDbLine
 10
3634.391899540017
 20
1716.859057123762
 30
0.0
 11
3634.427393418068
 21
1716.859057123762
 31
0.0
  0
LWPOLYLINE
  5
147D
330
1F
100
AcDbEntity
  8
SANINDUSA
100
AcDbPolyline
 90
        9
 70
   128
 43
0.0
 10
3634.549551321172
 20
1716.757962365049
 10
3634.549849410644
 20
1716.758567769113
 10
3634.550576795206
 20
1716.76003284708
 10
3634.55135015541
 20
1716.761576791439
 10
3634.552165750517
 20
1716.763189832269
 10
3634.553019672014
 20
1716.764862237509
 10
3634.553907847069
 20
1716.766584323377
 10
3634.554826041852
 20
1716.768346463654
 10
3634.556598643533
 20
1716.771675384956
  0
LINE
  5
147E
330
1F
100
AcDbEntity
  8
SANINDUSA
100
AcDbLine
 10
3634.403066743828
 20
1716.899057123763
 30
0.0
 11
3634.362288066063
 21
1716.899057123763
 31
0.0
  0
LINE
  5
147F
330
1F
100
AcDbEntity
  8
SANINDUSA
100
AcDbLine
 10
3634.320736690694
 20
1716.899057123763
 30
0.0
 11
3634.262017778296
 21
1716.899057123763
 31
0.0
  0
LINE
  5
1480
330
1F
100
AcDbEntity
  8
SANINDUSA
100
AcDbLine
 10
3634.262017778296
 20
1716.899057123763
 30
0.0
 11
3634.248336277663
 21
1716.899057123763
 31
0.0
  0
LINE
  5
1481
330
1F
100
AcDbEntity
  8
SANINDUSA
100
AcDbLine
 10
3634.215876782815
 20
1716.936056627037
 30
0.0
 11
3634.215876782815
 21
1716.926186619021
 31
0.0
  0
LINE
  5
1482
330
1F
100
AcDbEntity
  8
SANINDUSA
100
AcDbLine
 10
3634.244327395158
 20
1716.899057123763
 30
0.0
 11
3634.220876782805
 21
1716.899057123763
 31
0.0
  0
ARC
  5
1483
330
1F
100
AcDbEntity
  8
SANINDUSA
100
AcDbCircle
 10
3634.220876782805
 20
1716.90405712376
 30
0.0
 40
0.005
100
AcDbArc
 50
180.0
 51
270.0
  0
LINE
  5
1484
330
1F
100
AcDbEntity
  8
SANINDUSA
100
AcDbLine
 10
3634.215876782815
 20
1716.90405712376
 30
0.0
 11
3634.215876782815
 21
1716.926186619021
 31
0.0
  0
LINE
  5
1485
330
1F
100
AcDbEntity
  8
SANINDUSA
100
AcDbLine
 10
3634.205876782814
 20
1716.897057123762
 30
0.0
 11
3634.205876782814
 21
1716.921316114283
 31
0.0
  0
ARC
  5
1486
330
1F
100
AcDbEntity
  8
SANINDUSA
100
AcDbCircle
 10
3634.210876782811
 20
1716.926186619021
 30
0.0
 40
0.0050000000000001
100
AcDbArc
 50
0.0
 51
88.4967118653342
  0
LINE
  5
1487
330
1F
100
AcDbEntity
  8
SANINDUSA
100
AcDbLine
 10
3634.248074253978
 20
1716.899057123763
 30
0.0
 11
3634.244674774724
 21
1716.899057123763
 31
0.0
  0
LINE
  5
1488
330
1F
100
AcDbEntity
  8
SANINDUSA
100
AcDbLine
 10
3634.248336277663
 20
1716.899057123763
 30
0.0
 11
3634.248074253978
 21
1716.899057123763
 31
0.0
  0
LINE
  5
1489
330
1F
100
AcDbEntity
  8
SANINDUSA
100
AcDbLine
 10
3634.215876782815
 20
1716.936056627037
 30
0.0
 11
3634.215876782815
 21
1716.936057123763
 31
0.0
  0
LINE
  5
148A
330
1F
100
AcDbEntity
  8
SANINDUSA
100
AcDbLine
 10
3634.210876782811
 20
1716.94105712376
 30
0.0
 11
3634.210857855208
 21
1716.94105712376
 31
0.0
  0
ARC
  5
148B
330
1F
100
AcDbEntity
  8
SANINDUSA
100
AcDbCircle
 10
3634.210876782811
 20
1716.936057123763
 30
0.0
 40
0.0050000000000001
100
AcDbArc
 50
0.0
 51
90.0
  0
LINE
  5
148C
330
1F
100
AcDbEntity
  8
SANINDUSA
100
AcDbLine
 10
3634.362288066063
 20
1716.899057123763
 30
0.0
 11
3634.320736690694
 21
1716.899057123763
 31
0.0
  0
LINE
  5
148D
330
1F
100
AcDbEntity
  8
SANINDUSA
100
AcDbLine
 10
3634.516352859785
 20
1716.899057123763
 30
0.0
 11
3634.482055874717
 21
1716.899057123763
 31
0.0
  0
LINE
  5
148E
330
1F
100
AcDbEntity
  8
SANINDUSA
100
AcDbLine
 10
3634.481809706559
 20
1716.899057123763
 30
0.0
 11
3634.403203849383
 21
1716.899057123763
 31
0.0
  0
LINE
  5
148F
330
1F
100
AcDbEntity
  8
SANINDUSA
100
AcDbLine
 10
3634.403203849383
 20
1716.899057123763
 30
0.0
 11
3634.403066743828
 21
1716.899057123763
 31
0.0
  0
LINE
  5
1490
330
1F
100
AcDbEntity
  8
SANINDUSA
100
AcDbLine
 10
3634.482055874717
 20
1716.899057123763
 30
0.0
 11
3634.481885907837
 21
1716.899057123763
 31
0.0
  0
LINE
  5
1491
330
1F
100
AcDbEntity
  8
SANINDUSA
100
AcDbLine
 10
3634.481885907837
 20
1716.899057123763
 30
0.0
 11
3634.481809706559
 21
1716.899057123763
 31
0.0
  0
LINE
  5
1492
330
1F
100
AcDbEntity
  8
SANINDUSA
100
AcDbLine
 10
3634.558108167309
 20
1716.899057123763
 30
0.0
 11
3634.518930956373
 21
1716.899057123763
 31
0.0
  0
LINE
  5
1493
330
1F
100
AcDbEntity
  8
SANINDUSA
100
AcDbLine
 10
3634.518930956373
 20
1716.899057123763
 30
0.0
 11
3634.516352859785
 21
1716.899057123763
 31
0.0
  0
ARC
  5
1494
330
1F
100
AcDbEntity
  8
SANINDUSA
100
AcDbCircle
 10
3634.623317946565
 20
1716.869057123764
 30
0.0
 40
0.03
100
AcDbArc
 50
90.0
 51
135.8405865899503
  0
ARC
  5
1495
330
1F
100
AcDbEntity
  8
SANINDUSA
100
AcDbCircle
 10
3634.645681201561
 20
1716.895057123762
 30
0.0
 40
0.0040000000000001
100
AcDbArc
 50
313.4561950142788
 51
90.0
  0
ARC
  5
1496
330
1F
100
AcDbEntity
  8
SANINDUSA
100
AcDbCircle
 10
3634.626155460021
 20
1716.859034870893
 30
0.0
 40
0.030022252868898
100
AcDbArc
 50
89.99924143170357
 51
136.2835887044037
  0
LWPOLYLINE
  5
1497
330
1F
100
AcDbEntity
  8
SANINDUSA
100
AcDbPolyline
 90
        3
 70
   128
 43
0.0
 10
3634.611319077035
 20
1716.86805712376
 10
3634.620976659383
 20
1716.878698748965
 10
3634.630955851528
 20
1716.889057123761
  0
ARC
  5
1498
330
1F
100
AcDbEntity
  8
SANINDUSA
100
AcDbCircle
 10
3634.57855850101
 20
1716.861057123762
 30
0.0
 40
0.0020000000000001
100
AcDbArc
 50
140.3921949685791
 51
270.0
  0
LINE
  5
1499
330
1F
100
AcDbEntity
  8
SANINDUSA
100
AcDbLine
 10
3634.57855850101
 20
1716.859057123762
 30
0.0
 11
3634.599326261007
 21
1716.859057123762
 31
0.0
  0
ARC
  5
149A
330
1F
100
AcDbEntity
  8
SANINDUSA
100
AcDbCircle
 10
3634.599326261007
 20
1716.857057123761
 30
0.0
 40
0.002
100
AcDbArc
 50
320.5432519882821
 51
90.0
  0
LWPOLYLINE
  5
149B
330
1F
100
AcDbEntity
  8
SANINDUSA
100
AcDbPolyline
 90
        3
 70
   128
 43
0.0
 10
3634.593588413308
 20
1716.86805712376
 10
3634.600665014492
 20
1716.875774743282
 10
3634.604456299552
 20
1716.879782933509
  0
LINE
  5
149C
330
1F
100
AcDbEntity
  8
SANINDUSA
100
AcDbLine
 10
3634.611319077035
 20
1716.86805712376
 30
0.0
 11
3634.593588413308
 21
1716.86805712376
 31
0.0
  0
LWPOLYLINE
  5
149D
330
1F
100
AcDbEntity
  8
SANINDUSA
100
AcDbPolyline
 90
        4
 70
   128
 43
0.0
 10
3634.577017648204
 20
1716.862332181652
 10
3634.585446404759
 20
1716.872232103706
 10
3634.594154986044
 20
1716.881900470384
 10
3634.601795818213
 20
1716.889956836472
  0
LINE
  5
149E
330
1F
100
AcDbEntity
  8
SANINDUSA
100
AcDbLine
 10
3634.630955851528
 20
1716.889057123761
 30
0.0
 11
3634.626155857521
 21
1716.889057123761
 31
0.0
  0
LINE
  5
149F
330
1F
100
AcDbEntity
  8
SANINDUSA
100
AcDbLine
 10
3634.623317946565
 20
1716.899057123763
 30
0.0
 11
3634.607144123555
 21
1716.899057123763
 31
0.0
  0
LINE
  5
14A0
330
1F
100
AcDbEntity
  8
SANINDUSA
100
AcDbLine
 10
3634.607144123555
 20
1716.899057123763
 30
0.0
 11
3634.584840126649
 21
1716.899057123763
 31
0.0
  0
LINE
  5
14A1
330
1F
100
AcDbEntity
  8
SANINDUSA
100
AcDbLine
 10
3634.645681201561
 20
1716.899057123763
 30
0.0
 11
3634.623317946565
 21
1716.899057123763
 31
0.0
  0
LINE
  5
14A2
330
1F
100
AcDbEntity
  8
SANINDUSA
100
AcDbLine
 10
3633.999642727169
 20
1717.293057123759
 30
0.0
 11
3633.999642727169
 21
1716.97605712376
 31
0.0
  0
LINE
  5
14A3
330
1F
100
AcDbEntity
  8
SANINDUSA
100
AcDbLine
 10
3633.987642727174
 20
1717.281463586314
 30
0.0
 11
3633.987642727174
 21
1716.95905712376
 31
0.0
  0
LINE
  5
14A4
330
1F
100
AcDbEntity
  8
SANINDUSA
100
AcDbLine
 10
3634.156684080867
 20
1716.959013008108
 30
0.0
 11
3634.159528479097
 21
1717.281378140902
 31
0.0
  0
LINE
  5
14A5
330
1F
100
AcDbEntity
  8
SANINDUSA
100
AcDbLine
 10
3634.144833147068
 20
1716.975968892489
 30
0.0
 11
3634.147631062254
 21
1717.293065946887
 31
0.0
  0
ARC
  5
14A6
330
1F
100
AcDbEntity
  8
SANINDUSA
100
AcDbCircle
 10
3634.134833497214
 20
1716.976057163207
 30
0.0
 40
0.0100000394442415
100
AcDbArc
 50
269.9998316319183
 51
359.4942414830744
  0
ARC
  5
14A7
330
1F
100
AcDbEntity
  8
SANINDUSA
100
AcDbCircle
 10
3634.009642727172
 20
1716.97605712376
 30
0.0
 40
0.01
100
AcDbArc
 50
180.0
 51
270.0
  0
ARC
  5
14A8
330
1F
100
AcDbEntity
  8
SANINDUSA
100
AcDbCircle
 10
3634.151684257253
 20
1716.959057142161
 30
0.0
 40
0.0050000183985362
100
AcDbArc
 50
269.9998461706663
 51
359.4942563087768
  0
LWPOLYLINE
  5
14A9
330
1F
100
AcDbEntity
  8
SANINDUSA
100
AcDbPolyline
 90
        7
 70
   128
 43
0.0
 10
3634.117613602459
 20
1716.955057123759
 10
3634.117633938703
 20
1716.954856570799
 10
3634.117755583233
 20
1716.954543728087
 10
3634.117973902242
 20
1716.95428877787
 10
3634.118264433259
 20
1716.95412028745
 10
3634.118594631422
 20
1716.95405732108
 10
3634.11861451342
 20
1716.954057123763
  0
LWPOLYLINE
  5
14AA
330
1F
100
AcDbEntity
  8
SANINDUSA
100
AcDbPolyline
 90
        7
 70
   128
 43
0.0
 10
3634.11861451342
 20
1716.966057123762
 10
3634.118469624912
 20
1716.966046590529
 10
3634.118149699804
 20
1716.965942750495
 10
3634.117882259613
 20
1716.965738865318
 10
3634.117697589085
 20
1716.965458091741
 10
3634.117633938703
 20
1716.965257676726
 10
3634.117613602459
 20
1716.965057123761
  0
LINE
  5
14AB
330
1F
100
AcDbEntity
  8
SANINDUSA
100
AcDbLine
 10
3634.117613602459
 20
1716.955057123759
 30
0.0
 11
3634.117613602459
 21
1716.965057123761
 31
0.0
  0
LWPOLYLINE
  5
14AC
330
1F
100
AcDbEntity
  8
SANINDUSA
100
AcDbPolyline
 90
        7
 70
   128
 43
0.0
 10
3634.054670940925
 20
1716.954057123763
 10
3634.054747102055
 20
1716.954060023098
 10
3634.054954438122
 20
1716.954098076181
 10
3634.055256289554
 20
1716.954245962777
 10
3634.055492163927
 20
1716.954485448372
 10
3634.055635302641
 20
1716.954789361654
 10
3634.055671851886
 20
1716.955057123759
  0
LINE
  5
14AD
330
1F
100
AcDbEntity
  8
SANINDUSA
100
AcDbLine
 10
3634.055671851886
 20
1716.965057123761
 30
0.0
 11
3634.055671851886
 21
1716.955057123759
 31
0.0
  0
LWPOLYLINE
  5
14AE
330
1F
100
AcDbEntity
  8
SANINDUSA
100
AcDbPolyline
 90
        7
 70
   128
 43
0.0
 10
3634.055671851886
 20
1716.965057123761
 10
3634.055664183398
 20
1716.96518067081
 10
3634.055616590398
 20
1716.965384799241
 10
3634.055454768416
 20
1716.965678995559
 10
3634.055204710364
 20
1716.965903055719
 10
3634.054894415458
 20
1716.966031879001
 10
3634.054670940925
 20
1716.966057123762
  0
LINE
  5
14AF
330
1F
100
AcDbEntity
  8
SANINDUSA
100
AcDbLine
 10
3634.11861451342
 20
1716.954057123763
 30
0.0
 11
3634.054670940925
 21
1716.954057123763
 31
0.0
  0
LINE
  5
14B0
330
1F
100
AcDbEntity
  8
SANINDUSA
100
AcDbLine
 10
3634.054670940925
 20
1716.966057123762
 30
0.0
 11
3634.11861451342
 21
1716.966057123762
 31
0.0
  0
LINE
  5
14B1
330
1F
100
AcDbEntity
  8
SANINDUSA
100
AcDbLine
 10
3634.11861451342
 20
1716.954057123763
 30
0.0
 11
3634.151684243837
 21
1716.954057123763
 31
0.0
  0
LINE
  5
14B2
330
1F
100
AcDbEntity
  8
SANINDUSA
100
AcDbLine
 10
3634.11861451342
 20
1716.966057123762
 30
0.0
 11
3634.134833467827
 21
1716.966057123762
 31
0.0
  0
ARC
  5
14B3
330
1F
100
AcDbEntity
  8
SANINDUSA
100
AcDbCircle
 10
3633.992642727172
 20
1716.95905712376
 30
0.0
 40
0.005
100
AcDbArc
 50
180.0
 51
270.0
  0
LINE
  5
14B4
330
1F
100
AcDbEntity
  8
SANINDUSA
100
AcDbLine
 10
3633.992642727172
 20
1716.954057123763
 30
0.0
 11
3634.054670940925
 21
1716.954057123763
 31
0.0
  0
LINE
  5
14B5
330
1F
100
AcDbEntity
  8
SANINDUSA
100
AcDbLine
 10
3634.009642727172
 20
1716.966057123762
 30
0.0
 11
3634.054670940925
 21
1716.966057123762
 31
0.0
  0
ARC
  5
14B6
330
1F
100
AcDbEntity
  8
SANINDUSA
100
AcDbCircle
 10
3633.222323370866
 20
1570.914627838742
 30
0.0
 40
146.4294292850192
100
AcDbArc
 50
89.63712668232378
 51
89.653204761586
  0
ARC
  5
14B7
330
1F
100
AcDbEntity
  8
SANINDUSA
100
AcDbCircle
 10
3633.997642727177
 20
1717.332004375977
 30
0.0
 40
0.0100000000000346
100
AcDbArc
 50
89.69660628166819
 51
180.0
  0
ARC
  5
14B8
330
1F
100
AcDbEntity
  8
SANINDUSA
100
AcDbCircle
 10
3633.222323370866
 20
1570.914627838742
 30
0.0
 40
146.4294292850192
100
AcDbArc
 50
89.6735249669312
 51
89.69660628166819
  0
ARC
  5
14B9
330
1F
100
AcDbEntity
  8
SANINDUSA
100
AcDbCircle
 10
3633.222323370866
 20
1570.914627838742
 30
0.0
 40
146.4174292850191
100
AcDbArc
 50
89.63790439063039
 51
89.64446050441166
  0
LINE
  5
14BA
330
1F
100
AcDbEntity
  8
SANINDUSA
100
AcDbLine
 10
3634.137098082305
 20
1717.306057123762
 30
0.0
 11
3634.147640275042
 21
1717.306057123762
 31
0.0
  0
ARC
  5
14BB
330
1F
100
AcDbEntity
  8
SANINDUSA
100
AcDbCircle
 10
3634.142359658625
 20
1717.286057133206
 30
0.0
 40
0.0020000094430614
100
AcDbArc
 50
269.999870662464
 51
357.9997387648823
  0
LWPOLYLINE
  5
14BC
330
1F
100
AcDbEntity
  8
SANINDUSA
100
AcDbPolyline
 90
        3
 70
   128
 43
0.0
 10
3634.130886701773
 20
1717.32923814491
 10
3634.132843192035
 20
1717.321936476957
 10
3634.137098082305
 20
1717.306057123762
  0
LINE
  5
14BD
330
1F
100
AcDbEntity
  8
SANINDUSA
100
AcDbLine
 10
3634.142359654114
 20
1717.284057123761
 30
0.0
 11
3634.134174835905
 21
1717.284057123761
 31
0.0
  0
ARC
  5
14BE
330
1F
100
AcDbEntity
  8
SANINDUSA
100
AcDbCircle
 10
3634.134174829233
 20
1717.286057133249
 30
0.0
 40
0.0020000094894058
100
AcDbArc
 50
195.0002085941676
 51
270.0001908796916
  0
LINE
  5
14BF
330
1F
100
AcDbEntity
  8
SANINDUSA
100
AcDbLine
 10
3634.147640275042
 20
1717.329133223491
 30
0.0
 11
3634.147640275042
 21
1717.306057123762
 31
0.0
  0
LINE
  5
14C0
330
1F
100
AcDbEntity
  8
SANINDUSA
100
AcDbLine
 10
3634.147631062254
 20
1717.293065946887
 30
0.0
 11
3634.144847197153
 21
1717.293065880152
 31
0.0
  0
LWPOLYLINE
  5
14C1
330
1F
100
AcDbEntity
  8
SANINDUSA
100
AcDbPolyline
 90
        3
 70
   128
 43
0.0
 10
3634.159528479097
 20
1717.281378140902
 10
3634.15899399604
 20
1717.284693026031
 10
3634.158232892974
 20
1717.286389766883
  0
LWPOLYLINE
  5
14C2
330
1F
100
AcDbEntity
  8
SANINDUSA
100
AcDbPolyline
 90
        5
 70
   128
 43
0.0
 10
3634.154470176997
 20
1717.293041802673
 10
3634.154046108481
 20
1717.293562512026
 10
3634.153473587809
 20
1717.29391349955
 10
3634.152817159252
 20
1717.294055195649
 10
3634.152729359318
 20
1717.294057123759
  0
LINE
  5
14C3
330
1F
100
AcDbEntity
  8
SANINDUSA
100
AcDbLine
 10
3634.158232892974
 20
1717.286389766883
 30
0.0
 11
3634.154470176997
 21
1717.293041802673
 31
0.0
  0
LINE
  5
14C4
330
1F
100
AcDbEntity
  8
SANINDUSA
100
AcDbLine
 10
3634.148631029982
 20
1717.294057123759
 30
0.0
 11
3634.152729359318
 21
1717.294057123759
 31
0.0
  0
ARC
  5
14C5
330
1F
100
AcDbEntity
  8
SANINDUSA
100
AcDbCircle
 10
3634.148631027195
 20
1717.293057119863
 30
0.0
 40
0.0010000039002256
100
AcDbArc
 50
89.99984080331486
 51
179.4942439842637
  0
LINE
  5
14C6
330
1F
100
AcDbEntity
  8
SANINDUSA
100
AcDbLine
 10
3634.146571645456
 20
1717.294057123759
 30
0.0
 11
3634.157640339909
 21
1717.294057123759
 31
0.0
  0
LINE
  5
14C7
330
1F
100
AcDbEntity
  8
SANINDUSA
100
AcDbLine
 10
3634.144358449398
 20
1717.285987324769
 30
0.0
 11
3634.144572850332
 21
1717.292126922755
 31
0.0
  0
LWPOLYLINE
  5
14C8
330
1F
100
AcDbEntity
  8
SANINDUSA
100
AcDbPolyline
 90
        7
 70
   128
 43
0.0
 10
3634.157640339909
 20
1717.294057123759
 10
3634.157946780849
 20
1717.2940807394
 10
3634.158583708894
 20
1717.29429358579
 10
3634.159114277748
 20
1717.294705260385
 10
3634.159478668241
 20
1717.295269347494
 10
3634.159635799399
 20
1717.295922247933
 10
3634.159640352475
 20
1717.296057123763
  0
LWPOLYLINE
  5
14C9
330
1F
100
AcDbEntity
  8
SANINDUSA
100
AcDbPolyline
 90
        7
 70
   128
 43
0.0
 10
3634.146571645456
 20
1717.294057123759
 10
3634.14623897084
 20
1717.29402926196
 10
3634.145604926621
 20
1717.293807971338
 10
3634.14507987423
 20
1717.293389283117
 10
3634.144834401908
 20
1717.293048095758
 10
3634.144604313654
 20
1717.292417203931
 10
3634.144572850332
 20
1717.292126922755
  0
LINE
  5
14CA
330
1F
100
AcDbEntity
  8
SANINDUSA
100
AcDbLine
 10
3634.103087107528
 20
1717.284057123761
 30
0.0
 11
3634.09251238568
 21
1717.284057123761
 31
0.0
  0
ARC
  5
14CB
330
1F
100
AcDbEntity
  8
SANINDUSA
100
AcDbCircle
 10
3633.222323370866
 20
1570.914627838742
 30
0.0
 40
146.4174292850191
100
AcDbArc
 50
89.65150239391507
 51
89.65318110311825
  0
LWPOLYLINE
  5
14CC
330
1F
100
AcDbEntity
  8
SANINDUSA
100
AcDbPolyline
 90
       19
 70
   128
 43
0.0
 10
3634.108601941575
 20
1717.329374735116
 10
3634.107939382587
 20
1717.32937874422
 10
3634.106573741578
 20
1717.329386998426
 10
3634.104533384591
 20
1717.329399306396
 10
3634.101867118676
 20
1717.329415347314
 10
3634.098658806136
 20
1717.329434585324
 10
3634.094992465661
 20
1717.329456482926
 10
3634.090977849963
 20
1717.329480356613
 10
3634.086724741843
 20
1717.329505526915
 10
3634.082356402578
 20
1717.329531252359
 10
3634.077996035543
 20
1717.329556799101
 10
3634.073766487113
 20
1717.329581457059
 10
3634.069790505892
 20
1717.329604523907
 10
3634.06617665173
 20
1717.329625397306
 10
3634.063033363011
 20
1717.329643479567
 10
3634.060442677002
 20
1717.329658332412
 10
3634.058486465504
 20
1717.329669517497
 10
3634.057211017776
 20
1717.329676795638
 10
3634.056671761261
 20
1717.329679869595
  0
LWPOLYLINE
  5
14CD
330
1F
100
AcDbEntity
  8
SANINDUSA
100
AcDbPolyline
 90
        3
 70
   128
 43
0.0
 10
3634.122490191469
 20
1717.321937080112
 10
3634.129221427087
 20
1717.296815955917
 10
3634.1322429703
 20
1717.28553948567
  0
LINE
  5
14CE
330
1F
100
AcDbEntity
  8
SANINDUSA
100
AcDbLine
 10
3634.134174835905
 20
1717.284057123761
 30
0.0
 11
3634.103087107528
 21
1717.284057123761
 31
0.0
  0
LINE
  5
14CF
330
1F
100
AcDbEntity
  8
SANINDUSA
100
AcDbLine
 10
3634.010184847605
 20
1717.306057123762
 30
0.0
 11
3634.016574297348
 21
1717.329902874851
 31
0.0
  0
LINE
  5
14D0
330
1F
100
AcDbEntity
  8
SANINDUSA
100
AcDbLine
 10
3634.015039924846
 20
1717.28553948567
 30
0.0
 11
3634.024914570233
 21
1717.322392163925
 31
0.0
  0
LINE
  5
14D1
330
1F
100
AcDbEntity
  8
SANINDUSA
100
AcDbLine
 10
3634.013108073196
 20
1717.284057123761
 30
0.0
 11
3634.004923312416
 21
1717.284057123761
 31
0.0
  0
ARC
  5
14D2
330
1F
100
AcDbEntity
  8
SANINDUSA
100
AcDbCircle
 10
3634.000711349626
 20
1717.292057123759
 30
0.0
 40
0.002
100
AcDbArc
 50
2.000000003757967
 51
90.0
  0
LINE
  5
14D3
330
1F
100
AcDbEntity
  8
SANINDUSA
100
AcDbLine
 10
3634.002710131274
 20
1717.292126922755
 30
0.0
 11
3634.002924530768
 21
1717.285987324769
 31
0.0
  0
ARC
  5
14D4
330
1F
100
AcDbEntity
  8
SANINDUSA
100
AcDbCircle
 10
3634.004923312416
 20
1717.286057123762
 30
0.0
 40
0.002
100
AcDbArc
 50
182.000000003758
 51
270.0
  0
LINE
  5
14D5
330
1F
100
AcDbEntity
  8
SANINDUSA
100
AcDbLine
 10
3634.024699183116
 20
1717.284057123761
 30
0.0
 11
3634.013108073196
 21
1717.284057123761
 31
0.0
  0
ARC
  5
14D6
330
1F
100
AcDbEntity
  8
SANINDUSA
100
AcDbCircle
 10
3634.013108073196
 20
1717.286057123762
 30
0.0
 40
0.0020000000000001
100
AcDbArc
 50
270.0
 51
345.000000009779
  0
LINE
  5
14D7
330
1F
100
AcDbEntity
  8
SANINDUSA
100
AcDbLine
 10
3633.999642727169
 20
1717.306057123762
 30
0.0
 11
3633.999642727169
 21
1717.329993743595
 31
0.0
  0
LINE
  5
14D8
330
1F
100
AcDbEntity
  8
SANINDUSA
100
AcDbLine
 10
3633.994462776311
 20
1717.294057123759
 30
0.0
 11
3633.99864272718
 21
1717.294057123759
 31
0.0
  0
ARC
  5
14D9
330
1F
100
AcDbEntity
  8
SANINDUSA
100
AcDbCircle
 10
3633.99864272718
 20
1717.293057123759
 30
0.0
 40
0.0009999999999999
100
AcDbArc
 50
0.0
 51
90.0
  0
ARC
  5
14DA
330
1F
100
AcDbEntity
  8
SANINDUSA
100
AcDbCircle
 10
3633.994462776311
 20
1717.292057123759
 30
0.0
 40
0.0020000000000002
100
AcDbArc
 50
90.0
 51
150.3815701235676
  0
LINE
  5
14DB
330
1F
100
AcDbEntity
  8
SANINDUSA
100
AcDbLine
 10
3633.992724104305
 20
1717.29304556681
 30
0.0
 11
3633.988949367151
 21
1717.286405801562
 31
0.0
  0
ARC
  5
14DC
330
1F
100
AcDbEntity
  8
SANINDUSA
100
AcDbCircle
 10
3633.997642727177
 20
1717.281463586314
 30
0.0
 40
0.01
100
AcDbArc
 50
150.3815701235676
 51
180.0
  0
ARC
  5
14DD
330
1F
100
AcDbEntity
  8
SANINDUSA
100
AcDbCircle
 10
3633.989642727175
 20
1717.296057123763
 30
0.0
 40
0.0020000000000002
100
AcDbArc
 50
180.0
 51
270.0
  0
LINE
  5
14DE
330
1F
100
AcDbEntity
  8
SANINDUSA
100
AcDbLine
 10
3633.999642727169
 20
1717.306057123762
 30
0.0
 11
3634.010184847605
 21
1717.306057123762
 31
0.0
  0
LINE
  5
14DF
330
1F
100
AcDbEntity
  8
SANINDUSA
100
AcDbLine
 10
3634.002443400438
 20
1717.293057123759
 30
0.0
 11
3633.999642727169
 21
1717.293057123759
 31
0.0
  0
LINE
  5
14E0
330
1F
100
AcDbEntity
  8
SANINDUSA
100
AcDbLine
 10
3633.989642727175
 20
1717.294057123759
 30
0.0
 11
3634.000711349626
 21
1717.294057123759
 31
0.0
  0
ARC
  5
14E1
330
1F
100
AcDbEntity
  8
SANINDUSA
100
AcDbCircle
 10
3633.222323370866
 20
1570.914627838742
 30
0.0
 40
146.4174292850191
100
AcDbArc
 50
89.68919375866475
 51
89.69581951069041
  0
LINE
  5
14E2
330
1F
100
AcDbEntity
  8
SANINDUSA
100
AcDbLine
 10
3634.09251238568
 20
1717.284057123761
 30
0.0
 11
3634.024699183116
 21
1717.284057123761
 31
0.0
  0
ARC
  5
14E3
330
1F
100
AcDbEntity
  8
SANINDUSA
100
AcDbCircle
 10
3633.222323370866
 20
1570.914627838742
 30
0.0
 40
146.4174292850191
100
AcDbArc
 50
89.67350266335847
 51
89.68212839401271
  0
ARC
  5
14E4
330
1F
100
AcDbEntity
  8
SANINDUSA
100
AcDbCircle
 10
3634.034573828489
 20
1717.319803973474
 30
0.0
 40
0.0100000000000067
100
AcDbArc
 50
89.68212839401271
 51
165.0000000097789
  0
LINE
  5
14E5
330
1F
100
AcDbEntity
  8
SANINDUSA
100
AcDbLine
 10
3633.987642727174
 20
1717.296057123763
 30
0.0
 11
3633.987642727174
 21
1717.332004375977
 31
0.0
  0
ARC
  5
14E6
330
1F
100
AcDbEntity
  8
SANINDUSA
100
AcDbCircle
 10
3634.056678034453
 20
1717.330680666779
 30
0.0
 40
0.0010008168460857
100
AcDbArc
 50
269.6408635794668
 51
359.9525071288793
  0
ARC
  5
14E7
330
1F
100
AcDbEntity
  8
SANINDUSA
100
AcDbCircle
 10
3634.112830881583
 20
1717.319348823406
 30
0.0
 40
0.0100000670195414
100
AcDbArc
 50
15.00029011203104
 51
89.65164747147893
  0
ARC
  5
14E8
330
1F
100
AcDbEntity
  8
SANINDUSA
100
AcDbCircle
 10
3634.108607221396
 20
1717.330375339363
 30
0.0
 40
0.0010006181792383
100
AcDbArc
 50
180.03466552323
 51
269.6976741389669
  0
LINE
  5
14E9
330
1F
100
AcDbEntity
  8
SANINDUSA
100
AcDbLine
 10
3634.159640352475
 20
1717.331120609367
 30
0.0
 11
3634.159640352475
 21
1717.296057123763
 31
0.0
  0
ARC
  5
14EA
330
1F
100
AcDbEntity
  8
SANINDUSA
100
AcDbCircle
 10
3634.149640325356
 20
1717.33112058281
 30
0.0
 40
0.0100000271259507
100
AcDbArc
 50
0.0
 51
89.63733997367986
  0
LINE
  5
14EB
330
1F
100
AcDbEntity
  8
SANINDUSA
100
AcDbLine
 10
3634.107606603401
 20
1717.330374733963
 30
0.0
 11
3634.107606603401
 21
1717.340374917152
 31
0.0
  0
ARC
  5
14EC
330
1F
100
AcDbEntity
  8
SANINDUSA
100
AcDbCircle
 10
3634.108607419455
 20
1717.340374087213
 30
0.0
 40
0.0010008164012296
100
AcDbArc
 50
89.62055653919033
 51
179.9524867407639
  0
LINE
  5
14ED
330
1F
100
AcDbEntity
  8
SANINDUSA
100
AcDbLine
 10
3634.05767885095
 20
1717.34067999955
 30
0.0
 11
3634.05767885095
 21
1717.330679837196
 31
0.0
  0
ARC
  5
14EE
330
1F
100
AcDbEntity
  8
SANINDUSA
100
AcDbCircle
 10
3634.056678233727
 20
1717.340679394187
 30
0.0
 40
0.0010006174076924
100
AcDbArc
 50
0.0346634779040084
 51
89.71804928677364
  0
LWPOLYLINE
  5
14EF
330
1F
100
AcDbEntity
  8
SANINDUSA
100
AcDbPolyline
 90
       20
 70
   128
 43
0.0
 10
3634.056683157709
 20
1717.341679999477
 10
3634.057140140853
 20
1717.341677395026
 10
3634.058114033848
 20
1717.341671839174
 10
3634.059909343836
 20
1717.341661580852
 10
3634.062345601583
 20
1717.341647624671
 10
3634.065362225469
 20
1717.341630287523
 10
3634.068866093134
 20
1717.341610072741
 10
3634.072763999241
 20
1717.341587485051
 10
3634.076940522574
 20
1717.341563169168
 10
3634.081280297863
 20
1717.341537774944
 10
3634.085658641991
 20
1717.341512026538
 10
3634.089950991417
 20
1717.341486655048
 10
3634.094037495794
 20
1717.341462384945
 10
3634.09779842174
 20
1717.341439946492
 10
3634.101132287863
 20
1717.341419976055
 10
3634.103937720386
 20
1717.341403111834
 10
3634.106143035046
 20
1717.341389817342
 10
3634.1076766954
 20
1717.341380552621
 10
3634.10850485709
 20
1717.341375542535
 10
3634.108614047349
 20
1717.341374881667
  0
LINE
  5
14F0
330
1F
100
AcDbEntity
  8
SANINDUSA
100
AcDbLine
 10
3634.161538426445
 20
1716.726055722702
 30
0.0
 11
3634.161538426445
 21
1716.62605852482
 31
0.0
  0
LINE
  5
14F1
330
1F
100
AcDbEntity
  8
SANINDUSA
100
AcDbLine
 10
3634.117783856113
 20
1716.525804459579
 30
0.0
 11
3634.117783856113
 21
1716.437557123762
 31
0.0
  0
LINE
  5
14F2
330
1F
100
AcDbEntity
  8
SANINDUSA
100
AcDbLine
 10
3634.203783856116
 20
1716.437557123762
 30
0.0
 11
3634.203783856116
 21
1716.548978172545
 31
0.0
  0
LINE
  5
14F3
330
1F
100
AcDbEntity
  8
SANINDUSA
100
AcDbLine
 10
3634.205783856117
 20
1716.44128917457
 30
0.0
 11
3634.205783856117
 21
1716.548978175495
 31
0.0
  0
LINE
  5
14F4
330
1F
100
AcDbEntity
  8
SANINDUSA
100
AcDbLine
 10
3634.117783856113
 20
1716.437557123762
 30
0.0
 11
3634.203783856116
 21
1716.437557123762
 31
0.0
  0
LINE
  5
14F5
330
1F
100
AcDbEntity
  8
SANINDUSA
100
AcDbLine
 10
3634.11578385612
 20
1716.44128917457
 30
0.0
 11
3634.116783856124
 21
1716.437557123762
 31
0.0
  0
LINE
  5
14F6
330
1F
100
AcDbEntity
  8
SANINDUSA
100
AcDbLine
 10
3634.116783856124
 20
1716.437557123762
 30
0.0
 11
3634.117783856113
 21
1716.437557123762
 31
0.0
  0
LINE
  5
14F7
330
1F
100
AcDbEntity
  8
SANINDUSA
100
AcDbLine
 10
3634.203783856116
 20
1716.437557123762
 30
0.0
 11
3634.204783856113
 21
1716.437557123762
 31
0.0
  0
LINE
  5
14F8
330
1F
100
AcDbEntity
  8
SANINDUSA
100
AcDbLine
 10
3634.204783856113
 20
1716.437557123762
 30
0.0
 11
3634.205783856117
 21
1716.44128917457
 31
0.0
  0
ARC
  5
14F9
330
1F
100
AcDbEntity
  8
SANINDUSA
100
AcDbCircle
 10
3634.131783856116
 20
1716.667557123761
 30
0.0
 40
0.056
100
AcDbArc
 50
100.286560606239
 51
180.0
  0
ARC
  5
14FA
330
1F
100
AcDbEntity
  8
SANINDUSA
100
AcDbCircle
 10
3634.131783856116
 20
1716.667557123761
 30
0.0
 40
0.0539999999999999
100
AcDbArc
 50
90.0
 51
180.0
  0
LINE
  5
14FB
330
1F
100
AcDbEntity
  8
SANINDUSA
100
AcDbLine
 10
3634.077783856112
 20
1716.59183394659
 30
0.0
 11
3634.077783856112
 21
1716.625086545711
 31
0.0
  0
LINE
  5
14FC
330
1F
100
AcDbEntity
  8
SANINDUSA
100
AcDbLine
 10
3634.075783856119
 20
1716.59183394659
 30
0.0
 11
3634.075783856119
 21
1716.625086545711
 31
0.0
  0
LINE
  5
14FD
330
1F
100
AcDbEntity
  8
SANINDUSA
100
AcDbLine
 10
3634.077783856112
 20
1716.667557123761
 30
0.0
 11
3634.077783856112
 21
1716.625086545711
 31
0.0
  0
LINE
  5
14FE
330
1F
100
AcDbEntity
  8
SANINDUSA
100
AcDbLine
 10
3634.075783856119
 20
1716.667557123761
 30
0.0
 11
3634.075783856119
 21
1716.625086545711
 31
0.0
  0
LINE
  5
14FF
330
1F
100
AcDbEntity
  8
SANINDUSA
100
AcDbLine
 10
3634.077783856112
 20
1716.625086545711
 30
0.0
 11
3634.07778385612
 21
1716.625086545711
 31
0.0
  0
LINE
  5
1500
330
1F
100
AcDbEntity
  8
SANINDUSA
100
AcDbLine
 10
3634.201783856116
 20
1716.610557123764
 30
0.0
 11
3634.201783856116
 21
1716.60855712376
 31
0.0
  0
LINE
  5
1501
330
1F
100
AcDbEntity
  8
SANINDUSA
100
AcDbLine
 10
3634.171783856117
 20
1716.609168585124
 30
0.0
 11
3634.171783856117
 21
1716.610557123764
 31
0.0
  0
LINE
  5
1502
330
1F
100
AcDbEntity
  8
SANINDUSA
100
AcDbLine
 10
3634.17046765487
 20
1716.60693396777
 30
0.0
 11
3634.198996933949
 21
1716.564635493432
 31
0.0
  0
LINE
  5
1503
330
1F
100
AcDbEntity
  8
SANINDUSA
100
AcDbLine
 10
3634.17212578097
 20
1716.608050199316
 30
0.0
 11
3634.200655008186
 21
1716.565753880597
 31
0.0
  0
ARC
  5
1504
330
1F
100
AcDbEntity
  8
SANINDUSA
100
AcDbCircle
 10
3634.173783856117
 20
1716.609168585124
 30
0.0
 40
0.0020000000000001
100
AcDbArc
 50
180.0
 51
213.999999995187
  0
ARC
  5
1505
330
1F
100
AcDbEntity
  8
SANINDUSA
100
AcDbCircle
 10
3634.175784031992
 20
1716.548978195995
 30
0.0
 40
0.0299998176965208
100
AcDbArc
 50
0.0
 51
33.99999866918653
  0
ARC
  5
1506
330
1F
100
AcDbEntity
  8
SANINDUSA
100
AcDbCircle
 10
3634.175784061373
 20
1716.548978215993
 30
0.0
 40
0.0279997830701829
100
AcDbArc
 50
0.0
 51
33.99999523654243
  0
LINE
  5
1507
330
1F
100
AcDbEntity
  8
SANINDUSA
100
AcDbLine
 10
3634.201783856116
 20
1716.60855712376
 30
0.0
 11
3634.205783856117
 21
1716.60855712376
 31
0.0
  0
LINE
  5
1508
330
1F
100
AcDbEntity
  8
SANINDUSA
100
AcDbLine
 10
3634.205783856117
 20
1716.612557123761
 30
0.0
 11
3634.169783856117
 21
1716.612557123761
 31
0.0
  0
LINE
  5
1509
330
1F
100
AcDbEntity
  8
SANINDUSA
100
AcDbLine
 10
3634.201783856116
 20
1716.610557123764
 30
0.0
 11
3634.171783856117
 21
1716.610557123764
 31
0.0
  0
LINE
  5
150A
330
1F
100
AcDbEntity
  8
SANINDUSA
100
AcDbLine
 10
3634.169783856117
 20
1716.612531622621
 30
0.0
 11
3634.169783856117
 21
1716.612557123761
 31
0.0
  0
LINE
  5
150B
330
1F
100
AcDbEntity
  8
SANINDUSA
100
AcDbLine
 10
3634.162783856112
 20
1716.739557123761
 30
0.0
 11
3634.205783856117
 21
1716.739557123761
 31
0.0
  0
LINE
  5
150C
330
1F
100
AcDbEntity
  8
SANINDUSA
100
AcDbLine
 10
3634.162783856112
 20
1716.741557123761
 30
0.0
 11
3634.201783856116
 21
1716.741557123761
 31
0.0
  0
LINE
  5
150D
330
1F
100
AcDbEntity
  8
SANINDUSA
100
AcDbLine
 10
3634.160783856118
 20
1716.737557123761
 30
0.0
 11
3634.160783856118
 21
1716.726557123762
 31
0.0
  0
LINE
  5
150E
330
1F
100
AcDbEntity
  8
SANINDUSA
100
AcDbLine
 10
3634.15878385611
 20
1716.737557123761
 30
0.0
 11
3634.15878385611
 21
1716.726557123762
 31
0.0
  0
LINE
  5
150F
330
1F
100
AcDbEntity
  8
SANINDUSA
100
AcDbLine
 10
3634.136783856114
 20
1716.740557123761
 30
0.0
 11
3634.136783856114
 21
1716.736557123764
 31
0.0
  0
LINE
  5
1510
330
1F
100
AcDbEntity
  8
SANINDUSA
100
AcDbLine
 10
3634.121783856114
 20
1716.740557123761
 30
0.0
 11
3634.121783856114
 21
1716.736557123764
 31
0.0
  0
LINE
  5
1511
330
1F
100
AcDbEntity
  8
SANINDUSA
100
AcDbLine
 10
3634.136783856114
 20
1716.723557123761
 30
0.0
 11
3634.155783856114
 21
1716.723557123761
 31
0.0
  0
LINE
  5
1512
330
1F
100
AcDbEntity
  8
SANINDUSA
100
AcDbLine
 10
3634.131783856116
 20
1716.721557123761
 30
0.0
 11
3634.155783856114
 21
1716.721557123761
 31
0.0
  0
LINE
  5
1513
330
1F
100
AcDbEntity
  8
SANINDUSA
100
AcDbLine
 10
3634.136783856114
 20
1716.736557123764
 30
0.0
 11
3634.121783856114
 21
1716.736557123764
 31
0.0
  0
LINE
  5
1514
330
1F
100
AcDbEntity
  8
SANINDUSA
100
AcDbLine
 10
3634.121783856114
 20
1716.728557123763
 30
0.0
 11
3634.136783856114
 21
1716.728557123763
 31
0.0
  0
LINE
  5
1515
330
1F
100
AcDbEntity
  8
SANINDUSA
100
AcDbLine
 10
3634.136783856114
 20
1716.728557732982
 30
0.0
 11
3634.121783856114
 21
1716.728557732982
 31
0.0
  0
LINE
  5
1516
330
1F
100
AcDbEntity
  8
SANINDUSA
100
AcDbLine
 10
3634.121783856114
 20
1716.736446441679
 30
0.0
 11
3634.121783856114
 21
1716.728678699903
 31
0.0
  0
LINE
  5
1517
330
1F
100
AcDbEntity
  8
SANINDUSA
100
AcDbLine
 10
3634.121783856114
 20
1716.736556514541
 30
0.0
 11
3634.121783856114
 21
1716.736557123764
 31
0.0
  0
LINE
  5
1518
330
1F
100
AcDbEntity
  8
SANINDUSA
100
AcDbLine
 10
3634.121783856114
 20
1716.736446441679
 30
0.0
 11
3634.121783856114
 21
1716.736556514541
 31
0.0
  0
LINE
  5
1519
330
1F
100
AcDbEntity
  8
SANINDUSA
100
AcDbLine
 10
3634.121783856114
 20
1716.728557123763
 30
0.0
 11
3634.121783856114
 21
1716.728557732982
 31
0.0
  0
LINE
  5
151A
330
1F
100
AcDbEntity
  8
SANINDUSA
100
AcDbLine
 10
3634.121783856114
 20
1716.728557732982
 30
0.0
 11
3634.121783856114
 21
1716.728678699903
 31
0.0
  0
LINE
  5
151B
330
1F
100
AcDbEntity
  8
SANINDUSA
100
AcDbLine
 10
3634.121783856114
 20
1716.728557123763
 30
0.0
 11
3634.121783856114
 21
1716.722657033017
 31
0.0
  0
LINE
  5
151C
330
1F
100
AcDbEntity
  8
SANINDUSA
100
AcDbLine
 10
3634.136783856114
 20
1716.736446441679
 30
0.0
 11
3634.136783856114
 21
1716.728678699903
 31
0.0
  0
LINE
  5
151D
330
1F
100
AcDbEntity
  8
SANINDUSA
100
AcDbLine
 10
3634.136783856114
 20
1716.736556514541
 30
0.0
 11
3634.136783856114
 21
1716.736557123764
 31
0.0
  0
LINE
  5
151E
330
1F
100
AcDbEntity
  8
SANINDUSA
100
AcDbLine
 10
3634.136783856114
 20
1716.736446441679
 30
0.0
 11
3634.136783856114
 21
1716.736556514541
 31
0.0
  0
LINE
  5
151F
330
1F
100
AcDbEntity
  8
SANINDUSA
100
AcDbLine
 10
3634.136783856114
 20
1716.728557123763
 30
0.0
 11
3634.136783856114
 21
1716.728557732982
 31
0.0
  0
LINE
  5
1520
330
1F
100
AcDbEntity
  8
SANINDUSA
100
AcDbLine
 10
3634.136783856114
 20
1716.728557732982
 30
0.0
 11
3634.136783856114
 21
1716.728678699903
 31
0.0
  0
LINE
  5
1521
330
1F
100
AcDbEntity
  8
SANINDUSA
100
AcDbLine
 10
3634.136783856114
 20
1716.728557123763
 30
0.0
 11
3634.136783856114
 21
1716.723557123761
 31
0.0
  0
ARC
  5
1522
330
1F
100
AcDbEntity
  8
SANINDUSA
100
AcDbCircle
 10
3634.155783856114
 20
1716.726557123762
 30
0.0
 40
0.003
100
AcDbArc
 50
270.0
 51
0.0
  0
ARC
  5
1523
330
1F
100
AcDbEntity
  8
SANINDUSA
100
AcDbCircle
 10
3634.155783856114
 20
1716.726557123762
 30
0.0
 40
0.005
100
AcDbArc
 50
270.0
 51
0.0
  0
LINE
  5
1524
330
1F
100
AcDbEntity
  8
SANINDUSA
100
AcDbLine
 10
3634.121783856114
 20
1716.740557123761
 30
0.0
 11
3634.136783856114
 21
1716.740557123761
 31
0.0
  0
ARC
  5
1525
330
1F
100
AcDbEntity
  8
SANINDUSA
100
AcDbCircle
 10
3634.162783856112
 20
1716.737557123761
 30
0.0
 40
0.002
100
AcDbArc
 50
90.0
 51
180.0
  0
ARC
  5
1526
330
1F
100
AcDbEntity
  8
SANINDUSA
100
AcDbCircle
 10
3634.162783856112
 20
1716.737557123761
 30
0.0
 40
0.0040000000000001
100
AcDbArc
 50
90.0
 51
180.0
  0
LINE
  5
1527
330
1F
100
AcDbEntity
  8
SANINDUSA
100
AcDbLine
 10
3634.205783856117
 20
1716.743557123762
 30
0.0
 11
3634.201783856116
 21
1716.743557123762
 31
0.0
  0
LINE
  5
1528
330
1F
100
AcDbEntity
  8
SANINDUSA
100
AcDbLine
 10
3634.201783856116
 20
1716.743557123762
 30
0.0
 11
3634.201783856116
 21
1716.741557123761
 31
0.0
  0
LINE
  5
1529
330
1F
100
AcDbEntity
  8
SANINDUSA
100
AcDbLine
 10
3634.205783856117
 20
1716.743557123762
 30
0.0
 11
3634.205783856117
 21
1716.739557123761
 31
0.0
  0
LINE
  5
152A
330
1F
100
AcDbEntity
  8
SANINDUSA
100
AcDbLine
 10
3634.205783856117
 20
1716.612557123761
 30
0.0
 11
3634.205783856117
 21
1716.60855712376
 31
0.0
  0
LINE
  5
152B
330
1F
100
AcDbEntity
  8
SANINDUSA
100
AcDbLine
 10
3634.169783856117
 20
1716.612531622621
 30
0.0
 11
3634.169783856117
 21
1716.609170663832
 31
0.0
  0
ARC
  5
152C
330
1F
100
AcDbEntity
  8
SANINDUSA
100
AcDbCircle
 10
3634.173783856117
 20
1716.609170663832
 30
0.0
 40
0.004
100
AcDbArc
 50
180.0
 51
213.9986946126233
  0
LINE
  5
152D
330
1F
100
AcDbEntity
  8
SANINDUSA
100
AcDbLine
 10
3634.11578385612
 20
1716.525804459579
 30
0.0
 11
3634.11578385612
 21
1716.44128917457
 31
0.0
  0
ARC
  5
152E
330
1F
100
AcDbEntity
  8
SANINDUSA
100
AcDbCircle
 10
3634.095783856116
 20
1716.525804459579
 30
0.0
 40
0.02
100
AcDbArc
 50
0.0
 51
37.28570791494232
  0
LINE
  5
152F
330
1F
100
AcDbEntity
  8
SANINDUSA
100
AcDbLine
 10
3634.079871363793
 20
1716.579718147477
 30
0.0
 11
3634.111696348439
 21
1716.537920258688
 31
0.0
  0
ARC
  5
1530
330
1F
100
AcDbEntity
  8
SANINDUSA
100
AcDbCircle
 10
3634.095783856116
 20
1716.59183394659
 30
0.0
 40
0.02
100
AcDbArc
 50
180.0
 51
217.2857079149423
  0
ARC
  5
1531
330
1F
100
AcDbEntity
  8
SANINDUSA
100
AcDbCircle
 10
3634.095783856116
 20
1716.525804459579
 30
0.0
 40
0.022
100
AcDbArc
 50
0.0
 51
37.28570791494232
  0
LINE
  5
1532
330
1F
100
AcDbEntity
  8
SANINDUSA
100
AcDbLine
 10
3634.081462613024
 20
1716.580929727388
 30
0.0
 11
3634.11328759767
 21
1716.539131838603
 31
0.0
  0
ARC
  5
1533
330
1F
100
AcDbEntity
  8
SANINDUSA
100
AcDbCircle
 10
3634.095783856116
 20
1716.59183394659
 30
0.0
 40
0.018
100
AcDbArc
 50
180.0
 51
217.2857079149423
  0
LINE
  5
1534
330
1F
100
AcDbEntity
  8
SANINDUSA
100
AcDbLine
 10
3634.185783856113
 20
1716.606057123761
 30
0.0
 11
3634.205829298932
 21
1716.606512702008
 31
0.0
  0
LINE
  5
1535
330
1F
100
AcDbEntity
  8
SANINDUSA
100
AcDbLine
 10
3634.205829298932
 20
1716.745601545517
 30
0.0
 11
3634.185783856113
 21
1716.746057123761
 31
0.0
  0
LINE
  5
1536
330
1F
100
AcDbEntity
  8
SANINDUSA
100
AcDbLine
 10
3634.185783856113
 20
1716.610557123764
 30
0.0
 11
3634.185783856113
 21
1716.606057123761
 31
0.0
  0
LINE
  5
1537
330
1F
100
AcDbEntity
  8
SANINDUSA
100
AcDbLine
 10
3634.185783856113
 20
1716.746057123761
 30
0.0
 11
3634.185783856113
 21
1716.741557123761
 31
0.0
  0
LINE
  5
1538
330
1F
100
AcDbEntity
  8
SANINDUSA
100
AcDbLine
 10
3634.20778385611
 20
1716.73455712376
 30
0.0
 11
3634.20778385611
 21
1716.72787197422
 31
0.0
  0
LINE
  5
1539
330
1F
100
AcDbEntity
  8
SANINDUSA
100
AcDbLine
 10
3634.20778385611
 20
1716.624242273301
 30
0.0
 11
3634.20778385611
 21
1716.617557123762
 31
0.0
  0
LINE
  5
153A
330
1F
100
AcDbEntity
  8
SANINDUSA
100
AcDbLine
 10
3634.20778385611
 20
1716.608512185677
 30
0.0
 11
3634.20778385611
 21
1716.617557123762
 31
0.0
  0
LINE
  5
153B
330
1F
100
AcDbEntity
  8
SANINDUSA
100
AcDbLine
 10
3634.205783856117
 20
1716.616557123761
 30
0.0
 11
3634.205783856117
 21
1716.608512185677
 31
0.0
  0
LINE
  5
153C
330
1F
100
AcDbEntity
  8
SANINDUSA
100
AcDbLine
 10
3634.205783856117
 20
1716.608512185677
 30
0.0
 11
3634.200806577523
 21
1716.60839906571
 31
0.0
  0
LINE
  5
153D
330
1F
100
AcDbEntity
  8
SANINDUSA
100
AcDbLine
 10
3634.18778385612
 20
1716.609126080271
 30
0.0
 11
3634.18778385612
 21
1716.610557123764
 31
0.0
  0
LINE
  5
153E
330
1F
100
AcDbEntity
  8
SANINDUSA
100
AcDbLine
 10
3634.199783856115
 20
1716.609398807544
 30
0.0
 11
3634.199783856115
 21
1716.610557123764
 31
0.0
  0
LINE
  5
153F
330
1F
100
AcDbEntity
  8
SANINDUSA
100
AcDbLine
 10
3634.197783856122
 20
1716.610557123764
 30
0.0
 11
3634.197783856122
 21
1716.609307898452
 31
0.0
  0
LINE
  5
1540
330
1F
100
AcDbEntity
  8
SANINDUSA
100
AcDbLine
 10
3634.195783856114
 20
1716.609307898452
 30
0.0
 11
3634.195783856114
 21
1716.610557123764
 31
0.0
  0
LINE
  5
1541
330
1F
100
AcDbEntity
  8
SANINDUSA
100
AcDbLine
 10
3634.193783856114
 20
1716.610557123764
 30
0.0
 11
3634.193783856114
 21
1716.609216989364
 31
0.0
  0
LINE
  5
1542
330
1F
100
AcDbEntity
  8
SANINDUSA
100
AcDbLine
 10
3634.191783856121
 20
1716.609216989364
 30
0.0
 11
3634.191783856121
 21
1716.610557123764
 31
0.0
  0
LINE
  5
1543
330
1F
100
AcDbEntity
  8
SANINDUSA
100
AcDbLine
 10
3634.189783856113
 20
1716.610557123764
 30
0.0
 11
3634.189783856113
 21
1716.609126080271
 31
0.0
  0
LINE
  5
1544
330
1F
100
AcDbEntity
  8
SANINDUSA
100
AcDbLine
 10
3634.201102017513
 20
1716.624360188103
 30
0.0
 11
3634.205783856117
 21
1716.616557123761
 31
0.0
  0
LINE
  5
1545
330
1F
100
AcDbEntity
  8
SANINDUSA
100
AcDbLine
 10
3634.20778385611
 20
1716.617557123762
 30
0.0
 11
3634.204789190976
 21
1716.624295120334
 31
0.0
  0
LINE
  5
1546
330
1F
100
AcDbEntity
  8
SANINDUSA
100
AcDbLine
 10
3634.205783856117
 20
1716.743602061844
 30
0.0
 11
3634.205783856117
 21
1716.73555712376
 31
0.0
  0
LINE
  5
1547
330
1F
100
AcDbEntity
  8
SANINDUSA
100
AcDbLine
 10
3634.20778385611
 20
1716.73455712376
 30
0.0
 11
3634.20778385611
 21
1716.743602061844
 31
0.0
  0
LINE
  5
1548
330
1F
100
AcDbEntity
  8
SANINDUSA
100
AcDbLine
 10
3634.205783856117
 20
1716.73555712376
 30
0.0
 11
3634.201102017513
 21
1716.727754059419
 31
0.0
  0
LINE
  5
1549
330
1F
100
AcDbEntity
  8
SANINDUSA
100
AcDbLine
 10
3634.204789190976
 20
1716.727819127187
 30
0.0
 11
3634.20778385611
 21
1716.73455712376
 31
0.0
  0
LINE
  5
154A
330
1F
100
AcDbEntity
  8
SANINDUSA
100
AcDbLine
 10
3634.200806577523
 20
1716.743715181812
 30
0.0
 11
3634.205783856117
 21
1716.743602061844
 31
0.0
  0
LINE
  5
154B
330
1F
100
AcDbEntity
  8
SANINDUSA
100
AcDbLine
 10
3634.18778385612
 20
1716.741557123761
 30
0.0
 11
3634.18778385612
 21
1716.742988167251
 31
0.0
  0
LINE
  5
154C
330
1F
100
AcDbEntity
  8
SANINDUSA
100
AcDbLine
 10
3634.189783856113
 20
1716.742988167251
 30
0.0
 11
3634.189783856113
 21
1716.741557123761
 31
0.0
  0
LINE
  5
154D
330
1F
100
AcDbEntity
  8
SANINDUSA
100
AcDbLine
 10
3634.191783856121
 20
1716.741557123761
 30
0.0
 11
3634.191783856121
 21
1716.742897258158
 31
0.0
  0
LINE
  5
154E
330
1F
100
AcDbEntity
  8
SANINDUSA
100
AcDbLine
 10
3634.193783856114
 20
1716.742897258158
 30
0.0
 11
3634.193783856114
 21
1716.741557123761
 31
0.0
  0
LINE
  5
154F
330
1F
100
AcDbEntity
  8
SANINDUSA
100
AcDbLine
 10
3634.195783856114
 20
1716.741557123761
 30
0.0
 11
3634.195783856114
 21
1716.742806349069
 31
0.0
  0
LINE
  5
1550
330
1F
100
AcDbEntity
  8
SANINDUSA
100
AcDbLine
 10
3634.197783856122
 20
1716.742806349069
 30
0.0
 11
3634.197783856122
 21
1716.741557123761
 31
0.0
  0
LINE
  5
1551
330
1F
100
AcDbEntity
  8
SANINDUSA
100
AcDbLine
 10
3634.199783856115
 20
1716.741557123761
 30
0.0
 11
3634.199783856115
 21
1716.742715439977
 31
0.0
  0
ARC
  5
1552
330
1F
100
AcDbEntity
  8
SANINDUSA
100
AcDbCircle
 10
3634.188783856124
 20
1716.609126080271
 30
0.0
 40
0.0010000000000002
100
AcDbArc
 50
180.0
 51
0.0
  0
ARC
  5
1553
330
1F
100
AcDbEntity
  8
SANINDUSA
100
AcDbCircle
 10
3634.192783856118
 20
1716.609216989364
 30
0.0
 40
0.0010000000000002
100
AcDbArc
 50
180.0
 51
0.0
  0
ARC
  5
1554
330
1F
100
AcDbEntity
  8
SANINDUSA
100
AcDbCircle
 10
3634.196783856118
 20
1716.609307898452
 30
0.0
 40
0.0010000000000002
100
AcDbArc
 50
180.0
 51
0.0
  0
ARC
  5
1555
330
1F
100
AcDbEntity
  8
SANINDUSA
100
AcDbCircle
 10
3634.200783856119
 20
1716.609398807544
 30
0.0
 40
0.0010000000000002
100
AcDbArc
 50
180.0
 51
271.3019526524508
  0
ARC
  5
1556
330
1F
100
AcDbEntity
  8
SANINDUSA
100
AcDbCircle
 10
3634.196783856118
 20
1716.742806349069
 30
0.0
 40
0.0010000000000002
100
AcDbArc
 50
0.0
 51
180.0
  0
ARC
  5
1557
330
1F
100
AcDbEntity
  8
SANINDUSA
100
AcDbCircle
 10
3634.188783856124
 20
1716.742988167251
 30
0.0
 40
0.0010000000000002
100
AcDbArc
 50
0.0
 51
180.0
  0
LINE
  5
1558
330
1F
100
AcDbEntity
  8
SANINDUSA
100
AcDbLine
 10
3634.18778385612
 20
1716.742988167251
 30
0.0
 11
3634.18778385612
 21
1716.741557123761
 31
0.0
  0
ARC
  5
1559
330
1F
100
AcDbEntity
  8
SANINDUSA
100
AcDbCircle
 10
3634.192783856118
 20
1716.742897258158
 30
0.0
 40
0.0010000000000002
100
AcDbArc
 50
0.0
 51
180.0
  0
LINE
  5
155A
330
1F
100
AcDbEntity
  8
SANINDUSA
100
AcDbLine
 10
3634.189783856113
 20
1716.741557123761
 30
0.0
 11
3634.189783856113
 21
1716.742988167251
 31
0.0
  0
LINE
  5
155B
330
1F
100
AcDbEntity
  8
SANINDUSA
100
AcDbLine
 10
3634.191783856121
 20
1716.742897258158
 30
0.0
 11
3634.191783856121
 21
1716.741557123761
 31
0.0
  0
LINE
  5
155C
330
1F
100
AcDbEntity
  8
SANINDUSA
100
AcDbLine
 10
3634.193783856114
 20
1716.741557123761
 30
0.0
 11
3634.193783856114
 21
1716.742897258158
 31
0.0
  0
LINE
  5
155D
330
1F
100
AcDbEntity
  8
SANINDUSA
100
AcDbLine
 10
3634.195783856114
 20
1716.742806349069
 30
0.0
 11
3634.195783856114
 21
1716.741557123761
 31
0.0
  0
ARC
  5
155E
330
1F
100
AcDbEntity
  8
SANINDUSA
100
AcDbCircle
 10
3634.200783856119
 20
1716.742715439977
 30
0.0
 40
0.0010000000000002
100
AcDbArc
 50
88.6980473475492
 51
180.0
  0
LINE
  5
155F
330
1F
100
AcDbEntity
  8
SANINDUSA
100
AcDbLine
 10
3634.197783856122
 20
1716.741557123761
 30
0.0
 11
3634.197783856122
 21
1716.742806349069
 31
0.0
  0
LINE
  5
1560
330
1F
100
AcDbEntity
  8
SANINDUSA
100
AcDbLine
 10
3634.199783856115
 20
1716.742715439977
 30
0.0
 11
3634.199783856115
 21
1716.741557123761
 31
0.0
  0
ARC
  5
1561
330
1F
100
AcDbEntity
  8
SANINDUSA
100
AcDbCircle
 10
3634.205783856117
 20
1716.743602061844
 30
0.0
 40
0.002
100
AcDbArc
 50
0.0
 51
88.6980473475492
  0
ARC
  5
1562
330
1F
100
AcDbEntity
  8
SANINDUSA
100
AcDbCircle
 10
3634.205783856117
 20
1716.608512185677
 30
0.0
 40
0.002
100
AcDbArc
 50
271.3019526524508
 51
0.0
  0
ENDSEC
  0
SECTION
  2
OBJECTS
  0
DICTIONARY
  5
C
330
0
100
AcDbDictionary
281
     1
  3
ACAD_2007HEADERVARS_RT
350
162D
  3
ACAD_COLOR
350
EE6
  3
ACAD_GROUP
350
D
  3
ACAD_LAYOUT
350
1A
  3
ACAD_MATERIAL
350
EE5
  3
ACAD_MLEADERSTYLE
350
10A8
  3
ACAD_MLINESTYLE
350
17
  3
ACAD_PLOTSETTINGS
350
19
  3
ACAD_PLOTSTYLENAME
350
E
  3
ACAD_SCALELIST
350
1096
  3
ACAD_TABLESTYLE
350
EE7
  3
ACAD_VISUALSTYLE
350
1082
  3
ACDB_RECOMPOSE_DATA
350
162B
  3
AcDbVariableDictionary
350
3D
  3
AEC_PROPERTY_SET_DEFS
350
1107
  3
ASE_INDEX_DICTIONARY
350
1066
  3
Autodesk_PNP
350
10B2
  3
DWGPROPS
350
162C
  0
DICTIONARY
  5
15E7
330
8
100
AcDbDictionary
280
     1
281
     1
  0
DICTIONARY
  5
1051
330
2
100
AcDbDictionary
280
     1
281
     1
  3
ACAD_LAYERFILTERS
360
1065
  3
ACAD_LAYERSTATES
360
125F
  3
ACLYDICTIONARY
360
1064
  0
DICTIONARY
  5
1580
330
10
100
AcDbDictionary
280
     1
281
     1
  3
ADSK_XREC_LAYER_RECONCILED
360
1581
  0
DICTIONARY
  5
1582
330
2F
100
AcDbDictionary
280
     1
281
     1
  3
ADSK_XREC_LAYER_RECONCILED
360
1583
  0
DICTIONARY
  5
1584
330
30
100
AcDbDictionary
280
     1
281
     1
  3
ADSK_XREC_LAYER_RECONCILED
360
1585
  0
DICTIONARY
  5
1586
330
31
100
AcDbDictionary
280
     1
281
     1
  3
ADSK_XREC_LAYER_RECONCILED
360
1587
  0
DICTIONARY
  5
1588
330
32
100
AcDbDictionary
280
     1
281
     1
  3
ADSK_XREC_LAYER_RECONCILED
360
1589
  0
DICTIONARY
  5
158A
330
33
100
AcDbDictionary
280
     1
281
     1
  3
ADSK_XREC_LAYER_RECONCILED
360
158B
  0
DICTIONARY
  5
158C
330
34
100
AcDbDictionary
280
     1
281
     1
  3
ADSK_XREC_LAYER_RECONCILED
360
158D
  0
DICTIONARY
  5
158E
330
35
100
AcDbDictionary
280
     1
281
     1
  3
ADSK_XREC_LAYER_RECONCILED
360
158F
  0
DICTIONARY
  5
1590
330
36
100
AcDbDictionary
280
     1
281
     1
  3
ADSK_XREC_LAYER_RECONCILED
360
1591
  0
DICTIONARY
  5
1592
330
37
100
AcDbDictionary
280
     1
281
     1
  3
ADSK_XREC_LAYER_RECONCILED
360
1593
  0
DICTIONARY
  5
1594
330
5D6
100
AcDbDictionary
280
     1
281
     1
  3
ADSK_XREC_LAYER_RECONCILED
360
1595
  0
DICTIONARY
  5
1596
330
8AF
100
AcDbDictionary
280
     1
281
     1
  3
ADSK_XREC_LAYER_RECONCILED
360
1597
  0
DICTIONARY
  5
1598
330
8F8
100
AcDbDictionary
280
     1
281
     1
  3
ADSK_XREC_LAYER_RECONCILED
360
1599
  0
DICTIONARY
  5
159A
330
91D
100
AcDbDictionary
280
     1
281
     1
  3
ADSK_XREC_LAYER_RECONCILED
360
159B
  0
DICTIONARY
  5
159C
330
C7B
100
AcDbDictionary
280
     1
281
     1
  3
ADSK_XREC_LAYER_RECONCILED
360
159D
  0
DICTIONARY
  5
159E
330
1060
100
AcDbDictionary
280
     1
281
     1
  3
ADSK_XREC_LAYER_RECONCILED
360
159F
  0
DICTIONARY
  5
10B4
330
10B3
100
AcDbDictionary
280
     1
281
     1
  3
ADSK_XREC_LAYER_RECONCILED
360
15A0
  0
DICTIONARY
  5
1103
330
10BC
100
AcDbDictionary
280
     1
281
     1
  3
ACAD_SORTENTS
360
1104
  0
DICTIONARY
  5
1129
330
110E
100
AcDbDictionary
280
     1
281
     1
  3
ACAD_SORTENTS
360
112A
  0
DICTIONARY
  5
1200
330
112F
100
AcDbDictionary
280
     1
281
     1
  3
ACAD_SORTENTS
360
1201
  0
DICTIONARY
  5
1234
330
1205
100
AcDbDictionary
280
     1
281
     1
  3
ACAD_SORTENTS
360
1235
  0
DICTIONARY
  5
125A
330
1239
100
AcDbDictionary
280
     1
281
     1
  3
ACAD_SORTENTS
360
125B
  0
DICTIONARY
  5
162D
102
{ACAD_REACTORS
330
C
102
}
330
C
100
AcDbDictionary
281
     1
  3
DIMJOGANG
350
162E
  0
DICTIONARY
  5
EE6
102
{ACAD_REACTORS
330
C
102
}
330
C
100
AcDbDictionary
281
     1
  0
DICTIONARY
  5
D
102
{ACAD_REACTORS
330
C
102
}
330
C
100
AcDbDictionary
281
     1
  0
DICTIONARY
  5
1A
102
{ACAD_REACTORS
330
C
102
}
330
C
100
AcDbDictionary
281
     1
  3
Layout1
350
1E
  3
Layout2
350
26
  3
Model
350
22
  0
DICTIONARY
  5
EE5
102
{ACAD_REACTORS
330
C
102
}
330
C
100
AcDbDictionary
281
     1
  3
ByBlock
350
1072
  3
ByLayer
350
106A
  3
Global
350
107A
  0
DICTIONARY
  5
10A8
102
{ACAD_REACTORS
330
C
102
}
330
C
100
AcDbDictionary
281
     1
  3
Standard
350
10A9
  0
DICTIONARY
  5
17
102
{ACAD_REACTORS
330
C
102
}
330
C
100
AcDbDictionary
281
     1
  3
Standard
350
18
  0
DICTIONARY
  5
19
102
{ACAD_REACTORS
330
C
102
}
330
C
100
AcDbDictionary
281
     1
  0
ACDBDICTIONARYWDFLT
  5
E
102
{ACAD_REACTORS
330
C
102
}
330
C
100
AcDbDictionary
281
     1
  3
Normal
350
F
100
AcDbDictionaryWithDefault
340
F
  0
DICTIONARY
  5
1096
102
{ACAD_REACTORS
330
C
102
}
330
C
100
AcDbDictionary
281
     1
  3
A0
350
1097
  3
A1
350
1098
  3
A2
350
1099
  3
A3
350
109A
  3
A4
350
109B
  3
A5
350
109C
  3
A6
350
109D
  3
A7
350
109E
  3
A8
350
109F
  3
A9
350
10A0
  3
B0
350
10A1
  3
B1
350
10A2
  3
B2
350
10A3
  3
B3
350
10A4
  3
B4
350
10A5
  3
B5
350
10A6
  3
B6
350
10A7
  0
DICTIONARY
  5
EE7
102
{ACAD_REACTORS
330
C
102
}
330
C
100
AcDbDictionary
281
     1
  3
Legend
350
10BA
  3
Standard
350
EE8
  0
DICTIONARY
  5
1082
102
{ACAD_REACTORS
330
C
102
}
330
C
100
AcDbDictionary
281
     1
  3
2dWireframe
350
1088
  3
3D Hidden
350
108A
  3
3dWireframe
350
1089
  3
Basic
350
1087
  3
Brighten
350
108E
  3
ColorChange
350
1092
  3
Conceptual
350
108B
  3
Dim
350
108D
  3
EdgeColorOff
350
1095
  3
Facepattern
350
1091
  3
Flat
350
1083
  3
FlatWithEdges
350
1084
  3
Gouraud
350
1085
  3
GouraudWithEdges
350
1086
  3
JitterOff
350
1093
  3
Linepattern
350
1090
  3
OverhangOff
350
1094
  3
Realistic
350
108C
  3
Thicken
350
108F
  0
XRECORD
  5
162B
102
{ACAD_REACTORS
330
C
102
}
330
C
100
AcDbXrecord
280
     1
 90
        1
330
EE8
330
10BA
  0
DICTIONARY
  5
3D
102
{ACAD_REACTORS
330
C
102
}
330
C
100
AcDbDictionary
281
     1
  3
CANNOSCALE
350
161B
  3
CMLEADERSTYLE
350
161A
  3
CTABLESTYLE
350
1049
  3
DIMASSOC
350
3F
  3
HIDETEXT
350
3E
  3
INDEXCTL
350
161D
  3
SORTENTS
350
161C
  3
XCLIPFRAME
350
1628
  0
DICTIONARY
  5
1107
102
{ACAD_REACTORS
330
C
102
}
330
C
100
AcDbDictionary
281
     1
  0
DICTIONARY
  5
1066
102
{ACAD_REACTORS
330
C
102
}
330
C
100
AcDbDictionary
281
     1
  3
ASEBlockHierarchyIndexRecord
350
1067
1001
DCO15
1040
1602247867.484
  0
DICTIONARY
  5
10B2
102
{ACAD_REACTORS
330
C
102
}
330
C
100
AcDbDictionary
281
     1
  0
XRECORD
  5
162C
102
{ACAD_REACTORS
330
C
102
}
330
C
100
AcDbXrecord
280
     1
  1
DWGPROPS COOKIE
  2

  3

  4

  6

  7

  8
Julio
  9

300
=
301
=
302
=
303
=
304
=
305
=
306
=
307
=
308
=
309
=
 40
0.0049981828703704
 41
2455016.694043148
 42
2456146.436920382
  1

 90
        0
  0
DICTIONARY
  5
1065
102
{ACAD_REACTORS
330
1051
102
}
330
1051
100
AcDbDictionary
281
     1
  0
DICTIONARY
  5
125F
102
{ACAD_REACTORS
330
1051
102
}
330
1051
100
AcDbDictionary
281
     1
  0
DICTIONARY
  5
1064
102
{ACAD_REACTORS
330
1051
102
}
330
1051
100
AcDbDictionary
281
     1
1001
ACAD
1000
<All
  0
XRECORD
  5
1581
102
{ACAD_REACTORS
330
1580
102
}
330
1580
100
AcDbXrecord
280
     1
290
     1
  0
XRECORD
  5
1583
102
{ACAD_REACTORS
330
1582
102
}
330
1582
100
AcDbXrecord
280
     1
290
     1
  0
XRECORD
  5
1585
102
{ACAD_REACTORS
330
1584
102
}
330
1584
100
AcDbXrecord
280
     1
290
     1
  0
XRECORD
  5
1587
102
{ACAD_REACTORS
330
1586
102
}
330
1586
100
AcDbXrecord
280
     1
290
     1
  0
XRECORD
  5
1589
102
{ACAD_REACTORS
330
1588
102
}
330
1588
100
AcDbXrecord
280
     1
290
     1
  0
XRECORD
  5
158B
102
{ACAD_REACTORS
330
158A
102
}
330
158A
100
AcDbXrecord
280
     1
290
     1
  0
XRECORD
  5
158D
102
{ACAD_REACTORS
330
158C
102
}
330
158C
100
AcDbXrecord
280
     1
290
     1
  0
XRECORD
  5
158F
102
{ACAD_REACTORS
330
158E
102
}
330
158E
100
AcDbXrecord
280
     1
290
     1
  0
XRECORD
  5
1591
102
{ACAD_REACTORS
330
1590
102
}
330
1590
100
AcDbXrecord
280
     1
290
     1
  0
XRECORD
  5
1593
102
{ACAD_REACTORS
330
1592
102
}
330
1592
100
AcDbXrecord
280
     1
290
     1
  0
XRECORD
  5
1595
102
{ACAD_REACTORS
330
1594
102
}
330
1594
100
AcDbXrecord
280
     1
290
     1
  0
XRECORD
  5
1597
102
{ACAD_REACTORS
330
1596
102
}
330
1596
100
AcDbXrecord
280
     1
290
     1
  0
XRECORD
  5
1599
102
{ACAD_REACTORS
330
1598
102
}
330
1598
100
AcDbXrecord
280
     1
290
     1
  0
XRECORD
  5
159B
102
{ACAD_REACTORS
330
159A
102
}
330
159A
100
AcDbXrecord
280
     1
290
     1
  0
XRECORD
  5
159D
102
{ACAD_REACTORS
330
159C
102
}
330
159C
100
AcDbXrecord
280
     1
290
     1
  0
XRECORD
  5
159F
102
{ACAD_REACTORS
330
159E
102
}
330
159E
100
AcDbXrecord
280
     1
290
     1
  0
XRECORD
  5
15A0
102
{ACAD_REACTORS
330
10B4
102
}
330
10B4
100
AcDbXrecord
280
     1
290
     1
  0
SORTENTSTABLE
  5
1104
102
{ACAD_REACTORS
330
1103
102
}
330
1103
100
AcDbSortentsTable
330
10BC
  0
SORTENTSTABLE
  5
112A
102
{ACAD_REACTORS
330
1129
102
}
330
1129
100
AcDbSortentsTable
330
110E
  0
SORTENTSTABLE
  5
1201
102
{ACAD_REACTORS
330
1200
102
}
330
1200
100
AcDbSortentsTable
330
112F
  0
SORTENTSTABLE
  5
1235
102
{ACAD_REACTORS
330
1234
102
}
330
1234
100
AcDbSortentsTable
330
1205
  0
SORTENTSTABLE
  5
125B
102
{ACAD_REACTORS
330
125A
102
}
330
125A
100
AcDbSortentsTable
330
1239
  0
XRECORD
  5
162E
102
{ACAD_REACTORS
330
162D
102
}
330
162D
100
AcDbXrecord
280
     1
 40
1.570796326794896
  0
LAYOUT
  5
1E
102
{ACAD_XDICTIONARY
360
162F
102
}
102
{ACAD_REACTORS
330
1A
102
}
330
1A
100
AcDbPlotSettings
  1

  2
Ploter HP500
  4

  6

 40
0.0
 41
0.0
 42
0.0
 43
0.0
 44
0.0
 45
0.0
 46
0.0
 47
0.0
 48
0.0
 49
0.0
140
0.0
141
0.0
142
1.0
143
1.0
 70
   688
 72
     0
 73
     0
 74
     5
  7
sanindusa.ctb
 75
    16
147
1.0
148
0.0
149
0.0
100
AcDbLayout
  1
Layout1
 70
     1
 71
     1
 10
0.0
 20
0.0
 11
420.0
 21
297.0
 12
0.0
 22
0.0
 32
0.0
 14
1.000000000000000E+20
 24
1.000000000000000E+20
 34
1.000000000000000E+20
 15
-1.000000000000000E+20
 25
-1.000000000000000E+20
 35
-1.000000000000000E+20
146
0.0
 13
0.0
 23
0.0
 33
0.0
 16
1.0
 26
0.0
 36
0.0
 17
0.0
 27
1.0
 37
0.0
 76
     0
330
1B
  0
LAYOUT
  5
26
102
{ACAD_XDICTIONARY
360
1633
102
}
102
{ACAD_REACTORS
330
1A
102
}
330
1A
100
AcDbPlotSettings
  1

  2
Ploter HP500
  4

  6

 40
0.0
 41
0.0
 42
0.0
 43
0.0
 44
0.0
 45
0.0
 46
0.0
 47
0.0
 48
0.0
 49
0.0
140
0.0
141
0.0
142
1.0
143
1.0
 70
   688
 72
     0
 73
     0
 74
     5
  7
sanindusa.ctb
 75
    16
147
1.0
148
0.0
149
0.0
100
AcDbLayout
  1
Layout2
 70
     1
 71
     2
 10
0.0
 20
0.0
 11
12.0
 21
9.0
 12
0.0
 22
0.0
 32
0.0
 14
0.0
 24
0.0
 34
0.0
 15
0.0
 25
0.0
 35
0.0
146
0.0
 13
0.0
 23
0.0
 33
0.0
 16
1.0
 26
0.0
 36
0.0
 17
0.0
 27
1.0
 37
0.0
 76
     0
330
23
  0
LAYOUT
  5
22
102
{ACAD_XDICTIONARY
360
1631
102
}
102
{ACAD_REACTORS
330
1A
102
}
330
1A
100
AcDbPlotSettings
  1

  2
Ploter HP500
  4
User268
  6

 40
4.995333194732666
 41
16.97565841674804
 42
4.995330810546875
 43
16.97567749023437
 44
209.9733276367187
 45
296.9259948730469
 46
0.0
 47
0.0
 48
0.0
 49
0.0
140
0.0
141
0.0
142
1.0
143
1.0
 70
 11952
 72
     1
 73
     1
 74
     0
  7
sanindusa.ctb
 75
     0
147
1.0
148
-427.5957866592534
149
7.362384574453926
100
AcDbLayout
  1
Model
 70
     1
 71
     0
 10
0.0
 20
0.0
 11
12.0
 21
9.0
 12
0.0
 22
0.0
 32
0.0
 14
0.0
 24
0.0
 34
0.0
 15
0.0
 25
0.0
 35
0.0
146
0.0
 13
0.0
 23
0.0
 33
0.0
 16
1.0
 26
0.0
 36
0.0
 17
0.0
 27
1.0
 37
0.0
 76
     0
330
1F
331
1068
  0
MATERIAL
  5
1072
102
{ACAD_XDICTIONARY
360
1073
102
}
102
{ACAD_REACTORS
330
EE5
102
}
330
EE5
100
AcDbMaterial
  1
ByBlock
 72
     0
 43
0.0008202099737533
 43
0.0
 43
0.0
 43
0.0
 43
0.0
 43
0.0008202099737533
 43
0.0
 43
0.0
 43
0.0
 43
0.0
 43
1.0
 43
0.0
 43
0.0
 43
0.0
 43
0.0
 43
1.0
 77
     0
 47
0.0008202099737533
 47
0.0
 47
0.0
 47
0.0
 47
0.0
 47
0.0008202099737533
 47
0.0
 47
0.0
 47
0.0
 47
0.0
 47
1.0
 47
0.0
 47
0.0
 47
0.0
 47
0.0
 47
1.0
171
     0
 49
0.0008202099737533
 49
0.0
 49
0.0
 49
0.0
 49
0.0
 49
0.0008202099737533
 49
0.0
 49
0.0
 49
0.0
 49
0.0
 49
1.0
 49
0.0
 49
0.0
 49
0.0
 49
0.0
 49
1.0
175
     0
142
0.0008202099737533
142
0.0
142
0.0
142
0.0
142
0.0
142
0.0008202099737533
142
0.0
142
0.0
142
0.0
142
0.0
142
1.0
142
0.0
142
0.0
142
0.0
142
0.0
142
1.0
179
     0
144
0.0008202099737533
144
0.0
144
0.0
144
0.0
144
0.0
144
0.0008202099737533
144
0.0
144
0.0
144
0.0
144
0.0
144
1.0
144
0.0
144
0.0
144
0.0
144
0.0
144
1.0
147
0.0008202099737533
147
0.0
147
0.0
147
0.0
147
0.0
147
0.0008202099737533
147
0.0
147
0.0
147
0.0
147
0.0
147
1.0
147
0.0
147
0.0
147
0.0
147
0.0
147
1.0
  0
MATERIAL
  5
106A
102
{ACAD_XDICTIONARY
360
106B
102
}
102
{ACAD_REACTORS
330
EE5
102
}
330
EE5
100
AcDbMaterial
  1
ByLayer
 72
     0
 43
0.0008202099737533
 43
0.0
 43
0.0
 43
0.0
 43
0.0
 43
0.0008202099737533
 43
0.0
 43
0.0
 43
0.0
 43
0.0
 43
1.0
 43
0.0
 43
0.0
 43
0.0
 43
0.0
 43
1.0
 77
     0
 47
0.0008202099737533
 47
0.0
 47
0.0
 47
0.0
 47
0.0
 47
0.0008202099737533
 47
0.0
 47
0.0
 47
0.0
 47
0.0
 47
1.0
 47
0.0
 47
0.0
 47
0.0
 47
0.0
 47
1.0
171
     0
 49
0.0008202099737533
 49
0.0
 49
0.0
 49
0.0
 49
0.0
 49
0.0008202099737533
 49
0.0
 49
0.0
 49
0.0
 49
0.0
 49
1.0
 49
0.0
 49
0.0
 49
0.0
 49
0.0
 49
1.0
175
     0
142
0.0008202099737533
142
0.0
142
0.0
142
0.0
142
0.0
142
0.0008202099737533
142
0.0
142
0.0
142
0.0
142
0.0
142
1.0
142
0.0
142
0.0
142
0.0
142
0.0
142
1.0
179
     0
144
0.0008202099737533
144
0.0
144
0.0
144
0.0
144
0.0
144
0.0008202099737533
144
0.0
144
0.0
144
0.0
144
0.0
144
1.0
144
0.0
144
0.0
144
0.0
144
0.0
144
1.0
147
0.0008202099737533
147
0.0
147
0.0
147
0.0
147
0.0
147
0.0008202099737533
147
0.0
147
0.0
147
0.0
147
0.0
147
1.0
147
0.0
147
0.0
147
0.0
147
0.0
147
1.0
  0
MATERIAL
  5
107A
102
{ACAD_XDICTIONARY
360
107B
102
}
102
{ACAD_REACTORS
330
EE5
102
}
330
EE5
100
AcDbMaterial
  1
Global
 72
     0
 43
0.0008202099737533
 43
0.0
 43
0.0
 43
0.0
 43
0.0
 43
0.0008202099737533
 43
0.0
 43
0.0
 43
0.0
 43
0.0
 43
1.0
 43
0.0
 43
0.0
 43
0.0
 43
0.0
 43
1.0
 77
     0
 47
0.0008202099737533
 47
0.0
 47
0.0
 47
0.0
 47
0.0
 47
0.0008202099737533
 47
0.0
 47
0.0
 47
0.0
 47
0.0
 47
1.0
 47
0.0
 47
0.0
 47
0.0
 47
0.0
 47
1.0
171
     0
 49
0.0008202099737533
 49
0.0
 49
0.0
 49
0.0
 49
0.0
 49
0.0008202099737533
 49
0.0
 49
0.0
 49
0.0
 49
0.0
 49
1.0
 49
0.0
 49
0.0
 49
0.0
 49
0.0
 49
1.0
175
     0
142
0.0008202099737533
142
0.0
142
0.0
142
0.0
142
0.0
142
0.0008202099737533
142
0.0
142
0.0
142
0.0
142
0.0
142
1.0
142
0.0
142
0.0
142
0.0
142
0.0
142
1.0
179
     0
144
0.0008202099737533
144
0.0
144
0.0
144
0.0
144
0.0
144
0.0008202099737533
144
0.0
144
0.0
144
0.0
144
0.0
144
1.0
144
0.0
144
0.0
144
0.0
144
0.0
144
1.0
147
0.0008202099737533
147
0.0
147
0.0
147
0.0
147
0.0
147
0.0008202099737533
147
0.0
147
0.0
147
0.0
147
0.0
147
1.0
147
0.0
147
0.0
147
0.0
147
0.0
147
1.0
  0
MLEADERSTYLE
  5
10A9
102
{ACAD_REACTORS
330
10A8
102
}
330
10A8
100
AcDbMLeaderStyle
170
     2
171
     1
172
     0
 90
        2
 40
0.0
 41
0.0
173
     1
 91
-1056964608
340
14
 92
       -2
290
     1
 42
2.0
291
     1
 43
0.36
  3
Standard
 44
4.0
300

342
11
174
     1
178
     6
175
     1
176
     0
 93
-1056964608
 45
4.0
292
     0
297
     0
 46
4.0
 94
-1056964608
 47
1.0
 49
1.0
140
1.0
293
     1
141
0.0
294
     1
177
     0
142
1.0
295
     0
296
     0
143
0.125
1001
ACAD_MLEADERVER
1070
     2
  0
MLINESTYLE
  5
18
102
{ACAD_REACTORS
330
17
102
}
330
17
100
AcDbMlineStyle
  2
STANDARD
 70
     0
  3

 62
   256
 51
90.0
 52
90.0
 71
     2
 49
0.5
 62
   256
  6
BYLAYER
 49
-0.5
 62
   256
  6
BYLAYER
  0
ACDBPLACEHOLDER
  5
F
102
{ACAD_REACTORS
330
E
102
}
330
E
  0
SCALE
  5
1097
102
{ACAD_REACTORS
330
1096
102
}
330
1096
100
AcDbScale
 70
     0
300
1:1
140
1.0
141
1.0
290
     1
  0
SCALE
  5
1098
102
{ACAD_REACTORS
330
1096
102
}
330
1096
100
AcDbScale
 70
     0
300
1:2
140
1.0
141
2.0
290
     0
  0
SCALE
  5
1099
102
{ACAD_REACTORS
330
1096
102
}
330
1096
100
AcDbScale
 70
     0
300
1:4
140
1.0
141
4.0
290
     0
  0
SCALE
  5
109A
102
{ACAD_REACTORS
330
1096
102
}
330
1096
100
AcDbScale
 70
     0
300
1:5
140
1.0
141
5.0
290
     0
  0
SCALE
  5
109B
102
{ACAD_REACTORS
330
1096
102
}
330
1096
100
AcDbScale
 70
     0
300
1:8
140
1.0
141
8.0
290
     0
  0
SCALE
  5
109C
102
{ACAD_REACTORS
330
1096
102
}
330
1096
100
AcDbScale
 70
     0
300
1:10
140
1.0
141
10.0
290
     0
  0
SCALE
  5
109D
102
{ACAD_REACTORS
330
1096
102
}
330
1096
100
AcDbScale
 70
     0
300
1:16
140
1.0
141
16.0
290
     0
  0
SCALE
  5
109E
102
{ACAD_REACTORS
330
1096
102
}
330
1096
100
AcDbScale
 70
     0
300
1:20
140
1.0
141
20.0
290
     0
  0
SCALE
  5
109F
102
{ACAD_REACTORS
330
1096
102
}
330
1096
100
AcDbScale
 70
     0
300
1:30
140
1.0
141
30.0
290
     0
  0
SCALE
  5
10A0
102
{ACAD_REACTORS
330
1096
102
}
330
1096
100
AcDbScale
 70
     0
300
1:40
140
1.0
141
40.0
290
     0
  0
SCALE
  5
10A1
102
{ACAD_REACTORS
330
1096
102
}
330
1096
100
AcDbScale
 70
     0
300
1:50
140
1.0
141
50.0
290
     0
  0
SCALE
  5
10A2
102
{ACAD_REACTORS
330
1096
102
}
330
1096
100
AcDbScale
 70
     0
300
1:100
140
1.0
141
100.0
290
     0
  0
SCALE
  5
10A3
102
{ACAD_REACTORS
330
1096
102
}
330
1096
100
AcDbScale
 70
     0
300
2:1
140
2.0
141
1.0
290
     0
  0
SCALE
  5
10A4
102
{ACAD_REACTORS
330
1096
102
}
330
1096
100
AcDbScale
 70
     0
300
4:1
140
4.0
141
1.0
290
     0
  0
SCALE
  5
10A5
102
{ACAD_REACTORS
330
1096
102
}
330
1096
100
AcDbScale
 70
     0
300
8:1
140
8.0
141
1.0
290
     0
  0
SCALE
  5
10A6
102
{ACAD_REACTORS
330
1096
102
}
330
1096
100
AcDbScale
 70
     0
300
10:1
140
10.0
141
1.0
290
     0
  0
SCALE
  5
10A7
102
{ACAD_REACTORS
330
1096
102
}
330
1096
100
AcDbScale
 70
     0
300
100:1
140
100.0
141
1.0
290
     0
  0
TABLESTYLE
  5
10BA
102
{ACAD_XDICTIONARY
360
10BB
102
}
102
{ACAD_REACTORS
330
EE7
102
}
330
EE7
100
AcDbTableStyle
  3

 70
     0
 71
     3
 40
0.06
 41
0.06
280
     0
281
     0
  7
Legend
140
0.4
170
     4
 62
     0
 63
     7
283
     0
274
    -2
284
     0
 64
     0
275
    -2
285
     0
 65
     0
276
    -2
286
     0
 66
     0
277
    -2
287
     0
 67
     0
278
    -2
288
     0
 68
     0
279
    -2
289
     0
 69
     0
  7
Legend
140
0.5
170
     5
 62
     0
 63
     7
283
     0
274
    -2
284
     0
 64
     0
275
    -2
285
     0
 65
     0
276
    -2
286
     0
 66
     0
277
    -2
287
     0
 67
     0
278
    -2
288
     0
 68
     0
279
    -2
289
     0
 69
     0
  7
Legend
140
0.4
170
     4
 62
     0
 63
     7
283
     0
274
    -2
284
     0
 64
     0
275
    -2
285
     0
 65
     0
276
    -2
286
     0
 66
     0
277
    -2
287
     0
 67
     0
278
    -2
288
     0
 68
     0
279
    -2
289
     0
 69
     0
  0
TABLESTYLE
  5
EE8
102
{ACAD_XDICTIONARY
360
15E0
102
}
102
{ACAD_REACTORS
330
EE7
102
}
330
EE7
100
AcDbTableStyle
  3
Standard
 70
     0
 71
     0
 40
1.5
 41
1.5
280
     0
281
     0
  7
Standard
140
4.5
170
     2
 62
     0
 63
     7
283
     0
274
    -2
284
     1
 64
     0
275
    -2
285
     1
 65
     0
276
    -2
286
     1
 66
     0
277
    -2
287
     1
 67
     0
278
    -2
288
     1
 68
     0
279
    -2
289
     1
 69
     0
  7
Standard
140
6.0
170
     5
 62
     0
 63
     7
283
     0
274
    -2
284
     1
 64
     0
275
    -2
285
     1
 65
     0
276
    -2
286
     1
 66
     0
277
    -2
287
     1
 67
     0
278
    -2
288
     1
 68
     0
279
    -2
289
     1
 69
     0
  7
Standard
140
4.5
170
     5
 62
     0
 63
     7
283
     0
274
    -2
284
     1
 64
     0
275
    -2
285
     1
 65
     0
276
    -2
286
     1
 66
     0
277
    -2
287
     1
 67
     0
278
    -2
288
     1
 68
     0
279
    -2
289
     1
 69
     0
  0
VISUALSTYLE
  5
1088
102
{ACAD_XDICTIONARY
360
1643
102
}
102
{ACAD_REACTORS
330
1082
102
}
330
1082
100
AcDbVisualStyle
  2
2dWireframe
 70
     4
 71
     0
 72
     2
 73
     0
 90
        0
 40
-0.6
 41
-30.0
 62
     5
 63
     7
 74
     1
 91
        4
 64
     7
 65
   257
 75
     1
175
     1
 42
1.0
 92
        0
 66
   257
 43
1.0
 76
     1
 77
     6
 78
     2
 67
     7
 79
     5
170
     0
171
     0
290
     0
174
     0
 93
        1
 44
0.0
173
     0
291
     0
 45
0.0
1001
ACAD
1000
AcDbSavedByObjectVersion
1070
     0
  0
VISUALSTYLE
  5
108A
102
{ACAD_XDICTIONARY
360
1647
102
}
102
{ACAD_REACTORS
330
1082
102
}
330
1082
100
AcDbVisualStyle
  2
3D Hidden
 70
     6
 71
     1
 72
     2
 73
     2
 90
        0
 40
-0.6
 41
-30.0
 62
     5
 63
     7
 74
     2
 91
        2
 64
     7
 65
   257
 75
     2
175
     1
 42
179.0
 92
        0
 66
   257
 43
1.0
 76
     1
 77
     6
 78
     2
 67
     7
 79
     3
170
     0
171
     0
290
     0
174
     0
 93
        1
 44
0.0
173
     0
291
     0
 45
0.0
1001
ACAD
1000
AcDbSavedByObjectVersion
1070
     0
  0
VISUALSTYLE
  5
1089
102
{ACAD_XDICTIONARY
360
1645
102
}
102
{ACAD_REACTORS
330
1082
102
}
330
1082
100
AcDbVisualStyle
  2
3dWireframe
 70
     5
 71
     0
 72
     2
 73
     0
 90
        0
 40
-0.6
 41
-30.0
 62
     5
 63
     7
 74
     1
 91
        4
 64
     7
 65
   257
 75
     1
175
     1
 42
1.0
 92
        0
 66
   257
 43
1.0
 76
     1
 77
     6
 78
     2
 67
     7
 79
     5
170
     0
171
     0
290
     0
174
     0
 93
        1
 44
0.0
173
     0
291
     0
 45
0.0
1001
ACAD
1000
AcDbSavedByObjectVersion
1070
     0
  0
VISUALSTYLE
  5
1087
102
{ACAD_XDICTIONARY
360
1641
102
}
102
{ACAD_REACTORS
330
1082
102
}
330
1082
100
AcDbVisualStyle
  2
Basic
 70
     7
 71
     1
 72
     0
 73
     1
 90
        0
 40
-0.6
 41
-30.0
 62
     5
 63
     7
 74
     0
 91
        4
 64
     7
 65
   257
 75
     1
175
     1
 42
1.0
 92
        8
 66
     7
 43
1.0
 76
     1
 77
     6
 78
     2
 67
     7
 79
     5
170
     0
171
     0
290
     0
174
     0
 93
        1
 44
0.0
173
     0
291
     1
 45
0.0
1001
ACAD
1000
AcDbSavedByObjectVersion
1070
     0
  0
VISUALSTYLE
  5
108E
102
{ACAD_XDICTIONARY
360
164F
102
}
102
{ACAD_REACTORS
330
1082
102
}
330
1082
100
AcDbVisualStyle
  2
Brighten
 70
    12
 71
     2
 72
     2
 73
     0
 90
        0
 40
-0.6
 41
-30.0
 62
     5
 63
     7
 74
     1
 91
        4
 64
     7
 65
   257
 75
     1
175
     1
 42
1.0
 92
        8
 66
     7
 43
1.0
 76
     1
 77
     6
 78
     2
 67
     7
 79
     5
170
     0
171
     0
290
     0
174
     0
 93
        1
 44
50.0
173
     0
291
     1
 45
0.0
1001
ACAD
1000
AcDbSavedByObjectVersion
1070
     0
  0
VISUALSTYLE
  5
1092
102
{ACAD_XDICTIONARY
360
1657
102
}
102
{ACAD_REACTORS
330
1082
102
}
330
1082
100
AcDbVisualStyle
  2
ColorChange
 70
    16
 71
     2
 72
     2
 73
     3
 90
        0
 40
-0.6
 41
-30.0
 62
     5
 63
     8
 74
     1
 91
        4
 64
     7
 65
   257
 75
     1
175
     1
 42
1.0
 92
        8
 66
     8
 43
1.0
 76
     1
 77
     6
 78
     2
 67
     7
 79
     5
170
     0
171
     0
290
     0
174
     0
 93
        1
 44
0.0
173
     0
291
     1
 45
0.0
1001
ACAD
1000
AcDbSavedByObjectVersion
1070
     0
  0
VISUALSTYLE
  5
108B
102
{ACAD_XDICTIONARY
360
1649
102
}
102
{ACAD_REACTORS
330
1082
102
}
330
1082
100
AcDbVisualStyle
  2
Conceptual
 70
     9
 71
     3
 72
     2
 73
     0
 90
        0
 40
-0.6
 41
-30.0
 62
     5
 63
     7
 74
     2
 91
        2
 64
     7
 65
   257
 75
     1
175
     1
 42
179.0
 92
        8
 66
     7
 43
1.0
 76
     1
 77
     6
 78
     2
 67
     7
 79
     3
170
     0
171
     0
290
     0
174
     0
 93
        1
 44
0.0
173
     0
291
     0
 45
0.0
1001
ACAD
1000
AcDbSavedByObjectVersion
1070
     0
  0
VISUALSTYLE
  5
108D
102
{ACAD_XDICTIONARY
360
164D
102
}
102
{ACAD_REACTORS
330
1082
102
}
330
1082
100
AcDbVisualStyle
  2
Dim
 70
    11
 71
     2
 72
     2
 73
     0
 90
        0
 40
-0.6
 41
-30.0
 62
     5
 63
     7
 74
     1
 91
        4
 64
     7
 65
   257
 75
     1
175
     1
 42
1.0
 92
        8
 66
     7
 43
1.0
 76
     1
 77
     6
 78
     2
 67
     7
 79
     5
170
     0
171
     0
290
     0
174
     0
 93
        1
 44
-50.0
173
     0
291
     1
 45
0.0
1001
ACAD
1000
AcDbSavedByObjectVersion
1070
     0
  0
VISUALSTYLE
  5
1095
102
{ACAD_XDICTIONARY
360
165D
102
}
102
{ACAD_REACTORS
330
1082
102
}
330
1082
100
AcDbVisualStyle
  2
EdgeColorOff
 70
    22
 71
     2
 72
     2
 73
     0
 90
        0
 40
-0.6
 41
-30.0
 62
     5
 63
     7
 74
     1
 91
        4
 64
     7
 65
   257
 75
     1
175
     1
 42
1.0
 92
        8
 66
     7
 43
1.0
 76
     1
 77
     6
 78
     2
 67
     7
 79
     5
170
     0
171
     0
290
     0
174
     0
 93
        1
 44
0.0
173
     0
291
     1
 45
0.0
1001
ACAD
1000
AcDbSavedByObjectVersion
1070
     0
  0
VISUALSTYLE
  5
1091
102
{ACAD_XDICTIONARY
360
1655
102
}
102
{ACAD_REACTORS
330
1082
102
}
330
1082
100
AcDbVisualStyle
  2
Facepattern
 70
    15
 71
     2
 72
     2
 73
     0
 90
        0
 40
-0.6
 41
-30.0
 62
     5
 63
     7
 74
     1
 91
        4
 64
     7
 65
   257
 75
     1
175
     1
 42
1.0
 92
        8
 66
     7
 43
1.0
 76
     1
 77
     6
 78
     2
 67
     7
 79
     5
170
     0
171
     0
290
     0
174
     0
 93
        1
 44
0.0
173
     0
291
     1
 45
0.0
1001
ACAD
1000
AcDbSavedByObjectVersion
1070
     0
  0
VISUALSTYLE
  5
1083
102
{ACAD_XDICTIONARY
360
1639
102
}
102
{ACAD_REACTORS
330
1082
102
}
330
1082
100
AcDbVisualStyle
  2
Flat
 70
     0
 71
     2
 72
     1
 73
     1
 90
        2
 40
-0.6
 41
30.0
 62
     5
 63
     7
 74
     0
 91
        4
 64
     7
 65
   257
 75
     1
175
     1
 42
1.0
 92
        8
 66
     7
 43
1.0
 76
     1
 77
     6
 78
     2
 67
     7
 79
     5
170
     0
171
     0
290
     0
174
     0
 93
       13
 44
0.0
173
     0
291
     1
 45
0.0
1001
ACAD
1000
AcDbSavedByObjectVersion
1070
     0
  0
VISUALSTYLE
  5
1084
102
{ACAD_XDICTIONARY
360
163B
102
}
102
{ACAD_REACTORS
330
1082
102
}
330
1082
100
AcDbVisualStyle
  2
FlatWithEdges
 70
     1
 71
     2
 72
     1
 73
     1
 90
        2
 40
-0.6
 41
30.0
 62
     5
 63
     7
 74
     1
 91
        4
 64
     7
 65
   257
 75
     1
175
     1
 42
1.0
 92
        0
 66
   257
 43
1.0
 76
     1
 77
     6
 78
     2
 67
     7
 79
     5
170
     0
171
     0
290
     0
174
     0
 93
       13
 44
0.0
173
     0
291
     1
 45
0.0
1001
ACAD
1000
AcDbSavedByObjectVersion
1070
     0
  0
VISUALSTYLE
  5
1085
102
{ACAD_XDICTIONARY
360
163D
102
}
102
{ACAD_REACTORS
330
1082
102
}
330
1082
100
AcDbVisualStyle
  2
Gouraud
 70
     2
 71
     2
 72
     2
 73
     1
 90
        2
 40
-0.6
 41
30.0
 62
     5
 63
     7
 74
     0
 91
        4
 64
     7
 65
   257
 75
     1
175
     1
 42
1.0
 92
        0
 66
     7
 43
1.0
 76
     1
 77
     6
 78
     2
 67
     7
 79
     5
170
     0
171
     0
290
     0
174
     0
 93
       13
 44
0.0
173
     0
291
     1
 45
0.0
1001
ACAD
1000
AcDbSavedByObjectVersion
1070
     0
  0
VISUALSTYLE
  5
1086
102
{ACAD_XDICTIONARY
360
163F
102
}
102
{ACAD_REACTORS
330
1082
102
}
330
1082
100
AcDbVisualStyle
  2
GouraudWithEdges
 70
     3
 71
     2
 72
     2
 73
     1
 90
        2
 40
-0.6
 41
30.0
 62
     5
 63
     7
 74
     1
 91
        4
 64
     7
 65
   257
 75
     1
175
     1
 42
1.0
 92
        0
 66
   257
 43
1.0
 76
     1
 77
     6
 78
     2
 67
     7
 79
     5
170
     0
171
     0
290
     0
174
     0
 93
       13
 44
0.0
173
     0
291
     1
 45
0.0
1001
ACAD
1000
AcDbSavedByObjectVersion
1070
     0
  0
VISUALSTYLE
  5
1093
102
{ACAD_XDICTIONARY
360
1659
102
}
102
{ACAD_REACTORS
330
1082
102
}
330
1082
100
AcDbVisualStyle
  2
JitterOff
 70
    20
 71
     2
 72
     2
 73
     0
 90
        0
 40
-0.6
 41
-30.0
 62
     5
 63
     7
 74
     1
 91
        4
 64
     7
 65
   257
 75
     1
175
     1
 42
1.0
 92
       10
 66
     7
 43
1.0
 76
     1
 77
     6
 78
     2
 67
     7
 79
     5
170
     0
171
     0
290
     0
174
     0
 93
        1
 44
0.0
173
     0
291
     1
 45
0.0
1001
ACAD
1000
AcDbSavedByObjectVersion
1070
     0
  0
VISUALSTYLE
  5
1090
102
{ACAD_XDICTIONARY
360
1653
102
}
102
{ACAD_REACTORS
330
1082
102
}
330
1082
100
AcDbVisualStyle
  2
Linepattern
 70
    14
 71
     2
 72
     2
 73
     0
 90
        0
 40
-0.6
 41
-30.0
 62
     5
 63
     7
 74
     1
 91
        4
 64
     7
 65
   257
 75
     7
175
     7
 42
1.0
 92
        8
 66
     7
 43
1.0
 76
     1
 77
     6
 78
     2
 67
     7
 79
     5
170
     0
171
     0
290
     0
174
     0
 93
        1
 44
0.0
173
     0
291
     1
 45
0.0
1001
ACAD
1000
AcDbSavedByObjectVersion
1070
     0
  0
VISUALSTYLE
  5
1094
102
{ACAD_XDICTIONARY
360
165B
102
}
102
{ACAD_REACTORS
330
1082
102
}
330
1082
100
AcDbVisualStyle
  2
OverhangOff
 70
    21
 71
     2
 72
     2
 73
     0
 90
        0
 40
-0.6
 41
-30.0
 62
     5
 63
     7
 74
     1
 91
        4
 64
     7
 65
   257
 75
     1
175
     1
 42
1.0
 92
        9
 66
     7
 43
1.0
 76
     1
 77
     6
 78
     2
 67
     7
 79
     5
170
     0
171
     0
290
     0
174
     0
 93
        1
 44
0.0
173
     0
291
     1
 45
0.0
1001
ACAD
1000
AcDbSavedByObjectVersion
1070
     0
  0
VISUALSTYLE
  5
108C
102
{ACAD_XDICTIONARY
360
164B
102
}
102
{ACAD_REACTORS
330
1082
102
}
330
1082
100
AcDbVisualStyle
  2
Realistic
 70
     8
 71
     2
 72
     2
 73
     0
 90
        0
 40
-0.6
 41
-30.0
 62
     5
 63
     7
 74
     1
 91
        0
 64
     7
 65
   257
 75
     1
175
     1
 42
1.0
 92
        8
 66
     8
 43
1.0
 76
     1
 77
     6
 78
     2
 67
     7
 79
     5
170
     0
171
     0
290
     0
174
     0
 93
       13
 44
0.0
173
     0
291
     0
 45
0.0
1001
ACAD
1000
AcDbSavedByObjectVersion
1070
     0
  0
VISUALSTYLE
  5
108F
102
{ACAD_XDICTIONARY
360
1651
102
}
102
{ACAD_REACTORS
330
1082
102
}
330
1082
100
AcDbVisualStyle
  2
Thicken
 70
    13
 71
     2
 72
     2
 73
     0
 90
        0
 40
-0.6
 41
-30.0
 62
     5
 63
     7
 74
     1
 91
        4
 64
     7
 65
   257
 75
     1
175
     1
 42
1.0
 92
       12
 66
     7
 43
1.0
 76
     1
 77
     6
 78
     2
 67
     7
 79
     5
170
     0
171
     0
290
     0
174
     0
 93
        1
 44
0.0
173
     0
291
     1
 45
0.0
1001
ACAD
1000
AcDbSavedByObjectVersion
1070
     0
  0
DICTIONARYVAR
  5
161B
102
{ACAD_REACTORS
330
3D
102
}
330
3D
100
DictionaryVariables
280
     0
  1
1:1
  0
DICTIONARYVAR
  5
161A
102
{ACAD_REACTORS
330
3D
102
}
330
3D
100
DictionaryVariables
280
     0
  1
STANDARD
  0
DICTIONARYVAR
  5
1049
102
{ACAD_REACTORS
330
3D
102
}
330
3D
100
DictionaryVariables
280
     0
  1
STANDARD
  0
DICTIONARYVAR
  5
3F
102
{ACAD_REACTORS
330
3D
102
}
330
3D
100
DictionaryVariables
280
     0
  1
2
  0
DICTIONARYVAR
  5
3E
102
{ACAD_REACTORS
330
3D
102
}
330
3D
100
DictionaryVariables
280
     0
  1
1
  0
DICTIONARYVAR
  5
161D
102
{ACAD_REACTORS
330
3D
102
}
330
3D
100
DictionaryVariables
280
     0
  1
0
  0
DICTIONARYVAR
  5
161C
102
{ACAD_REACTORS
330
3D
102
}
330
3D
100
DictionaryVariables
280
     0
  1
127
  0
DICTIONARYVAR
  5
1628
102
{ACAD_REACTORS
330
3D
102
}
330
3D
100
DictionaryVariables
280
     0
  1
2
  0
XRECORD
  5
1067
102
{ACAD_REACTORS
330
1066
102
}
330
1066
100
AcDbXrecord
280
     1
  0
DICTIONARY
  5
162F
330
1E
100
AcDbDictionary
280
     1
281
     1
  3
ACAD_XREC_ROUNDTRIP
360
1630
  0
DICTIONARY
  5
1633
330
26
100
AcDbDictionary
280
     1
281
     1
  3
ACAD_XREC_ROUNDTRIP
360
1634
  0
DICTIONARY
  5
1631
330
22
100
AcDbDictionary
280
     1
281
     1
  3
ACAD_XREC_ROUNDTRIP
360
1632
  0
DICTIONARY
  5
1073
330
1072
100
AcDbDictionary
280
     1
281
     1
  3
ACAD_XREC_ROUNDTRIP
360
1637
  3
BUMPTILE
360
1075
  3
DIFFUSETILE
360
1074
  3
OPACITYTILE
360
1078
  3
REFLECTIONTILE
360
1077
  3
REFRACTIONTILE
360
1079
  3
SPECULARTILE
360
1076
  0
DICTIONARY
  5
106B
330
106A
100
AcDbDictionary
280
     1
281
     1
  3
ACAD_XREC_ROUNDTRIP
360
1636
  3
BUMPTILE
360
106D
  3
DIFFUSETILE
360
106C
  3
OPACITYTILE
360
1070
  3
REFLECTIONTILE
360
106F
  3
REFRACTIONTILE
360
1071
  3
SPECULARTILE
360
106E
  0
DICTIONARY
  5
107B
330
107A
100
AcDbDictionary
280
     1
281
     1
  3
ACAD_XREC_ROUNDTRIP
360
1638
  3
BUMPTILE
360
107D
  3
DIFFUSETILE
360
107C
  3
OPACITYTILE
360
1080
  3
REFLECTIONTILE
360
107F
  3
REFRACTIONTILE
360
1081
  3
SPECULARTILE
360
107E
  0
DICTIONARY
  5
10BB
330
10BA
100
AcDbDictionary
280
     1
281
     1
  3
ACAD_ROUNDTRIP_2008_TABLESTYLE_CELLSTYLEMAP
360
162A
  3
ACAD_XREC_ROUNDTRIP
360
165F
  0
DICTIONARY
  5
15E0
330
EE8
100
AcDbDictionary
280
     1
281
     1
  3
ACAD_ROUNDTRIP_2008_TABLESTYLE_CELLSTYLEMAP
360
1629
  3
ACAD_XREC_ROUNDTRIP
360
1635
  0
DICTIONARY
  5
1643
330
1088
100
AcDbDictionary
280
     1
281
     1
  3
ACAD_XREC_ROUNDTRIP
360
1644
  0
DICTIONARY
  5
1647
330
108A
100
AcDbDictionary
280
     1
281
     1
  3
ACAD_XREC_ROUNDTRIP
360
1648
  0
DICTIONARY
  5
1645
330
1089
100
AcDbDictionary
280
     1
281
     1
  3
ACAD_XREC_ROUNDTRIP
360
1646
  0
DICTIONARY
  5
1641
330
1087
100
AcDbDictionary
280
     1
281
     1
  3
ACAD_XREC_ROUNDTRIP
360
1642
  0
DICTIONARY
  5
164F
330
108E
100
AcDbDictionary
280
     1
281
     1
  3
ACAD_XREC_ROUNDTRIP
360
1650
  0
DICTIONARY
  5
1657
330
1092
100
AcDbDictionary
280
     1
281
     1
  3
ACAD_XREC_ROUNDTRIP
360
1658
  0
DICTIONARY
  5
1649
330
108B
100
AcDbDictionary
280
     1
281
     1
  3
ACAD_XREC_ROUNDTRIP
360
164A
  0
DICTIONARY
  5
164D
330
108D
100
AcDbDictionary
280
     1
281
     1
  3
ACAD_XREC_ROUNDTRIP
360
164E
  0
DICTIONARY
  5
165D
330
1095
100
AcDbDictionary
280
     1
281
     1
  3
ACAD_XREC_ROUNDTRIP
360
165E
  0
DICTIONARY
  5
1655
330
1091
100
AcDbDictionary
280
     1
281
     1
  3
ACAD_XREC_ROUNDTRIP
360
1656
  0
DICTIONARY
  5
1639
330
1083
100
AcDbDictionary
280
     1
281
     1
  3
ACAD_XREC_ROUNDTRIP
360
163A
  0
DICTIONARY
  5
163B
330
1084
100
AcDbDictionary
280
     1
281
     1
  3
ACAD_XREC_ROUNDTRIP
360
163C
  0
DICTIONARY
  5
163D
330
1085
100
AcDbDictionary
280
     1
281
     1
  3
ACAD_XREC_ROUNDTRIP
360
163E
  0
DICTIONARY
  5
163F
330
1086
100
AcDbDictionary
280
     1
281
     1
  3
ACAD_XREC_ROUNDTRIP
360
1640
  0
DICTIONARY
  5
1659
330
1093
100
AcDbDictionary
280
     1
281
     1
  3
ACAD_XREC_ROUNDTRIP
360
165A
  0
DICTIONARY
  5
1653
330
1090
100
AcDbDictionary
280
     1
281
     1
  3
ACAD_XREC_ROUNDTRIP
360
1654
  0
DICTIONARY
  5
165B
330
1094
100
AcDbDictionary
280
     1
281
     1
  3
ACAD_XREC_ROUNDTRIP
360
165C
  0
DICTIONARY
  5
164B
330
108C
100
AcDbDictionary
280
     1
281
     1
  3
ACAD_XREC_ROUNDTRIP
360
164C
  0
DICTIONARY
  5
1651
330
108F
100
AcDbDictionary
280
     1
281
     1
  3
ACAD_XREC_ROUNDTRIP
360
1652
  0
XRECORD
  5
1630
102
{ACAD_REACTORS
330
162F
102
}
330
162F
100
AcDbXrecord
280
     1
102
SHADEPLOT
 70
     0
102
SHADEPLOTRESLEVEL
 70
     2
102
SHADEPLOTCUSTOMDPI
 70
   300
  0
XRECORD
  5
1634
102
{ACAD_REACTORS
330
1633
102
}
330
1633
100
AcDbXrecord
280
     1
102
SHADEPLOT
 70
     0
102
SHADEPLOTRESLEVEL
 70
     2
102
SHADEPLOTCUSTOMDPI
 70
   300
  0
XRECORD
  5
1632
102
{ACAD_REACTORS
330
1631
102
}
330
1631
100
AcDbXrecord
280
     1
102
SHADEPLOT
 70
     0
102
SHADEPLOTRESLEVEL
 70
     2
102
SHADEPLOTCUSTOMDPI
 70
   300
  0
XRECORD
  5
1637
102
{ACAD_REACTORS
330
1073
102
}
330
1073
100
AcDbXrecord
280
     1
102
MATERIAL
148
0.0
149
0.0
149
0.0
 93
        0
 94
      127
282
     0
 72
     0
 77
     0
171
     0
175
     0
179
     0
273
     0
  0
XRECORD
  5
1075
102
{ACAD_REACTORS
330
1073
102
}
330
1073
100
AcDbXrecord
280
     1
270
     1
271
     1
  0
XRECORD
  5
1074
102
{ACAD_REACTORS
330
1073
102
}
330
1073
100
AcDbXrecord
280
     1
270
     1
271
     1
  0
XRECORD
  5
1078
102
{ACAD_REACTORS
330
1073
102
}
330
1073
100
AcDbXrecord
280
     1
270
     1
271
     1
  0
XRECORD
  5
1077
102
{ACAD_REACTORS
330
1073
102
}
330
1073
100
AcDbXrecord
280
     1
270
     1
271
     1
  0
XRECORD
  5
1079
102
{ACAD_REACTORS
330
1073
102
}
330
1073
100
AcDbXrecord
280
     1
270
     1
271
     1
  0
XRECORD
  5
1076
102
{ACAD_REACTORS
330
1073
102
}
330
1073
100
AcDbXrecord
280
     1
270
     1
271
     1
  0
XRECORD
  5
1636
102
{ACAD_REACTORS
330
106B
102
}
330
106B
100
AcDbXrecord
280
     1
102
MATERIAL
148
0.0
149
0.0
149
0.0
 93
        0
 94
      127
282
     0
 72
     0
 77
     0
171
     0
175
     0
179
     0
273
     0
  0
XRECORD
  5
106D
102
{ACAD_REACTORS
330
106B
102
}
330
106B
100
AcDbXrecord
280
     1
270
     1
271
     1
  0
XRECORD
  5
106C
102
{ACAD_REACTORS
330
106B
102
}
330
106B
100
AcDbXrecord
280
     1
270
     1
271
     1
  0
XRECORD
  5
1070
102
{ACAD_REACTORS
330
106B
102
}
330
106B
100
AcDbXrecord
280
     1
270
     1
271
     1
  0
XRECORD
  5
106F
102
{ACAD_REACTORS
330
106B
102
}
330
106B
100
AcDbXrecord
280
     1
270
     1
271
     1
  0
XRECORD
  5
1071
102
{ACAD_REACTORS
330
106B
102
}
330
106B
100
AcDbXrecord
280
     1
270
     1
271
     1
  0
XRECORD
  5
106E
102
{ACAD_REACTORS
330
106B
102
}
330
106B
100
AcDbXrecord
280
     1
270
     1
271
     1
  0
XRECORD
  5
1638
102
{ACAD_REACTORS
330
107B
102
}
330
107B
100
AcDbXrecord
280
     1
102
MATERIAL
148
0.0
149
0.0
149
0.0
 93
        0
 94
      127
282
     0
 72
     0
 77
     0
171
     0
175
     0
179
     0
273
     0
  0
XRECORD
  5
107D
102
{ACAD_REACTORS
330
107B
102
}
330
107B
100
AcDbXrecord
280
     1
270
     1
271
     1
  0
XRECORD
  5
107C
102
{ACAD_REACTORS
330
107B
102
}
330
107B
100
AcDbXrecord
280
     1
270
     1
271
     1
  0
XRECORD
  5
1080
102
{ACAD_REACTORS
330
107B
102
}
330
107B
100
AcDbXrecord
280
     1
270
     1
271
     1
  0
XRECORD
  5
107F
102
{ACAD_REACTORS
330
107B
102
}
330
107B
100
AcDbXrecord
280
     1
270
     1
271
     1
  0
XRECORD
  5
1081
102
{ACAD_REACTORS
330
107B
102
}
330
107B
100
AcDbXrecord
280
     1
270
     1
271
     1
  0
XRECORD
  5
107E
102
{ACAD_REACTORS
330
107B
102
}
330
107B
100
AcDbXrecord
280
     1
270
     1
271
     1
  0
CELLSTYLEMAP
  5
162A
102
{ACAD_REACTORS
330
10BB
102
}
330
10BB
100
AcDbCellStyleMap
 90
        3
300
CELLSTYLE
  1
TABLEFORMAT_BEGIN
 90
        5
170
     1
 91
        0
 92
    32768
 62
   257
 93
        1
300
CONTENTFORMAT
  1
CONTENTFORMAT_BEGIN
 90
        0
 91
        0
 92
      512
 93
        0
300

 40
0.0
140
1.0
 94
        5
 62
     0
340
10B5
144
0.5
309
CONTENTFORMAT_END
171
     0
 94
        6
 95
        1
302
GRIDFORMAT
  1
GRIDFORMAT_BEGIN
 90
        0
 91
        1
 62
     0
 92
       -2
340
0
 93
        1
 40
0.045
309
GRIDFORMAT_END
 95
        2
302
GRIDFORMAT
  1
GRIDFORMAT_BEGIN
 90
        0
 91
        1
 62
     0
 92
       -2
340
0
 93
        1
 40
0.045
309
GRIDFORMAT_END
 95
        4
302
GRIDFORMAT
  1
GRIDFORMAT_BEGIN
 90
        0
 91
        1
 62
     0
 92
       -2
340
0
 93
        1
 40
0.045
309
GRIDFORMAT_END
 95
        8
302
GRIDFORMAT
  1
GRIDFORMAT_BEGIN
 90
        0
 91
        1
 62
     0
 92
       -2
340
0
 93
        1
 40
0.045
309
GRIDFORMAT_END
 95
       16
302
GRIDFORMAT
  1
GRIDFORMAT_BEGIN
 90
        0
 91
        1
 62
     0
 92
       -2
340
0
 93
        1
 40
0.045
309
GRIDFORMAT_END
 95
       32
302
GRIDFORMAT
  1
GRIDFORMAT_BEGIN
 90
        0
 91
        1
 62
     0
 92
       -2
340
0
 93
        1
 40
0.045
309
GRIDFORMAT_END
309
TABLEFORMAT_END
  1
CELLSTYLE_BEGIN
 90
        1
 91
        1
300
_TITLE
309
CELLSTYLE_END
300
CELLSTYLE
  1
TABLEFORMAT_BEGIN
 90
        5
170
     1
 91
        0
 92
        0
 62
   257
 93
        1
300
CONTENTFORMAT
  1
CONTENTFORMAT_BEGIN
 90
        0
 91
        0
 92
      512
 93
        0
300

 40
0.0
140
1.0
 94
        4
 62
     0
340
10B5
144
0.4
309
CONTENTFORMAT_END
171
     0
 94
        6
 95
        1
302
GRIDFORMAT
  1
GRIDFORMAT_BEGIN
 90
        0
 91
        1
 62
     0
 92
       -2
340
0
 93
        1
 40
0.045
309
GRIDFORMAT_END
 95
        2
302
GRIDFORMAT
  1
GRIDFORMAT_BEGIN
 90
        0
 91
        1
 62
     0
 92
       -2
340
0
 93
        1
 40
0.045
309
GRIDFORMAT_END
 95
        4
302
GRIDFORMAT
  1
GRIDFORMAT_BEGIN
 90
        0
 91
        1
 62
     0
 92
       -2
340
0
 93
        1
 40
0.045
309
GRIDFORMAT_END
 95
        8
302
GRIDFORMAT
  1
GRIDFORMAT_BEGIN
 90
        0
 91
        1
 62
     0
 92
       -2
340
0
 93
        1
 40
0.045
309
GRIDFORMAT_END
 95
       16
302
GRIDFORMAT
  1
GRIDFORMAT_BEGIN
 90
        0
 91
        1
 62
     0
 92
       -2
340
0
 93
        1
 40
0.045
309
GRIDFORMAT_END
 95
       32
302
GRIDFORMAT
  1
GRIDFORMAT_BEGIN
 90
        0
 91
        1
 62
     0
 92
       -2
340
0
 93
        1
 40
0.045
309
GRIDFORMAT_END
309
TABLEFORMAT_END
  1
CELLSTYLE_BEGIN
 90
        2
 91
        1
300
_HEADER
309
CELLSTYLE_END
300
CELLSTYLE
  1
TABLEFORMAT_BEGIN
 90
        5
170
     1
 91
        0
 92
        0
 62
   257
 93
        1
300
CONTENTFORMAT
  1
CONTENTFORMAT_BEGIN
 90
        0
 91
        0
 92
      512
 93
        0
300

 40
0.0
140
1.0
 94
        4
 62
     0
340
10B5
144
0.4
309
CONTENTFORMAT_END
171
     0
 94
        6
 95
        1
302
GRIDFORMAT
  1
GRIDFORMAT_BEGIN
 90
        0
 91
        1
 62
     0
 92
       -2
340
0
 93
        1
 40
0.045
309
GRIDFORMAT_END
 95
        2
302
GRIDFORMAT
  1
GRIDFORMAT_BEGIN
 90
        0
 91
        1
 62
     0
 92
       -2
340
0
 93
        1
 40
0.045
309
GRIDFORMAT_END
 95
        4
302
GRIDFORMAT
  1
GRIDFORMAT_BEGIN
 90
        0
 91
        1
 62
     0
 92
       -2
340
0
 93
        1
 40
0.045
309
GRIDFORMAT_END
 95
        8
302
GRIDFORMAT
  1
GRIDFORMAT_BEGIN
 90
        0
 91
        1
 62
     0
 92
       -2
340
0
 93
        1
 40
0.045
309
GRIDFORMAT_END
 95
       16
302
GRIDFORMAT
  1
GRIDFORMAT_BEGIN
 90
        0
 91
        1
 62
     0
 92
       -2
340
0
 93
        1
 40
0.045
309
GRIDFORMAT_END
 95
       32
302
GRIDFORMAT
  1
GRIDFORMAT_BEGIN
 90
        0
 91
        1
 62
     0
 92
       -2
340
0
 93
        1
 40
0.045
309
GRIDFORMAT_END
309
TABLEFORMAT_END
  1
CELLSTYLE_BEGIN
 90
        3
 91
        2
300
_DATA
309
CELLSTYLE_END
  0
XRECORD
  5
165F
102
{ACAD_REACTORS
330
10BB
102
}
330
10BB
100
AcDbXrecord
280
     1
102
ACAD_ROUNDTRIP_PRE2007_TABLESTYLE
 90
      512
 91
        0
  1

 92
      512
 93
        0
  2

 94
      512
 95
        0
  3

  0
CELLSTYLEMAP
  5
1629
102
{ACAD_REACTORS
330
15E0
102
}
330
15E0
100
AcDbCellStyleMap
 90
        3
300
CELLSTYLE
  1
TABLEFORMAT_BEGIN
 90
        5
170
     1
 91
        0
 92
    32768
 62
   257
 93
        1
300
CONTENTFORMAT
  1
CONTENTFORMAT_BEGIN
 90
        0
 91
        0
 92
        4
 93
        0
300

 40
0.0
140
1.0
 94
        5
 62
     0
340
11
144
6.0
309
CONTENTFORMAT_END
171
     1
301
MARGIN
  1
CELLMARGIN_BEGIN
 40
1.5
 40
1.5
 40
1.5
 40
1.5
 40
0.18
 40
0.18
309
CELLMARGIN_END
 94
        6
 95
        1
302
GRIDFORMAT
  1
GRIDFORMAT_BEGIN
 90
        0
 91
        1
 62
     0
 92
       -2
340
0
 93
        0
 40
0.045
309
GRIDFORMAT_END
 95
        2
302
GRIDFORMAT
  1
GRIDFORMAT_BEGIN
 90
        0
 91
        1
 62
     0
 92
       -2
340
0
 93
        0
 40
0.045
309
GRIDFORMAT_END
 95
        4
302
GRIDFORMAT
  1
GRIDFORMAT_BEGIN
 90
        0
 91
        1
 62
     0
 92
       -2
340
0
 93
        0
 40
0.045
309
GRIDFORMAT_END
 95
        8
302
GRIDFORMAT
  1
GRIDFORMAT_BEGIN
 90
        0
 91
        1
 62
     0
 92
       -2
340
0
 93
        0
 40
0.045
309
GRIDFORMAT_END
 95
       16
302
GRIDFORMAT
  1
GRIDFORMAT_BEGIN
 90
        0
 91
        1
 62
     0
 92
       -2
340
0
 93
        0
 40
0.045
309
GRIDFORMAT_END
 95
       32
302
GRIDFORMAT
  1
GRIDFORMAT_BEGIN
 90
        0
 91
        1
 62
     0
 92
       -2
340
0
 93
        0
 40
0.045
309
GRIDFORMAT_END
309
TABLEFORMAT_END
  1
CELLSTYLE_BEGIN
 90
        1
 91
        1
300
_TITLE
309
CELLSTYLE_END
300
CELLSTYLE
  1
TABLEFORMAT_BEGIN
 90
        5
170
     1
 91
        0
 92
        0
 62
   257
 93
        1
300
CONTENTFORMAT
  1
CONTENTFORMAT_BEGIN
 90
        0
 91
        0
 92
        4
 93
        0
300

 40
0.0
140
1.0
 94
        5
 62
     0
340
11
144
4.5
309
CONTENTFORMAT_END
171
     1
301
MARGIN
  1
CELLMARGIN_BEGIN
 40
1.5
 40
1.5
 40
1.5
 40
1.5
 40
0.18
 40
0.18
309
CELLMARGIN_END
 94
        6
 95
        1
302
GRIDFORMAT
  1
GRIDFORMAT_BEGIN
 90
        0
 91
        1
 62
     0
 92
       -2
340
0
 93
        0
 40
0.045
309
GRIDFORMAT_END
 95
        2
302
GRIDFORMAT
  1
GRIDFORMAT_BEGIN
 90
        0
 91
        1
 62
     0
 92
       -2
340
0
 93
        0
 40
0.045
309
GRIDFORMAT_END
 95
        4
302
GRIDFORMAT
  1
GRIDFORMAT_BEGIN
 90
        0
 91
        1
 62
     0
 92
       -2
340
0
 93
        0
 40
0.045
309
GRIDFORMAT_END
 95
        8
302
GRIDFORMAT
  1
GRIDFORMAT_BEGIN
 90
        0
 91
        1
 62
     0
 92
       -2
340
0
 93
        0
 40
0.045
309
GRIDFORMAT_END
 95
       16
302
GRIDFORMAT
  1
GRIDFORMAT_BEGIN
 90
        0
 91
        1
 62
     0
 92
       -2
340
0
 93
        0
 40
0.045
309
GRIDFORMAT_END
 95
       32
302
GRIDFORMAT
  1
GRIDFORMAT_BEGIN
 90
        0
 91
        1
 62
     0
 92
       -2
340
0
 93
        0
 40
0.045
309
GRIDFORMAT_END
309
TABLEFORMAT_END
  1
CELLSTYLE_BEGIN
 90
        2
 91
        1
300
_HEADER
309
CELLSTYLE_END
300
CELLSTYLE
  1
TABLEFORMAT_BEGIN
 90
        5
170
     1
 91
        0
 92
        0
 62
   257
 93
        1
300
CONTENTFORMAT
  1
CONTENTFORMAT_BEGIN
 90
        0
 91
        0
 92
        4
 93
        0
300

 40
0.0
140
1.0
 94
        2
 62
     0
340
11
144
4.5
309
CONTENTFORMAT_END
171
     1
301
MARGIN
  1
CELLMARGIN_BEGIN
 40
1.5
 40
1.5
 40
1.5
 40
1.5
 40
0.18
 40
0.18
309
CELLMARGIN_END
 94
        6
 95
        1
302
GRIDFORMAT
  1
GRIDFORMAT_BEGIN
 90
        0
 91
        1
 62
     0
 92
       -2
340
0
 93
        0
 40
0.045
309
GRIDFORMAT_END
 95
        2
302
GRIDFORMAT
  1
GRIDFORMAT_BEGIN
 90
        0
 91
        1
 62
     0
 92
       -2
340
0
 93
        0
 40
0.045
309
GRIDFORMAT_END
 95
        4
302
GRIDFORMAT
  1
GRIDFORMAT_BEGIN
 90
        0
 91
        1
 62
     0
 92
       -2
340
0
 93
        0
 40
0.045
309
GRIDFORMAT_END
 95
        8
302
GRIDFORMAT
  1
GRIDFORMAT_BEGIN
 90
        0
 91
        1
 62
     0
 92
       -2
340
0
 93
        0
 40
0.045
309
GRIDFORMAT_END
 95
       16
302
GRIDFORMAT
  1
GRIDFORMAT_BEGIN
 90
        0
 91
        1
 62
     0
 92
       -2
340
0
 93
        0
 40
0.045
309
GRIDFORMAT_END
 95
       32
302
GRIDFORMAT
  1
GRIDFORMAT_BEGIN
 90
        0
 91
        1
 62
     0
 92
       -2
340
0
 93
        0
 40
0.045
309
GRIDFORMAT_END
309
TABLEFORMAT_END
  1
CELLSTYLE_BEGIN
 90
        3
 91
        2
300
_DATA
309
CELLSTYLE_END
  0
XRECORD
  5
1635
102
{ACAD_REACTORS
330
15E0
102
}
330
15E0
100
AcDbXrecord
280
     1
102
ACAD_ROUNDTRIP_PRE2007_TABLESTYLE
 90
        4
 91
        0
  1

 92
        4
 93
        0
  2

 94
        4
 95
        0
  3

  0
XRECORD
  5
1644
102
{ACAD_REACTORS
330
1643
102
}
330
1643
100
AcDbXrecord
280
     1
102
RTVSPropertyOp0
 70
     1
102
RTVSPropertyOp1
 70
     1
102
RTVSPropertyOp2
 70
     1
102
RTVSPropertyOp3
 70
     1
102
RTVSPropertyOp4
 70
     1
102
RTVSPropertyOp5
 70
     1
102
RTVSPropertyOp6
 70
     1
102
RTVSPropertyOp7
 70
     1
102
RTVSPropertyOp8
 70
     1
102
RTVSPropertyOp9
 70
     1
102
RTVSPropertyOp10
 70
     1
102
RTVSPropertyOp11
 70
     1
102
RTVSPropertyOp12
 70
     1
102
RTVSPropertyOp13
 70
     1
102
RTVSPropertyOp14
 70
     1
102
RTVSPropertyOp15
 70
     1
102
RTVSPropertyOp16
 70
     1
102
RTVSPropertyOp17
 70
     1
102
RTVSPropertyOp18
 70
     1
102
RTVSPropertyOp19
 70
     1
102
RTVSPropertyOp20
 70
     1
102
RTVSPropertyOp21
 70
     1
102
RTVSPropertyOp22
 70
     1
102
RTVSPropertyOp23
 70
     1
102
RTVSPropertyOp24
 70
     1
102
RTVSPropertyOp25
 70
     1
102
RTVSPropertyOp26
 70
     1
102
RTVSPropertyOp27
 70
     1
  0
XRECORD
  5
1648
102
{ACAD_REACTORS
330
1647
102
}
330
1647
100
AcDbXrecord
280
     1
102
RTVSPropertyOp0
 70
     1
102
RTVSPropertyOp1
 70
     1
102
RTVSPropertyOp2
 70
     1
102
RTVSPropertyOp3
 70
     1
102
RTVSPropertyOp4
 70
     1
102
RTVSPropertyOp5
 70
     1
102
RTVSPropertyOp6
 70
     1
102
RTVSPropertyOp7
 70
     1
102
RTVSPropertyOp8
 70
     1
102
RTVSPropertyOp9
 70
     1
102
RTVSPropertyOp10
 70
     1
102
RTVSPropertyOp11
 70
     1
102
RTVSPropertyOp12
 70
     1
102
RTVSPropertyOp13
 70
     1
102
RTVSPropertyOp14
 70
     1
102
RTVSPropertyOp15
 70
     1
102
RTVSPropertyOp16
 70
     1
102
RTVSPropertyOp17
 70
     1
102
RTVSPropertyOp18
 70
     1
102
RTVSPropertyOp19
 70
     1
102
RTVSPropertyOp20
 70
     1
102
RTVSPropertyOp21
 70
     1
102
RTVSPropertyOp22
 70
     1
102
RTVSPropertyOp23
 70
     1
102
RTVSPropertyOp24
 70
     1
102
RTVSPropertyOp25
 70
     1
102
RTVSPropertyOp26
 70
     1
102
RTVSPropertyOp27
 70
     1
  0
XRECORD
  5
1646
102
{ACAD_REACTORS
330
1645
102
}
330
1645
100
AcDbXrecord
280
     1
102
RTVSPropertyOp0
 70
     1
102
RTVSPropertyOp1
 70
     1
102
RTVSPropertyOp2
 70
     1
102
RTVSPropertyOp3
 70
     1
102
RTVSPropertyOp4
 70
     1
102
RTVSPropertyOp5
 70
     1
102
RTVSPropertyOp6
 70
     1
102
RTVSPropertyOp7
 70
     1
102
RTVSPropertyOp8
 70
     1
102
RTVSPropertyOp9
 70
     1
102
RTVSPropertyOp10
 70
     1
102
RTVSPropertyOp11
 70
     1
102
RTVSPropertyOp12
 70
     1
102
RTVSPropertyOp13
 70
     1
102
RTVSPropertyOp14
 70
     1
102
RTVSPropertyOp15
 70
     1
102
RTVSPropertyOp16
 70
     1
102
RTVSPropertyOp17
 70
     1
102
RTVSPropertyOp18
 70
     1
102
RTVSPropertyOp19
 70
     1
102
RTVSPropertyOp20
 70
     1
102
RTVSPropertyOp21
 70
     1
102
RTVSPropertyOp22
 70
     1
102
RTVSPropertyOp23
 70
     1
102
RTVSPropertyOp24
 70
     1
102
RTVSPropertyOp25
 70
     1
102
RTVSPropertyOp26
 70
     1
102
RTVSPropertyOp27
 70
     1
  0
XRECORD
  5
1642
102
{ACAD_REACTORS
330
1641
102
}
330
1641
100
AcDbXrecord
280
     1
102
RTVSPropertyOp0
 70
     1
102
RTVSPropertyOp1
 70
     1
102
RTVSPropertyOp2
 70
     1
102
RTVSPropertyOp3
 70
     1
102
RTVSPropertyOp4
 70
     1
102
RTVSPropertyOp5
 70
     1
102
RTVSPropertyOp6
 70
     1
102
RTVSPropertyOp7
 70
     1
102
RTVSPropertyOp8
 70
     1
102
RTVSPropertyOp9
 70
     1
102
RTVSPropertyOp10
 70
     1
102
RTVSPropertyOp11
 70
     1
102
RTVSPropertyOp12
 70
     1
102
RTVSPropertyOp13
 70
     1
102
RTVSPropertyOp14
 70
     1
102
RTVSPropertyOp15
 70
     1
102
RTVSPropertyOp16
 70
     1
102
RTVSPropertyOp17
 70
     1
102
RTVSPropertyOp18
 70
     1
102
RTVSPropertyOp19
 70
     1
102
RTVSPropertyOp20
 70
     1
102
RTVSPropertyOp21
 70
     1
102
RTVSPropertyOp22
 70
     1
102
RTVSPropertyOp23
 70
     1
102
RTVSPropertyOp24
 70
     1
102
RTVSPropertyOp25
 70
     1
102
RTVSPropertyOp26
 70
     1
102
RTVSPropertyOp27
 70
     1
  0
XRECORD
  5
1650
102
{ACAD_REACTORS
330
164F
102
}
330
164F
100
AcDbXrecord
280
     1
102
RTVSPropertyOp0
 70
     1
102
RTVSPropertyOp1
 70
     1
102
RTVSPropertyOp2
 70
     1
102
RTVSPropertyOp3
 70
     1
102
RTVSPropertyOp4
 70
     1
102
RTVSPropertyOp5
 70
     1
102
RTVSPropertyOp6
 70
     1
102
RTVSPropertyOp7
 70
     1
102
RTVSPropertyOp8
 70
     1
102
RTVSPropertyOp9
 70
     1
102
RTVSPropertyOp10
 70
     1
102
RTVSPropertyOp11
 70
     1
102
RTVSPropertyOp12
 70
     1
102
RTVSPropertyOp13
 70
     1
102
RTVSPropertyOp14
 70
     1
102
RTVSPropertyOp15
 70
     1
102
RTVSPropertyOp16
 70
     1
102
RTVSPropertyOp17
 70
     1
102
RTVSPropertyOp18
 70
     1
102
RTVSPropertyOp19
 70
     1
102
RTVSPropertyOp20
 70
     1
102
RTVSPropertyOp21
 70
     1
102
RTVSPropertyOp22
 70
     1
102
RTVSPropertyOp23
 70
     1
102
RTVSPropertyOp24
 70
     1
102
RTVSPropertyOp25
 70
     1
102
RTVSPropertyOp26
 70
     1
102
RTVSPropertyOp27
 70
     1
  0
XRECORD
  5
1658
102
{ACAD_REACTORS
330
1657
102
}
330
1657
100
AcDbXrecord
280
     1
102
RTVSPropertyOp0
 70
     1
102
RTVSPropertyOp1
 70
     1
102
RTVSPropertyOp2
 70
     1
102
RTVSPropertyOp3
 70
     1
102
RTVSPropertyOp4
 70
     1
102
RTVSPropertyOp5
 70
     1
102
RTVSPropertyOp6
 70
     1
102
RTVSPropertyOp7
 70
     1
102
RTVSPropertyOp8
 70
     1
102
RTVSPropertyOp9
 70
     1
102
RTVSPropertyOp10
 70
     1
102
RTVSPropertyOp11
 70
     1
102
RTVSPropertyOp12
 70
     1
102
RTVSPropertyOp13
 70
     1
102
RTVSPropertyOp14
 70
     1
102
RTVSPropertyOp15
 70
     1
102
RTVSPropertyOp16
 70
     1
102
RTVSPropertyOp17
 70
     1
102
RTVSPropertyOp18
 70
     1
102
RTVSPropertyOp19
 70
     1
102
RTVSPropertyOp20
 70
     1
102
RTVSPropertyOp21
 70
     1
102
RTVSPropertyOp22
 70
     1
102
RTVSPropertyOp23
 70
     1
102
RTVSPropertyOp24
 70
     1
102
RTVSPropertyOp25
 70
     1
102
RTVSPropertyOp26
 70
     1
102
RTVSPropertyOp27
 70
     1
  0
XRECORD
  5
164A
102
{ACAD_REACTORS
330
1649
102
}
330
1649
100
AcDbXrecord
280
     1
102
RTVSPropertyOp0
 70
     1
102
RTVSPropertyOp1
 70
     1
102
RTVSPropertyOp2
 70
     1
102
RTVSPropertyOp3
 70
     1
102
RTVSPropertyOp4
 70
     1
102
RTVSPropertyOp5
 70
     1
102
RTVSPropertyOp6
 70
     1
102
RTVSPropertyOp7
 70
     1
102
RTVSPropertyOp8
 70
     1
102
RTVSPropertyOp9
 70
     1
102
RTVSPropertyOp10
 70
     1
102
RTVSPropertyOp11
 70
     1
102
RTVSPropertyOp12
 70
     1
102
RTVSPropertyOp13
 70
     1
102
RTVSPropertyOp14
 70
     1
102
RTVSPropertyOp15
 70
     1
102
RTVSPropertyOp16
 70
     1
102
RTVSPropertyOp17
 70
     1
102
RTVSPropertyOp18
 70
     1
102
RTVSPropertyOp19
 70
     1
102
RTVSPropertyOp20
 70
     1
102
RTVSPropertyOp21
 70
     1
102
RTVSPropertyOp22
 70
     1
102
RTVSPropertyOp23
 70
     1
102
RTVSPropertyOp24
 70
     1
102
RTVSPropertyOp25
 70
     1
102
RTVSPropertyOp26
 70
     1
102
RTVSPropertyOp27
 70
     1
  0
XRECORD
  5
164E
102
{ACAD_REACTORS
330
164D
102
}
330
164D
100
AcDbXrecord
280
     1
102
RTVSPropertyOp0
 70
     1
102
RTVSPropertyOp1
 70
     1
102
RTVSPropertyOp2
 70
     1
102
RTVSPropertyOp3
 70
     1
102
RTVSPropertyOp4
 70
     1
102
RTVSPropertyOp5
 70
     1
102
RTVSPropertyOp6
 70
     1
102
RTVSPropertyOp7
 70
     1
102
RTVSPropertyOp8
 70
     1
102
RTVSPropertyOp9
 70
     1
102
RTVSPropertyOp10
 70
     1
102
RTVSPropertyOp11
 70
     1
102
RTVSPropertyOp12
 70
     1
102
RTVSPropertyOp13
 70
     1
102
RTVSPropertyOp14
 70
     1
102
RTVSPropertyOp15
 70
     1
102
RTVSPropertyOp16
 70
     1
102
RTVSPropertyOp17
 70
     1
102
RTVSPropertyOp18
 70
     1
102
RTVSPropertyOp19
 70
     1
102
RTVSPropertyOp20
 70
     1
102
RTVSPropertyOp21
 70
     1
102
RTVSPropertyOp22
 70
     1
102
RTVSPropertyOp23
 70
     1
102
RTVSPropertyOp24
 70
     1
102
RTVSPropertyOp25
 70
     1
102
RTVSPropertyOp26
 70
     1
102
RTVSPropertyOp27
 70
     1
  0
XRECORD
  5
165E
102
{ACAD_REACTORS
330
165D
102
}
330
165D
100
AcDbXrecord
280
     1
102
RTVSPropertyOp0
 70
     0
102
RTVSPropertyOp1
 70
     0
102
RTVSPropertyOp2
 70
     0
102
RTVSPropertyOp3
 70
     0
102
RTVSPropertyOp4
 70
     0
102
RTVSPropertyOp5
 70
     0
102
RTVSPropertyOp6
 70
     0
102
RTVSPropertyOp7
 70
     0
102
RTVSPropertyOp8
 70
     0
102
RTVSPropertyOp9
 70
     0
102
RTVSPropertyOp10
 70
     0
102
RTVSPropertyOp11
 70
     0
102
RTVSPropertyOp12
 70
     0
102
RTVSPropertyOp13
 70
     0
102
RTVSPropertyOp14
 70
     2
102
RTVSPropertyOp15
 70
     0
102
RTVSPropertyOp16
 70
     0
102
RTVSPropertyOp17
 70
     0
102
RTVSPropertyOp18
 70
     0
102
RTVSPropertyOp19
 70
     0
102
RTVSPropertyOp20
 70
     0
102
RTVSPropertyOp21
 70
     0
102
RTVSPropertyOp22
 70
     0
102
RTVSPropertyOp23
 70
     0
102
RTVSPropertyOp24
 70
     0
102
RTVSPropertyOp25
 70
     0
102
RTVSPropertyOp26
 70
     0
102
RTVSPropertyOp27
 70
     0
  0
XRECORD
  5
1656
102
{ACAD_REACTORS
330
1655
102
}
330
1655
100
AcDbXrecord
280
     1
102
RTVSPropertyOp0
 70
     1
102
RTVSPropertyOp1
 70
     1
102
RTVSPropertyOp2
 70
     1
102
RTVSPropertyOp3
 70
     1
102
RTVSPropertyOp4
 70
     1
102
RTVSPropertyOp5
 70
     1
102
RTVSPropertyOp6
 70
     1
102
RTVSPropertyOp7
 70
     1
102
RTVSPropertyOp8
 70
     1
102
RTVSPropertyOp9
 70
     1
102
RTVSPropertyOp10
 70
     1
102
RTVSPropertyOp11
 70
     1
102
RTVSPropertyOp12
 70
     1
102
RTVSPropertyOp13
 70
     1
102
RTVSPropertyOp14
 70
     1
102
RTVSPropertyOp15
 70
     1
102
RTVSPropertyOp16
 70
     1
102
RTVSPropertyOp17
 70
     1
102
RTVSPropertyOp18
 70
     1
102
RTVSPropertyOp19
 70
     1
102
RTVSPropertyOp20
 70
     1
102
RTVSPropertyOp21
 70
     1
102
RTVSPropertyOp22
 70
     1
102
RTVSPropertyOp23
 70
     1
102
RTVSPropertyOp24
 70
     1
102
RTVSPropertyOp25
 70
     1
102
RTVSPropertyOp26
 70
     1
102
RTVSPropertyOp27
 70
     1
  0
XRECORD
  5
163A
102
{ACAD_REACTORS
330
1639
102
}
330
1639
100
AcDbXrecord
280
     1
102
RTVSPropertyOp0
 70
     1
102
RTVSPropertyOp1
 70
     1
102
RTVSPropertyOp2
 70
     1
102
RTVSPropertyOp3
 70
     1
102
RTVSPropertyOp4
 70
     1
102
RTVSPropertyOp5
 70
     1
102
RTVSPropertyOp6
 70
     1
102
RTVSPropertyOp7
 70
     1
102
RTVSPropertyOp8
 70
     1
102
RTVSPropertyOp9
 70
     1
102
RTVSPropertyOp10
 70
     1
102
RTVSPropertyOp11
 70
     1
102
RTVSPropertyOp12
 70
     1
102
RTVSPropertyOp13
 70
     1
102
RTVSPropertyOp14
 70
     1
102
RTVSPropertyOp15
 70
     1
102
RTVSPropertyOp16
 70
     1
102
RTVSPropertyOp17
 70
     1
102
RTVSPropertyOp18
 70
     1
102
RTVSPropertyOp19
 70
     1
102
RTVSPropertyOp20
 70
     1
102
RTVSPropertyOp21
 70
     1
102
RTVSPropertyOp22
 70
     1
102
RTVSPropertyOp23
 70
     1
102
RTVSPropertyOp24
 70
     1
102
RTVSPropertyOp25
 70
     1
102
RTVSPropertyOp26
 70
     1
102
RTVSPropertyOp27
 70
     1
  0
XRECORD
  5
163C
102
{ACAD_REACTORS
330
163B
102
}
330
163B
100
AcDbXrecord
280
     1
102
RTVSPropertyOp0
 70
     1
102
RTVSPropertyOp1
 70
     1
102
RTVSPropertyOp2
 70
     1
102
RTVSPropertyOp3
 70
     1
102
RTVSPropertyOp4
 70
     1
102
RTVSPropertyOp5
 70
     1
102
RTVSPropertyOp6
 70
     1
102
RTVSPropertyOp7
 70
     1
102
RTVSPropertyOp8
 70
     1
102
RTVSPropertyOp9
 70
     1
102
RTVSPropertyOp10
 70
     1
102
RTVSPropertyOp11
 70
     1
102
RTVSPropertyOp12
 70
     1
102
RTVSPropertyOp13
 70
     1
102
RTVSPropertyOp14
 70
     1
102
RTVSPropertyOp15
 70
     1
102
RTVSPropertyOp16
 70
     1
102
RTVSPropertyOp17
 70
     1
102
RTVSPropertyOp18
 70
     1
102
RTVSPropertyOp19
 70
     1
102
RTVSPropertyOp20
 70
     1
102
RTVSPropertyOp21
 70
     1
102
RTVSPropertyOp22
 70
     1
102
RTVSPropertyOp23
 70
     1
102
RTVSPropertyOp24
 70
     1
102
RTVSPropertyOp25
 70
     1
102
RTVSPropertyOp26
 70
     1
102
RTVSPropertyOp27
 70
     1
  0
XRECORD
  5
163E
102
{ACAD_REACTORS
330
163D
102
}
330
163D
100
AcDbXrecord
280
     1
102
RTVSPropertyOp0
 70
     1
102
RTVSPropertyOp1
 70
     1
102
RTVSPropertyOp2
 70
     1
102
RTVSPropertyOp3
 70
     1
102
RTVSPropertyOp4
 70
     1
102
RTVSPropertyOp5
 70
     1
102
RTVSPropertyOp6
 70
     1
102
RTVSPropertyOp7
 70
     1
102
RTVSPropertyOp8
 70
     1
102
RTVSPropertyOp9
 70
     1
102
RTVSPropertyOp10
 70
     1
102
RTVSPropertyOp11
 70
     1
102
RTVSPropertyOp12
 70
     1
102
RTVSPropertyOp13
 70
     1
102
RTVSPropertyOp14
 70
     1
102
RTVSPropertyOp15
 70
     1
102
RTVSPropertyOp16
 70
     1
102
RTVSPropertyOp17
 70
     1
102
RTVSPropertyOp18
 70
     1
102
RTVSPropertyOp19
 70
     1
102
RTVSPropertyOp20
 70
     1
102
RTVSPropertyOp21
 70
     1
102
RTVSPropertyOp22
 70
     1
102
RTVSPropertyOp23
 70
     1
102
RTVSPropertyOp24
 70
     1
102
RTVSPropertyOp25
 70
     1
102
RTVSPropertyOp26
 70
     1
102
RTVSPropertyOp27
 70
     1
  0
XRECORD
  5
1640
102
{ACAD_REACTORS
330
163F
102
}
330
163F
100
AcDbXrecord
280
     1
102
RTVSPropertyOp0
 70
     1
102
RTVSPropertyOp1
 70
     1
102
RTVSPropertyOp2
 70
     1
102
RTVSPropertyOp3
 70
     1
102
RTVSPropertyOp4
 70
     1
102
RTVSPropertyOp5
 70
     1
102
RTVSPropertyOp6
 70
     1
102
RTVSPropertyOp7
 70
     1
102
RTVSPropertyOp8
 70
     1
102
RTVSPropertyOp9
 70
     1
102
RTVSPropertyOp10
 70
     1
102
RTVSPropertyOp11
 70
     1
102
RTVSPropertyOp12
 70
     1
102
RTVSPropertyOp13
 70
     1
102
RTVSPropertyOp14
 70
     1
102
RTVSPropertyOp15
 70
     1
102
RTVSPropertyOp16
 70
     1
102
RTVSPropertyOp17
 70
     1
102
RTVSPropertyOp18
 70
     1
102
RTVSPropertyOp19
 70
     1
102
RTVSPropertyOp20
 70
     1
102
RTVSPropertyOp21
 70
     1
102
RTVSPropertyOp22
 70
     1
102
RTVSPropertyOp23
 70
     1
102
RTVSPropertyOp24
 70
     1
102
RTVSPropertyOp25
 70
     1
102
RTVSPropertyOp26
 70
     1
102
RTVSPropertyOp27
 70
     1
  0
XRECORD
  5
165A
102
{ACAD_REACTORS
330
1659
102
}
330
1659
100
AcDbXrecord
280
     1
102
RTVSPropertyOp0
 70
     0
102
RTVSPropertyOp1
 70
     0
102
RTVSPropertyOp2
 70
     0
102
RTVSPropertyOp3
 70
     0
102
RTVSPropertyOp4
 70
     0
102
RTVSPropertyOp5
 70
     0
102
RTVSPropertyOp6
 70
     0
102
RTVSPropertyOp7
 70
     0
102
RTVSPropertyOp8
 70
     0
102
RTVSPropertyOp9
 70
     0
102
RTVSPropertyOp10
 70
     0
102
RTVSPropertyOp11
 70
     0
102
RTVSPropertyOp12
 70
     0
102
RTVSPropertyOp13
 70
     0
102
RTVSPropertyOp14
 70
     2
102
RTVSPropertyOp15
 70
     0
102
RTVSPropertyOp16
 70
     0
102
RTVSPropertyOp17
 70
     0
102
RTVSPropertyOp18
 70
     0
102
RTVSPropertyOp19
 70
     0
102
RTVSPropertyOp20
 70
     0
102
RTVSPropertyOp21
 70
     0
102
RTVSPropertyOp22
 70
     0
102
RTVSPropertyOp23
 70
     0
102
RTVSPropertyOp24
 70
     0
102
RTVSPropertyOp25
 70
     0
102
RTVSPropertyOp26
 70
     0
102
RTVSPropertyOp27
 70
     0
  0
XRECORD
  5
1654
102
{ACAD_REACTORS
330
1653
102
}
330
1653
100
AcDbXrecord
280
     1
102
RTVSPropertyOp0
 70
     1
102
RTVSPropertyOp1
 70
     1
102
RTVSPropertyOp2
 70
     1
102
RTVSPropertyOp3
 70
     1
102
RTVSPropertyOp4
 70
     1
102
RTVSPropertyOp5
 70
     1
102
RTVSPropertyOp6
 70
     1
102
RTVSPropertyOp7
 70
     1
102
RTVSPropertyOp8
 70
     1
102
RTVSPropertyOp9
 70
     1
102
RTVSPropertyOp10
 70
     1
102
RTVSPropertyOp11
 70
     1
102
RTVSPropertyOp12
 70
     1
102
RTVSPropertyOp13
 70
     1
102
RTVSPropertyOp14
 70
     1
102
RTVSPropertyOp15
 70
     1
102
RTVSPropertyOp16
 70
     1
102
RTVSPropertyOp17
 70
     1
102
RTVSPropertyOp18
 70
     1
102
RTVSPropertyOp19
 70
     1
102
RTVSPropertyOp20
 70
     1
102
RTVSPropertyOp21
 70
     1
102
RTVSPropertyOp22
 70
     1
102
RTVSPropertyOp23
 70
     1
102
RTVSPropertyOp24
 70
     1
102
RTVSPropertyOp25
 70
     1
102
RTVSPropertyOp26
 70
     1
102
RTVSPropertyOp27
 70
     1
  0
XRECORD
  5
165C
102
{ACAD_REACTORS
330
165B
102
}
330
165B
100
AcDbXrecord
280
     1
102
RTVSPropertyOp0
 70
     0
102
RTVSPropertyOp1
 70
     0
102
RTVSPropertyOp2
 70
     0
102
RTVSPropertyOp3
 70
     0
102
RTVSPropertyOp4
 70
     0
102
RTVSPropertyOp5
 70
     0
102
RTVSPropertyOp6
 70
     0
102
RTVSPropertyOp7
 70
     0
102
RTVSPropertyOp8
 70
     0
102
RTVSPropertyOp9
 70
     0
102
RTVSPropertyOp10
 70
     0
102
RTVSPropertyOp11
 70
     0
102
RTVSPropertyOp12
 70
     0
102
RTVSPropertyOp13
 70
     0
102
RTVSPropertyOp14
 70
     2
102
RTVSPropertyOp15
 70
     0
102
RTVSPropertyOp16
 70
     0
102
RTVSPropertyOp17
 70
     0
102
RTVSPropertyOp18
 70
     0
102
RTVSPropertyOp19
 70
     0
102
RTVSPropertyOp20
 70
     0
102
RTVSPropertyOp21
 70
     0
102
RTVSPropertyOp22
 70
     0
102
RTVSPropertyOp23
 70
     0
102
RTVSPropertyOp24
 70
     0
102
RTVSPropertyOp25
 70
     0
102
RTVSPropertyOp26
 70
     0
102
RTVSPropertyOp27
 70
     0
  0
XRECORD
  5
164C
102
{ACAD_REACTORS
330
164B
102
}
330
164B
100
AcDbXrecord
280
     1
102
RTVSPropertyOp0
 70
     1
102
RTVSPropertyOp1
 70
     1
102
RTVSPropertyOp2
 70
     1
102
RTVSPropertyOp3
 70
     1
102
RTVSPropertyOp4
 70
     1
102
RTVSPropertyOp5
 70
     1
102
RTVSPropertyOp6
 70
     1
102
RTVSPropertyOp7
 70
     1
102
RTVSPropertyOp8
 70
     1
102
RTVSPropertyOp9
 70
     1
102
RTVSPropertyOp10
 70
     1
102
RTVSPropertyOp11
 70
     1
102
RTVSPropertyOp12
 70
     1
102
RTVSPropertyOp13
 70
     1
102
RTVSPropertyOp14
 70
     1
102
RTVSPropertyOp15
 70
     1
102
RTVSPropertyOp16
 70
     1
102
RTVSPropertyOp17
 70
     1
102
RTVSPropertyOp18
 70
     1
102
RTVSPropertyOp19
 70
     1
102
RTVSPropertyOp20
 70
     1
102
RTVSPropertyOp21
 70
     1
102
RTVSPropertyOp22
 70
     1
102
RTVSPropertyOp23
 70
     1
102
RTVSPropertyOp24
 70
     1
102
RTVSPropertyOp25
 70
     1
102
RTVSPropertyOp26
 70
     1
102
RTVSPropertyOp27
 70
     1
  0
XRECORD
  5
1652
102
{ACAD_REACTORS
330
1651
102
}
330
1651
100
AcDbXrecord
280
     1
102
RTVSPropertyOp0
 70
     1
102
RTVSPropertyOp1
 70
     1
102
RTVSPropertyOp2
 70
     1
102
RTVSPropertyOp3
 70
     1
102
RTVSPropertyOp4
 70
     1
102
RTVSPropertyOp5
 70
     1
102
RTVSPropertyOp6
 70
     1
102
RTVSPropertyOp7
 70
     1
102
RTVSPropertyOp8
 70
     1
102
RTVSPropertyOp9
 70
     1
102
RTVSPropertyOp10
 70
     1
102
RTVSPropertyOp11
 70
     1
102
RTVSPropertyOp12
 70
     1
102
RTVSPropertyOp13
 70
     1
102
RTVSPropertyOp14
 70
     1
102
RTVSPropertyOp15
 70
     1
102
RTVSPropertyOp16
 70
     1
102
RTVSPropertyOp17
 70
     1
102
RTVSPropertyOp18
 70
     1
102
RTVSPropertyOp19
 70
     1
102
RTVSPropertyOp20
 70
     1
102
RTVSPropertyOp21
 70
     1
102
RTVSPropertyOp22
 70
     1
102
RTVSPropertyOp23
 70
     1
102
RTVSPropertyOp24
 70
     1
102
RTVSPropertyOp25
 70
     1
102
RTVSPropertyOp26
 70
     1
102
RTVSPropertyOp27
 70
     1
  0
ENDSEC
  0
EOF
