  0
SECTION
  2
HEADER
  9
$ACADVER
  1
AC1015
  9
$ACADMAINTVER
 70
    20
  9
$DWGCODEPAGE
  3
ANSI_1252
  9
$INSBASE
 10
0.0
 20
0.0
 30
0.0
  9
$EXTMIN
 10
3157.593453773051
 20
996.8084191377188
 30
0.0
  9
$EXTMAX
 10
3160.165971483319
 20
997.3810936118995
 30
0.0
  9
$LIMMIN
 10
0.0
 20
0.0
  9
$LIMMAX
 10
420.0
 20
297.0
  9
$ORTHOMODE
 70
     1
  9
$REGENMODE
 70
     1
  9
$FILLMODE
 70
     1
  9
$QTEXTMODE
 70
     0
  9
$MIRRTEXT
 70
     1
  9
$LTSCALE
 40
1.0
  9
$ATTMODE
 70
     1
  9
$TEXTSIZE
 40
2.5
  9
$TRACEWID
 40
1.0
  9
$TEXTSTYLE
  7
SANINDUSA
  9
$CLAYER
  8
0
  9
$CELTYPE
  6
ByLayer
  9
$CECOLOR
 62
   256
  9
$CELTSCALE
 40
1.0
  9
$DISPSILH
 70
     0
  9
$DIMSCALE
 40
1.0
  9
$DIMASZ
 40
2.0
  9
$DIMEXO
 40
1.0
  9
$DIMDLI
 40
1.0
  9
$DIMRND
 40
0.0
  9
$DIMDLE
 40
0.0
  9
$DIMEXE
 40
1.0
  9
$DIMTP
 40
0.0
  9
$DIMTM
 40
0.0
  9
$DIMTXT
 40
2.0
  9
$DIMCEN
 40
0.0
  9
$DIMTSZ
 40
0.0
  9
$DIMTOL
 70
     0
  9
$DIMLIM
 70
     0
  9
$DIMTIH
 70
     0
  9
$DIMTOH
 70
     0
  9
$DIMSE1
 70
     0
  9
$DIMSE2
 70
     0
  9
$DIMTAD
 70
     1
  9
$DIMZIN
 70
     8
  9
$DIMBLK
  1

  9
$DIMASO
 70
     1
  9
$DIMSHO
 70
     1
  9
$DIMPOST
  1

  9
$DIMAPOST
  1

  9
$DIMALT
 70
     0
  9
$DIMALTD
 70
     3
  9
$DIMALTF
 40
0.03937007874016
  9
$DIMLFAC
 40
1.0
  9
$DIMTOFL
 70
     1
  9
$DIMTVP
 40
0.0
  9
$DIMTIX
 70
     0
  9
$DIMSOXD
 70
     0
  9
$DIMSAH
 70
     0
  9
$DIMBLK1
  1

  9
$DIMBLK2
  1

  9
$DIMSTYLE
  2
SANINDUSA
  9
$DIMCLRD
 70
   256
  9
$DIMCLRE
 70
   256
  9
$DIMCLRT
 70
   256
  9
$DIMTFAC
 40
1.0
  9
$DIMGAP
 40
1.0
  9
$DIMJUST
 70
     0
  9
$DIMSD1
 70
     0
  9
$DIMSD2
 70
     0
  9
$DIMTOLJ
 70
     0
  9
$DIMTZIN
 70
     8
  9
$DIMALTZ
 70
     0
  9
$DIMALTTZ
 70
     0
  9
$DIMUPT
 70
     0
  9
$DIMDEC
 70
     1
  9
$DIMTDEC
 70
     1
  9
$DIMALTU
 70
     2
  9
$DIMALTTD
 70
     3
  9
$DIMTXSTY
  7
SANINDUSA
  9
$DIMAUNIT
 70
     0
  9
$DIMADEC
 70
     1
  9
$DIMALTRND
 40
0.0
  9
$DIMAZIN
 70
     0
  9
$DIMDSEP
 70
    44
  9
$DIMATFIT
 70
     3
  9
$DIMFRAC
 70
     0
  9
$DIMLDRBLK
  1

  9
$DIMLUNIT
 70
     2
  9
$DIMLWD
 70
    -1
  9
$DIMLWE
 70
    -1
  9
$DIMTMOVE
 70
     0
  9
$LUNITS
 70
     2
  9
$LUPREC
 70
     4
  9
$SKETCHINC
 40
1.0
  9
$FILLETRAD
 40
3.0
  9
$AUNITS
 70
     0
  9
$AUPREC
 70
     0
  9
$MENU
  1
.
  9
$ELEVATION
 40
0.0
  9
$PELEVATION
 40
0.0
  9
$THICKNESS
 40
0.0
  9
$LIMCHECK
 70
     0
  9
$CHAMFERA
 40
10.0
  9
$CHAMFERB
 40
10.0
  9
$CHAMFERC
 40
20.0
  9
$CHAMFERD
 40
0.0
  9
$SKPOLY
 70
     0
  9
$TDCREATE
 40
2453481.662934561
  9
$TDUCREATE
 40
2453481.621267894
  9
$TDUPDATE
 40
2456146.434852246
  9
$TDUUPDATE
 40
2456146.393185579
  9
$TDINDWG
 40
0.0070728472
  9
$TDUSRTIMER
 40
0.0070728472
  9
$USRTIMER
 70
     1
  9
$ANGBASE
 50
0.0
  9
$ANGDIR
 70
     0
  9
$PDMODE
 70
     0
  9
$PDSIZE
 40
0.0
  9
$PLINEWID
 40
0.0
  9
$SPLFRAME
 70
     0
  9
$SPLINETYPE
 70
     6
  9
$SPLINESEGS
 70
     8
  9
$HANDSEED
  5
1ECE
  9
$SURFTAB1
 70
     6
  9
$SURFTAB2
 70
     6
  9
$SURFTYPE
 70
     6
  9
$SURFU
 70
     6
  9
$SURFV
 70
     6
  9
$UCSBASE
  2

  9
$UCSNAME
  2

  9
$UCSORG
 10
0.0
 20
0.0
 30
0.0
  9
$UCSXDIR
 10
1.0
 20
0.0
 30
0.0
  9
$UCSYDIR
 10
0.0
 20
1.0
 30
0.0
  9
$UCSORTHOREF
  2

  9
$UCSORTHOVIEW
 70
     0
  9
$UCSORGTOP
 10
0.0
 20
0.0
 30
0.0
  9
$UCSORGBOTTOM
 10
0.0
 20
0.0
 30
0.0
  9
$UCSORGLEFT
 10
0.0
 20
0.0
 30
0.0
  9
$UCSORGRIGHT
 10
0.0
 20
0.0
 30
0.0
  9
$UCSORGFRONT
 10
0.0
 20
0.0
 30
0.0
  9
$UCSORGBACK
 10
0.0
 20
0.0
 30
0.0
  9
$PUCSBASE
  2

  9
$PUCSNAME
  2

  9
$PUCSORG
 10
0.0
 20
0.0
 30
0.0
  9
$PUCSXDIR
 10
1.0
 20
0.0
 30
0.0
  9
$PUCSYDIR
 10
0.0
 20
1.0
 30
0.0
  9
$PUCSORTHOREF
  2

  9
$PUCSORTHOVIEW
 70
     0
  9
$PUCSORGTOP
 10
0.0
 20
0.0
 30
0.0
  9
$PUCSORGBOTTOM
 10
0.0
 20
0.0
 30
0.0
  9
$PUCSORGLEFT
 10
0.0
 20
0.0
 30
0.0
  9
$PUCSORGRIGHT
 10
0.0
 20
0.0
 30
0.0
  9
$PUCSORGFRONT
 10
0.0
 20
0.0
 30
0.0
  9
$PUCSORGBACK
 10
0.0
 20
0.0
 30
0.0
  9
$USERI1
 70
     0
  9
$USERI2
 70
     0
  9
$USERI3
 70
     0
  9
$USERI4
 70
     0
  9
$USERI5
 70
     0
  9
$USERR1
 40
0.0
  9
$USERR2
 40
0.0
  9
$USERR3
 40
0.0
  9
$USERR4
 40
0.0
  9
$USERR5
 40
0.0
  9
$WORLDVIEW
 70
     1
  9
$SHADEDGE
 70
     3
  9
$SHADEDIF
 70
    70
  9
$TILEMODE
 70
     1
  9
$MAXACTVP
 70
    64
  9
$PINSBASE
 10
0.0
 20
0.0
 30
0.0
  9
$PLIMCHECK
 70
     0
  9
$PEXTMIN
 10
1.000000000000000E+20
 20
1.000000000000000E+20
 30
1.000000000000000E+20
  9
$PEXTMAX
 10
-1.000000000000000E+20
 20
-1.000000000000000E+20
 30
-1.000000000000000E+20
  9
$PLIMMIN
 10
0.0
 20
0.0
  9
$PLIMMAX
 10
420.0
 20
297.0
  9
$UNITMODE
 70
     0
  9
$VISRETAIN
 70
     1
  9
$PLINEGEN
 70
     0
  9
$PSLTSCALE
 70
     1
  9
$TREEDEPTH
 70
  3020
  9
$CMLSTYLE
  2
Standard
  9
$CMLJUST
 70
     0
  9
$CMLSCALE
 40
20.0
  9
$PROXYGRAPHICS
 70
     1
  9
$MEASUREMENT
 70
     1
  9
$CELWEIGHT
370
    -1
  9
$ENDCAPS
280
     0
  9
$JOINSTYLE
280
     0
  9
$LWDISPLAY
290
     0
  9
$INSUNITS
 70
     4
  9
$HYPERLINKBASE
  1

  9
$STYLESHEET
  1
monochrome.ctb
  9
$XEDIT
290
     1
  9
$CEPSNTYPE
380
     0
  9
$PSTYLEMODE
290
     1
  9
$FINGERPRINTGUID
  2
{B98A73AA-52AA-4C10-B469-C0E7150AC31F}
  9
$VERSIONGUID
  2
{E5ED1AA8-EEE8-4B23-8B9E-A3A7B79903D2}
  9
$EXTNAMES
290
     1
  9
$PSVPSCALE
 40
0.0
  9
$OLESTARTUP
290
     0
  0
ENDSEC
  0
SECTION
  2
CLASSES
  0
CLASS
  1
ACDBDICTIONARYWDFLT
  2
AcDbDictionaryWithDefault
  3
ObjectDBX Classes
 90
        0
280
     0
281
     0
  0
CLASS
  1
ACDBPLACEHOLDER
  2
AcDbPlaceHolder
  3
ObjectDBX Classes
 90
        0
280
     0
281
     0
  0
CLASS
  1
LAYOUT
  2
AcDbLayout
  3
ObjectDBX Classes
 90
        0
280
     0
281
     0
  0
CLASS
  1
DICTIONARYVAR
  2
AcDbDictionaryVar
  3
ObjectDBX Classes
 90
        0
280
     0
281
     0
  0
CLASS
  1
DIMASSOC
  2
AcDbDimAssoc
  3
"AcDbDimAssoc|Product Desc:     AcDim ARX App For Dimension|Company:          Autodesk, Inc.|WEB Address:      www.autodesk.com"
 90
    32768
280
     0
281
     0
  0
CLASS
  1
MATERIAL
  2
AcDbMaterial
  3
ObjectDBX Classes
 90
     1153
280
     0
281
     0
  0
CLASS
  1
VISUALSTYLE
  2
AcDbVisualStyle
  3
ObjectDBX Classes
 90
     4095
280
     0
281
     0
  0
CLASS
  1
TABLESTYLE
  2
AcDbTableStyle
  3
ObjectDBX Classes
 90
     4095
280
     0
281
     0
  0
CLASS
  1
SCALE
  2
AcDbScale
  3
ObjectDBX Classes
 90
     1153
280
     0
281
     0
  0
CLASS
  1
MLEADERSTYLE
  2
AcDbMLeaderStyle
  3
ACDB_MLEADERSTYLE_CLASS
 90
     4095
280
     0
281
     0
  0
CLASS
  1
SORTENTSTABLE
  2
AcDbSortentsTable
  3
ObjectDBX Classes
 90
        0
280
     0
281
     0
  0
CLASS
  1
CELLSTYLEMAP
  2
AcDbCellStyleMap
  3
ObjectDBX Classes
 90
     1152
280
     0
281
     0
  0
ENDSEC
  0
SECTION
  2
TABLES
  0
TABLE
  2
VPORT
  5
8
330
0
100
AcDbSymbolTable
 70
     1
  0
VPORT
  5
1B43
330
8
100
AcDbSymbolTableRecord
100
AcDbViewportTableRecord
  2
*Active
 70
     0
 10
0.0
 20
0.0
 11
1.0
 21
1.0
 12
3158.879712628185
 22
997.0947563748092
 13
0.0
 23
0.0
 14
10.0
 24
10.0
 15
10.0
 25
10.0
 16
0.0
 26
0.0
 36
1.0
 17
0.0
 27
0.0
 37
0.0
 40
1.569337839149354
 41
1.645464025026068
 42
50.0
 43
0.0
 44
0.0
 50
0.0
 51
0.0
 71
     0
 72
   100
 73
     1
 74
     2
 75
     0
 76
     0
 77
     0
 78
     0
281
     0
 65
     1
110
0.0
120
0.0
130
0.0
111
1.0
121
0.0
131
0.0
112
0.0
122
1.0
132
0.0
 79
     0
146
0.0
  0
ENDTAB
  0
TABLE
  2
LTYPE
  5
5
330
0
100
AcDbSymbolTable
 70
     3
  0
LTYPE
  5
14
330
5
100
AcDbSymbolTableRecord
100
AcDbLinetypeTableRecord
  2
ByBlock
 70
     0
  3

 72
    65
 73
     0
 40
0.0
  0
LTYPE
  5
15
330
5
100
AcDbSymbolTableRecord
100
AcDbLinetypeTableRecord
  2
ByLayer
 70
     0
  3

 72
    65
 73
     0
 40
0.0
  0
LTYPE
  5
16
330
5
100
AcDbSymbolTableRecord
100
AcDbLinetypeTableRecord
  2
Continuous
 70
     0
  3
Solid line
 72
    65
 73
     0
 40
0.0
  0
LTYPE
  5
2D
330
5
100
AcDbSymbolTableRecord
100
AcDbLinetypeTableRecord
  2
DASHDOT
 70
     0
  3
Dash dot __ . __ . __ . __ . __ . __ . __ . __
 72
    65
 73
     4
 40
25.4
 49
12.7
 74
     0
 49
-6.349999999999999
 74
     0
 49
0.0
 74
     0
 49
-6.349999999999999
 74
     0
  0
LTYPE
  5
2E
330
5
100
AcDbSymbolTableRecord
100
AcDbLinetypeTableRecord
  2
HIDDEN
 70
     0
  3
Hidden __ __ __ __ __ __ __ __ __ __ __ __ __ _
 72
    65
 73
     2
 40
9.524999999999998
 49
6.349999999999999
 74
     0
 49
-3.174999999999999
 74
     0
  0
ENDTAB
  0
TABLE
  2
LAYER
  5
2
330
0
100
AcDbSymbolTable
 70
    17
  0
LAYER
  5
10
102
{ACAD_XDICTIONARY
360
1D45
102
}
330
2
100
AcDbSymbolTableRecord
100
AcDbLayerTableRecord
  2
0
 70
     0
 62
     7
  6
Continuous
370
    -3
390
F
  0
LAYER
  5
2F
102
{ACAD_XDICTIONARY
360
1D47
102
}
330
2
100
AcDbSymbolTableRecord
100
AcDbLayerTableRecord
  2
1
 70
     0
 62
     1
  6
Continuous
370
    -3
390
F
  0
LAYER
  5
30
102
{ACAD_XDICTIONARY
360
1D49
102
}
330
2
100
AcDbSymbolTableRecord
100
AcDbLayerTableRecord
  2
2
 70
     0
 62
     2
  6
Continuous
370
    -3
390
F
  0
LAYER
  5
31
102
{ACAD_XDICTIONARY
360
1D4B
102
}
330
2
100
AcDbSymbolTableRecord
100
AcDbLayerTableRecord
  2
3
 70
     0
 62
     3
  6
Continuous
370
    -3
390
F
  0
LAYER
  5
32
102
{ACAD_XDICTIONARY
360
1D4D
102
}
330
2
100
AcDbSymbolTableRecord
100
AcDbLayerTableRecord
  2
4
 70
     0
 62
     4
  6
Continuous
370
    -3
390
F
  0
LAYER
  5
33
102
{ACAD_XDICTIONARY
360
1D4F
102
}
330
2
100
AcDbSymbolTableRecord
100
AcDbLayerTableRecord
  2
5
 70
     0
 62
     5
  6
Continuous
370
    -3
390
F
  0
LAYER
  5
34
102
{ACAD_XDICTIONARY
360
1D51
102
}
330
2
100
AcDbSymbolTableRecord
100
AcDbLayerTableRecord
  2
6
 70
     0
 62
     6
  6
Continuous
370
    -3
390
F
  0
LAYER
  5
35
102
{ACAD_XDICTIONARY
360
1D53
102
}
330
2
100
AcDbSymbolTableRecord
100
AcDbLayerTableRecord
  2
7
 70
     0
 62
     7
  6
Continuous
370
    -3
390
F
  0
LAYER
  5
36
102
{ACAD_XDICTIONARY
360
1D55
102
}
330
2
100
AcDbSymbolTableRecord
100
AcDbLayerTableRecord
  2
cen
 70
     0
 62
     7
  6
DASHDOT
370
    -3
390
F
  0
LAYER
  5
37
102
{ACAD_XDICTIONARY
360
1D57
102
}
330
2
100
AcDbSymbolTableRecord
100
AcDbLayerTableRecord
  2
hid
 70
     0
 62
     7
  6
HIDDEN
370
    -3
390
F
  0
LAYER
  5
5D6
102
{ACAD_XDICTIONARY
360
1D59
102
}
330
2
100
AcDbSymbolTableRecord
100
AcDbLayerTableRecord
  2
hatch
 70
     0
 62
     9
  6
Continuous
370
    -3
390
F
  0
LAYER
  5
8AF
102
{ACAD_XDICTIONARY
360
1D5B
102
}
330
2
100
AcDbSymbolTableRecord
100
AcDbLayerTableRecord
  2
9
 70
     0
 62
     9
  6
Continuous
370
    -3
390
F
  0
LAYER
  5
8F8
102
{ACAD_XDICTIONARY
360
1D5D
102
}
330
2
100
AcDbSymbolTableRecord
100
AcDbLayerTableRecord
  2
leg fin
 70
     0
 62
     9
  6
Continuous
370
    -3
390
F
  0
LAYER
  5
91D
102
{ACAD_XDICTIONARY
360
1D5F
102
}
330
2
100
AcDbSymbolTableRecord
100
AcDbLayerTableRecord
  2
cotas
 70
     0
 62
     1
  6
Continuous
370
    -3
390
F
  0
LAYER
  5
92F
330
2
100
AcDbSymbolTableRecord
100
AcDbLayerTableRecord
  2
Defpoints
 70
     0
 62
     7
  6
Continuous
290
     0
370
    -3
390
F
  0
LAYER
  5
E8F
102
{ACAD_XDICTIONARY
360
1D61
102
}
330
2
100
AcDbSymbolTableRecord
100
AcDbLayerTableRecord
  2
INDUSA
 70
     0
 62
     3
  6
Continuous
370
    -3
390
F
  0
LAYER
  5
1AEE
102
{ACAD_XDICTIONARY
360
1D63
102
}
330
2
100
AcDbSymbolTableRecord
100
AcDbLayerTableRecord
  2
SANINDUSA
 70
     0
 62
     3
  6
Continuous
370
    -3
390
F
  0
ENDTAB
  0
TABLE
  2
STYLE
  5
3
330
0
100
AcDbSymbolTable
 70
     3
  0
STYLE
  5
11
330
3
100
AcDbSymbolTableRecord
100
AcDbTextStyleTableRecord
  2
Standard
 70
     0
 40
0.0
 41
1.0
 50
0.0
 71
     0
 42
2.5
  3
Avgardn.ttf
  4

1001
ACAD
1000
AvantGarde Bk BT
1071
       34
  0
STYLE
  5
2C
330
3
100
AcDbSymbolTableRecord
100
AcDbTextStyleTableRecord
  2

 70
     1
 40
0.0
 41
1.0
 50
0.0
 71
     0
 42
2.5
  3
ltypeshp.shx
  4

  0
STYLE
  5
91F
330
3
100
AcDbSymbolTableRecord
100
AcDbTextStyleTableRecord
  2
SANINDUSA
 70
     0
 40
0.0
 41
1.0
 50
0.0
 71
     0
 42
2.5
  3
verdana.TTF
  4

1001
ACAD
1000
Verdana
1071
       34
  0
ENDTAB
  0
TABLE
  2
VIEW
  5
6
330
0
100
AcDbSymbolTable
 70
     0
  0
ENDTAB
  0
TABLE
  2
UCS
  5
7
330
0
100
AcDbSymbolTable
 70
     0
  0
ENDTAB
  0
TABLE
  2
APPID
  5
9
330
0
100
AcDbSymbolTable
 70
     4
  0
APPID
  5
12
330
9
100
AcDbSymbolTableRecord
100
AcDbRegAppTableRecord
  2
ACAD
 70
     0
  0
APPID
  5
3A
330
9
100
AcDbSymbolTableRecord
100
AcDbRegAppTableRecord
  2
DCO15
 70
     0
  0
APPID
  5
1B8F
330
9
100
AcDbSymbolTableRecord
100
AcDbRegAppTableRecord
  2
ACAD_DSTYLE_DIMJOGGED_JOGANGLE_SYMBOL
 70
     0
  0
APPID
  5
1ECD
330
9
100
AcDbSymbolTableRecord
100
AcDbRegAppTableRecord
  2
ACAD_MLEADERVER
 70
     0
  0
ENDTAB
  0
TABLE
  2
DIMSTYLE
  5
A
330
0
100
AcDbSymbolTable
 70
     3
100
AcDbDimStyleTable
 71
     1
340
921
  0
DIMSTYLE
105
45
330
A
100
AcDbSymbolTableRecord
100
AcDbDimStyleTableRecord
  2
STANDARD
 70
     0
289
     0
340
11
  0
DIMSTYLE
105
921
330
A
100
AcDbSymbolTableRecord
100
AcDbDimStyleTableRecord
  2
SANINDUSA
 70
     0
 41
2.0
 42
1.0
 43
1.0
 44
1.0
 73
     0
 74
     0
 77
     1
 78
     8
140
2.0
141
0.0
143
0.03937007874016
147
1.0
171
     3
172
     1
176
   256
177
   256
178
   256
179
     1
271
     1
272
     1
274
     3
278
    44
283
     0
284
     8
340
91F
371
    -1
372
    -1
  0
DIMSTYLE
105
E90
330
A
100
AcDbSymbolTableRecord
100
AcDbDimStyleTableRecord
  2
ISO-25
 70
     0
 41
2.5
 42
0.625
 43
3.75
 44
1.25
 73
     0
 74
     0
 77
     1
 78
     8
140
2.5
141
2.5
143
0.03937007874016
147
0.625
171
     3
172
     1
271
     2
272
     2
274
     3
278
    44
283
     0
284
     8
340
11
  0
ENDTAB
  0
TABLE
  2
BLOCK_RECORD
  5
1
330
0
100
AcDbSymbolTable
 70
   135
  0
BLOCK_RECORD
  5
1F
102
{ACAD_XDICTIONARY
360
1D3A
102
}
330
1
100
AcDbSymbolTableRecord
100
AcDbBlockTableRecord
  2
*Model_Space
340
22
  0
BLOCK_RECORD
  5
1B
330
1
100
AcDbSymbolTableRecord
100
AcDbBlockTableRecord
  2
*Paper_Space
340
1E
  0
BLOCK_RECORD
  5
23
330
1
100
AcDbSymbolTableRecord
100
AcDbBlockTableRecord
  2
*Paper_Space0
340
26
  0
BLOCK_RECORD
  5
919
330
1
100
AcDbSymbolTableRecord
100
AcDbBlockTableRecord
  2
_DotSmall
340
0
  0
BLOCK_RECORD
  5
922
330
1
100
AcDbSymbolTableRecord
100
AcDbBlockTableRecord
  2
base para cotas
340
0
310
2800000020000000200000000100080000000000000400000000000000000000000000000000000000000000000080000080000000808000800000008000800080800000C0C0C000C0DCC000F0CAA6000020400000206000002080000020A0000020C0000020E00000400000004020000040400000406000004080000040A0
310
000040C0000040E00000600000006020000060400000606000006080000060A0000060C0000060E00000800000008020000080400000806000008080000080A0000080C0000080E00000A0000000A0200000A0400000A0600000A0800000A0A00000A0C00000A0E00000C0000000C0200000C0400000C0600000C0800000C0
310
A00000C0C00000C0E00000E0000000E0200000E0400000E0600000E0800000E0A00000E0C00000E0E00040000000400020004000400040006000400080004000A0004000C0004000E00040200000402020004020400040206000402080004020A0004020C0004020E000404000004040200040404000404060004040800040
310
40A0004040C0004040E00040600000406020004060400040606000406080004060A0004060C0004060E00040800000408020004080400040806000408080004080A0004080C0004080E00040A0000040A0200040A0400040A0600040A0800040A0A00040A0C00040A0E00040C0000040C0200040C0400040C0600040C08000
310
40C0A00040C0C00040C0E00040E0000040E0200040E0400040E0600040E0800040E0A00040E0C00040E0E00080000000800020008000400080006000800080008000A0008000C0008000E00080200000802020008020400080206000802080008020A0008020C0008020E00080400000804020008040400080406000804080
310
008040A0008040C0008040E00080600000806020008060400080606000806080008060A0008060C0008060E00080800000808020008080400080806000808080008080A0008080C0008080E00080A0000080A0200080A0400080A0600080A0800080A0A00080A0C00080A0E00080C0000080C0200080C0400080C0600080C0
310
800080C0A00080C0C00080C0E00080E0000080E0200080E0400080E0600080E0800080E0A00080E0C00080E0E000C0000000C0002000C0004000C0006000C0008000C000A000C000C000C000E000C0200000C0202000C0204000C0206000C0208000C020A000C020C000C020E000C0400000C0402000C0404000C0406000C0
310
408000C040A000C040C000C040E000C0600000C0602000C0604000C0606000C0608000C060A000C060C000C060E000C0800000C0802000C0804000C0806000C0808000C080A000C080C000C080E000C0A00000C0A02000C0A04000C0A06000C0A08000C0A0A000C0A0C000C0A0E000C0C00000C0C02000C0C04000C0C06000
310
C0C08000C0C0A000F0FBFF00A4A0A000808080000000FF0000FF000000FFFF00FF000000FF00FF00FFFF0000FFFFFF00A4A4A4A4A4A4A4A4A4A4A4A4A4A4A4A4A4A4A4A4A4A4A4A4A4A4A4A4A4A4A4A4A4A4A4A4A4A4A4A4A4A4A4A4A4A4A4A4A4A4A4A4A4A4A4A4A4A4A4A4A4A4A4A4A4A4A4A4A4A4A4A4A4A4A4A4A4A4A4
310
A4A4A4A4A4A4A4A4A4A4A4A4A4A4A4A4A4A4A4A4A4A4A4A4A4A4A4A4A4A4A4A4A4A4A4A4A4A4A4A4A4A4A4A4A4A4A4A4A4A4A4A4A4A4A4A4A4A4A4A4A4A4A4A4A4A4A4A4A4A4A4A4A4A4A4A4A4A4A4A4A4A4A4A4A4A4A4A4A4A4A4A4A4A4A4A4A4A4A4A4A4A4A4A4A4A4A4A4A4A4A4A4A4A4A4A4A4A4A4A4A4A4A4A4A4A4A4
310
A4A4A4A4A4A4A4A4A4A4A4A4A4A4A4A4A4A4A4A4A4A4A4A4A4A4A4A4A4A4A4A4A4A4A4A4A4A4A4A4A4A4A4A4A4A4A4A4A4A4A4A4A4A4A4A4A4A4A4A4A4A4A4A4A4A4A4A4A4A4A4A4A4A4A4A4A4A4A4A4A4A4A4A4A4A4A4A4A4A4A4A4A4A4A4A4A4A4A4A4A4A4A4A4A4A4A4A4A4A4A4A4A4A4A4A4A4A4A4A4A4A4A4A4A4A4A4
310
A4A4A4A4A4A4A4A4A4A4A4A4A4A4A4A4A4A4A4A4A4A4A4A4A4A4A4A4A4A4A4A4A4A4A4A4A4A4A4A4A4A4A4A4A4A4A4A4A4A4A4A4A4A4A4A4A4A4A4A4A4A4A4A4A4A4A4A4A4A4A4A4A4A4A4A4A4A4A4A4A4A4A4A4A4A4A4A4A4A4A4A4A4A4A4A4A4A4A4A4A4A4A4A4A4A4A4A4A4A4A4A4A4A4A4A4F9F9F9F9F9F9F9F9F9F9F9
310
F9F9F9F9F9F9F9F9F9F9F9F9F9F9F9F9F9F9F9A4A4F9F9F9F9F9F9F9F9F9F9F9F9F9F9F9F9F9F9F9F9F9F9F9F9F9F9F9F9F9F9A4A4F9F9F9F9F9F9F9F9F9F9F9F9F9F9F9F9F9F9F9F9F9F9F9F9F9F9F9F9F9F9A4A4F9A4A4A4A4A4A4A4A4A4A4A4A4A4A4A4A4A4A4A4A4A4A4A4A4A4A4A4A4F9A4A4A4A4A4A4A4A4A4A4A4A4
310
A4A4A4A4A4A4A4A4A4A4A4A4A4A4A4A4A4A4A4A4A4A4A4A4A4A4A4A4A4A4A4A4A4A4A4A4A4A4A4A4A4A4A4A4A4A4A4A4A4A4A4A4A4A4A4A4A4A4A4A4A4A4A4A4A4A4A4A4A4A4A4A4A4A4A4A4A4A4A4A4A4A4A4A4A4A4A4A4A4A4A4A4A4A4A4A4A4A4A4A4A4A4A4A4A4A4A4A4A4A4A4A4A4A4A4A4A4A4A4A4A4A4A4A4A4A4A4
310
A4A4A4A4A4A4A4A4A4A4A4A4A4A4A4A4A4A4A4A4A4A4A4A4A4A4A4A4A4A4A4A4A4A4A4A4A4A4A4A4A4A4A4A4A4A4A4A4A4A4A4A4A4A4A4A4A4A4A4A4A4A4A4A4A4A4A4A4A4A4A4A4A4A4A4A4A4A4A4A4A4A4A4A4A4A4A4A4A4A4A4A4A4A4A4A4A4A4A4A4A4A4A4A4A4A4A4A4A4A4A4A4A4A4A4A4A4A4A4A4A4A4A4A4A4A4A4
310
A4A4A4A4A4A4A4A4A4A4A4A4A4A4A4A4A4A4A4A4A4A4A4A4A4A4A4A4A4A4A4A4A4A4A4A4A4A4A4A4A4A4A4A4A4A4A4A4A4A4A4A4A4A4A4A4A4A4A4A4A4A4A4A4A4A4A4A4A4A4A4A4A4A4A4A4A4A4A4A4A4A4A4A4A4A4A4A4A4A4A4A4A4A4A4A4A4A4A4A4A4A4A4A4A4A4A4A4A4A4A4A4A4A4A4A4A4A4A4A4A4A4A4A4A4A4A4
310
A4A4A4A4A4A4A4A4A4A4A4A4A4A4A4A4A4A4A4A4A4A4A4A4A4A4A4A4A4A4A4A4A4A4A4A4A4A4A4A4A4A4A4A4A4A4A4A4A4A4A4A4A4A4A4A4
1001
ACAD
1000
DesignCenter Data
1002
{
1070
     1
1070
     4
1002
}
  0
BLOCK_RECORD
  5
AA8
330
1
100
AcDbSymbolTableRecord
100
AcDbBlockTableRecord
  2
_CLOSED
340
0
  0
BLOCK_RECORD
  5
1B90
330
1
100
AcDbSymbolTableRecord
100
AcDbBlockTableRecord
  2
b sifões
340
0
1001
ACAD
1000
DesignCenter Data
1002
{
1070
     1
1070
     4
1002
}
  0
ENDTAB
  0
ENDSEC
  0
SECTION
  2
BLOCKS
  0
BLOCK
  5
20
330
1F
100
AcDbEntity
  8
0
100
AcDbBlockBegin
  2
*Model_Space
 70
     0
 10
0.0
 20
0.0
 30
0.0
  3
*Model_Space
  1

  0
ENDBLK
  5
21
330
1F
100
AcDbEntity
  8
0
100
AcDbBlockEnd
  0
BLOCK
  5
1C
330
1B
100
AcDbEntity
 67
     1
  8
0
100
AcDbBlockBegin
  2
*Paper_Space
 70
     0
 10
0.0
 20
0.0
 30
0.0
  3
*Paper_Space
  1

  0
ENDBLK
  5
1D
330
1B
100
AcDbEntity
 67
     1
  8
0
100
AcDbBlockEnd
  0
BLOCK
  5
24
330
23
100
AcDbEntity
 67
     1
  8
0
100
AcDbBlockBegin
  2
*Paper_Space0
 70
     0
 10
0.0
 20
0.0
 30
0.0
  3
*Paper_Space0
  1

  0
ENDBLK
  5
25
330
23
100
AcDbEntity
 67
     1
  8
0
100
AcDbBlockEnd
  0
BLOCK
  5
91B
330
919
100
AcDbEntity
  8
0
100
AcDbBlockBegin
  2
_DotSmall
 70
     0
 10
0.0
 20
0.0
 30
0.0
  3
_DotSmall
  1

  0
LWPOLYLINE
  5
91A
330
919
100
AcDbEntity
  8
0
  6
ByBlock
 62
     0
100
AcDbPolyline
 90
        2
 70
     1
 43
0.5
 10
-0.0625
 20
0.0
 42
1.0
 10
0.0625
 20
0.0
 42
1.0
  0
ENDBLK
  5
91C
330
919
100
AcDbEntity
  8
0
100
AcDbBlockEnd
  0
BLOCK
  5
92A
330
922
100
AcDbEntity
  8
0
100
AcDbBlockBegin
  2
base para cotas
 70
     0
 10
0.0
 20
0.0
 30
0.0
  3
base para cotas
  1

  0
LINE
  5
B36
330
922
100
AcDbEntity
  8
cotas
100
AcDbLine
 10
0.0
 20
-30.0
 30
0.0
 11
327.1260136525398
 21
-30.0
 31
0.0
  0
LINE
  5
B37
330
922
100
AcDbEntity
  8
cotas
100
AcDbLine
 10
0.0
 20
-25.0
 30
0.0
 11
327.1260136525398
 21
-25.0
 31
0.0
  0
LINE
  5
B38
330
922
100
AcDbEntity
  8
cotas
100
AcDbLine
 10
0.0
 20
-20.0
 30
0.0
 11
327.1260136525398
 21
-20.0
 31
0.0
  0
LINE
  5
B39
330
922
100
AcDbEntity
  8
cotas
100
AcDbLine
 10
0.0
 20
-15.0
 30
0.0
 11
327.1260136525398
 21
-15.0
 31
0.0
  0
LINE
  5
B3A
330
922
100
AcDbEntity
  8
cotas
100
AcDbLine
 10
0.0
 20
-10.0
 30
0.0
 11
327.1260136525398
 21
-10.0
 31
0.0
  0
LINE
  5
B3B
330
922
100
AcDbEntity
  8
cotas
100
AcDbLine
 10
0.0
 20
0.0
 30
0.0
 11
0.0
 21
-30.0
 31
0.0
  0
LINE
  5
B3C
330
922
100
AcDbEntity
  8
cotas
100
AcDbLine
 10
327.1260136525398
 20
-30.0
 30
0.0
 11
327.1260136525398
 21
0.0
 31
0.0
  0
ENDBLK
  5
92B
330
922
100
AcDbEntity
  8
0
100
AcDbBlockEnd
  0
BLOCK
  5
AAD
330
AA8
100
AcDbEntity
  8
0
100
AcDbBlockBegin
  2
_CLOSED
 70
     0
 10
0.0
 20
0.0
 30
0.0
  3
_CLOSED
  1

  0
LINE
  5
AA9
330
AA8
100
AcDbEntity
  8
0
100
AcDbLine
 10
-1.0
 20
0.166667
 30
0.0
 11
0.0
 21
0.0
 31
0.0
  0
LINE
  5
AAA
330
AA8
100
AcDbEntity
  8
0
100
AcDbLine
 10
0.0
 20
0.0
 30
0.0
 11
-1.0
 21
-0.166667
 31
0.0
  0
LINE
  5
AAB
330
AA8
100
AcDbEntity
  8
0
100
AcDbLine
 10
-1.0
 20
0.166667
 30
0.0
 11
-1.0
 21
-0.166667
 31
0.0
  0
LINE
  5
AAC
330
AA8
100
AcDbEntity
  8
0
100
AcDbLine
 10
0.0
 20
0.0
 30
0.0
 11
-1.0
 21
0.0
 31
0.0
  0
ENDBLK
  5
AAE
330
AA8
100
AcDbEntity
  8
0
100
AcDbBlockEnd
  0
BLOCK
  5
1C64
330
1B90
100
AcDbEntity
  8
0
100
AcDbBlockBegin
  2
b sifões
 70
     0
 10
0.0
 20
0.0
 30
0.0
  3
b sifões
  1

  0
LINE
  5
1B91
330
1B90
100
AcDbEntity
  8
SANINDUSA
  6
Continuous
100
AcDbLine
 10
-0.272276037755546
 20
0.095369895654585
 30
0.0
 11
-0.272276037755546
 21
-0.0046273022317109
 31
0.0
  0
LINE
  5
1B92
330
1B90
100
AcDbEntity
  8
SANINDUSA
  6
HIDDEN
100
AcDbLine
 10
-0.3160306080881128
 20
-0.1048813674701705
 30
0.0
 11
-0.3160306080881128
 21
-0.1931287032887212
 31
0.0
  0
LINE
  5
1B93
330
1B90
100
AcDbEntity
  8
SANINDUSA
  6
HIDDEN
100
AcDbLine
 10
-0.2300306080878727
 20
-0.1931287032887212
 30
0.0
 11
-0.2300306080878727
 21
-0.0817076545074542
 31
0.0
  0
LINE
  5
1B94
330
1B90
100
AcDbEntity
  8
SANINDUSA
  6
HIDDEN
100
AcDbLine
 10
-0.2280306080883747
 20
-0.1893966524810366
 30
0.0
 11
-0.2280306080883747
 21
-0.0817076515572808
 31
0.0
  0
LINE
  5
1B95
330
1B90
100
AcDbEntity
  8
SANINDUSA
  6
HIDDEN
100
AcDbLine
 10
-0.3160306080881128
 20
-0.1931287032887212
 30
0.0
 11
-0.2300306080878727
 21
-0.1931287032887212
 31
0.0
  0
LINE
  5
1B96
330
1B90
100
AcDbEntity
  8
SANINDUSA
  6
HIDDEN
100
AcDbLine
 10
-0.3180306080885202
 20
-0.1893966524810366
 30
0.0
 11
-0.3170306080883165
 21
-0.1931287032887212
 31
0.0
  0
LINE
  5
1B97
330
1B90
100
AcDbEntity
  8
SANINDUSA
  6
HIDDEN
100
AcDbLine
 10
-0.3170306080883165
 20
-0.1931287032887212
 30
0.0
 11
-0.3160306080881128
 21
-0.1931287032887212
 31
0.0
  0
LINE
  5
1B98
330
1B90
100
AcDbEntity
  8
SANINDUSA
  6
HIDDEN
100
AcDbLine
 10
-0.2300306080878727
 20
-0.1931287032887212
 30
0.0
 11
-0.2290306080885784
 21
-0.1931287032887212
 31
0.0
  0
LINE
  5
1B99
330
1B90
100
AcDbEntity
  8
SANINDUSA
  6
HIDDEN
100
AcDbLine
 10
-0.2290306080885784
 20
-0.1931287032887212
 30
0.0
 11
-0.2280306080883747
 21
-0.1893966524810366
 31
0.0
  0
ARC
  5
1B9A
330
1B90
100
AcDbEntity
  8
SANINDUSA
  6
HIDDEN
100
AcDbCircle
 10
-0.3020306080879891
 20
0.036871296711297
 30
0.0
 40
0.056
100
AcDbArc
 50
100.2865606110578
 51
180.0
  0
ARC
  5
1B9B
330
1B90
100
AcDbEntity
  8
SANINDUSA
  6
HIDDEN
100
AcDbCircle
 10
-0.3020306080879891
 20
0.036871296711297
 30
0.0
 40
0.0539999999999999
100
AcDbArc
 50
90.0
 51
180.0
  0
LINE
  5
1B9C
330
1B90
100
AcDbEntity
  8
SANINDUSA
  6
HIDDEN
100
AcDbLine
 10
-0.3560306080880764
 20
-0.0388518804618343
 30
0.0
 11
-0.3560306080880764
 21
-0.0055992813397552
 31
0.0
  0
LINE
  5
1B9D
330
1B90
100
AcDbEntity
  8
SANINDUSA
  6
HIDDEN
100
AcDbLine
 10
-0.3580306080884839
 20
-0.0388518804618343
 30
0.0
 11
-0.3580306080884839
 21
-0.0055992813381636
 31
0.0
  0
LINE
  5
1B9E
330
1B90
100
AcDbEntity
  8
SANINDUSA
  6
HIDDEN
100
AcDbLine
 10
-0.3560306080880764
 20
0.036871296711297
 30
0.0
 11
-0.3560306080880764
 21
-0.0055992813397552
 31
0.0
  0
LINE
  5
1B9F
330
1B90
100
AcDbEntity
  8
SANINDUSA
  6
HIDDEN
100
AcDbLine
 10
-0.3580306080884839
 20
0.036871296711297
 30
0.0
 11
-0.3580306080884839
 21
-0.0055992813397552
 31
0.0
  0
LINE
  5
1BA0
330
1B90
100
AcDbEntity
  8
SANINDUSA
  6
HIDDEN
100
AcDbLine
 10
-0.3560306080880764
 20
-0.0055992813397552
 30
0.0
 11
-0.3560306080844384
 21
-0.0055992813397552
 31
0.0
  0
LINE
  5
1BA1
330
1B90
100
AcDbEntity
  8
SANINDUSA
  6
HIDDEN
100
AcDbLine
 10
-0.2320306080882801
 20
-0.020128703288492
 30
0.0
 11
-0.2320306080882801
 21
-0.0221287032886721
 31
0.0
  0
LINE
  5
1BA2
330
1B90
100
AcDbEntity
  8
SANINDUSA
  6
HIDDEN
100
AcDbLine
 10
-0.2620306080880255
 20
-0.0215172419257215
 30
0.0
 11
-0.2620306080880255
 21
-0.020128703288492
 31
0.0
  0
LINE
  5
1BA3
330
1B90
100
AcDbEntity
  8
SANINDUSA
  6
HIDDEN
100
AcDbLine
 10
-0.2633468093381452
 20
-0.0237518592800825
 30
0.0
 11
-0.2348175302549862
 21
-0.0660503336177953
 31
0.0
  0
LINE
  5
1BA4
330
1B90
100
AcDbEntity
  8
SANINDUSA
  6
HIDDEN
100
AcDbLine
 10
-0.2616886832329328
 20
-0.0226356277325977
 30
0.0
 11
-0.2331594560246231
 21
-0.0649319464539531
 31
0.0
  0
ARC
  5
1BA5
330
1B90
100
AcDbEntity
  8
SANINDUSA
  6
HIDDEN
100
AcDbCircle
 10
-0.2600306080885275
 20
-0.0215172419257215
 30
0.0
 40
0.0020000000000001
100
AcDbArc
 50
180.0
 51
214.0000000001436
  0
ARC
  5
1BA6
330
1B90
100
AcDbEntity
  8
SANINDUSA
  6
HIDDEN
100
AcDbCircle
 10
-0.2580304322136726
 20
-0.0817076310549965
 30
0.0
 40
0.0299998176965208
100
AcDbArc
 50
0.0
 51
33.99999865963669
  0
ARC
  5
1BA7
330
1B90
100
AcDbEntity
  8
SANINDUSA
  6
HIDDEN
100
AcDbCircle
 10
-0.2580304028260798
 20
-0.0817076110581638
 30
0.0
 40
0.0279997830701829
100
AcDbArc
 50
0.0
 51
33.99999523654892
  0
LINE
  5
1BA8
330
1B90
100
AcDbEntity
  8
SANINDUSA
  6
HIDDEN
100
AcDbLine
 10
-0.2320306080882801
 20
-0.0221287032886721
 30
0.0
 11
-0.2280306080883747
 21
-0.0221287032886721
 31
0.0
  0
LINE
  5
1BA9
330
1B90
100
AcDbEntity
  8
SANINDUSA
  6
HIDDEN
100
AcDbLine
 10
-0.2280306080883747
 20
-0.0181287032885393
 30
0.0
 11
-0.2640306080884329
 21
-0.0181287032885393
 31
0.0
  0
LINE
  5
1BAA
330
1B90
100
AcDbEntity
  8
SANINDUSA
  6
HIDDEN
100
AcDbLine
 10
-0.2320306080882801
 20
-0.020128703288492
 30
0.0
 11
-0.2620306080880255
 21
-0.020128703288492
 31
0.0
  0
LINE
  5
1BAB
330
1B90
100
AcDbEntity
  8
SANINDUSA
  6
HIDDEN
100
AcDbLine
 10
-0.2640306080884329
 20
-0.0181542044297203
 30
0.0
 11
-0.2640306080884329
 21
-0.0181287032885393
 31
0.0
  0
LINE
  5
1BAC
330
1B90
100
AcDbEntity
  8
SANINDUSA
  6
HIDDEN
100
AcDbLine
 10
-0.27103060808804
 20
0.1088712967114134
 30
0.0
 11
-0.2280306080883747
 21
0.1088712967114134
 31
0.0
  0
LINE
  5
1BAD
330
1B90
100
AcDbEntity
  8
SANINDUSA
  6
HIDDEN
100
AcDbLine
 10
-0.27103060808804
 20
0.1108712967113661
 30
0.0
 11
-0.2320306080882801
 21
0.1108712967113661
 31
0.0
  0
LINE
  5
1BAE
330
1B90
100
AcDbEntity
  8
SANINDUSA
  6
HIDDEN
100
AcDbLine
 10
-0.2730306080884475
 20
0.1068712967114607
 30
0.0
 11
-0.2730306080884475
 21
0.0958712967114934
 31
0.0
  0
LINE
  5
1BAF
330
1B90
100
AcDbEntity
  8
SANINDUSA
  6
HIDDEN
100
AcDbLine
 10
-0.2750306080879454
 20
0.1068712967114607
 30
0.0
 11
-0.2750306080879454
 21
0.0958712967114934
 31
0.0
  0
LINE
  5
1BB0
330
1B90
100
AcDbEntity
  8
SANINDUSA
  6
HIDDEN
100
AcDbLine
 10
-0.2970306080878799
 20
0.1098712967113897
 30
0.0
 11
-0.2970306080878799
 21
0.1058712967114843
 31
0.0
  0
LINE
  5
1BB1
330
1B90
100
AcDbEntity
  8
SANINDUSA
  6
HIDDEN
100
AcDbLine
 10
-0.3120306080882074
 20
0.1098712967113897
 30
0.0
 11
-0.3120306080882074
 21
0.1058712967114843
 31
0.0
  0
LINE
  5
1BB2
330
1B90
100
AcDbEntity
  8
SANINDUSA
  6
HIDDEN
100
AcDbLine
 10
-0.2970306080878799
 20
0.092871296711337
 30
0.0
 11
-0.2780306080885566
 21
0.092871296711337
 31
0.0
  0
LINE
  5
1BB3
330
1B90
100
AcDbEntity
  8
SANINDUSA
  6
HIDDEN
100
AcDbLine
 10
-0.3020306080879891
 20
0.0908712967113843
 30
0.0
 11
-0.2780306080885566
 21
0.0908712967113843
 31
0.0
  0
LINE
  5
1BB4
330
1B90
100
AcDbEntity
  8
SANINDUSA
  6
HIDDEN
100
AcDbLine
 10
-0.2970306080878799
 20
0.1058712967114843
 30
0.0
 11
-0.3120306080882074
 21
0.1058712967114843
 31
0.0
  0
LINE
  5
1BB5
330
1B90
100
AcDbEntity
  8
SANINDUSA
  6
HIDDEN
100
AcDbLine
 10
-0.3120306080882074
 20
0.0978712967114461
 30
0.0
 11
-0.2970306080878799
 21
0.0978712967114461
 31
0.0
  0
LINE
  5
1BB6
330
1B90
100
AcDbEntity
  8
SANINDUSA
  6
HIDDEN
100
AcDbLine
 10
-0.2970306080878799
 20
0.0978719059307878
 30
0.0
 11
-0.3120306080882074
 21
0.0978719059307878
 31
0.0
  0
LINE
  5
1BB7
330
1B90
100
AcDbEntity
  8
SANINDUSA
  6
HIDDEN
100
AcDbLine
 10
-0.3120306080882074
 20
0.1057606146293892
 30
0.0
 11
-0.3120306080882074
 21
0.0979928728536379
 31
0.0
  0
LINE
  5
1BB8
330
1B90
100
AcDbEntity
  8
SANINDUSA
  6
HIDDEN
100
AcDbLine
 10
-0.3120306080882074
 20
0.1058706874921427
 30
0.0
 11
-0.3120306080882074
 21
0.1058712967114843
 31
0.0
  0
LINE
  5
1BB9
330
1B90
100
AcDbEntity
  8
SANINDUSA
  6
HIDDEN
100
AcDbLine
 10
-0.3120306080882074
 20
0.1057606146293892
 30
0.0
 11
-0.3120306080882074
 21
0.1058706874921427
 31
0.0
  0
LINE
  5
1BBA
330
1B90
100
AcDbEntity
  8
SANINDUSA
  6
HIDDEN
100
AcDbLine
 10
-0.3120306080882074
 20
0.0978712967114461
 30
0.0
 11
-0.3120306080882074
 21
0.0978719059307878
 31
0.0
  0
LINE
  5
1BBB
330
1B90
100
AcDbEntity
  8
SANINDUSA
  6
HIDDEN
100
AcDbLine
 10
-0.3120306080882074
 20
0.0978719059307878
 30
0.0
 11
-0.3120306080882074
 21
0.0979928728536379
 31
0.0
  0
LINE
  5
1BBC
330
1B90
100
AcDbEntity
  8
SANINDUSA
  6
HIDDEN
100
AcDbLine
 10
-0.3120306080882074
 20
0.0978712967114461
 30
0.0
 11
-0.3120306080882074
 21
0.0919712059671838
 31
0.0
  0
LINE
  5
1BBD
330
1B90
100
AcDbEntity
  8
SANINDUSA
  6
HIDDEN
100
AcDbLine
 10
-0.2970306080878799
 20
0.1057606146293892
 30
0.0
 11
-0.2970306080878799
 21
0.0979928728536379
 31
0.0
  0
LINE
  5
1BBE
330
1B90
100
AcDbEntity
  8
SANINDUSA
  6
HIDDEN
100
AcDbLine
 10
-0.2970306080878799
 20
0.1058706874921427
 30
0.0
 11
-0.2970306080878799
 21
0.1058712967114843
 31
0.0
  0
LINE
  5
1BBF
330
1B90
100
AcDbEntity
  8
SANINDUSA
  6
HIDDEN
100
AcDbLine
 10
-0.2970306080878799
 20
0.1057606146293892
 30
0.0
 11
-0.2970306080878799
 21
0.1058706874921427
 31
0.0
  0
LINE
  5
1BC0
330
1B90
100
AcDbEntity
  8
SANINDUSA
  6
HIDDEN
100
AcDbLine
 10
-0.2970306080878799
 20
0.0978712967114461
 30
0.0
 11
-0.2970306080878799
 21
0.0978719059307878
 31
0.0
  0
LINE
  5
1BC1
330
1B90
100
AcDbEntity
  8
SANINDUSA
  6
HIDDEN
100
AcDbLine
 10
-0.2970306080878799
 20
0.0978719059307878
 30
0.0
 11
-0.2970306080878799
 21
0.0979928728536379
 31
0.0
  0
LINE
  5
1BC2
330
1B90
100
AcDbEntity
  8
SANINDUSA
  6
HIDDEN
100
AcDbLine
 10
-0.2970306080878799
 20
0.0978712967114461
 30
0.0
 11
-0.2970306080878799
 21
0.092871296711337
 31
0.0
  0
ARC
  5
1BC3
330
1B90
100
AcDbEntity
  8
SANINDUSA
  6
HIDDEN
100
AcDbCircle
 10
-0.2780306080885566
 20
0.0958712967114934
 30
0.0
 40
0.003
100
AcDbArc
 50
270.0
 51
0.0
  0
ARC
  5
1BC4
330
1B90
100
AcDbEntity
  8
SANINDUSA
  6
HIDDEN
100
AcDbCircle
 10
-0.2780306080885566
 20
0.0958712967114934
 30
0.0
 40
0.005
100
AcDbArc
 50
270.0
 51
0.0
  0
LINE
  5
1BC5
330
1B90
100
AcDbEntity
  8
SANINDUSA
  6
HIDDEN
100
AcDbLine
 10
-0.3120306080882074
 20
0.1098712967113897
 30
0.0
 11
-0.2970306080878799
 21
0.1098712967113897
 31
0.0
  0
ARC
  5
1BC6
330
1B90
100
AcDbEntity
  8
SANINDUSA
  6
HIDDEN
100
AcDbCircle
 10
-0.27103060808804
 20
0.1068712967114607
 30
0.0
 40
0.002
100
AcDbArc
 50
90.0
 51
180.0
  0
ARC
  5
1BC7
330
1B90
100
AcDbEntity
  8
SANINDUSA
  6
HIDDEN
100
AcDbCircle
 10
-0.27103060808804
 20
0.1068712967114607
 30
0.0
 40
0.0040000000000001
100
AcDbArc
 50
90.0
 51
180.0
  0
LINE
  5
1BC8
330
1B90
100
AcDbEntity
  8
SANINDUSA
  6
HIDDEN
100
AcDbLine
 10
-0.2280306080883747
 20
0.1128712967113188
 30
0.0
 11
-0.2320306080882801
 21
0.1128712967113188
 31
0.0
  0
LINE
  5
1BC9
330
1B90
100
AcDbEntity
  8
SANINDUSA
  6
HIDDEN
100
AcDbLine
 10
-0.2320306080882801
 20
0.1128712967113188
 30
0.0
 11
-0.2320306080882801
 21
0.1108712967113661
 31
0.0
  0
LINE
  5
1BCA
330
1B90
100
AcDbEntity
  8
SANINDUSA
  6
HIDDEN
100
AcDbLine
 10
-0.2280306080883747
 20
0.1128712967113188
 30
0.0
 11
-0.2280306080883747
 21
0.1088712967114134
 31
0.0
  0
LINE
  5
1BCB
330
1B90
100
AcDbEntity
  8
SANINDUSA
  6
HIDDEN
100
AcDbLine
 10
-0.2280306080883747
 20
-0.0181287032885393
 30
0.0
 11
-0.2280306080883747
 21
-0.0221287032886721
 31
0.0
  0
LINE
  5
1BCC
330
1B90
100
AcDbEntity
  8
SANINDUSA
  6
HIDDEN
100
AcDbLine
 10
-0.2640306080884329
 20
-0.0181542044297203
 30
0.0
 11
-0.2640306080884329
 21
-0.0215151632185098
 31
0.0
  0
ARC
  5
1BCD
330
1B90
100
AcDbEntity
  8
SANINDUSA
  6
HIDDEN
100
AcDbCircle
 10
-0.2600306080885275
 20
-0.0215151632185098
 30
0.0
 40
0.004
100
AcDbArc
 50
180.0
 51
213.9986946280409
  0
LINE
  5
1BCE
330
1B90
100
AcDbEntity
  8
SANINDUSA
  6
HIDDEN
100
AcDbLine
 10
-0.3180306080885202
 20
-0.1048813674701705
 30
0.0
 11
-0.3180306080885202
 21
-0.1893966524810366
 31
0.0
  0
ARC
  5
1BCF
330
1B90
100
AcDbEntity
  8
SANINDUSA
  6
HIDDEN
100
AcDbCircle
 10
-0.3380306080880473
 20
-0.1048813674701705
 30
0.0
 40
0.02
100
AcDbArc
 50
0.0
 51
37.28570792801806
  0
LINE
  5
1BD0
330
1B90
100
AcDbEntity
  8
SANINDUSA
  6
HIDDEN
100
AcDbLine
 10
-0.3539431004101061
 20
-0.0509676795729774
 30
0.0
 11
-0.3221181157659885
 21
-0.0927655683592548
 31
0.0
  0
ARC
  5
1BD1
330
1B90
100
AcDbEntity
  8
SANINDUSA
  6
HIDDEN
100
AcDbCircle
 10
-0.3380306080880473
 20
-0.0388518804618343
 30
0.0
 40
0.02
100
AcDbArc
 50
180.0
 51
217.2857079280181
  0
ARC
  5
1BD2
330
1B90
100
AcDbEntity
  8
SANINDUSA
  6
HIDDEN
100
AcDbCircle
 10
-0.3380306080880473
 20
-0.1048813674701705
 30
0.0
 40
0.022
100
AcDbArc
 50
0.0
 51
37.28570792801806
  0
LINE
  5
1BD3
330
1B90
100
AcDbEntity
  8
SANINDUSA
  6
HIDDEN
100
AcDbLine
 10
-0.352351851178355
 20
-0.0497560996618631
 30
0.0
 11
-0.3205268665342373
 21
-0.0915539884479131
 31
0.0
  0
ARC
  5
1BD4
330
1B90
100
AcDbEntity
  8
SANINDUSA
  6
HIDDEN
100
AcDbCircle
 10
-0.3380306080880473
 20
-0.0388518804618343
 30
0.0
 40
0.018
100
AcDbArc
 50
180.0
 51
217.2857079280181
  0
LINE
  5
1BD5
330
1B90
100
AcDbEntity
  8
SANINDUSA
100
AcDbLine
 10
-0.2480306080879018
 20
-0.0246287032884993
 30
0.0
 11
-0.2279851652774596
 21
-0.0241731250428075
 31
0.0
  0
LINE
  5
1BD6
330
1B90
100
AcDbEntity
  8
SANINDUSA
100
AcDbLine
 10
-0.2279851652774596
 20
0.1149157184656815
 30
0.0
 11
-0.2480306080879018
 21
0.1153712967113734
 31
0.0
  0
LINE
  5
1BD7
330
1B90
100
AcDbEntity
  8
SANINDUSA
100
AcDbLine
 10
-0.2480306080879018
 20
-0.020128703288492
 30
0.0
 11
-0.2480306080879018
 21
-0.0246287032884993
 31
0.0
  0
LINE
  5
1BD8
330
1B90
100
AcDbEntity
  8
SANINDUSA
100
AcDbLine
 10
-0.2480306080879018
 20
0.1153712967113734
 30
0.0
 11
-0.2480306080879018
 21
0.1108712967113661
 31
0.0
  0
LINE
  5
1BD9
330
1B90
100
AcDbEntity
  8
SANINDUSA
100
AcDbLine
 10
-0.2260306080879673
 20
0.1038712967113042
 30
0.0
 11
-0.2260306080879673
 21
0.0971861471693956
 31
0.0
  0
LINE
  5
1BDA
330
1B90
100
AcDbEntity
  8
SANINDUSA
100
AcDbLine
 10
-0.2260306080879673
 20
-0.0064435537465215
 30
0.0
 11
-0.2260306080879673
 21
-0.0131287032886576
 31
0.0
  0
LINE
  5
1BDB
330
1B90
100
AcDbEntity
  8
SANINDUSA
100
AcDbLine
 10
-0.2260306080879673
 20
-0.0221736413718645
 30
0.0
 11
-0.2260306080879673
 21
-0.0131287032886576
 31
0.0
  0
LINE
  5
1BDC
330
1B90
100
AcDbEntity
  8
SANINDUSA
100
AcDbLine
 10
-0.2280306080883747
 20
-0.0141287032886339
 30
0.0
 11
-0.2280306080883747
 21
-0.0221736413718645
 31
0.0
  0
LINE
  5
1BDD
330
1B90
100
AcDbEntity
  8
SANINDUSA
100
AcDbLine
 10
-0.2280306080883747
 20
-0.0221736413718645
 30
0.0
 11
-0.2330078866825715
 21
-0.0222867613399558
 31
0.0
  0
LINE
  5
1BDE
330
1B90
100
AcDbEntity
  8
SANINDUSA
100
AcDbLine
 10
-0.2460306080884038
 20
-0.0215597467770294
 30
0.0
 11
-0.2460306080884038
 21
-0.020128703288492
 31
0.0
  0
LINE
  5
1BDF
330
1B90
100
AcDbEntity
  8
SANINDUSA
100
AcDbLine
 10
-0.2340306080877781
 20
-0.0212870195043706
 30
0.0
 11
-0.2340306080877781
 21
-0.020128703288492
 31
0.0
  0
LINE
  5
1BE0
330
1B90
100
AcDbEntity
  8
SANINDUSA
100
AcDbLine
 10
-0.2360306080881855
 20
-0.020128703288492
 30
0.0
 11
-0.2360306080881855
 21
-0.0213779285952569
 31
0.0
  0
LINE
  5
1BE1
330
1B90
100
AcDbEntity
  8
SANINDUSA
100
AcDbLine
 10
-0.238030608088593
 20
-0.0213779285952569
 30
0.0
 11
-0.238030608088593
 21
-0.020128703288492
 31
0.0
  0
LINE
  5
1BE2
330
1B90
100
AcDbEntity
  8
SANINDUSA
100
AcDbLine
 10
-0.240030608088091
 20
-0.020128703288492
 30
0.0
 11
-0.240030608088091
 21
-0.0214688376861432
 31
0.0
  0
LINE
  5
1BE3
330
1B90
100
AcDbEntity
  8
SANINDUSA
100
AcDbLine
 10
-0.2420306080884984
 20
-0.0214688376861432
 30
0.0
 11
-0.2420306080884984
 21
-0.020128703288492
 31
0.0
  0
LINE
  5
1BE4
330
1B90
100
AcDbEntity
  8
SANINDUSA
100
AcDbLine
 10
-0.2440306080879964
 20
-0.020128703288492
 30
0.0
 11
-0.2440306080879964
 21
-0.0215597467770294
 31
0.0
  0
LINE
  5
1BE5
330
1B90
100
AcDbEntity
  8
SANINDUSA
100
AcDbLine
 10
-0.2327124466928581
 20
-0.0063256389478283
 30
0.0
 11
-0.2280306080883747
 21
-0.0141287032886339
 31
0.0
  0
LINE
  5
1BE6
330
1B90
100
AcDbEntity
  8
SANINDUSA
100
AcDbLine
 10
-0.2260306080879673
 20
-0.0131287032886576
 30
0.0
 11
-0.2290252732318549
 21
-0.0063907067146829
 31
0.0
  0
LINE
  5
1BE7
330
1B90
100
AcDbEntity
  8
SANINDUSA
100
AcDbLine
 10
-0.2280306080883747
 20
0.1129162347945112
 30
0.0
 11
-0.2280306080883747
 21
0.104871296711508
 31
0.0
  0
LINE
  5
1BE8
330
1B90
100
AcDbEntity
  8
SANINDUSA
100
AcDbLine
 10
-0.2260306080879673
 20
0.1038712967113042
 30
0.0
 11
-0.2260306080879673
 21
0.1129162347945112
 31
0.0
  0
LINE
  5
1BE9
330
1B90
100
AcDbEntity
  8
SANINDUSA
100
AcDbLine
 10
-0.2280306080883747
 20
0.104871296711508
 30
0.0
 11
-0.2327124466928581
 21
0.097068232370475
 31
0.0
  0
LINE
  5
1BEA
330
1B90
100
AcDbEntity
  8
SANINDUSA
100
AcDbLine
 10
-0.2290252732318549
 20
0.097133300137557
 30
0.0
 11
-0.2260306080879673
 21
0.1038712967113042
 31
0.0
  0
LINE
  5
1BEB
330
1B90
100
AcDbEntity
  8
SANINDUSA
100
AcDbLine
 10
-0.2330078866825715
 20
0.1130293547626024
 30
0.0
 11
-0.2280306080883747
 21
0.1129162347945112
 31
0.0
  0
LINE
  5
1BEC
330
1B90
100
AcDbEntity
  8
SANINDUSA
100
AcDbLine
 10
-0.2460306080884038
 20
0.1108712967113661
 30
0.0
 11
-0.2460306080884038
 21
0.1123023401999035
 31
0.0
  0
LINE
  5
1BED
330
1B90
100
AcDbEntity
  8
SANINDUSA
100
AcDbLine
 10
-0.2440306080879964
 20
0.1123023401999035
 30
0.0
 11
-0.2440306080879964
 21
0.1108712967113661
 31
0.0
  0
LINE
  5
1BEE
330
1B90
100
AcDbEntity
  8
SANINDUSA
100
AcDbLine
 10
-0.2420306080884984
 20
0.1108712967113661
 30
0.0
 11
-0.2420306080884984
 21
0.1122114311090172
 31
0.0
  0
LINE
  5
1BEF
330
1B90
100
AcDbEntity
  8
SANINDUSA
100
AcDbLine
 10
-0.240030608088091
 20
0.1122114311090172
 30
0.0
 11
-0.240030608088091
 21
0.1108712967113661
 31
0.0
  0
LINE
  5
1BF0
330
1B90
100
AcDbEntity
  8
SANINDUSA
100
AcDbLine
 10
-0.238030608088593
 20
0.1108712967113661
 30
0.0
 11
-0.238030608088593
 21
0.1121205220181309
 31
0.0
  0
LINE
  5
1BF1
330
1B90
100
AcDbEntity
  8
SANINDUSA
100
AcDbLine
 10
-0.2360306080881855
 20
0.1121205220181309
 30
0.0
 11
-0.2360306080881855
 21
0.1108712967113661
 31
0.0
  0
LINE
  5
1BF2
330
1B90
100
AcDbEntity
  8
SANINDUSA
100
AcDbLine
 10
-0.2340306080877781
 20
0.1108712967113661
 30
0.0
 11
-0.2340306080877781
 21
0.1120296129272447
 31
0.0
  0
ARC
  5
1BF3
330
1B90
100
AcDbEntity
  8
SANINDUSA
100
AcDbCircle
 10
-0.2450306080882001
 20
-0.0215597467770294
 30
0.0
 40
0.0010000000000002
100
AcDbArc
 50
180.0
 51
0.0
  0
ARC
  5
1BF4
330
1B90
100
AcDbEntity
  8
SANINDUSA
100
AcDbCircle
 10
-0.2410306080882947
 20
-0.0214688376861432
 30
0.0
 40
0.0010000000000002
100
AcDbArc
 50
180.0
 51
0.0
  0
ARC
  5
1BF5
330
1B90
100
AcDbEntity
  8
SANINDUSA
100
AcDbCircle
 10
-0.2370306080883893
 20
-0.0213779285952569
 30
0.0
 40
0.0010000000000002
100
AcDbArc
 50
180.0
 51
0.0
  0
ARC
  5
1BF6
330
1B90
100
AcDbEntity
  8
SANINDUSA
100
AcDbCircle
 10
-0.2330306080884839
 20
-0.0212870195043706
 30
0.0
 40
0.0010000000000002
100
AcDbArc
 50
180.0
 51
271.301952672039
  0
ARC
  5
1BF7
330
1B90
100
AcDbEntity
  8
SANINDUSA
100
AcDbCircle
 10
-0.2370306080883893
 20
0.1121205220181309
 30
0.0
 40
0.0010000000000002
100
AcDbArc
 50
0.0
 51
180.0
  0
ARC
  5
1BF8
330
1B90
100
AcDbEntity
  8
SANINDUSA
100
AcDbCircle
 10
-0.2450306080882001
 20
0.1123023401999035
 30
0.0
 40
0.0010000000000002
100
AcDbArc
 50
0.0
 51
180.0
  0
LINE
  5
1BF9
330
1B90
100
AcDbEntity
  8
SANINDUSA
100
AcDbLine
 10
-0.2460306080884038
 20
0.1123023401999035
 30
0.0
 11
-0.2460306080884038
 21
0.1108712967113661
 31
0.0
  0
ARC
  5
1BFA
330
1B90
100
AcDbEntity
  8
SANINDUSA
100
AcDbCircle
 10
-0.2410306080882947
 20
0.1122114311090172
 30
0.0
 40
0.0010000000000002
100
AcDbArc
 50
0.0
 51
180.0
  0
LINE
  5
1BFB
330
1B90
100
AcDbEntity
  8
SANINDUSA
100
AcDbLine
 10
-0.2440306080879964
 20
0.1108712967113661
 30
0.0
 11
-0.2440306080879964
 21
0.1123023401999035
 31
0.0
  0
LINE
  5
1BFC
330
1B90
100
AcDbEntity
  8
SANINDUSA
100
AcDbLine
 10
-0.2420306080884984
 20
0.1122114311090172
 30
0.0
 11
-0.2420306080884984
 21
0.1108712967113661
 31
0.0
  0
LINE
  5
1BFD
330
1B90
100
AcDbEntity
  8
SANINDUSA
100
AcDbLine
 10
-0.240030608088091
 20
0.1108712967113661
 30
0.0
 11
-0.240030608088091
 21
0.1122114311090172
 31
0.0
  0
LINE
  5
1BFE
330
1B90
100
AcDbEntity
  8
SANINDUSA
100
AcDbLine
 10
-0.238030608088593
 20
0.1121205220181309
 30
0.0
 11
-0.238030608088593
 21
0.1108712967113661
 31
0.0
  0
ARC
  5
1BFF
330
1B90
100
AcDbEntity
  8
SANINDUSA
100
AcDbCircle
 10
-0.2330306080884839
 20
0.1120296129272447
 30
0.0
 40
0.0010000000000002
100
AcDbArc
 50
88.69804732796104
 51
180.0
  0
LINE
  5
1C00
330
1B90
100
AcDbEntity
  8
SANINDUSA
100
AcDbLine
 10
-0.2360306080881855
 20
0.1108712967113661
 30
0.0
 11
-0.2360306080881855
 21
0.1121205220181309
 31
0.0
  0
LINE
  5
1C01
330
1B90
100
AcDbEntity
  8
SANINDUSA
100
AcDbLine
 10
-0.2340306080877781
 20
0.1120296129272447
 30
0.0
 11
-0.2340306080877781
 21
0.1108712967113661
 31
0.0
  0
ARC
  5
1C02
330
1B90
100
AcDbEntity
  8
SANINDUSA
100
AcDbCircle
 10
-0.2280306080883747
 20
0.1129162347945112
 30
0.0
 40
0.002
100
AcDbArc
 50
0.0
 51
88.69804732796104
  0
ARC
  5
1C03
330
1B90
100
AcDbEntity
  8
SANINDUSA
100
AcDbCircle
 10
-0.2280306080883747
 20
-0.0221736413718645
 30
0.0
 40
0.002
100
AcDbArc
 50
271.301952672039
 51
0.0
  0
LINE
  5
1C04
330
1B90
100
AcDbEntity
  8
SANINDUSA
  6
Continuous
100
AcDbLine
 10
0.2571759601205485
 20
0.049998598943148
 30
0.0
 11
0.2571759601205485
 21
-0.049998598943148
 31
0.0
  0
LINE
  5
1C05
330
1B90
100
AcDbEntity
  8
SANINDUSA
100
AcDbLine
 10
0.2641999999996187
 20
-0.0699999999999363
 30
0.0
 11
0.2842454428100609
 21
-0.0695444217542445
 31
0.0
  0
LINE
  5
1C06
330
1B90
100
AcDbEntity
  8
SANINDUSA
100
AcDbLine
 10
0.2842454428100609
 20
0.0695444217542445
 30
0.0
 11
0.2641999999996187
 21
0.0699999999999363
 31
0.0
  0
LINE
  5
1C07
330
1B90
100
AcDbEntity
  8
SANINDUSA
100
AcDbLine
 10
0.2641999999996187
 20
-0.0629638746470391
 30
0.0
 11
0.2641999999996187
 21
-0.0699999999999363
 31
0.0
  0
LINE
  5
1C08
330
1B90
100
AcDbEntity
  8
SANINDUSA
100
AcDbLine
 10
0.2641999999996187
 20
0.0699999999999363
 30
0.0
 11
0.2641999999996187
 21
0.0629638746472665
 31
0.0
  0
LINE
  5
1C09
330
1B90
100
AcDbEntity
  8
SANINDUSA
100
AcDbLine
 10
0.2861999999995532
 20
0.0584999999998672
 30
0.0
 11
0.2861999999995532
 21
0.0515109435793875
 31
0.0
  0
LINE
  5
1C0A
330
1B90
100
AcDbEntity
  8
SANINDUSA
100
AcDbLine
 10
0.2861999999995532
 20
-0.0515109435793875
 30
0.0
 11
0.2861999999995532
 21
-0.0585000000000946
 31
0.0
  0
LINE
  5
1C0B
330
1B90
100
AcDbEntity
  8
SANINDUSA
100
AcDbLine
 10
0.2861999999995532
 20
-0.0675449380833015
 30
0.0
 11
0.2861999999995532
 21
-0.0585000000000946
 31
0.0
  0
LINE
  5
1C0C
330
1B90
100
AcDbEntity
  8
SANINDUSA
100
AcDbLine
 10
0.2842000000000553
 20
-0.059500000000071
 30
0.0
 11
0.2842000000000553
 21
-0.0675449380833015
 31
0.0
  0
LINE
  5
1C0D
330
1B90
100
AcDbEntity
  8
SANINDUSA
100
AcDbLine
 10
0.2842000000000553
 20
-0.0675449380833015
 30
0.0
 11
0.279222721404949
 21
-0.0676580580513928
 31
0.0
  0
LINE
  5
1C0E
330
1B90
100
AcDbEntity
  8
SANINDUSA
100
AcDbLine
 10
0.2662000000000262
 20
-0.0669310434884665
 30
0.0
 11
0.2662000000000262
 21
-0.063890836662722
 31
0.0
  0
LINE
  5
1C0F
330
1B90
100
AcDbEntity
  8
SANINDUSA
100
AcDbLine
 10
0.2681999999995241
 20
-0.0648500063841766
 30
0.0
 11
0.2681999999995241
 21
-0.0669310434884665
 31
0.0
  0
LINE
  5
1C10
330
1B90
100
AcDbEntity
  8
SANINDUSA
100
AcDbLine
 10
0.2793338659039364
 20
-0.0513897765072216
 30
0.0
 11
0.2842000000000553
 21
-0.059500000000071
 31
0.0
  0
LINE
  5
1C11
330
1B90
100
AcDbEntity
  8
SANINDUSA
100
AcDbLine
 10
0.2861999999995532
 20
-0.0585000000000946
 30
0.0
 11
0.2830691973867942
 21
-0.0514556941216142
 31
0.0
  0
LINE
  5
1C12
330
1B90
100
AcDbEntity
  8
SANINDUSA
100
AcDbLine
 10
0.2842000000000553
 20
0.0675449380830742
 30
0.0
 11
0.2842000000000553
 21
0.059500000000071
 31
0.0
  0
LINE
  5
1C13
330
1B90
100
AcDbEntity
  8
SANINDUSA
100
AcDbLine
 10
0.2861999999995532
 20
0.0584999999998672
 30
0.0
 11
0.2861999999995532
 21
0.0675449380830742
 31
0.0
  0
LINE
  5
1C14
330
1B90
100
AcDbEntity
  8
SANINDUSA
100
AcDbLine
 10
0.2842000000000553
 20
0.059500000000071
 30
0.0
 11
0.2793338659039364
 21
0.0513897765069942
 31
0.0
  0
LINE
  5
1C15
330
1B90
100
AcDbEntity
  8
SANINDUSA
100
AcDbLine
 10
0.2830691973867942
 20
0.0514556941213869
 30
0.0
 11
0.2861999999995532
 21
0.0584999999998672
 31
0.0
  0
LINE
  5
1C16
330
1B90
100
AcDbEntity
  8
SANINDUSA
100
AcDbLine
 10
0.279222721404949
 20
0.0676580580511654
 30
0.0
 11
0.2842000000000553
 21
0.0675449380830742
 31
0.0
  0
LINE
  5
1C17
330
1B90
100
AcDbEntity
  8
SANINDUSA
100
AcDbLine
 10
0.2662000000000262
 20
0.0638908366629494
 30
0.0
 11
0.2662000000000262
 21
0.0669310434884665
 31
0.0
  0
LINE
  5
1C18
330
1B90
100
AcDbEntity
  8
SANINDUSA
100
AcDbLine
 10
0.2681999999995241
 20
0.0669310434884665
 30
0.0
 11
0.2681999999995241
 21
0.0648500063839492
 31
0.0
  0
ARC
  5
1C19
330
1B90
100
AcDbEntity
  8
SANINDUSA
100
AcDbCircle
 10
0.2671999999993204
 20
-0.0669310434884665
 30
0.0
 40
0.0010000000000002
100
AcDbArc
 50
180.0
 51
0.0
  0
ARC
  5
1C1A
330
1B90
100
AcDbEntity
  8
SANINDUSA
100
AcDbCircle
 10
0.2711999999992258
 20
-0.0668401343975802
 30
0.0
 40
0.0010000000000002
100
AcDbArc
 50
180.5639344929796
 51
343.1500899781601
  0
ARC
  5
1C1B
330
1B90
100
AcDbEntity
  8
SANINDUSA
100
AcDbCircle
 10
0.2752000000000407
 20
-0.0667492253066939
 30
0.0
 40
0.0010000000000002
100
AcDbArc
 50
202.3816772040944
 51
337.6183227959056
  0
ARC
  5
1C1C
330
1B90
100
AcDbEntity
  8
SANINDUSA
100
AcDbCircle
 10
0.2791999999999462
 20
-0.0666583162158077
 30
0.0
 40
0.0010000000000002
100
AcDbArc
 50
208.1436502311457
 51
271.301952672039
  0
ARC
  5
1C1D
330
1B90
100
AcDbEntity
  8
SANINDUSA
100
AcDbCircle
 10
0.2752000000000407
 20
0.0667492253066939
 30
0.0
 40
0.0010000000000002
100
AcDbArc
 50
22.38167719202895
 51
157.618322807971
  0
ARC
  5
1C1E
330
1B90
100
AcDbEntity
  8
SANINDUSA
100
AcDbCircle
 10
0.2671999999993204
 20
0.0669310434884665
 30
0.0
 40
0.0010000000000002
100
AcDbArc
 50
0.0
 51
180.0
  0
LINE
  5
1C1F
330
1B90
100
AcDbEntity
  8
SANINDUSA
100
AcDbLine
 10
0.2662000000000262
 20
0.0669310434884665
 30
0.0
 11
0.2662000000000262
 21
0.0638908366629494
 31
0.0
  0
ARC
  5
1C20
330
1B90
100
AcDbEntity
  8
SANINDUSA
100
AcDbCircle
 10
0.2711999999992258
 20
0.0668401343975802
 30
0.0
 40
0.0010000000000002
100
AcDbArc
 50
16.84991000937676
 51
179.4360655200489
  0
LINE
  5
1C21
330
1B90
100
AcDbEntity
  8
SANINDUSA
100
AcDbLine
 10
0.2681999999995241
 20
0.0648500063839492
 30
0.0
 11
0.2681999999995241
 21
0.0669310434884665
 31
0.0
  0
ARC
  5
1C22
330
1B90
100
AcDbEntity
  8
SANINDUSA
100
AcDbCircle
 10
0.2791999999999462
 20
0.0666583162158077
 30
0.0
 40
0.0010000000000002
100
AcDbArc
 50
88.69804732796104
 51
151.8563497803362
  0
ARC
  5
1C23
330
1B90
100
AcDbEntity
  8
SANINDUSA
100
AcDbCircle
 10
0.2842000000000553
 20
0.0675449380830742
 30
0.0
 40
0.002
100
AcDbArc
 50
0.0
 51
88.69804732796104
  0
ARC
  5
1C24
330
1B90
100
AcDbEntity
  8
SANINDUSA
100
AcDbCircle
 10
0.2842000000000553
 20
-0.0675449380833015
 30
0.0
 40
0.002
100
AcDbArc
 50
271.301952672039
 51
0.0
  0
LINE
  5
1C25
330
1B90
100
AcDbEntity
  8
SANINDUSA
100
AcDbLine
 10
0.271900752518377
 20
0.064679999999953
 30
0.0
 11
0.271900752518377
 21
0.0512586039178586
 31
0.0
  0
LINE
  5
1C26
330
1B90
100
AcDbEntity
  8
SANINDUSA
100
AcDbLine
 10
0.271900752518377
 20
-0.051258603918086
 30
0.0
 11
0.271900752518377
 21
-0.0646800000001804
 31
0.0
  0
LINE
  5
1C27
330
1B90
100
AcDbEntity
  8
SANINDUSA
100
AcDbLine
 10
0.2655799999993178
 20
0.0548799999999119
 30
0.0
 11
0.2655799999993178
 21
0.051147061226402
 31
0.0
  0
LINE
  5
1C28
330
1B90
100
AcDbEntity
  8
SANINDUSA
100
AcDbLine
 10
0.2655799999993178
 20
-0.0511470612266294
 30
0.0
 11
0.2655799999993178
 21
-0.0548800000001393
 31
0.0
  0
LINE
  5
1C29
330
1B90
100
AcDbEntity
  8
SANINDUSA
100
AcDbLine
 10
0.2616107525182088
 20
0.0543900000000122
 30
0.0
 11
0.2616107525182088
 21
0.0510770156827221
 31
0.0
  0
LINE
  5
1C2A
330
1B90
100
AcDbEntity
  8
SANINDUSA
100
AcDbLine
 10
0.2616107525182088
 20
-0.0510770156827221
 30
0.0
 11
0.2616107525182088
 21
-0.0543900000000122
 31
0.0
  0
LINE
  5
1C2B
330
1B90
100
AcDbEntity
  8
SANINDUSA
100
AcDbLine
 10
0.0
 20
-0.0480199999999513
 30
0.0
 11
0.0
 21
0.0480199999999513
 31
0.0
  0
LINE
  5
1C2C
330
1B90
100
AcDbEntity
  8
SANINDUSA
100
AcDbLine
 10
0.000489999999445
 20
0.0475300000000516
 30
0.0
 11
0.000489999999445
 21
-0.0475300000000516
 31
0.0
  0
LINE
  5
1C2D
330
1B90
100
AcDbEntity
  8
SANINDUSA
100
AcDbLine
 10
0.2394558456726372
 20
0.0514954290604237
 30
0.0
 11
0.2680610583383896
 21
0.0647534018573879
 31
0.0
  0
LINE
  5
1C2E
330
1B90
100
AcDbEntity
  8
SANINDUSA
100
AcDbLine
 10
0.2546318585818881
 20
0.0478170353544556
 30
0.0
 11
0.2609177878730406
 21
0.0541029646453808
 31
0.0
  0
LINE
  5
1C2F
330
1B90
100
AcDbEntity
  8
SANINDUSA
100
AcDbLine
 10
0.000489999999445
 20
0.0475300000000516
 30
0.0
 11
0.25393889393672
 21
0.0475300000000516
 31
0.0
  0
LINE
  5
1C30
330
1B90
100
AcDbEntity
  8
SANINDUSA
100
AcDbLine
 10
0.0082044012569895
 20
0.0514499999999316
 30
0.0
 11
0.2392497954851933
 21
0.0514499999999316
 31
0.0
  0
ARC
  5
1C31
330
1B90
100
AcDbEntity
  8
SANINDUSA
100
AcDbCircle
 10
0.0082044012569895
 20
0.0166170408240305
 30
0.0
 40
0.0348329591759133
100
AcDbArc
 50
90.0
 51
102.981023069007
  0
ARC
  5
1C32
330
1B90
100
AcDbEntity
  8
SANINDUSA
100
AcDbCircle
 10
0.000489999999445
 20
0.0500823491029223
 30
0.0
 40
0.0004900000000001
100
AcDbArc
 50
102.981023069007
 51
180.0
  0
LINE
  5
1C33
330
1B90
100
AcDbEntity
  8
SANINDUSA
100
AcDbLine
 10
0.0
 20
0.0480199999999513
 30
0.0
 11
0.0
 21
0.0500823491029223
 31
0.0
  0
ARC
  5
1C34
330
1B90
100
AcDbEntity
  8
SANINDUSA
100
AcDbCircle
 10
0.000489999999445
 20
0.0480199999999513
 30
0.0
 40
0.00049
100
AcDbArc
 50
180.0
 51
270.0
  0
ARC
  5
1C35
330
1B90
100
AcDbEntity
  8
SANINDUSA
100
AcDbCircle
 10
0.25393889393672
 20
0.0485099999998511
 30
0.0
 40
0.00098
100
AcDbArc
 50
270.0
 51
315.0000000000092
  0
ARC
  5
1C36
330
1B90
100
AcDbEntity
  8
SANINDUSA
100
AcDbCircle
 10
0.2392497954851933
 20
0.0519400000000587
 30
0.0
 40
0.00049
100
AcDbArc
 50
270.0
 51
294.8668271162652
  0
ARC
  5
1C37
330
1B90
100
AcDbEntity
  8
SANINDUSA
100
AcDbCircle
 10
0.2832199999993463
 20
0.0661499999998796
 30
0.0
 40
0.0009800000000001
100
AcDbArc
 50
0.0
 51
90.0
  0
ARC
  5
1C38
330
1B90
100
AcDbEntity
  8
SANINDUSA
100
AcDbCircle
 10
0.2708859292906709
 20
0.0661499999998796
 30
0.0
 40
0.0009799999999999
100
AcDbArc
 50
90.0
 51
135.0000000000092
  0
LINE
  5
1C39
330
1B90
100
AcDbEntity
  8
SANINDUSA
100
AcDbLine
 10
0.271900752518377
 20
0.064679999999953
 30
0.0
 11
0.2832199999993463
 21
0.064679999999953
 31
0.0
  0
LINE
  5
1C3A
330
1B90
100
AcDbEntity
  8
SANINDUSA
100
AcDbLine
 10
0.2708859292906709
 20
0.0671299999999064
 30
0.0
 11
0.2832199999993463
 21
0.0671299999999064
 31
0.0
  0
ARC
  5
1C3B
330
1B90
100
AcDbEntity
  8
SANINDUSA
100
AcDbCircle
 10
0.2616107525182088
 20
0.0534099999999853
 30
0.0
 40
0.00098
100
AcDbArc
 50
90.0
 51
135.0000000000092
  0
LINE
  5
1C3C
330
1B90
100
AcDbEntity
  8
SANINDUSA
100
AcDbLine
 10
0.265065376259372
 20
0.0582505530317121
 30
0.0
 11
0.265065376259372
 21
0.0568646237404664
 31
0.0
  0
LINE
  5
1C3D
330
1B90
100
AcDbEntity
  8
SANINDUSA
100
AcDbLine
 10
0.2650899999998728
 20
0.0543900000000122
 30
0.0
 11
0.2616107525182088
 21
0.0543900000000122
 31
0.0
  0
ARC
  5
1C3E
330
1B90
100
AcDbEntity
  8
SANINDUSA
100
AcDbCircle
 10
0.2650899999998728
 20
0.0548799999999119
 30
0.0
 40
0.0004900000000001
100
AcDbArc
 50
270.0
 51
0.0
  0
LINE
  5
1C3F
330
1B90
100
AcDbEntity
  8
SANINDUSA
100
AcDbLine
 10
0.2655799999993178
 20
0.0561470353543427
 30
0.0
 11
0.2655799999993178
 21
0.0548799999999119
 31
0.0
  0
ARC
  5
1C40
330
1B90
100
AcDbEntity
  8
SANINDUSA
100
AcDbCircle
 10
0.2650899999998728
 20
0.0561470353543427
 30
0.0
 40
0.0004900000000001
100
AcDbArc
 50
0.0
 51
44.99999999999078
  0
LINE
  5
1C41
330
1B90
100
AcDbEntity
  8
SANINDUSA
100
AcDbLine
 10
0.265065376259372
 20
0.0568646237404664
 30
0.0
 11
0.2654364823229116
 21
0.0564935176771542
 31
0.0
  0
ARC
  5
1C42
330
1B90
100
AcDbEntity
  8
SANINDUSA
100
AcDbCircle
 10
0.2657583409045401
 20
0.0575575883860893
 30
0.0
 40
0.00098
100
AcDbArc
 50
135.0000000000092
 51
224.9999999999908
  0
ARC
  5
1C43
330
1B90
100
AcDbEntity
  8
SANINDUSA
100
AcDbCircle
 10
0.271900752518377
 20
0.0636999999999262
 30
0.0
 40
0.0009799999999999
100
AcDbArc
 50
90.0
 51
135.0000000000092
  0
ARC
  5
1C44
330
1B90
100
AcDbEntity
  8
SANINDUSA
100
AcDbCircle
 10
0.2678550081509456
 20
0.0651979727970229
 30
0.0
 40
0.00049
100
AcDbArc
 50
294.8668271162652
 51
315.0000000000092
  0
LINE
  5
1C45
330
1B90
100
AcDbEntity
  8
SANINDUSA
100
AcDbLine
 10
0.2682014904739844
 20
0.0648514904742115
 30
0.0
 11
0.2701929646455028
 21
0.0668429646455024
 31
0.0
  0
LINE
  5
1C46
330
1B90
100
AcDbEntity
  8
SANINDUSA
100
AcDbLine
 10
0.265065376259372
 20
0.0582505530317121
 30
0.0
 11
0.2712077878732089
 21
0.064392964645549
 31
0.0
  0
ARC
  5
1C47
330
1B90
100
AcDbEntity
  8
SANINDUSA
100
AcDbCircle
 10
0.2832199999993463
 20
0.0656599999999799
 30
0.0
 40
0.0009800000000001
100
AcDbArc
 50
270.0
 51
0.0
  0
LINE
  5
1C48
330
1B90
100
AcDbEntity
  8
SANINDUSA
100
AcDbLine
 10
0.2842000000000553
 20
0.0661499999998796
 30
0.0
 11
0.2842000000000553
 21
0.0656599999999799
 31
0.0
  0
LINE
  5
1C49
330
1B90
100
AcDbEntity
  8
SANINDUSA
100
AcDbLine
 10
0.2394558456726372
 20
-0.0514954290604237
 30
0.0
 11
0.2680610583383896
 21
-0.0647534018573879
 31
0.0
  0
LINE
  5
1C4A
330
1B90
100
AcDbEntity
  8
SANINDUSA
100
AcDbLine
 10
0.2609177878730406
 20
-0.0541029646456082
 30
0.0
 11
0.2546318585818881
 21
-0.0478170353544556
 31
0.0
  0
LINE
  5
1C4B
330
1B90
100
AcDbEntity
  8
SANINDUSA
100
AcDbLine
 10
0.25393889393672
 20
-0.0475300000000516
 30
0.0
 11
0.000489999999445
 21
-0.0475300000000516
 31
0.0
  0
LINE
  5
1C4C
330
1B90
100
AcDbEntity
  8
SANINDUSA
100
AcDbLine
 10
0.2392497954851933
 20
-0.051450000000159
 30
0.0
 11
0.0082044012569895
 21
-0.051450000000159
 31
0.0
  0
ARC
  5
1C4D
330
1B90
100
AcDbEntity
  8
SANINDUSA
100
AcDbCircle
 10
0.0082044012569895
 20
-0.0166170408240305
 30
0.0
 40
0.0348329591759133
100
AcDbArc
 50
257.018976930993
 51
270.0
  0
ARC
  5
1C4E
330
1B90
100
AcDbEntity
  8
SANINDUSA
100
AcDbCircle
 10
0.000489999999445
 20
-0.0500823491031497
 30
0.0
 40
0.00049
100
AcDbArc
 50
180.0
 51
257.018976930993
  0
ARC
  5
1C4F
330
1B90
100
AcDbEntity
  8
SANINDUSA
100
AcDbCircle
 10
0.000489999999445
 20
-0.0480199999999513
 30
0.0
 40
0.00049
100
AcDbArc
 50
90.0
 51
180.0
  0
LINE
  5
1C50
330
1B90
100
AcDbEntity
  8
SANINDUSA
100
AcDbLine
 10
0.0
 20
-0.0500823491031497
 30
0.0
 11
0.0
 21
-0.0480199999999513
 31
0.0
  0
ARC
  5
1C51
330
1B90
100
AcDbEntity
  8
SANINDUSA
100
AcDbCircle
 10
0.25393889393672
 20
-0.0485100000000784
 30
0.0
 40
0.00098
100
AcDbArc
 50
44.99999999999078
 51
90.0
  0
ARC
  5
1C52
330
1B90
100
AcDbEntity
  8
SANINDUSA
100
AcDbCircle
 10
0.2832199999993463
 20
-0.066150000000107
 30
0.0
 40
0.0009800000000001
100
AcDbArc
 50
270.0
 51
0.0
  0
LINE
  5
1C53
330
1B90
100
AcDbEntity
  8
SANINDUSA
100
AcDbLine
 10
0.2701929646455028
 20
-0.0668429646455024
 30
0.0
 11
0.2682014904739844
 21
-0.0648514904742115
 31
0.0
  0
LINE
  5
1C54
330
1B90
100
AcDbEntity
  8
SANINDUSA
100
AcDbLine
 10
0.2832199999993463
 20
-0.0646800000001804
 30
0.0
 11
0.271900752518377
 21
-0.0646800000001804
 31
0.0
  0
ARC
  5
1C55
330
1B90
100
AcDbEntity
  8
SANINDUSA
100
AcDbCircle
 10
0.271900752518377
 20
-0.0636999999999262
 30
0.0
 40
0.00098
100
AcDbArc
 50
224.9999999999908
 51
270.0
  0
ARC
  5
1C56
330
1B90
100
AcDbEntity
  8
SANINDUSA
100
AcDbCircle
 10
0.2678550081509456
 20
-0.0651979727970229
 30
0.0
 40
0.00049
100
AcDbArc
 50
44.99999999999078
 51
65.13317288373476
  0
ARC
  5
1C57
330
1B90
100
AcDbEntity
  8
SANINDUSA
100
AcDbCircle
 10
0.2616107525182088
 20
-0.0534099999999853
 30
0.0
 40
0.00098
100
AcDbArc
 50
224.9999999999908
 51
270.0
  0
LINE
  5
1C58
330
1B90
100
AcDbEntity
  8
SANINDUSA
100
AcDbLine
 10
0.265065376259372
 20
-0.0568646237404664
 30
0.0
 11
0.265065376259372
 21
-0.0582505530317121
 31
0.0
  0
ARC
  5
1C59
330
1B90
100
AcDbEntity
  8
SANINDUSA
100
AcDbCircle
 10
0.2657583409045401
 20
-0.0575575883860893
 30
0.0
 40
0.0009799999999999
100
AcDbArc
 50
135.0000000000092
 51
224.9999999999908
  0
LINE
  5
1C5A
330
1B90
100
AcDbEntity
  8
SANINDUSA
100
AcDbLine
 10
0.2654364823229116
 20
-0.0564935176773815
 30
0.0
 11
0.265065376259372
 21
-0.0568646237404664
 31
0.0
  0
ARC
  5
1C5B
330
1B90
100
AcDbEntity
  8
SANINDUSA
100
AcDbCircle
 10
0.2650899999998728
 20
-0.0561470353545701
 30
0.0
 40
0.0004900000000001
100
AcDbArc
 50
315.0000000000092
 51
0.0
  0
LINE
  5
1C5C
330
1B90
100
AcDbEntity
  8
SANINDUSA
100
AcDbLine
 10
0.2655799999993178
 20
-0.0548800000001393
 30
0.0
 11
0.2655799999993178
 21
-0.0561470353545701
 31
0.0
  0
ARC
  5
1C5D
330
1B90
100
AcDbEntity
  8
SANINDUSA
100
AcDbCircle
 10
0.2650899999998728
 20
-0.0548800000001393
 30
0.0
 40
0.00049
100
AcDbArc
 50
0.0
 51
90.0
  0
LINE
  5
1C5E
330
1B90
100
AcDbEntity
  8
SANINDUSA
100
AcDbLine
 10
0.2616107525182088
 20
-0.0543900000000122
 30
0.0
 11
0.2650899999998728
 21
-0.0543900000000122
 31
0.0
  0
LINE
  5
1C5F
330
1B90
100
AcDbEntity
  8
SANINDUSA
100
AcDbLine
 10
0.2712077878732089
 20
-0.064392964645549
 30
0.0
 11
0.265065376259372
 21
-0.0582505530317121
 31
0.0
  0
LINE
  5
1C60
330
1B90
100
AcDbEntity
  8
SANINDUSA
100
AcDbLine
 10
0.2842000000000553
 20
-0.0656599999999799
 30
0.0
 11
0.2842000000000553
 21
-0.066150000000107
 31
0.0
  0
ARC
  5
1C61
330
1B90
100
AcDbEntity
  8
SANINDUSA
100
AcDbCircle
 10
0.2832199999993463
 20
-0.0656599999999799
 30
0.0
 40
0.0009800000000001
100
AcDbArc
 50
0.0
 51
90.0
  0
LINE
  5
1C62
330
1B90
100
AcDbEntity
  8
SANINDUSA
100
AcDbLine
 10
0.2832199999993463
 20
-0.0671300000001338
 30
0.0
 11
0.2708859292906709
 21
-0.0671300000001338
 31
0.0
  0
ARC
  5
1C63
330
1B90
100
AcDbEntity
  8
SANINDUSA
100
AcDbCircle
 10
0.2708859292906709
 20
-0.066150000000107
 30
0.0
 40
0.00098
100
AcDbArc
 50
224.9999999999908
 51
270.0
  0
ENDBLK
  5
1C65
330
1B90
100
AcDbEntity
  8
0
100
AcDbBlockEnd
  0
ENDSEC
  0
SECTION
  2
ENTITIES
  0
LWPOLYLINE
  5
13DD
330
1F
100
AcDbEntity
  8
SANINDUSA
100
AcDbPolyline
 90
        6
 70
   128
 43
0.0
 10
3159.273916522602
 20
997.0709173456432
 10
3159.277701973675
 20
997.0994031963588
 10
3159.282273518395
 20
997.1278135248462
 10
3159.287599082199
 20
997.1559698729498
 10
3159.293677463627
 20
997.1839067796766
 10
3159.299190722377
 20
997.2088647422953
  0
LWPOLYLINE
  5
13DE
330
1F
100
AcDbEntity
  8
SANINDUSA
100
AcDbPolyline
 90
        6
 70
   128
 43
0.0
 10
3159.027784847909
 20
997.0709173456432
 10
3159.023999396836
 20
997.0994031963588
 10
3159.019427852117
 20
997.1278135248462
 10
3159.014102288312
 20
997.1559698729498
 10
3159.008023906884
 20
997.1839067796766
 10
3159.001548738415
 20
997.2123572416304
  0
LWPOLYLINE
  5
13DF
330
1F
100
AcDbEntity
  8
SANINDUSA
100
AcDbPolyline
 90
       14
 70
   128
 43
0.0
 10
3159.319291492943
 20
997.2754603457145
 10
3159.310896127053
 20
997.2492426001901
 10
3159.302943827633
 20
997.2224915072002
 10
3159.295437617121
 20
997.1952379773904
 10
3159.288377923945
 20
997.167513839725
 10
3159.281766711405
 20
997.1393502901296
 10
3159.275606224572
 20
997.1107748546051
 10
3159.269899523553
 20
997.0817564045873
 10
3159.265070109888
 20
997.0548044890998
 10
3159.260623901808
 20
997.0275793244653
 10
3159.256558832203
 20
997.0001422202182
 10
3159.252891454331
 20
996.972553611387
 10
3159.249474411805
 20
996.9448904587009
 10
3159.246067777349
 20
996.917223806418
  0
LWPOLYLINE
  5
13E0
330
1F
100
AcDbEntity
  8
SANINDUSA
100
AcDbPolyline
 90
       14
 70
   128
 43
0.0
 10
3158.982409877569
 20
997.2754603457145
 10
3158.990805243458
 20
997.2492426001901
 10
3158.998757542879
 20
997.2224915072002
 10
3159.006263753391
 20
997.1952379773904
 10
3159.013323446567
 20
997.167513839725
 10
3159.019934659107
 20
997.1393502901296
 10
3159.02609514594
 20
997.1107748546051
 10
3159.031801846959
 20
997.0817564045873
 10
3159.036631260624
 20
997.0548044890998
 10
3159.041077468704
 20
997.0275793244653
 10
3159.045142538308
 20
997.0001422202182
 10
3159.048809916181
 20
996.972553611387
 10
3159.052226958707
 20
996.9448904587009
 10
3159.055633593162
 20
996.917223806418
  0
LINE
  5
13E1
330
1F
100
AcDbEntity
  8
SANINDUSA
100
AcDbLine
 10
3159.08806129058
 20
997.3554603457145
 30
0.0
 11
3159.213640079932
 21
997.3554603457145
 31
0.0
  0
LWPOLYLINE
  5
13E3
330
1F
100
AcDbEntity
  8
SANINDUSA
100
AcDbPolyline
 90
       14
 70
   128
 43
0.0
 10
3159.215759109481
 20
997.3488366759049
 10
3159.205935307049
 20
997.3487515159176
 10
3159.196030629024
 20
997.3486803573846
 10
3159.186059617518
 20
997.3486233047813
 10
3159.176036912035
 20
997.3485804418725
 10
3159.165977227972
 20
997.3485518315902
 10
3159.155895335024
 20
997.3485375159397
 10
3159.145806035488
 20
997.3485375159397
 10
3159.13572414254
 20
997.3485518315902
 10
3159.125664458477
 20
997.3485804418725
 10
3159.115641752993
 20
997.3486233047813
 10
3159.105670741487
 20
997.3486803573846
 10
3159.095766063463
 20
997.3487515159176
 10
3159.08594226103
 20
997.3488366759049
  0
LINE
  5
13E4
330
1F
100
AcDbEntity
  8
SANINDUSA
100
AcDbLine
 10
3159.051597059006
 20
997.3469342488593
 30
0.0
 11
3159.250104311507
 21
997.3469342488593
 31
0.0
  0
LINE
  5
13E8
330
1F
100
AcDbEntity
  8
SANINDUSA
100
AcDbLine
 10
3159.324753831892
 20
997.3154603457146
 30
0.0
 11
3159.150850685256
 21
997.3154603457146
 31
0.0
  0
LINE
  5
13E9
330
1F
100
AcDbEntity
  8
SANINDUSA
100
AcDbLine
 10
3159.320216342202
 20
997.3554603457145
 30
0.0
 11
3159.218746690278
 21
997.3554603457145
 31
0.0
  0
LWPOLYLINE
  5
13EA
330
1F
100
AcDbEntity
  8
SANINDUSA
100
AcDbPolyline
 90
        3
 70
   128
 43
0.0
 10
3159.318165461983
 20
997.3553075030023
 10
3159.288725784256
 20
997.3548111866561
 10
3159.259310433324
 20
997.354132540695
  0
LINE
  5
13ED
330
1F
100
AcDbEntity
  8
SANINDUSA
100
AcDbLine
 10
3159.327141184084
 20
997.3554603457145
 30
0.0
 11
3159.320216342202
 21
997.3554603457145
 31
0.0
  0
LWPOLYLINE
  5
13EE
330
1F
100
AcDbEntity
  8
SANINDUSA
100
AcDbPolyline
 90
        5
 70
   128
 43
0.0
 10
3159.327141184084
 20
997.3554603457145
 10
3159.32885444334
 20
997.3551518713051
 10
3159.330382044972
 20
997.3542450950365
 10
3159.331484137043
 20
997.3528801760792
 10
3159.331845632906
 20
997.3520558814225
  0
LWPOLYLINE
  5
13F5
330
1F
100
AcDbEntity
  8
SANINDUSA
100
AcDbPolyline
 90
       10
 70
   128
 43
0.0
 10
3159.333350685256
 20
997.3403120650145
 10
3159.333136189513
 20
997.3428301246295
 10
3159.332504704198
 20
997.3452771918514
 10
3159.331468347414
 20
997.3475823768641
 10
3159.330061962755
 20
997.3496825451208
 10
3159.328320707815
 20
997.3515145649718
 10
3159.326298208672
 20
997.3530306765111
 10
3159.324048934083
 20
997.3541827842939
 10
3159.321638968816
 20
997.3549438647939
 10
3159.318165461983
 20
997.3553075030023
  0
LWPOLYLINE
  5
13FE
330
1F
100
AcDbEntity
  8
SANINDUSA
100
AcDbPolyline
 90
        3
 70
   128
 43
0.0
 10
3159.330391880398
 20
997.3074079507606
 10
3159.324754008026
 20
997.2915487193947
 10
3159.319291492943
 20
997.2754603457145
  0
LWPOLYLINE
  5
13FF
330
1F
100
AcDbEntity
  8
SANINDUSA
100
AcDbPolyline
 90
        9
 70
   128
 43
0.0
 10
3159.330392388496
 20
997.3074093497826
 10
3159.330718275241
 20
997.3088081858067
 10
3159.330702375363
 20
997.3102443931798
 10
3159.330345600022
 20
997.3116356714575
 10
3159.32966839391
 20
997.3129022948219
 10
3159.328709563682
 20
997.3139716806898
 10
3159.327524054177
 20
997.3147825489837
 10
3159.326179799857
 20
997.3152884337245
 10
3159.324753831892
 20
997.3154603457146
  0
LWPOLYLINE
  5
1401
330
1F
100
AcDbEntity
  8
SANINDUSA
100
AcDbPolyline
 90
        3
 70
   128
 43
0.0
 10
3159.226946515745
 20
997.3511344000096
 10
3159.223235522395
 20
997.3508236804562
 10
3159.220894001813
 20
997.3506327125489
  0
LWPOLYLINE
  5
1404
330
1F
100
AcDbEntity
  8
SANINDUSA
100
AcDbPolyline
 90
        4
 70
   128
 43
0.0
 10
3159.255077741874
 20
997.3536902469815
 10
3159.248974165392
 20
997.3530524557466
 10
3159.239459154525
 20
997.3521873469033
 10
3159.237532447046
 20
997.3520207545609
  0
LWPOLYLINE
  5
1409
330
1F
100
AcDbEntity
  8
SANINDUSA
100
AcDbPolyline
 90
        9
 70
   128
 43
0.0
 10
3159.258935389039
 20
997.3541146978066
 10
3159.258697129847
 20
997.3540755579239
 10
3159.258108930722
 20
997.3538790970305
 10
3159.257566694564
 20
997.3535501248763
 10
3159.257089650055
 20
997.3531003074134
 10
3159.256694714061
 20
997.3525455959887
 10
3159.256395891735
 20
997.3519056616803
 10
3159.256203779859
 20
997.351203197725
 10
3159.256125191071
 20
997.3504631147752
  0
LWPOLYLINE
  5
140D
330
1F
100
AcDbEntity
  8
SANINDUSA
100
AcDbPolyline
 90
        9
 70
   128
 43
0.0
 10
3159.256125191071
 20
997.3504631147752
 10
3159.255970830828
 20
997.3497426354734
 10
3159.255605753735
 20
997.3490628759689
 10
3159.255042243537
 20
997.3484467081172
 10
3159.254299260648
 20
997.3479148641073
 10
3159.253401804202
 20
997.3474852388845
 10
3159.252380070898
 20
997.3471722880413
 10
3159.251268438981
 20
997.3469865414285
 10
3159.250104311507
 20
997.3469342488593
  0
LWPOLYLINE
  5
140F
330
1F
100
AcDbEntity
  8
SANINDUSA
100
AcDbPolyline
 90
        3
 70
   128
 43
0.0
 10
3159.237374458121
 20
997.3520166881174
 10
3159.233175377635
 20
997.3516545387045
 10
3159.226799880034
 20
997.3511260069232
  0
LWPOLYLINE
  5
1410
330
1F
100
AcDbEntity
  8
SANINDUSA
100
AcDbPolyline
 90
        3
 70
   128
 43
0.0
 10
3159.258935389039
 20
997.3541146978066
 10
3159.257780736028
 20
997.3539503265115
 10
3159.255077741874
 20
997.3536902469815
  0
ARC
  5
1411
330
1F
100
AcDbEntity
  8
SANINDUSA
100
AcDbCircle
 10
3159.259218218067
 20
997.3521203391941
 30
0.0
 40
0.0020143134150994
100
AcDbArc
 50
87.37608243919222
 51
98.07155119754982
  0
LINE
  5
1412
330
1F
100
AcDbEntity
  8
SANINDUSA
100
AcDbLine
 10
3159.215368385987
 20
997.3554603457145
 30
0.0
 11
3159.213640079932
 21
997.3554603457145
 31
0.0
  0
LINE
  5
1413
330
1F
100
AcDbEntity
  8
SANINDUSA
100
AcDbLine
 10
3159.218746690278
 20
997.3554603457145
 30
0.0
 11
3159.215368385987
 21
997.3554603457145
 31
0.0
  0
LWPOLYLINE
  5
141C
330
1F
100
AcDbEntity
  8
SANINDUSA
100
AcDbPolyline
 90
        3
 70
   128
 43
0.0
 10
3159.217819396582
 20
997.3496871492242
 10
3159.219172594046
 20
997.3503141594536
 10
3159.220894001813
 20
997.3506327125489
  0
LWPOLYLINE
  5
141D
330
1F
100
AcDbEntity
  8
SANINDUSA
100
AcDbPolyline
 90
        9
 70
   128
 43
0.0
 10
3159.215759109481
 20
997.3488366759049
 10
3159.216035144136
 20
997.3488558518496
 10
3159.216309382223
 20
997.3489009191062
 10
3159.216580038865
 20
997.3489715843552
 10
3159.216845352497
 20
997.3490673876723
 10
3159.217103596329
 20
997.3491877055231
 10
3159.217353089582
 20
997.3493317548197
 10
3159.217592208435
 20
997.349498598019
 10
3159.217819396582
 20
997.3496871492242
  0
LINE
  5
141E
330
1F
100
AcDbEntity
  8
SANINDUSA
100
AcDbLine
 10
3158.98148502831
 20
997.3554603457145
 30
0.0
 11
3159.082954680235
 21
997.3554603457145
 31
0.0
  0
LWPOLYLINE
  5
141F
330
1F
100
AcDbEntity
  8
SANINDUSA
100
AcDbPolyline
 90
        3
 70
   128
 43
0.0
 10
3158.983535908528
 20
997.3553075030023
 10
3159.012975586256
 20
997.3548111866561
 10
3159.042390937188
 20
997.354132540695
  0
LINE
  5
1421
330
1F
100
AcDbEntity
  8
SANINDUSA
100
AcDbLine
 10
3158.97694753862
 20
997.3154603457146
 30
0.0
 11
3159.150850685256
 21
997.3154603457146
 31
0.0
  0
LWPOLYLINE
  5
1424
330
1F
100
AcDbEntity
  8
SANINDUSA
100
AcDbPolyline
 90
        4
 70
   128
 43
0.0
 10
3159.046348086517
 20
997.3537190396656
 10
3159.05272720512
 20
997.3530524557466
 10
3159.062242215986
 20
997.3521873469033
 10
3159.064168923466
 20
997.3520207545609
  0
LINE
  5
1427
330
1F
100
AcDbEntity
  8
SANINDUSA
100
AcDbLine
 10
3159.086332984525
 20
997.3554603457145
 30
0.0
 11
3159.08806129058
 21
997.3554603457145
 31
0.0
  0
LINE
  5
1428
330
1F
100
AcDbEntity
  8
SANINDUSA
100
AcDbLine
 10
3159.082954680235
 20
997.3554603457145
 30
0.0
 11
3159.086332984525
 21
997.3554603457145
 31
0.0
  0
LWPOLYLINE
  5
1431
330
1F
100
AcDbEntity
  8
SANINDUSA
100
AcDbPolyline
 90
        3
 70
   128
 43
0.0
 10
3159.064168923466
 20
997.3520207545609
 10
3159.078465848117
 20
997.3508236804562
 10
3159.080807368698
 20
997.3506327125489
  0
LWPOLYLINE
  5
1432
330
1F
100
AcDbEntity
  8
SANINDUSA
100
AcDbPolyline
 90
        3
 70
   128
 43
0.0
 10
3159.083881973929
 20
997.3496871492242
 10
3159.082528776466
 20
997.3503141594536
 10
3159.080807368698
 20
997.3506327125489
  0
LWPOLYLINE
  5
1433
330
1F
100
AcDbEntity
  8
SANINDUSA
100
AcDbPolyline
 90
        9
 70
   128
 43
0.0
 10
3159.08594226103
 20
997.3488366759049
 10
3159.085666226375
 20
997.3488558518496
 10
3159.085391988289
 20
997.3489009191062
 10
3159.085121331647
 20
997.3489715843552
 10
3159.084856018015
 20
997.3490673876723
 10
3159.084597774183
 20
997.3491877055231
 10
3159.084348280929
 20
997.3493317548197
 10
3159.084109162077
 20
997.349498598019
 10
3159.083881973929
 20
997.3496871492242
  0
LWPOLYLINE
  5
1438
330
1F
100
AcDbEntity
  8
SANINDUSA
100
AcDbPolyline
 90
        9
 70
   128
 43
0.0
 10
3159.042765981472
 20
997.3541146978066
 10
3159.043004240665
 20
997.3540755579239
 10
3159.04359243979
 20
997.3538790970305
 10
3159.044134675948
 20
997.3535501248763
 10
3159.044611720457
 20
997.3531003074134
 10
3159.04500665645
 20
997.3525455959887
 10
3159.045305478777
 20
997.3519056616803
 10
3159.045497590653
 20
997.351203197725
 10
3159.04557617944
 20
997.3504631147752
  0
LWPOLYLINE
  5
143A
330
1F
100
AcDbEntity
  8
SANINDUSA
100
AcDbPolyline
 90
        9
 70
   128
 43
0.0
 10
3159.04557617944
 20
997.3504631147752
 10
3159.045730539684
 20
997.3497426354734
 10
3159.046095616776
 20
997.3490628759689
 10
3159.046659126975
 20
997.3484467081172
 10
3159.047402109864
 20
997.3479148641073
 10
3159.04829956631
 20
997.3474852388845
 10
3159.049321299613
 20
997.3471722880413
 10
3159.050432931531
 20
997.3469865414285
 10
3159.051597059005
 20
997.3469342488593
  0
LINE
  5
143E
330
1F
100
AcDbEntity
  8
SANINDUSA
100
AcDbLine
 10
3159.046348086518
 20
997.3537190396656
 30
0.0
 11
3159.042765981472
 21
997.3541146978067
 31
0.0
  0
ARC
  5
143F
330
1F
100
AcDbEntity
  8
SANINDUSA
100
AcDbCircle
 10
3159.042483152445
 20
997.3521203391939
 30
0.0
 40
0.0020143134151462
100
AcDbArc
 50
81.9284488025028
 51
92.62391756044262
  0
LINE
  5
1440
330
1F
100
AcDbEntity
  8
SANINDUSA
100
AcDbLine
 10
3158.968350685256
 20
997.3264669528164
 30
0.0
 11
3158.968350685256
 21
997.3403120650145
 31
0.0
  0
LINE
  5
1442
330
1F
100
AcDbEntity
  8
SANINDUSA
100
AcDbLine
 10
3158.974560186428
 20
997.3554603457145
 30
0.0
 11
3158.98148502831
 21
997.3554603457145
 31
0.0
  0
LWPOLYLINE
  5
1444
330
1F
100
AcDbEntity
  8
SANINDUSA
100
AcDbPolyline
 90
       10
 70
   128
 43
0.0
 10
3158.968350685256
 20
997.3403120650145
 10
3158.968565180999
 20
997.3428301246295
 10
3158.969196666314
 20
997.3452771918514
 10
3158.970233023098
 20
997.3475823768641
 10
3158.971639407757
 20
997.3496825451208
 10
3158.973380662696
 20
997.3515145649718
 10
3158.97540316184
 20
997.3530306765111
 10
3158.977652436429
 20
997.3541827842939
 10
3158.980062401695
 20
997.3549438647939
 10
3158.983535908528
 20
997.3553075030023
  0
LWPOLYLINE
  5
144A
330
1F
100
AcDbEntity
  8
SANINDUSA
100
AcDbPolyline
 90
        5
 70
   128
 43
0.0
 10
3158.974560186428
 20
997.3554603457145
 10
3158.972846927171
 20
997.3551518713051
 10
3158.971319325539
 20
997.3542450950365
 10
3158.970217233469
 20
997.3528801760792
 10
3158.969855737606
 20
997.3520558814225
  0
LINE
  5
144B
330
1F
100
AcDbEntity
  8
SANINDUSA
100
AcDbLine
 10
3158.968350685256
 20
997.3403120650145
 30
0.0
 11
3158.968350685256
 21
997.3445106374398
 31
0.0
  0
LWPOLYLINE
  5
144C
330
1F
100
AcDbEntity
  8
SANINDUSA
100
AcDbPolyline
 90
        4
 70
   128
 43
0.0
 10
3158.969855737606
 20
997.3520558814225
 10
3158.968934143163
 20
997.3492189300046
 10
3158.968427001441
 20
997.3462087599944
 10
3158.968350685256
 20
997.3445106374398
  0
LWPOLYLINE
  5
144E
330
1F
100
AcDbEntity
  8
SANINDUSA
100
AcDbPolyline
 90
        3
 70
   128
 43
0.0
 10
3158.971309490114
 20
997.3074079507606
 10
3158.976947362486
 20
997.2915487193947
 10
3158.982409877569
 20
997.2754603457145
  0
ARC
  5
1451
330
1F
100
AcDbEntity
  8
SANINDUSA
100
AcDbCircle
 10
3158.974350685256
 20
997.3165331103912
 30
0.0
 40
0.0059999999999999
100
AcDbArc
 50
180.0
 51
200.2647848363974
  0
LINE
  5
1452
330
1F
100
AcDbEntity
  8
SANINDUSA
100
AcDbLine
 10
3158.968350685256
 20
997.3165331103912
 30
0.0
 11
3158.968350685256
 21
997.3264669528164
 31
0.0
  0
LWPOLYLINE
  5
145A
330
1F
100
AcDbEntity
  8
SANINDUSA
100
AcDbPolyline
 90
        5
 70
   128
 43
0.0
 10
3158.971306227972
 20
997.3074104465307
 10
3158.971102205459
 20
997.3079711509701
 10
3158.970519088907
 20
997.3095685775241
 10
3158.969604280564
 20
997.3120616589884
 10
3158.968722073308
 20
997.3144549555497
  0
LWPOLYLINE
  5
145D
330
1F
100
AcDbEntity
  8
SANINDUSA
100
AcDbPolyline
 90
        9
 70
   128
 43
0.0
 10
3158.971310000135
 20
997.3074065507685
 10
3158.970983378163
 20
997.3088055948142
 10
3158.970998702851
 20
997.3102421780293
 10
3158.971355095586
 20
997.3116339360629
 10
3158.972032123128
 20
997.3129010745473
 10
3158.972990969117
 20
997.3139709439886
 10
3158.974176659558
 20
997.3147822050176
 10
3158.975521214659
 20
997.3152883451913
 10
3158.976947546366
 20
997.3154603457146
  0
LINE
  5
1461
330
1F
100
AcDbEntity
  8
SANINDUSA
100
AcDbLine
 10
3159.150850685256
 20
996.9154603457146
 30
0.0
 11
3159.244088962159
 21
996.9154603457146
 31
0.0
  0
LWPOLYLINE
  5
1463
330
1F
100
AcDbEntity
  8
SANINDUSA
100
AcDbPolyline
 90
        4
 70
   128
 43
0.0
 10
3159.267804884973
 20
996.9175005435729
 10
3159.267267700013
 20
996.9448821758126
 10
3159.266893988567
 20
996.9648586209405
 10
3159.266817579288
 20
996.9696038086654
  0
LWPOLYLINE
  5
1466
330
1F
100
AcDbEntity
  8
SANINDUSA
100
AcDbPolyline
 90
        3
 70
   128
 43
0.0
 10
3159.257221101106
 20
996.9454601995563
 10
3159.256419726296
 20
996.930460428727
 10
3159.255724368803
 20
996.9173551126196
  0
LWPOLYLINE
  5
1467
330
1F
100
AcDbEntity
  8
SANINDUSA
100
AcDbPolyline
 90
        7
 70
   128
 43
0.0
 10
3159.266817084294
 20
996.9695807771566
 10
3159.266817579288
 20
996.9696038086654
 10
3159.26701623872
 20
996.9774662399798
 10
3159.267275042014
 20
996.9853636247238
 10
3159.269007869746
 20
997.0184479715447
 10
3159.271786804521
 20
997.0514704108014
 10
3159.273916522602
 20
997.0709173456432
  0
LWPOLYLINE
  5
1468
330
1F
100
AcDbEntity
  8
SANINDUSA
100
AcDbPolyline
 90
        3
 70
   128
 43
0.0
 10
3159.261795595524
 20
997.011839746778
 10
3159.265245406178
 20
997.0436901538494
 10
3159.269539601098
 20
997.0754603457146
  0
LWPOLYLINE
  5
1469
330
1F
100
AcDbEntity
  8
SANINDUSA
100
AcDbPolyline
 90
       10
 70
   128
 43
0.0
 10
3159.272676373428
 20
997.0954603457146
 10
3159.272631338946
 20
997.0951802056381
 10
3159.272494750004
 20
997.094356324777
 10
3159.272271880078
 20
997.0930067350082
 10
3159.271973217818
 20
997.0911784745844
 10
3159.271606632873
 20
997.0889019639344
 10
3159.271187718752
 20
997.086258763994
 10
3159.270723801567
 20
997.08328018728
 10
3159.270234448744
 20
997.0800847746458
 10
3159.269539601098
 20
997.0754603457146
  0
LINE
  5
146B
330
1F
100
AcDbEntity
  8
SANINDUSA
100
AcDbLine
 10
3159.260477897652
 20
996.9706526126987
 30
0.0
 11
3159.260083357768
 21
996.9913153284208
 31
0.0
  0
LWPOLYLINE
  5
146C
330
1F
100
AcDbEntity
  8
SANINDUSA
100
AcDbPolyline
 90
        6
 70
   128
 43
0.0
 10
3159.261280919476
 20
997.00627998312
 10
3159.260592186534
 20
996.9980789712588
 10
3159.259885714036
 20
996.9886881349451
 10
3159.259161501983
 20
996.9781074741792
 10
3159.258419550374
 20
996.9663369889607
 10
3159.257642545072
 20
996.9533776610086
  0
LINE
  5
146E
330
1F
100
AcDbEntity
  8
SANINDUSA
100
AcDbLine
 10
3159.261795595537
 20
997.0118397469176
 30
0.0
 11
3159.26128033923
 21
997.0062800349859
 31
0.0
  0
LWPOLYLINE
  5
1471
330
1F
100
AcDbEntity
  8
SANINDUSA
100
AcDbPolyline
 90
        6
 70
   128
 43
0.0
 10
3159.260374500487
 20
996.9543641340347
 10
3159.260378713659
 20
996.9544817110103
 10
3159.260479342164
 20
996.9581329714275
 10
3159.260535591001
 20
996.9629304394359
 10
3159.260517791759
 20
996.9679469225887
 10
3159.260477897652
 20
996.9706526126985
  0
LWPOLYLINE
  5
1476
330
1F
100
AcDbEntity
  8
SANINDUSA
100
AcDbPolyline
 90
        9
 70
   128
 43
0.0
 10
3159.259234338711
 20
996.9404756359885
 10
3159.25944799417
 20
996.9407361349528
 10
3159.259654539921
 20
996.9414488026789
 10
3159.259848369297
 20
996.9426110097906
 10
3159.260019264066
 20
996.9441897781942
 10
3159.26016166499
 20
996.9461613733137
 10
3159.260272356344
 20
996.9485162063879
 10
3159.260346992053
 20
996.9511823125476
 10
3159.260385766203
 20
996.95414930123
  0
LWPOLYLINE
  5
1477
330
1F
100
AcDbEntity
  8
SANINDUSA
100
AcDbPolyline
 90
        3
 70
   128
 43
0.0
 10
3159.258371036054
 20
996.9403630751752
 10
3159.258820694383
 20
996.9404205076203
 10
3159.259234338711
 20
996.9404756359885
  0
LWPOLYLINE
  5
1478
330
1F
100
AcDbEntity
  8
SANINDUSA
100
AcDbPolyline
 90
        8
 70
   128
 43
0.0
 10
3159.257642531991
 20
996.9533771251345
 10
3159.257604294623
 20
996.9514941683794
 10
3159.257585843168
 20
996.947826932238
 10
3159.257653642471
 20
996.944802818823
 10
3159.257801613863
 20
996.9425347115397
 10
3159.25801575422
 20
996.9410497981616
 10
3159.258185724242
 20
996.940523691768
 10
3159.258371036054
 20
996.9403630751752
  0
LINE
  5
1479
330
1F
100
AcDbEntity
  8
SANINDUSA
100
AcDbLine
 10
3159.257221108982
 20
996.9454603456883
 30
0.0
 11
3159.257440668842
 21
996.9494754802241
 31
0.0
  0
ARC
  5
147D
330
1F
100
AcDbEntity
  8
SANINDUSA
100
AcDbCircle
 10
3159.265805288981
 20
996.9174603457146
 30
0.0
 40
0.0019999999999999
100
AcDbArc
 50
270.0
 51
1.151661362725787
  0
LINE
  5
1480
330
1F
100
AcDbEntity
  8
SANINDUSA
100
AcDbLine
 10
3159.259178697986
 20
996.9154603457146
 30
0.0
 11
3159.265805288981
 21
996.9154603457146
 31
0.0
  0
LINE
  5
1483
330
1F
100
AcDbEntity
  8
SANINDUSA
100
AcDbLine
 10
3159.253754054056
 20
996.9154603457146
 30
0.0
 11
3159.259158697986
 21
996.9154603457146
 31
0.0
  0
LINE
  5
1486
330
1F
100
AcDbEntity
  8
SANINDUSA
100
AcDbLine
 10
3159.252729987515
 20
996.9154603457146
 30
0.0
 11
3159.253734054056
 21
996.9154603457146
 31
0.0
  0
LWPOLYLINE
  5
1487
330
1F
100
AcDbEntity
  8
SANINDUSA
100
AcDbPolyline
 90
        5
 70
   128
 43
0.0
 10
3159.253734430122
 20
996.9154603457146
 10
3159.254472571837
 20
996.9156026770297
 10
3159.2551056551
 20
996.9160094011156
 10
3159.255543576312
 20
996.9166226309507
 10
3159.255724008318
 20
996.9173550885736
  0
LINE
  5
1489
330
1F
100
AcDbEntity
  8
SANINDUSA
100
AcDbLine
 10
3159.244088962159
 20
996.9154603457146
 30
0.0
 11
3159.252709987515
 21
996.9154603457146
 31
0.0
  0
LWPOLYLINE
  5
148B
330
1F
100
AcDbEntity
  8
SANINDUSA
100
AcDbPolyline
 90
        6
 70
   128
 43
0.0
 10
3159.244088962159
 20
996.9154603457146
 10
3159.244537009146
 20
996.9155115509597
 10
3159.244937994521
 20
996.9156509461317
 10
3159.245486899261
 20
996.9160349937835
 10
3159.245878197198
 20
996.9165797390459
 10
3159.246067772377
 20
996.9172237660304
  0
LWPOLYLINE
  5
148D
330
1F
100
AcDbEntity
  8
SANINDUSA
100
AcDbPolyline
 90
        4
 70
   128
 43
0.0
 10
3159.033896485539
 20
996.9175005435729
 10
3159.034433670499
 20
996.9448821758126
 10
3159.034807381944
 20
996.9648586209405
 10
3159.034883791223
 20
996.9696038086654
  0
LINE
  5
1490
330
1F
100
AcDbEntity
  8
SANINDUSA
100
AcDbLine
 10
3159.044480261627
 20
996.9454603456883
 30
0.0
 11
3159.045977001824
 21
996.9173551126257
 31
0.0
  0
LWPOLYLINE
  5
1491
330
1F
100
AcDbEntity
  8
SANINDUSA
100
AcDbPolyline
 90
        7
 70
   128
 43
0.0
 10
3159.034884286218
 20
996.9695807771566
 10
3159.034883791223
 20
996.9696038086654
 10
3159.034685131791
 20
996.9774662399798
 10
3159.034426328498
 20
996.9853636247238
 10
3159.032693500765
 20
997.0184479715447
 10
3159.02991456599
 20
997.0514704108014
 10
3159.027784847909
 20
997.0709173456432
  0
LWPOLYLINE
  5
1492
330
1F
100
AcDbEntity
  8
SANINDUSA
100
AcDbPolyline
 90
        3
 70
   128
 43
0.0
 10
3159.039905774987
 20
997.011839746778
 10
3159.036455964333
 20
997.0436901538494
 10
3159.032161769413
 20
997.0754603457146
  0
LWPOLYLINE
  5
1493
330
1F
100
AcDbEntity
  8
SANINDUSA
100
AcDbPolyline
 90
       10
 70
   128
 43
0.0
 10
3159.029024997084
 20
997.0954603457146
 10
3159.029070031566
 20
997.0951802056381
 10
3159.029206620508
 20
997.094356324777
 10
3159.029429490434
 20
997.0930067350082
 10
3159.029728152694
 20
997.0911784745844
 10
3159.030094737638
 20
997.0889019639344
 10
3159.03051365176
 20
997.086258763994
 10
3159.030977568944
 20
997.08328018728
 10
3159.031466921767
 20
997.0800847746458
 10
3159.032161769413
 20
997.0754603457146
  0
LINE
  5
1494
330
1F
100
AcDbEntity
  8
SANINDUSA
100
AcDbLine
 10
3159.04122347286
 20
996.9706526126987
 30
0.0
 11
3159.041618012743
 21
996.9913153284208
 31
0.0
  0
LWPOLYLINE
  5
1496
330
1F
100
AcDbEntity
  8
SANINDUSA
100
AcDbPolyline
 90
        6
 70
   128
 43
0.0
 10
3159.040420451036
 20
997.00627998312
 10
3159.041109183978
 20
996.9980789712588
 10
3159.041815656475
 20
996.9886881349451
 10
3159.042539868528
 20
996.9781074741792
 10
3159.043281820137
 20
996.9663369889607
 10
3159.044041511303
 20
996.9533766792899
  0
LINE
  5
1498
330
1F
100
AcDbEntity
  8
SANINDUSA
100
AcDbLine
 10
3159.039905774975
 20
997.0118397469176
 30
0.0
 11
3159.040421031282
 21
997.0062800349859
 31
0.0
  0
LWPOLYLINE
  5
1499
330
1F
100
AcDbEntity
  8
SANINDUSA
100
AcDbPolyline
 90
        6
 70
   128
 43
0.0
 10
3159.041326870025
 20
996.9543641340347
 10
3159.041322656853
 20
996.9544817110103
 10
3159.041222028348
 20
996.9581329714275
 10
3159.04116577951
 20
996.9629304394359
 10
3159.041183578752
 20
996.9679469225887
 10
3159.04122347286
 20
996.9706526126985
  0
LWPOLYLINE
  5
149E
330
1F
100
AcDbEntity
  8
SANINDUSA
100
AcDbPolyline
 90
        9
 70
   128
 43
0.0
 10
3159.042467031801
 20
996.9404756359885
 10
3159.042253376342
 20
996.9407361349528
 10
3159.042046830591
 20
996.9414488026789
 10
3159.041853001214
 20
996.9426110097906
 10
3159.041682106446
 20
996.9441897781942
 10
3159.041539705521
 20
996.9461613733137
 10
3159.041429014167
 20
996.9485162063879
 10
3159.041354378459
 20
996.9511823125476
 10
3159.041315604309
 20
996.95414930123
  0
LWPOLYLINE
  5
14A2
330
1F
100
AcDbEntity
  8
SANINDUSA
100
AcDbPolyline
 90
        8
 70
   128
 43
0.0
 10
3159.044058838521
 20
996.9533771251345
 10
3159.044097075888
 20
996.9514941683794
 10
3159.044115527343
 20
996.947826932238
 10
3159.04404772804
 20
996.944802818823
 10
3159.043899756649
 20
996.9425347115397
 10
3159.043685616291
 20
996.9410497981616
 10
3159.04351564627
 20
996.940523691768
 10
3159.043330334458
 20
996.9403630751752
  0
LINE
  5
14A6
330
1F
100
AcDbEntity
  8
SANINDUSA
100
AcDbLine
 10
3159.150850685256
 20
996.9154603457146
 30
0.0
 11
3159.057612408352
 21
996.9154603457146
 31
0.0
  0
ARC
  5
14A8
330
1F
100
AcDbEntity
  8
SANINDUSA
100
AcDbCircle
 10
3159.035896081531
 20
996.9174603457146
 30
0.0
 40
0.0019999999999999
100
AcDbArc
 50
178.8483386373003
 51
270.0
  0
LINE
  5
14AB
330
1F
100
AcDbEntity
  8
SANINDUSA
100
AcDbLine
 10
3159.040384196876
 20
996.9154603457146
 30
0.0
 11
3159.035896081531
 21
996.9154603457146
 31
0.0
  0
LINE
  5
14AD
330
1F
100
AcDbEntity
  8
SANINDUSA
100
AcDbLine
 10
3159.042522672526
 20
996.9154603457146
 30
0.0
 11
3159.040384195378
 21
996.9154603457146
 31
0.0
  0
LINE
  5
14B0
330
1F
100
AcDbEntity
  8
SANINDUSA
100
AcDbLine
 10
3159.047947316456
 20
996.9154603457146
 30
0.0
 11
3159.042542672526
 21
996.9154603457146
 31
0.0
  0
LINE
  5
14B3
330
1F
100
AcDbEntity
  8
SANINDUSA
100
AcDbLine
 10
3159.048971382997
 20
996.9154603457146
 30
0.0
 11
3159.047967316455
 21
996.9154603457146
 31
0.0
  0
LWPOLYLINE
  5
14B4
330
1F
100
AcDbEntity
  8
SANINDUSA
100
AcDbPolyline
 90
        5
 70
   128
 43
0.0
 10
3159.047967299585
 20
996.9154603457146
 10
3159.047228891188
 20
996.9156026728404
 10
3159.046595578336
 20
996.9160093972067
 10
3159.046157498627
 20
996.9166226309036
 10
3159.045977002686
 20
996.917355094142
  0
LINE
  5
14B6
330
1F
100
AcDbEntity
  8
SANINDUSA
100
AcDbLine
 10
3159.057612408352
 20
996.9154603457146
 30
0.0
 11
3159.048991382997
 21
996.9154603457146
 31
0.0
  0
LWPOLYLINE
  5
14B8
330
1F
100
AcDbEntity
  8
SANINDUSA
100
AcDbPolyline
 90
        6
 70
   128
 43
0.0
 10
3159.057612408352
 20
996.9154603457146
 10
3159.057164361366
 20
996.9155115509597
 10
3159.05676337599
 20
996.9156509461317
 10
3159.056214471251
 20
996.9160349937835
 10
3159.055823173313
 20
996.9165797390459
 10
3159.055633598134
 20
996.9172237660304
  0
LWPOLYLINE
  5
14D9
330
1F
100
AcDbEntity
  8
SANINDUSA
100
AcDbPolyline
 90
        8
 70
   128
 43
0.0
 10
3159.798046763912
 20
997.2852221537179
 10
3159.80076893192
 20
997.27374925573
 42
-0.4842142741084401
 10
3159.799795944957
 20
997.2725183956642
 10
3159.781870043202
 20
997.2725183956642
 42
0.4980300165935007
 10
3159.777061306308
 20
997.2661487061074
 10
3159.781153380662
 20
997.2517821594486
 42
-0.4980300165935207
 10
3159.778268138526
 20
997.2479603457147
 10
3159.679324212838
 20
997.2479603457147
  0
LINE
  5
14DA
330
1F
100
AcDbEntity
  8
SANINDUSA
100
AcDbLine
 10
3159.809712042347
 20
997.2745710289474
 30
0.0
 11
3159.807524005482
 21
997.2837927682594
 31
0.0
  0
LINE
  5
14DB
330
1F
100
AcDbEntity
  8
SANINDUSA
100
AcDbLine
 10
3159.811958475669
 20
997.2667359561281
 30
0.0
 11
3159.809712042347
 21
997.2745710289474
 31
0.0
  0
ARC
  5
14DC
330
1F
100
AcDbEntity
  8
SANINDUSA
100
AcDbCircle
 10
3159.810997206248
 20
997.2664603457147
 30
0.0
 40
0.001
100
AcDbArc
 50
270.0
 51
15.99839411541177
  0
ARC
  5
14E0
330
1F
100
AcDbEntity
  8
SANINDUSA
100
AcDbCircle
 10
3159.678069570982
 20
997.4157604666386
 30
0.0
 40
0.501387807904446
100
AcDbArc
 50
260.9799830387653
 51
266.2253103227778
  0
ARC
  5
14E1
330
1F
100
AcDbEntity
  8
SANINDUSA
100
AcDbCircle
 10
3159.872510555776
 20
999.849662902044
 30
0.0
 40
2.939131753603168
100
AcDbArc
 50
265.2890811651786
 51
265.8026550794322
  0
ARC
  5
14E7
330
1F
100
AcDbEntity
  8
SANINDUSA
100
AcDbCircle
 10
3159.973321825655
 20
996.9535093561495
 30
0.0
 40
0.003
100
AcDbArc
 50
133.9535181027588
 51
184.5739212598954
  0
ARC
  5
14E8
330
1F
100
AcDbEntity
  8
SANINDUSA
100
AcDbCircle
 10
3159.958216055763
 20
996.9416925005344
 30
0.0
 40
0.003
100
AcDbArc
 50
4.573921259895439
 51
122.1167993059117
  0
LWPOLYLINE
  5
14E9
330
1F
100
AcDbEntity
  8
SANINDUSA
100
AcDbPolyline
 90
       21
 70
   128
 43
0.0
 10
3159.973479356697
 20
996.9254603457146
 10
3160.007320556442
 20
996.9254603457146
 42
0.4152829448086236
 10
3160.008320549782
 20
996.9264639954255
 10
3160.008257328448
 20
996.9437861649531
 10
3160.008257394457
 20
996.9621170982602
 10
3160.008625489632
 20
996.9804332182553
 10
3160.009662692739
 20
996.9987145975581
 10
3160.011575391621
 20
997.0172126768074
 10
3160.014320107563
 20
997.0356247537054
 10
3160.017887272167
 20
997.0538953154905
 10
3160.022267317031
 20
997.0719688494016
 10
3160.025597969026
 20
997.083766507896
 10
3160.029276575157
 20
997.0954603457146
 10
3160.035021416474
 20
997.1116032842727
 10
3160.041404071825
 20
997.1275138979622
 10
3160.046866155719
 20
997.1399552012348
 42
0.7573720544088346
 10
3160.045379022193
 20
997.1411778027476
 10
3160.043790909366
 20
997.1400718040779
 10
3160.039122472197
 20
997.1372259187674
 10
3160.03434355691
 20
997.1346951493055
 10
3160.029439206901
 20
997.1324634783034
  0
ARC
  5
153F
330
1F
100
AcDbEntity
  8
SANINDUSA
100
AcDbCircle
 10
3159.667324212837
 20
997.3019603457146
 30
0.0
 40
0.001
100
AcDbArc
 50
0.0
 51
90.0
  0
ARC
  5
1540
330
1F
100
AcDbEntity
  8
SANINDUSA
100
AcDbCircle
 10
3159.679324212838
 20
997.3019603457146
 30
0.0
 40
0.001
100
AcDbArc
 50
90.0
 51
180.0
  0
ARC
  5
1541
330
1F
100
AcDbEntity
  8
SANINDUSA
100
AcDbCircle
 10
3159.667324212837
 20
997.2489603457146
 30
0.0
 40
0.001
100
AcDbArc
 50
270.0
 51
0.0
  0
ARC
  5
1542
330
1F
100
AcDbEntity
  8
SANINDUSA
100
AcDbCircle
 10
3159.679324212838
 20
997.2489603457146
 30
0.0
 40
0.001
100
AcDbArc
 50
180.0
 51
270.0
  0
ARC
  5
1543
330
1F
100
AcDbEntity
  8
SANINDUSA
100
AcDbCircle
 10
3159.905732960246
 20
997.0114603457146
 30
0.0
 40
0.001
100
AcDbArc
 50
270.0
 51
11.9167192084924
  0
ARC
  5
1544
330
1F
100
AcDbEntity
  8
SANINDUSA
100
AcDbCircle
 10
3159.897482546571
 20
997.0114603457146
 30
0.0
 40
0.001
100
AcDbArc
 50
193.3350079235674
 51
270.0
  0
ARC
  5
1545
330
1F
100
AcDbEntity
  8
SANINDUSA
100
AcDbCircle
 10
3159.622124252825
 20
996.9594603457146
 30
0.0
 40
0.001
100
AcDbArc
 50
0.0000000022928491
 51
90.0
  0
ARC
  5
1546
330
1F
100
AcDbEntity
  8
SANINDUSA
100
AcDbCircle
 10
3159.609124252826
 20
996.9594603457146
 30
0.0
 40
0.001
100
AcDbArc
 50
90.0
 51
180.0
  0
ARC
  5
1547
330
1F
100
AcDbEntity
  8
SANINDUSA
100
AcDbCircle
 10
3159.609124252826
 20
996.9314603457146
 30
0.0
 40
0.001
100
AcDbArc
 50
180.0
 51
269.999999999531
  0
ARC
  5
1548
330
1F
100
AcDbEntity
  8
SANINDUSA
100
AcDbCircle
 10
3159.622124252826
 20
996.9314603457146
 30
0.0
 40
0.001
100
AcDbArc
 50
269.999999999531
 51
0.0000000022928491
  0
LINE
  5
1549
330
1F
100
AcDbEntity
  8
SANINDUSA
100
AcDbLine
 10
3159.609722682016
 20
997.1970595827102
 30
0.0
 11
3159.61843769681
 21
997.1581909852833
 31
0.0
  0
ARC
  5
154A
330
1F
100
AcDbEntity
  8
SANINDUSA
100
AcDbCircle
 10
3159.596324212837
 20
997.3524603457146
 30
0.0
 40
0.0030000000000001
100
AcDbArc
 50
90.0
 51
180.0
  0
ARC
  5
154B
330
1F
100
AcDbEntity
  8
SANINDUSA
100
AcDbCircle
 10
3159.596324212837
 20
997.3434603457146
 30
0.0
 40
0.0030000000000001
100
AcDbArc
 50
180.0
 51
270.0
  0
LINE
  5
154D
330
1F
100
AcDbEntity
  8
SANINDUSA
100
AcDbLine
 10
3159.593324212837
 20
997.3434603457146
 30
0.0
 11
3159.593324212837
 21
997.3374603457145
 31
0.0
  0
LINE
  5
1550
330
1F
100
AcDbEntity
  8
SANINDUSA
100
AcDbLine
 10
3159.593324212837
 20
997.3374603457145
 30
0.0
 11
3159.593324212837
 21
997.3324905501923
 31
0.0
  0
LINE
  5
1552
330
1F
100
AcDbEntity
  8
SANINDUSA
100
AcDbLine
 10
3159.593324212837
 20
997.3324905501923
 30
0.0
 11
3159.593324212837
 21
997.3154603457146
 31
0.0
  0
LINE
  5
1553
330
1F
100
AcDbEntity
  8
SANINDUSA
100
AcDbLine
 10
3159.593324212837
 20
997.3524603457146
 30
0.0
 11
3159.593324212837
 21
997.3434603457146
 31
0.0
  0
ARC
  5
1554
330
1F
100
AcDbEntity
  8
SANINDUSA
100
AcDbCircle
 10
3159.640324212837
 20
997.3374603457145
 30
0.0
 40
0.0030000000000001
100
AcDbArc
 50
0.0
 51
90.0
  0
ARC
  5
1555
330
1F
100
AcDbEntity
  8
SANINDUSA
100
AcDbCircle
 10
3159.644324212838
 20
997.3039603457145
 30
0.0
 40
0.0009999999999999
100
AcDbArc
 50
180.0
 51
270.0
  0
LINE
  5
1556
330
1F
100
AcDbEntity
  8
SANINDUSA
100
AcDbLine
 10
3159.643324212837
 20
997.3039603457145
 30
0.0
 11
3159.643324212837
 21
997.3374603457145
 31
0.0
  0
LINE
  5
1557
330
1F
100
AcDbEntity
  8
SANINDUSA
100
AcDbLine
 10
3159.640324212837
 20
997.3404603457145
 30
0.0
 11
3159.596324212837
 21
997.3404603457145
 31
0.0
  0
LINE
  5
1559
330
1F
100
AcDbEntity
  8
SANINDUSA
100
AcDbLine
 10
3159.596324212837
 20
997.3554603457145
 30
0.0
 11
3159.66366038845
 21
997.3554603457145
 31
0.0
  0
LWPOLYLINE
  5
155A
330
1F
100
AcDbEntity
  8
SANINDUSA
100
AcDbPolyline
 90
        6
 70
   128
 43
0.0
 10
3159.600353993217
 20
997.2382099808806
 10
3159.601002014412
 20
997.2347045008852
 10
3159.602101491275
 20
997.229215028871
 10
3159.603402210636
 20
997.223121700485
 10
3159.604872502229
 20
997.2167005375254
 10
3159.606496852674
 20
997.2100792270248
  0
ARC
  5
155B
330
1F
100
AcDbEntity
  8
SANINDUSA
100
AcDbCircle
 10
3159.644324212838
 20
997.2469603457147
 30
0.0
 40
0.0009999999999999
100
AcDbArc
 50
90.0
 51
180.0
  0
ARC
  5
155C
330
1F
100
AcDbEntity
  8
SANINDUSA
100
AcDbCircle
 10
3159.645324212837
 20
997.2373917232642
 30
0.0
 40
0.0019999999999999
100
AcDbArc
 50
180.0
 51
267.9999999998399
  0
LINE
  5
155D
330
1F
100
AcDbEntity
  8
SANINDUSA
100
AcDbLine
 10
3159.643324212837
 20
997.2373917232642
 30
0.0
 11
3159.643324212837
 21
997.2469603457147
 31
0.0
  0
LWPOLYLINE
  5
155E
330
1F
100
AcDbEntity
  8
SANINDUSA
100
AcDbPolyline
 90
        7
 70
   128
 43
0.0
 10
3159.600353993217
 20
997.2382099808806
 10
3159.600043883144
 20
997.2399039235193
 10
3159.599532570616
 20
997.2428160681532
 10
3159.598976392848
 20
997.2461227854465
 10
3159.598437275161
 20
997.2494902020159
 10
3159.597891503893
 20
997.2530902166873
 10
3159.597605851858
 20
997.2550923625561
  0
LWPOLYLINE
  5
1560
330
1F
100
AcDbEntity
  8
SANINDUSA
100
AcDbPolyline
 90
        9
 70
   128
 43
0.0
 10
3159.593324212837
 20
997.3154603457146
 10
3159.593470997097
 20
997.3042506041105
 10
3159.59377471866
 20
997.2958998371517
 10
3159.594244783369
 20
997.2875172895244
 10
3159.594872716527
 20
997.2791707532042
 10
3159.595650043434
 20
997.2709280201677
 10
3159.596568289396
 20
997.2628568823902
 10
3159.597371006436
 20
997.25667745796
 10
3159.597574334674
 20
997.2552598823572
  0
LINE
  5
1561
330
1F
100
AcDbEntity
  8
SANINDUSA
100
AcDbLine
 10
3159.643324212837
 20
997.3039603457145
 30
0.0
 11
3159.643324212837
 21
997.2469603457147
 31
0.0
  0
ARC
  5
1562
330
1F
100
AcDbEntity
  8
SANINDUSA
100
AcDbCircle
 10
3159.672418479854
 20
997.3525329853258
 30
0.0
 40
0.0040000000000002
100
AcDbArc
 50
193.314339571759
 51
267.8789036032818
  0
LINE
  5
1565
330
1F
100
AcDbEntity
  8
SANINDUSA
100
AcDbLine
 10
3159.685148876211
 20
997.3520207545609
 30
0.0
 11
3159.668779638326
 21
997.3509871847832
 31
0.0
  0
LWPOLYLINE
  5
1567
330
1F
100
AcDbEntity
  8
SANINDUSA
100
AcDbPolyline
 90
        9
 70
   128
 43
0.0
 10
3159.719108215102
 20
997.3502819648782
 10
3159.719000584706
 20
997.3510740682279
 10
3159.718737510994
 20
997.3518289404093
 10
3159.7183295065
 20
997.3525164164204
 10
3159.717792875249
 20
997.3531090244375
 10
3159.717149061248
 20
997.3535830836008
 10
3159.716423791568
 20
997.3539196503113
 10
3159.715646048283
 20
997.3541052752253
 10
3159.714846910334
 20
997.354132540695
  0
LWPOLYLINE
  5
1568
330
1F
100
AcDbEntity
  8
SANINDUSA
100
AcDbPolyline
 90
        9
 70
   128
 43
0.0
 10
3159.719067510367
 20
997.3514475959657
 10
3159.718966329908
 20
997.3522124926969
 10
3159.718720156643
 20
997.3529437312295
 10
3159.718338151212
 20
997.353614100602
 10
3159.717834528858
 20
997.3541986549243
 10
3159.717228030456
 20
997.3546756416702
 10
3159.716541225118
 20
997.3550273111348
 10
3159.715799670353
 20
997.3552405769389
 10
3159.71503096101
 20
997.3553075030023
  0
LINE
  5
156A
330
1F
100
AcDbEntity
  8
SANINDUSA
100
AcDbLine
 10
3159.719108215102
 20
997.3502819648782
 30
0.0
 11
3159.719067510367
 21
997.3514475959657
 31
0.0
  0
LWPOLYLINE
  5
156C
330
1F
100
AcDbEntity
  8
SANINDUSA
100
AcDbPolyline
 90
        3
 70
   128
 43
0.0
 10
3159.710324212837
 20
997.3552631018192
 10
3159.71449615057
 20
997.3553022453044
 10
3159.71503096101
 20
997.3553075030023
  0
LWPOLYLINE
  5
156D
330
1F
100
AcDbEntity
  8
SANINDUSA
100
AcDbPolyline
 90
        4
 70
   128
 43
0.0
 10
3159.714846910334
 20
997.354132540695
 10
3159.700506777293
 20
997.3530524557466
 10
3159.68769263225
 20
997.3521873469033
 10
3159.685148876211
 20
997.3520207545609
  0
LINE
  5
156E
330
1F
100
AcDbEntity
  8
SANINDUSA
100
AcDbLine
 10
3159.672270433212
 20
997.3485357259907
 30
0.0
 11
3159.715510315758
 21
997.3469342488593
 31
0.0
  0
LWPOLYLINE
  5
156F
330
1F
100
AcDbEntity
  8
SANINDUSA
100
AcDbPolyline
 90
        3
 70
   128
 43
0.0
 10
3159.66366038845
 20
997.3554603457145
 10
3159.689703779051
 20
997.3551071253782
 10
3159.710324212837
 20
997.3552631018192
  0
ARC
  5
1570
330
1F
100
AcDbEntity
  8
SANINDUSA
100
AcDbCircle
 10
3159.725152656712
 20
997.3204603457146
 30
0.0
 40
0.0050000000000001
100
AcDbArc
 50
182.0000000000036
 51
270.0
  0
LINE
  5
1571
330
1F
100
AcDbEntity
  8
SANINDUSA
100
AcDbLine
 10
3159.720155702577
 20
997.3202858482311
 30
0.0
 11
3159.719359832424
 21
997.3430765875111
 31
0.0
  0
ARC
  5
1572
330
1F
100
AcDbEntity
  8
SANINDUSA
100
AcDbCircle
 10
3159.715362269115
 20
997.3429369895242
 30
0.0
 40
0.0040000000000002
100
AcDbArc
 50
2.000000000003669
 51
87.87890360328177
  0
LINE
  5
1573
330
1F
100
AcDbEntity
  8
SANINDUSA
100
AcDbLine
 10
3159.719359832424
 20
997.3430765875111
 30
0.0
 11
3159.719108215102
 21
997.3502819648782
 31
0.0
  0
LINE
  5
1574
330
1F
100
AcDbEntity
  8
SANINDUSA
100
AcDbLine
 10
3159.774122817939
 20
997.3154603457146
 30
0.0
 11
3159.768400603957
 21
997.3154603457146
 31
0.0
  0
LINE
  5
1575
330
1F
100
AcDbEntity
  8
SANINDUSA
100
AcDbLine
 10
3159.768400603957
 20
997.3154603457146
 30
0.0
 11
3159.725152656712
 21
997.3154603457146
 31
0.0
  0
LINE
  5
1576
330
1F
100
AcDbEntity
  8
SANINDUSA
100
AcDbLine
 10
3159.783448616459
 20
997.3029603457145
 30
0.0
 11
3159.679324212838
 21
997.3029603457145
 31
0.0
  0
ARC
  5
1577
330
1F
100
AcDbEntity
  8
SANINDUSA
100
AcDbCircle
 10
3159.669324212837
 20
997.2939603457145
 30
0.0
 40
0.0009999999999999
100
AcDbArc
 50
180.0
 51
270.0
  0
ARC
  5
1579
330
1F
100
AcDbEntity
  8
SANINDUSA
100
AcDbCircle
 10
3159.677324212838
 20
997.2939603457145
 30
0.0
 40
0.0009999999999999
100
AcDbArc
 50
270.0
 51
0.0
  0
LINE
  5
157A
330
1F
100
AcDbEntity
  8
SANINDUSA
100
AcDbLine
 10
3159.677324212838
 20
997.2929603457146
 30
0.0
 11
3159.669324212837
 21
997.2929603457146
 31
0.0
  0
ARC
  5
157B
330
1F
100
AcDbEntity
  8
SANINDUSA
100
AcDbCircle
 10
3159.669324212837
 20
997.2569603457147
 30
0.0
 40
0.0009999999999999
100
AcDbArc
 50
90.0
 51
180.0
  0
ARC
  5
157C
330
1F
100
AcDbEntity
  8
SANINDUSA
100
AcDbCircle
 10
3159.677324212838
 20
997.2569603457147
 30
0.0
 40
0.0009999999999999
100
AcDbArc
 50
0.0
 51
90.0
  0
LINE
  5
157D
330
1F
100
AcDbEntity
  8
SANINDUSA
100
AcDbLine
 10
3159.669324212837
 20
997.2579603457147
 30
0.0
 11
3159.677324212838
 21
997.2579603457147
 31
0.0
  0
LINE
  5
157E
330
1F
100
AcDbEntity
  8
SANINDUSA
100
AcDbLine
 10
3159.668324212838
 20
997.2939603457145
 30
0.0
 11
3159.668324212838
 21
997.2569603457147
 31
0.0
  0
LINE
  5
1580
330
1F
100
AcDbEntity
  8
SANINDUSA
100
AcDbLine
 10
3159.678324212837
 20
997.2489603457146
 30
0.0
 11
3159.678324212837
 21
997.2569603457147
 31
0.0
  0
LINE
  5
1581
330
1F
100
AcDbEntity
  8
SANINDUSA
100
AcDbLine
 10
3159.668324212838
 20
997.2489603457146
 30
0.0
 11
3159.668324212838
 21
997.2569603457147
 31
0.0
  0
LWPOLYLINE
  5
1583
330
1F
100
AcDbEntity
  8
SANINDUSA
100
AcDbPolyline
 90
        5
 70
   128
 43
0.0
 10
3159.788445083307
 20
997.2285760435873
 10
3159.787927409705
 20
997.2294401680855
 10
3159.787152899636
 20
997.2300842348094
 10
3159.786208767104
 20
997.2304357128745
 10
3159.78575344794
 20
997.2304866072267
  0
LINE
  5
1585
330
1F
100
AcDbEntity
  8
SANINDUSA
100
AcDbLine
 10
3159.668324212838
 20
997.2939603457145
 30
0.0
 11
3159.668324212838
 21
997.3019603457146
 31
0.0
  0
LINE
  5
1586
330
1F
100
AcDbEntity
  8
SANINDUSA
100
AcDbLine
 10
3159.678324212837
 20
997.2939603457145
 30
0.0
 11
3159.678324212837
 21
997.3019603457146
 31
0.0
  0
ARC
  5
1587
330
1F
100
AcDbEntity
  8
SANINDUSA
100
AcDbCircle
 10
3159.66366038845
 20
997.3504603457145
 30
0.0
 40
0.005
100
AcDbArc
 50
13.31433957175901
 51
90.0
  0
LINE
  5
1588
330
1F
100
AcDbEntity
  8
SANINDUSA
100
AcDbLine
 10
3159.785753447941
 20
997.2304866072267
 30
0.0
 11
3159.645254413844
 21
997.2353929416103
 31
0.0
  0
LINE
  5
1589
330
1F
100
AcDbEntity
  8
SANINDUSA
100
AcDbLine
 10
3159.667324212837
 20
997.3029603457145
 30
0.0
 11
3159.644324212838
 21
997.3029603457145
 31
0.0
  0
LINE
  5
158A
330
1F
100
AcDbEntity
  8
SANINDUSA
100
AcDbLine
 10
3159.644324212838
 20
997.2479603457147
 30
0.0
 11
3159.667324212837
 21
997.2479603457147
 31
0.0
  0
ARC
  5
158B
330
1F
100
AcDbEntity
  8
SANINDUSA
100
AcDbCircle
 10
3159.704144048887
 20
997.1604785422579
 30
0.0
 40
0.0010000000000002
100
AcDbArc
 50
91.14576283817598
 51
181.1457628381499
  0
ARC
  5
158C
330
1F
100
AcDbEntity
  8
SANINDUSA
100
AcDbCircle
 10
3159.704304016896
 20
997.1524801417782
 30
0.0
 40
0.0009999999999999
100
AcDbArc
 50
181.1457628385408
 51
271.1457628389577
  0
LINE
  5
158D
330
1F
100
AcDbEntity
  8
SANINDUSA
100
AcDbLine
 10
3159.703144248827
 20
997.1604585462566
 30
0.0
 11
3159.703304216837
 21
997.1524601457769
 31
0.0
  0
ARC
  5
158E
330
1F
100
AcDbEntity
  8
SANINDUSA
100
AcDbCircle
 10
3159.704304016896
 20
997.0684405496557
 30
0.0
 40
0.0010000000000002
100
AcDbArc
 50
88.85423716182401
 51
178.8542371614592
  0
ARC
  5
158F
330
1F
100
AcDbEntity
  8
SANINDUSA
100
AcDbCircle
 10
3159.704144048887
 20
997.0604421491758
 30
0.0
 40
0.0010000000000001
100
AcDbArc
 50
178.854237161824
 51
268.8542371614071
  0
LINE
  5
1590
330
1F
100
AcDbEntity
  8
SANINDUSA
100
AcDbLine
 10
3159.703304216837
 20
997.068460545657
 30
0.0
 11
3159.703144248827
 21
997.0604621451771
 31
0.0
  0
ARC
  5
1592
330
1F
100
AcDbEntity
  8
SANINDUSA
100
AcDbCircle
 10
3159.784863354304
 20
997.0478255632874
 30
0.0
 40
0.01
100
AcDbArc
 50
12.09475516507314
 51
88.85423716182401
  0
LINE
  5
1593
330
1F
100
AcDbEntity
  8
SANINDUSA
100
AcDbLine
 10
3159.704324012898
 20
997.0694403497157
 30
0.0
 11
3159.785263274328
 21
997.067821564487
 31
0.0
  0
LINE
  5
1594
330
1F
100
AcDbEntity
  8
SANINDUSA
100
AcDbLine
 10
3159.704124052885
 20
997.0594423491158
 30
0.0
 11
3159.785063314315
 21
997.0578235638873
 31
0.0
  0
LINE
  5
1595
330
1F
100
AcDbEntity
  8
SANINDUSA
100
AcDbLine
 10
3159.703144248827
 20
997.0604621451771
 30
0.0
 11
3159.703144248827
 21
997.1604585462566
 31
0.0
  0
LINE
  5
1596
330
1F
100
AcDbEntity
  8
SANINDUSA
100
AcDbLine
 10
3159.606496852674
 20
997.2100792270248
 30
0.0
 11
3159.609722682016
 21
997.1970595827102
 31
0.0
  0
ARC
  5
1597
330
1F
100
AcDbEntity
  8
SANINDUSA
100
AcDbCircle
 10
3159.601124252825
 20
996.9674603457146
 30
0.0
 40
0.0030000000000001
100
AcDbArc
 50
90.0
 51
180.0
  0
LINE
  5
1598
330
1F
100
AcDbEntity
  8
SANINDUSA
100
AcDbLine
 10
3159.608124252825
 20
996.9314603457146
 30
0.0
 11
3159.608124252825
 21
996.9594603457146
 31
0.0
  0
ARC
  5
159E
330
1F
100
AcDbEntity
  8
SANINDUSA
100
AcDbCircle
 10
3159.630124252825
 20
996.9674603457146
 30
0.0
 40
0.0030000000000001
100
AcDbArc
 50
0.0
 51
90.0
  0
LINE
  5
159F
330
1F
100
AcDbEntity
  8
SANINDUSA
100
AcDbLine
 10
3159.623124252826
 20
996.9594603457146
 30
0.0
 11
3159.623124252826
 21
996.9314603457146
 31
0.0
  0
LINE
  5
15A0
330
1F
100
AcDbEntity
  8
SANINDUSA
100
AcDbLine
 10
3159.609124252826
 20
996.9304603457146
 30
0.0
 11
3159.622124252826
 21
996.9304603457144
 31
0.0
  0
LINE
  5
15A1
330
1F
100
AcDbEntity
  8
SANINDUSA
100
AcDbLine
 10
3159.630124252825
 20
996.9704603457145
 30
0.0
 11
3159.601124252825
 21
996.9704603457145
 31
0.0
  0
LINE
  5
15A2
330
1F
100
AcDbEntity
  8
SANINDUSA
100
AcDbLine
 10
3159.622124252825
 20
996.9604603457145
 30
0.0
 11
3159.609124252826
 21
996.9604603457145
 31
0.0
  0
LWPOLYLINE
  5
15A3
330
1F
100
AcDbEntity
  8
SANINDUSA
100
AcDbPolyline
 90
        6
 70
   128
 43
0.0
 10
3159.600124243689
 20
996.920460261407
 10
3159.599462233059
 20
996.9205730068418
 10
3159.598874860137
 20
996.9208985258978
 10
3159.598428346737
 20
996.9214001187822
 10
3159.598173033852
 20
996.9220212347407
 10
3159.598124252825
 20
996.9224602615607
  0
LWPOLYLINE
  5
15A5
330
1F
100
AcDbEntity
  8
SANINDUSA
100
AcDbPolyline
 90
        6
 70
   128
 43
0.0
 10
3159.633124252826
 20
996.9224602594804
 10
3159.633011510397
 20
996.921798248206
 10
3159.63268599396
 20
996.9212108736806
 10
3159.632184403036
 20
996.9207643579535
 10
3159.631563288237
 20
996.9205090422935
 10
3159.631124261809
 20
996.9204602593229
  0
LINE
  5
15A6
330
1F
100
AcDbEntity
  8
SANINDUSA
100
AcDbLine
 10
3159.600124243689
 20
996.9204602614071
 30
0.0
 11
3159.631124261809
 21
996.9204602593229
 31
0.0
  0
LINE
  5
15A7
330
1F
100
AcDbEntity
  8
SANINDUSA
100
AcDbLine
 10
3159.598124252826
 20
996.9224602615607
 30
0.0
 11
3159.598124252826
 21
996.9674603457146
 31
0.0
  0
LINE
  5
15A8
330
1F
100
AcDbEntity
  8
SANINDUSA
100
AcDbLine
 10
3159.633124252826
 20
996.9674603457146
 30
0.0
 11
3159.633124252826
 21
996.9224602594804
 31
0.0
  0
LINE
  5
15AB
330
1F
100
AcDbEntity
  8
SANINDUSA
100
AcDbLine
 10
3159.776326205039
 20
996.9355367462672
 30
0.0
 11
3159.77833800858
 21
996.9354605539564
 31
0.0
  0
LWPOLYLINE
  5
15AD
330
1F
100
AcDbEntity
  8
SANINDUSA
100
AcDbPolyline
 90
        3
 70
   128
 43
0.0
 10
3159.779986700112
 20
996.9383571783961
 10
3159.779850628672
 20
996.9388819441467
 10
3159.779854416515
 20
996.9389305839966
  0
LWPOLYLINE
  5
15AE
330
1F
100
AcDbEntity
  8
SANINDUSA
100
AcDbPolyline
 90
        4
 70
   128
 43
0.0
 10
3159.781275889336
 20
996.9381442915636
 10
3159.780886223096
 20
996.9380792444185
 10
3159.78022030775
 20
996.9381588787799
 10
3159.779986700112
 20
996.9383571783961
  0
LINE
  5
15AF
330
1F
100
AcDbEntity
  8
SANINDUSA
100
AcDbLine
 10
3159.78346770245
 20
996.9354605539557
 30
0.0
 11
3159.787372046416
 21
996.9354605539551
 31
0.0
  0
LWPOLYLINE
  5
15B0
330
1F
100
AcDbEntity
  8
SANINDUSA
100
AcDbPolyline
 90
        4
 70
   128
 43
0.0
 10
3159.786672927355
 20
996.9384549147701
 10
3159.785932379228
 20
996.9384761541659
 10
3159.78466429863
 20
996.9384827341022
 10
3159.783884615567
 20
996.9384693432472
  0
LWPOLYLINE
  5
15B1
330
1F
100
AcDbEntity
  8
SANINDUSA
100
AcDbPolyline
 90
        4
 70
   128
 43
0.0
 10
3159.783884615567
 20
996.9384693432472
 10
3159.782929369741
 20
996.9383965393063
 10
3159.782048185255
 20
996.9382867422348
 10
3159.781275889336
 20
996.9381442915636
  0
LINE
  5
15B2
330
1F
100
AcDbEntity
  8
SANINDUSA
100
AcDbLine
 10
3159.779831423777
 20
996.9354605539562
 30
0.0
 11
3159.78346770245
 21
996.9354605539557
 31
0.0
  0
LWPOLYLINE
  5
15B3
330
1F
100
AcDbEntity
  8
SANINDUSA
100
AcDbPolyline
 90
        5
 70
   128
 43
0.0
 10
3159.78981282769
 20
996.9384635048152
 10
3159.789823269723
 20
996.9383035530976
 10
3159.789781538379
 20
996.9381971972545
 10
3159.789368508418
 20
996.9380262029526
 10
3159.788955362103
 20
996.9381061709631
  0
LWPOLYLINE
  5
15B5
330
1F
100
AcDbEntity
  8
SANINDUSA
100
AcDbPolyline
 90
        4
 70
   128
 43
0.0
 10
3159.788955362103
 20
996.9381061709631
 10
3159.788322629861
 20
996.9382551555606
 10
3159.787551730036
 20
996.9383729449255
 10
3159.786672927355
 20
996.9384549147701
  0
LINE
  5
15B6
330
1F
100
AcDbEntity
  8
SANINDUSA
100
AcDbLine
 10
3159.787372046416
 20
996.9354605539551
 30
0.0
 11
3159.790584554794
 21
996.9354605539548
 31
0.0
  0
LWPOLYLINE
  5
15B7
330
1F
100
AcDbEntity
  8
SANINDUSA
100
AcDbPolyline
 90
       19
 70
   128
 43
0.0
 10
3159.789840933185
 20
996.9383812990043
 10
3159.789840782122
 20
996.9383766979312
 10
3159.789799489361
 20
996.9385204606361
 10
3159.789630693266
 20
996.9389000740031
 10
3159.789289094121
 20
996.9394710408776
 10
3159.788739148741
 20
996.9402045166056
 10
3159.787963219863
 20
996.9410450973928
 10
3159.78697586642
 20
996.9418909080694
 10
3159.785849558291
 20
996.942574867244
 10
3159.784941716947
 20
996.9428761357287
 10
3159.784056833143
 20
996.94289835749
 10
3159.783122094198
 20
996.9426136273837
 10
3159.782156246106
 20
996.9420295184303
 10
3159.781205591611
 20
996.9411770299451
 10
3159.780529686797
 20
996.9403541551022
 10
3159.780109983071
 20
996.9396666025748
 10
3159.77991057915
 20
996.9391960006825
 10
3159.779868996615
 20
996.9390078975184
 10
3159.779868996615
 20
996.9390078975184
  0
LINE
  5
15B9
330
1F
100
AcDbEntity
  8
SANINDUSA
100
AcDbLine
 10
3159.77833800858
 20
996.9354605539564
 30
0.0
 11
3159.779831423777
 21
996.9354605539562
 31
0.0
  0
LWPOLYLINE
  5
15BC
330
1F
100
AcDbEntity
  8
SANINDUSA
100
AcDbPolyline
 90
       13
 70
   128
 43
0.0
 10
3159.776326205038
 20
996.935536746267
 10
3159.773424789373
 20
996.9358094167679
 10
3159.77019051091
 20
996.936432432003
 10
3159.767045528261
 20
996.9373532653282
 10
3159.763965088997
 20
996.9385787977472
 10
3159.760993031076
 20
996.9401005762568
 10
3159.758178057154
 20
996.9419009548859
 10
3159.755565553163
 20
996.9439548006178
 10
3159.753207758323
 20
996.9462075042828
 10
3159.75105919545
 20
996.9486854504767
 10
3159.749127479512
 20
996.9513869942147
 10
3159.74744635351
 20
996.9542803266032
 10
3159.747389678494
 20
996.9544036919989
  0
LINE
  5
15CA
330
1F
100
AcDbEntity
  8
SANINDUSA
100
AcDbLine
 10
3159.645061648923
 20
996.9154603457146
 30
0.0
 11
3159.657389678494
 21
996.9154603457145
 31
0.0
  0
LWPOLYLINE
  5
15CC
330
1F
100
AcDbEntity
  8
SANINDUSA
100
AcDbPolyline
 90
        5
 70
   128
 43
0.0
 10
3159.61843769681
 20
997.1581909852833
 10
3159.618781884336
 20
997.1565660996539
 10
3159.621498929767
 20
997.1429748425153
 10
3159.62404898197
 20
997.1293974789734
 10
3159.624171798667
 20
997.1286736440031
  0
LWPOLYLINE
  5
15CF
330
1F
100
AcDbEntity
  8
SANINDUSA
100
AcDbPolyline
 90
        5
 70
   128
 43
0.0
 10
3159.812096203466
 20
997.2023312850271
 10
3159.814493822997
 20
997.1977995826133
 10
3159.816788134777
 20
997.1932116978461
 10
3159.818980023041
 20
997.1885650308427
 10
3159.82106569003
 20
997.1838667585316
  0
LINE
  5
15D0
330
1F
100
AcDbEntity
  8
SANINDUSA
100
AcDbLine
 10
3159.812873629889
 20
997.1776716469801
 30
0.0
 11
3159.812579855701
 21
997.1783127187965
 31
0.0
  0
LWPOLYLINE
  5
15D1
330
1F
100
AcDbEntity
  8
SANINDUSA
100
AcDbPolyline
 90
        7
 70
   128
 43
0.0
 10
3159.803990325702
 20
997.1634756677742
 10
3159.80729375644
 20
997.1641063777049
 10
3159.810202177807
 20
997.1657951174231
 10
3159.812386048878
 20
997.1683508225446
 10
3159.813598477989
 20
997.1714824308854
 10
3159.813705231061
 20
997.1748359620075
 10
3159.812873629889
 20
997.1776716469801
  0
LWPOLYLINE
  5
15D7
330
1F
100
AcDbEntity
  8
SANINDUSA
100
AcDbPolyline
 90
        5
 70
   128
 43
0.0
 10
3159.86689915517
 20
997.1404134291285
 10
3159.868130788454
 20
997.1399121553385
 10
3159.869331680586
 20
997.139327529392
 10
3159.87050651238
 20
997.1386545857757
 10
3159.871638288275
 20
997.1379002138839
  0
LWPOLYLINE
  5
15D9
330
1F
100
AcDbEntity
  8
SANINDUSA
100
AcDbPolyline
 90
        7
 70
   128
 43
0.0
 10
3159.869797989927
 20
997.1239197826308
 10
3159.86928192358
 20
997.1254988771109
 10
3159.868485641934
 20
997.1270115506952
 10
3159.867475977811
 20
997.1283308103446
 10
3159.866223844116
 20
997.1294946204185
 10
3159.86494578943
 20
997.1303438813368
 10
3159.86351738399
 20
997.1310007281051
  0
ARC
  5
15DA
330
1F
100
AcDbEntity
  8
SANINDUSA
100
AcDbCircle
 10
3159.853303907843
 20
997.1123191733221
 30
0.0
 40
0.031472831808755
100
AcDbArc
 50
11.9167192084924
 51
54.37016705508539
  0
LWPOLYLINE
  5
15DF
330
1F
100
AcDbEntity
  8
SANINDUSA
100
AcDbPolyline
 90
       11
 70
   128
 43
0.0
 10
3159.82106569003
 20
997.1838667585316
 10
3159.82394541923
 20
997.1778740490279
 10
3159.827312200051
 20
997.1721407931003
 10
3159.831262519194
 20
997.1665543985558
 10
3159.8356749463
 20
997.1613253106603
 10
3159.840376160819
 20
997.1566238892931
 10
3159.845450772298
 20
997.15232817596
 10
3159.851026779153
 20
997.148363939485
 10
3159.856920272928
 20
997.1448891981436
 10
3159.861821601814
 20
997.1424860925194
 10
3159.86689915517
 20
997.1404134291285
  0
LWPOLYLINE
  5
15E0
330
1F
100
AcDbEntity
  8
SANINDUSA
100
AcDbPolyline
 90
        7
 70
   128
 43
0.0
 10
3159.86351738399
 20
997.1310007281051
 10
3159.856891357397
 20
997.1337411415904
 10
3159.850503730003
 20
997.1369987852678
 10
3159.844237968832
 20
997.1408610487179
 10
3159.838307872826
 20
997.1452211784791
 10
3159.83245414306
 20
997.1503358630284
 10
3159.828850538064
 20
997.1539708722215
  0
LWPOLYLINE
  5
15EF
330
1F
100
AcDbEntity
  8
SANINDUSA
100
AcDbPolyline
 90
        7
 70
   128
 43
0.0
 10
3160.013769205599
 20
997.1275184372391
 10
3160.014746472047
 20
997.1306929440586
 10
3160.016286216136
 20
997.1337443206028
 10
3160.0182591724
 20
997.136416395983
 10
3160.020722141953
 20
997.1387860988457
 10
3160.023019485912
 20
997.1403931325033
 10
3160.025571714616
 20
997.1416853275449
  0
LWPOLYLINE
  5
15F0
330
1F
100
AcDbEntity
  8
SANINDUSA
100
AcDbPolyline
 90
        7
 70
   128
 43
0.0
 10
3160.029439206901
 20
997.1324634783034
 10
3160.027966295474
 20
997.1316962314446
 10
3160.026604726855
 20
997.1306634882212
 10
3160.025468808223
 20
997.1294519500768
 10
3160.024525836652
 20
997.1280267370104
 10
3160.023938611944
 20
997.1267401830818
 10
3160.02353249812
 20
997.1253549320715
  0
LINE
  5
15F5
330
1F
100
AcDbEntity
  8
SANINDUSA
100
AcDbLine
 10
3160.144155990357
 20
997.3154603457146
 30
0.0
 11
3159.774122817939
 21
997.3154603457146
 31
0.0
  0
ARC
  5
15F6
330
1F
100
AcDbEntity
  8
SANINDUSA
100
AcDbCircle
 10
3160.159977870892
 20
997.3094603457147
 30
0.0
 40
0.0060000000000002
100
AcDbArc
 50
318.966064468076
 51
90.0
  0
LINE
  5
15F7
330
1F
100
AcDbEntity
  8
SANINDUSA
100
AcDbLine
 10
3160.159977870892
 20
997.3154603457146
 30
0.0
 11
3160.144155990357
 21
997.3154603457146
 31
0.0
  0
LWPOLYLINE
  5
15F8
330
1F
100
AcDbEntity
  8
SANINDUSA
100
AcDbPolyline
 90
        9
 70
   128
 43
0.0
 10
3160.115407472418
 20
997.2870672220023
 10
3160.111197607588
 20
997.2768410241942
 42
0.5338141104947278
 10
3160.112122315053
 20
997.2754603457145
 10
3160.12671159929
 20
997.2754603457145
 42
0.2311116096733404
 10
3160.127500178795
 20
997.2758454129031
 10
3160.139021770121
 20
997.2906205080457
 10
3160.149916055284
 20
997.3038239114066
 42
0.6341691920688211
 10
3160.149144724375
 20
997.3054603457146
 10
3160.14307117468
 20
997.3054603457146
  0
ARC
  5
15F9
330
1F
100
AcDbEntity
  8
SANINDUSA
100
AcDbCircle
 10
3160.14307117468
 20
997.2754603457147
 30
0.0
 40
0.0300000000000006
100
AcDbArc
 50
90.0
 51
157.2385108851199
  0
LWPOLYLINE
  5
15FA
330
1F
100
AcDbEntity
  8
SANINDUSA
100
AcDbPolyline
 90
        8
 70
   128
 43
0.0
 10
3160.107283972395
 20
997.2909675463649
 10
3160.110414168836
 20
997.2969355187981
 10
3160.114495488953
 20
997.3022981350922
 10
3160.119424663589
 20
997.3068935718989
 10
3160.12505096515
 20
997.3106029567119
 10
3160.131223417035
 20
997.3133077838864
 10
3160.13776041333
 20
997.314945750177
 10
3160.144155990357
 20
997.3154603457146
  0
LWPOLYLINE
  5
15FB
330
1F
100
AcDbEntity
  8
SANINDUSA
100
AcDbPolyline
 90
       12
 70
   128
 43
0.0
 10
3160.065468442412
 20
997.1782818238009
 10
3160.073549883036
 20
997.193233852867
 10
3160.081993073212
 20
997.2079846290357
 10
3160.090814500793
 20
997.2225597427602
 10
3160.099989103001
 20
997.2369151668063
 10
3160.109694294091
 20
997.251306351492
 10
3160.118637395553
 20
997.26388076617
 42
0.6093309292107097
 10
3160.117822479882
 20
997.2654603457145
 10
3160.098768082089
 20
997.2654603457145
 42
-0.5238342532603609
 10
3160.097831951025
 20
997.2668119970053
 10
3160.102139201587
 20
997.2782783307273
 10
3160.107283972395
 20
997.2909675463649
  0
LINE
  5
15FC
330
1F
100
AcDbEntity
  8
SANINDUSA
100
AcDbLine
 10
3160.09876808199
 20
997.2654603457145
 30
0.0
 11
3159.810997206248
 21
997.2654603457145
 31
0.0
  0
LWPOLYLINE
  5
15FD
330
1F
100
AcDbEntity
  8
SANINDUSA
100
AcDbPolyline
 90
       10
 70
   128
 43
0.0
 10
3160.025571714616
 20
997.1416853275449
 10
3160.030565730644
 20
997.1439847998064
 10
3160.03539022939
 20
997.1466214606909
 10
3160.040110484171
 20
997.1496447153313
 10
3160.044607736037
 20
997.1529906979174
 10
3160.049622177215
 20
997.1573566601065
 10
3160.054257442333
 20
997.1621232693255
 10
3160.058596407721
 20
997.1674134026923
 10
3160.062468363691
 20
997.1730543324596
 10
3160.065468442412
 20
997.1782818238009
  0
LINE
  5
1600
330
1F
100
AcDbEntity
  8
SANINDUSA
100
AcDbLine
 10
3159.905732960246
 20
997.0104603457146
 30
0.0
 11
3159.897482546571
 21
997.0104603457146
 31
0.0
  0
LINE
  5
1602
330
1F
100
AcDbEntity
  8
SANINDUSA
100
AcDbLine
 10
3159.892997478263
 20
996.9404603457146
 30
0.0
 11
3159.908772890759
 21
996.9404603457146
 31
0.0
  0
LINE
  5
1603
330
1F
100
AcDbEntity
  8
SANINDUSA
100
AcDbLine
 10
3159.892997478263
 20
996.9304603457146
 30
0.0
 11
3159.908772890759
 21
996.9304603457146
 31
0.0
  0
ARC
  5
1604
330
1F
100
AcDbEntity
  8
SANINDUSA
100
AcDbCircle
 10
3159.892997478263
 20
997.0204603457146
 30
0.0
 40
0.09
100
AcDbArc
 50
192.0947551650731
 51
270.0
  0
LINE
  5
1607
330
1F
100
AcDbEntity
  8
SANINDUSA
100
AcDbLine
 10
3159.826324212791
 20
996.9154603457146
 30
0.0
 11
3159.830112913412
 21
996.9154603457146
 31
0.0
  0
LINE
  5
1609
330
1F
100
AcDbEntity
  8
SANINDUSA
100
AcDbLine
 10
3159.830112906385
 20
996.9154603457146
 30
0.0
 11
3159.898958965841
 21
996.9154603457146
 31
0.0
  0
ARC
  5
160A
330
1F
100
AcDbEntity
  8
SANINDUSA
100
AcDbCircle
 10
3159.892997478263
 20
997.0204603457146
 30
0.0
 40
0.08
100
AcDbArc
 50
192.0947551650731
 51
270.0
  0
ARC
  5
160C
330
1F
100
AcDbEntity
  8
SANINDUSA
100
AcDbCircle
 10
3159.908772890759
 20
997.0204603457146
 30
0.0
 40
0.0899999999999999
100
AcDbArc
 50
313.9535181027589
 51
347.7995312726132
  0
LINE
  5
160D
330
1F
100
AcDbEntity
  8
SANINDUSA
100
AcDbLine
 10
3159.965064719264
 20
996.9154603457146
 30
0.0
 11
3159.97517060263
 21
996.9154603457146
 31
0.0
  0
ARC
  5
160E
330
1F
100
AcDbEntity
  8
SANINDUSA
100
AcDbCircle
 10
3159.965271327064
 20
996.9174601821132
 30
0.0
 40
0.0020000000000002
100
AcDbArc
 50
184.5739212599215
 51
270.0
  0
ARC
  5
1610
330
1F
100
AcDbEntity
  8
SANINDUSA
100
AcDbCircle
 10
3160.016324212838
 20
996.9174603457146
 30
0.0
 40
0.0020000000000002
100
AcDbArc
 50
270.0
 51
0.0000000000260551
  0
LINE
  5
1611
330
1F
100
AcDbEntity
  8
SANINDUSA
100
AcDbLine
 10
3160.016324212838
 20
996.9154603457146
 30
0.0
 11
3159.97517060263
 21
996.9154603457146
 31
0.0
  0
LINE
  5
1612
330
1F
100
AcDbEntity
  8
SANINDUSA
100
AcDbLine
 10
3159.961206501599
 20
996.941931736201
 30
0.0
 11
3159.963176972074
 21
996.9173008552701
 31
0.0
  0
ARC
  5
1614
330
1F
100
AcDbEntity
  8
SANINDUSA
100
AcDbCircle
 10
3159.908772890759
 20
997.0204603457146
 30
0.0
 40
0.08
100
AcDbArc
 50
270.0
 51
347.7995312726132
  0
ARC
  5
1615
330
1F
100
AcDbEntity
  8
SANINDUSA
100
AcDbCircle
 10
3159.908772890759
 20
997.0204603457146
 30
0.0
 40
0.09
100
AcDbArc
 50
270.0
 51
302.1167993059117
  0
LINE
  5
1617
330
1F
100
AcDbEntity
  8
SANINDUSA
100
AcDbLine
 10
3159.898958965841
 20
996.9154603457146
 30
0.0
 11
3159.965064719264
 21
996.9154603457146
 31
0.0
  0
LINE
  5
1618
330
1F
100
AcDbEntity
  8
SANINDUSA
100
AcDbLine
 10
3159.896509508441
 20
997.0112297014047
 30
0.0
 11
3159.869797989927
 21
997.1239197826308
 31
0.0
  0
LINE
  5
1619
330
1F
100
AcDbEntity
  8
SANINDUSA
100
AcDbLine
 10
3160.023532498121
 20
997.1253549320715
 30
0.0
 11
3159.996740165648
 21
997.0014403943871
 31
0.0
  0
LINE
  5
161A
330
1F
100
AcDbEntity
  8
SANINDUSA
100
AcDbLine
 10
3160.0137692056
 20
997.1275184372391
 30
0.0
 11
3159.986966023994
 21
997.0035537223123
 31
0.0
  0
LWPOLYLINE
  5
161B
330
1F
100
AcDbEntity
  8
SANINDUSA
100
AcDbPolyline
 90
       19
 70
   128
 43
0.0
 10
3160.018324212837
 20
996.9174603457146
 10
3160.018324212837
 20
996.9397828661625
 10
3160.018324212837
 20
996.9621053866104
 10
3160.018768663502
 20
996.9844001633466
 10
3160.020424583009
 20
997.0065906149985
 10
3160.02329575545
 20
997.0286263608565
 10
3160.027372021539
 20
997.0504577010958
 10
3160.032309997705
 20
997.0708096634025
 10
3160.038301730816
 20
997.090894073719
 10
3160.045338705551
 20
997.1106692746095
 10
3160.053389373084
 20
997.1300989883653
 10
3160.062123175164
 20
997.149225316261
 10
3160.074091490004
 20
997.1731931030221
 10
3160.086973071616
 20
997.1966571579956
 10
3160.100751457569
 20
997.2195917627288
 10
3160.115410185429
 20
997.241971198769
 10
3160.130932792764
 20
997.2637697476635
 10
3160.147302817141
 20
997.2849616909595
 10
3160.164503796129
 20
997.3055213102043
  0
LWPOLYLINE
  5
161C
330
1F
100
AcDbEntity
  8
SANINDUSA
100
AcDbPolyline
 90
        3
 70
   128
 43
0.0
 10
3159.970331379819
 20
996.9532701204824
 10
3159.972482541418
 20
996.9263806004923
 42
0.3910205504226583
 10
3159.973479356697
 20
996.9254603457146
  0
LINE
  5
161D
330
1F
100
AcDbEntity
  8
SANINDUSA
100
AcDbLine
 10
3159.884098461477
 20
997.1188179892559
 30
0.0
 11
3159.906711409017
 21
997.0116668354252
 31
0.0
  0
LINE
  5
161F
330
1F
100
AcDbEntity
  8
SANINDUSA
100
AcDbLine
 10
3159.804419402725
 20
997.0520161444095
 30
0.0
 11
3159.814773284578
 21
997.0036980212265
 31
0.0
  0
LINE
  5
1622
330
1F
100
AcDbEntity
  8
SANINDUSA
100
AcDbLine
 10
3159.794641378514
 20
997.0499208538486
 30
0.0
 11
3159.804995260367
 21
997.0016027306654
 31
0.0
  0
ARC
  5
1623
330
1F
100
AcDbEntity
  8
SANINDUSA
100
AcDbCircle
 10
3159.784863354304
 20
997.0478255632874
 30
0.0
 40
0.02
100
AcDbArc
 50
12.09475516507314
 51
88.85423716182401
  0
LINE
  5
1625
330
1F
100
AcDbEntity
  8
SANINDUSA
100
AcDbLine
 10
3159.803990325702
 20
997.1634756677742
 30
0.0
 11
3159.704124052885
 21
997.1614783423179
 31
0.0
  0
LINE
  5
1626
330
1F
100
AcDbEntity
  8
SANINDUSA
100
AcDbLine
 10
3159.828850538064
 20
997.1539708722215
 30
0.0
 11
3159.704324012898
 21
997.151480341718
 31
0.0
  0
LWPOLYLINE
  5
1627
330
1F
100
AcDbEntity
  8
SANINDUSA
100
AcDbPolyline
 90
        8
 70
   128
 43
0.0
 10
3159.810997206248
 20
997.2654603457145
 10
3159.789475867018
 20
997.2654603457145
 42
0.4980300165935027
 10
3159.788514119639
 20
997.2641864078033
 10
3159.792736031601
 20
997.249364024354
 10
3159.79658904154
 20
997.2373189237169
 10
3159.801093397718
 20
997.2254631597337
 10
3159.806273717829
 20
997.2137652890241
 10
3159.812096203466
 20
997.2023312850271
  0
LWPOLYLINE
  5
1628
330
1F
100
AcDbEntity
  8
SANINDUSA
100
AcDbPolyline
 90
        5
 70
   128
 43
0.0
 10
3159.8125798557
 20
997.1783127187965
 10
3159.808498019882
 20
997.187461781414
 10
3159.803985816359
 20
997.1964306672276
 10
3159.799168264471
 20
997.205256772894
 10
3159.788445083307
 20
997.2285760435873
  0
ARC
  5
1629
330
1F
100
AcDbEntity
  8
SANINDUSA
100
AcDbCircle
 10
3159.774125086825
 20
997.2805205497692
 30
0.0
 40
0.0243793296523525
100
AcDbArc
 50
11.11927416503337
 51
66.49721083767613
  0
LWPOLYLINE
  5
162A
330
1F
100
AcDbEntity
  8
SANINDUSA
100
AcDbPolyline
 90
        9
 70
   128
 43
0.0
 10
3159.768400603957
 20
997.3154603457146
 10
3159.775173535125
 20
997.3148827948476
 10
3159.781752437468
 20
997.3131662692923
 10
3159.787942732182
 20
997.3103619594683
 10
3159.793572767741
 20
997.3065471768583
 10
3159.798470957329
 20
997.3018386528952
 10
3159.802505770892
 20
997.2963622748139
 10
3159.8055494308
 20
997.2902936733058
 10
3159.807524005482
 20
997.2837927682594
  0
ARC
  5
162C
330
1F
100
AcDbEntity
  8
SANINDUSA
100
AcDbCircle
 10
3159.791324212803
 20
996.9704605539547
 30
0.0
 40
0.035
100
AcDbArc
 50
269.9999999921835
 51
344.9306785615869
  0
LWPOLYLINE
  5
162E
330
1F
100
AcDbEntity
  8
SANINDUSA
100
AcDbPolyline
 90
        4
 70
   128
 43
0.0
 10
3157.824704025594
 20
997.0692238885305
 10
3157.824179201761
 20
997.0572793265437
 10
3157.823688969444
 20
997.045292643598
 10
3157.822750163198
 20
997.0212005942217
  0
LWPOLYLINE
  5
162F
330
1F
100
AcDbEntity
  8
SANINDUSA
100
AcDbPolyline
 90
        4
 70
   128
 43
0.0
 10
3157.727203520507
 20
997.0692238885305
 10
3157.727728344341
 20
997.0572793265437
 10
3157.728218576657
 20
997.045292643598
 10
3157.729157382903
 20
997.0212005942217
  0
LWPOLYLINE
  5
1633
330
1F
100
AcDbEntity
  8
SANINDUSA
100
AcDbPolyline
 90
       56
 70
   128
 43
0.0
 10
3157.775953773051
 20
996.8770936123599
 10
3157.772468741899
 20
996.8771424593704
 10
3157.768902641964
 20
996.877297096017
 10
3157.76532573587
 20
996.8775545892329
 10
3157.761723531857
 20
996.8779196500323
 10
3157.758078933845
 20
996.8783986134754
 10
3157.754452329678
 20
996.87898614019
 10
3157.750843719353
 20
996.8796822301763
 10
3157.742273297809
 20
996.8817955793822
 10
3157.733740799189
 20
996.8845666956239
 10
3157.72535251088
 20
996.8879828841609
 10
3157.717037889691
 20
996.8921148044444
 10
3157.709067650671
 20
996.896861967442
 10
3157.70144179382
 20
996.9022243731537
 10
3157.694155767991
 20
996.9082174055259
 10
3157.687378658654
 20
996.9147243625833
 10
3157.681110465809
 20
996.921745244326
 10
3157.675427687108
 20
996.9291754054522
 10
3157.670354558178
 20
996.9369607180402
 10
3157.665918658029
 20
996.9450469273809
 10
3157.662171448421
 20
996.9532779828577
 10
3157.65906019438
 20
996.9616799999085
 10
3157.65659885089
 20
996.9701473062166
 10
3157.654510878492
 20
996.9802115875772
 10
3157.653271066346
 20
996.9904567299414
 10
3157.652980640321
 20
996.9998371918276
 10
3157.652972297181
 20
997.0097091042493
 10
3157.652975312853
 20
997.0194567966514
 10
3157.652977855607
 20
997.0292040385714
 10
3157.652975871239
 20
997.0390951146528
 10
3157.653351329673
 20
997.0487341456639
 10
3157.654554132895
 20
997.0587447263033
 10
3157.656615290639
 20
997.0688146714303
 10
3157.659056875406
 20
997.0773021464307
 10
3157.662154638627
 20
997.0857252999781
 10
3157.665893298292
 20
997.0939781575522
 10
3157.670322658621
 20
997.1020847212358
 10
3157.675391900732
 20
997.1098915105656
 10
3157.681071465552
 20
997.1173409813586
 10
3157.687339222829
 20
997.1243808510648
 10
3157.694117739631
 20
997.130904803396
 10
3157.70140701596
 20
997.1369128383523
 10
3157.709036779481
 20
997.142287636837
 10
3157.717012123047
 20
997.1470455323908
 10
3157.725333046657
 20
997.1511865250137
 10
3157.733726745335
 20
997.15460937732
 10
3157.742264031268
 20
997.1573853098202
 10
3157.750838271994
 20
997.1595018835085
 10
3157.753996144733
 20
997.160117757749
 10
3157.75716758657
 20
997.1606503576952
 10
3157.760352597508
 20
997.161099683347
 10
3157.763551177545
 20
997.1614657347046
 10
3157.766661959072
 20
997.1617406406897
 10
3157.769802885733
 20
997.1619387266656
 10
3157.772892701669
 20
997.1620557515617
 10
3157.775953773051
 20
997.1620936123597
  0
LWPOLYLINE
  5
1634
330
1F
100
AcDbEntity
  8
SANINDUSA
100
AcDbPolyline
 90
       56
 70
   128
 43
0.0
 10
3157.775953773051
 20
996.8770936123599
 10
3157.779438804202
 20
996.8771424593704
 10
3157.783004904137
 20
996.877297096017
 10
3157.786581810231
 20
996.8775545892329
 10
3157.790184014244
 20
996.8779196500323
 10
3157.793828612255
 20
996.8783986134754
 10
3157.797455216423
 20
996.87898614019
 10
3157.801063826747
 20
996.8796822301763
 10
3157.809634248292
 20
996.8817955793822
 10
3157.818166746912
 20
996.8845666956239
 10
3157.826555035221
 20
996.8879828841609
 10
3157.83486965641
 20
996.8921148044444
 10
3157.84283989543
 20
996.896861967442
 10
3157.850465752281
 20
996.9022243731537
 10
3157.85775177811
 20
996.9082174055259
 10
3157.864528887447
 20
996.9147243625833
 10
3157.870797080292
 20
996.921745244326
 10
3157.876479858993
 20
996.9291754054522
 10
3157.881552987923
 20
996.9369607180402
 10
3157.885988888072
 20
996.9450469273809
 10
3157.88973609768
 20
996.9532779828577
 10
3157.892847351722
 20
996.9616799999085
 10
3157.895308695211
 20
996.9701473062166
 10
3157.897396667609
 20
996.9802115875772
 10
3157.898636479755
 20
996.9904567299414
 10
3157.89892690578
 20
996.9998371918276
 10
3157.89893524892
 20
997.0097091042493
 10
3157.898932233248
 20
997.0194567966514
 10
3157.898929690494
 20
997.0292040385714
 10
3157.898931674862
 20
997.0390951146528
 10
3157.898556216428
 20
997.0487341456639
 10
3157.897353413206
 20
997.0587447263033
 10
3157.895292255462
 20
997.0688146714303
 10
3157.892850670695
 20
997.0773021464307
 10
3157.889752907474
 20
997.0857252999781
 10
3157.886014247809
 20
997.0939781575522
 10
3157.88158488748
 20
997.1020847212358
 10
3157.876515645368
 20
997.1098915105656
 10
3157.870836080549
 20
997.1173409813586
 10
3157.864568323272
 20
997.1243808510648
 10
3157.85778980647
 20
997.130904803396
 10
3157.850500530141
 20
997.1369128383523
 10
3157.84287076662
 20
997.142287636837
 10
3157.834895423054
 20
997.1470455323908
 10
3157.826574499444
 20
997.1511865250137
 10
3157.818180800766
 20
997.15460937732
 10
3157.809643514833
 20
997.1573853098202
 10
3157.801069274106
 20
997.1595018835085
 10
3157.797911401368
 20
997.160117757749
 10
3157.79473995953
 20
997.1606503576952
 10
3157.791554948593
 20
997.161099683347
 10
3157.788356368556
 20
997.1614657347046
 10
3157.785245587029
 20
997.1617406406897
 10
3157.782104660368
 20
997.1619387266656
 10
3157.779014844432
 20
997.1620557515617
 10
3157.775953773051
 20
997.1620936123597
  0
LWPOLYLINE
  5
163B
330
1F
100
AcDbEntity
  8
SANINDUSA
100
AcDbPolyline
 90
        3
 70
   128
 43
0.0
 10
3157.955857149752
 20
997.008965748968
 10
3157.955857586927
 20
997.0501574250695
 10
3157.955859093366
 20
997.2460936100896
  0
LWPOLYLINE
  5
163C
330
1F
100
AcDbEntity
  8
SANINDUSA
100
AcDbPolyline
 90
        3
 70
   128
 43
0.0
 10
3157.596048342755
 20
997.2460936102564
 10
3157.596048533649
 20
997.2041628055876
 10
3157.596050428742
 20
997.0089657489777
  0
LWPOLYLINE
  5
163E
330
1F
100
AcDbEntity
  8
SANINDUSA
100
AcDbPolyline
 90
        8
 70
   128
 43
0.0
 10
3157.82429690458
 20
997.0755283101013
 10
3157.823738840791
 20
997.0772626038684
 10
3157.821963638979
 20
997.0808493613056
 10
3157.819433523077
 20
997.084084507081
 10
3157.81628665415
 20
997.0867491209057
 10
3157.812737900053
 20
997.0886952406793
 10
3157.809032711358
 20
997.0898715259595
 10
3157.805397642026
 20
997.0903193632596
  0
LINE
  5
1645
330
1F
100
AcDbEntity
  8
SANINDUSA
100
AcDbLine
 10
3157.59945377305
 20
997.2542621221604
 30
0.0
 11
3157.952453773051
 21
997.2542621221604
 31
0.0
  0
LINE
  5
1648
330
1F
100
AcDbEntity
  8
SANINDUSA
100
AcDbLine
 10
3157.599663274223
 20
997.3810936118994
 30
0.0
 11
3157.952244271879
 21
997.3810936118994
 31
0.0
  0
LWPOLYLINE
  5
1649
330
1F
100
AcDbEntity
  8
SANINDUSA
100
AcDbPolyline
 90
       10
 70
   128
 43
0.0
 10
3157.839920406365
 20
997.3138666707169
 10
3157.82202153656
 20
997.3099977663174
 10
3157.804172475286
 20
997.3074257261286
 10
3157.786188319553
 20
997.3060929945539
 10
3157.775953773051
 20
997.3058918299514
 10
3157.767836317646
 20
997.3060183598532
 10
3157.749480232962
 20
997.3072415540624
 10
3157.731256046373
 20
997.3097554046544
 10
3157.721582752949
 20
997.3116290743202
 10
3157.711987139736
 20
997.3138666707169
  0
LWPOLYLINE
  5
164D
330
1F
100
AcDbEntity
  8
SANINDUSA
100
AcDbPolyline
 90
        4
 70
   128
 43
0.0
 10
3157.859959426172
 20
997.2871088225097
 10
3157.86182229541
 20
997.2845231071836
 10
3157.871079114667
 20
997.2715344712103
 10
3157.881228278866
 20
997.2570401029138
  0
LINE
  5
164E
330
1F
100
AcDbEntity
  8
SANINDUSA
100
AcDbLine
 10
3157.958453773051
 20
997.2639608144454
 30
0.0
 11
3157.958453773051
 21
997.3613899598785
 31
0.0
  0
LWPOLYLINE
  5
1653
330
1F
100
AcDbEntity
  8
SANINDUSA
100
AcDbPolyline
 90
       11
 70
   128
 43
0.0
 10
3157.844933307297
 20
997.3148701133807
 10
3157.849644479638
 20
997.316164829272
 10
3157.86707958478
 20
997.3217784935492
 10
3157.884093567516
 20
997.3285633480033
 10
3157.900445209656
 20
997.3363981403569
 10
3157.916245031147
 20
997.3452948925702
 10
3157.92712943352
 20
997.3522471644782
 10
3157.930573708308
 20
997.3545942442852
 10
3157.943051857831
 20
997.3637011130179
 10
3157.94577196486
 20
997.3658074746513
 10
3157.94625225847
 20
997.3661834269496
  0
LINE
  5
1654
330
1F
100
AcDbEntity
  8
SANINDUSA
100
AcDbLine
 10
3157.95545377305
 20
997.3810936118994
 30
0.0
 11
3157.954249731171
 21
997.3810936118994
 31
0.0
  0
ARC
  5
1655
330
1F
100
AcDbEntity
  8
SANINDUSA
100
AcDbCircle
 10
3157.95545377305
 20
997.3780936118995
 30
0.0
 40
0.0030000000000001
100
AcDbArc
 50
0.0
 51
90.0
  0
LWPOLYLINE
  5
1657
330
1F
100
AcDbEntity
  8
SANINDUSA
100
AcDbPolyline
 90
        9
 70
   128
 43
0.0
 10
3157.956948720701
 20
997.377199748819
 10
3157.957070533524
 20
997.3778886293322
 10
3157.957038373939
 20
997.3785886987398
 10
3157.956853997362
 20
997.379261744023
 10
3157.956527467919
 20
997.3798710272644
 10
3157.956076609094
 20
997.380383290973
 10
3157.955526030842
 20
997.3807705734321
 10
3157.954905786263
 20
997.3810117349776
 10
3157.954249731171
 20
997.3810936118994
  0
LINE
  5
1658
330
1F
100
AcDbEntity
  8
SANINDUSA
100
AcDbLine
 10
3157.954249731171
 20
997.3810936118994
 30
0.0
 11
3157.952244271879
 21
997.3810936118994
 31
0.0
  0
LWPOLYLINE
  5
165B
330
1F
100
AcDbEntity
  8
SANINDUSA
100
AcDbPolyline
 90
        6
 70
   128
 43
0.0
 10
3157.94625225847
 20
997.3661834269496
 10
3157.948321539127
 20
997.3672223568412
 10
3157.951068421628
 20
997.3692470610874
 10
3157.953517929163
 20
997.3717143474287
 10
3157.955425973737
 20
997.3742977797307
 10
3157.956948720701
 20
997.377199748819
  0
LINE
  5
165C
330
1F
100
AcDbEntity
  8
SANINDUSA
100
AcDbLine
 10
3157.958453773051
 20
997.3613899598785
 30
0.0
 11
3157.958453773051
 21
997.3780936118995
 31
0.0
  0
LWPOLYLINE
  5
1660
330
1F
100
AcDbEntity
  8
SANINDUSA
100
AcDbPolyline
 90
        3
 70
   128
 43
0.0
 10
3157.842922484377
 20
997.3114862254043
 10
3157.845515470538
 20
997.3076738678138
 10
3157.859959426172
 20
997.2871088225097
  0
LWPOLYLINE
  5
1663
330
1F
100
AcDbEntity
  8
SANINDUSA
100
AcDbPolyline
 90
        9
 70
   128
 43
0.0
 10
3157.842922484377
 20
997.3114862254043
 10
3157.842720910522
 20
997.3119479492302
 10
3157.842488444514
 20
997.3123793751849
 10
3157.842228949981
 20
997.3127733328903
 10
3157.84194673977
 20
997.3131232746977
 10
3157.841646504266
 20
997.3134233845105
 10
3157.841333233436
 20
997.3136686744492
 10
3157.8410121339
 20
997.3138550677504
 10
3157.840688542389
 20
997.3139794665232
  0
LWPOLYLINE
  5
1666
330
1F
100
AcDbEntity
  8
SANINDUSA
100
AcDbPolyline
 90
        3
 70
   128
 43
0.0
 10
3157.840688542389
 20
997.3139794665232
 10
3157.842743418634
 20
997.3143507398827
 10
3157.844933307297
 20
997.3148701133807
  0
ARC
  5
1669
330
1F
100
AcDbEntity
  8
SANINDUSA
100
AcDbCircle
 10
3157.840862197276
 20
997.3101249925688
 30
0.0
 40
0.003858383791747
100
AcDbArc
 50
92.57959155275022
 51
104.1280314903406
  0
LINE
  5
1676
330
1F
100
AcDbEntity
  8
SANINDUSA
100
AcDbLine
 10
3157.958453773051
 20
997.2584804092662
 30
0.0
 11
3157.958453773051
 21
997.2589638912378
 31
0.0
  0
LWPOLYLINE
  5
1677
330
1F
100
AcDbEntity
  8
SANINDUSA
100
AcDbPolyline
 90
        9
 70
   128
 43
0.0
 10
3157.95445377305
 20
997.2544828459581
 10
3157.955234134338
 20
997.2545596580161
 10
3157.95598450678
 20
997.2547871423458
 10
3157.956676053983
 20
997.2551565568521
 10
3157.957282200175
 20
997.2556537051428
 10
3157.9577796515
 20
997.2562594820875
 10
3157.958149291181
 20
997.2569506080183
 10
3157.958376914172
 20
997.2577005233532
 10
3157.95845377305
 20
997.258480409266
  0
LWPOLYLINE
  5
1678
330
1F
100
AcDbEntity
  8
SANINDUSA
100
AcDbPolyline
 90
        4
 70
   128
 43
0.0
 10
3157.95445377305
 20
997.2544828459581
 10
3157.953982535001
 20
997.2543893653286
 10
3157.952461863433
 20
997.2542627211174
 10
3157.952453773051
 20
997.2542621221604
  0
LINE
  5
167A
330
1F
100
AcDbEntity
  8
SANINDUSA
100
AcDbLine
 10
3157.958453773051
 20
997.2589638912378
 30
0.0
 11
3157.958453773051
 21
997.2639608144454
 31
0.0
  0
LINE
  5
1680
330
1F
100
AcDbEntity
  8
SANINDUSA
100
AcDbLine
 10
3157.955859251813
 20
997.2460936102564
 30
0.0
 11
3157.955859205507
 21
997.2492651420981
 31
0.0
  0
LWPOLYLINE
  5
1681
330
1F
100
AcDbEntity
  8
SANINDUSA
100
AcDbPolyline
 90
        7
 70
   128
 43
0.0
 10
3157.955868220766
 20
997.2492641275945
 10
3157.955881997617
 20
997.2503047781797
 10
3157.955986124333
 20
997.2517140186075
 10
3157.956162948853
 20
997.2529833211542
 10
3157.956394122992
 20
997.2540742146634
 10
3157.956633030858
 20
997.254875351439
 10
3157.956777213906
 20
997.2552395260821
  0
CIRCLE
  5
1683
330
1F
100
AcDbEntity
  8
SANINDUSA
100
AcDbCircle
 10
3157.855953773051
 20
997.2290936118994
 30
0.0
 40
0.0065000000000001
  0
LWPOLYLINE
  5
1687
330
1F
100
AcDbEntity
  8
SANINDUSA
100
AcDbPolyline
 90
        9
 70
   128
 43
0.0
 10
3157.884508143844
 20
997.2553096096355
 10
3157.884027993758
 20
997.2553399052829
 10
3157.883554825021
 20
997.2554278847425
 10
3157.883095517478
 20
997.2555722687989
 10
3157.882656749431
 20
997.2557709581172
 10
3157.882244900536
 20
997.2560210637677
 10
3157.881865959052
 20
997.2563189492305
 10
3157.881525434762
 20
997.2566602832708
 10
3157.881228278866
 20
997.2570401029138
  0
LWPOLYLINE
  5
1693
330
1F
100
AcDbEntity
  8
SANINDUSA
100
AcDbPolyline
 90
        5
 70
   128
 43
0.0
 10
3157.824296902532
 20
997.0755283176584
 10
3157.824296913184
 20
997.0755282633069
 10
3157.824701205321
 20
997.0724154661604
 10
3157.82470399188
 20
997.0692231323898
 10
3157.824703988349
 20
997.0692230768213
  0
LWPOLYLINE
  5
1697
330
1F
100
AcDbEntity
  8
SANINDUSA
100
AcDbPolyline
 90
        4
 70
   128
 43
0.0
 10
3157.691948119929
 20
997.2871088225097
 10
3157.690085250691
 20
997.2845231071836
 10
3157.680828431434
 20
997.2715344712103
 10
3157.670679267235
 20
997.2570401029138
  0
LINE
  5
1698
330
1F
100
AcDbEntity
  8
SANINDUSA
100
AcDbLine
 10
3157.593453773051
 20
997.2639608144454
 30
0.0
 11
3157.593453773051
 21
997.3613899598785
 31
0.0
  0
LWPOLYLINE
  5
169C
330
1F
100
AcDbEntity
  8
SANINDUSA
100
AcDbPolyline
 90
       11
 70
   128
 43
0.0
 10
3157.706974238804
 20
997.3148701133807
 10
3157.702263066463
 20
997.316164829272
 10
3157.684827961321
 20
997.3217784935492
 10
3157.667813978584
 20
997.3285633480033
 10
3157.651462336444
 20
997.3363981403569
 10
3157.635662514953
 20
997.3452948925702
 10
3157.624778112581
 20
997.3522471644782
 10
3157.621333837794
 20
997.3545942442852
 10
3157.60885568827
 20
997.3637011130179
 10
3157.606135581241
 20
997.3658074746513
 10
3157.605655287631
 20
997.3661834269496
  0
LWPOLYLINE
  5
16A0
330
1F
100
AcDbEntity
  8
SANINDUSA
100
AcDbPolyline
 90
        3
 70
   128
 43
0.0
 10
3157.708985061724
 20
997.3114862254043
 10
3157.706392075563
 20
997.3076738678138
 10
3157.691948119929
 20
997.2871088225097
  0
LWPOLYLINE
  5
16A1
330
1F
100
AcDbEntity
  8
SANINDUSA
100
AcDbPolyline
 90
        9
 70
   128
 43
0.0
 10
3157.708985061724
 20
997.3114862254043
 10
3157.709186635579
 20
997.3119479492302
 10
3157.709419101587
 20
997.3123793751849
 10
3157.70967859612
 20
997.3127733328903
 10
3157.709960806331
 20
997.3131232746977
 10
3157.710261041835
 20
997.3134233845105
 10
3157.710574312665
 20
997.3136686744492
 10
3157.710895412201
 20
997.3138550677504
 10
3157.711219003712
 20
997.3139794665232
  0
LWPOLYLINE
  5
16A6
330
1F
100
AcDbEntity
  8
SANINDUSA
100
AcDbPolyline
 90
        3
 70
   128
 43
0.0
 10
3157.711219003712
 20
997.3139794665232
 10
3157.709164127467
 20
997.3143507398827
 10
3157.706974238804
 20
997.3148701133807
  0
ARC
  5
16AA
330
1F
100
AcDbEntity
  8
SANINDUSA
100
AcDbCircle
 10
3157.711045348825
 20
997.3101249925688
 30
0.0
 40
0.003858383791747
100
AcDbArc
 50
75.87196850965935
 51
87.42040844724973
  0
LWPOLYLINE
  5
16AE
330
1F
100
AcDbEntity
  8
SANINDUSA
100
AcDbPolyline
 90
        6
 70
   128
 43
0.0
 10
3157.605655287631
 20
997.3661834269496
 10
3157.603586006974
 20
997.3672223568412
 10
3157.600839124473
 20
997.3692470610874
 10
3157.598389616938
 20
997.3717143474287
 10
3157.596481572364
 20
997.3742977797307
 10
3157.5949588254
 20
997.377199748819
  0
LINE
  5
16B0
330
1F
100
AcDbEntity
  8
SANINDUSA
100
AcDbLine
 10
3157.596453773051
 20
997.3810936118994
 30
0.0
 11
3157.59765781493
 21
997.3810936118994
 31
0.0
  0
ARC
  5
16B1
330
1F
100
AcDbEntity
  8
SANINDUSA
100
AcDbCircle
 10
3157.596453773051
 20
997.3780936118995
 30
0.0
 40
0.0030000000000001
100
AcDbArc
 50
90.0
 51
180.0
  0
LINE
  5
16B3
330
1F
100
AcDbEntity
  8
SANINDUSA
100
AcDbLine
 10
3157.59765781493
 20
997.3810936118994
 30
0.0
 11
3157.599663274223
 21
997.3810936118994
 31
0.0
  0
LWPOLYLINE
  5
16B4
330
1F
100
AcDbEntity
  8
SANINDUSA
100
AcDbPolyline
 90
        9
 70
   128
 43
0.0
 10
3157.5949588254
 20
997.377199748819
 10
3157.594837012577
 20
997.3778886293322
 10
3157.594869172162
 20
997.3785886987398
 10
3157.595053548738
 20
997.379261744023
 10
3157.595380078181
 20
997.3798710272644
 10
3157.595830937006
 20
997.380383290973
 10
3157.596381515259
 20
997.3807705734321
 10
3157.597001759838
 20
997.3810117349776
 10
3157.59765781493
 20
997.3810936118994
  0
LINE
  5
16B7
330
1F
100
AcDbEntity
  8
SANINDUSA
100
AcDbLine
 10
3157.593453773051
 20
997.3613899598785
 30
0.0
 11
3157.593453773051
 21
997.3780936118995
 31
0.0
  0
CIRCLE
  5
16BF
330
1F
100
AcDbEntity
  8
SANINDUSA
100
AcDbCircle
 10
3157.695953773051
 20
997.2290936118994
 30
0.0
 40
0.0065000000000001
  0
LWPOLYLINE
  5
16C4
330
1F
100
AcDbEntity
  8
SANINDUSA
100
AcDbPolyline
 90
        9
 70
   128
 43
0.0
 10
3157.667399402257
 20
997.2553096096355
 10
3157.667879552344
 20
997.2553399052829
 10
3157.66835272108
 20
997.2554278847425
 10
3157.668812028623
 20
997.2555722687989
 10
3157.66925079667
 20
997.2557709581172
 10
3157.669662645564
 20
997.2560210637677
 10
3157.670041587049
 20
997.2563189492305
 10
3157.670382111339
 20
997.2566602832708
 10
3157.670679267235
 20
997.2570401029138
  0
LINE
  5
16CD
330
1F
100
AcDbEntity
  8
SANINDUSA
100
AcDbLine
 10
3157.775953773051
 20
997.0903193632597
 30
0.0
 11
3157.746509904075
 21
997.0903193632596
 31
0.0
  0
LINE
  5
16D0
330
1F
100
AcDbEntity
  8
SANINDUSA
100
AcDbLine
 10
3157.775953773051
 20
997.0903193632597
 30
0.0
 11
3157.805397642027
 21
997.0903193632596
 31
0.0
  0
LWPOLYLINE
  5
16D3
330
1F
100
AcDbEntity
  8
SANINDUSA
100
AcDbPolyline
 90
        5
 70
   128
 43
0.0
 10
3157.727610643569
 20
997.0755283176584
 10
3157.727610632917
 20
997.0755282633069
 10
3157.72720634078
 20
997.0724154661604
 10
3157.72720355422
 20
997.0692231323898
 10
3157.727203557752
 20
997.0692230768213
  0
LWPOLYLINE
  5
16D5
330
1F
100
AcDbEntity
  8
SANINDUSA
100
AcDbPolyline
 90
        8
 70
   128
 43
0.0
 10
3157.727610641521
 20
997.0755283101013
 10
3157.72816870531
 20
997.0772626038684
 10
3157.729943907123
 20
997.0808493613056
 10
3157.732474023024
 20
997.084084507081
 10
3157.735620891952
 20
997.0867491209057
 10
3157.739169646048
 20
997.0886952406793
 10
3157.742874834743
 20
997.0898715259595
 10
3157.746509904075
 20
997.0903193632596
  0
LWPOLYLINE
  5
16E5
330
1F
100
AcDbEntity
  8
SANINDUSA
100
AcDbPolyline
 90
        9
 70
   128
 43
0.0
 10
3157.597453773051
 20
997.2544828459581
 10
3157.596673411763
 20
997.2545596580161
 10
3157.595923039321
 20
997.2547871423458
 10
3157.595231492118
 20
997.2551565568521
 10
3157.594625345926
 20
997.2556537051428
 10
3157.594127894601
 20
997.2562594820875
 10
3157.59375825492
 20
997.2569506080183
 10
3157.593530631929
 20
997.2577005233532
 10
3157.593453773051
 20
997.258480409266
  0
LWPOLYLINE
  5
16E7
330
1F
100
AcDbEntity
  8
SANINDUSA
100
AcDbPolyline
 90
        4
 70
   128
 43
0.0
 10
3157.597453773051
 20
997.2544828459581
 10
3157.5979250111
 20
997.2543893653286
 10
3157.599445682669
 20
997.2542627211174
 10
3157.59945377305
 20
997.2542621221604
  0
LINE
  5
16E9
330
1F
100
AcDbEntity
  8
SANINDUSA
100
AcDbLine
 10
3157.593453773051
 20
997.2589638912378
 30
0.0
 11
3157.593453773051
 21
997.2639608144454
 31
0.0
  0
LINE
  5
16EA
330
1F
100
AcDbEntity
  8
SANINDUSA
100
AcDbLine
 10
3157.596048336979
 20
997.2492651420981
 30
0.0
 11
3157.596048294295
 21
997.2460936102564
 31
0.0
  0
LWPOLYLINE
  5
16EB
330
1F
100
AcDbEntity
  8
SANINDUSA
100
AcDbPolyline
 90
        7
 70
   128
 43
0.0
 10
3157.595133568311
 20
997.2552368718886
 10
3157.595310509826
 20
997.2547701353276
 10
3157.595533886205
 20
997.2539926000449
 10
3157.595752513516
 20
997.2529377123864
 10
3157.595921754795
 20
997.251710871154
 10
3157.59602516998
 20
997.2503134375527
 10
3157.596039576589
 20
997.2492640984231
  0
LWPOLYLINE
  5
16EF
330
1F
100
AcDbEntity
  8
SANINDUSA
100
AcDbPolyline
 90
       11
 70
   128
 43
0.0
 10
3157.821844154825
 20
996.996757649023
 10
3157.8213844604
 20
996.9916126701866
 10
3157.820285345531
 20
996.986591895256
 10
3157.818147837872
 20
996.9808416129042
 10
3157.815148826556
 20
996.9755020232931
 10
3157.811721542259
 20
996.9711545643544
 10
3157.807637056976
 20
996.9673685432557
 10
3157.803195526299
 20
996.9644328288564
 10
3157.798287417675
 20
996.9622544642875
 10
3157.793091028687
 20
996.9609743502502
 10
3157.787754429185
 20
996.9606092925447
  0
LWPOLYLINE
  5
16F5
330
1F
100
AcDbEntity
  8
SANINDUSA
100
AcDbPolyline
 90
       39
 70
   128
 43
0.0
 10
3157.77595476417
 20
996.8084219853265
 10
3157.781853003039
 20
996.8085343204837
 10
3157.789013299994
 20
996.8089058437634
 10
3157.796564601874
 20
996.8096041335925
 10
3157.804122153167
 20
996.8106186848348
 10
3157.81165506538
 20
996.8119480873925
 10
3157.819129769689
 20
996.8135883982228
 10
3157.826508819856
 20
996.8155321503044
 10
3157.833761392059
 20
996.8177707797204
 10
3157.840862699239
 20
996.8202962813665
 10
3157.847763239685
 20
996.8230878640023
 10
3157.854542943836
 20
996.8261687815642
 10
3157.861227385825
 20
996.8295502712852
 10
3157.867797632132
 20
996.8332254308503
 10
3157.874234607749
 20
996.8371860201907
 10
3157.880519166247
 20
996.8414224030032
 10
3157.886632341974
 20
996.8459236020255
 10
3157.892555130946
 20
996.8506769974876
 10
3157.898267958509
 20
996.8556675744299
 10
3157.903754236799
 20
996.8608808549035
 10
3157.908998574097
 20
996.8663017094682
 10
3157.913986925438
 20
996.8719145780308
 10
3157.918706700252
 20
996.8777036961622
 10
3157.923146823998
 20
996.8836533173387
 10
3157.927297192438
 20
996.8897468173821
 10
3157.931166249456
 20
996.8959813019862
 10
3157.934818913635
 20
996.9024594736271
 10
3157.938208388077
 20
996.9091108109347
 10
3157.941322729734
 20
996.9159159433951
 10
3157.944150897286
 20
996.9228542733755
 10
3157.946682261521
 20
996.9299021136786
 10
3157.948908294267
 20
996.9370364676651
 10
3157.950821917383
 20
996.9442307041662
 10
3157.952427588803
 20
996.9514808509901
 10
3157.953733588245
 20
996.9588315732524
 10
3157.954729501347
 20
996.9662395215109
 10
3157.955339408085
 20
996.972803227061
 10
3157.955691570073
 20
996.9797038045507
 10
3157.955823939973
 20
996.9865289289662
  0
LWPOLYLINE
  5
16FF
330
1F
100
AcDbEntity
  8
SANINDUSA
100
AcDbPolyline
 90
        3
 70
   128
 43
0.0
 10
3157.955856775431
 20
996.9890714900381
 10
3157.955858078132
 20
996.9901343931292
 10
3157.955853072825
 20
997.0089657508934
  0
LINE
  5
1700
330
1F
100
AcDbEntity
  8
SANINDUSA
100
AcDbLine
 10
3157.955856892907
 20
996.9865291185444
 30
0.0
 11
3157.955856919169
 21
996.989071503823
 31
0.0
  0
LWPOLYLINE
  5
1705
330
1F
100
AcDbEntity
  8
SANINDUSA
100
AcDbPolyline
 90
        3
 70
   128
 43
0.0
 10
3157.822747691477
 20
997.0211367265186
 10
3157.822282710897
 20
997.0089488600486
 10
3157.821844154825
 20
996.996757649023
  0
LWPOLYLINE
  5
1714
330
1F
100
AcDbEntity
  8
SANINDUSA
100
AcDbPolyline
 90
       39
 70
   128
 43
0.0
 10
3157.596084701164
 20
996.98652683338
 10
3157.596223094419
 20
996.9794931020619
 10
3157.596570174624
 20
996.9727745918135
 10
3157.597181348417
 20
996.9662103270769
 10
3157.598087131848
 20
996.9593942077784
 10
3157.599372299995
 20
996.9520248113754
 10
3157.600967944584
 20
996.9447168542542
 10
3157.602874766769
 20
996.9374695421681
 10
3157.605077085384
 20
996.9303458576499
 10
3157.607576633581
 20
996.9233260303765
 10
3157.610378020879
 20
996.9163961070924
 10
3157.613474108531
 20
996.9095781369322
 10
3157.616855958901
 20
996.9028946833697
 10
3157.620512235662
 20
996.8963693731282
 10
3157.624431467001
 20
996.8900225815859
 10
3157.628607255406
 20
996.8838688400024
 10
3157.632987263355
 20
996.8779779945036
 10
3157.637632343004
 20
996.8722540421893
 10
3157.642548002045
 20
996.866692120766
 10
3157.64772417329
 20
996.8613075780526
 10
3157.653149379094
 20
996.8561158716084
 10
3157.658810673947
 20
996.85113245737
 10
3157.664693700132
 20
996.8463725747231
 10
3157.670782787188
 20
996.841851025678
 10
3157.677061094278
 20
996.8375819562396
 10
3157.683508954554
 20
996.8335797368817
 10
3157.690106859428
 20
996.8298567809931
 10
3157.696835618778
 20
996.8264237117606
 10
3157.70367587494
 20
996.8232897875202
 10
3157.710608359954
 20
996.8204628396421
 10
3157.717613005934
 20
996.8179486537033
 10
3157.724716690963
 20
996.8157285601796
 10
3157.732008296597
 20
996.813775819862
 10
3157.739422140624
 20
996.8121143418466
 10
3157.746929181423
 20
996.8107536825872
 10
3157.754498522369
 20
996.8097017766249
 10
3157.762093370978
 20
996.8089650021823
 10
3157.769679355189
 20
996.8085467414786
 10
3157.775952658234
 20
996.8084191377188
  0
LWPOLYLINE
  5
171A
330
1F
100
AcDbEntity
  8
SANINDUSA
100
AcDbPolyline
 90
       11
 70
   128
 43
0.0
 10
3157.730063391276
 20
996.996757649023
 10
3157.730523085701
 20
996.9916126701866
 10
3157.73162220057
 20
996.986591895256
 10
3157.733759708229
 20
996.9808416129042
 10
3157.736758719545
 20
996.9755020232931
 10
3157.740186003842
 20
996.9711545643544
 10
3157.744270489125
 20
996.9673685432557
 10
3157.748712019801
 20
996.9644328288564
 10
3157.753620128426
 20
996.9622544642875
 10
3157.758816517414
 20
996.9609743502502
 10
3157.764153116916
 20
996.9606092925447
  0
LWPOLYLINE
  5
171E
330
1F
100
AcDbEntity
  8
SANINDUSA
100
AcDbPolyline
 90
        3
 70
   128
 43
0.0
 10
3157.729159854624
 20
997.0211367265186
 10
3157.729624835204
 20
997.0089488600486
 10
3157.730063391276
 20
996.996757649023
  0
LINE
  5
1720
330
1F
100
AcDbEntity
  8
SANINDUSA
100
AcDbLine
 10
3157.764153117695
 20
996.960609285721
 30
0.0
 11
3157.766769890124
 21
996.9606311040928
 31
0.0
  0
LINE
  5
1723
330
1F
100
AcDbEntity
  8
SANINDUSA
100
AcDbLine
 10
3157.787754428407
 20
996.960609285721
 30
0.0
 11
3157.785137655977
 21
996.9606311040928
 31
0.0
  0
LWPOLYLINE
  5
1724
330
1F
100
AcDbEntity
  8
SANINDUSA
100
AcDbPolyline
 90
        4
 70
   128
 43
0.0
 10
3157.785137655977
 20
996.9606311040928
 10
3157.78480532433
 20
996.9606323707191
 10
3157.781854744087
 20
996.9606414748312
 10
3157.775953773051
 20
996.9606486191374
  0
LWPOLYLINE
  5
1725
330
1F
100
AcDbEntity
  8
SANINDUSA
100
AcDbPolyline
 90
        4
 70
   128
 43
0.0
 10
3157.766769890124
 20
996.9606311040928
 10
3157.767102221771
 20
996.9606323707191
 10
3157.770052802014
 20
996.9606414748312
 10
3157.775953773051
 20
996.9606486191374
  0
LINE
  5
1745
330
1F
100
AcDbEntity
  8
SANINDUSA
100
AcDbLine
 10
3157.59605059996
 20
996.9890715038207
 30
0.0
 11
3157.596050626617
 21
996.9865270053725
 31
0.0
  0
LWPOLYLINE
  5
1746
330
1F
100
AcDbEntity
  8
SANINDUSA
100
AcDbPolyline
 90
        3
 70
   128
 43
0.0
 10
3157.596051220914
 20
997.0089657606472
 10
3157.596046922503
 20
997.0051810844102
 10
3157.596055318825
 20
996.989071500406
  0
LWPOLYLINE
  5
1AE7
330
1F
100
AcDbEntity
  8
SANINDUSA
100
AcDbPolyline
 90
        5
 70
   128
 43
0.0
 10
3159.330395142539
 20
997.3074104465307
 10
3159.330599165053
 20
997.3079711509701
 10
3159.331182281605
 20
997.3095685775241
 10
3159.332097089948
 20
997.3120616589884
 10
3159.332979297203
 20
997.3144549555497
  0
ARC
  5
1AE8
330
1F
100
AcDbEntity
  8
SANINDUSA
100
AcDbCircle
 10
3159.327350685256
 20
997.3165331103912
 30
0.0
 40
0.0059999999999999
100
AcDbArc
 50
339.7352151636027
 51
0.000000000000007
  0
LINE
  5
1AE9
330
1F
100
AcDbEntity
  8
SANINDUSA
100
AcDbLine
 10
3159.333350685256
 20
997.3165331103912
 30
0.0
 11
3159.333350685256
 21
997.3264669528164
 31
0.0
  0
LINE
  5
1AEA
330
1F
100
AcDbEntity
  8
SANINDUSA
100
AcDbLine
 10
3159.333350685256
 20
997.3264669528164
 30
0.0
 11
3159.333350685256
 21
997.3403120650145
 31
0.0
  0
LWPOLYLINE
  5
1AEB
330
1F
100
AcDbEntity
  8
SANINDUSA
100
AcDbPolyline
 90
        4
 70
   128
 43
0.0
 10
3159.331845632906
 20
997.3520558814225
 10
3159.332767227349
 20
997.3492189300046
 10
3159.33327436907
 20
997.3462087599944
 10
3159.333350685256
 20
997.3445106374398
  0
LWPOLYLINE
  5
1AEC
330
1F
100
AcDbEntity
  8
SANINDUSA
100
AcDbPolyline
 90
        5
 70
   128
 43
0.0
 10
3159.327141184084
 20
997.3554603457145
 10
3159.32885444334
 20
997.3551518713051
 10
3159.330382044972
 20
997.3542450950365
 10
3159.331484137043
 20
997.3528801760792
 10
3159.331845632906
 20
997.3520558814225
  0
LINE
  5
1AED
330
1F
100
AcDbEntity
  8
SANINDUSA
100
AcDbLine
 10
3159.333350685256
 20
997.3403120650145
 30
0.0
 11
3159.333350685256
 21
997.3445106374398
 31
0.0
  0
ARC
  5
1AF3
330
1F
100
AcDbEntity
  8
SANINDUSA
100
AcDbCircle
 10
3158.730073940122
 20
997.3094603457147
 30
0.0
 40
0.0060000000000001
100
AcDbArc
 50
318.966064468076
 51
90.0
  0
LWPOLYLINE
  5
1AF4
330
1F
100
AcDbEntity
  8
SANINDUSA
100
AcDbPolyline
 90
        9
 70
   128
 43
0.0
 10
3158.210894273741
 20
996.9920446279314
 10
3158.210447378539
 20
996.999764023327
 10
3158.207931715359
 20
997.0299517782576
 10
3158.204639315532
 20
997.0601741201312
 10
3158.200594392763
 20
997.0902111210371
 10
3158.195718606529
 20
997.1205458042263
 10
3158.190094240914
 20
997.150605555157
 10
3158.183701752525
 20
997.1805187150385
 10
3158.176592921903
 20
997.2100792270248
  0
ARC
  5
1AF5
330
1F
100
AcDbEntity
  8
SANINDUSA
100
AcDbCircle
 10
3159.212150230822
 20
996.883988506522
 30
0.0
 40
0.636793126201659
100
AcDbArc
 50
145.7943580290239
 51
164.8825628825765
  0
LWPOLYLINE
  5
1AF6
330
1F
100
AcDbEntity
  8
SANINDUSA
100
AcDbPolyline
 90
        6
 70
   128
 43
0.0
 10
3158.214313324562
 20
997.0709173456432
 10
3158.210243158082
 20
997.0994031963588
 10
3158.205485631227
 20
997.1278135248462
 10
3158.200072904032
 20
997.1559698729498
 10
3158.194006408031
 20
997.1839067796766
 10
3158.187254460365
 20
997.2117769665725
  0
LWPOLYLINE
  5
1AF7
330
1F
100
AcDbEntity
  8
SANINDUSA
100
AcDbPolyline
 90
       19
 70
   128
 43
0.0
 10
3158.363378771938
 20
997.2754603247606
 10
3158.363758060074
 20
997.2738958512783
 10
3158.365045654314
 20
997.2696167301718
 10
3158.3665962933
 20
997.2655865871987
 10
3158.36868477643
 20
997.2613015800243
 10
3158.371045401954
 20
997.2575000933813
 10
3158.373610711638
 20
997.2540647276732
 10
3158.376888266597
 20
997.249616786212
 10
3158.380322687528
 20
997.2447586800688
 10
3158.38371985582
 20
997.2397420955008
 10
3158.387082289213
 20
997.2345464553335
 10
3158.392253733382
 20
997.2260156245608
 10
3158.397165532418
 20
997.2171277401679
 10
3158.401654601982
 20
997.2080368550177
 10
3158.405714061057
 20
997.1990959507607
 10
3158.409737757973
 20
997.1905755439664
 10
3158.415216488172
 20
997.1795311691863
 10
3158.420532626167
 20
997.1682135786043
 10
3158.425475587443
 20
997.1567124360701
  0
LINE
  5
1AF8
330
1F
100
AcDbEntity
  8
SANINDUSA
100
AcDbLine
 10
3158.388420282067
 20
997.0062800349859
 30
0.0
 11
3158.388409267719
 21
996.9704953004384
 31
0.0
  0
LWPOLYLINE
  5
1AF9
330
1F
100
AcDbEntity
  8
SANINDUSA
100
AcDbPolyline
 90
        7
 70
   128
 43
0.0
 10
3158.230169542577
 20
996.9696038086654
 10
3158.230167152499
 20
996.9696324496812
 10
3158.228845145397
 20
996.9774662399798
 10
3158.227635202163
 20
996.9853636247238
 10
3158.222330580054
 20
997.0184479715447
 10
3158.217087811197
 20
997.0514704108014
 10
3158.214313324562
 20
997.0709173456432
  0
LWPOLYLINE
  5
1AFA
330
1F
100
AcDbEntity
  8
SANINDUSA
100
AcDbPolyline
 90
       24
 70
   128
 43
0.0
 10
3158.337144220565
 20
997.0954603495094
 10
3158.337144190134
 20
997.09546035272
 10
3158.337144100777
 20
997.0954603551117
 10
3158.337143756872
 20
997.0954603575812
 10
3158.337142489475
 20
997.095460354259
 10
3158.337138285639
 20
997.095460322529
 10
3158.337128396301
 20
997.095460222402
 10
3158.33711258524
 20
997.0954599968354
 10
3158.337081002623
 20
997.0954592511498
 10
3158.337017994654
 20
997.0954565872863
 10
3158.336892601897
 20
997.0954466144561
 10
3158.336644263758
 20
997.0954084339167
 10
3158.336165077825
 20
997.0952648518764
 10
3158.335307688472
 20
997.0947729178359
 10
3158.33393916945
 20
997.0933297808398
 10
3158.332049323095
 20
997.0898389927889
 10
3158.330707705181
 20
997.086084249503
 10
3158.329664651537
 20
997.0822316516761
 10
3158.328106132025
 20
997.0743978911404
 10
3158.326984191008
 20
997.0664830674698
 10
3158.325498368163
 20
997.0505533791607
 10
3158.324613571645
 20
997.0345695264404
 10
3158.323768389387
 20
997.002558373002
 10
3158.323473843441
 20
996.9705374272102
  0
LWPOLYLINE
  5
1AFB
330
1F
100
AcDbEntity
  8
SANINDUSA
100
AcDbPolyline
 90
        7
 70
   128
 43
0.0
 10
3158.588420282067
 20
996.9174603457146
 10
3158.588420282067
 20
996.9397828661625
 10
3158.588420282067
 20
996.9621053866104
 10
3158.588864732732
 20
996.9844001633466
 10
3158.590520652239
 20
997.0065906149985
 10
3158.59339182468
 20
997.0286263608565
 10
3158.597394409798
 20
997.0500630864391
  0
LWPOLYLINE
  5
1AFC
330
1F
100
AcDbEntity
  8
SANINDUSA
100
AcDbPolyline
 90
        9
 70
   128
 43
0.0
 10
3158.327451391099
 20
996.9569097097091
 10
3158.329282767251
 20
996.9544196063962
 10
3158.331400215932
 20
996.9521852086758
 10
3158.333799304347
 20
996.9502136594964
 10
3158.336406810526
 20
996.9485662663087
 10
3158.339205650893
 20
996.9472513994388
 10
3158.342167866724
 20
996.9462880117708
 10
3158.345208577252
 20
996.9457043762956
 10
3158.348324295618
 20
996.9455029152031
  0
LINE
  5
1AFD
330
1F
100
AcDbEntity
  8
SANINDUSA
100
AcDbLine
 10
3158.388254028161
 20
996.9154603457146
 30
0.0
 11
3158.323268327389
 21
996.9154603457146
 31
0.0
  0
LINE
  5
1AFE
330
1F
100
AcDbEntity
  8
SANINDUSA
100
AcDbLine
 10
3158.586420282067
 20
996.9154603457146
 30
0.0
 11
3158.501021242144
 21
996.9154603457146
 31
0.0
  0
ARC
  5
1AFF
330
1F
100
AcDbEntity
  8
SANINDUSA
100
AcDbCircle
 10
3158.586420282067
 20
996.9174603457146
 30
0.0
 40
0.0020000000000002
100
AcDbArc
 50
270.0
 51
0.000000000000007
  0
LWPOLYLINE
  5
1B00
330
1F
100
AcDbEntity
  8
SANINDUSA
100
AcDbPolyline
 90
       13
 70
   128
 43
0.0
 10
3158.360185161874
 20
996.9476500927354
 10
3158.360220885456
 20
996.9482198901891
 10
3158.359661877006
 20
996.9498275397311
 10
3158.358606485731
 20
996.9513787316012
 10
3158.357348826958
 20
996.9525236134925
 10
3158.355828928814
 20
996.9532322733805
 10
3158.355540214417
 20
996.9532906958827
 10
3158.35438282579
 20
996.9532826439957
 10
3158.354049859527
 20
996.953207338123
 10
3158.352702004155
 20
996.952546577074
 10
3158.351353375352
 20
996.9511817314835
 10
3158.350565121224
 20
996.949725405603
 10
3158.350285125427
 20
996.9484249894343
  0
LWPOLYLINE
  5
1B01
330
1F
100
AcDbEntity
  8
SANINDUSA
100
AcDbPolyline
 90
       10
 70
   128
 43
0.0
 10
3158.36335108837
 20
996.9454824808018
 10
3158.368845231942
 20
996.9460867597877
 10
3158.372850633625
 20
996.9473479086129
 10
3158.376592869895
 20
996.949257567503
 10
3158.379990374875
 20
996.951796219677
 10
3158.382915313485
 20
996.9548681101322
 10
3158.385254073774
 20
996.9583527929938
 10
3158.386981598661
 20
996.9621756939041
 10
3158.388047381697
 20
996.9662760933497
 10
3158.388409267719
 20
996.9704953004384
  0
LINE
  5
1B02
330
1F
100
AcDbEntity
  8
SANINDUSA
100
AcDbLine
 10
3158.501021242144
 20
996.9154603457146
 30
0.0
 11
3158.399880115991
 21
996.9154603457146
 31
0.0
  0
LINE
  5
1B03
330
1F
100
AcDbEntity
  8
SANINDUSA
100
AcDbLine
 10
3158.399860115991
 20
996.9154603457146
 30
0.0
 11
3158.388274028161
 21
996.9154603457146
 31
0.0
  0
LINE
  5
1B04
330
1F
100
AcDbEntity
  8
SANINDUSA
100
AcDbLine
 10
3158.348324295618
 20
996.9455029152031
 30
0.0
 11
3158.363351088371
 21
996.9454824808018
 31
0.0
  0
LWPOLYLINE
  5
1B05
330
1F
100
AcDbEntity
  8
SANINDUSA
100
AcDbPolyline
 90
       10
 70
   128
 43
0.0
 10
3158.355672613728
 20
996.9463983459043
 10
3158.35498732611
 20
996.9464147233708
 10
3158.353692817657
 20
996.9465182699323
 10
3158.352523826955
 20
996.9467163120551
 10
3158.351579064407
 20
996.9469940620127
 10
3158.350921578376
 20
996.9473116306041
 10
3158.350550994881
 20
996.9476073108697
 10
3158.350365665242
 20
996.9478749190114
 10
3158.35027822984
 20
996.948302266065
 10
3158.350294028597
 20
996.9484226123727
  0
LWPOLYLINE
  5
1B06
330
1F
100
AcDbEntity
  8
SANINDUSA
100
AcDbPolyline
 90
       10
 70
   128
 43
0.0
 10
3158.360252511825
 20
996.9476396011755
 10
3158.360255468372
 20
996.9475997193571
 10
3158.360213451588
 20
996.9474146426675
 10
3158.360075926268
 20
996.9472433666998
 10
3158.359755970889
 20
996.9470340042132
 10
3158.35914055522
 20
996.9467911499393
 10
3158.358253421976
 20
996.9465861392425
 10
3158.357171186537
 20
996.9464525238644
 10
3158.355948554954
 20
996.9463988283974
 10
3158.355672613728
 20
996.9463983459043
  0
LWPOLYLINE
  5
1B07
330
1F
100
AcDbEntity
  8
SANINDUSA
100
AcDbPolyline
 90
        4
 70
   128
 43
0.0
 10
3158.231361579049
 20
996.9175005435729
 10
3158.2310128626
 20
996.9448821758126
 10
3158.230369150128
 20
996.9648586209405
 10
3158.230169542577
 20
996.9696038086654
  0
LWPOLYLINE
  5
1B08
330
1F
100
AcDbEntity
  8
SANINDUSA
100
AcDbPolyline
 90
        3
 70
   128
 43
0.0
 10
3158.213418616638
 20
996.9174570092929
 10
3158.213115239802
 20
996.9424809033876
 10
3158.212200683705
 20
996.9694784983026
  0
LINE
  5
1B09
330
1F
100
AcDbEntity
  8
SANINDUSA
100
AcDbLine
 10
3158.168220322056
 20
996.9674603457146
 30
0.0
 11
3158.168220322056
 21
996.9224602615607
 31
0.0
  0
LINE
  5
1B0A
330
1F
100
AcDbEntity
  8
SANINDUSA
100
AcDbLine
 10
3158.298248404043
 20
996.9154603457146
 30
0.0
 11
3158.233102250576
 21
996.9154603457146
 31
0.0
  0
LINE
  5
1B0B
330
1F
100
AcDbEntity
  8
SANINDUSA
100
AcDbLine
 10
3158.323248327389
 20
996.9154603457146
 30
0.0
 11
3158.298248404173
 21
996.9154603457146
 31
0.0
  0
ARC
  5
1B0C
330
1F
100
AcDbEntity
  8
SANINDUSA
100
AcDbCircle
 10
3158.239448561872
 20
997.3475346956758
 30
0.0
 40
0.4326489603118588
100
AcDbArc
 50
260.7925114276057
 51
266.4892342601628
  0
LINE
  5
1B0D
330
1F
100
AcDbEntity
  8
SANINDUSA
100
AcDbLine
 10
3158.233102250576
 20
996.9154603457146
 30
0.0
 11
3158.231978625077
 21
996.9154603457146
 31
0.0
  0
LINE
  5
1B0E
330
1F
100
AcDbEntity
  8
SANINDUSA
100
AcDbLine
 10
3158.231361579049
 20
996.9154603457146
 30
0.0
 11
3158.216418648579
 21
996.9154603457146
 31
0.0
  0
LINE
  5
1B0F
330
1F
100
AcDbEntity
  8
SANINDUSA
100
AcDbLine
 10
3158.231361579049
 20
996.9154603457146
 30
0.0
 11
3158.231361579049
 21
996.9175005435729
 31
0.0
  0
LINE
  5
1B10
330
1F
100
AcDbEntity
  8
SANINDUSA
100
AcDbLine
 10
3158.231978625077
 20
996.9154603457146
 30
0.0
 11
3158.231361579049
 21
996.9154603457146
 31
0.0
  0
ARC
  5
1B11
330
1F
100
AcDbEntity
  8
SANINDUSA
100
AcDbCircle
 10
3158.215418613856
 20
996.9174603457146
 30
0.0
 40
0.0019999999999999
100
AcDbArc
 50
180.0955814865661
 51
270.0
  0
LINE
  5
1B12
330
1F
100
AcDbEntity
  8
SANINDUSA
100
AcDbLine
 10
3158.216418648579
 20
996.9154603457146
 30
0.0
 11
3158.215418613856
 21
996.9154603457146
 31
0.0
  0
LWPOLYLINE
  5
1B13
330
1F
100
AcDbEntity
  8
SANINDUSA
100
AcDbPolyline
 90
        5
 70
   128
 43
0.0
 10
3158.212954833105
 20
996.9156976833724
 10
3158.213137441081
 20
996.9156888262254
 10
3158.213995505309
 20
996.9156178774667
 10
3158.21449522127
 20
996.9155531301609
 10
3158.214680998097
 20
996.915517277875
  0
ARC
  5
1B14
330
1F
100
AcDbEntity
  8
SANINDUSA
100
AcDbCircle
 10
3158.215238986571
 20
996.9179398445128
 30
0.0
 40
0.0024859968325624
100
AcDbArc
 50
257.029308329252
 51
274.1435538854519
  0
LWPOLYLINE
  5
1B15
330
1F
100
AcDbEntity
  8
SANINDUSA
100
AcDbPolyline
 90
        6
 70
   128
 43
0.0
 10
3158.170220312919
 20
996.920460261407
 10
3158.169558302289
 20
996.9205730068418
 10
3158.168970929367
 20
996.9208985258978
 10
3158.168524415967
 20
996.9214001187822
 10
3158.168269103083
 20
996.9220212347407
 10
3158.168220322056
 20
996.9224602615607
  0
LWPOLYLINE
  5
1B16
330
1F
100
AcDbEntity
  8
SANINDUSA
100
AcDbPolyline
 90
        6
 70
   128
 43
0.0
 10
3158.323473843441
 20
996.9705374272102
 10
3158.323473389945
 20
996.9703883859995
 10
3158.323563060263
 20
996.9682807237886
 10
3158.324286987238
 20
996.9640969927828
 10
3158.325707682307
 20
996.960096491766
 10
3158.327450922408
 20
996.9569094057407
  0
ARC
  5
1B17
330
1F
100
AcDbEntity
  8
SANINDUSA
100
AcDbCircle
 10
3158.314159284195
 20
996.7490189981722
 30
0.0
 40
0.2640551440589361
100
AcDbArc
 50
113.021321892586
 51
123.1195813248013
  0
LWPOLYLINE
  5
1B18
330
1F
100
AcDbEntity
  8
SANINDUSA
100
AcDbPolyline
 90
        2
 70
   128
 43
0.0
 10
3158.212200683705
 20
996.9694784983026
 10
3158.210894273741
 20
996.9920446279314
  0
LWPOLYLINE
  5
1B19
330
1F
100
AcDbEntity
  8
SANINDUSA
100
AcDbPolyline
 90
        7
 70
   128
 43
0.0
 10
3158.169882662285
 20
996.9701736397116
 10
3158.16957982206
 20
996.9699720702196
 10
3158.169271248195
 20
996.9697409401717
 10
3158.168890302477
 20
996.9693500569215
 10
3158.168562771009
 20
996.9688522587121
 10
3158.168258117098
 20
996.9679350463422
 10
3158.168220322056
 20
996.9674603457146
  0
LWPOLYLINE
  5
1B1A
330
1F
100
AcDbEntity
  8
SANINDUSA
100
AcDbPolyline
 90
        5
 70
   128
 43
0.0
 10
3158.437131063809
 20
997.1098369777818
 10
3158.438313404974
 20
997.1064293963774
 10
3158.439487074064
 20
997.1042805432364
 10
3158.440933289008
 20
997.1023211247578
 10
3158.441670769562
 20
997.1015062056123
  0
LINE
  5
1B1B
330
1F
100
AcDbEntity
  8
SANINDUSA
100
AcDbLine
 10
3158.388420282067
 20
997.011839746778
 30
0.0
 11
3158.388420282067
 21
997.0754603457146
 31
0.0
  0
LINE
  5
1B1C
330
1F
100
AcDbEntity
  8
SANINDUSA
100
AcDbLine
 10
3158.388420282067
 20
997.0118397469176
 30
0.0
 11
3158.388420282067
 21
997.0062800349859
 31
0.0
  0
LINE
  5
1B1D
330
1F
100
AcDbEntity
  8
SANINDUSA
100
AcDbLine
 10
3158.408420282067
 20
997.0954603457146
 30
0.0
 11
3158.505138369636
 21
997.0954603457146
 31
0.0
  0
LWPOLYLINE
  5
1B1E
330
1F
100
AcDbEntity
  8
SANINDUSA
100
AcDbPolyline
 90
        6
 70
   128
 43
0.0
 10
3158.441670769562
 20
997.1015062056123
 10
3158.444197845339
 20
997.0993372842023
 10
3158.447082927618
 20
997.097666909811
 10
3158.451319669466
 20
997.0962075512092
 10
3158.455906883693
 20
997.0955320958099
 10
3158.458115596674
 20
997.0954603457146
  0
LWPOLYLINE
  5
1B1F
330
1F
100
AcDbEntity
  8
SANINDUSA
100
AcDbPolyline
 90
       10
 70
   128
 43
0.0
 10
3158.408420282067
 20
997.0954603457146
 10
3158.40509674907
 20
997.0951802056381
 10
3158.40186726938
 20
997.094356324777
 10
3158.398826209419
 20
997.0930067350082
 10
3158.396053373608
 20
997.0911784745844
 10
3158.39361329958
 20
997.0889019639344
 10
3158.391585967033
 20
997.086258763994
 10
3158.39001450081
 20
997.08328018728
 10
3158.388962259119
 20
997.0800847746458
 10
3158.388420282067
 20
997.0754603457146
  0
LWPOLYLINE
  5
1B20
330
1F
100
AcDbEntity
  8
SANINDUSA
100
AcDbPolyline
 90
        7
 70
   128
 43
0.0
 10
3158.425496497138
 20
997.1565764042789
 10
3158.428260890707
 20
997.1496449292915
 10
3158.43084721432
 20
997.1426332052628
 10
3158.432967843446
 20
997.1354035518915
 10
3158.434517318549
 20
997.1279942763095
 10
3158.435609675238
 20
997.1204854077104
 10
3158.436368074877
 20
997.1129527043268
  0
LINE
  5
1B21
330
1F
100
AcDbEntity
  8
SANINDUSA
100
AcDbLine
 10
3158.437131063809
 20
997.1098369777818
 30
0.0
 11
3158.436368075464
 21
997.1129527019714
 31
0.0
  0
LINE
  5
1B22
330
1F
100
AcDbEntity
  8
SANINDUSA
100
AcDbLine
 10
3158.298420256404
 20
997.3154603457146
 30
0.0
 11
3158.535551529448
 21
997.3154603457146
 31
0.0
  0
LWPOLYLINE
  5
1B23
330
1F
100
AcDbEntity
  8
SANINDUSA
100
AcDbPolyline
 90
        5
 70
   128
 43
0.0
 10
3158.233420245282
 20
997.2788814293434
 10
3158.243420245277
 20
997.2788814905186
 10
3158.283420245305
 20
997.2788812928303
 10
3158.443420244191
 20
997.2788761089207
 10
3158.526141606572
 20
997.2788720947189
  0
LWPOLYLINE
  5
1B24
330
1F
100
AcDbEntity
  8
SANINDUSA
100
AcDbPolyline
 90
        5
 70
   128
 43
0.0
 10
3158.685506254658
 20
997.241971198769
 10
3158.685506254658
 20
997.241971198769
 10
3158.701028861994
 20
997.2637697476635
 10
3158.717398886371
 20
997.2849616909595
 10
3158.734599865359
 20
997.3055213102043
  0
LINE
  5
1B25
330
1F
100
AcDbEntity
  8
SANINDUSA
100
AcDbLine
 10
3158.535551529448
 20
997.3154603457146
 30
0.0
 11
3158.555438975939
 21
997.3154603457146
 31
0.0
  0
LINE
  5
1B26
330
1F
100
AcDbEntity
  8
SANINDUSA
100
AcDbLine
 10
3158.557994893185
 20
997.3154603457146
 30
0.0
 11
3158.730073940122
 21
997.3154603457146
 31
0.0
  0
LINE
  5
1B27
330
1F
100
AcDbEntity
  8
SANINDUSA
100
AcDbLine
 10
3158.555438975939
 20
997.3154603457146
 30
0.0
 11
3158.557994893185
 21
997.3154603457146
 31
0.0
  0
LWPOLYLINE
  5
1B28
330
1F
100
AcDbEntity
  8
SANINDUSA
100
AcDbPolyline
 90
        4
 70
   128
 43
0.0
 10
3158.165231260284
 20
997.2761243697538
 10
3158.16441722186
 20
997.2862609024881
 10
3158.163845644009
 20
997.2963809551373
 10
3158.163420282067
 20
997.3154603457146
  0
LWPOLYLINE
  5
1B29
330
1F
100
AcDbEntity
  8
SANINDUSA
100
AcDbPolyline
 90
        5
 70
   128
 43
0.0
 10
3158.176592921903
 20
997.2100792270248
 10
3158.172773186608
 20
997.2264621324326
 10
3158.16960861017
 20
997.2429325254051
 10
3158.167091302404
 20
997.2595163516016
 10
3158.165231260284
 20
997.2761243697538
  0
LWPOLYLINE
  5
1B2A
330
1F
100
AcDbEntity
  8
SANINDUSA
100
AcDbPolyline
 90
        5
 70
   128
 43
0.0
 10
3158.187254460365
 20
997.2117769665725
 10
3158.183759035939
 20
997.2266248555639
 10
3158.180820520418
 20
997.2415477029707
 10
3158.178432339465
 20
997.2565660080169
 10
3158.176602712182
 20
997.2716091213341
  0
LINE
  5
1B2B
330
1F
100
AcDbEntity
  8
SANINDUSA
100
AcDbLine
 10
3158.182107925807
 20
997.278879993911
 30
0.0
 11
3158.233420282068
 21
997.278879993911
 31
0.0
  0
LWPOLYLINE
  5
1B2C
330
1F
100
AcDbEntity
  8
SANINDUSA
100
AcDbPolyline
 90
        3
 70
   128
 43
0.0
 10
3158.177529643706
 20
997.2754603255079
 10
3158.177529675129
 20
997.2754603740494
 10
3158.177947952677
 20
997.2760297226995
  0
LWPOLYLINE
  5
1B2D
330
1F
100
AcDbEntity
  8
SANINDUSA
100
AcDbPolyline
 90
        5
 70
   128
 43
0.0
 10
3158.177947952677
 20
997.2760297226995
 10
3158.179663828074
 20
997.2775439812336
 10
3158.18143540736
 20
997.2785458514191
 10
3158.182094191318
 20
997.2788731946383
 10
3158.182107925807
 20
997.278879993911
  0
LWPOLYLINE
  5
1B2E
330
1F
100
AcDbEntity
  8
SANINDUSA
100
AcDbPolyline
 90
        3
 70
   128
 43
0.0
 10
3158.176602712182
 20
997.2716091213341
 10
3158.176759274688
 20
997.2737041171606
 10
3158.177529643706
 20
997.2754603255079
  0
LWPOLYLINE
  5
1B2F
330
1F
100
AcDbEntity
  8
SANINDUSA
100
AcDbPolyline
 90
        5
 70
   128
 43
0.0
 10
3158.280420182776
 20
997.3552691266288
 10
3158.276904189845
 20
997.3552337035508
 10
3158.240389338981
 20
997.3550063718551
 10
3158.18706467708
 20
997.3548132206401
 10
3158.18308377624
 20
997.3548028876177
  0
LINE
  5
1B30
330
1F
100
AcDbEntity
  8
SANINDUSA
100
AcDbLine
 10
3158.289547566037
 20
997.3404516630013
 30
0.0
 11
3158.290031048009
 21
997.3266065508033
 31
0.0
  0
LWPOLYLINE
  5
1B31
330
1F
100
AcDbEntity
  8
SANINDUSA
100
AcDbPolyline
 90
        6
 70
   128
 43
0.0
 10
3158.290578244904
 20
997.3186752387494
 10
3158.291158597005
 20
997.3175844379822
 10
3158.292267177275
 20
997.3164465734797
 10
3158.293668399371
 20
997.3157166585481
 10
3158.294982684783
 20
997.3154674285209
 10
3158.295248725941
 20
997.3154603457146
  0
LINE
  5
1B32
330
1F
100
AcDbEntity
  8
SANINDUSA
100
AcDbLine
 10
3158.295248725941
 20
997.3154603457146
 30
0.0
 11
3158.298420256404
 21
997.3154603457146
 31
0.0
  0
LINE
  5
1B33
330
1F
100
AcDbEntity
  8
SANINDUSA
100
AcDbLine
 10
3158.290031048009
 20
997.3266065508033
 30
0.0
 11
3158.290251771806
 21
997.3202858482311
 31
0.0
  0
ARC
  5
1B34
330
1F
100
AcDbEntity
  8
SANINDUSA
100
AcDbCircle
 10
3158.295248725941
 20
997.3204603457146
 30
0.0
 40
0.0050000000000001
100
AcDbArc
 50
182.0000000000037
 51
200.9173818529593
  0
LWPOLYLINE
  5
1B35
330
1F
100
AcDbEntity
  8
SANINDUSA
100
AcDbPolyline
 90
        9
 70
   128
 43
0.0
 10
3158.289163579596
 20
997.3514475959657
 10
3158.289062399138
 20
997.3522124926969
 10
3158.288816225874
 20
997.3529437312295
 10
3158.288434220442
 20
997.353614100602
 10
3158.287930598088
 20
997.3541986549243
 10
3158.287324099686
 20
997.3546756416702
 10
3158.286637294349
 20
997.3550273111348
 10
3158.285895739583
 20
997.3552405769389
 10
3158.28512703024
 20
997.3553075030023
  0
LINE
  5
1B36
330
1F
100
AcDbEntity
  8
SANINDUSA
100
AcDbLine
 10
3158.289163579597
 20
997.3514475959657
 30
0.0
 11
3158.289547566037
 21
997.3404516630013
 31
0.0
  0
LINE
  5
1B37
330
1F
100
AcDbEntity
  8
SANINDUSA
100
AcDbLine
 10
3158.285127334488
 20
997.3553158973802
 30
0.0
 11
3158.280420184519
 21
997.3552758337287
 31
0.0
  0
LINE
  5
1B38
330
1F
100
AcDbEntity
  8
SANINDUSA
100
AcDbLine
 10
3158.163420282067
 20
997.3165332733163
 30
0.0
 11
3158.163420282067
 21
997.3445106374398
 31
0.0
  0
LINE
  5
1B39
330
1F
100
AcDbEntity
  8
SANINDUSA
100
AcDbLine
 10
3158.163420282067
 20
997.3154940976534
 30
0.0
 11
3158.163420282067
 21
997.3165332733163
 31
0.0
  0
LINE
  5
1B3A
330
1F
100
AcDbEntity
  8
SANINDUSA
100
AcDbLine
 10
3158.177000918066
 20
997.3554603457145
 30
0.0
 11
3158.225346292822
 21
997.3554603457145
 31
0.0
  0
LINE
  5
1B3B
330
1F
100
AcDbEntity
  8
SANINDUSA
100
AcDbLine
 10
3158.225346292822
 20
997.3554603457145
 30
0.0
 11
3158.23375645768
 21
997.3554603457145
 31
0.0
  0
ARC
  5
1B3C
330
1F
100
AcDbEntity
  8
SANINDUSA
100
AcDbCircle
 10
3158.23375645768
 20
997.3504603457145
 30
0.0
 40
0.005
100
AcDbArc
 50
65.52259607012548
 51
90.0
  0
LINE
  5
1B3D
330
1F
100
AcDbEntity
  8
SANINDUSA
100
AcDbLine
 10
3158.166420282068
 20
997.3554603457145
 30
0.0
 11
3158.177000918066
 21
997.3554603457145
 31
0.0
  0
ARC
  5
1B3E
330
1F
100
AcDbEntity
  8
SANINDUSA
100
AcDbCircle
 10
3158.166420282068
 20
997.3524603457146
 30
0.0
 40
0.0030000000000001
100
AcDbArc
 50
90.0
 51
180.0
  0
LINE
  5
1B3F
330
1F
100
AcDbEntity
  8
SANINDUSA
100
AcDbLine
 10
3158.163420282067
 20
997.3510985599977
 30
0.0
 11
3158.163420282067
 21
997.3524603457146
 31
0.0
  0
LINE
  5
1B40
330
1F
100
AcDbEntity
  8
SANINDUSA
100
AcDbLine
 10
3158.163420282067
 20
997.3445106374398
 30
0.0
 11
3158.163420282067
 21
997.3510985599977
 31
0.0
  0
LINE
  5
1C68
330
1F
100
AcDbEntity
  8
SANINDUSA
  6
HIDDEN
100
AcDbLine
 10
3159.659389678494
 20
996.9602076815352
 30
0.0
 11
3159.659389678494
 21
996.8719603457167
 31
0.0
  0
LINE
  5
1C69
330
1F
100
AcDbEntity
  8
SANINDUSA
  6
HIDDEN
100
AcDbLine
 10
3159.745389678494
 20
996.8719603457167
 30
0.0
 11
3159.745389678494
 21
996.983381394498
 31
0.0
  0
LINE
  5
1C6A
330
1F
100
AcDbEntity
  8
SANINDUSA
  6
HIDDEN
100
AcDbLine
 10
3159.747389678494
 20
996.8756923965244
 30
0.0
 11
3159.747389678494
 21
996.9833813974481
 31
0.0
  0
LINE
  5
1C6B
330
1F
100
AcDbEntity
  8
SANINDUSA
  6
HIDDEN
100
AcDbLine
 10
3159.659389678494
 20
996.8719603457167
 30
0.0
 11
3159.745389678494
 21
996.8719603457167
 31
0.0
  0
LINE
  5
1C6C
330
1F
100
AcDbEntity
  8
SANINDUSA
  6
HIDDEN
100
AcDbLine
 10
3159.657389678494
 20
996.8756923965244
 30
0.0
 11
3159.658389678494
 21
996.8719603457167
 31
0.0
  0
LINE
  5
1C6D
330
1F
100
AcDbEntity
  8
SANINDUSA
  6
HIDDEN
100
AcDbLine
 10
3159.658389678494
 20
996.8719603457167
 30
0.0
 11
3159.659389678494
 21
996.8719603457167
 31
0.0
  0
LINE
  5
1C6E
330
1F
100
AcDbEntity
  8
SANINDUSA
  6
HIDDEN
100
AcDbLine
 10
3159.745389678494
 20
996.8719603457167
 30
0.0
 11
3159.746389678494
 21
996.8719603457167
 31
0.0
  0
LINE
  5
1C6F
330
1F
100
AcDbEntity
  8
SANINDUSA
  6
HIDDEN
100
AcDbLine
 10
3159.746389678494
 20
996.8719603457167
 30
0.0
 11
3159.747389678494
 21
996.8756923965244
 31
0.0
  0
ARC
  5
1C70
330
1F
100
AcDbEntity
  8
SANINDUSA
  6
HIDDEN
100
AcDbCircle
 10
3159.673389678494
 20
997.1019603457166
 30
0.0
 40
0.056
100
AcDbArc
 50
100.286560611059
 51
180.0
  0
ARC
  5
1C71
330
1F
100
AcDbEntity
  8
SANINDUSA
  6
HIDDEN
100
AcDbCircle
 10
3159.673389678494
 20
997.1019603457166
 30
0.0
 40
0.0539999999999999
100
AcDbArc
 50
90.0
 51
180.0
  0
LINE
  5
1C72
330
1F
100
AcDbEntity
  8
SANINDUSA
  6
HIDDEN
100
AcDbLine
 10
3159.619389678494
 20
997.0262371685436
 30
0.0
 11
3159.619389678494
 21
997.0594897676656
 31
0.0
  0
LINE
  5
1C73
330
1F
100
AcDbEntity
  8
SANINDUSA
  6
HIDDEN
100
AcDbLine
 10
3159.617389678494
 20
997.0262371685436
 30
0.0
 11
3159.617389678494
 21
997.0594897676672
 31
0.0
  0
LINE
  5
1C74
330
1F
100
AcDbEntity
  8
SANINDUSA
  6
HIDDEN
100
AcDbLine
 10
3159.619389678494
 20
997.1019603457166
 30
0.0
 11
3159.619389678494
 21
997.0594897676656
 31
0.0
  0
LINE
  5
1C75
330
1F
100
AcDbEntity
  8
SANINDUSA
  6
HIDDEN
100
AcDbLine
 10
3159.617389678494
 20
997.1019603457166
 30
0.0
 11
3159.617389678494
 21
997.0594897676656
 31
0.0
  0
LINE
  5
1C76
330
1F
100
AcDbEntity
  8
SANINDUSA
  6
HIDDEN
100
AcDbLine
 10
3159.619389678494
 20
997.0594897676656
 30
0.0
 11
3159.619389678498
 21
997.0594897676656
 31
0.0
  0
LINE
  5
1C77
330
1F
100
AcDbEntity
  8
SANINDUSA
  6
HIDDEN
100
AcDbLine
 10
3159.743389678494
 20
997.0449603457169
 30
0.0
 11
3159.743389678494
 21
997.0429603457167
 31
0.0
  0
LINE
  5
1C78
330
1F
100
AcDbEntity
  8
SANINDUSA
  6
HIDDEN
100
AcDbLine
 10
3159.713389678494
 20
997.0435718070797
 30
0.0
 11
3159.713389678494
 21
997.0449603457169
 31
0.0
  0
LINE
  5
1C79
330
1F
100
AcDbEntity
  8
SANINDUSA
  6
HIDDEN
100
AcDbLine
 10
3159.712073477244
 20
997.0413371897253
 30
0.0
 11
3159.740602756327
 21
996.9990387153876
 31
0.0
  0
LINE
  5
1C7A
330
1F
100
AcDbEntity
  8
SANINDUSA
  6
HIDDEN
100
AcDbLine
 10
3159.713731603349
 20
997.0424534212728
 30
0.0
 11
3159.742260830558
 21
997.0001571025514
 31
0.0
  0
ARC
  5
1C7B
330
1F
100
AcDbEntity
  8
SANINDUSA
  6
HIDDEN
100
AcDbCircle
 10
3159.715389678494
 20
997.0435718070797
 30
0.0
 40
0.0020000000000001
100
AcDbArc
 50
180.0
 51
214.0000000001436
  0
ARC
  5
1C7C
330
1F
100
AcDbEntity
  8
SANINDUSA
  6
HIDDEN
100
AcDbCircle
 10
3159.717389854368
 20
996.9833814179505
 30
0.0
 40
0.0299998176965208
100
AcDbArc
 50
0.0
 51
33.9999986596313
  0
ARC
  5
1C7D
330
1F
100
AcDbEntity
  8
SANINDUSA
  6
HIDDEN
100
AcDbCircle
 10
3159.717389883756
 20
996.9833814379473
 30
0.0
 40
0.0279997830701829
100
AcDbArc
 50
0.0
 51
33.99999523654351
  0
LINE
  5
1C7E
330
1F
100
AcDbEntity
  8
SANINDUSA
  6
HIDDEN
100
AcDbLine
 10
3159.743389678494
 20
997.0429603457167
 30
0.0
 11
3159.747389678494
 21
997.0429603457167
 31
0.0
  0
LINE
  5
1C7F
330
1F
100
AcDbEntity
  8
SANINDUSA
  6
HIDDEN
100
AcDbLine
 10
3159.747389678494
 20
997.046960345717
 30
0.0
 11
3159.711389678494
 21
997.046960345717
 31
0.0
  0
LINE
  5
1C80
330
1F
100
AcDbEntity
  8
SANINDUSA
  6
HIDDEN
100
AcDbLine
 10
3159.743389678494
 20
997.0449603457169
 30
0.0
 11
3159.713389678494
 21
997.0449603457169
 31
0.0
  0
LINE
  5
1C81
330
1F
100
AcDbEntity
  8
SANINDUSA
  6
HIDDEN
100
AcDbLine
 10
3159.711389678494
 20
997.0469348445757
 30
0.0
 11
3159.711389678494
 21
997.046960345717
 31
0.0
  0
LINE
  5
1C82
330
1F
100
AcDbEntity
  8
SANINDUSA
  6
HIDDEN
100
AcDbLine
 10
3159.704389678494
 20
997.1739603457168
 30
0.0
 11
3159.747389678494
 21
997.1739603457168
 31
0.0
  0
LINE
  5
1C83
330
1F
100
AcDbEntity
  8
SANINDUSA
  6
HIDDEN
100
AcDbLine
 10
3159.704389678494
 20
997.1759603457169
 30
0.0
 11
3159.743389678494
 21
997.1759603457169
 31
0.0
  0
LINE
  5
1C84
330
1F
100
AcDbEntity
  8
SANINDUSA
  6
HIDDEN
100
AcDbLine
 10
3159.702389678494
 20
997.1719603457168
 30
0.0
 11
3159.702389678494
 21
997.1609603457169
 31
0.0
  0
LINE
  5
1C85
330
1F
100
AcDbEntity
  8
SANINDUSA
  6
HIDDEN
100
AcDbLine
 10
3159.700389678494
 20
997.1719603457168
 30
0.0
 11
3159.700389678494
 21
997.1609603457169
 31
0.0
  0
LINE
  5
1C86
330
1F
100
AcDbEntity
  8
SANINDUSA
  6
HIDDEN
100
AcDbLine
 10
3159.678389678494
 20
997.1749603457167
 30
0.0
 11
3159.678389678494
 21
997.1709603457169
 31
0.0
  0
LINE
  5
1C87
330
1F
100
AcDbEntity
  8
SANINDUSA
  6
HIDDEN
100
AcDbLine
 10
3159.663389678494
 20
997.1749603457167
 30
0.0
 11
3159.663389678494
 21
997.1709603457169
 31
0.0
  0
LINE
  5
1C88
330
1F
100
AcDbEntity
  8
SANINDUSA
  6
HIDDEN
100
AcDbLine
 10
3159.678389678494
 20
997.1579603457168
 30
0.0
 11
3159.697389678493
 21
997.1579603457168
 31
0.0
  0
LINE
  5
1C89
330
1F
100
AcDbEntity
  8
SANINDUSA
  6
HIDDEN
100
AcDbLine
 10
3159.673389678494
 20
997.1559603457167
 30
0.0
 11
3159.697389678493
 21
997.1559603457167
 31
0.0
  0
LINE
  5
1C8A
330
1F
100
AcDbEntity
  8
SANINDUSA
  6
HIDDEN
100
AcDbLine
 10
3159.678389678494
 20
997.1709603457169
 30
0.0
 11
3159.663389678494
 21
997.1709603457169
 31
0.0
  0
LINE
  5
1C8B
330
1F
100
AcDbEntity
  8
SANINDUSA
  6
HIDDEN
100
AcDbLine
 10
3159.663389678494
 20
997.1629603457168
 30
0.0
 11
3159.678389678494
 21
997.1629603457168
 31
0.0
  0
LINE
  5
1C8C
330
1F
100
AcDbEntity
  8
SANINDUSA
  6
HIDDEN
100
AcDbLine
 10
3159.678389678494
 20
997.1629609549362
 30
0.0
 11
3159.663389678494
 21
997.1629609549362
 31
0.0
  0
LINE
  5
1C8D
330
1F
100
AcDbEntity
  8
SANINDUSA
  6
HIDDEN
100
AcDbLine
 10
3159.663389678494
 20
997.1708496636349
 30
0.0
 11
3159.663389678494
 21
997.163081921859
 31
0.0
  0
LINE
  5
1C8E
330
1F
100
AcDbEntity
  8
SANINDUSA
  6
HIDDEN
100
AcDbLine
 10
3159.663389678494
 20
997.1709597364975
 30
0.0
 11
3159.663389678494
 21
997.1709603457169
 31
0.0
  0
LINE
  5
1C8F
330
1F
100
AcDbEntity
  8
SANINDUSA
  6
HIDDEN
100
AcDbLine
 10
3159.663389678494
 20
997.1708496636349
 30
0.0
 11
3159.663389678494
 21
997.1709597364975
 31
0.0
  0
LINE
  5
1C90
330
1F
100
AcDbEntity
  8
SANINDUSA
  6
HIDDEN
100
AcDbLine
 10
3159.663389678494
 20
997.1629603457168
 30
0.0
 11
3159.663389678494
 21
997.1629609549362
 31
0.0
  0
LINE
  5
1C91
330
1F
100
AcDbEntity
  8
SANINDUSA
  6
HIDDEN
100
AcDbLine
 10
3159.663389678494
 20
997.1629609549362
 30
0.0
 11
3159.663389678494
 21
997.163081921859
 31
0.0
  0
LINE
  5
1C92
330
1F
100
AcDbEntity
  8
SANINDUSA
  6
HIDDEN
100
AcDbLine
 10
3159.663389678494
 20
997.1629603457168
 30
0.0
 11
3159.663389678494
 21
997.1570602549727
 31
0.0
  0
LINE
  5
1C93
330
1F
100
AcDbEntity
  8
SANINDUSA
  6
HIDDEN
100
AcDbLine
 10
3159.678389678494
 20
997.1708496636349
 30
0.0
 11
3159.678389678494
 21
997.163081921859
 31
0.0
  0
LINE
  5
1C94
330
1F
100
AcDbEntity
  8
SANINDUSA
  6
HIDDEN
100
AcDbLine
 10
3159.678389678494
 20
997.1709597364975
 30
0.0
 11
3159.678389678494
 21
997.1709603457169
 31
0.0
  0
LINE
  5
1C95
330
1F
100
AcDbEntity
  8
SANINDUSA
  6
HIDDEN
100
AcDbLine
 10
3159.678389678494
 20
997.1708496636349
 30
0.0
 11
3159.678389678494
 21
997.1709597364975
 31
0.0
  0
LINE
  5
1C96
330
1F
100
AcDbEntity
  8
SANINDUSA
  6
HIDDEN
100
AcDbLine
 10
3159.678389678494
 20
997.1629603457168
 30
0.0
 11
3159.678389678494
 21
997.1629609549362
 31
0.0
  0
LINE
  5
1C97
330
1F
100
AcDbEntity
  8
SANINDUSA
  6
HIDDEN
100
AcDbLine
 10
3159.678389678494
 20
997.1629609549362
 30
0.0
 11
3159.678389678494
 21
997.163081921859
 31
0.0
  0
LINE
  5
1C98
330
1F
100
AcDbEntity
  8
SANINDUSA
  6
HIDDEN
100
AcDbLine
 10
3159.678389678494
 20
997.1629603457168
 30
0.0
 11
3159.678389678494
 21
997.1579603457168
 31
0.0
  0
ARC
  5
1C99
330
1F
100
AcDbEntity
  8
SANINDUSA
  6
HIDDEN
100
AcDbCircle
 10
3159.697389678493
 20
997.1609603457169
 30
0.0
 40
0.003
100
AcDbArc
 50
270.0
 51
0.0
  0
ARC
  5
1C9A
330
1F
100
AcDbEntity
  8
SANINDUSA
  6
HIDDEN
100
AcDbCircle
 10
3159.697389678493
 20
997.1609603457169
 30
0.0
 40
0.005
100
AcDbArc
 50
270.0
 51
0.0
  0
LINE
  5
1C9B
330
1F
100
AcDbEntity
  8
SANINDUSA
  6
HIDDEN
100
AcDbLine
 10
3159.663389678494
 20
997.1749603457167
 30
0.0
 11
3159.678389678494
 21
997.1749603457167
 31
0.0
  0
ARC
  5
1C9C
330
1F
100
AcDbEntity
  8
SANINDUSA
  6
HIDDEN
100
AcDbCircle
 10
3159.704389678494
 20
997.1719603457168
 30
0.0
 40
0.002
100
AcDbArc
 50
90.0
 51
180.0
  0
ARC
  5
1C9D
330
1F
100
AcDbEntity
  8
SANINDUSA
  6
HIDDEN
100
AcDbCircle
 10
3159.704389678494
 20
997.1719603457168
 30
0.0
 40
0.0040000000000001
100
AcDbArc
 50
90.0
 51
180.0
  0
LINE
  5
1C9E
330
1F
100
AcDbEntity
  8
SANINDUSA
  6
HIDDEN
100
AcDbLine
 10
3159.747389678494
 20
997.1779603457168
 30
0.0
 11
3159.743389678494
 21
997.1779603457168
 31
0.0
  0
LINE
  5
1C9F
330
1F
100
AcDbEntity
  8
SANINDUSA
  6
HIDDEN
100
AcDbLine
 10
3159.743389678494
 20
997.1779603457168
 30
0.0
 11
3159.743389678494
 21
997.1759603457169
 31
0.0
  0
LINE
  5
1CA0
330
1F
100
AcDbEntity
  8
SANINDUSA
  6
HIDDEN
100
AcDbLine
 10
3159.747389678494
 20
997.1779603457168
 30
0.0
 11
3159.747389678494
 21
997.1739603457168
 31
0.0
  0
LINE
  5
1CA1
330
1F
100
AcDbEntity
  8
SANINDUSA
  6
HIDDEN
100
AcDbLine
 10
3159.747389678494
 20
997.046960345717
 30
0.0
 11
3159.747389678494
 21
997.0429603457167
 31
0.0
  0
LINE
  5
1CA2
330
1F
100
AcDbEntity
  8
SANINDUSA
  6
HIDDEN
100
AcDbLine
 10
3159.711389678494
 20
997.0469348445757
 30
0.0
 11
3159.711389678494
 21
997.0435738857869
 31
0.0
  0
ARC
  5
1CA3
330
1F
100
AcDbEntity
  8
SANINDUSA
  6
HIDDEN
100
AcDbCircle
 10
3159.715389678494
 20
997.0435738857869
 30
0.0
 40
0.004
100
AcDbArc
 50
180.0
 51
213.9986946280355
  0
LINE
  5
1CA4
330
1F
100
AcDbEntity
  8
SANINDUSA
  6
HIDDEN
100
AcDbLine
 10
3159.657389678494
 20
996.9602076815352
 30
0.0
 11
3159.657389678494
 21
996.8756923965244
 31
0.0
  0
ARC
  5
1CA5
330
1F
100
AcDbEntity
  8
SANINDUSA
  6
HIDDEN
100
AcDbCircle
 10
3159.637389678494
 20
996.9602076815352
 30
0.0
 40
0.02
100
AcDbArc
 50
0.0
 51
37.28570792801289
  0
LINE
  5
1CA6
330
1F
100
AcDbEntity
  8
SANINDUSA
  6
HIDDEN
100
AcDbLine
 10
3159.621477186172
 20
997.0141213694324
 30
0.0
 11
3159.653302170816
 21
996.9723234806462
 31
0.0
  0
ARC
  5
1CA7
330
1F
100
AcDbEntity
  8
SANINDUSA
  6
HIDDEN
100
AcDbCircle
 10
3159.637389678494
 20
997.0262371685436
 30
0.0
 40
0.02
100
AcDbArc
 50
180.0
 51
217.2857079280129
  0
ARC
  5
1CA8
330
1F
100
AcDbEntity
  8
SANINDUSA
  6
HIDDEN
100
AcDbCircle
 10
3159.637389678494
 20
996.9602076815352
 30
0.0
 40
0.022
100
AcDbArc
 50
0.0
 51
37.28570792801289
  0
LINE
  5
1CA9
330
1F
100
AcDbEntity
  8
SANINDUSA
  6
HIDDEN
100
AcDbLine
 10
3159.623068435404
 20
997.0153329493436
 30
0.0
 11
3159.654893420048
 21
996.9735350605574
 31
0.0
  0
ARC
  5
1CAA
330
1F
100
AcDbEntity
  8
SANINDUSA
  6
HIDDEN
100
AcDbCircle
 10
3159.637389678494
 20
997.0262371685436
 30
0.0
 40
0.018
100
AcDbArc
 50
180.0
 51
217.2857079280129
  0
LINE
  5
1CAB
330
1F
100
AcDbEntity
  8
SANINDUSA
100
AcDbLine
 10
3159.727389678494
 20
997.0404603457168
 30
0.0
 11
3159.747435121305
 21
997.0409159239626
 31
0.0
  0
LINE
  5
1CAC
330
1F
100
AcDbEntity
  8
SANINDUSA
100
AcDbLine
 10
3159.747435121305
 20
997.1800047674712
 30
0.0
 11
3159.727389678494
 21
997.1804603457169
 31
0.0
  0
LINE
  5
1CAD
330
1F
100
AcDbEntity
  8
SANINDUSA
100
AcDbLine
 10
3159.727389678494
 20
997.0449603457169
 30
0.0
 11
3159.727389678494
 21
997.0404603457168
 31
0.0
  0
LINE
  5
1CAE
330
1F
100
AcDbEntity
  8
SANINDUSA
100
AcDbLine
 10
3159.727389678494
 20
997.1804603457169
 30
0.0
 11
3159.727389678494
 21
997.1759603457169
 31
0.0
  0
LINE
  5
1CAF
330
1F
100
AcDbEntity
  8
SANINDUSA
100
AcDbLine
 10
3159.749389678494
 20
997.1689603457168
 30
0.0
 11
3159.749389678494
 21
997.1622751961747
 31
0.0
  0
LINE
  5
1CB0
330
1F
100
AcDbEntity
  8
SANINDUSA
100
AcDbLine
 10
3159.749389678494
 20
997.058645495259
 30
0.0
 11
3159.749389678494
 21
997.0519603457168
 31
0.0
  0
LINE
  5
1CB1
330
1F
100
AcDbEntity
  8
SANINDUSA
100
AcDbLine
 10
3159.749389678494
 20
997.0429154076336
 30
0.0
 11
3159.749389678494
 21
997.0519603457168
 31
0.0
  0
LINE
  5
1CB2
330
1F
100
AcDbEntity
  8
SANINDUSA
100
AcDbLine
 10
3159.747389678494
 20
997.0509603457168
 30
0.0
 11
3159.747389678494
 21
997.0429154076336
 31
0.0
  0
LINE
  5
1CB3
330
1F
100
AcDbEntity
  8
SANINDUSA
100
AcDbLine
 10
3159.747389678494
 20
997.0429154076336
 30
0.0
 11
3159.7424123999
 21
997.0428022876655
 31
0.0
  0
LINE
  5
1CB4
330
1F
100
AcDbEntity
  8
SANINDUSA
100
AcDbLine
 10
3159.729389678494
 20
997.0435293022283
 30
0.0
 11
3159.729389678494
 21
997.0449603457169
 31
0.0
  0
LINE
  5
1CB5
330
1F
100
AcDbEntity
  8
SANINDUSA
100
AcDbLine
 10
3159.741389678494
 20
997.0438020295011
 30
0.0
 11
3159.741389678494
 21
997.0449603457169
 31
0.0
  0
LINE
  5
1CB6
330
1F
100
AcDbEntity
  8
SANINDUSA
100
AcDbLine
 10
3159.739389678494
 20
997.0449603457169
 30
0.0
 11
3159.739389678494
 21
997.0437111204102
 31
0.0
  0
LINE
  5
1CB7
330
1F
100
AcDbEntity
  8
SANINDUSA
100
AcDbLine
 10
3159.737389678494
 20
997.0437111204102
 30
0.0
 11
3159.737389678494
 21
997.0449603457169
 31
0.0
  0
LINE
  5
1CB8
330
1F
100
AcDbEntity
  8
SANINDUSA
100
AcDbLine
 10
3159.735389678494
 20
997.0449603457169
 30
0.0
 11
3159.735389678494
 21
997.0436202113193
 31
0.0
  0
LINE
  5
1CB9
330
1F
100
AcDbEntity
  8
SANINDUSA
100
AcDbLine
 10
3159.733389678494
 20
997.0436202113193
 30
0.0
 11
3159.733389678494
 21
997.0449603457169
 31
0.0
  0
LINE
  5
1CBA
330
1F
100
AcDbEntity
  8
SANINDUSA
100
AcDbLine
 10
3159.731389678494
 20
997.0449603457169
 30
0.0
 11
3159.731389678494
 21
997.0435293022283
 31
0.0
  0
LINE
  5
1CBB
330
1F
100
AcDbEntity
  8
SANINDUSA
100
AcDbLine
 10
3159.742707839889
 20
997.0587634100576
 30
0.0
 11
3159.747389678494
 21
997.0509603457168
 31
0.0
  0
LINE
  5
1CBC
330
1F
100
AcDbEntity
  8
SANINDUSA
100
AcDbLine
 10
3159.749389678494
 20
997.0519603457168
 30
0.0
 11
3159.74639501335
 21
997.0586983422908
 31
0.0
  0
LINE
  5
1CBD
330
1F
100
AcDbEntity
  8
SANINDUSA
100
AcDbLine
 10
3159.747389678494
 20
997.1780052837999
 30
0.0
 11
3159.747389678494
 21
997.1699603457169
 31
0.0
  0
LINE
  5
1CBE
330
1F
100
AcDbEntity
  8
SANINDUSA
100
AcDbLine
 10
3159.749389678494
 20
997.1689603457168
 30
0.0
 11
3159.749389678494
 21
997.1780052837999
 31
0.0
  0
LINE
  5
1CBF
330
1F
100
AcDbEntity
  8
SANINDUSA
100
AcDbLine
 10
3159.747389678494
 20
997.1699603457169
 30
0.0
 11
3159.742707839889
 21
997.1621572813759
 31
0.0
  0
LINE
  5
1CC0
330
1F
100
AcDbEntity
  8
SANINDUSA
100
AcDbLine
 10
3159.74639501335
 20
997.1622223491429
 30
0.0
 11
3159.749389678494
 21
997.1689603457168
 31
0.0
  0
LINE
  5
1CC1
330
1F
100
AcDbEntity
  8
SANINDUSA
100
AcDbLine
 10
3159.7424123999
 20
997.1781184037681
 30
0.0
 11
3159.747389678494
 21
997.1780052837999
 31
0.0
  0
LINE
  5
1CC2
330
1F
100
AcDbEntity
  8
SANINDUSA
100
AcDbLine
 10
3159.729389678494
 20
997.1759603457169
 30
0.0
 11
3159.729389678494
 21
997.1773913892054
 31
0.0
  0
LINE
  5
1CC3
330
1F
100
AcDbEntity
  8
SANINDUSA
100
AcDbLine
 10
3159.731389678494
 20
997.1773913892054
 30
0.0
 11
3159.731389678494
 21
997.1759603457169
 31
0.0
  0
LINE
  5
1CC4
330
1F
100
AcDbEntity
  8
SANINDUSA
100
AcDbLine
 10
3159.733389678494
 20
997.1759603457169
 30
0.0
 11
3159.733389678494
 21
997.1773004801145
 31
0.0
  0
LINE
  5
1CC5
330
1F
100
AcDbEntity
  8
SANINDUSA
100
AcDbLine
 10
3159.735389678494
 20
997.1773004801145
 30
0.0
 11
3159.735389678494
 21
997.1759603457169
 31
0.0
  0
LINE
  5
1CC6
330
1F
100
AcDbEntity
  8
SANINDUSA
100
AcDbLine
 10
3159.737389678494
 20
997.1759603457169
 30
0.0
 11
3159.737389678494
 21
997.1772095710235
 31
0.0
  0
LINE
  5
1CC7
330
1F
100
AcDbEntity
  8
SANINDUSA
100
AcDbLine
 10
3159.739389678494
 20
997.1772095710235
 30
0.0
 11
3159.739389678494
 21
997.1759603457169
 31
0.0
  0
LINE
  5
1CC8
330
1F
100
AcDbEntity
  8
SANINDUSA
100
AcDbLine
 10
3159.741389678494
 20
997.1759603457169
 30
0.0
 11
3159.741389678494
 21
997.1771186619326
 31
0.0
  0
ARC
  5
1CC9
330
1F
100
AcDbEntity
  8
SANINDUSA
100
AcDbCircle
 10
3159.730389678494
 20
997.0435293022283
 30
0.0
 40
0.0010000000000002
100
AcDbArc
 50
180.0
 51
0.0
  0
ARC
  5
1CCA
330
1F
100
AcDbEntity
  8
SANINDUSA
100
AcDbCircle
 10
3159.734389678494
 20
997.0436202113193
 30
0.0
 40
0.0010000000000002
100
AcDbArc
 50
180.0
 51
0.0
  0
ARC
  5
1CCB
330
1F
100
AcDbEntity
  8
SANINDUSA
100
AcDbCircle
 10
3159.738389678494
 20
997.0437111204102
 30
0.0
 40
0.0010000000000002
100
AcDbArc
 50
180.0
 51
0.0
  0
ARC
  5
1CCC
330
1F
100
AcDbEntity
  8
SANINDUSA
100
AcDbCircle
 10
3159.742389678493
 20
997.0438020295011
 30
0.0
 40
0.0010000000000002
100
AcDbArc
 50
180.0
 51
271.301952672039
  0
ARC
  5
1CCD
330
1F
100
AcDbEntity
  8
SANINDUSA
100
AcDbCircle
 10
3159.738389678494
 20
997.1772095710235
 30
0.0
 40
0.0010000000000002
100
AcDbArc
 50
0.0
 51
180.0
  0
ARC
  5
1CCE
330
1F
100
AcDbEntity
  8
SANINDUSA
100
AcDbCircle
 10
3159.730389678494
 20
997.1773913892054
 30
0.0
 40
0.0010000000000002
100
AcDbArc
 50
0.0
 51
180.0
  0
LINE
  5
1CCF
330
1F
100
AcDbEntity
  8
SANINDUSA
100
AcDbLine
 10
3159.729389678494
 20
997.1773913892054
 30
0.0
 11
3159.729389678494
 21
997.1759603457169
 31
0.0
  0
ARC
  5
1CD0
330
1F
100
AcDbEntity
  8
SANINDUSA
100
AcDbCircle
 10
3159.734389678494
 20
997.1773004801145
 30
0.0
 40
0.0010000000000002
100
AcDbArc
 50
0.0
 51
180.0
  0
LINE
  5
1CD1
330
1F
100
AcDbEntity
  8
SANINDUSA
100
AcDbLine
 10
3159.731389678494
 20
997.1759603457169
 30
0.0
 11
3159.731389678494
 21
997.1773913892054
 31
0.0
  0
LINE
  5
1CD2
330
1F
100
AcDbEntity
  8
SANINDUSA
100
AcDbLine
 10
3159.733389678494
 20
997.1773004801145
 30
0.0
 11
3159.733389678494
 21
997.1759603457169
 31
0.0
  0
LINE
  5
1CD3
330
1F
100
AcDbEntity
  8
SANINDUSA
100
AcDbLine
 10
3159.735389678494
 20
997.1759603457169
 30
0.0
 11
3159.735389678494
 21
997.1773004801145
 31
0.0
  0
LINE
  5
1CD4
330
1F
100
AcDbEntity
  8
SANINDUSA
100
AcDbLine
 10
3159.737389678494
 20
997.1772095710235
 30
0.0
 11
3159.737389678494
 21
997.1759603457169
 31
0.0
  0
ARC
  5
1CD5
330
1F
100
AcDbEntity
  8
SANINDUSA
100
AcDbCircle
 10
3159.742389678493
 20
997.1771186619326
 30
0.0
 40
0.0010000000000002
100
AcDbArc
 50
88.69804732796104
 51
180.0
  0
LINE
  5
1CD6
330
1F
100
AcDbEntity
  8
SANINDUSA
100
AcDbLine
 10
3159.739389678494
 20
997.1759603457169
 30
0.0
 11
3159.739389678494
 21
997.1772095710235
 31
0.0
  0
LINE
  5
1CD7
330
1F
100
AcDbEntity
  8
SANINDUSA
100
AcDbLine
 10
3159.741389678494
 20
997.1771186619326
 30
0.0
 11
3159.741389678494
 21
997.1759603457169
 31
0.0
  0
ARC
  5
1CD8
330
1F
100
AcDbEntity
  8
SANINDUSA
100
AcDbCircle
 10
3159.747389678494
 20
997.1780052837999
 30
0.0
 40
0.002
100
AcDbArc
 50
0.0
 51
88.69804732796104
  0
ARC
  5
1CD9
330
1F
100
AcDbEntity
  8
SANINDUSA
100
AcDbCircle
 10
3159.747389678494
 20
997.0429154076336
 30
0.0
 40
0.002
100
AcDbArc
 50
271.301952672039
 51
0.0
  0
ARC
  5
1D3D
330
1F
100
AcDbEntity
  8
SANINDUSA
100
AcDbCircle
 10
3159.771887517214
 20
996.6898556100531
 30
0.0
 40
0.3289201543292565
100
AcDbArc
 50
113.7889516608578
 51
121.6092353690237
  0
ARC
  5
1D3E
330
1F
100
AcDbEntity
  8
SANINDUSA
100
AcDbCircle
 10
3159.751951394196
 20
996.7214996533012
 30
0.0
 40
0.2771701259903376
100
AcDbArc
 50
111.9168854256176
 51
116.0744853486852
  0
LINE
  5
1D41
330
1F
100
AcDbEntity
  8
SANINDUSA
100
AcDbLine
 10
3159.747389678494
 20
996.9154603457145
 30
0.0
 11
3159.826324212791
 21
996.9154603457146
 31
0.0
  0
LWPOLYLINE
  5
1D44
330
1F
100
AcDbEntity
  8
SANINDUSA
100
AcDbPolyline
 90
        5
 70
   128
 43
0.0
 10
3159.745405793842
 20
997.0408698028839
 10
3159.744450019172
 20
997.0304911729698
 10
3159.743809905297
 20
997.0158169820306
 10
3159.74357954117
 20
997.0011289795531
 10
3159.74357946581
 20
996.9980133458614
  0
ENDSEC
  0
SECTION
  2
OBJECTS
  0
DICTIONARY
  5
C
330
0
100
AcDbDictionary
281
     1
  3
ACAD_COLOR
350
1B72
  3
ACAD_GROUP
350
D
  3
ACAD_LAYOUT
350
1A
  3
ACAD_MATERIAL
350
1B45
  3
ACAD_MLEADERSTYLE
350
1B87
  3
ACAD_MLINESTYLE
350
17
  3
ACAD_PLOTSETTINGS
350
19
  3
ACAD_PLOTSTYLENAME
350
E
  3
ACAD_SCALELIST
350
1B75
  3
ACAD_TABLESTYLE
350
1B73
  3
ACAD_VISUALSTYLE
350
1B5E
  3
ACDB_RECOMPOSE_DATA
350
1E5F
  3
AcDbVariableDictionary
350
3D
  3
ASE_INDEX_DICTIONARY
350
1AF0
  3
Autodesk_PNP
350
1B8E
  3
DWGPROPS
350
1E60
  0
DICTIONARY
  5
1D45
330
10
100
AcDbDictionary
280
     1
281
     1
  3
ADSK_XREC_LAYER_RECONCILED
360
1D46
  0
DICTIONARY
  5
1D47
330
2F
100
AcDbDictionary
280
     1
281
     1
  3
ADSK_XREC_LAYER_RECONCILED
360
1D48
  0
DICTIONARY
  5
1D49
330
30
100
AcDbDictionary
280
     1
281
     1
  3
ADSK_XREC_LAYER_RECONCILED
360
1D4A
  0
DICTIONARY
  5
1D4B
330
31
100
AcDbDictionary
280
     1
281
     1
  3
ADSK_XREC_LAYER_RECONCILED
360
1D4C
  0
DICTIONARY
  5
1D4D
330
32
100
AcDbDictionary
280
     1
281
     1
  3
ADSK_XREC_LAYER_RECONCILED
360
1D4E
  0
DICTIONARY
  5
1D4F
330
33
100
AcDbDictionary
280
     1
281
     1
  3
ADSK_XREC_LAYER_RECONCILED
360
1D50
  0
DICTIONARY
  5
1D51
330
34
100
AcDbDictionary
280
     1
281
     1
  3
ADSK_XREC_LAYER_RECONCILED
360
1D52
  0
DICTIONARY
  5
1D53
330
35
100
AcDbDictionary
280
     1
281
     1
  3
ADSK_XREC_LAYER_RECONCILED
360
1D54
  0
DICTIONARY
  5
1D55
330
36
100
AcDbDictionary
280
     1
281
     1
  3
ADSK_XREC_LAYER_RECONCILED
360
1D56
  0
DICTIONARY
  5
1D57
330
37
100
AcDbDictionary
280
     1
281
     1
  3
ADSK_XREC_LAYER_RECONCILED
360
1D58
  0
DICTIONARY
  5
1D59
330
5D6
100
AcDbDictionary
280
     1
281
     1
  3
ADSK_XREC_LAYER_RECONCILED
360
1D5A
  0
DICTIONARY
  5
1D5B
330
8AF
100
AcDbDictionary
280
     1
281
     1
  3
ADSK_XREC_LAYER_RECONCILED
360
1D5C
  0
DICTIONARY
  5
1D5D
330
8F8
100
AcDbDictionary
280
     1
281
     1
  3
ADSK_XREC_LAYER_RECONCILED
360
1D5E
  0
DICTIONARY
  5
1D5F
330
91D
100
AcDbDictionary
280
     1
281
     1
  3
ADSK_XREC_LAYER_RECONCILED
360
1D60
  0
DICTIONARY
  5
1D61
330
E8F
100
AcDbDictionary
280
     1
281
     1
  3
ADSK_XREC_LAYER_RECONCILED
360
1D62
  0
DICTIONARY
  5
1D63
330
1AEE
100
AcDbDictionary
280
     1
281
     1
  3
ADSK_XREC_LAYER_RECONCILED
360
1D64
  0
DICTIONARY
  5
1D3A
330
1F
100
AcDbDictionary
280
     1
281
     1
  3
ACAD_SORTENTS
360
1D3B
  0
DICTIONARY
  5
1B72
102
{ACAD_REACTORS
330
C
102
}
330
C
100
AcDbDictionary
281
     1
  0
DICTIONARY
  5
D
102
{ACAD_REACTORS
330
C
102
}
330
C
100
AcDbDictionary
281
     1
  0
DICTIONARY
  5
1A
102
{ACAD_REACTORS
330
C
102
}
330
C
100
AcDbDictionary
281
     1
  3
Layout1
350
1E
  3
Layout2
350
26
  3
Model
350
22
  0
DICTIONARY
  5
1B45
102
{ACAD_REACTORS
330
C
102
}
330
C
100
AcDbDictionary
281
     1
  3
ByBlock
350
1B4E
  3
ByLayer
350
1B46
  3
Global
350
1B56
  0
DICTIONARY
  5
1B87
102
{ACAD_REACTORS
330
C
102
}
330
C
100
AcDbDictionary
281
     1
  3
Standard
350
1B88
  0
DICTIONARY
  5
17
102
{ACAD_REACTORS
330
C
102
}
330
C
100
AcDbDictionary
281
     1
  3
Standard
350
18
  0
DICTIONARY
  5
19
102
{ACAD_REACTORS
330
C
102
}
330
C
100
AcDbDictionary
281
     1
  0
ACDBDICTIONARYWDFLT
  5
E
102
{ACAD_REACTORS
330
C
102
}
330
C
100
AcDbDictionary
281
     1
  3
Normal
350
F
100
AcDbDictionaryWithDefault
340
F
  0
DICTIONARY
  5
1B75
102
{ACAD_REACTORS
330
C
102
}
330
C
100
AcDbDictionary
281
     1
  3
A0
350
1B76
  3
A1
350
1B77
  3
A2
350
1B78
  3
A3
350
1B79
  3
A4
350
1B7A
  3
A5
350
1B7B
  3
A6
350
1B7C
  3
A7
350
1B7D
  3
A8
350
1B7E
  3
A9
350
1B7F
  3
B0
350
1B80
  3
B1
350
1B81
  3
B2
350
1B82
  3
B3
350
1B83
  3
B4
350
1B84
  3
B5
350
1B85
  3
B6
350
1B86
  0
DICTIONARY
  5
1B73
102
{ACAD_REACTORS
330
C
102
}
330
C
100
AcDbDictionary
281
     1
  3
Standard
350
1B74
  0
DICTIONARY
  5
1B5E
102
{ACAD_REACTORS
330
C
102
}
330
C
100
AcDbDictionary
281
     1
  3
2dWireframe
350
1B64
  3
3D Hidden
350
1B66
  3
3dWireframe
350
1B65
  3
Basic
350
1B63
  3
Brighten
350
1B6A
  3
ColorChange
350
1B6E
  3
Conceptual
350
1B67
  3
Dim
350
1B69
  3
EdgeColorOff
350
1B71
  3
Facepattern
350
1B6D
  3
Flat
350
1B5F
  3
FlatWithEdges
350
1B60
  3
Gouraud
350
1B61
  3
GouraudWithEdges
350
1B62
  3
JitterOff
350
1B6F
  3
Linepattern
350
1B6C
  3
OverhangOff
350
1B70
  3
Realistic
350
1B68
  3
Thicken
350
1B6B
  0
XRECORD
  5
1E5F
102
{ACAD_REACTORS
330
C
102
}
330
C
100
AcDbXrecord
280
     1
 90
        1
330
1B74
  0
DICTIONARY
  5
3D
102
{ACAD_REACTORS
330
C
102
}
330
C
100
AcDbDictionary
281
     1
  3
CANNOSCALE
350
1E59
  3
CMLEADERSTYLE
350
1E58
  3
CTABLESTYLE
350
1E57
  3
DIMASSOC
350
3F
  3
HIDETEXT
350
3E
  3
INDEXCTL
350
1E5B
  3
SORTENTS
350
1E5A
  3
XCLIPFRAME
350
1E5C
  0
DICTIONARY
  5
1AF0
102
{ACAD_REACTORS
330
C
102
}
330
C
100
AcDbDictionary
281
     1
  3
ASEBlockHierarchyIndexRecord
350
1AF1
1001
DCO15
1040
1527418638.312
  0
DICTIONARY
  5
1B8E
102
{ACAD_REACTORS
330
C
102
}
330
C
100
AcDbDictionary
281
     1
  0
XRECORD
  5
1E60
102
{ACAD_REACTORS
330
C
102
}
330
C
100
AcDbXrecord
280
     1
  1
DWGPROPS COOKIE
  2

  3

  4

  6

  7

  8
Julio
  9

300
=
301
=
302
=
303
=
304
=
305
=
306
=
307
=
308
=
309
=
 40
0.0070724884259259
 41
2453481.662934561
 42
2456146.434852246
  1

 90
        0
  0
XRECORD
  5
1D46
102
{ACAD_REACTORS
330
1D45
102
}
330
1D45
100
AcDbXrecord
280
     1
290
     1
  0
XRECORD
  5
1D48
102
{ACAD_REACTORS
330
1D47
102
}
330
1D47
100
AcDbXrecord
280
     1
290
     1
  0
XRECORD
  5
1D4A
102
{ACAD_REACTORS
330
1D49
102
}
330
1D49
100
AcDbXrecord
280
     1
290
     1
  0
XRECORD
  5
1D4C
102
{ACAD_REACTORS
330
1D4B
102
}
330
1D4B
100
AcDbXrecord
280
     1
290
     1
  0
XRECORD
  5
1D4E
102
{ACAD_REACTORS
330
1D4D
102
}
330
1D4D
100
AcDbXrecord
280
     1
290
     1
  0
XRECORD
  5
1D50
102
{ACAD_REACTORS
330
1D4F
102
}
330
1D4F
100
AcDbXrecord
280
     1
290
     1
  0
XRECORD
  5
1D52
102
{ACAD_REACTORS
330
1D51
102
}
330
1D51
100
AcDbXrecord
280
     1
290
     1
  0
XRECORD
  5
1D54
102
{ACAD_REACTORS
330
1D53
102
}
330
1D53
100
AcDbXrecord
280
     1
290
     1
  0
XRECORD
  5
1D56
102
{ACAD_REACTORS
330
1D55
102
}
330
1D55
100
AcDbXrecord
280
     1
290
     1
  0
XRECORD
  5
1D58
102
{ACAD_REACTORS
330
1D57
102
}
330
1D57
100
AcDbXrecord
280
     1
290
     1
  0
XRECORD
  5
1D5A
102
{ACAD_REACTORS
330
1D59
102
}
330
1D59
100
AcDbXrecord
280
     1
290
     1
  0
XRECORD
  5
1D5C
102
{ACAD_REACTORS
330
1D5B
102
}
330
1D5B
100
AcDbXrecord
280
     1
290
     1
  0
XRECORD
  5
1D5E
102
{ACAD_REACTORS
330
1D5D
102
}
330
1D5D
100
AcDbXrecord
280
     1
290
     1
  0
XRECORD
  5
1D60
102
{ACAD_REACTORS
330
1D5F
102
}
330
1D5F
100
AcDbXrecord
280
     1
290
     1
  0
XRECORD
  5
1D62
102
{ACAD_REACTORS
330
1D61
102
}
330
1D61
100
AcDbXrecord
280
     1
290
     1
  0
XRECORD
  5
1D64
102
{ACAD_REACTORS
330
1D63
102
}
330
1D63
100
AcDbXrecord
280
     1
290
     1
  0
SORTENTSTABLE
  5
1D3B
102
{ACAD_REACTORS
330
1D3A
102
}
330
1D3A
100
AcDbSortentsTable
330
1F
331
1570
  5
1573
331
1CB0
  5
1CB9
331
1CC1
  5
1CCA
331
1649
  5
165C
331
1581
  5
1586
331
1CCA
  5
1CD3
331
1592
  5
1595
331
1653
  5
1666
331
1B00
  5
1B09
331
16B0
  5
16D3
331
15A3
  5
15A7
331
1B11
  5
1B1A
331
1B33
  5
1B3C
331
1B22
  5
1B2B
331
1C6C
  5
1C75
331
1745
  5
1AEF
331
1544
  5
1547
331
1C8E
  5
1C97
331
1C7D
  5
1C86
331
1C9F
  5
1CA8
331
1627
  5
163B
331
1555
  5
1559
331
14DA
  5
14DA
331
1469
  5
1469
331
13E8
  5
13E8
331
1CA0
  5
1CA9
331
1628
  5
163C
331
1560
  5
1565
331
1571
  5
1574
331
1CC2
  5
1CCB
331
1CB1
  5
1CBA
331
1CCB
  5
1CD4
331
1654
  5
1669
331
1593
  5
1596
331
1676
  5
1697
331
1687
  5
16AE
331
15D7
  5
15F6
331
15B5
  5
15B9
331
1B12
  5
1B1B
331
1B01
  5
1B0A
331
16B1
  5
16D5
331
16A0
  5
16B7
331
1B34
  5
1B3D
331
1B23
  5
1B2C
331
1C6D
  5
1C76
331
15F5
  5
15FD
331
1746
  5
1AF3
331
1545
  5
1548
331
1C7E
  5
1C87
331
1C8F
  5
1C98
331
1617
  5
1621
331
1556
  5
155A
331
14DB
  5
14DB
331
1490
  5
1490
331
13E9
  5
13E9
331
1C90
  5
1C99
331
1618
  5
1622
331
1CA1
  5
1CAA
331
1629
  5
163E
331
1561
  5
1567
331
1572
  5
1575
331
1CB2
  5
1CBB
331
1CC3
  5
1CCC
331
1583
  5
1587
331
1CCC
  5
1CD5
331
1594
  5
1597
331
1655
  5
1676
331
15A5
  5
15A8
331
1666
  5
1687
331
15B6
  5
15BC
331
1AE7
  5
1AF4
331
1677
  5
1698
331
16A1
  5
16BF
331
14A2
  5
14A2
331
1491
  5
1491
331
1B02
  5
1B0B
331
14B3
  5
14B3
331
1B13
  5
1B1C
331
1B24
  5
1B2D
331
1B35
  5
1B3E
331
1705
  5
1746
331
171E
  5
1AE9
331
1C6E
  5
1C77
331
15F6
  5
1600
331
1546
  5
1549
331
1C7F
  5
1C88
331
1607
  5
1612
331
1557
  5
155B
331
14DC
  5
14DC
331
146B
  5
146B
331
145A
  5
145A
331
1438
  5
1438
331
1427
  5
1427
331
13EA
  5
13EA
331
1C80
  5
1C89
331
1C91
  5
1C9A
331
1619
  5
1623
331
1CA2
  5
1CAB
331
162A
  5
1645
331
1562
  5
1568
331
1CC4
  5
1CCD
331
1CB3
  5
1CBC
331
163B
  5
1654
331
1573
  5
1576
331
1595
  5
1598
331
1CCD
  5
1CD6
331
15B7
  5
15BE
331
15A6
  5
15AB
331
1678
  5
169C
331
1492
  5
1492
331
1B03
  5
1B0C
331
16B3
  5
16E5
331
14B4
  5
14B4
331
1B14
  5
1B1D
331
16C4
  5
16EB
331
16F5
  5
1724
331
1B36
  5
1B3F
331
1B25
  5
1B2E
331
1C6F
  5
1C78
331
15F7
  5
1602
331
1547
  5
154A
331
147D
  5
147D
331
146C
  5
146C
331
144A
  5
144A
331
1428
  5
1428
331
140D
  5
140D
331
1720
  5
1AEA
331
1C70
  5
1C79
331
15F8
  5
1603
331
1548
  5
154B
331
1C81
  5
1C8A
331
1609
  5
1614
331
1CA3
  5
1CAC
331
1C92
  5
1C9B
331
161A
  5
1625
331
1559
  5
155C
331
1CB4
  5
1CBD
331
163C
  5
1655
331
1CC5
  5
1CCE
331
164D
  5
1660
331
1585
  5
1588
331
1CCE
  5
1CD7
331
1596
  5
1599
331
1657
  5
1677
331
15A7
  5
15AD
331
1574
  5
1577
331
1493
  5
1493
331
1AF3
  5
1AFC
331
1B04
  5
1B0D
331
16B4
  5
16E7
331
1B37
  5
1B40
331
1B26
  5
1B2F
331
1B15
  5
1B1E
331
16E5
  5
1705
331
144B
  5
144B
331
143A
  5
143A
331
1B38
  5
1C67
331
1C71
  5
1C7A
331
15F9
  5
1604
331
1549
  5
154D
331
1C82
  5
1C8B
331
160A
  5
1615
331
1C93
  5
1C9C
331
161B
  5
1626
331
1CA4
  5
1CAD
331
162C
  5
1648
331
155A
  5
155D
331
1575
  5
1579
331
1CB5
  5
1CBE
331
1586
  5
1589
331
1CC6
  5
1CCF
331
164E
  5
1663
331
1597
  5
159E
331
1CCF
  5
1CD8
331
1658
  5
1678
331
15A8
  5
15AE
331
1669
  5
1693
331
1693
  5
16B0
331
167A
  5
16A0
331
15CA
  5
15D0
331
15B9
  5
15C2
331
1494
  5
1494
331
1AF4
  5
1AFD
331
1B05
  5
1B0E
331
14B6
  5
14B6
331
1B27
  5
1B30
331
1B16
  5
1B1F
331
146E
  5
146E
331
145D
  5
145D
331
144C
  5
144C
331
140F
  5
140F
331
13FE
  5
13FE
331
13ED
  5
13ED
331
14E0
  5
14E0
331
1B39
  5
1C68
331
1B28
  5
1B31
331
1C72
  5
1C7B
331
15FA
  5
1607
331
154A
  5
1550
331
1C83
  5
1C8C
331
1C94
  5
1C9D
331
161C
  5
1627
331
155B
  5
155E
331
1565
  5
156A
331
1480
  5
1480
331
1CA5
  5
1CAE
331
1576
  5
157A
331
1CB6
  5
1CBF
331
163E
  5
1657
331
1587
  5
158A
331
1CC7
  5
1CD0
331
1CD0
  5
1CD9
331
1AF5
  5
1AFE
331
1598
  5
159F
331
1B06
  5
1B0F
331
1B17
  5
1B20
331
16E7
  5
1714
331
14A6
  5
14A6
331
13FF
  5
13FF
331
13EE
  5
13EE
331
13DD
  5
13DD
331
1B18
  5
1B21
331
1B3A
  5
1C69
331
1B29
  5
1B32
331
1D41
  5
162C
331
15D9
  5
15F7
331
1723
  5
1AEB
331
1C73
  5
1C7C
331
15FB
  5
1609
331
154B
  5
1552
331
1C84
  5
1C8D
331
160C
  5
1617
331
1C95
  5
1C9E
331
161D
  5
1628
331
155C
  5
1560
331
14E1
  5
14E1
331
14B8
  5
14B8
331
1CA6
  5
1CAF
331
162E
  5
1649
331
1CB7
  5
1CC0
331
1577
  5
157B
331
1CD1
  5
1D3C
331
15CC
  5
15D7
331
1588
  5
158B
331
1496
  5
1496
331
1AF6
  5
1AFF
331
16A6
  5
16C4
331
1B07
  5
1B10
331
16B7
  5
16E9
331
144E
  5
144E
331
13DE
  5
13DE
331
16D0
  5
16F5
331
1B08
  5
1B11
331
16E9
  5
171A
331
14A8
  5
14A8
331
1B19
  5
1B22
331
15DA
  5
15F8
331
1B3B
  5
1C6A
331
1B2A
  5
1B33
331
1724
  5
1AEC
331
1C74
  5
1C7D
331
15FC
  5
160A
331
1C96
  5
1C9F
331
1C85
  5
1C8E
331
160D
  5
1618
331
155D
  5
1561
331
1567
  5
156C
331
1471
  5
1471
331
1CB8
  5
1CC1
331
1CA7
  5
1CB0
331
162F
  5
164D
331
1589
  5
158C
331
1CD2
  5
1D3D
331
165B
  5
167A
331
15AB
  5
15AF
331
15BC
  5
15C3
331
1AF7
  5
1B00
331
143E
  5
143E
331
141C
  5
141C
331
1401
  5
1401
331
13DF
  5
13DF
331
1AF8
  5
1B01
331
1498
  5
1498
331
1B09
  5
1B12
331
1B1A
  5
1B23
331
16EA
  5
171E
331
1B2B
  5
1B34
331
1B3C
  5
1C6B
331
1714
  5
1AE7
331
1725
  5
1AED
331
1C75
  5
1C7E
331
15FD
  5
160C
331
154D
  5
1553
331
1C86
  5
1C8F
331
160E
  5
1619
331
1C97
  5
1CA0
331
161F
  5
1629
331
155E
  5
1562
331
1568
  5
156D
331
1483
  5
1483
331
1461
  5
1461
331
1CA8
  5
1CB1
331
1CB9
  5
1CC2
331
1579
  5
157C
331
1CD3
  5
1D3E
331
165C
  5
1680
331
158A
  5
158D
331
1697
  5
16B1
331
143F
  5
143F
331
141D
  5
141D
331
13E0
  5
13E0
331
1AE8
  5
1AF5
331
1698
  5
16B3
331
1499
  5
1499
331
1B0A
  5
1B13
331
1AF9
  5
1B02
331
1B1B
  5
1B24
331
16EB
  5
1720
331
1C98
  5
1CA1
331
1C87
  5
1C90
331
1C76
  5
1C7F
331
1B3D
  5
1C6C
331
1B2C
  5
1B35
331
1D44
  5
15DF
331
1451
  5
1451
331
1440
  5
1440
331
1CA9
  5
1CB2
331
1CBA
  5
1CC3
331
157A
  5
157D
331
1CD4
  5
1D3F
331
158B
  5
158E
331
15AD
  5
15B0
331
15CF
  5
15EF
331
141E
  5
141E
331
13E1
  5
13E1
331
1680
  5
16A1
331
15D0
  5
15F0
331
1AE9
  5
1AF6
331
1489
  5
1489
331
1AFA
  5
1B03
331
16AA
  5
16CD
331
16D3
  5
16FF
331
14AB
  5
14AB
331
1B1C
  5
1B25
331
1B0B
  5
1B14
331
1C77
  5
1C80
331
1B3E
  5
1C6D
331
1B2D
  5
1B36
331
1C88
  5
1C91
331
1610
  5
161A
331
1C99
  5
1CA2
331
1CAA
  5
1CB3
331
1CBB
  5
1CC4
331
157B
  5
157E
331
158C
  5
158F
331
156A
  5
156E
331
1463
  5
1463
331
1452
  5
1452
331
1CD5
  5
1D40
331
15AE
  5
15B1
331
141F
  5
141F
331
1404
  5
1404
331
15D1
  5
15F5
331
1681
  5
16A6
331
1AFB
  5
1B04
331
1AEA
  5
1AF7
331
1B0C
  5
1B15
331
1B1D
  5
1B26
331
16CD
  5
16EF
331
1B2E
  5
1B37
331
15EF
  5
15FB
331
1B3F
  5
1C6E
331
153F
  5
1542
331
1C78
  5
1C81
331
1600
  5
160D
331
1C89
  5
1C92
331
1611
  5
161B
331
1C9A
  5
1CA3
331
1622
  5
162E
331
1550
  5
1554
331
1486
  5
1486
331
1442
  5
1442
331
1431
  5
1431
331
1CAB
  5
1CB4
331
1633
  5
164E
331
1CBC
  5
1CC5
331
157C
  5
1580
331
1CD6
  5
1D41
331
159E
  5
15A1
331
158D
  5
1590
331
15AF
  5
15B2
331
13E3
  5
13E3
331
15B0
  5
15B3
331
1660
  5
1681
331
1AFC
  5
1B05
331
1AEB
  5
1AF8
331
16D5
  5
1700
331
1B0D
  5
1B16
331
1D3D
  5
14E7
331
14AD
  5
14AD
331
148B
  5
148B
331
1B1E
  5
1B27
331
16FF
  5
1725
331
14E7
  5
153F
331
1B2F
  5
1B38
331
15DF
  5
15F9
331
1C68
  5
1C71
331
15F0
  5
15FC
331
1C79
  5
1C82
331
1B40
  5
1C6F
331
1C8A
  5
1C93
331
1612
  5
161C
331
1C9B
  5
1CA4
331
1623
  5
162F
331
1540
  5
1543
331
156C
  5
156F
331
1487
  5
1487
331
1476
  5
1476
331
1432
  5
1432
331
1421
  5
1421
331
1410
  5
1410
331
1CAC
  5
1CB5
331
1634
  5
1653
331
157D
  5
1581
331
1CBD
  5
1CC6
331
1645
  5
1658
331
1CD7
  5
1D42
331
159F
  5
15A2
331
158E
  5
1592
331
13F5
  5
13F5
331
13E4
  5
13E4
331
1CD8
  5
1D43
331
15A0
  5
15A3
331
15B1
  5
15B5
331
1683
  5
16AA
331
1AFD
  5
1B06
331
1AEC
  5
1AF9
331
169C
  5
16B4
331
1B0E
  5
1B17
331
16EF
  5
1723
331
1D3E
  5
14E9
331
1B1F
  5
1B28
331
1700
  5
1745
331
1B30
  5
1B39
331
15E0
  5
15FA
331
14E8
  5
1540
331
1C69
  5
1C72
331
1541
  5
1544
331
1C9C
  5
1CA5
331
1C8B
  5
1C94
331
1C7A
  5
1C83
331
1602
  5
160E
331
1552
  5
1555
331
1CAD
  5
1CB6
331
1CBE
  5
1CC7
331
157E
  5
1583
331
158F
  5
1593
331
156D
  5
1570
331
1477
  5
1477
331
1466
  5
1466
331
1444
  5
1444
331
1433
  5
1433
331
1411
  5
1411
331
1CC8
  5
1CD1
331
1590
  5
1594
331
1CD9
  5
1D44
331
15A1
  5
15A5
331
15B2
  5
15B6
331
1AED
  5
1AFA
331
1AFE
  5
1B07
331
16AE
  5
16D0
331
149E
  5
149E
331
148D
  5
148D
331
16BF
  5
16EA
331
1B0F
  5
1B18
331
1B20
  5
1B29
331
1B31
  5
1B3A
331
171A
  5
1AE8
331
14E9
  5
1541
331
1C6A
  5
1C73
331
1542
  5
1545
331
1C7B
  5
1C84
331
1603
  5
1610
331
1C8C
  5
1C95
331
1614
  5
161D
331
1C9D
  5
1CA6
331
1625
  5
1633
331
1CBF
  5
1CC8
331
1CAE
  5
1CB7
331
156E
  5
1571
331
1553
  5
1556
331
1478
  5
1478
331
1467
  5
1467
331
1412
  5
1412
331
1CC0
  5
1CC9
331
1648
  5
165B
331
1580
  5
1585
331
1CC9
  5
1CD2
331
15B3
  5
15B7
331
15A2
  5
15A6
331
1663
  5
1683
331
1AFF
  5
1B08
331
14B0
  5
14B0
331
1B10
  5
1B19
331
14D9
  5
14D9
331
1B32
  5
1B3B
331
1B21
  5
1B2A
331
1C6B
  5
1C74
331
1543
  5
1546
331
1C7C
  5
1C85
331
1604
  5
1611
331
1C8D
  5
1C96
331
1615
  5
161F
331
1C9E
  5
1CA7
331
1626
  5
1634
331
1554
  5
1557
331
1CAF
  5
1CB8
331
156F
  5
1572
331
1479
  5
1479
331
1468
  5
1468
331
1424
  5
1424
331
1413
  5
1413
331
1409
  5
1409
  0
LAYOUT
  5
1E
102
{ACAD_XDICTIONARY
360
1E61
102
}
102
{ACAD_REACTORS
330
1A
102
}
330
1A
100
AcDbPlotSettings
  1

  2
Ploter HP500
  4

  6

 40
0.0
 41
0.0
 42
0.0
 43
0.0
 44
0.0
 45
0.0
 46
0.0
 47
0.0
 48
0.0
 49
0.0
140
0.0
141
0.0
142
1.0
143
1.0
 70
   688
 72
     0
 73
     0
 74
     5
  7
monochrome.ctb
 75
    16
147
1.0
148
0.0
149
0.0
100
AcDbLayout
  1
Layout1
 70
     1
 71
     1
 10
0.0
 20
0.0
 11
420.0
 21
297.0
 12
0.0
 22
0.0
 32
0.0
 14
1.000000000000000E+20
 24
1.000000000000000E+20
 34
1.000000000000000E+20
 15
-1.000000000000000E+20
 25
-1.000000000000000E+20
 35
-1.000000000000000E+20
146
0.0
 13
0.0
 23
0.0
 33
0.0
 16
1.0
 26
0.0
 36
0.0
 17
0.0
 27
1.0
 37
0.0
 76
     0
330
1B
  0
LAYOUT
  5
26
102
{ACAD_XDICTIONARY
360
1E65
102
}
102
{ACAD_REACTORS
330
1A
102
}
330
1A
100
AcDbPlotSettings
  1

  2
Ploter HP500
  4

  6

 40
0.0
 41
0.0
 42
0.0
 43
0.0
 44
0.0
 45
0.0
 46
0.0
 47
0.0
 48
0.0
 49
0.0
140
0.0
141
0.0
142
1.0
143
1.0
 70
   688
 72
     0
 73
     0
 74
     5
  7
monochrome.ctb
 75
    16
147
1.0
148
0.0
149
0.0
100
AcDbLayout
  1
Layout2
 70
     1
 71
     2
 10
0.0
 20
0.0
 11
12.0
 21
9.0
 12
0.0
 22
0.0
 32
0.0
 14
0.0
 24
0.0
 34
0.0
 15
0.0
 25
0.0
 35
0.0
146
0.0
 13
0.0
 23
0.0
 33
0.0
 16
1.0
 26
0.0
 36
0.0
 17
0.0
 27
1.0
 37
0.0
 76
     0
330
23
  0
LAYOUT
  5
22
102
{ACAD_XDICTIONARY
360
1E63
102
}
102
{ACAD_REACTORS
330
1A
102
}
330
1A
100
AcDbPlotSettings
  1

  2
Ploter HP500
  4
User268
  6

 40
4.995333194732666
 41
16.97565841674804
 42
4.995330810546875
 43
16.97567749023437
 44
209.9733276367187
 45
296.9259948730469
 46
0.0
 47
0.0
 48
0.0
 49
0.0
140
0.0
141
0.0
142
1.0
143
1.0
 70
 11952
 72
     1
 73
     1
 74
     0
  7

 75
     0
147
1.0
148
-427.5957866592534
149
7.362384574453926
100
AcDbLayout
  1
Model
 70
     1
 71
     0
 10
0.0
 20
0.0
 11
12.0
 21
9.0
 12
0.0
 22
0.0
 32
0.0
 14
0.0
 24
0.0
 34
0.0
 15
0.0
 25
0.0
 35
0.0
146
0.0
 13
0.0
 23
0.0
 33
0.0
 16
1.0
 26
0.0
 36
0.0
 17
0.0
 27
1.0
 37
0.0
 76
     0
330
1F
331
1B43
  0
MATERIAL
  5
1B4E
102
{ACAD_XDICTIONARY
360
1B4F
102
}
102
{ACAD_REACTORS
330
1B45
102
}
330
1B45
100
AcDbMaterial
  1
ByBlock
 72
     0
 43
0.0008202099737533
 43
0.0
 43
0.0
 43
0.0
 43
0.0
 43
0.0008202099737533
 43
0.0
 43
0.0
 43
0.0
 43
0.0
 43
1.0
 43
0.0
 43
0.0
 43
0.0
 43
0.0
 43
1.0
 77
     0
 47
0.0008202099737533
 47
0.0
 47
0.0
 47
0.0
 47
0.0
 47
0.0008202099737533
 47
0.0
 47
0.0
 47
0.0
 47
0.0
 47
1.0
 47
0.0
 47
0.0
 47
0.0
 47
0.0
 47
1.0
171
     0
 49
0.0008202099737533
 49
0.0
 49
0.0
 49
0.0
 49
0.0
 49
0.0008202099737533
 49
0.0
 49
0.0
 49
0.0
 49
0.0
 49
1.0
 49
0.0
 49
0.0
 49
0.0
 49
0.0
 49
1.0
175
     0
142
0.0008202099737533
142
0.0
142
0.0
142
0.0
142
0.0
142
0.0008202099737533
142
0.0
142
0.0
142
0.0
142
0.0
142
1.0
142
0.0
142
0.0
142
0.0
142
0.0
142
1.0
179
     0
144
0.0008202099737533
144
0.0
144
0.0
144
0.0
144
0.0
144
0.0008202099737533
144
0.0
144
0.0
144
0.0
144
0.0
144
1.0
144
0.0
144
0.0
144
0.0
144
0.0
144
1.0
147
0.0008202099737533
147
0.0
147
0.0
147
0.0
147
0.0
147
0.0008202099737533
147
0.0
147
0.0
147
0.0
147
0.0
147
1.0
147
0.0
147
0.0
147
0.0
147
0.0
147
1.0
  0
MATERIAL
  5
1B46
102
{ACAD_XDICTIONARY
360
1B47
102
}
102
{ACAD_REACTORS
330
1B45
102
}
330
1B45
100
AcDbMaterial
  1
ByLayer
 72
     0
 43
0.0008202099737533
 43
0.0
 43
0.0
 43
0.0
 43
0.0
 43
0.0008202099737533
 43
0.0
 43
0.0
 43
0.0
 43
0.0
 43
1.0
 43
0.0
 43
0.0
 43
0.0
 43
0.0
 43
1.0
 77
     0
 47
0.0008202099737533
 47
0.0
 47
0.0
 47
0.0
 47
0.0
 47
0.0008202099737533
 47
0.0
 47
0.0
 47
0.0
 47
0.0
 47
1.0
 47
0.0
 47
0.0
 47
0.0
 47
0.0
 47
1.0
171
     0
 49
0.0008202099737533
 49
0.0
 49
0.0
 49
0.0
 49
0.0
 49
0.0008202099737533
 49
0.0
 49
0.0
 49
0.0
 49
0.0
 49
1.0
 49
0.0
 49
0.0
 49
0.0
 49
0.0
 49
1.0
175
     0
142
0.0008202099737533
142
0.0
142
0.0
142
0.0
142
0.0
142
0.0008202099737533
142
0.0
142
0.0
142
0.0
142
0.0
142
1.0
142
0.0
142
0.0
142
0.0
142
0.0
142
1.0
179
     0
144
0.0008202099737533
144
0.0
144
0.0
144
0.0
144
0.0
144
0.0008202099737533
144
0.0
144
0.0
144
0.0
144
0.0
144
1.0
144
0.0
144
0.0
144
0.0
144
0.0
144
1.0
147
0.0008202099737533
147
0.0
147
0.0
147
0.0
147
0.0
147
0.0008202099737533
147
0.0
147
0.0
147
0.0
147
0.0
147
1.0
147
0.0
147
0.0
147
0.0
147
0.0
147
1.0
  0
MATERIAL
  5
1B56
102
{ACAD_XDICTIONARY
360
1B57
102
}
102
{ACAD_REACTORS
330
1B45
102
}
330
1B45
100
AcDbMaterial
  1
Global
 72
     0
 43
0.0008202099737533
 43
0.0
 43
0.0
 43
0.0
 43
0.0
 43
0.0008202099737533
 43
0.0
 43
0.0
 43
0.0
 43
0.0
 43
1.0
 43
0.0
 43
0.0
 43
0.0
 43
0.0
 43
1.0
 77
     0
 47
0.0008202099737533
 47
0.0
 47
0.0
 47
0.0
 47
0.0
 47
0.0008202099737533
 47
0.0
 47
0.0
 47
0.0
 47
0.0
 47
1.0
 47
0.0
 47
0.0
 47
0.0
 47
0.0
 47
1.0
171
     0
 49
0.0008202099737533
 49
0.0
 49
0.0
 49
0.0
 49
0.0
 49
0.0008202099737533
 49
0.0
 49
0.0
 49
0.0
 49
0.0
 49
1.0
 49
0.0
 49
0.0
 49
0.0
 49
0.0
 49
1.0
175
     0
142
0.0008202099737533
142
0.0
142
0.0
142
0.0
142
0.0
142
0.0008202099737533
142
0.0
142
0.0
142
0.0
142
0.0
142
1.0
142
0.0
142
0.0
142
0.0
142
0.0
142
1.0
179
     0
144
0.0008202099737533
144
0.0
144
0.0
144
0.0
144
0.0
144
0.0008202099737533
144
0.0
144
0.0
144
0.0
144
0.0
144
1.0
144
0.0
144
0.0
144
0.0
144
0.0
144
1.0
147
0.0008202099737533
147
0.0
147
0.0
147
0.0
147
0.0
147
0.0008202099737533
147
0.0
147
0.0
147
0.0
147
0.0
147
1.0
147
0.0
147
0.0
147
0.0
147
0.0
147
1.0
  0
MLEADERSTYLE
  5
1B88
102
{ACAD_REACTORS
330
1B87
102
}
330
1B87
100
AcDbMLeaderStyle
170
     2
171
     1
172
     0
 90
        2
 40
0.0
 41
0.0
173
     1
 91
-1056964608
340
14
 92
       -2
290
     1
 42
2.0
291
     1
 43
0.36
  3
Standard
 44
4.0
300

342
11
174
     1
178
     6
175
     1
176
     0
 93
-1056964608
 45
4.0
292
     0
297
     0
 46
4.0
 94
-1056964608
 47
1.0
 49
1.0
140
1.0
293
     1
141
0.0
294
     1
177
     0
142
1.0
295
     0
296
     0
143
0.125
1001
ACAD_MLEADERVER
1070
     2
  0
MLINESTYLE
  5
18
102
{ACAD_REACTORS
330
17
102
}
330
17
100
AcDbMlineStyle
  2
STANDARD
 70
     0
  3

 62
   256
 51
90.0
 52
90.0
 71
     2
 49
0.5
 62
   256
  6
BYLAYER
 49
-0.5
 62
   256
  6
BYLAYER
  0
ACDBPLACEHOLDER
  5
F
102
{ACAD_REACTORS
330
E
102
}
330
E
  0
SCALE
  5
1B76
102
{ACAD_REACTORS
330
1B75
102
}
330
1B75
100
AcDbScale
 70
     0
300
1:1
140
1.0
141
1.0
290
     1
  0
SCALE
  5
1B77
102
{ACAD_REACTORS
330
1B75
102
}
330
1B75
100
AcDbScale
 70
     0
300
1:2
140
1.0
141
2.0
290
     0
  0
SCALE
  5
1B78
102
{ACAD_REACTORS
330
1B75
102
}
330
1B75
100
AcDbScale
 70
     0
300
1:4
140
1.0
141
4.0
290
     0
  0
SCALE
  5
1B79
102
{ACAD_REACTORS
330
1B75
102
}
330
1B75
100
AcDbScale
 70
     0
300
1:5
140
1.0
141
5.0
290
     0
  0
SCALE
  5
1B7A
102
{ACAD_REACTORS
330
1B75
102
}
330
1B75
100
AcDbScale
 70
     0
300
1:8
140
1.0
141
8.0
290
     0
  0
SCALE
  5
1B7B
102
{ACAD_REACTORS
330
1B75
102
}
330
1B75
100
AcDbScale
 70
     0
300
1:10
140
1.0
141
10.0
290
     0
  0
SCALE
  5
1B7C
102
{ACAD_REACTORS
330
1B75
102
}
330
1B75
100
AcDbScale
 70
     0
300
1:16
140
1.0
141
16.0
290
     0
  0
SCALE
  5
1B7D
102
{ACAD_REACTORS
330
1B75
102
}
330
1B75
100
AcDbScale
 70
     0
300
1:20
140
1.0
141
20.0
290
     0
  0
SCALE
  5
1B7E
102
{ACAD_REACTORS
330
1B75
102
}
330
1B75
100
AcDbScale
 70
     0
300
1:30
140
1.0
141
30.0
290
     0
  0
SCALE
  5
1B7F
102
{ACAD_REACTORS
330
1B75
102
}
330
1B75
100
AcDbScale
 70
     0
300
1:40
140
1.0
141
40.0
290
     0
  0
SCALE
  5
1B80
102
{ACAD_REACTORS
330
1B75
102
}
330
1B75
100
AcDbScale
 70
     0
300
1:50
140
1.0
141
50.0
290
     0
  0
SCALE
  5
1B81
102
{ACAD_REACTORS
330
1B75
102
}
330
1B75
100
AcDbScale
 70
     0
300
1:100
140
1.0
141
100.0
290
     0
  0
SCALE
  5
1B82
102
{ACAD_REACTORS
330
1B75
102
}
330
1B75
100
AcDbScale
 70
     0
300
2:1
140
2.0
141
1.0
290
     0
  0
SCALE
  5
1B83
102
{ACAD_REACTORS
330
1B75
102
}
330
1B75
100
AcDbScale
 70
     0
300
4:1
140
4.0
141
1.0
290
     0
  0
SCALE
  5
1B84
102
{ACAD_REACTORS
330
1B75
102
}
330
1B75
100
AcDbScale
 70
     0
300
8:1
140
8.0
141
1.0
290
     0
  0
SCALE
  5
1B85
102
{ACAD_REACTORS
330
1B75
102
}
330
1B75
100
AcDbScale
 70
     0
300
10:1
140
10.0
141
1.0
290
     0
  0
SCALE
  5
1B86
102
{ACAD_REACTORS
330
1B75
102
}
330
1B75
100
AcDbScale
 70
     0
300
100:1
140
100.0
141
1.0
290
     0
  0
TABLESTYLE
  5
1B74
102
{ACAD_XDICTIONARY
360
1E5D
102
}
102
{ACAD_REACTORS
330
1B73
102
}
330
1B73
100
AcDbTableStyle
  3
Standard
 70
     0
 71
     0
 40
1.5
 41
1.5
280
     0
281
     0
  7
Standard
140
4.5
170
     2
 62
     0
 63
     7
283
     0
274
    -2
284
     1
 64
     0
275
    -2
285
     1
 65
     0
276
    -2
286
     1
 66
     0
277
    -2
287
     1
 67
     0
278
    -2
288
     1
 68
     0
279
    -2
289
     1
 69
     0
  7
Standard
140
6.0
170
     5
 62
     0
 63
     7
283
     0
274
    -2
284
     1
 64
     0
275
    -2
285
     1
 65
     0
276
    -2
286
     1
 66
     0
277
    -2
287
     1
 67
     0
278
    -2
288
     1
 68
     0
279
    -2
289
     1
 69
     0
  7
Standard
140
4.5
170
     5
 62
     0
 63
     7
283
     0
274
    -2
284
     1
 64
     0
275
    -2
285
     1
 65
     0
276
    -2
286
     1
 66
     0
277
    -2
287
     1
 67
     0
278
    -2
288
     1
 68
     0
279
    -2
289
     1
 69
     0
  0
VISUALSTYLE
  5
1B64
102
{ACAD_XDICTIONARY
360
1EB0
102
}
102
{ACAD_REACTORS
330
1B5E
102
}
330
1B5E
100
AcDbVisualStyle
  2
2dWireframe
 70
     4
 71
     0
 72
     2
 73
     0
 90
        0
 40
-0.6
 41
-30.0
 62
     5
 63
     7
 74
     1
 91
        4
 64
     7
 65
   257
 75
     1
175
     1
 42
1.0
 92
        0
 66
   257
 43
1.0
 76
     1
 77
     6
 78
     2
 67
     7
 79
     5
170
     0
171
     0
290
     0
174
     0
 93
        1
 44
0.0
173
     0
291
     0
 45
0.0
1001
ACAD
1000
AcDbSavedByObjectVersion
1070
     0
  0
VISUALSTYLE
  5
1B66
102
{ACAD_XDICTIONARY
360
1EB4
102
}
102
{ACAD_REACTORS
330
1B5E
102
}
330
1B5E
100
AcDbVisualStyle
  2
3D Hidden
 70
     6
 71
     1
 72
     2
 73
     2
 90
        0
 40
-0.6
 41
-30.0
 62
     5
 63
     7
 74
     2
 91
        2
 64
     7
 65
   257
 75
     2
175
     1
 42
179.0
 92
        0
 66
   257
 43
1.0
 76
     1
 77
     6
 78
     2
 67
     7
 79
     3
170
     0
171
     0
290
     0
174
     0
 93
        1
 44
0.0
173
     0
291
     0
 45
0.0
1001
ACAD
1000
AcDbSavedByObjectVersion
1070
     0
  0
VISUALSTYLE
  5
1B65
102
{ACAD_XDICTIONARY
360
1EB2
102
}
102
{ACAD_REACTORS
330
1B5E
102
}
330
1B5E
100
AcDbVisualStyle
  2
3dWireframe
 70
     5
 71
     0
 72
     2
 73
     0
 90
        0
 40
-0.6
 41
-30.0
 62
     5
 63
     7
 74
     1
 91
        4
 64
     7
 65
   257
 75
     1
175
     1
 42
1.0
 92
        0
 66
   257
 43
1.0
 76
     1
 77
     6
 78
     2
 67
     7
 79
     5
170
     0
171
     0
290
     0
174
     0
 93
        1
 44
0.0
173
     0
291
     0
 45
0.0
1001
ACAD
1000
AcDbSavedByObjectVersion
1070
     0
  0
VISUALSTYLE
  5
1B63
102
{ACAD_XDICTIONARY
360
1EAE
102
}
102
{ACAD_REACTORS
330
1B5E
102
}
330
1B5E
100
AcDbVisualStyle
  2
Basic
 70
     7
 71
     1
 72
     0
 73
     1
 90
        0
 40
-0.6
 41
-30.0
 62
     5
 63
     7
 74
     0
 91
        4
 64
     7
 65
   257
 75
     1
175
     1
 42
1.0
 92
        8
 66
     7
 43
1.0
 76
     1
 77
     6
 78
     2
 67
     7
 79
     5
170
     0
171
     0
290
     0
174
     0
 93
        1
 44
0.0
173
     0
291
     1
 45
0.0
1001
ACAD
1000
AcDbSavedByObjectVersion
1070
     0
  0
VISUALSTYLE
  5
1B6A
102
{ACAD_XDICTIONARY
360
1EBC
102
}
102
{ACAD_REACTORS
330
1B5E
102
}
330
1B5E
100
AcDbVisualStyle
  2
Brighten
 70
    12
 71
     2
 72
     2
 73
     0
 90
        0
 40
-0.6
 41
-30.0
 62
     5
 63
     7
 74
     1
 91
        4
 64
     7
 65
   257
 75
     1
175
     1
 42
1.0
 92
        8
 66
     7
 43
1.0
 76
     1
 77
     6
 78
     2
 67
     7
 79
     5
170
     0
171
     0
290
     0
174
     0
 93
        1
 44
50.0
173
     0
291
     1
 45
0.0
1001
ACAD
1000
AcDbSavedByObjectVersion
1070
     0
  0
VISUALSTYLE
  5
1B6E
102
{ACAD_XDICTIONARY
360
1EC4
102
}
102
{ACAD_REACTORS
330
1B5E
102
}
330
1B5E
100
AcDbVisualStyle
  2
ColorChange
 70
    16
 71
     2
 72
     2
 73
     3
 90
        0
 40
-0.6
 41
-30.0
 62
     5
 63
     8
 74
     1
 91
        4
 64
     7
 65
   257
 75
     1
175
     1
 42
1.0
 92
        8
 66
     8
 43
1.0
 76
     1
 77
     6
 78
     2
 67
     7
 79
     5
170
     0
171
     0
290
     0
174
     0
 93
        1
 44
0.0
173
     0
291
     1
 45
0.0
1001
ACAD
1000
AcDbSavedByObjectVersion
1070
     0
  0
VISUALSTYLE
  5
1B67
102
{ACAD_XDICTIONARY
360
1EB6
102
}
102
{ACAD_REACTORS
330
1B5E
102
}
330
1B5E
100
AcDbVisualStyle
  2
Conceptual
 70
     9
 71
     3
 72
     2
 73
     0
 90
        0
 40
-0.6
 41
-30.0
 62
     5
 63
     7
 74
     2
 91
        2
 64
     7
 65
   257
 75
     1
175
     1
 42
179.0
 92
        8
 66
     7
 43
1.0
 76
     1
 77
     6
 78
     2
 67
     7
 79
     3
170
     0
171
     0
290
     0
174
     0
 93
        1
 44
0.0
173
     0
291
     0
 45
0.0
1001
ACAD
1000
AcDbSavedByObjectVersion
1070
     0
  0
VISUALSTYLE
  5
1B69
102
{ACAD_XDICTIONARY
360
1EBA
102
}
102
{ACAD_REACTORS
330
1B5E
102
}
330
1B5E
100
AcDbVisualStyle
  2
Dim
 70
    11
 71
     2
 72
     2
 73
     0
 90
        0
 40
-0.6
 41
-30.0
 62
     5
 63
     7
 74
     1
 91
        4
 64
     7
 65
   257
 75
     1
175
     1
 42
1.0
 92
        8
 66
     7
 43
1.0
 76
     1
 77
     6
 78
     2
 67
     7
 79
     5
170
     0
171
     0
290
     0
174
     0
 93
        1
 44
-50.0
173
     0
291
     1
 45
0.0
1001
ACAD
1000
AcDbSavedByObjectVersion
1070
     0
  0
VISUALSTYLE
  5
1B71
102
{ACAD_XDICTIONARY
360
1ECA
102
}
102
{ACAD_REACTORS
330
1B5E
102
}
330
1B5E
100
AcDbVisualStyle
  2
EdgeColorOff
 70
    22
 71
     2
 72
     2
 73
     0
 90
        0
 40
-0.6
 41
-30.0
 62
     5
 63
     7
 74
     1
 91
        4
 64
     7
 65
   257
 75
     1
175
     1
 42
1.0
 92
        8
 66
     7
 43
1.0
 76
     1
 77
     6
 78
     2
 67
     7
 79
     5
170
     0
171
     0
290
     0
174
     0
 93
        1
 44
0.0
173
     0
291
     1
 45
0.0
1001
ACAD
1000
AcDbSavedByObjectVersion
1070
     0
  0
VISUALSTYLE
  5
1B6D
102
{ACAD_XDICTIONARY
360
1EC2
102
}
102
{ACAD_REACTORS
330
1B5E
102
}
330
1B5E
100
AcDbVisualStyle
  2
Facepattern
 70
    15
 71
     2
 72
     2
 73
     0
 90
        0
 40
-0.6
 41
-30.0
 62
     5
 63
     7
 74
     1
 91
        4
 64
     7
 65
   257
 75
     1
175
     1
 42
1.0
 92
        8
 66
     7
 43
1.0
 76
     1
 77
     6
 78
     2
 67
     7
 79
     5
170
     0
171
     0
290
     0
174
     0
 93
        1
 44
0.0
173
     0
291
     1
 45
0.0
1001
ACAD
1000
AcDbSavedByObjectVersion
1070
     0
  0
VISUALSTYLE
  5
1B5F
102
{ACAD_XDICTIONARY
360
1EA6
102
}
102
{ACAD_REACTORS
330
1B5E
102
}
330
1B5E
100
AcDbVisualStyle
  2
Flat
 70
     0
 71
     2
 72
     1
 73
     1
 90
        2
 40
-0.6
 41
30.0
 62
     5
 63
     7
 74
     0
 91
        4
 64
     7
 65
   257
 75
     1
175
     1
 42
1.0
 92
        8
 66
     7
 43
1.0
 76
     1
 77
     6
 78
     2
 67
     7
 79
     5
170
     0
171
     0
290
     0
174
     0
 93
       13
 44
0.0
173
     0
291
     1
 45
0.0
1001
ACAD
1000
AcDbSavedByObjectVersion
1070
     0
  0
VISUALSTYLE
  5
1B60
102
{ACAD_XDICTIONARY
360
1EA8
102
}
102
{ACAD_REACTORS
330
1B5E
102
}
330
1B5E
100
AcDbVisualStyle
  2
FlatWithEdges
 70
     1
 71
     2
 72
     1
 73
     1
 90
        2
 40
-0.6
 41
30.0
 62
     5
 63
     7
 74
     1
 91
        4
 64
     7
 65
   257
 75
     1
175
     1
 42
1.0
 92
        0
 66
   257
 43
1.0
 76
     1
 77
     6
 78
     2
 67
     7
 79
     5
170
     0
171
     0
290
     0
174
     0
 93
       13
 44
0.0
173
     0
291
     1
 45
0.0
1001
ACAD
1000
AcDbSavedByObjectVersion
1070
     0
  0
VISUALSTYLE
  5
1B61
102
{ACAD_XDICTIONARY
360
1EAA
102
}
102
{ACAD_REACTORS
330
1B5E
102
}
330
1B5E
100
AcDbVisualStyle
  2
Gouraud
 70
     2
 71
     2
 72
     2
 73
     1
 90
        2
 40
-0.6
 41
30.0
 62
     5
 63
     7
 74
     0
 91
        4
 64
     7
 65
   257
 75
     1
175
     1
 42
1.0
 92
        0
 66
     7
 43
1.0
 76
     1
 77
     6
 78
     2
 67
     7
 79
     5
170
     0
171
     0
290
     0
174
     0
 93
       13
 44
0.0
173
     0
291
     1
 45
0.0
1001
ACAD
1000
AcDbSavedByObjectVersion
1070
     0
  0
VISUALSTYLE
  5
1B62
102
{ACAD_XDICTIONARY
360
1EAC
102
}
102
{ACAD_REACTORS
330
1B5E
102
}
330
1B5E
100
AcDbVisualStyle
  2
GouraudWithEdges
 70
     3
 71
     2
 72
     2
 73
     1
 90
        2
 40
-0.6
 41
30.0
 62
     5
 63
     7
 74
     1
 91
        4
 64
     7
 65
   257
 75
     1
175
     1
 42
1.0
 92
        0
 66
   257
 43
1.0
 76
     1
 77
     6
 78
     2
 67
     7
 79
     5
170
     0
171
     0
290
     0
174
     0
 93
       13
 44
0.0
173
     0
291
     1
 45
0.0
1001
ACAD
1000
AcDbSavedByObjectVersion
1070
     0
  0
VISUALSTYLE
  5
1B6F
102
{ACAD_XDICTIONARY
360
1EC6
102
}
102
{ACAD_REACTORS
330
1B5E
102
}
330
1B5E
100
AcDbVisualStyle
  2
JitterOff
 70
    20
 71
     2
 72
     2
 73
     0
 90
        0
 40
-0.6
 41
-30.0
 62
     5
 63
     7
 74
     1
 91
        4
 64
     7
 65
   257
 75
     1
175
     1
 42
1.0
 92
       10
 66
     7
 43
1.0
 76
     1
 77
     6
 78
     2
 67
     7
 79
     5
170
     0
171
     0
290
     0
174
     0
 93
        1
 44
0.0
173
     0
291
     1
 45
0.0
1001
ACAD
1000
AcDbSavedByObjectVersion
1070
     0
  0
VISUALSTYLE
  5
1B6C
102
{ACAD_XDICTIONARY
360
1EC0
102
}
102
{ACAD_REACTORS
330
1B5E
102
}
330
1B5E
100
AcDbVisualStyle
  2
Linepattern
 70
    14
 71
     2
 72
     2
 73
     0
 90
        0
 40
-0.6
 41
-30.0
 62
     5
 63
     7
 74
     1
 91
        4
 64
     7
 65
   257
 75
     7
175
     7
 42
1.0
 92
        8
 66
     7
 43
1.0
 76
     1
 77
     6
 78
     2
 67
     7
 79
     5
170
     0
171
     0
290
     0
174
     0
 93
        1
 44
0.0
173
     0
291
     1
 45
0.0
1001
ACAD
1000
AcDbSavedByObjectVersion
1070
     0
  0
VISUALSTYLE
  5
1B70
102
{ACAD_XDICTIONARY
360
1EC8
102
}
102
{ACAD_REACTORS
330
1B5E
102
}
330
1B5E
100
AcDbVisualStyle
  2
OverhangOff
 70
    21
 71
     2
 72
     2
 73
     0
 90
        0
 40
-0.6
 41
-30.0
 62
     5
 63
     7
 74
     1
 91
        4
 64
     7
 65
   257
 75
     1
175
     1
 42
1.0
 92
        9
 66
     7
 43
1.0
 76
     1
 77
     6
 78
     2
 67
     7
 79
     5
170
     0
171
     0
290
     0
174
     0
 93
        1
 44
0.0
173
     0
291
     1
 45
0.0
1001
ACAD
1000
AcDbSavedByObjectVersion
1070
     0
  0
VISUALSTYLE
  5
1B68
102
{ACAD_XDICTIONARY
360
1EB8
102
}
102
{ACAD_REACTORS
330
1B5E
102
}
330
1B5E
100
AcDbVisualStyle
  2
Realistic
 70
     8
 71
     2
 72
     2
 73
     0
 90
        0
 40
-0.6
 41
-30.0
 62
     5
 63
     7
 74
     1
 91
        0
 64
     7
 65
   257
 75
     1
175
     1
 42
1.0
 92
        8
 66
     8
 43
1.0
 76
     1
 77
     6
 78
     2
 67
     7
 79
     5
170
     0
171
     0
290
     0
174
     0
 93
       13
 44
0.0
173
     0
291
     0
 45
0.0
1001
ACAD
1000
AcDbSavedByObjectVersion
1070
     0
  0
VISUALSTYLE
  5
1B6B
102
{ACAD_XDICTIONARY
360
1EBE
102
}
102
{ACAD_REACTORS
330
1B5E
102
}
330
1B5E
100
AcDbVisualStyle
  2
Thicken
 70
    13
 71
     2
 72
     2
 73
     0
 90
        0
 40
-0.6
 41
-30.0
 62
     5
 63
     7
 74
     1
 91
        4
 64
     7
 65
   257
 75
     1
175
     1
 42
1.0
 92
       12
 66
     7
 43
1.0
 76
     1
 77
     6
 78
     2
 67
     7
 79
     5
170
     0
171
     0
290
     0
174
     0
 93
        1
 44
0.0
173
     0
291
     1
 45
0.0
1001
ACAD
1000
AcDbSavedByObjectVersion
1070
     0
  0
DICTIONARYVAR
  5
1E59
102
{ACAD_REACTORS
330
3D
102
}
330
3D
100
DictionaryVariables
280
     0
  1
1:1
  0
DICTIONARYVAR
  5
1E58
102
{ACAD_REACTORS
330
3D
102
}
330
3D
100
DictionaryVariables
280
     0
  1
STANDARD
  0
DICTIONARYVAR
  5
1E57
102
{ACAD_REACTORS
330
3D
102
}
330
3D
100
DictionaryVariables
280
     0
  1
STANDARD
  0
DICTIONARYVAR
  5
3F
102
{ACAD_REACTORS
330
3D
102
}
330
3D
100
DictionaryVariables
280
     0
  1
2
  0
DICTIONARYVAR
  5
3E
102
{ACAD_REACTORS
330
3D
102
}
330
3D
100
DictionaryVariables
280
     0
  1
1
  0
DICTIONARYVAR
  5
1E5B
102
{ACAD_REACTORS
330
3D
102
}
330
3D
100
DictionaryVariables
280
     0
  1
0
  0
DICTIONARYVAR
  5
1E5A
102
{ACAD_REACTORS
330
3D
102
}
330
3D
100
DictionaryVariables
280
     0
  1
127
  0
DICTIONARYVAR
  5
1E5C
102
{ACAD_REACTORS
330
3D
102
}
330
3D
100
DictionaryVariables
280
     0
  1
2
  0
XRECORD
  5
1AF1
102
{ACAD_REACTORS
330
1AF0
102
}
330
1AF0
100
AcDbXrecord
280
     1
  0
DICTIONARY
  5
1E61
330
1E
100
AcDbDictionary
280
     1
281
     1
  3
ACAD_XREC_ROUNDTRIP
360
1E62
  0
DICTIONARY
  5
1E65
330
26
100
AcDbDictionary
280
     1
281
     1
  3
ACAD_XREC_ROUNDTRIP
360
1E66
  0
DICTIONARY
  5
1E63
330
22
100
AcDbDictionary
280
     1
281
     1
  3
ACAD_XREC_ROUNDTRIP
360
1E64
  0
DICTIONARY
  5
1B4F
330
1B4E
100
AcDbDictionary
280
     1
281
     1
  3
ACAD_XREC_ROUNDTRIP
360
1EA4
  3
BUMPTILE
360
1B51
  3
DIFFUSETILE
360
1B50
  3
OPACITYTILE
360
1B54
  3
REFLECTIONTILE
360
1B53
  3
REFRACTIONTILE
360
1B55
  3
SPECULARTILE
360
1B52
  0
DICTIONARY
  5
1B47
330
1B46
100
AcDbDictionary
280
     1
281
     1
  3
ACAD_XREC_ROUNDTRIP
360
1EA3
  3
BUMPTILE
360
1B49
  3
DIFFUSETILE
360
1B48
  3
OPACITYTILE
360
1B4C
  3
REFLECTIONTILE
360
1B4B
  3
REFRACTIONTILE
360
1B4D
  3
SPECULARTILE
360
1B4A
  0
DICTIONARY
  5
1B57
330
1B56
100
AcDbDictionary
280
     1
281
     1
  3
ACAD_XREC_ROUNDTRIP
360
1EA5
  3
BUMPTILE
360
1B59
  3
DIFFUSETILE
360
1B58
  3
OPACITYTILE
360
1B5C
  3
REFLECTIONTILE
360
1B5B
  3
REFRACTIONTILE
360
1B5D
  3
SPECULARTILE
360
1B5A
  0
DICTIONARY
  5
1E5D
330
1B74
100
AcDbDictionary
280
     1
281
     1
  3
ACAD_ROUNDTRIP_2008_TABLESTYLE_CELLSTYLEMAP
360
1E5E
  3
ACAD_XREC_ROUNDTRIP
360
1ECC
  0
DICTIONARY
  5
1EB0
330
1B64
100
AcDbDictionary
280
     1
281
     1
  3
ACAD_XREC_ROUNDTRIP
360
1EB1
  0
DICTIONARY
  5
1EB4
330
1B66
100
AcDbDictionary
280
     1
281
     1
  3
ACAD_XREC_ROUNDTRIP
360
1EB5
  0
DICTIONARY
  5
1EB2
330
1B65
100
AcDbDictionary
280
     1
281
     1
  3
ACAD_XREC_ROUNDTRIP
360
1EB3
  0
DICTIONARY
  5
1EAE
330
1B63
100
AcDbDictionary
280
     1
281
     1
  3
ACAD_XREC_ROUNDTRIP
360
1EAF
  0
DICTIONARY
  5
1EBC
330
1B6A
100
AcDbDictionary
280
     1
281
     1
  3
ACAD_XREC_ROUNDTRIP
360
1EBD
  0
DICTIONARY
  5
1EC4
330
1B6E
100
AcDbDictionary
280
     1
281
     1
  3
ACAD_XREC_ROUNDTRIP
360
1EC5
  0
DICTIONARY
  5
1EB6
330
1B67
100
AcDbDictionary
280
     1
281
     1
  3
ACAD_XREC_ROUNDTRIP
360
1EB7
  0
DICTIONARY
  5
1EBA
330
1B69
100
AcDbDictionary
280
     1
281
     1
  3
ACAD_XREC_ROUNDTRIP
360
1EBB
  0
DICTIONARY
  5
1ECA
330
1B71
100
AcDbDictionary
280
     1
281
     1
  3
ACAD_XREC_ROUNDTRIP
360
1ECB
  0
DICTIONARY
  5
1EC2
330
1B6D
100
AcDbDictionary
280
     1
281
     1
  3
ACAD_XREC_ROUNDTRIP
360
1EC3
  0
DICTIONARY
  5
1EA6
330
1B5F
100
AcDbDictionary
280
     1
281
     1
  3
ACAD_XREC_ROUNDTRIP
360
1EA7
  0
DICTIONARY
  5
1EA8
330
1B60
100
AcDbDictionary
280
     1
281
     1
  3
ACAD_XREC_ROUNDTRIP
360
1EA9
  0
DICTIONARY
  5
1EAA
330
1B61
100
AcDbDictionary
280
     1
281
     1
  3
ACAD_XREC_ROUNDTRIP
360
1EAB
  0
DICTIONARY
  5
1EAC
330
1B62
100
AcDbDictionary
280
     1
281
     1
  3
ACAD_XREC_ROUNDTRIP
360
1EAD
  0
DICTIONARY
  5
1EC6
330
1B6F
100
AcDbDictionary
280
     1
281
     1
  3
ACAD_XREC_ROUNDTRIP
360
1EC7
  0
DICTIONARY
  5
1EC0
330
1B6C
100
AcDbDictionary
280
     1
281
     1
  3
ACAD_XREC_ROUNDTRIP
360
1EC1
  0
DICTIONARY
  5
1EC8
330
1B70
100
AcDbDictionary
280
     1
281
     1
  3
ACAD_XREC_ROUNDTRIP
360
1EC9
  0
DICTIONARY
  5
1EB8
330
1B68
100
AcDbDictionary
280
     1
281
     1
  3
ACAD_XREC_ROUNDTRIP
360
1EB9
  0
DICTIONARY
  5
1EBE
330
1B6B
100
AcDbDictionary
280
     1
281
     1
  3
ACAD_XREC_ROUNDTRIP
360
1EBF
  0
XRECORD
  5
1E62
102
{ACAD_REACTORS
330
1E61
102
}
330
1E61
100
AcDbXrecord
280
     1
102
SHADEPLOT
 70
     0
102
SHADEPLOTRESLEVEL
 70
     2
102
SHADEPLOTCUSTOMDPI
 70
   300
  0
XRECORD
  5
1E66
102
{ACAD_REACTORS
330
1E65
102
}
330
1E65
100
AcDbXrecord
280
     1
102
SHADEPLOT
 70
     0
102
SHADEPLOTRESLEVEL
 70
     2
102
SHADEPLOTCUSTOMDPI
 70
   300
  0
XRECORD
  5
1E64
102
{ACAD_REACTORS
330
1E63
102
}
330
1E63
100
AcDbXrecord
280
     1
102
SHADEPLOT
 70
     0
102
SHADEPLOTRESLEVEL
 70
     2
102
SHADEPLOTCUSTOMDPI
 70
   300
  0
XRECORD
  5
1EA4
102
{ACAD_REACTORS
330
1B4F
102
}
330
1B4F
100
AcDbXrecord
280
     1
102
MATERIAL
148
0.0
149
0.0
149
0.0
 93
        0
 94
      127
282
     0
 72
     0
 77
     0
171
     0
175
     0
179
     0
273
     0
  0
XRECORD
  5
1B51
102
{ACAD_REACTORS
330
1B4F
102
}
330
1B4F
100
AcDbXrecord
280
     1
270
     1
271
     1
  0
XRECORD
  5
1B50
102
{ACAD_REACTORS
330
1B4F
102
}
330
1B4F
100
AcDbXrecord
280
     1
270
     1
271
     1
  0
XRECORD
  5
1B54
102
{ACAD_REACTORS
330
1B4F
102
}
330
1B4F
100
AcDbXrecord
280
     1
270
     1
271
     1
  0
XRECORD
  5
1B53
102
{ACAD_REACTORS
330
1B4F
102
}
330
1B4F
100
AcDbXrecord
280
     1
270
     1
271
     1
  0
XRECORD
  5
1B55
102
{ACAD_REACTORS
330
1B4F
102
}
330
1B4F
100
AcDbXrecord
280
     1
270
     1
271
     1
  0
XRECORD
  5
1B52
102
{ACAD_REACTORS
330
1B4F
102
}
330
1B4F
100
AcDbXrecord
280
     1
270
     1
271
     1
  0
XRECORD
  5
1EA3
102
{ACAD_REACTORS
330
1B47
102
}
330
1B47
100
AcDbXrecord
280
     1
102
MATERIAL
148
0.0
149
0.0
149
0.0
 93
        0
 94
      127
282
     0
 72
     0
 77
     0
171
     0
175
     0
179
     0
273
     0
  0
XRECORD
  5
1B49
102
{ACAD_REACTORS
330
1B47
102
}
330
1B47
100
AcDbXrecord
280
     1
270
     1
271
     1
  0
XRECORD
  5
1B48
102
{ACAD_REACTORS
330
1B47
102
}
330
1B47
100
AcDbXrecord
280
     1
270
     1
271
     1
  0
XRECORD
  5
1B4C
102
{ACAD_REACTORS
330
1B47
102
}
330
1B47
100
AcDbXrecord
280
     1
270
     1
271
     1
  0
XRECORD
  5
1B4B
102
{ACAD_REACTORS
330
1B47
102
}
330
1B47
100
AcDbXrecord
280
     1
270
     1
271
     1
  0
XRECORD
  5
1B4D
102
{ACAD_REACTORS
330
1B47
102
}
330
1B47
100
AcDbXrecord
280
     1
270
     1
271
     1
  0
XRECORD
  5
1B4A
102
{ACAD_REACTORS
330
1B47
102
}
330
1B47
100
AcDbXrecord
280
     1
270
     1
271
     1
  0
XRECORD
  5
1EA5
102
{ACAD_REACTORS
330
1B57
102
}
330
1B57
100
AcDbXrecord
280
     1
102
MATERIAL
148
0.0
149
0.0
149
0.0
 93
        0
 94
      127
282
     0
 72
     0
 77
     0
171
     0
175
     0
179
     0
273
     0
  0
XRECORD
  5
1B59
102
{ACAD_REACTORS
330
1B57
102
}
330
1B57
100
AcDbXrecord
280
     1
270
     1
271
     1
  0
XRECORD
  5
1B58
102
{ACAD_REACTORS
330
1B57
102
}
330
1B57
100
AcDbXrecord
280
     1
270
     1
271
     1
  0
XRECORD
  5
1B5C
102
{ACAD_REACTORS
330
1B57
102
}
330
1B57
100
AcDbXrecord
280
     1
270
     1
271
     1
  0
XRECORD
  5
1B5B
102
{ACAD_REACTORS
330
1B57
102
}
330
1B57
100
AcDbXrecord
280
     1
270
     1
271
     1
  0
XRECORD
  5
1B5D
102
{ACAD_REACTORS
330
1B57
102
}
330
1B57
100
AcDbXrecord
280
     1
270
     1
271
     1
  0
XRECORD
  5
1B5A
102
{ACAD_REACTORS
330
1B57
102
}
330
1B57
100
AcDbXrecord
280
     1
270
     1
271
     1
  0
CELLSTYLEMAP
  5
1E5E
102
{ACAD_REACTORS
330
1E5D
102
}
330
1E5D
100
AcDbCellStyleMap
 90
        3
300
CELLSTYLE
  1
TABLEFORMAT_BEGIN
 90
        5
170
     1
 91
        0
 92
    32768
 62
   257
 93
        1
300
CONTENTFORMAT
  1
CONTENTFORMAT_BEGIN
 90
        0
 91
        0
 92
      512
 93
        0
300

 40
0.0
140
1.0
 94
        5
 62
     0
340
11
144
6.0
309
CONTENTFORMAT_END
171
     1
301
MARGIN
  1
CELLMARGIN_BEGIN
 40
1.5
 40
1.5
 40
1.5
 40
1.5
 40
4.5
 40
4.5
309
CELLMARGIN_END
 94
        6
 95
        1
302
GRIDFORMAT
  1
GRIDFORMAT_BEGIN
 90
        0
 91
        1
 62
     0
 92
       -2
340
0
 93
        0
 40
1.125
309
GRIDFORMAT_END
 95
        2
302
GRIDFORMAT
  1
GRIDFORMAT_BEGIN
 90
        0
 91
        1
 62
     0
 92
       -2
340
0
 93
        0
 40
1.125
309
GRIDFORMAT_END
 95
        4
302
GRIDFORMAT
  1
GRIDFORMAT_BEGIN
 90
        0
 91
        1
 62
     0
 92
       -2
340
0
 93
        0
 40
1.125
309
GRIDFORMAT_END
 95
        8
302
GRIDFORMAT
  1
GRIDFORMAT_BEGIN
 90
        0
 91
        1
 62
     0
 92
       -2
340
0
 93
        0
 40
1.125
309
GRIDFORMAT_END
 95
       16
302
GRIDFORMAT
  1
GRIDFORMAT_BEGIN
 90
        0
 91
        1
 62
     0
 92
       -2
340
0
 93
        0
 40
1.125
309
GRIDFORMAT_END
 95
       32
302
GRIDFORMAT
  1
GRIDFORMAT_BEGIN
 90
        0
 91
        1
 62
     0
 92
       -2
340
0
 93
        0
 40
1.125
309
GRIDFORMAT_END
309
TABLEFORMAT_END
  1
CELLSTYLE_BEGIN
 90
        1
 91
        1
300
_TITLE
309
CELLSTYLE_END
300
CELLSTYLE
  1
TABLEFORMAT_BEGIN
 90
        5
170
     1
 91
        0
 92
        0
 62
   257
 93
        1
300
CONTENTFORMAT
  1
CONTENTFORMAT_BEGIN
 90
        0
 91
        0
 92
      512
 93
        0
300

 40
0.0
140
1.0
 94
        5
 62
     0
340
11
144
4.5
309
CONTENTFORMAT_END
171
     1
301
MARGIN
  1
CELLMARGIN_BEGIN
 40
1.5
 40
1.5
 40
1.5
 40
1.5
 40
4.5
 40
4.5
309
CELLMARGIN_END
 94
        6
 95
        1
302
GRIDFORMAT
  1
GRIDFORMAT_BEGIN
 90
        0
 91
        1
 62
     0
 92
       -2
340
0
 93
        0
 40
1.125
309
GRIDFORMAT_END
 95
        2
302
GRIDFORMAT
  1
GRIDFORMAT_BEGIN
 90
        0
 91
        1
 62
     0
 92
       -2
340
0
 93
        0
 40
1.125
309
GRIDFORMAT_END
 95
        4
302
GRIDFORMAT
  1
GRIDFORMAT_BEGIN
 90
        0
 91
        1
 62
     0
 92
       -2
340
0
 93
        0
 40
1.125
309
GRIDFORMAT_END
 95
        8
302
GRIDFORMAT
  1
GRIDFORMAT_BEGIN
 90
        0
 91
        1
 62
     0
 92
       -2
340
0
 93
        0
 40
1.125
309
GRIDFORMAT_END
 95
       16
302
GRIDFORMAT
  1
GRIDFORMAT_BEGIN
 90
        0
 91
        1
 62
     0
 92
       -2
340
0
 93
        0
 40
1.125
309
GRIDFORMAT_END
 95
       32
302
GRIDFORMAT
  1
GRIDFORMAT_BEGIN
 90
        0
 91
        1
 62
     0
 92
       -2
340
0
 93
        0
 40
1.125
309
GRIDFORMAT_END
309
TABLEFORMAT_END
  1
CELLSTYLE_BEGIN
 90
        2
 91
        1
300
_HEADER
309
CELLSTYLE_END
300
CELLSTYLE
  1
TABLEFORMAT_BEGIN
 90
        5
170
     1
 91
        0
 92
        0
 62
   257
 93
        1
300
CONTENTFORMAT
  1
CONTENTFORMAT_BEGIN
 90
        0
 91
        0
 92
      512
 93
        0
300

 40
0.0
140
1.0
 94
        2
 62
     0
340
11
144
4.5
309
CONTENTFORMAT_END
171
     1
301
MARGIN
  1
CELLMARGIN_BEGIN
 40
1.5
 40
1.5
 40
1.5
 40
1.5
 40
4.5
 40
4.5
309
CELLMARGIN_END
 94
        6
 95
        1
302
GRIDFORMAT
  1
GRIDFORMAT_BEGIN
 90
        0
 91
        1
 62
     0
 92
       -2
340
0
 93
        0
 40
1.125
309
GRIDFORMAT_END
 95
        2
302
GRIDFORMAT
  1
GRIDFORMAT_BEGIN
 90
        0
 91
        1
 62
     0
 92
       -2
340
0
 93
        0
 40
1.125
309
GRIDFORMAT_END
 95
        4
302
GRIDFORMAT
  1
GRIDFORMAT_BEGIN
 90
        0
 91
        1
 62
     0
 92
       -2
340
0
 93
        0
 40
1.125
309
GRIDFORMAT_END
 95
        8
302
GRIDFORMAT
  1
GRIDFORMAT_BEGIN
 90
        0
 91
        1
 62
     0
 92
       -2
340
0
 93
        0
 40
1.125
309
GRIDFORMAT_END
 95
       16
302
GRIDFORMAT
  1
GRIDFORMAT_BEGIN
 90
        0
 91
        1
 62
     0
 92
       -2
340
0
 93
        0
 40
1.125
309
GRIDFORMAT_END
 95
       32
302
GRIDFORMAT
  1
GRIDFORMAT_BEGIN
 90
        0
 91
        1
 62
     0
 92
       -2
340
0
 93
        0
 40
1.125
309
GRIDFORMAT_END
309
TABLEFORMAT_END
  1
CELLSTYLE_BEGIN
 90
        3
 91
        2
300
_DATA
309
CELLSTYLE_END
  0
XRECORD
  5
1ECC
102
{ACAD_REACTORS
330
1E5D
102
}
330
1E5D
100
AcDbXrecord
280
     1
102
ACAD_ROUNDTRIP_PRE2007_TABLESTYLE
 90
      512
 91
        0
  1

 92
      512
 93
        0
  2

 94
      512
 95
        0
  3

  0
XRECORD
  5
1EB1
102
{ACAD_REACTORS
330
1EB0
102
}
330
1EB0
100
AcDbXrecord
280
     1
102
RTVSPropertyOp0
 70
     1
102
RTVSPropertyOp1
 70
     1
102
RTVSPropertyOp2
 70
     1
102
RTVSPropertyOp3
 70
     1
102
RTVSPropertyOp4
 70
     1
102
RTVSPropertyOp5
 70
     1
102
RTVSPropertyOp6
 70
     1
102
RTVSPropertyOp7
 70
     1
102
RTVSPropertyOp8
 70
     1
102
RTVSPropertyOp9
 70
     1
102
RTVSPropertyOp10
 70
     1
102
RTVSPropertyOp11
 70
     1
102
RTVSPropertyOp12
 70
     1
102
RTVSPropertyOp13
 70
     1
102
RTVSPropertyOp14
 70
     1
102
RTVSPropertyOp15
 70
     1
102
RTVSPropertyOp16
 70
     1
102
RTVSPropertyOp17
 70
     1
102
RTVSPropertyOp18
 70
     1
102
RTVSPropertyOp19
 70
     1
102
RTVSPropertyOp20
 70
     1
102
RTVSPropertyOp21
 70
     1
102
RTVSPropertyOp22
 70
     1
102
RTVSPropertyOp23
 70
     1
102
RTVSPropertyOp24
 70
     1
102
RTVSPropertyOp25
 70
     1
102
RTVSPropertyOp26
 70
     1
102
RTVSPropertyOp27
 70
     1
  0
XRECORD
  5
1EB5
102
{ACAD_REACTORS
330
1EB4
102
}
330
1EB4
100
AcDbXrecord
280
     1
102
RTVSPropertyOp0
 70
     1
102
RTVSPropertyOp1
 70
     1
102
RTVSPropertyOp2
 70
     1
102
RTVSPropertyOp3
 70
     1
102
RTVSPropertyOp4
 70
     1
102
RTVSPropertyOp5
 70
     1
102
RTVSPropertyOp6
 70
     1
102
RTVSPropertyOp7
 70
     1
102
RTVSPropertyOp8
 70
     1
102
RTVSPropertyOp9
 70
     1
102
RTVSPropertyOp10
 70
     1
102
RTVSPropertyOp11
 70
     1
102
RTVSPropertyOp12
 70
     1
102
RTVSPropertyOp13
 70
     1
102
RTVSPropertyOp14
 70
     1
102
RTVSPropertyOp15
 70
     1
102
RTVSPropertyOp16
 70
     1
102
RTVSPropertyOp17
 70
     1
102
RTVSPropertyOp18
 70
     1
102
RTVSPropertyOp19
 70
     1
102
RTVSPropertyOp20
 70
     1
102
RTVSPropertyOp21
 70
     1
102
RTVSPropertyOp22
 70
     1
102
RTVSPropertyOp23
 70
     1
102
RTVSPropertyOp24
 70
     1
102
RTVSPropertyOp25
 70
     1
102
RTVSPropertyOp26
 70
     1
102
RTVSPropertyOp27
 70
     1
  0
XRECORD
  5
1EB3
102
{ACAD_REACTORS
330
1EB2
102
}
330
1EB2
100
AcDbXrecord
280
     1
102
RTVSPropertyOp0
 70
     1
102
RTVSPropertyOp1
 70
     1
102
RTVSPropertyOp2
 70
     1
102
RTVSPropertyOp3
 70
     1
102
RTVSPropertyOp4
 70
     1
102
RTVSPropertyOp5
 70
     1
102
RTVSPropertyOp6
 70
     1
102
RTVSPropertyOp7
 70
     1
102
RTVSPropertyOp8
 70
     1
102
RTVSPropertyOp9
 70
     1
102
RTVSPropertyOp10
 70
     1
102
RTVSPropertyOp11
 70
     1
102
RTVSPropertyOp12
 70
     1
102
RTVSPropertyOp13
 70
     1
102
RTVSPropertyOp14
 70
     1
102
RTVSPropertyOp15
 70
     1
102
RTVSPropertyOp16
 70
     1
102
RTVSPropertyOp17
 70
     1
102
RTVSPropertyOp18
 70
     1
102
RTVSPropertyOp19
 70
     1
102
RTVSPropertyOp20
 70
     1
102
RTVSPropertyOp21
 70
     1
102
RTVSPropertyOp22
 70
     1
102
RTVSPropertyOp23
 70
     1
102
RTVSPropertyOp24
 70
     1
102
RTVSPropertyOp25
 70
     1
102
RTVSPropertyOp26
 70
     1
102
RTVSPropertyOp27
 70
     1
  0
XRECORD
  5
1EAF
102
{ACAD_REACTORS
330
1EAE
102
}
330
1EAE
100
AcDbXrecord
280
     1
102
RTVSPropertyOp0
 70
     1
102
RTVSPropertyOp1
 70
     1
102
RTVSPropertyOp2
 70
     1
102
RTVSPropertyOp3
 70
     1
102
RTVSPropertyOp4
 70
     1
102
RTVSPropertyOp5
 70
     1
102
RTVSPropertyOp6
 70
     1
102
RTVSPropertyOp7
 70
     1
102
RTVSPropertyOp8
 70
     1
102
RTVSPropertyOp9
 70
     1
102
RTVSPropertyOp10
 70
     1
102
RTVSPropertyOp11
 70
     1
102
RTVSPropertyOp12
 70
     1
102
RTVSPropertyOp13
 70
     1
102
RTVSPropertyOp14
 70
     1
102
RTVSPropertyOp15
 70
     1
102
RTVSPropertyOp16
 70
     1
102
RTVSPropertyOp17
 70
     1
102
RTVSPropertyOp18
 70
     1
102
RTVSPropertyOp19
 70
     1
102
RTVSPropertyOp20
 70
     1
102
RTVSPropertyOp21
 70
     1
102
RTVSPropertyOp22
 70
     1
102
RTVSPropertyOp23
 70
     1
102
RTVSPropertyOp24
 70
     1
102
RTVSPropertyOp25
 70
     1
102
RTVSPropertyOp26
 70
     1
102
RTVSPropertyOp27
 70
     1
  0
XRECORD
  5
1EBD
102
{ACAD_REACTORS
330
1EBC
102
}
330
1EBC
100
AcDbXrecord
280
     1
102
RTVSPropertyOp0
 70
     1
102
RTVSPropertyOp1
 70
     1
102
RTVSPropertyOp2
 70
     1
102
RTVSPropertyOp3
 70
     1
102
RTVSPropertyOp4
 70
     1
102
RTVSPropertyOp5
 70
     1
102
RTVSPropertyOp6
 70
     1
102
RTVSPropertyOp7
 70
     1
102
RTVSPropertyOp8
 70
     1
102
RTVSPropertyOp9
 70
     1
102
RTVSPropertyOp10
 70
     1
102
RTVSPropertyOp11
 70
     1
102
RTVSPropertyOp12
 70
     1
102
RTVSPropertyOp13
 70
     1
102
RTVSPropertyOp14
 70
     1
102
RTVSPropertyOp15
 70
     1
102
RTVSPropertyOp16
 70
     1
102
RTVSPropertyOp17
 70
     1
102
RTVSPropertyOp18
 70
     1
102
RTVSPropertyOp19
 70
     1
102
RTVSPropertyOp20
 70
     1
102
RTVSPropertyOp21
 70
     1
102
RTVSPropertyOp22
 70
     1
102
RTVSPropertyOp23
 70
     1
102
RTVSPropertyOp24
 70
     1
102
RTVSPropertyOp25
 70
     1
102
RTVSPropertyOp26
 70
     1
102
RTVSPropertyOp27
 70
     1
  0
XRECORD
  5
1EC5
102
{ACAD_REACTORS
330
1EC4
102
}
330
1EC4
100
AcDbXrecord
280
     1
102
RTVSPropertyOp0
 70
     1
102
RTVSPropertyOp1
 70
     1
102
RTVSPropertyOp2
 70
     1
102
RTVSPropertyOp3
 70
     1
102
RTVSPropertyOp4
 70
     1
102
RTVSPropertyOp5
 70
     1
102
RTVSPropertyOp6
 70
     1
102
RTVSPropertyOp7
 70
     1
102
RTVSPropertyOp8
 70
     1
102
RTVSPropertyOp9
 70
     1
102
RTVSPropertyOp10
 70
     1
102
RTVSPropertyOp11
 70
     1
102
RTVSPropertyOp12
 70
     1
102
RTVSPropertyOp13
 70
     1
102
RTVSPropertyOp14
 70
     1
102
RTVSPropertyOp15
 70
     1
102
RTVSPropertyOp16
 70
     1
102
RTVSPropertyOp17
 70
     1
102
RTVSPropertyOp18
 70
     1
102
RTVSPropertyOp19
 70
     1
102
RTVSPropertyOp20
 70
     1
102
RTVSPropertyOp21
 70
     1
102
RTVSPropertyOp22
 70
     1
102
RTVSPropertyOp23
 70
     1
102
RTVSPropertyOp24
 70
     1
102
RTVSPropertyOp25
 70
     1
102
RTVSPropertyOp26
 70
     1
102
RTVSPropertyOp27
 70
     1
  0
XRECORD
  5
1EB7
102
{ACAD_REACTORS
330
1EB6
102
}
330
1EB6
100
AcDbXrecord
280
     1
102
RTVSPropertyOp0
 70
     1
102
RTVSPropertyOp1
 70
     1
102
RTVSPropertyOp2
 70
     1
102
RTVSPropertyOp3
 70
     1
102
RTVSPropertyOp4
 70
     1
102
RTVSPropertyOp5
 70
     1
102
RTVSPropertyOp6
 70
     1
102
RTVSPropertyOp7
 70
     1
102
RTVSPropertyOp8
 70
     1
102
RTVSPropertyOp9
 70
     1
102
RTVSPropertyOp10
 70
     1
102
RTVSPropertyOp11
 70
     1
102
RTVSPropertyOp12
 70
     1
102
RTVSPropertyOp13
 70
     1
102
RTVSPropertyOp14
 70
     1
102
RTVSPropertyOp15
 70
     1
102
RTVSPropertyOp16
 70
     1
102
RTVSPropertyOp17
 70
     1
102
RTVSPropertyOp18
 70
     1
102
RTVSPropertyOp19
 70
     1
102
RTVSPropertyOp20
 70
     1
102
RTVSPropertyOp21
 70
     1
102
RTVSPropertyOp22
 70
     1
102
RTVSPropertyOp23
 70
     1
102
RTVSPropertyOp24
 70
     1
102
RTVSPropertyOp25
 70
     1
102
RTVSPropertyOp26
 70
     1
102
RTVSPropertyOp27
 70
     1
  0
XRECORD
  5
1EBB
102
{ACAD_REACTORS
330
1EBA
102
}
330
1EBA
100
AcDbXrecord
280
     1
102
RTVSPropertyOp0
 70
     1
102
RTVSPropertyOp1
 70
     1
102
RTVSPropertyOp2
 70
     1
102
RTVSPropertyOp3
 70
     1
102
RTVSPropertyOp4
 70
     1
102
RTVSPropertyOp5
 70
     1
102
RTVSPropertyOp6
 70
     1
102
RTVSPropertyOp7
 70
     1
102
RTVSPropertyOp8
 70
     1
102
RTVSPropertyOp9
 70
     1
102
RTVSPropertyOp10
 70
     1
102
RTVSPropertyOp11
 70
     1
102
RTVSPropertyOp12
 70
     1
102
RTVSPropertyOp13
 70
     1
102
RTVSPropertyOp14
 70
     1
102
RTVSPropertyOp15
 70
     1
102
RTVSPropertyOp16
 70
     1
102
RTVSPropertyOp17
 70
     1
102
RTVSPropertyOp18
 70
     1
102
RTVSPropertyOp19
 70
     1
102
RTVSPropertyOp20
 70
     1
102
RTVSPropertyOp21
 70
     1
102
RTVSPropertyOp22
 70
     1
102
RTVSPropertyOp23
 70
     1
102
RTVSPropertyOp24
 70
     1
102
RTVSPropertyOp25
 70
     1
102
RTVSPropertyOp26
 70
     1
102
RTVSPropertyOp27
 70
     1
  0
XRECORD
  5
1ECB
102
{ACAD_REACTORS
330
1ECA
102
}
330
1ECA
100
AcDbXrecord
280
     1
102
RTVSPropertyOp0
 70
     0
102
RTVSPropertyOp1
 70
     0
102
RTVSPropertyOp2
 70
     0
102
RTVSPropertyOp3
 70
     0
102
RTVSPropertyOp4
 70
     0
102
RTVSPropertyOp5
 70
     0
102
RTVSPropertyOp6
 70
     0
102
RTVSPropertyOp7
 70
     0
102
RTVSPropertyOp8
 70
     0
102
RTVSPropertyOp9
 70
     0
102
RTVSPropertyOp10
 70
     0
102
RTVSPropertyOp11
 70
     0
102
RTVSPropertyOp12
 70
     0
102
RTVSPropertyOp13
 70
     0
102
RTVSPropertyOp14
 70
     2
102
RTVSPropertyOp15
 70
     0
102
RTVSPropertyOp16
 70
     0
102
RTVSPropertyOp17
 70
     0
102
RTVSPropertyOp18
 70
     0
102
RTVSPropertyOp19
 70
     0
102
RTVSPropertyOp20
 70
     0
102
RTVSPropertyOp21
 70
     0
102
RTVSPropertyOp22
 70
     0
102
RTVSPropertyOp23
 70
     0
102
RTVSPropertyOp24
 70
     0
102
RTVSPropertyOp25
 70
     0
102
RTVSPropertyOp26
 70
     0
102
RTVSPropertyOp27
 70
     0
  0
XRECORD
  5
1EC3
102
{ACAD_REACTORS
330
1EC2
102
}
330
1EC2
100
AcDbXrecord
280
     1
102
RTVSPropertyOp0
 70
     1
102
RTVSPropertyOp1
 70
     1
102
RTVSPropertyOp2
 70
     1
102
RTVSPropertyOp3
 70
     1
102
RTVSPropertyOp4
 70
     1
102
RTVSPropertyOp5
 70
     1
102
RTVSPropertyOp6
 70
     1
102
RTVSPropertyOp7
 70
     1
102
RTVSPropertyOp8
 70
     1
102
RTVSPropertyOp9
 70
     1
102
RTVSPropertyOp10
 70
     1
102
RTVSPropertyOp11
 70
     1
102
RTVSPropertyOp12
 70
     1
102
RTVSPropertyOp13
 70
     1
102
RTVSPropertyOp14
 70
     1
102
RTVSPropertyOp15
 70
     1
102
RTVSPropertyOp16
 70
     1
102
RTVSPropertyOp17
 70
     1
102
RTVSPropertyOp18
 70
     1
102
RTVSPropertyOp19
 70
     1
102
RTVSPropertyOp20
 70
     1
102
RTVSPropertyOp21
 70
     1
102
RTVSPropertyOp22
 70
     1
102
RTVSPropertyOp23
 70
     1
102
RTVSPropertyOp24
 70
     1
102
RTVSPropertyOp25
 70
     1
102
RTVSPropertyOp26
 70
     1
102
RTVSPropertyOp27
 70
     1
  0
XRECORD
  5
1EA7
102
{ACAD_REACTORS
330
1EA6
102
}
330
1EA6
100
AcDbXrecord
280
     1
102
RTVSPropertyOp0
 70
     1
102
RTVSPropertyOp1
 70
     1
102
RTVSPropertyOp2
 70
     1
102
RTVSPropertyOp3
 70
     1
102
RTVSPropertyOp4
 70
     1
102
RTVSPropertyOp5
 70
     1
102
RTVSPropertyOp6
 70
     1
102
RTVSPropertyOp7
 70
     1
102
RTVSPropertyOp8
 70
     1
102
RTVSPropertyOp9
 70
     1
102
RTVSPropertyOp10
 70
     1
102
RTVSPropertyOp11
 70
     1
102
RTVSPropertyOp12
 70
     1
102
RTVSPropertyOp13
 70
     1
102
RTVSPropertyOp14
 70
     1
102
RTVSPropertyOp15
 70
     1
102
RTVSPropertyOp16
 70
     1
102
RTVSPropertyOp17
 70
     1
102
RTVSPropertyOp18
 70
     1
102
RTVSPropertyOp19
 70
     1
102
RTVSPropertyOp20
 70
     1
102
RTVSPropertyOp21
 70
     1
102
RTVSPropertyOp22
 70
     1
102
RTVSPropertyOp23
 70
     1
102
RTVSPropertyOp24
 70
     1
102
RTVSPropertyOp25
 70
     1
102
RTVSPropertyOp26
 70
     1
102
RTVSPropertyOp27
 70
     1
  0
XRECORD
  5
1EA9
102
{ACAD_REACTORS
330
1EA8
102
}
330
1EA8
100
AcDbXrecord
280
     1
102
RTVSPropertyOp0
 70
     1
102
RTVSPropertyOp1
 70
     1
102
RTVSPropertyOp2
 70
     1
102
RTVSPropertyOp3
 70
     1
102
RTVSPropertyOp4
 70
     1
102
RTVSPropertyOp5
 70
     1
102
RTVSPropertyOp6
 70
     1
102
RTVSPropertyOp7
 70
     1
102
RTVSPropertyOp8
 70
     1
102
RTVSPropertyOp9
 70
     1
102
RTVSPropertyOp10
 70
     1
102
RTVSPropertyOp11
 70
     1
102
RTVSPropertyOp12
 70
     1
102
RTVSPropertyOp13
 70
     1
102
RTVSPropertyOp14
 70
     1
102
RTVSPropertyOp15
 70
     1
102
RTVSPropertyOp16
 70
     1
102
RTVSPropertyOp17
 70
     1
102
RTVSPropertyOp18
 70
     1
102
RTVSPropertyOp19
 70
     1
102
RTVSPropertyOp20
 70
     1
102
RTVSPropertyOp21
 70
     1
102
RTVSPropertyOp22
 70
     1
102
RTVSPropertyOp23
 70
     1
102
RTVSPropertyOp24
 70
     1
102
RTVSPropertyOp25
 70
     1
102
RTVSPropertyOp26
 70
     1
102
RTVSPropertyOp27
 70
     1
  0
XRECORD
  5
1EAB
102
{ACAD_REACTORS
330
1EAA
102
}
330
1EAA
100
AcDbXrecord
280
     1
102
RTVSPropertyOp0
 70
     1
102
RTVSPropertyOp1
 70
     1
102
RTVSPropertyOp2
 70
     1
102
RTVSPropertyOp3
 70
     1
102
RTVSPropertyOp4
 70
     1
102
RTVSPropertyOp5
 70
     1
102
RTVSPropertyOp6
 70
     1
102
RTVSPropertyOp7
 70
     1
102
RTVSPropertyOp8
 70
     1
102
RTVSPropertyOp9
 70
     1
102
RTVSPropertyOp10
 70
     1
102
RTVSPropertyOp11
 70
     1
102
RTVSPropertyOp12
 70
     1
102
RTVSPropertyOp13
 70
     1
102
RTVSPropertyOp14
 70
     1
102
RTVSPropertyOp15
 70
     1
102
RTVSPropertyOp16
 70
     1
102
RTVSPropertyOp17
 70
     1
102
RTVSPropertyOp18
 70
     1
102
RTVSPropertyOp19
 70
     1
102
RTVSPropertyOp20
 70
     1
102
RTVSPropertyOp21
 70
     1
102
RTVSPropertyOp22
 70
     1
102
RTVSPropertyOp23
 70
     1
102
RTVSPropertyOp24
 70
     1
102
RTVSPropertyOp25
 70
     1
102
RTVSPropertyOp26
 70
     1
102
RTVSPropertyOp27
 70
     1
  0
XRECORD
  5
1EAD
102
{ACAD_REACTORS
330
1EAC
102
}
330
1EAC
100
AcDbXrecord
280
     1
102
RTVSPropertyOp0
 70
     1
102
RTVSPropertyOp1
 70
     1
102
RTVSPropertyOp2
 70
     1
102
RTVSPropertyOp3
 70
     1
102
RTVSPropertyOp4
 70
     1
102
RTVSPropertyOp5
 70
     1
102
RTVSPropertyOp6
 70
     1
102
RTVSPropertyOp7
 70
     1
102
RTVSPropertyOp8
 70
     1
102
RTVSPropertyOp9
 70
     1
102
RTVSPropertyOp10
 70
     1
102
RTVSPropertyOp11
 70
     1
102
RTVSPropertyOp12
 70
     1
102
RTVSPropertyOp13
 70
     1
102
RTVSPropertyOp14
 70
     1
102
RTVSPropertyOp15
 70
     1
102
RTVSPropertyOp16
 70
     1
102
RTVSPropertyOp17
 70
     1
102
RTVSPropertyOp18
 70
     1
102
RTVSPropertyOp19
 70
     1
102
RTVSPropertyOp20
 70
     1
102
RTVSPropertyOp21
 70
     1
102
RTVSPropertyOp22
 70
     1
102
RTVSPropertyOp23
 70
     1
102
RTVSPropertyOp24
 70
     1
102
RTVSPropertyOp25
 70
     1
102
RTVSPropertyOp26
 70
     1
102
RTVSPropertyOp27
 70
     1
  0
XRECORD
  5
1EC7
102
{ACAD_REACTORS
330
1EC6
102
}
330
1EC6
100
AcDbXrecord
280
     1
102
RTVSPropertyOp0
 70
     0
102
RTVSPropertyOp1
 70
     0
102
RTVSPropertyOp2
 70
     0
102
RTVSPropertyOp3
 70
     0
102
RTVSPropertyOp4
 70
     0
102
RTVSPropertyOp5
 70
     0
102
RTVSPropertyOp6
 70
     0
102
RTVSPropertyOp7
 70
     0
102
RTVSPropertyOp8
 70
     0
102
RTVSPropertyOp9
 70
     0
102
RTVSPropertyOp10
 70
     0
102
RTVSPropertyOp11
 70
     0
102
RTVSPropertyOp12
 70
     0
102
RTVSPropertyOp13
 70
     0
102
RTVSPropertyOp14
 70
     2
102
RTVSPropertyOp15
 70
     0
102
RTVSPropertyOp16
 70
     0
102
RTVSPropertyOp17
 70
     0
102
RTVSPropertyOp18
 70
     0
102
RTVSPropertyOp19
 70
     0
102
RTVSPropertyOp20
 70
     0
102
RTVSPropertyOp21
 70
     0
102
RTVSPropertyOp22
 70
     0
102
RTVSPropertyOp23
 70
     0
102
RTVSPropertyOp24
 70
     0
102
RTVSPropertyOp25
 70
     0
102
RTVSPropertyOp26
 70
     0
102
RTVSPropertyOp27
 70
     0
  0
XRECORD
  5
1EC1
102
{ACAD_REACTORS
330
1EC0
102
}
330
1EC0
100
AcDbXrecord
280
     1
102
RTVSPropertyOp0
 70
     1
102
RTVSPropertyOp1
 70
     1
102
RTVSPropertyOp2
 70
     1
102
RTVSPropertyOp3
 70
     1
102
RTVSPropertyOp4
 70
     1
102
RTVSPropertyOp5
 70
     1
102
RTVSPropertyOp6
 70
     1
102
RTVSPropertyOp7
 70
     1
102
RTVSPropertyOp8
 70
     1
102
RTVSPropertyOp9
 70
     1
102
RTVSPropertyOp10
 70
     1
102
RTVSPropertyOp11
 70
     1
102
RTVSPropertyOp12
 70
     1
102
RTVSPropertyOp13
 70
     1
102
RTVSPropertyOp14
 70
     1
102
RTVSPropertyOp15
 70
     1
102
RTVSPropertyOp16
 70
     1
102
RTVSPropertyOp17
 70
     1
102
RTVSPropertyOp18
 70
     1
102
RTVSPropertyOp19
 70
     1
102
RTVSPropertyOp20
 70
     1
102
RTVSPropertyOp21
 70
     1
102
RTVSPropertyOp22
 70
     1
102
RTVSPropertyOp23
 70
     1
102
RTVSPropertyOp24
 70
     1
102
RTVSPropertyOp25
 70
     1
102
RTVSPropertyOp26
 70
     1
102
RTVSPropertyOp27
 70
     1
  0
XRECORD
  5
1EC9
102
{ACAD_REACTORS
330
1EC8
102
}
330
1EC8
100
AcDbXrecord
280
     1
102
RTVSPropertyOp0
 70
     0
102
RTVSPropertyOp1
 70
     0
102
RTVSPropertyOp2
 70
     0
102
RTVSPropertyOp3
 70
     0
102
RTVSPropertyOp4
 70
     0
102
RTVSPropertyOp5
 70
     0
102
RTVSPropertyOp6
 70
     0
102
RTVSPropertyOp7
 70
     0
102
RTVSPropertyOp8
 70
     0
102
RTVSPropertyOp9
 70
     0
102
RTVSPropertyOp10
 70
     0
102
RTVSPropertyOp11
 70
     0
102
RTVSPropertyOp12
 70
     0
102
RTVSPropertyOp13
 70
     0
102
RTVSPropertyOp14
 70
     2
102
RTVSPropertyOp15
 70
     0
102
RTVSPropertyOp16
 70
     0
102
RTVSPropertyOp17
 70
     0
102
RTVSPropertyOp18
 70
     0
102
RTVSPropertyOp19
 70
     0
102
RTVSPropertyOp20
 70
     0
102
RTVSPropertyOp21
 70
     0
102
RTVSPropertyOp22
 70
     0
102
RTVSPropertyOp23
 70
     0
102
RTVSPropertyOp24
 70
     0
102
RTVSPropertyOp25
 70
     0
102
RTVSPropertyOp26
 70
     0
102
RTVSPropertyOp27
 70
     0
  0
XRECORD
  5
1EB9
102
{ACAD_REACTORS
330
1EB8
102
}
330
1EB8
100
AcDbXrecord
280
     1
102
RTVSPropertyOp0
 70
     1
102
RTVSPropertyOp1
 70
     1
102
RTVSPropertyOp2
 70
     1
102
RTVSPropertyOp3
 70
     1
102
RTVSPropertyOp4
 70
     1
102
RTVSPropertyOp5
 70
     1
102
RTVSPropertyOp6
 70
     1
102
RTVSPropertyOp7
 70
     1
102
RTVSPropertyOp8
 70
     1
102
RTVSPropertyOp9
 70
     1
102
RTVSPropertyOp10
 70
     1
102
RTVSPropertyOp11
 70
     1
102
RTVSPropertyOp12
 70
     1
102
RTVSPropertyOp13
 70
     1
102
RTVSPropertyOp14
 70
     1
102
RTVSPropertyOp15
 70
     1
102
RTVSPropertyOp16
 70
     1
102
RTVSPropertyOp17
 70
     1
102
RTVSPropertyOp18
 70
     1
102
RTVSPropertyOp19
 70
     1
102
RTVSPropertyOp20
 70
     1
102
RTVSPropertyOp21
 70
     1
102
RTVSPropertyOp22
 70
     1
102
RTVSPropertyOp23
 70
     1
102
RTVSPropertyOp24
 70
     1
102
RTVSPropertyOp25
 70
     1
102
RTVSPropertyOp26
 70
     1
102
RTVSPropertyOp27
 70
     1
  0
XRECORD
  5
1EBF
102
{ACAD_REACTORS
330
1EBE
102
}
330
1EBE
100
AcDbXrecord
280
     1
102
RTVSPropertyOp0
 70
     1
102
RTVSPropertyOp1
 70
     1
102
RTVSPropertyOp2
 70
     1
102
RTVSPropertyOp3
 70
     1
102
RTVSPropertyOp4
 70
     1
102
RTVSPropertyOp5
 70
     1
102
RTVSPropertyOp6
 70
     1
102
RTVSPropertyOp7
 70
     1
102
RTVSPropertyOp8
 70
     1
102
RTVSPropertyOp9
 70
     1
102
RTVSPropertyOp10
 70
     1
102
RTVSPropertyOp11
 70
     1
102
RTVSPropertyOp12
 70
     1
102
RTVSPropertyOp13
 70
     1
102
RTVSPropertyOp14
 70
     1
102
RTVSPropertyOp15
 70
     1
102
RTVSPropertyOp16
 70
     1
102
RTVSPropertyOp17
 70
     1
102
RTVSPropertyOp18
 70
     1
102
RTVSPropertyOp19
 70
     1
102
RTVSPropertyOp20
 70
     1
102
RTVSPropertyOp21
 70
     1
102
RTVSPropertyOp22
 70
     1
102
RTVSPropertyOp23
 70
     1
102
RTVSPropertyOp24
 70
     1
102
RTVSPropertyOp25
 70
     1
102
RTVSPropertyOp26
 70
     1
102
RTVSPropertyOp27
 70
     1
  0
ENDSEC
  0
EOF
