  0
SECTION
  2
HEADER
  9
$ACADVER
  1
AC1015
  9
$ACADMAINTVER
 70
    20
  9
$DWGCODEPAGE
  3
ANSI_1252
  9
$INSBASE
 10
0.0
 20
0.0
 30
0.0
  9
$EXTMIN
 10
72.77077383338369
 20
147.1836098695182
 30
0.0
  9
$EXTMAX
 10
75.44379742565443
 20
148.0436098685526
 30
0.0
  9
$LIMMIN
 10
0.0
 20
0.0
  9
$LIMMAX
 10
420.0
 20
297.0
  9
$ORTHOMODE
 70
     0
  9
$REGENMODE
 70
     1
  9
$FILLMODE
 70
     1
  9
$QTEXTMODE
 70
     0
  9
$MIRRTEXT
 70
     0
  9
$LTSCALE
 40
1.0
  9
$ATTMODE
 70
     1
  9
$TEXTSIZE
 40
2.5
  9
$TRACEWID
 40
1.0
  9
$TEXTSTYLE
  7
Standard
  9
$CLAYER
  8
0
  9
$CELTYPE
  6
ByLayer
  9
$CECOLOR
 62
   256
  9
$CELTSCALE
 40
1.0
  9
$DISPSILH
 70
     0
  9
$DIMSCALE
 40
1.0
  9
$DIMASZ
 40
2.5
  9
$DIMEXO
 40
0.625
  9
$DIMDLI
 40
3.75
  9
$DIMRND
 40
0.0
  9
$DIMDLE
 40
0.0
  9
$DIMEXE
 40
1.25
  9
$DIMTP
 40
0.0
  9
$DIMTM
 40
0.0
  9
$DIMTXT
 40
2.5
  9
$DIMCEN
 40
2.5
  9
$DIMTSZ
 40
0.0
  9
$DIMTOL
 70
     0
  9
$DIMLIM
 70
     0
  9
$DIMTIH
 70
     0
  9
$DIMTOH
 70
     0
  9
$DIMSE1
 70
     0
  9
$DIMSE2
 70
     0
  9
$DIMTAD
 70
     1
  9
$DIMZIN
 70
     8
  9
$DIMBLK
  1

  9
$DIMASO
 70
     1
  9
$DIMSHO
 70
     1
  9
$DIMPOST
  1

  9
$DIMAPOST
  1

  9
$DIMALT
 70
     0
  9
$DIMALTD
 70
     3
  9
$DIMALTF
 40
0.03937007874016
  9
$DIMLFAC
 40
1.0
  9
$DIMTOFL
 70
     1
  9
$DIMTVP
 40
0.0
  9
$DIMTIX
 70
     0
  9
$DIMSOXD
 70
     0
  9
$DIMSAH
 70
     0
  9
$DIMBLK1
  1

  9
$DIMBLK2
  1

  9
$DIMSTYLE
  2
ISO-25
  9
$DIMCLRD
 70
     0
  9
$DIMCLRE
 70
     0
  9
$DIMCLRT
 70
     0
  9
$DIMTFAC
 40
1.0
  9
$DIMGAP
 40
0.625
  9
$DIMJUST
 70
     0
  9
$DIMSD1
 70
     0
  9
$DIMSD2
 70
     0
  9
$DIMTOLJ
 70
     0
  9
$DIMTZIN
 70
     8
  9
$DIMALTZ
 70
     0
  9
$DIMALTTZ
 70
     0
  9
$DIMUPT
 70
     0
  9
$DIMDEC
 70
     2
  9
$DIMTDEC
 70
     2
  9
$DIMALTU
 70
     2
  9
$DIMALTTD
 70
     3
  9
$DIMTXSTY
  7
Standard
  9
$DIMAUNIT
 70
     0
  9
$DIMADEC
 70
     0
  9
$DIMALTRND
 40
0.0
  9
$DIMAZIN
 70
     0
  9
$DIMDSEP
 70
    44
  9
$DIMATFIT
 70
     3
  9
$DIMFRAC
 70
     0
  9
$DIMLDRBLK
  1

  9
$DIMLUNIT
 70
     2
  9
$DIMLWD
 70
    -2
  9
$DIMLWE
 70
    -2
  9
$DIMTMOVE
 70
     0
  9
$LUNITS
 70
     2
  9
$LUPREC
 70
     4
  9
$SKETCHINC
 40
1.0
  9
$FILLETRAD
 40
0.0
  9
$AUNITS
 70
     0
  9
$AUPREC
 70
     0
  9
$MENU
  1
.
  9
$ELEVATION
 40
0.0
  9
$PELEVATION
 40
0.0
  9
$THICKNESS
 40
0.0
  9
$LIMCHECK
 70
     0
  9
$CHAMFERA
 40
0.0
  9
$CHAMFERB
 40
0.0
  9
$CHAMFERC
 40
0.0
  9
$CHAMFERD
 40
0.0
  9
$SKPOLY
 70
     0
  9
$TDCREATE
 40
2453909.694926933
  9
$TDUCREATE
 40
2453909.653260267
  9
$TDUPDATE
 40
2456141.716995081
  9
$TDUUPDATE
 40
2456141.675328415
  9
$TDINDWG
 40
0.0156076389
  9
$TDUSRTIMER
 40
0.0156072801
  9
$USRTIMER
 70
     1
  9
$ANGBASE
 50
0.0
  9
$ANGDIR
 70
     0
  9
$PDMODE
 70
     0
  9
$PDSIZE
 40
0.0
  9
$PLINEWID
 40
0.0
  9
$SPLFRAME
 70
     0
  9
$SPLINETYPE
 70
     6
  9
$SPLINESEGS
 70
     8
  9
$HANDSEED
  5
2C6
  9
$SURFTAB1
 70
     6
  9
$SURFTAB2
 70
     6
  9
$SURFTYPE
 70
     6
  9
$SURFU
 70
     6
  9
$SURFV
 70
     6
  9
$UCSBASE
  2

  9
$UCSNAME
  2

  9
$UCSORG
 10
0.0
 20
0.0
 30
0.0
  9
$UCSXDIR
 10
1.0
 20
0.0
 30
0.0
  9
$UCSYDIR
 10
0.0
 20
1.0
 30
0.0
  9
$UCSORTHOREF
  2

  9
$UCSORTHOVIEW
 70
     0
  9
$UCSORGTOP
 10
0.0
 20
0.0
 30
0.0
  9
$UCSORGBOTTOM
 10
0.0
 20
0.0
 30
0.0
  9
$UCSORGLEFT
 10
0.0
 20
0.0
 30
0.0
  9
$UCSORGRIGHT
 10
0.0
 20
0.0
 30
0.0
  9
$UCSORGFRONT
 10
0.0
 20
0.0
 30
0.0
  9
$UCSORGBACK
 10
0.0
 20
0.0
 30
0.0
  9
$PUCSBASE
  2

  9
$PUCSNAME
  2

  9
$PUCSORG
 10
0.0
 20
0.0
 30
0.0
  9
$PUCSXDIR
 10
1.0
 20
0.0
 30
0.0
  9
$PUCSYDIR
 10
0.0
 20
1.0
 30
0.0
  9
$PUCSORTHOREF
  2

  9
$PUCSORTHOVIEW
 70
     0
  9
$PUCSORGTOP
 10
0.0
 20
0.0
 30
0.0
  9
$PUCSORGBOTTOM
 10
0.0
 20
0.0
 30
0.0
  9
$PUCSORGLEFT
 10
0.0
 20
0.0
 30
0.0
  9
$PUCSORGRIGHT
 10
0.0
 20
0.0
 30
0.0
  9
$PUCSORGFRONT
 10
0.0
 20
0.0
 30
0.0
  9
$PUCSORGBACK
 10
0.0
 20
0.0
 30
0.0
  9
$USERI1
 70
     0
  9
$USERI2
 70
     0
  9
$USERI3
 70
     0
  9
$USERI4
 70
     0
  9
$USERI5
 70
     0
  9
$USERR1
 40
0.0
  9
$USERR2
 40
0.0
  9
$USERR3
 40
0.0
  9
$USERR4
 40
0.0
  9
$USERR5
 40
0.0
  9
$WORLDVIEW
 70
     1
  9
$SHADEDGE
 70
     3
  9
$SHADEDIF
 70
    70
  9
$TILEMODE
 70
     1
  9
$MAXACTVP
 70
    64
  9
$PINSBASE
 10
0.0
 20
0.0
 30
0.0
  9
$PLIMCHECK
 70
     0
  9
$PEXTMIN
 10
1.000000000000000E+20
 20
1.000000000000000E+20
 30
1.000000000000000E+20
  9
$PEXTMAX
 10
-1.000000000000000E+20
 20
-1.000000000000000E+20
 30
-1.000000000000000E+20
  9
$PLIMMIN
 10
0.0
 20
0.0
  9
$PLIMMAX
 10
420.0
 20
297.0
  9
$UNITMODE
 70
     0
  9
$VISRETAIN
 70
     1
  9
$PLINEGEN
 70
     0
  9
$PSLTSCALE
 70
     1
  9
$TREEDEPTH
 70
  3020
  9
$CMLSTYLE
  2
Standard
  9
$CMLJUST
 70
     0
  9
$CMLSCALE
 40
20.0
  9
$PROXYGRAPHICS
 70
     1
  9
$MEASUREMENT
 70
     1
  9
$CELWEIGHT
370
    -1
  9
$ENDCAPS
280
     0
  9
$JOINSTYLE
280
     0
  9
$LWDISPLAY
290
     0
  9
$INSUNITS
 70
     4
  9
$HYPERLINKBASE
  1

  9
$STYLESHEET
  1

  9
$XEDIT
290
     1
  9
$CEPSNTYPE
380
     0
  9
$PSTYLEMODE
290
     1
  9
$FINGERPRINTGUID
  2
{8D0C7C88-7F21-4691-93A7-E5A69F982286}
  9
$VERSIONGUID
  2
{8B6570A5-D1E6-48F4-9A61-527DF1874ADD}
  9
$EXTNAMES
290
     1
  9
$PSVPSCALE
 40
0.0
  9
$OLESTARTUP
290
     0
  0
ENDSEC
  0
SECTION
  2
CLASSES
  0
CLASS
  1
ACDBDICTIONARYWDFLT
  2
AcDbDictionaryWithDefault
  3
ObjectDBX Classes
 90
        0
280
     0
281
     0
  0
CLASS
  1
TABLESTYLE
  2
AcDbTableStyle
  3
ObjectDBX Classes
 90
     4095
280
     0
281
     0
  0
CLASS
  1
DICTIONARYVAR
  2
AcDbDictionaryVar
  3
ObjectDBX Classes
 90
        0
280
     0
281
     0
  0
CLASS
  1
ACDBPLACEHOLDER
  2
AcDbPlaceHolder
  3
ObjectDBX Classes
 90
        0
280
     0
281
     0
  0
CLASS
  1
LAYOUT
  2
AcDbLayout
  3
ObjectDBX Classes
 90
        0
280
     0
281
     0
  0
CLASS
  1
MATERIAL
  2
AcDbMaterial
  3
ObjectDBX Classes
 90
     1153
280
     0
281
     0
  0
CLASS
  1
VISUALSTYLE
  2
AcDbVisualStyle
  3
ObjectDBX Classes
 90
     4095
280
     0
281
     0
  0
CLASS
  1
SCALE
  2
AcDbScale
  3
ObjectDBX Classes
 90
     1153
280
     0
281
     0
  0
CLASS
  1
MLEADERSTYLE
  2
AcDbMLeaderStyle
  3
ACDB_MLEADERSTYLE_CLASS
 90
     4095
280
     0
281
     0
  0
CLASS
  1
CELLSTYLEMAP
  2
AcDbCellStyleMap
  3
ObjectDBX Classes
 90
     1152
280
     0
281
     0
  0
ENDSEC
  0
SECTION
  2
TABLES
  0
TABLE
  2
VPORT
  5
8
330
0
100
AcDbSymbolTable
 70
     1
  0
VPORT
  5
239
330
8
100
AcDbSymbolTableRecord
100
AcDbViewportTableRecord
  2
*Active
 70
     0
 10
0.0
 20
0.0
 11
1.0
 21
1.0
 12
74.1473690463056
 22
147.6049582710314
 13
0.0
 23
0.0
 14
10.0
 24
10.0
 15
10.0
 25
10.0
 16
0.0
 26
0.0
 36
1.0
 17
0.0
 27
0.0
 37
0.0
 40
1.695092045541597
 41
1.645464025026068
 42
50.0
 43
0.0
 44
0.0
 50
0.0
 51
0.0
 71
     0
 72
  1000
 73
     1
 74
     3
 75
     0
 76
     0
 77
     0
 78
     0
281
     0
 65
     1
110
0.0
120
0.0
130
0.0
111
1.0
121
0.0
131
0.0
112
0.0
122
1.0
132
0.0
 79
     0
146
0.0
  0
ENDTAB
  0
TABLE
  2
LTYPE
  5
5
330
0
100
AcDbSymbolTable
 70
     1
  0
LTYPE
  5
14
330
5
100
AcDbSymbolTableRecord
100
AcDbLinetypeTableRecord
  2
ByBlock
 70
     0
  3

 72
    65
 73
     0
 40
0.0
  0
LTYPE
  5
15
330
5
100
AcDbSymbolTableRecord
100
AcDbLinetypeTableRecord
  2
ByLayer
 70
     0
  3

 72
    65
 73
     0
 40
0.0
  0
LTYPE
  5
16
330
5
100
AcDbSymbolTableRecord
100
AcDbLinetypeTableRecord
  2
Continuous
 70
     0
  3
Solid line
 72
    65
 73
     0
 40
0.0
  0
ENDTAB
  0
TABLE
  2
LAYER
  5
2
330
0
100
AcDbSymbolTable
 70
     2
  0
LAYER
  5
10
102
{ACAD_XDICTIONARY
360
288
102
}
330
2
100
AcDbSymbolTableRecord
100
AcDbLayerTableRecord
  2
0
 70
     0
 62
     7
  6
Continuous
370
    -3
390
F
  0
LAYER
  5
2F
102
{ACAD_XDICTIONARY
360
28A
102
}
330
2
100
AcDbSymbolTableRecord
100
AcDbLayerTableRecord
  2
BLOCKS
 70
     0
 62
     3
  6
Continuous
370
    -3
390
F
  0
ENDTAB
  0
TABLE
  2
STYLE
  5
3
330
0
100
AcDbSymbolTable
 70
     2
  0
STYLE
  5
11
330
3
100
AcDbSymbolTableRecord
100
AcDbTextStyleTableRecord
  2
Standard
 70
     0
 40
0.0
 41
1.0
 50
0.0
 71
     0
 42
2.5
  3
txt
  4

  0
STYLE
  5
30
330
3
100
AcDbSymbolTableRecord
100
AcDbTextStyleTableRecord
  2
cotas
 70
     0
 40
2.0
 41
0.8
 50
0.0
 71
     0
 42
4.0
  3
ISOCP.shx
  4

  0
ENDTAB
  0
TABLE
  2
VIEW
  5
6
330
0
100
AcDbSymbolTable
 70
     0
  0
ENDTAB
  0
TABLE
  2
UCS
  5
7
330
0
100
AcDbSymbolTable
 70
     0
  0
ENDTAB
  0
TABLE
  2
APPID
  5
9
330
0
100
AcDbSymbolTable
 70
     3
  0
APPID
  5
12
330
9
100
AcDbSymbolTableRecord
100
AcDbRegAppTableRecord
  2
ACAD
 70
     0
  0
APPID
  5
59
330
9
100
AcDbSymbolTableRecord
100
AcDbRegAppTableRecord
  2
DCO15
 70
     0
  0
APPID
  5
2C5
330
9
100
AcDbSymbolTableRecord
100
AcDbRegAppTableRecord
  2
ACAD_MLEADERVER
 70
     0
  0
ENDTAB
  0
TABLE
  2
DIMSTYLE
  5
A
330
0
100
AcDbSymbolTable
 70
     1
100
AcDbDimStyleTable
 71
     0
  0
DIMSTYLE
105
2B
330
A
100
AcDbSymbolTableRecord
100
AcDbDimStyleTableRecord
  2
ISO-25
 70
     0
 41
2.5
 42
0.625
 43
3.75
 44
1.25
 73
     0
 74
     0
 77
     1
 78
     8
140
2.5
141
2.5
143
0.03937007874016
147
0.625
171
     3
172
     1
271
     2
272
     2
274
     3
278
    44
283
     0
284
     8
340
11
  0
ENDTAB
  0
TABLE
  2
BLOCK_RECORD
  5
1
330
0
100
AcDbSymbolTable
 70
    21
  0
BLOCK_RECORD
  5
23
330
1
100
AcDbSymbolTableRecord
100
AcDbBlockTableRecord
  2
*Model_Space
340
26
  0
BLOCK_RECORD
  5
1F
330
1
100
AcDbSymbolTableRecord
100
AcDbBlockTableRecord
  2
*Paper_Space
340
22
  0
BLOCK_RECORD
  5
27
330
1
100
AcDbSymbolTableRecord
100
AcDbBlockTableRecord
  2
*Paper_Space0
340
2A
  0
BLOCK_RECORD
  5
31
330
1
100
AcDbSymbolTableRecord
100
AcDbBlockTableRecord
  2
103410PL
340
0
1001
ACAD
1000
DesignCenter Data
1002
{
1070
     1
1070
     4
1002
}
  0
BLOCK_RECORD
  5
3C
330
1
100
AcDbSymbolTableRecord
100
AcDbBlockTableRecord
  2
103410CT
340
0
1001
ACAD
1000
DesignCenter Data
1002
{
1070
     1
1070
     4
1002
}
  0
BLOCK_RECORD
  5
4B
330
1
100
AcDbSymbolTableRecord
100
AcDbBlockTableRecord
  2
103410AL
340
0
1001
ACAD
1000
DesignCenter Data
1002
{
1070
     1
1070
     4
1002
}
  0
BLOCK_RECORD
  5
51
330
1
100
AcDbSymbolTableRecord
100
AcDbBlockTableRecord
  2
103410AF
340
0
1001
ACAD
1000
DesignCenter Data
1002
{
1070
     1
1070
     4
1002
}
  0
BLOCK_RECORD
  5
82
330
1
100
AcDbSymbolTableRecord
100
AcDbBlockTableRecord
  2
103350PL
340
0
1001
ACAD
1000
DesignCenter Data
1002
{
1070
     1
1070
     4
1002
}
  0
BLOCK_RECORD
  5
91
330
1
100
AcDbSymbolTableRecord
100
AcDbBlockTableRecord
  2
103350CT
340
0
1001
ACAD
1000
DesignCenter Data
1002
{
1070
     1
1070
     4
1002
}
  0
BLOCK_RECORD
  5
9F
330
1
100
AcDbSymbolTableRecord
100
AcDbBlockTableRecord
  2
103350AL
340
0
1001
ACAD
1000
DesignCenter Data
1002
{
1070
     1
1070
     4
1002
}
  0
BLOCK_RECORD
  5
A7
330
1
100
AcDbSymbolTableRecord
100
AcDbBlockTableRecord
  2
103350AF
340
0
1001
ACAD
1000
DesignCenter Data
1002
{
1070
     1
1070
     4
1002
}
  0
BLOCK_RECORD
  5
D5
330
1
100
AcDbSymbolTableRecord
100
AcDbBlockTableRecord
  2
103321PL
340
0
1001
ACAD
1000
DesignCenter Data
1002
{
1070
     1
1070
     4
1002
}
  0
BLOCK_RECORD
  5
DF
330
1
100
AcDbSymbolTableRecord
100
AcDbBlockTableRecord
  2
103320CT
340
0
1001
ACAD
1000
DesignCenter Data
1002
{
1070
     1
1070
     4
1002
}
  0
BLOCK_RECORD
  5
137
330
1
100
AcDbSymbolTableRecord
100
AcDbBlockTableRecord
  2
103320AL
340
0
1001
ACAD
1000
DesignCenter Data
1002
{
1070
     1
1070
     4
1002
}
  0
BLOCK_RECORD
  5
156
330
1
100
AcDbSymbolTableRecord
100
AcDbBlockTableRecord
  2
103320AF
340
0
1001
ACAD
1000
DesignCenter Data
1002
{
1070
     1
1070
     4
1002
}
  0
BLOCK_RECORD
  5
19F
330
1
100
AcDbSymbolTableRecord
100
AcDbBlockTableRecord
  2
103310PL
340
0
1001
ACAD
1000
DesignCenter Data
1002
{
1070
     1
1070
     4
1002
}
  0
BLOCK_RECORD
  5
1A9
330
1
100
AcDbSymbolTableRecord
100
AcDbBlockTableRecord
  2
103310CT
340
0
1001
ACAD
1000
DesignCenter Data
1002
{
1070
     1
1070
     4
1002
}
  0
BLOCK_RECORD
  5
1C2
330
1
100
AcDbSymbolTableRecord
100
AcDbBlockTableRecord
  2
103310AL
340
0
1001
ACAD
1000
DesignCenter Data
1002
{
1070
     1
1070
     4
1002
}
  0
BLOCK_RECORD
  5
1CA
330
1
100
AcDbSymbolTableRecord
100
AcDbBlockTableRecord
  2
103310AF
340
0
1001
ACAD
1000
DesignCenter Data
1002
{
1070
     1
1070
     4
1002
}
  0
BLOCK_RECORD
  5
1F5
330
1
100
AcDbSymbolTableRecord
100
AcDbBlockTableRecord
  2
103300PL
340
0
102
{BLKREFS
331
203
102
}
1001
ACAD
1000
DesignCenter Data
1002
{
1070
     1
1070
     4
1002
}
  0
BLOCK_RECORD
  5
204
330
1
100
AcDbSymbolTableRecord
100
AcDbBlockTableRecord
  2
103300CT
340
0
102
{BLKREFS
331
213
102
}
1001
ACAD
1000
DesignCenter Data
1002
{
1070
     1
1070
     4
1002
}
  0
BLOCK_RECORD
  5
214
330
1
100
AcDbSymbolTableRecord
100
AcDbBlockTableRecord
  2
103300AL
340
0
102
{BLKREFS
331
21B
102
}
1001
ACAD
1000
DesignCenter Data
1002
{
1070
     1
1070
     4
1002
}
  0
BLOCK_RECORD
  5
21C
330
1
100
AcDbSymbolTableRecord
100
AcDbBlockTableRecord
  2
103300AF
340
0
102
{BLKREFS
331
222
102
}
1001
ACAD
1000
DesignCenter Data
1002
{
1070
     1
1070
     4
1002
}
  0
ENDTAB
  0
ENDSEC
  0
SECTION
  2
BLOCKS
  0
BLOCK
  5
24
330
23
100
AcDbEntity
  8
0
100
AcDbBlockBegin
  2
*Model_Space
 70
     0
 10
0.0
 20
0.0
 30
0.0
  3
*Model_Space
  1

  0
ENDBLK
  5
25
330
23
100
AcDbEntity
  8
0
100
AcDbBlockEnd
  0
BLOCK
  5
20
330
1F
100
AcDbEntity
 67
     1
  8
0
100
AcDbBlockBegin
  2
*Paper_Space
 70
     0
 10
0.0
 20
0.0
 30
0.0
  3
*Paper_Space
  1

  0
ENDBLK
  5
21
330
1F
100
AcDbEntity
 67
     1
  8
0
100
AcDbBlockEnd
  0
BLOCK
  5
28
330
27
100
AcDbEntity
 67
     1
  8
0
100
AcDbBlockBegin
  2
*Paper_Space0
 70
     0
 10
0.0
 20
0.0
 30
0.0
  3
*Paper_Space0
  1

  0
ENDBLK
  5
29
330
27
100
AcDbEntity
 67
     1
  8
0
100
AcDbBlockEnd
  0
BLOCK
  5
38
330
31
100
AcDbEntity
  8
0
100
AcDbBlockBegin
  2
103410PL
 70
     0
 10
0.0
 20
0.0
 30
0.0
  3
103410PL
  1

  0
LWPOLYLINE
  5
32
330
31
100
AcDbEntity
  8
BLOCKS
100
AcDbPolyline
 90
        4
 70
     0
 43
0.0
 10
0.1284660000000031
 20
-0.0103220000000874
 42
-0.257897
 10
0.1200000000000045
 20
-0.0150000000001001
 10
-0.1200000000000045
 20
-0.0150000000001001
 42
-0.257897
 10
-0.1284660000000031
 20
-0.0103220000000874
  0
CIRCLE
  5
33
330
31
100
AcDbEntity
  8
BLOCKS
100
AcDbCircle
 10
0.0
 20
-0.1950000000000511
 30
0.0
 40
0.0225
  0
CIRCLE
  5
34
330
31
100
AcDbEntity
  8
BLOCKS
100
AcDbCircle
 10
0.0
 20
-0.0600000000000591
 30
0.0
 40
0.0175
  0
LWPOLYLINE
  5
35
330
31
100
AcDbEntity
  8
BLOCKS
100
AcDbPolyline
 90
        2
 70
     0
 43
0.0
 10
0.1644730000000436
 20
-0.1851390000000504
 42
0.365648
 10
-0.1644730000000436
 20
-0.1851390000000504
 42
0.365648
  0
LWPOLYLINE
  5
36
330
31
100
AcDbEntity
  8
BLOCKS
100
AcDbPolyline
 90
       12
 70
     1
 43
0.0
 10
-0.125
 20
-0.3581540000000143
 42
0.104355
 10
-0.1075230000000147
 20
-0.4409800000000826
 42
0.162005
 10
-0.06751799999995
 20
-0.4850450000000149
 42
0.295545
 10
0.06751799999995
 20
-0.4850450000000149
 42
0.162005
 10
0.1075230000000147
 20
-0.4409800000000826
 42
0.104355
 10
0.125
 20
-0.3581540000000143
 10
0.125
 20
-0.2718460000000971
 42
0.104355
 10
0.1075230000000147
 20
-0.1890200000000288
 42
0.162005
 10
0.06751799999995
 20
-0.1449550000000954
 42
0.295545
 10
-0.06751799999995
 20
-0.1449550000000954
 42
0.162005
 10
-0.1075230000000147
 20
-0.1890200000000288
 42
0.104355
 10
-0.125
 20
-0.2718460000000971
  0
LWPOLYLINE
  5
37
330
31
100
AcDbEntity
  8
BLOCKS
100
AcDbPolyline
 90
       12
 70
     1
 43
0.0
 10
-0.1578339999999798
 20
-0.4632010000000276
 42
-0.104355
 10
-0.17999999999995
 20
-0.3581540000000143
 10
-0.17999999999995
 20
-0.2632950000000858
 42
-0.025578
 10
-0.1654959999999619
 20
-0.0832570000000033
 42
-0.16198
 10
-0.125
 20
0.0
 10
0.125
 20
0.0
 42
-0.16198
 10
0.1654959999999619
 20
-0.0832570000000033
 42
-0.025578
 10
0.17999999999995
 20
-0.2632950000000858
 10
0.17999999999995
 20
-0.3581540000000143
 42
-0.104355
 10
0.1578339999999798
 20
-0.4632010000000276
 42
-0.158993
 10
0.0960079999999835
 20
-0.5321120000000985
 42
-0.290475
 10
-0.0960079999999835
 20
-0.5321120000000985
 42
-0.158993
  0
ENDBLK
  5
39
330
31
100
AcDbEntity
  8
0
100
AcDbBlockEnd
  0
BLOCK
  5
48
330
3C
100
AcDbEntity
  8
0
100
AcDbBlockBegin
  2
103410CT
 70
     0
 10
0.0
 20
0.0
 30
0.0
  3
103410CT
  1

  0
LWPOLYLINE
  5
3D
330
3C
100
AcDbEntity
  8
BLOCKS
100
AcDbPolyline
 90
        6
 70
     1
 43
0.0
 10
0.4949970000000122
 20
0.3146040000000312
 42
0.8862950000000001
 10
0.497869000000037
 20
0.3118620000000192
 42
0.145224
 10
0.541543000000047
 20
0.3764850000000024
 42
0.590378
 10
0.5355060000000549
 20
0.3828270000000202
 10
0.5287820000000921
 20
0.3810630000000401
 42
0.271452
 10
0.525211000000013
 20
0.3774829999999838
 42
-0.097296
  0
LWPOLYLINE
  5
3E
330
3C
100
AcDbEntity
  8
BLOCKS
100
AcDbPolyline
 90
        2
 70
     0
 43
0.0
 10
0.1725000000000136
 20
0.2300000000000182
 10
0.2175000000000864
 20
0.2300000000000182
  0
LWPOLYLINE
  5
3F
330
3C
100
AcDbEntity
  8
BLOCKS
100
AcDbPolyline
 90
        8
 70
     0
 43
0.0
 10
0.0
 20
0.375
 42
0.4142140000000001
 10
0.0049999999999955
 20
0.3700000000000045
 10
0.0129430000000639
 20
0.3700000000000045
 42
0.197627
 10
0.0164610000000494
 20
0.3714469999999892
 10
0.028688000000102
 20
0.3835530000000062
 42
-0.197627
 10
0.0322060000000875
 20
0.3849999999999909
 10
0.0425000000000182
 20
0.3849999999999909
 10
0.0425000000000182
 20
0.3999999999999772
  0
LWPOLYLINE
  5
40
330
3C
100
AcDbEntity
  8
BLOCKS
100
AcDbPolyline
 90
        3
 70
     0
 43
0.0
 10
0.0950840000000426
 20
0.0
 10
0.0996979999999894
 20
0.0434149999999818
 10
0.0847820000000184
 20
0.0449999999999591
  0
LWPOLYLINE
  5
41
330
3C
100
AcDbEntity
  8
BLOCKS
100
AcDbPolyline
 90
        3
 70
     0
 43
0.0
 10
0.2325000000000728
 20
0.2450000000000045
 10
0.2175000000000864
 20
0.2300000000000182
 10
0.2175000000000864
 20
0.19500000000005
  0
LWPOLYLINE
  5
42
330
3C
100
AcDbEntity
  8
BLOCKS
100
AcDbPolyline
 90
        9
 70
     0
 43
0.0
 10
0.1319480000000794
 20
0.3450000000000273
 10
0.1220270000000028
 20
0.3437470000000076
 10
0.1330159999999978
 20
0.2567639999999756
 42
0.158783
 10
0.139679000000001
 20
0.2427840000000287
 10
0.158360000000016
 20
0.2231130000000121
 42
0.205618
 10
0.1656110000000126
 20
0.2200000000000273
 10
0.1725000000000136
 20
0.2200000000000273
 10
0.1725000000000136
 20
0.2300000000000182
 10
0.1575000000000273
 20
0.2450000000000045
  0
LWPOLYLINE
  5
43
330
3C
100
AcDbEntity
  8
BLOCKS
100
AcDbPolyline
 90
        8
 70
     0
 43
0.0
 10
0.1294220000000905
 20
0.3650000000000091
 10
0.1195010000000138
 20
0.3637469999999894
 10
0.1185400000000527
 20
0.3713520000000017
 42
0.9648039999999999
 10
0.1119710000000396
 20
0.3707610000000159
 10
0.1181060000000116
 20
0.2572999999999865
 42
0.398478
 10
0.1680330000000367
 20
0.2100000000000364
 10
0.1725000000000136
 20
0.2100000000000364
 10
0.1725000000000136
 20
0.19500000000005
  0
LWPOLYLINE
  5
44
330
3C
100
AcDbEntity
  8
BLOCKS
100
AcDbPolyline
 90
        4
 70
     0
 43
0.0
 10
0.2668070000000853
 20
0.2300000000000182
 10
0.2668070000000853
 20
0.0343609999999899
 42
-0.4142140000000001
 10
0.2568070000000944
 20
0.024360999999999
 10
0.140002000000095
 20
0.024360999999999
  0
LWPOLYLINE
  5
45
330
3C
100
AcDbEntity
  8
BLOCKS
100
AcDbPolyline
 90
       11
 70
     0
 43
0.0
 10
0.1205920000001015
 20
0.3999999999999772
 42
-0.377867
 10
0.1255530000000817
 20
0.3956269999999904
 10
0.1429370000000745
 20
0.2580179999999927
 42
0.332129
 10
0.1575000000000273
 20
0.2450000000000045
 10
0.275162000000023
 20
0.2450000000000045
 42
0.047438
 10
0.3832120000000714
 20
0.2593309999999747
 42
0.102658
 10
0.4486200000000054
 20
0.289429000000041
 42
0.181056
 10
0.5120699999999943
 20
0.3869760000000042
 42
-0.269169
 10
0.5191900000000942
 20
0.3940539999999828
 10
0.5381100000000743
 20
0.3990179999999554
 42
-0.064234
 10
0.5457230000000664
 20
0.3999999999999772
  0
LWPOLYLINE
  5
46
330
3C
100
AcDbEntity
  8
BLOCKS
100
AcDbPolyline
 90
       12
 70
     0
 43
0.0
 10
0.4132140000000391
 20
0.0
 10
0.3953380000000379
 20
0.2408289999999624
 42
0.4610240000000001
 10
0.3892060000000583
 20
0.2453259999999773
 42
-0.048699
 10
0.2754380000000083
 20
0.2300000000000182
 10
0.2425000000000637
 20
0.2300000000000182
 42
0.4142140000000001
 10
0.2325000000000728
 20
0.2200000000000273
 10
0.2325000000000728
 20
0.19500000000005
 10
0.1680330000000367
 20
0.19500000000005
 42
-0.180752
 10
0.1254040000000032
 20
0.2109309999999596
 42
0.6063220000000001
 10
0.1171530000000303
 20
0.2076849999999695
 10
0.1140430000000379
 20
0.1784149999999727
 10
0.0991270000000668
 20
0.17999999999995
  0
LWPOLYLINE
  5
47
330
3C
100
AcDbEntity
  8
BLOCKS
100
AcDbPolyline
 90
       22
 70
     0
 43
0.0
 10
0.0775000000001001
 20
0.3999999999999772
 10
0.0775000000001001
 20
0.3849999999999909
 10
0.0964490000000069
 20
0.3849999999999909
 42
-0.398478
 10
0.10144200000002
 20
0.3802699999999959
 10
0.1074060000000827
 20
0.2699840000000222
 42
-0.039992
 10
0.1069919999999911
 20
0.2540179999999736
 10
0.0800000000000409
 20
0.0
 10
0.4282550000000356
 20
0.0
 10
0.4129820000000564
 20
0.2057620000000497
 42
-0.30827
 10
0.4467860000000883
 20
0.2642620000000306
 42
0.026557
 10
0.4909509999999955
 20
0.2884980000000041
 42
0.201978
 10
0.5592860000000428
 20
0.3847809999999754
 42
0.054711
 10
0.5600000000000592
 20
0.3912880000000314
 10
0.5600000000000592
 20
0.3925000000000409
 42
0.4142140000000001
 10
0.5525000000000091
 20
0.3999999999999772
 10
0.0175000000000409
 20
0.3999999999999772
 42
-0.236068
 10
0.0135000000000218
 20
0.4020000000000437
 10
0.0090000000000146
 20
0.4080000000000155
 42
0.7207590000000001
 10
0.0
 20
0.4049999999999728
 10
0.0
 20
0.3711799999999812
 42
0.217265
 10
0.0068870000000061
 20
0.3560790000000225
 10
0.1074650000000474
 20
0.2687449999999671
  0
ENDBLK
  5
49
330
3C
100
AcDbEntity
  8
0
100
AcDbBlockEnd
  0
BLOCK
  5
4E
330
4B
100
AcDbEntity
  8
0
100
AcDbBlockBegin
  2
103410AL
 70
     0
 10
0.0
 20
0.0
 30
0.0
  3
103410AL
  1

  0
LWPOLYLINE
  5
4C
330
4B
100
AcDbEntity
  8
BLOCKS
100
AcDbPolyline
 90
        4
 70
     0
 43
0.0
 10
0.2607350000000679
 20
0.2300000000000182
 10
0.2607350000000679
 20
0.0343609999999899
 42
-0.4142140000000001
 10
0.250735000000077
 20
0.024360999999999
 10
0.1619900000000598
 20
0.024360999999999
  0
LWPOLYLINE
  5
4D
330
4B
100
AcDbEntity
  8
BLOCKS
100
AcDbPolyline
 90
       17
 70
     1
 43
0.0
 10
0.0175000000000409
 20
0.3999999999999784
 42
-0.236068
 10
0.0135000000000218
 20
0.4020000000000448
 10
0.0090000000000146
 20
0.4080000000000167
 42
0.7207590000000001
 10
0.0
 20
0.4049999999999739
 10
0.0
 20
0.3711799999999823
 42
0.217265
 10
0.0068870000000061
 20
0.3560790000000236
 10
0.0887700000000678
 20
0.2849780000000249
 42
-0.245147
 10
0.1057080000000496
 20
0.2419409999999971
 10
0.0800000000000409
 20
0.0
 10
0.4282550000000356
 20
0.0
 10
0.4129820000000564
 20
0.2057620000000497
 42
-0.30827
 10
0.4467860000000883
 20
0.2642620000000306
 42
0.026557
 10
0.4909509999999955
 20
0.2884980000000053
 42
0.201978
 10
0.5592860000000428
 20
0.3847809999999766
 42
0.054711
 10
0.5600000000000592
 20
0.3912880000000325
 10
0.5600000000000592
 20
0.3925000000000421
 42
0.4142140000000001
 10
0.5525000000000091
 20
0.3999999999999784
  0
ENDBLK
  5
4F
330
4B
100
AcDbEntity
  8
0
100
AcDbBlockEnd
  0
BLOCK
  5
54
330
51
100
AcDbEntity
  8
0
100
AcDbBlockBegin
  2
103410AF
 70
     0
 10
0.0
 20
0.0
 30
0.0
  3
103410AF
  1

  0
LWPOLYLINE
  5
52
330
51
100
AcDbEntity
  8
BLOCKS
100
AcDbPolyline
 90
        6
 70
     0
 43
0.0
 10
-0.1299999999999954
 20
0.3999999999999772
 10
-0.1240000000000236
 20
0.4080000000000155
 42
-0.236068
 10
-0.1200000000000045
 20
0.4099999999999682
 10
0.1200000000000045
 20
0.4099999999999682
 42
-0.236068
 10
0.1240000000000236
 20
0.4080000000000155
 10
0.1299999999999954
 20
0.3999999999999772
  0
LWPOLYLINE
  5
53
330
51
100
AcDbEntity
  8
BLOCKS
100
AcDbPolyline
 90
       14
 70
     1
 43
0.0
 10
0.17999999999995
 20
0.3912880000000314
 42
-0.054711
 10
0.1792860000000473
 20
0.3847809999999754
 42
-0.19556
 10
0.1141199999999571
 20
0.2905160000000251
 42
0.27278
 10
0.0961399999999913
 20
0.2540900000000192
 10
0.1150000000000091
 20
0.0
 10
-0.1150000000000091
 20
0.0
 10
-0.0961399999999913
 20
0.2540900000000192
 42
0.27278
 10
-0.1141199999999571
 20
0.2905160000000251
 42
-0.19556
 10
-0.1792860000000473
 20
0.3847809999999754
 42
-0.054711
 10
-0.17999999999995
 20
0.3912880000000314
 10
-0.17999999999995
 20
0.3925000000000409
 42
-0.4142140000000001
 10
-0.1725000000000136
 20
0.3999999999999772
 10
0.1725000000000136
 20
0.3999999999999772
 42
-0.4142140000000001
 10
0.17999999999995
 20
0.3925000000000409
  0
ENDBLK
  5
55
330
51
100
AcDbEntity
  8
0
100
AcDbBlockEnd
  0
BLOCK
  5
8E
330
82
100
AcDbEntity
  8
0
100
AcDbBlockBegin
  2
103350PL
 70
     0
 10
0.0
 20
0.0
 30
0.0
  3
103350PL
  1

  0
CIRCLE
  5
83
330
82
100
AcDbEntity
  8
BLOCKS
100
AcDbCircle
 10
0.0
 20
-0.2000000000000455
 30
0.0
 40
0.0225
  0
CIRCLE
  5
84
330
82
100
AcDbEntity
  8
BLOCKS
100
AcDbCircle
 10
0.0
 20
-0.0650000000000546
 30
0.0
 40
0.0175
  0
ARC
  5
85
330
82
100
AcDbEntity
  8
BLOCKS
100
AcDbCircle
 10
0.0
 20
-0.1865299999999479
 30
0.0
 40
0.30347
100
AcDbArc
 50
249.1121690000004
 51
290.8878309999995
  0
ARC
  5
86
330
82
100
AcDbEntity
  8
BLOCKS
100
AcDbCircle
 10
-0.2155860000000302
 20
-0.2514640000000559
 30
0.0
 40
0.06
100
AcDbArc
 50
153.688497000001
 51
187.8881150000005
  0
ARC
  5
87
330
82
100
AcDbEntity
  8
BLOCKS
100
AcDbCircle
 10
-0.1490049999999883
 20
-0.2843870000000384
 30
0.0
 40
0.134276
100
AcDbArc
 50
103.6150819999985
 51
153.688497000001
  0
ARC
  5
88
330
82
100
AcDbEntity
  8
BLOCKS
100
AcDbCircle
 10
-0.0152470000000449
 20
-0.2237069999999909
 30
0.0
 40
0.262253
100
AcDbArc
 50
187.8881150000005
 51
205.8326300000004
  0
ARC
  5
89
330
82
100
AcDbEntity
  8
BLOCKS
100
AcDbCircle
 10
-0.0117679999999609
 20
-0.2220230000000362
 30
0.0
 40
0.2661180000000001
100
AcDbArc
 50
205.8326300000004
 51
248.8159340000015
  0
LWPOLYLINE
  5
8A
330
82
100
AcDbEntity
  8
BLOCKS
100
AcDbPolyline
 90
        5
 70
     0
 43
0.0
 10
0.1079340000000002
 20
-0.47015799999997
 42
0.18978
 10
0.2512930000000324
 20
-0.3379820000000114
 42
0.078458
 10
0.275019000000043
 20
-0.2596989999999556
 42
0.150342
 10
0.2693699999999808
 20
-0.224869000000013
 42
0.222031
 10
0.1806139999999914
 20
-0.1538839999999482
 42
0.222031
  0
LWPOLYLINE
  5
8B
330
82
100
AcDbEntity
  8
BLOCKS
100
AcDbPolyline
 90
        2
 70
     0
 43
0.0
 10
0.3049049999999625
 20
-0.1899660000000267
 42
0.180274
 10
-0.3049049999999625
 20
-0.1899660000000267
 42
0.180274
  0
LWPOLYLINE
  5
8C
330
82
100
AcDbEntity
  8
BLOCKS
100
AcDbPolyline
 90
        4
 70
     0
 43
0.0
 10
-0.3265460000000075
 20
-0.0103219999999738
 42
0.257897
 10
-0.318080000000009
 20
-0.0149999999999864
 10
0.318080000000009
 20
-0.0149999999999864
 42
0.257897
 10
0.3265460000000075
 20
-0.0103219999999738
  0
LWPOLYLINE
  5
8D
330
82
100
AcDbEntity
  8
BLOCKS
100
AcDbPolyline
 90
        8
 70
     1
 43
0.0
 10
0.3007969999999887
 20
-0.3619479999999845
 42
0.113196
 10
0.3324999999999818
 20
-0.2237069999999909
 10
0.3324999999999818
 20
0.0
 10
-0.3324999999999818
 20
0.0
 10
-0.3324999999999818
 20
-0.2237069999999909
 42
0.113196
 10
-0.3007969999999887
 20
-0.3619479999999845
 42
0.18978
 10
-0.1278089999999565
 20
-0.5214409999999822
 42
0.184327
 10
0.1278089999999565
 20
-0.5214409999999822
 42
0.18978
  0
ENDBLK
  5
8F
330
82
100
AcDbEntity
  8
0
100
AcDbBlockEnd
  0
BLOCK
  5
9C
330
91
100
AcDbEntity
  8
0
100
AcDbBlockBegin
  2
103350CT
 70
     0
 10
0.0
 20
0.0
 30
0.0
  3
103350CT
  1

  0
LWPOLYLINE
  5
92
330
91
100
AcDbEntity
  8
BLOCKS
100
AcDbPolyline
 90
        8
 70
     1
 43
0.0
 10
0.5124409999999671
 20
0.8607110000000375
 42
0.207655
 10
0.5093100000000277
 20
0.8582509999999956
 42
-0.058156
 10
0.4719639999999572
 20
0.804977000000008
 42
0.910843
 10
0.4746790000000374
 20
0.8020629999999755
 42
0.048056
 10
0.5287520000000541
 20
0.8527159999999867
 42
0.18249
 10
0.5299999999999728
 20
0.856019999999944
 10
0.5299999999999728
 20
0.858836999999994
 42
0.491526
 10
0.523730999999998
 20
0.8636729999999488
  0
CIRCLE
  5
93
330
91
100
AcDbEntity
  8
BLOCKS
100
AcDbCircle
 10
0.2820679999999811
 20
0.7096460000000207
 30
0.0
 40
0.003607
  0
LWPOLYLINE
  5
94
330
91
100
AcDbEntity
  8
BLOCKS
100
AcDbPolyline
 90
        2
 70
     0
 43
0.0
 10
0.2224999999999682
 20
0.7059520000000248
 10
0.1775000000000091
 20
0.7059520000000248
  0
LWPOLYLINE
  5
95
330
91
100
AcDbEntity
  8
BLOCKS
100
AcDbPolyline
 90
        9
 70
     0
 43
0.0
 10
0.1394960000000083
 20
0.830379999999991
 10
0.1295470000000023
 20
0.8293780000000197
 10
0.1393120000000181
 20
0.7324730000000273
 42
0.297241
 10
0.1564479999999548
 20
0.7112080000000561
 42
-0.175332
 10
0.1618160000000444
 20
0.7070260000000417
 42
0.257724
 10
0.1728180000000066
 20
0.7009520000000294
 10
0.1775000000000091
 20
0.7009520000000294
 10
0.1775000000000091
 20
0.7059520000000248
 10
0.1624090000000251
 20
0.7200860000000376
  0
LWPOLYLINE
  5
96
330
91
100
AcDbEntity
  8
BLOCKS
100
AcDbPolyline
 90
        6
 70
     0
 43
0.0
 10
0.0149999999999864
 20
0.8099999999999454
 42
1.0
 10
0.0299999999999727
 20
0.8099999999999454
 10
0.0299999999999727
 20
0.8550000000000181
 42
-0.4142140000000001
 10
0.0349999999999682
 20
0.8600000000000136
 10
0.0475000000000137
 20
0.8600000000000136
 10
0.0475000000000137
 20
0.875
  0
LWPOLYLINE
  5
97
330
91
100
AcDbEntity
  8
BLOCKS
100
AcDbPolyline
 90
        5
 70
     0
 43
0.0
 10
0.1133650000000443
 20
0.740615000000048
 10
0.0229640000000018
 20
0.7350139999999783
 42
-0.432456
 10
0.0149999999999864
 20
0.74249999999995
 10
0.0149999999999864
 20
0.8500000000000227
 42
1.0
 10
0.00750000000005
 20
0.8500000000000227
  0
LWPOLYLINE
  5
98
330
91
100
AcDbEntity
  8
BLOCKS
100
AcDbPolyline
 90
       17
 70
     0
 43
0.0
 10
0.0149999999999864
 20
0.8500000000000227
 10
0.0
 20
0.8500000000000227
 10
0.0
 20
0.8849999999999909
 10
0.0062749999999596
 20
0.8849999999999909
 42
-0.266228
 10
0.0105889999999818
 20
0.8825279999999793
 10
0.0135510000000068
 20
0.8774720000000115
 42
0.266228
 10
0.0178650000000289
 20
0.875
 10
0.1304790000000366
 20
0.875
 42
-0.385095
 10
0.1354529999999841
 20
0.8705009999999901
 10
0.1492610000000241
 20
0.7334759999999961
 42
0.399996
 10
0.1649599999999509
 20
0.7200000000000273
 10
0.2389650000000074
 20
0.7200000000000273
 42
0.118846
 10
0.3843399999999519
 20
0.7556319999999915
 42
0.154288
 10
0.4978210000000445
 20
0.8685950000000275
 42
-0.224826
 10
0.5043739999999844
 20
0.8741019999999934
 10
0.5231099999999742
 20
0.8790179999999736
 42
-0.064234
 10
0.5307229999999663
 20
0.8799999999999954
  0
LWPOLYLINE
  5
99
330
91
100
AcDbEntity
  8
BLOCKS
100
AcDbPolyline
 90
        3
 70
     0
 43
0.0
 10
0.2365479999999707
 20
0.7200000000000273
 10
0.2224999999999682
 20
0.7059520000000248
 10
0.2224999999999682
 20
0.6720000000000255
  0
LWPOLYLINE
  5
9A
330
91
100
AcDbEntity
  8
BLOCKS
100
AcDbPolyline
 90
       10
 70
     0
 43
0.0
 10
0.1775000000000091
 20
0.6720000000000255
 10
0.1775000000000091
 20
0.6820000000000164
 10
0.1761780000000499
 20
0.6820000000000164
 42
-0.164794
 10
0.1701000000000477
 20
0.6840590000000475
 10
0.129126000000042
 20
0.7154219999999896
 42
-0.207154
 10
0.1252550000000383
 20
0.7223599999999806
 10
0.1122100000000046
 20
0.8518109999999978
 42
-1.0
 10
0.1271349999999529
 20
0.8533149999999523
 10
0.127540999999951
 20
0.8492770000000291
 10
0.1374909999999545
 20
0.8502799999999979
  0
LWPOLYLINE
  5
9B
330
91
100
AcDbEntity
  8
BLOCKS
100
AcDbPolyline
 90
       21
 70
     0
 43
0.0
 10
0.0824999999999818
 20
0.875
 10
0.0824999999999818
 20
0.8600000000000136
 10
0.0968129999999974
 20
0.8600000000000136
 42
-0.385095
 10
0.1017880000000559
 20
0.8555010000000038
 10
0.1153050000000348
 20
0.7213570000000118
 42
0.207154
 10
0.1230480000000398
 20
0.7074810000000298
 10
0.1667119999999613
 20
0.6740590000000566
 42
0.164794
 10
0.1727899999999636
 20
0.6720000000000255
 10
0.2374999999999545
 20
0.6720000000000255
 10
0.2374999999999545
 20
0.6951360000000478
 42
-0.405948
 10
0.2472169999999778
 20
0.7051320000000488
 42
0.017076
 10
0.2699999999999818
 20
0.7065559999999778
 10
0.2699999999999818
 20
0.6933070000000044
 42
0.6702270000000001
 10
0.278554999999983
 20
0.6897910000000138
 10
0.2865010000000438
 20
0.6978279999999586
 42
-0.149585
 10
0.3174159999999802
 20
0.7144799999999805
 42
0.163567
 10
0.5391769999999952
 20
0.8418589999999994
 42
0.159743
 10
0.5449999999999591
 20
0.8596209999999473
 10
0.5449999999999591
 20
0.8724999999999454
 42
0.4142140000000001
 10
0.5375000000000228
 20
0.8799999999999954
 10
0.0120699999999943
 20
0.8799999999999954
  0
ENDBLK
  5
9D
330
91
100
AcDbEntity
  8
0
100
AcDbBlockEnd
  0
BLOCK
  5
A4
330
9F
100
AcDbEntity
  8
0
100
AcDbBlockBegin
  2
103350AL
 70
     0
 10
0.0
 20
0.0
 30
0.0
  3
103350AL
  1

  0
LWPOLYLINE
  5
A0
330
9F
100
AcDbEntity
  8
BLOCKS
100
AcDbPolyline
 90
        4
 70
     0
 43
0.0
 10
0.1383349999999837
 20
0.7421630000000056
 10
0.1392610000000332
 20
0.7329780000000034
 42
0.314169
 10
0.1541590000000497
 20
0.7156189999999475
 42
0.087559
 10
0.2699999999999818
 20
0.7065559999999783
 42
0.087559
  0
LWPOLYLINE
  5
A1
330
9F
100
AcDbEntity
  8
BLOCKS
100
AcDbPolyline
 90
        4
 70
     0
 43
0.0
 10
0.148967999999968
 20
0.7428210000000496
 10
0.0229640000000018
 20
0.7350139999999789
 42
-0.432456
 10
0.0149999999999864
 20
0.7424999999999505
 10
0.0149999999999864
 20
0.8500000000000232
  0
LWPOLYLINE
  5
A2
330
9F
100
AcDbEntity
  8
BLOCKS
100
AcDbPolyline
 90
       14
 70
     1
 43
0.0
 10
0.2699999999999818
 20
0.8500000000000232
 10
0.0
 20
0.8500000000000232
 10
0.0
 20
0.8849999999999914
 10
0.0062749999999596
 20
0.8849999999999914
 42
-0.266228
 10
0.0105889999999818
 20
0.8825279999999798
 10
0.0120699999999943
 20
0.8799999999999959
 10
0.5375000000000228
 20
0.8799999999999959
 42
-0.4142140000000001
 10
0.5449999999999591
 20
0.8724999999999459
 10
0.5449999999999591
 20
0.8596209999999478
 42
-0.159743
 10
0.5391769999999952
 20
0.841859
 42
-0.163567
 10
0.3174159999999802
 20
0.714479999999981
 42
0.149585
 10
0.2865010000000438
 20
0.6978279999999592
 10
0.278554999999983
 20
0.6897910000000144
 42
-0.6702270000000001
 10
0.2699999999999818
 20
0.6933070000000049
  0
LWPOLYLINE
  5
A3
330
9F
100
AcDbEntity
  8
BLOCKS
100
AcDbPolyline
 90
        8
 70
     0
 43
0.0
 10
0.2472169999999778
 20
0.7051320000000493
 42
0.405948
 10
0.2374999999999545
 20
0.6951360000000483
 10
0.2374999999999545
 20
0.672000000000026
 10
0.1727899999999636
 20
0.672000000000026
 42
-0.164794
 10
0.1667119999999613
 20
0.6740590000000572
 10
0.1230480000000398
 20
0.7074810000000304
 42
-0.207154
 10
0.1153050000000348
 20
0.7213570000000124
 10
0.1133650000000443
 20
0.7406150000000486
  0
ENDBLK
  5
A5
330
9F
100
AcDbEntity
  8
0
100
AcDbBlockEnd
  0
BLOCK
  5
AB
330
A7
100
AcDbEntity
  8
0
100
AcDbBlockBegin
  2
103350AF
 70
     0
 10
0.0
 20
0.0
 30
0.0
  3
103350AF
  1

  0
LWPOLYLINE
  5
A8
330
A7
100
AcDbEntity
  8
BLOCKS
100
AcDbPolyline
 90
        4
 70
     0
 43
0.0
 10
0.0375000000000227
 20
0.6899670000000242
 10
0.0375000000000227
 20
0.6720000000000255
 10
-0.0375000000000227
 20
0.6720000000000255
 10
-0.0375000000000227
 20
0.6899670000000242
  0
LWPOLYLINE
  5
A9
330
A7
100
AcDbEntity
  8
BLOCKS
100
AcDbPolyline
 90
        6
 70
     0
 43
0.0
 10
0.3206649999999627
 20
0.8799999999999954
 10
0.3191839999999502
 20
0.8825279999999793
 42
0.266228
 10
0.3148700000000417
 20
0.8849999999999909
 10
-0.3148700000000417
 20
0.8849999999999909
 42
0.266228
 10
-0.3191839999999502
 20
0.8825279999999793
 10
-0.3206649999999627
 20
0.8799999999999954
  0
LWPOLYLINE
  5
AA
330
A7
100
AcDbEntity
  8
BLOCKS
100
AcDbPolyline
 90
        8
 70
     1
 43
0.0
 10
-0.3250000000000455
 20
0.8799999999999954
 42
0.4142140000000001
 10
-0.3324999999999818
 20
0.8724999999999454
 10
-0.3324999999999818
 20
0.8596209999999473
 42
0.159743
 10
-0.3266770000000179
 20
0.8418589999999994
 42
0.4700440000000001
 10
0.3266770000000179
 20
0.8418589999999994
 42
0.159743
 10
0.3324999999999818
 20
0.8596209999999473
 10
0.3324999999999818
 20
0.8724999999999454
 42
0.4142140000000001
 10
0.3250000000000455
 20
0.8799999999999954
  0
ENDBLK
  5
AC
330
A7
100
AcDbEntity
  8
0
100
AcDbBlockEnd
  0
BLOCK
  5
DC
330
D5
100
AcDbEntity
  8
0
100
AcDbBlockBegin
  2
103321PL
 70
     0
 10
0.0
 20
0.0
 30
0.0
  3
103321PL
  1

  0
CIRCLE
  5
D6
330
D5
100
AcDbEntity
  8
BLOCKS
100
AcDbCircle
 10
-0.0000000000000057
 20
-0.0649999999999841
 30
0.0
 40
0.0175
  0
CIRCLE
  5
D7
330
D5
100
AcDbEntity
  8
BLOCKS
100
AcDbCircle
 10
-0.0000000000000057
 20
-0.2099999999999937
 30
0.0
 40
0.0225
  0
LWPOLYLINE
  5
D8
330
D5
100
AcDbEntity
  8
BLOCKS
100
AcDbPolyline
 90
        8
 70
     1
 43
0.0
 10
0.3198799999999756
 20
-0.1698370000000068
 42
0.092214
 10
0.255
 20
0.0
 10
-0.255
 20
0.0
 42
0.092214
 10
-0.3198800000000119
 20
-0.1698370000000068
 42
0.159542
 10
-0.2940120000000024
 20
-0.3610769999999678
 42
0.18978
 10
-0.124926000000014
 20
-0.5169729999999976
 42
0.184327
 10
0.124926000000014
 20
-0.5169729999999976
 42
0.18978
 10
0.2940120000000024
 20
-0.3610769999999678
 42
0.159542
  0
LWPOLYLINE
  5
D9
330
D5
100
AcDbEntity
  8
BLOCKS
100
AcDbPolyline
 90
        4
 70
     0
 43
0.0
 10
0.2490460000000167
 20
-0.0103219999999783
 42
-0.257897
 10
0.240580000000009
 20
-0.015
 10
-0.240580000000009
 20
-0.015
 42
-0.257897
 10
-0.2490460000000167
 20
-0.0103219999999783
  0
LWPOLYLINE
  5
DA
330
D5
100
AcDbEntity
  8
BLOCKS
100
AcDbPolyline
 90
        2
 70
     0
 43
0.0
 10
0.2980270000000018
 20
-0.1837259999999878
 42
0.180274
 10
-0.2980270000000018
 20
-0.1837259999999878
 42
0.180274
  0
LWPOLYLINE
  5
DB
330
D5
100
AcDbEntity
  8
BLOCKS
100
AcDbPolyline
 90
       10
 70
     0
 43
0.0
 10
-0.1765400000000227
 20
-0.1484579999999914
 42
0.219346
 10
-0.2626919999999882
 20
-0.2166400000000061
 42
0.141172
 10
-0.2689319999999861
 20
-0.249267999999974
 42
0.090079
 10
-0.2445080000000234
 20
-0.3371109999999675
 42
0.189639
 10
-0.1051829999999973
 20
-0.4656379999999985
 42
0.184077
 10
0.1051829999999973
 20
-0.4656379999999985
 42
0.189639
 10
0.2445080000000234
 20
-0.3371109999999675
 42
0.090079
 10
0.2689319999999861
 20
-0.249267999999974
 42
0.141172
 10
0.2626919999999882
 20
-0.2166400000000061
 42
0.219346
 10
0.1765399999999863
 20
-0.1484579999999914
 42
0.219346
  0
ENDBLK
  5
DD
330
D5
100
AcDbEntity
  8
0
100
AcDbBlockEnd
  0
BLOCK
  5
134
330
DF
100
AcDbEntity
  8
0
100
AcDbBlockBegin
  2
103320CT
 70
     0
 10
0.0
 20
0.0
 30
0.0
  3
103320CT
  1

  0
ARC
  5
E0
330
DF
100
AcDbEntity
  8
BLOCKS
100
AcDbCircle
 10
0.5100000636151231
 20
0.7996205295050749
 30
0.0
 40
0.0299999363885664
100
AcDbArc
 50
323.697223056193
 51
0.0008985810222317
  0
LINE
  5
E1
330
DF
100
AcDbEntity
  8
BLOCKS
100
AcDbLine
 10
0.5400000000000001
 20
0.8125
 30
0.0
 11
0.5400000000000001
 21
0.7996210000000003
 31
0.0
  0
ARC
  5
E2
330
DF
100
AcDbEntity
  8
BLOCKS
100
AcDbCircle
 10
0.5325000056030638
 20
0.8125000056030637
 30
0.0
 40
0.0074999943969382
100
AcDbArc
 50
359.9999571957139
 51
90.00004280428605
  0
ARC
  5
E3
330
DF
100
AcDbEntity
  8
BLOCKS
100
AcDbCircle
 10
0.5257226939991507
 20
0.7900013066033307
 30
0.0
 40
0.0299986933982301
100
AcDbArc
 50
89.99941555597246
 51
104.7005671424189
  0
ARC
  5
E4
330
DF
100
AcDbEntity
  8
BLOCKS
100
AcDbCircle
 10
0.5019115952963296
 20
0.8044300749996642
 30
0.0
 40
0.0099992761288037
100
AcDbArc
 50
104.7011820486321
 51
155.384758278162
  0
LINE
  5
E5
330
DF
100
AcDbEntity
  8
BLOCKS
100
AcDbLine
 10
0.5181099999999999
 20
0.8190179999999998
 30
0.0
 11
0.4993740000000003
 21
0.8141019999999997
 31
0.0
  0
ARC
  5
E6
330
DF
100
AcDbEntity
  8
BLOCKS
100
AcDbCircle
 10
0.3591932021228359
 20
0.9104160628123043
 30
0.0
 40
0.2171318675792273
100
AcDbArc
 50
293.7265516905722
 51
323.6960264615336
  0
LWPOLYLINE
  5
E7
330
DF
100
AcDbEntity
  8
BLOCKS
100
AcDbPolyline
 90
        8
 70
     1
 43
0.0
 10
0.507695
 20
0.8007780000000002
 42
0.218966
 10
0.5044659999999999
 20
0.798125
 42
-0.080224
 10
0.4661869999999999
 20
0.7435969999999998
 42
0.8929019999999999
 10
0.4687040000000002
 20
0.7405200000000002
 42
0.095651
 10
0.5240789999999999
 20
0.7934980000000002
 42
0.155433
 10
0.525
 20
0.7963900000000002
 10
0.525
 20
0.7988369999999998
 42
0.491526
 10
0.5187310000000003
 20
0.803673
  0
LINE
  5
E8
330
DF
100
AcDbEntity
  8
BLOCKS
100
AcDbLine
 10
0.3331259999999998
 20
0.6700000000000001
 30
0.0
 11
0.3254090000000002
 21
0.6700000000000001
 31
0.0
  0
LINE
  5
E9
330
DF
100
AcDbEntity
  8
BLOCKS
100
AcDbLine
 10
0.3353120000000001
 20
0.672439
 30
0.0
 11
0.3331259999999998
 21
0.6700000000000001
 31
0.0
  0
ARC
  5
EA
330
DF
100
AcDbEntity
  8
BLOCKS
100
AcDbCircle
 10
0.1313170057021051
 20
1.42887174460805
 30
0.0
 40
0.7834567344875315
100
AcDbArc
 50
285.0924998260983
 51
293.7267825889426
  0
ARC
  5
EB
330
DF
100
AcDbEntity
  8
BLOCKS
100
AcDbCircle
 10
0.3164942141903538
 20
0.8893804683805678
 30
0.0
 40
0.1939521262977766
100
AcDbArc
 50
299.8495886578039
 51
335.384753538679
  0
ARC
  5
EC
330
DF
100
AcDbEntity
  8
BLOCKS
100
AcDbCircle
 10
0.1169369999999998
 20
0.7950254999999999
 30
0.0
 40
0.005000212720475
100
AcDbArc
 50
5.756200347168109
 51
185.7562003471616
  0
LINE
  5
ED
330
DF
100
AcDbEntity
  8
BLOCKS
100
AcDbLine
 10
0.1225409999999999
 20
0.7892770000000003
 30
0.0
 11
0.1219119999999998
 21
0.7955270000000003
 31
0.0
  0
LINE
  5
EE
330
DF
100
AcDbEntity
  8
BLOCKS
100
AcDbLine
 10
0.132491
 20
0.7902800000000002
 30
0.0
 11
0.1225409999999999
 21
0.7892770000000003
 31
0.0
  0
ARC
  5
EF
330
DF
100
AcDbEntity
  8
BLOCKS
100
AcDbCircle
 10
0.125478427723973
 20
0.8100002922869617
 30
0.0
 40
0.0049997077457899
100
AcDbArc
 50
5.74765827209375
 51
89.99344181643882
  0
LINE
  5
F0
330
DF
100
AcDbEntity
  8
BLOCKS
100
AcDbLine
 10
0.124547
 20
0.7693779999999998
 30
0.0
 11
0.1319420000000002
 21
0.69599
 31
0.0
  0
LINE
  5
F1
330
DF
100
AcDbEntity
  8
BLOCKS
100
AcDbLine
 10
0.1344959999999997
 20
0.7703800000000002
 30
0.0
 11
0.124547
 21
0.7693779999999998
 31
0.0
  0
LINE
  5
F2
330
DF
100
AcDbEntity
  8
BLOCKS
100
AcDbLine
 10
0.2233819999999997
 20
0.6700000000000001
 30
0.0
 11
0.1717399999999998
 21
0.6700000000000001
 31
0.0
  0
LINE
  5
F3
330
DF
100
AcDbEntity
  8
BLOCKS
100
AcDbLine
 10
0.1418919999999997
 20
0.6969920000000002
 30
0.0
 11
0.130453
 21
0.810501
 31
0.0
  0
LINE
  5
F4
330
DF
100
AcDbEntity
  8
BLOCKS
100
AcDbLine
 10
0.0825
 20
0.8
 30
0.0
 11
0.0825
 21
0.815
 31
0.0
  0
LINE
  5
F5
330
DF
100
AcDbEntity
  8
BLOCKS
100
AcDbLine
 10
0.0968380000000002
 20
0.8
 30
0.0
 11
0.0825
 21
0.8
 31
0.0
  0
ARC
  5
F6
330
DF
100
AcDbEntity
  8
BLOCKS
100
AcDbCircle
 10
0.0174999997868747
 20
0.8249999995737493
 30
0.0
 40
0.0049999995737494
100
AcDbArc
 50
216.8698952036103
 51
270.0000024422363
  0
ARC
  5
F7
330
DF
100
AcDbEntity
  8
BLOCKS
100
AcDbCircle
 10
0.0050000004827399
 20
0.8249999985517797
 30
0.0
 40
0.0050000004827403
100
AcDbArc
 50
36.8699142412253
 51
179.99998340462
  0
LINE
  5
F8
330
DF
100
AcDbEntity
  8
BLOCKS
100
AcDbLine
 10
0.0172500000000002
 20
0.8169999999999999
 30
0.0
 11
0.0089999999999998
 21
0.8280000000000001
 31
0.0
  0
ARC
  5
F9
330
DF
100
AcDbEntity
  8
BLOCKS
100
AcDbCircle
 10
0.0212499997868747
 20
0.8199999995737494
 30
0.0
 40
0.0049999995737497
100
AcDbArc
 50
216.8698952036103
 51
270.0000024422363
  0
ARC
  5
FA
330
DF
100
AcDbEntity
  8
BLOCKS
100
AcDbCircle
 10
0.009999992529248
 20
0.689999992529248
 30
0.0
 40
0.0099999925292507
100
AcDbArc
 50
179.9999571957117
 51
270.0000428042882
  0
LINE
  5
FB
330
DF
100
AcDbEntity
  8
BLOCKS
100
AcDbLine
 10
0.0
 20
0.825
 30
0.0
 11
0.0
 21
0.6900000000000001
 31
0.0
  0
LWPOLYLINE
  5
FC
330
DF
100
AcDbEntity
  8
BLOCKS
100
AcDbPolyline
 90
        8
 70
     0
 43
0.0
 10
0.0
 20
0.75
 42
0.4142140000000001
 10
0.005
 20
0.7450000000000001
 10
0.015
 20
0.7450000000000001
 42
0.4142140000000001
 10
0.02
 20
0.75
 10
0.02
 20
0.7900000000000001
 42
-0.4142140000000001
 10
0.03
 20
0.8
 10
0.0475
 20
0.8
 10
0.0475
 20
0.815
  0
ARC
  5
FD
330
DF
100
AcDbEntity
  8
BLOCKS
100
AcDbCircle
 10
0.0968379277239728
 20
0.7949997393702524
 30
0.0
 40
0.0050002606302703
100
AcDbArc
 50
5.753388276559551
 51
89.99917182090404
  0
LINE
  5
FE
330
DF
100
AcDbEntity
  8
BLOCKS
100
AcDbLine
 10
0.01
 20
0.6800000000000001
 30
0.0
 11
0.1134519999999998
 21
0.6800000000000001
 31
0.0
  0
LINE
  5
FF
330
DF
100
AcDbEntity
  8
BLOCKS
100
AcDbLine
 10
0.1254790000000003
 20
0.815
 30
0.0
 11
0.02125
 21
0.815
 31
0.0
  0
LINE
  5
100
330
DF
100
AcDbEntity
  8
BLOCKS
100
AcDbLine
 10
0.0175
 20
0.8200000000000001
 30
0.0
 11
0.5325
 21
0.8200000000000001
 31
0.0
  0
ARC
  5
101
330
DF
100
AcDbEntity
  8
BLOCKS
100
AcDbCircle
 10
0.2898185569095756
 20
0.6444737836932911
 30
0.0
 40
0.0019995637683879
100
AcDbArc
 50
321.5722398467959
 51
116.0639651481054
  0
ARC
  5
102
330
DF
100
AcDbEntity
  8
BLOCKS
100
AcDbCircle
 10
0.3344729093844728
 20
0.6090571177580188
 30
0.0
 40
0.0549947466819635
100
AcDbArc
 50
141.5813628678245
 51
149.1402885682939
  0
ARC
  5
103
330
DF
100
AcDbEntity
  8
BLOCKS
100
AcDbCircle
 10
0.2838301361915632
 20
0.6393178730923995
 30
0.0
 40
0.0040002004752523
100
AcDbArc
 50
116.0727502464891
 51
329.1399679368897
  0
LINE
  5
104
330
DF
100
AcDbEntity
  8
BLOCKS
100
AcDbLine
 10
0.2889400000000001
 20
0.6462700000000002
 30
0.0
 11
0.282072
 21
0.6429110000000004
 31
0.0
  0
ARC
  5
105
330
DF
100
AcDbEntity
  8
BLOCKS
100
AcDbCircle
 10
0.3154094784489627
 20
0.6601427585233348
 30
0.0
 40
0.0099995215539532
100
AcDbArc
 50
313.9941871365248
 51
0.0013836255759742
  0
LINE
  5
106
330
DF
100
AcDbEntity
  8
BLOCKS
100
AcDbLine
 10
0.3066919999999999
 20
0.6378280000000001
 30
0.0
 11
0.322355
 21
0.652949
 31
0.0
  0
ARC
  5
107
330
DF
100
AcDbEntity
  8
BLOCKS
100
AcDbCircle
 10
0.3344747639246873
 20
0.6090512881861241
 30
0.0
 40
0.0399997639257255
100
AcDbArc
 50
133.9932163096002
 51
180.0004127986518
  0
LINE
  5
108
330
DF
100
AcDbEntity
  8
BLOCKS
100
AcDbLine
 10
0.2944749999999999
 20
0.6019999999999999
 30
0.0
 11
0.2944749999999999
 21
0.609051
 31
0.0
  0
ARC
  5
109
330
DF
100
AcDbEntity
  8
BLOCKS
100
AcDbCircle
 10
0.2292979158552856
 20
0.6061109614686831
 30
0.0
 40
0.0499991305599013
100
AcDbArc
 50
1.953096499112456
 51
35.53152991061907
  0
ARC
  5
10A
330
DF
100
AcDbEntity
  8
BLOCKS
100
AcDbCircle
 10
0.2781252739134459
 20
0.6409791591502
 30
0.0
 40
0.0100000536478175
100
AcDbArc
 50
116.0672017971098
 51
215.5288490042073
  0
LINE
  5
10B
330
DF
100
AcDbEntity
  8
BLOCKS
100
AcDbLine
 10
0.1875
 20
0.6194490000000003
 30
0.0
 11
0.1875
 21
0.6019999999999999
 31
0.0
  0
LINE
  5
10C
330
DF
100
AcDbEntity
  8
BLOCKS
100
AcDbLine
 10
0.1875
 20
0.6559519999999998
 30
0.0
 11
0.1875
 21
0.6344490000000002
 31
0.0
  0
LINE
  5
10D
330
DF
100
AcDbEntity
  8
BLOCKS
100
AcDbLine
 10
0.2325
 20
0.6559519999999998
 30
0.0
 11
0.1875
 21
0.6559519999999998
 31
0.0
  0
LINE
  5
10E
330
DF
100
AcDbEntity
  8
BLOCKS
100
AcDbLine
 10
0.2475
 20
0.6426740000000001
 30
0.0
 11
0.2475
 21
0.6019999999999999
 31
0.0
  0
LINE
  5
10F
330
DF
100
AcDbEntity
  8
BLOCKS
100
AcDbLine
 10
0.2325
 20
0.6559519999999998
 30
0.0
 11
0.2325
 21
0.6019999999999999
 31
0.0
  0
ARC
  5
110
330
DF
100
AcDbEntity
  8
BLOCKS
100
AcDbCircle
 10
0.1660926016930648
 20
0.6344487379297397
 30
0.0
 40
0.0149997379350279
100
AcDbArc
 50
226.8022295735349
 51
270.0015214470046
  0
LINE
  5
111
330
DF
100
AcDbEntity
  8
BLOCKS
100
AcDbLine
 10
0.1277760000000001
 20
0.6498530000000001
 30
0.0
 11
0.1558249999999998
 21
0.6235140000000002
 31
0.0
  0
ARC
  5
112
330
DF
100
AcDbEntity
  8
BLOCKS
100
AcDbCircle
 10
0.131199309298309
 20
0.6534979414856787
 30
0.0
 40
0.0050004644770172
100
AcDbArc
 50
185.7494776624775
 51
226.7959789532079
  0
ARC
  5
113
330
DF
100
AcDbEntity
  8
BLOCKS
100
AcDbCircle
 10
0.177499996264624
 20
0.6394489962646242
 30
0.0
 40
0.0049999962646254
100
AcDbArc
 50
179.9999571957117
 51
270.0000428042882
  0
LINE
  5
114
330
DF
100
AcDbEntity
  8
BLOCKS
100
AcDbLine
 10
0.1725
 20
0.6472809999999999
 30
0.0
 11
0.1725
 21
0.6394490000000002
 31
0.0
  0
ARC
  5
115
330
DF
100
AcDbEntity
  8
BLOCKS
100
AcDbCircle
 10
0.1675005357618977
 20
0.647280947951582
 30
0.0
 40
0.0049994642383732
100
AcDbArc
 50
0.000596494850361
 51
46.87705740088599
  0
LINE
  5
116
330
DF
100
AcDbEntity
  8
BLOCKS
100
AcDbLine
 10
0.159785
 20
0.6613569999999999
 30
0.0
 11
0.1709179999999998
 21
0.6509300000000003
 31
0.0
  0
ARC
  5
117
330
DF
100
AcDbEntity
  8
BLOCKS
100
AcDbCircle
 10
0.1563669665657784
 20
0.6577095441532533
 30
0.0
 40
0.0049986884991387
100
AcDbArc
 50
46.8597889753919
 51
70.00754686148737
  0
ARC
  5
118
330
DF
100
AcDbEntity
  8
BLOCKS
100
AcDbCircle
 10
0.1311985922367518
 20
0.653497324457037
 30
0.0
 40
0.0150001145947766
100
AcDbArc
 50
185.7518889927287
 51
226.7983902834564
  0
LINE
  5
119
330
DF
100
AcDbEntity
  8
BLOCKS
100
AcDbLine
 10
0.1518650000000002
 20
0.6135140000000002
 30
0.0
 11
0.1209300000000002
 21
0.6425630000000001
 31
0.0
  0
ARC
  5
11A
330
DF
100
AcDbEntity
  8
BLOCKS
100
AcDbCircle
 10
0.1621331016930645
 20
0.6244500008083839
 30
0.0
 40
0.0150010008352804
100
AcDbArc
 50
226.804139177344
 51
270.0034310508141
  0
LINE
  5
11B
330
DF
100
AcDbEntity
  8
BLOCKS
100
AcDbLine
 10
0.1675
 20
0.6094490000000003
 30
0.0
 11
0.1621339999999998
 21
0.6094490000000003
 31
0.0
  0
ARC
  5
11C
330
DF
100
AcDbEntity
  8
BLOCKS
100
AcDbCircle
 10
0.167500003735376
 20
0.6044490037353763
 30
0.0
 40
0.0049999962646254
100
AcDbArc
 50
359.9999571957118
 51
90.00004280428822
  0
LINE
  5
11D
330
DF
100
AcDbEntity
  8
BLOCKS
100
AcDbLine
 10
0.1725
 20
0.6019999999999999
 30
0.0
 11
0.1725
 21
0.6044490000000003
 31
0.0
  0
LINE
  5
11E
330
DF
100
AcDbEntity
  8
BLOCKS
100
AcDbLine
 10
0.1660930000000002
 20
0.6194490000000003
 30
0.0
 11
0.1875
 21
0.6194490000000003
 31
0.0
  0
LINE
  5
11F
330
DF
100
AcDbEntity
  8
BLOCKS
100
AcDbLine
 10
0.1775
 20
0.6344490000000002
 30
0.0
 11
0.1875
 21
0.6344490000000002
 31
0.0
  0
LINE
  5
120
330
DF
100
AcDbEntity
  8
BLOCKS
100
AcDbLine
 10
0.2475
 20
0.6019999999999999
 30
0.0
 11
0.1725
 21
0.6019999999999999
 31
0.0
  0
LINE
  5
121
330
DF
100
AcDbEntity
  8
BLOCKS
100
AcDbLine
 10
0.2681259999999997
 20
0.6408569999999998
 30
0.0
 11
0.2475
 21
0.6408569999999998
 31
0.0
  0
ARC
  5
122
330
DF
100
AcDbEntity
  8
BLOCKS
100
AcDbCircle
 10
0.2839599049011332
 20
0.0299998083055323
 30
0.0
 40
0.014999808305834
100
AcDbArc
 50
270.0003632555564
 51
1.953011569807502
  0
LINE
  5
123
330
DF
100
AcDbEntity
  8
BLOCKS
100
AcDbLine
 10
0.195
 20
0.015
 30
0.0
 11
0.195
 21
0.0
 31
0.0
  0
LINE
  5
124
330
DF
100
AcDbEntity
  8
BLOCKS
100
AcDbLine
 10
0.135
 20
0.0
 30
0.0
 11
0.315
 21
0.0
 31
0.0
  0
LINE
  5
125
330
DF
100
AcDbEntity
  8
BLOCKS
100
AcDbLine
 10
0.2839600000000002
 20
0.015
 30
0.0
 11
0.195
 21
0.015
 31
0.0
  0
LINE
  5
126
330
DF
100
AcDbEntity
  8
BLOCKS
100
AcDbLine
 10
0.315
 20
0.0
 30
0.0
 11
0.2944749999999999
 21
0.6019999999999999
 31
0.0
  0
LINE
  5
127
330
DF
100
AcDbEntity
  8
BLOCKS
100
AcDbLine
 10
0.135
 20
0.6293509999999998
 30
0.0
 11
0.135
 21
0.0
 31
0.0
  0
LINE
  5
128
330
DF
100
AcDbEntity
  8
BLOCKS
100
AcDbLine
 10
0.2792680000000001
 20
0.607815
 30
0.0
 11
0.2989510000000001
 21
0.0305110000000002
 31
0.0
  0
LINE
  5
129
330
DF
100
AcDbEntity
  8
BLOCKS
100
AcDbLine
 10
0.1119619999999998
 20
0.7945240000000001
 30
0.0
 11
0.1262240000000003
 21
0.6529970000000003
 31
0.0
  0
ARC
  5
12A
330
DF
100
AcDbEntity
  8
BLOCKS
100
AcDbCircle
 10
0.171740631906373
 20
0.7000008246357129
 30
0.0
 40
0.0400002226978475
100
AcDbArc
 50
185.7547218037725
 51
250.0247681435204
  0
LINE
  5
12B
330
DF
100
AcDbEntity
  8
BLOCKS
100
AcDbLine
 10
0.1725
 20
0.6700000000000001
 30
0.0
 11
0.1875
 21
0.6559519999999998
 31
0.0
  0
LINE
  5
12C
330
DF
100
AcDbEntity
  8
BLOCKS
100
AcDbLine
 10
0.1162740000000002
 20
0.6519939999999998
 30
0.0
 11
0.1018130000000002
 21
0.7955009999999999
 31
0.0
  0
ARC
  5
12D
330
DF
100
AcDbEntity
  8
BLOCKS
100
AcDbCircle
 10
0.2675001648899041
 20
0.6426740668034415
 30
0.0
 40
0.0200001648900156
100
AcDbArc
 50
96.49158645346398
 51
180.0001913761847
  0
LINE
  5
12E
330
DF
100
AcDbEntity
  8
BLOCKS
100
AcDbLine
 10
0.3254090000000002
 20
0.6700000000000001
 30
0.0
 11
0.2652390000000003
 21
0.6625459999999999
 31
0.0
  0
ARC
  5
12F
330
DF
100
AcDbEntity
  8
BLOCKS
100
AcDbCircle
 10
0.1717403278227431
 20
0.6999994579450669
 30
0.0
 40
0.029999457946858
100
AcDbArc
 50
185.7535903490195
 51
269.9993738933666
  0
LINE
  5
130
330
DF
100
AcDbEntity
  8
BLOCKS
100
AcDbLine
 10
0.2475
 20
0.6709519999999998
 30
0.0
 11
0.2325
 21
0.6559519999999998
 31
0.0
  0
LINE
  5
131
330
DF
100
AcDbEntity
  8
BLOCKS
100
AcDbLine
 10
0.3254090000000002
 20
0.6601429999999999
 30
0.0
 11
0.3254090000000002
 21
0.6700000000000001
 31
0.0
  0
LINE
  5
132
330
DF
100
AcDbEntity
  8
BLOCKS
100
AcDbLine
 10
0.311053
 20
0.6682220000000001
 30
0.0
 11
0.2737310000000002
 21
0.649962
 31
0.0
  0
ARC
  5
133
330
DF
100
AcDbEntity
  8
BLOCKS
100
AcDbCircle
 10
0.2200992947269168
 20
1.059260328621052
 30
0.0
 40
0.3892741702092238
100
AcDbArc
 50
270.4831745880761
 51
299.7102423918588
  0
ENDBLK
  5
135
330
DF
100
AcDbEntity
  8
0
100
AcDbBlockEnd
  0
BLOCK
  5
153
330
137
100
AcDbEntity
  8
0
100
AcDbBlockBegin
  2
103320AL
 70
     0
 10
0.0
 20
0.0
 30
0.0
  3
103320AL
  1

  0
ARC
  5
138
330
137
100
AcDbEntity
  8
BLOCKS
100
AcDbCircle
 10
0.5325000056030644
 20
0.8125000056030643
 30
0.0
 40
0.0074999943969378
100
AcDbArc
 50
359.9999571957139
 51
90.00004280429038
  0
LINE
  5
139
330
137
100
AcDbEntity
  8
BLOCKS
100
AcDbLine
 10
0.5400000000000001
 20
0.7996210000000003
 30
0.0
 11
0.5400000000000001
 21
0.8125000000000005
 31
0.0
  0
ARC
  5
13A
330
137
100
AcDbEntity
  8
BLOCKS
100
AcDbCircle
 10
0.5100000636151231
 20
0.7996205295050749
 30
0.0
 40
0.0299999363885664
100
AcDbArc
 50
323.697223056193
 51
0.0008985810222317
  0
ARC
  5
13B
330
137
100
AcDbEntity
  8
BLOCKS
100
AcDbCircle
 10
0.3591932021228359
 20
0.9104160628123048
 30
0.0
 40
0.2171318675792272
100
AcDbArc
 50
293.7265516905721
 51
323.6960264615334
  0
LINE
  5
13C
330
137
100
AcDbEntity
  8
BLOCKS
100
AcDbLine
 10
0.3331259999999998
 20
0.6700000000000007
 30
0.0
 11
0.3353120000000001
 21
0.672439
 31
0.0
  0
LINE
  5
13D
330
137
100
AcDbEntity
  8
BLOCKS
100
AcDbLine
 10
0.3254090000000002
 20
0.6700000000000007
 30
0.0
 11
0.3331259999999998
 21
0.6700000000000007
 31
0.0
  0
LINE
  5
13E
330
137
100
AcDbEntity
  8
BLOCKS
100
AcDbLine
 10
0.3254090000000002
 20
0.6601429999999999
 30
0.0
 11
0.3254090000000002
 21
0.6700000000000007
 31
0.0
  0
LINE
  5
13F
330
137
100
AcDbEntity
  8
BLOCKS
100
AcDbLine
 10
0.3254090000000002
 20
0.6700000000000007
 30
0.0
 11
0.311053
 21
0.6682220000000001
 31
0.0
  0
ARC
  5
140
330
137
100
AcDbEntity
  8
BLOCKS
100
AcDbCircle
 10
0.1313170057021051
 20
1.42887174460805
 30
0.0
 40
0.7834567344875315
100
AcDbArc
 50
285.0924998260983
 51
293.7267825889426
  0
ARC
  5
141
330
137
100
AcDbEntity
  8
BLOCKS
100
AcDbCircle
 10
0.139999996264624
 20
0.6632220037353756
 30
0.0
 40
0.0049999962646255
100
AcDbArc
 50
89.99995719571179
 51
180.0000428042817
  0
LWPOLYLINE
  5
142
330
137
100
AcDbEntity
  8
BLOCKS
100
AcDbPolyline
 90
        3
 70
     0
 43
0.0
 10
0.1370990000000001
 20
0.6800000000000006
 42
0.087119
 10
0.1459840000000003
 20
0.6693959999999999
 42
0.176705
 10
0.1492039999999997
 20
0.6682220000000001
  0
ARC
  5
143
330
137
100
AcDbEntity
  8
BLOCKS
100
AcDbCircle
 10
0.0050000004827399
 20
0.8249999985517792
 30
0.0
 40
0.0050000004827404
100
AcDbArc
 50
36.86991424123051
 51
179.99998340462
  0
LINE
  5
144
330
137
100
AcDbEntity
  8
BLOCKS
100
AcDbLine
 10
0.0135000000000002
 20
0.8219999999999998
 30
0.0
 11
0.0089999999999998
 21
0.8280000000000001
 31
0.0
  0
ARC
  5
145
330
137
100
AcDbEntity
  8
BLOCKS
100
AcDbCircle
 10
0.0174999997868753
 20
0.8249999995737487
 30
0.0
 40
0.0049999995737499
100
AcDbArc
 50
216.8698952036012
 51
270.0000024422298
  0
ARC
  5
146
330
137
100
AcDbEntity
  8
BLOCKS
100
AcDbCircle
 10
0.0099999925292474
 20
0.6899999925292485
 30
0.0
 40
0.0099999925292502
100
AcDbArc
 50
179.9999571957183
 51
270.0000428042915
  0
LINE
  5
147
330
137
100
AcDbEntity
  8
BLOCKS
100
AcDbLine
 10
0.0
 20
0.8249999999999994
 30
0.0
 11
0.0
 21
0.6899999999999995
 31
0.0
  0
LINE
  5
148
330
137
100
AcDbEntity
  8
BLOCKS
100
AcDbLine
 10
0.01
 20
0.6800000000000006
 30
0.0
 11
0.1601780000000002
 21
0.6800000000000006
 31
0.0
  0
LINE
  5
149
330
137
100
AcDbEntity
  8
BLOCKS
100
AcDbLine
 10
0.5325
 20
0.8199999999999993
 30
0.0
 11
0.0175
 21
0.8199999999999993
 31
0.0
  0
LINE
  5
14A
330
137
100
AcDbEntity
  8
BLOCKS
100
AcDbLine
 10
0.311053
 20
0.6682220000000001
 30
0.0
 11
0.14
 21
0.6682220000000001
 31
0.0
  0
LINE
  5
14B
330
137
100
AcDbEntity
  8
BLOCKS
100
AcDbLine
 10
0.3066919999999999
 20
0.6378280000000001
 30
0.0
 11
0.322355
 21
0.6529490000000005
 31
0.0
  0
ARC
  5
14C
330
137
100
AcDbEntity
  8
BLOCKS
100
AcDbCircle
 10
0.3344747639246873
 20
0.6090512881861247
 30
0.0
 40
0.0399997639257255
100
AcDbArc
 50
133.9932163096008
 51
180.0004127986526
  0
LINE
  5
14D
330
137
100
AcDbEntity
  8
BLOCKS
100
AcDbLine
 10
0.2944749999999999
 20
0.6019999999999999
 30
0.0
 11
0.2944749999999999
 21
0.609051
 31
0.0
  0
ARC
  5
14E
330
137
100
AcDbEntity
  8
BLOCKS
100
AcDbCircle
 10
0.3154094784489632
 20
0.6601427585233348
 30
0.0
 40
0.0099995215539526
100
AcDbArc
 50
313.9941871365246
 51
0.0013836255759742
  0
LWPOLYLINE
  5
14F
330
137
100
AcDbEntity
  8
BLOCKS
100
AcDbPolyline
 90
        4
 70
     0
 43
0.0
 10
0.1134519999999998
 20
0.6800000000000006
 10
0.1162740000000002
 20
0.6519940000000003
 42
0.181039
 10
0.1209300000000002
 20
0.6425629999999996
 10
0.135
 20
0.6293509999999998
  0
LINE
  5
150
330
137
100
AcDbEntity
  8
BLOCKS
100
AcDbLine
 10
0.135
 20
0.0
 30
0.0
 11
0.315
 21
0.0
 31
0.0
  0
LINE
  5
151
330
137
100
AcDbEntity
  8
BLOCKS
100
AcDbLine
 10
0.315
 20
0.0
 30
0.0
 11
0.2944749999999999
 21
0.6019999999999999
 31
0.0
  0
LINE
  5
152
330
137
100
AcDbEntity
  8
BLOCKS
100
AcDbLine
 10
0.135
 20
0.6632220000000002
 30
0.0
 11
0.135
 21
0.0
 31
0.0
  0
ENDBLK
  5
154
330
137
100
AcDbEntity
  8
0
100
AcDbBlockEnd
  0
BLOCK
  5
175
330
156
100
AcDbEntity
  8
0
100
AcDbBlockBegin
  2
103320AF
 70
     0
 10
0.0
 20
0.0
 30
0.0
  3
103320AF
  1

  0
ARC
  5
157
330
156
100
AcDbEntity
  8
BLOCKS
100
AcDbCircle
 10
0.2950000636151228
 20
0.7996205295050749
 30
0.0
 40
0.0299999363885667
100
AcDbArc
 50
323.697223056193
 51
0.0008985810222317
  0
ARC
  5
158
330
156
100
AcDbEntity
  8
BLOCKS
100
AcDbCircle
 10
0.3175000056030637
 20
0.8125000056030637
 30
0.0
 40
0.0074999943969383
100
AcDbArc
 50
359.9999571957139
 51
90.00004280428605
  0
LINE
  5
159
330
156
100
AcDbEntity
  8
BLOCKS
100
AcDbLine
 10
0.325
 20
0.7996210000000003
 30
0.0
 11
0.325
 21
0.8125
 31
0.0
  0
ARC
  5
15A
330
156
100
AcDbEntity
  8
BLOCKS
100
AcDbCircle
 10
0.1441932021228362
 20
0.9104160628123036
 30
0.0
 40
0.2171318675792262
100
AcDbArc
 50
293.7265516905723
 51
323.6960264615336
  0
LINE
  5
15B
330
156
100
AcDbEntity
  8
BLOCKS
100
AcDbLine
 10
0.118126
 20
0.6700000000000001
 30
0.0
 11
0.1203120000000001
 21
0.672439
 31
0.0
  0
LINE
  5
15C
330
156
100
AcDbEntity
  8
BLOCKS
100
AcDbLine
 10
0.1104089999999999
 20
0.6700000000000001
 30
0.0
 11
0.118126
 21
0.6700000000000001
 31
0.0
  0
LINE
  5
15D
330
156
100
AcDbEntity
  8
BLOCKS
100
AcDbLine
 10
0.1104089999999999
 20
0.6700000000000001
 30
0.0
 11
0.096053
 21
0.6682220000000001
 31
0.0
  0
LINE
  5
15E
330
156
100
AcDbEntity
  8
BLOCKS
100
AcDbLine
 10
-0.118126
 20
0.6700000000000001
 30
0.0
 11
-0.1104089999999999
 21
0.6700000000000001
 31
0.0
  0
LINE
  5
15F
330
156
100
AcDbEntity
  8
BLOCKS
100
AcDbLine
 10
-0.120312
 20
0.672439
 30
0.0
 11
-0.118126
 21
0.6700000000000001
 31
0.0
  0
LINE
  5
160
330
156
100
AcDbEntity
  8
BLOCKS
100
AcDbLine
 10
-0.096053
 20
0.6682220000000001
 30
0.0
 11
-0.1104089999999999
 21
0.6700000000000001
 31
0.0
  0
LINE
  5
161
330
156
100
AcDbEntity
  8
BLOCKS
100
AcDbLine
 10
0.096053
 20
0.6682220000000001
 30
0.0
 11
-0.096053
 21
0.6682220000000001
 31
0.0
  0
ARC
  5
162
330
156
100
AcDbEntity
  8
BLOCKS
100
AcDbCircle
 10
-0.3175000056030639
 20
0.8125000056030637
 30
0.0
 40
0.0074999943969382
100
AcDbArc
 50
89.99995719571286
 51
180.000042804286
  0
ARC
  5
163
330
156
100
AcDbEntity
  8
BLOCKS
100
AcDbCircle
 10
-0.2950000636151226
 20
0.7996205295050749
 30
0.0
 40
0.0299999363885668
100
AcDbArc
 50
179.9991014189777
 51
216.3027769438068
  0
LINE
  5
164
330
156
100
AcDbEntity
  8
BLOCKS
100
AcDbLine
 10
-0.325
 20
0.8125
 30
0.0
 11
-0.325
 21
0.7996210000000003
 31
0.0
  0
ARC
  5
165
330
156
100
AcDbEntity
  8
BLOCKS
100
AcDbCircle
 10
-0.1441932021228361
 20
0.9104160628123036
 30
0.0
 40
0.2171318675792265
100
AcDbArc
 50
216.3039735384664
 51
246.2734483094278
  0
ARC
  5
166
330
156
100
AcDbEntity
  8
BLOCKS
100
AcDbCircle
 10
0.0836829942978949
 20
1.428871744608052
 30
0.0
 40
0.7834567344875332
100
AcDbArc
 50
246.2732174110575
 51
254.9075001739017
  0
ARC
  5
167
330
156
100
AcDbEntity
  8
BLOCKS
100
AcDbCircle
 10
0.1004094784489627
 20
0.6601427585233342
 30
0.0
 40
0.009999521553953
100
AcDbArc
 50
313.994187136527
 51
0.0013836255792313
  0
ARC
  5
168
330
156
100
AcDbEntity
  8
BLOCKS
100
AcDbCircle
 10
0.1194747639246876
 20
0.6090512881861241
 30
0.0
 40
0.0399997639257258
100
AcDbArc
 50
133.9932163096005
 51
180.0004127986518
  0
LINE
  5
169
330
156
100
AcDbEntity
  8
BLOCKS
100
AcDbLine
 10
0.0916919999999999
 20
0.6378280000000001
 30
0.0
 11
0.107355
 21
0.652949
 31
0.0
  0
ARC
  5
16A
330
156
100
AcDbEntity
  8
BLOCKS
100
AcDbCircle
 10
-0.1194747639246876
 20
0.6090512881861241
 30
0.0
 40
0.0399997639257258
100
AcDbArc
 50
359.9995872013481
 51
46.00678369039947
  0
LINE
  5
16B
330
156
100
AcDbEntity
  8
BLOCKS
100
AcDbLine
 10
-0.107355
 20
0.652949
 30
0.0
 11
-0.0916919999999999
 21
0.6378280000000001
 31
0.0
  0
ARC
  5
16C
330
156
100
AcDbEntity
  8
BLOCKS
100
AcDbCircle
 10
-0.1004094784489627
 20
0.6601427585233342
 30
0.0
 40
0.009999521553953
100
AcDbArc
 50
179.9986163744208
 51
226.0058128634729
  0
LINE
  5
16D
330
156
100
AcDbEntity
  8
BLOCKS
100
AcDbLine
 10
-0.0794749999999999
 20
0.0
 30
0.0
 11
0.0794749999999999
 21
0.0
 31
0.0
  0
LINE
  5
16E
330
156
100
AcDbEntity
  8
BLOCKS
100
AcDbLine
 10
0.0794749999999999
 20
0.0
 30
0.0
 11
0.0794749999999999
 21
0.609051
 31
0.0
  0
LINE
  5
16F
330
156
100
AcDbEntity
  8
BLOCKS
100
AcDbLine
 10
-0.0794749999999999
 20
0.609051
 30
0.0
 11
-0.0794749999999999
 21
0.0
 31
0.0
  0
LINE
  5
170
330
156
100
AcDbEntity
  8
BLOCKS
100
AcDbLine
 10
0.1104089999999999
 20
0.6601429999999999
 30
0.0
 11
0.1104089999999999
 21
0.6700000000000001
 31
0.0
  0
LINE
  5
171
330
156
100
AcDbEntity
  8
BLOCKS
100
AcDbLine
 10
-0.1104089999999999
 20
0.6700000000000001
 30
0.0
 11
-0.1104089999999999
 21
0.6601429999999999
 31
0.0
  0
LINE
  5
172
330
156
100
AcDbEntity
  8
BLOCKS
100
AcDbLine
 10
0.3175
 20
0.8200000000000001
 30
0.0
 11
-0.3175
 21
0.8200000000000001
 31
0.0
  0
ARC
  5
173
330
156
100
AcDbEntity
  8
BLOCKS
100
AcDbCircle
 10
-0.0836829942978949
 20
1.428871744608052
 30
0.0
 40
0.7834567344875332
100
AcDbArc
 50
285.0924998260983
 51
293.7267825889426
  0
LWPOLYLINE
  5
174
330
156
100
AcDbEntity
  8
BLOCKS
100
AcDbPolyline
 90
        8
 70
     0
 43
0.0
 10
-0.2530800000000001
 20
0.8200000000000001
 42
0.236068
 10
-0.24908
 20
0.8219999999999998
 10
-0.24458
 20
0.8280000000000001
 42
-0.236068
 10
-0.2405799999999999
 20
0.83
 10
0.2405799999999999
 20
0.83
 42
-0.236068
 10
0.24458
 20
0.8280000000000001
 10
0.2490799999999999
 20
0.8219999999999998
 42
0.236068
 10
0.2530799999999999
 20
0.8200000000000001
  0
ENDBLK
  5
176
330
156
100
AcDbEntity
  8
0
100
AcDbBlockEnd
  0
BLOCK
  5
1A6
330
19F
100
AcDbEntity
  8
0
100
AcDbBlockBegin
  2
103310PL
 70
     0
 10
0.0
 20
0.0
 30
0.0
  3
103310PL
  1

  0
CIRCLE
  5
1A0
330
19F
100
AcDbEntity
  8
BLOCKS
100
AcDbCircle
 10
0.0
 20
-0.210000000000037
 30
0.0
 40
0.0225
  0
CIRCLE
  5
1A1
330
19F
100
AcDbEntity
  8
BLOCKS
100
AcDbCircle
 10
0.0
 20
-0.0650000000000546
 30
0.0
 40
0.0175
  0
LWPOLYLINE
  5
1A2
330
19F
100
AcDbEntity
  8
BLOCKS
100
AcDbPolyline
 90
       10
 70
     0
 43
0.0
 10
-0.1629599999999982
 20
-0.1520389999999452
 42
0.174674
 10
-0.2315109999999549
 20
-0.1972929999999457
 42
0.196643
 10
-0.242888999999991
 20
-0.2412829999999536
 42
0.079078
 10
-0.2218920000000253
 20
-0.3108740000000131
 42
0.189625
 10
-0.0955729999999449
 20
-0.4274100000000095
 42
0.184051
 10
0.0955729999999449
 20
-0.4274100000000095
 42
0.189625
 10
0.2218920000000253
 20
-0.3108740000000131
 42
0.079078
 10
0.242888999999991
 20
-0.2412829999999536
 42
0.196643
 10
0.2315109999999549
 20
-0.1972929999999457
 42
0.174674
 10
0.1629599999999982
 20
-0.1520389999999452
 42
0.174674
  0
LWPOLYLINE
  5
1A3
330
19F
100
AcDbEntity
  8
BLOCKS
100
AcDbPolyline
 90
        2
 70
     0
 43
0.0
 10
0.2751019999999471
 20
-0.1845939999999479
 42
0.180274
 10
-0.2751019999999471
 20
-0.1845939999999479
 42
0.180274
  0
LWPOLYLINE
  5
1A4
330
19F
100
AcDbEntity
  8
BLOCKS
100
AcDbPolyline
 90
        4
 70
     0
 43
0.0
 10
-0.2440460000000257
 20
-0.0103219999999738
 42
0.257897
 10
-0.2355800000000272
 20
-0.0149999999999864
 10
0.2355800000000272
 20
-0.0149999999999864
 42
0.257897
 10
0.2440460000000257
 20
-0.0103219999999738
  0
LWPOLYLINE
  5
1A5
330
19F
100
AcDbEntity
  8
BLOCKS
100
AcDbPolyline
 90
        8
 70
     1
 43
0.0
 10
0.2713959999999815
 20
-0.3348399999999861
 42
0.159542
 10
0.2952739999999494
 20
-0.1583110000000261
 42
0.059987
 10
0.25
 20
0.0
 10
-0.25
 20
0.0
 42
0.059987
 10
-0.2952739999999494
 20
-0.1583110000000261
 42
0.159542
 10
-0.2713959999999815
 20
-0.3348399999999861
 42
0.18978
 10
-0.1153160000000071
 20
-0.4787440000000066
 42
0.184327
 10
0.1153160000000071
 20
-0.4787440000000066
 42
0.18978
  0
ENDBLK
  5
1A7
330
19F
100
AcDbEntity
  8
0
100
AcDbBlockEnd
  0
BLOCK
  5
1BF
330
1A9
100
AcDbEntity
  8
0
100
AcDbBlockBegin
  2
103310CT
 70
     0
 10
0.0
 20
0.0
 30
0.0
  3
103310CT
  1

  0
ARC
  5
1AA
330
1A9
100
AcDbEntity
  8
BLOCKS
100
AcDbCircle
 10
0.4691719999999578
 20
0.7959959999999456
 30
0.0
 40
0.005
100
AcDbArc
 50
104.7012470000003
 51
156.120405999998
  0
ARC
  5
1AB
330
1A9
100
AcDbEntity
  8
BLOCKS
100
AcDbCircle
 10
0.4800000000000182
 20
0.7988370000000487
 30
0.0
 40
0.005
100
AcDbArc
 50
0.0
 51
104.7012470000003
  0
ARC
  5
1AC
330
1A9
100
AcDbEntity
  8
BLOCKS
100
AcDbCircle
 10
0.4800000000000182
 20
0.7961759999999459
 30
0.0
 40
0.005
100
AcDbArc
 50
321.8979859999985
 51
0.0
  0
LINE
  5
1AD
330
1A9
100
AcDbEntity
  8
BLOCKS
100
AcDbLine
 10
0.4850000000000137
 20
0.7988370000000487
 30
0.0
 11
0.4850000000000137
 21
0.7961759999999459
 31
0.0
  0
LINE
  5
1AE
330
1A9
100
AcDbEntity
  8
BLOCKS
100
AcDbLine
 10
0.4679029999999785
 20
0.8008320000000139
 30
0.0
 11
0.4787310000000389
 21
0.8036730000000034
 31
0.0
  0
ARC
  5
1AF
330
1A9
100
AcDbEntity
  8
BLOCKS
100
AcDbCircle
 10
0.4384240000000546
 20
0.7492320000000064
 30
0.0
 40
0.002
100
AcDbArc
 50
143.3352469999988
 51
309.5889129999997
  0
ARC
  5
1B0
330
1A9
100
AcDbEntity
  8
BLOCKS
100
AcDbCircle
 10
0.2383069999999634
 20
0.8982029999999667
 30
0.0
 40
0.247477
100
AcDbArc
 50
323.3352469999988
 51
336.120405999998
  0
ARC
  5
1B1
330
1A9
100
AcDbEntity
  8
BLOCKS
100
AcDbCircle
 10
0.2513059999999996
 20
0.9755069999999932
 30
0.0
 40
0.295621
100
AcDbArc
 50
309.5889129999997
 51
321.8979859999985
  0
LWPOLYLINE
  5
1B2
330
1A9
100
AcDbEntity
  8
BLOCKS
100
AcDbPolyline
 90
        8
 70
     0
 43
0.0
 10
0.0
 20
0.75
 42
0.4142140000000001
 10
0.0049999999999955
 20
0.7450000000000046
 10
0.0149999999999864
 20
0.7450000000000046
 42
0.4142140000000001
 10
0.0199999999999818
 20
0.75
 10
0.0199999999999818
 20
0.7899999999999637
 42
-0.4142140000000001
 10
0.0299999999999727
 20
0.7999999999999546
 10
0.0475000000000137
 20
0.7999999999999546
 10
0.0475000000000137
 20
0.8150000000000545
  0
LWPOLYLINE
  5
1B3
330
1A9
100
AcDbEntity
  8
BLOCKS
100
AcDbPolyline
 90
        4
 70
     1
 43
0.0
 10
0.2889400000000251
 20
0.6462699999999586
 10
0.282071999999971
 20
0.6429110000000265
 42
1.339982
 10
0.2872640000000501
 20
0.6372659999999542
 42
-0.032994
 10
0.2913849999999911
 20
0.6432310000000144
 42
0.798945
  0
LWPOLYLINE
  5
1B4
330
1A9
100
AcDbEntity
  8
BLOCKS
100
AcDbPolyline
 90
        2
 70
     0
 43
0.0
 10
0.1875
 20
0.6194490000000315
 10
0.1875
 20
0.6019999999999755
  0
LWPOLYLINE
  5
1B5
330
1A9
100
AcDbEntity
  8
BLOCKS
100
AcDbPolyline
 90
        2
 70
     0
 43
0.0
 10
0.2324999999999591
 20
0.6559519999999566
 10
0.1875
 20
0.6559519999999566
  0
LWPOLYLINE
  5
1B6
330
1A9
100
AcDbEntity
  8
BLOCKS
100
AcDbPolyline
 90
        2
 70
     0
 43
0.0
 10
0.268126000000052
 20
0.6408569999999827
 10
0.2474999999999454
 20
0.6408569999999827
  0
LWPOLYLINE
  5
1B7
330
1A9
100
AcDbEntity
  8
BLOCKS
100
AcDbPolyline
 90
        8
 70
     0
 43
0.0
 10
0.3015000000000327
 20
0.6635479999999916
 10
0.2737309999999979
 20
0.6499619999999596
 42
0.463451
 10
0.2699870000000146
 20
0.6351680000000215
 42
-0.147571
 10
0.2792680000000018
 20
0.6078149999999596
 10
0.2989509999999882
 20
0.0305110000000468
 42
-0.424231
 10
0.2839599999999791
 20
0.0149999999999864
 10
0.19500000000005
 20
0.0149999999999864
 10
0.19500000000005
 20
0.0
  0
LWPOLYLINE
  5
1B8
330
1A9
100
AcDbEntity
  8
BLOCKS
100
AcDbPolyline
 90
        3
 70
     0
 43
0.0
 10
0.1725000000000136
 20
0.6699999999999591
 10
0.1875
 20
0.6559519999999566
 10
0.1875
 20
0.6344490000000178
  0
LWPOLYLINE
  5
1B9
330
1A9
100
AcDbEntity
  8
BLOCKS
100
AcDbPolyline
 90
        3
 70
     0
 43
0.0
 10
0.2324999999999591
 20
0.6019999999999755
 10
0.2324999999999591
 20
0.6559519999999566
 10
0.2465479999999616
 20
0.6699999999999591
  0
LWPOLYLINE
  5
1BA
330
1A9
100
AcDbEntity
  8
BLOCKS
100
AcDbPolyline
 90
       10
 70
     0
 43
0.0
 10
0.1344960000000128
 20
0.7703800000000456
 10
0.1245470000000068
 20
0.7693779999999606
 10
0.1319419999999809
 20
0.6959900000000517
 42
0.288021
 10
0.1580760000000509
 20
0.6624070000000302
 42
-0.101346
 10
0.1597850000000562
 20
0.6613569999999527
 10
0.1709180000000288
 20
0.6509300000000167
 42
-0.207438
 10
0.1725000000000136
 20
0.6472810000000209
 10
0.1725000000000136
 20
0.6394490000000133
 42
0.4142140000000001
 10
0.1775000000000091
 20
0.6344490000000178
 10
0.1875
 20
0.6344490000000178
  0
LWPOLYLINE
  5
1BB
330
1A9
100
AcDbEntity
  8
BLOCKS
100
AcDbPolyline
 90
        9
 70
     0
 43
0.0
 10
0.1324909999999591
 20
0.7902800000000525
 10
0.1225409999999556
 20
0.7892769999999701
 10
0.1219119999999521
 20
0.7955269999999928
 42
1.0
 10
0.1119619999999486
 20
0.794524000000024
 10
0.1262239999999792
 20
0.6529970000000276
 42
0.181039
 10
0.1277760000000399
 20
0.6498530000000074
 10
0.1558250000000498
 20
0.6235140000000002
 42
0.190757
 10
0.1660930000000462
 20
0.6194490000000315
 10
0.1875
 20
0.6194490000000315
  0
LWPOLYLINE
  5
1BC
330
1A9
100
AcDbEntity
  8
BLOCKS
100
AcDbPolyline
 90
       25
 70
     0
 43
0.0
 10
0.0824999999999818
 20
0.8150000000000545
 10
0.0824999999999818
 20
0.7999999999999546
 10
0.096838000000048
 20
0.7999999999999546
 42
-0.385095
 10
0.1018129999999928
 20
0.7955009999999448
 10
0.1162739999999758
 20
0.6519939999999452
 42
0.181039
 10
0.1209300000000439
 20
0.6425629999999956
 10
0.1518650000000434
 20
0.6135140000000093
 42
0.190757
 10
0.1621340000000373
 20
0.6094490000000406
 10
0.1675000000000182
 20
0.6094490000000406
 42
-0.4142140000000001
 10
0.1725000000000136
 20
0.6044490000000451
 10
0.1725000000000136
 20
0.6019999999999755
 10
0.2474999999999454
 20
0.6019999999999755
 10
0.2474999999999454
 20
0.6422109999999748
 42
-0.369104
 10
0.2601630000000341
 20
0.6570279999999685
 10
0.3015000000000327
 20
0.6635479999999916
 10
0.325409000000036
 20
0.6699999999999591
 10
0.3331259999999929
 20
0.6699999999999591
 10
0.3353120000000445
 20
0.672439000000054
 42
0.06712
 10
0.4065610000000106
 20
0.7064689999999701
 42
0.093848
 10
0.4941770000000361
 20
0.7818590000000541
 42
0.159743
 10
0.5
 20
0.799621000000002
 10
0.5
 20
0.8125
 42
0.4142140000000001
 10
0.49249999999995
 20
0.82000000000005
 10
0.0175000000000409
 20
0.82000000000005
 42
-0.236068
 10
0.0135000000000218
 20
0.8220000000000027
  0
LWPOLYLINE
  5
1BD
330
1A9
100
AcDbEntity
  8
BLOCKS
100
AcDbPolyline
 90
       17
 70
     0
 43
0.0
 10
0.4857230000000073
 20
0.82000000000005
 42
0.064234
 10
0.4781100000000152
 20
0.8190180000000282
 10
0.4593740000000253
 20
0.814102000000048
 42
0.224826
 10
0.4528209999999718
 20
0.8085949999999684
 42
-0.12926
 10
0.381010999999944
 20
0.714678000000049
 42
-0.129652
 10
0.2465479999999616
 20
0.6699999999999591
 10
0.1717399999999998
 20
0.6699999999999591
 42
-0.385095
 10
0.1418919999999844
 20
0.696992000000023
 10
0.1304529999999886
 20
0.8105010000000447
 42
0.385095
 10
0.1254790000000412
 20
0.8150000000000545
 10
0.0212500000000091
 20
0.8150000000000545
 42
-0.236068
 10
0.01724999999999
 20
0.8170000000000072
 10
0.0090000000000146
 20
0.8279999999999745
 42
0.7207590000000001
 10
0.0
 20
0.8250000000000454
 10
0.0
 20
0.6900000000000546
 42
0.4142140000000001
 10
0.0099999999999909
 20
0.67999999999995
 10
0.1134520000000521
 20
0.67999999999995
  0
LWPOLYLINE
  5
1BE
330
1A9
100
AcDbEntity
  8
BLOCKS
100
AcDbPolyline
 90
        9
 70
     0
 43
0.0
 10
0.1349999999999909
 20
0.6293510000000424
 10
0.1349999999999909
 20
0.0
 10
0.3150000000000546
 20
0.0
 10
0.294475000000034
 20
0.6019999999999755
 10
0.294475000000034
 20
0.6090510000000223
 42
-0.203485
 10
0.3066919999999982
 20
0.6378280000000132
 10
0.3223550000000159
 20
0.6529490000000351
 42
0.203485
 10
0.325409000000036
 20
0.6601429999999482
 10
0.325409000000036
 20
0.6699999999999591
  0
ENDBLK
  5
1C0
330
1A9
100
AcDbEntity
  8
0
100
AcDbBlockEnd
  0
BLOCK
  5
1C7
330
1C2
100
AcDbEntity
  8
0
100
AcDbBlockBegin
  2
103310AL
 70
     0
 10
0.0
 20
0.0
 30
0.0
  3
103310AL
  1

  0
LWPOLYLINE
  5
1C3
330
1C2
100
AcDbEntity
  8
BLOCKS
100
AcDbPolyline
 90
        3
 70
     0
 43
0.0
 10
0.1370990000000347
 20
0.6799999999999505
 42
0.087119
 10
0.1459839999999986
 20
0.6693960000000067
 42
0.176705
 10
0.1492040000000543
 20
0.6682220000000149
  0
LWPOLYLINE
  5
1C4
330
1C2
100
AcDbEntity
  8
BLOCKS
100
AcDbPolyline
 90
       15
 70
     0
 43
0.0
 10
0.325409000000036
 20
0.6699999999999596
 10
0.3331259999999929
 20
0.6699999999999596
 10
0.3353120000000445
 20
0.6724390000000545
 42
0.06712
 10
0.4065610000000106
 20
0.7064689999999706
 42
0.093848
 10
0.4941770000000361
 20
0.7818590000000546
 42
0.159743
 10
0.5
 20
0.7996210000000025
 10
0.5
 20
0.8125000000000005
 42
0.4142140000000001
 10
0.49249999999995
 20
0.8200000000000505
 10
0.0175000000000409
 20
0.8200000000000505
 42
-0.236068
 10
0.0135000000000218
 20
0.8220000000000032
 10
0.0090000000000146
 20
0.827999999999975
 42
0.7207590000000001
 10
0.0
 20
0.825000000000046
 10
0.0
 20
0.6900000000000551
 42
0.4142140000000001
 10
0.0099999999999909
 20
0.6799999999999505
 10
0.1601779999999735
 20
0.6799999999999505
  0
LWPOLYLINE
  5
1C5
330
1C2
100
AcDbEntity
  8
BLOCKS
100
AcDbPolyline
 90
        4
 70
     0
 43
0.0
 10
0.1349999999999909
 20
0.629351000000043
 10
0.1209300000000439
 20
0.6425629999999961
 42
-0.181039
 10
0.1162739999999758
 20
0.6519939999999457
 10
0.1134520000000521
 20
0.6799999999999505
  0
LWPOLYLINE
  5
1C6
330
1C2
100
AcDbEntity
  8
BLOCKS
100
AcDbPolyline
 90
       12
 70
     0
 43
0.0
 10
0.3066340000000309
 20
0.637771000000044
 10
0.3223550000000159
 20
0.6529490000000357
 42
0.203485
 10
0.325409000000036
 20
0.6601429999999488
 10
0.325409000000036
 20
0.6699999999999596
 10
0.3188189999999622
 20
0.6682220000000149
 10
0.1399999999999864
 20
0.6682220000000149
 42
0.4142140000000001
 10
0.1349999999999909
 20
0.6632220000000194
 10
0.1349999999999909
 20
0.0
 10
0.3150000000000546
 20
0.0
 10
0.294475000000034
 20
0.601999999999976
 10
0.294475000000034
 20
0.6090510000000228
 42
-0.203485
 10
0.3066919999999982
 20
0.6378280000000137
  0
ENDBLK
  5
1C8
330
1C2
100
AcDbEntity
  8
0
100
AcDbBlockEnd
  0
BLOCK
  5
1CE
330
1CA
100
AcDbEntity
  8
0
100
AcDbBlockBegin
  2
103310AF
 70
     0
 10
0.0
 20
0.0
 30
0.0
  3
103310AF
  1

  0
LWPOLYLINE
  5
1CB
330
1CA
100
AcDbEntity
  8
BLOCKS
100
AcDbPolyline
 90
       14
 70
     1
 43
0.0
 10
0.1104090000000042
 20
0.6699999999999591
 10
0.0960529999999835
 20
0.6682220000000143
 10
-0.0960529999999835
 20
0.6682220000000143
 10
-0.1104090000000042
 20
0.6699999999999591
 10
-0.1104090000000042
 20
0.6601429999999482
 42
0.203485
 10
-0.1073549999999841
 20
0.6529490000000351
 10
-0.0916919999999664
 20
0.6378280000000132
 42
-0.203485
 10
-0.0794750000000022
 20
0.6090510000000223
 10
-0.0794750000000022
 20
0.0
 10
0.0794750000000022
 20
0.0
 10
0.0794750000000022
 20
0.6090510000000223
 42
-0.203485
 10
0.0916919999999664
 20
0.6378280000000132
 10
0.1073549999999841
 20
0.6529490000000351
 42
0.203485
 10
0.1104090000000042
 20
0.6601429999999482
  0
LWPOLYLINE
  5
1CC
330
1CA
100
AcDbEntity
  8
BLOCKS
100
AcDbPolyline
 90
        8
 70
     0
 43
0.0
 10
-0.248079999999959
 20
0.82000000000005
 42
0.236068
 10
-0.2440800000000536
 20
0.8220000000000027
 10
-0.2395800000000463
 20
0.8279999999999745
 42
-0.236068
 10
-0.2355800000000272
 20
0.8300000000000409
 10
0.2355800000000272
 20
0.8300000000000409
 42
-0.236068
 10
0.2395800000000463
 20
0.8279999999999745
 10
0.2440800000000536
 20
0.8220000000000027
 42
0.236068
 10
0.248079999999959
 20
0.82000000000005
  0
LWPOLYLINE
  5
1CD
330
1CA
100
AcDbEntity
  8
BLOCKS
100
AcDbPolyline
 90
       16
 70
     0
 43
0.0
 10
0.1104090000000042
 20
0.6699999999999591
 10
0.1181259999999611
 20
0.6699999999999591
 10
0.1203120000000126
 20
0.672439000000054
 42
0.119201
 10
0.2065609999999651
 20
0.7064689999999701
 42
0.093848
 10
0.2941769999999906
 20
0.7818590000000541
 42
0.159743
 10
0.2999999999999545
 20
0.799621000000002
 10
0.2999999999999545
 20
0.8125
 42
0.4142140000000001
 10
0.2925000000000182
 20
0.82000000000005
 10
-0.2925000000000182
 20
0.82000000000005
 42
0.4142140000000001
 10
-0.2999999999999545
 20
0.8125
 10
-0.2999999999999545
 20
0.799621000000002
 42
0.159743
 10
-0.2941769999999906
 20
0.7818590000000541
 42
0.093848
 10
-0.2065609999999651
 20
0.7064689999999701
 42
0.119201
 10
-0.1203120000000126
 20
0.672439000000054
 10
-0.1181259999999611
 20
0.6699999999999591
 10
-0.1104090000000042
 20
0.6699999999999591
  0
ENDBLK
  5
1CF
330
1CA
100
AcDbEntity
  8
0
100
AcDbBlockEnd
  0
BLOCK
  5
201
330
1F5
100
AcDbEntity
  8
0
100
AcDbBlockBegin
  2
103300PL
 70
     0
 10
0.0
 20
0.0
 30
0.0
  3
103300PL
  1

  0
CIRCLE
  5
1F6
330
1F5
100
AcDbEntity
  8
BLOCKS
100
AcDbCircle
 10
0.0
 20
-0.1900000000000551
 30
0.0
 40
0.0225
  0
CIRCLE
  5
1F7
330
1F5
100
AcDbEntity
  8
BLOCKS
100
AcDbCircle
 10
0.0
 20
-0.0650000000000546
 30
0.0
 40
0.0175
  0
ARC
  5
1F8
330
1F5
100
AcDbEntity
  8
BLOCKS
100
AcDbCircle
 10
0.0
 20
-0.1635209999999466
 30
0.0
 40
0.241479
100
AcDbArc
 50
249.1121690000004
 51
290.8878309999995
  0
ARC
  5
1F9
330
1F5
100
AcDbEntity
  8
BLOCKS
100
AcDbCircle
 10
-0.0126109999999926
 20
-0.1942689999999635
 30
0.0
 40
0.207389
100
AcDbArc
 50
190.3652159999994
 51
205.8326300000004
  0
ARC
  5
1FA
330
1F5
100
AcDbEntity
  8
BLOCKS
100
AcDbCircle
 10
-0.1575950000000148
 20
-0.220787999999971
 30
0.0
 40
0.06
100
AcDbArc
 50
132.2943170000009
 51
190.3652159999994
  0
ARC
  5
1FB
330
1F5
100
AcDbEntity
  8
BLOCKS
100
AcDbCircle
 10
-0.0097329999999829
 20
-0.1928759999999562
 30
0.0
 40
0.210587
100
AcDbArc
 50
205.8326300000004
 51
248.8159340000015
  0
ARC
  5
1FC
330
1F5
100
AcDbEntity
  8
BLOCKS
100
AcDbCircle
 10
-0.1232380000000148
 20
-0.2585530000000068
 30
0.0
 40
0.111055
100
AcDbArc
 50
103.6150819999985
 51
132.2943170000009
  0
LWPOLYLINE
  5
1FD
330
1F5
100
AcDbEntity
  8
BLOCKS
100
AcDbPolyline
 90
        5
 70
     0
 43
0.0
 10
0.0858319999999822
 20
-0.3892319999999932
 42
0.18978
 10
0.1992760000000544
 20
-0.2846379999999732
 42
0.067592
 10
0.2166160000000445
 20
-0.2315830000000011
 42
0.258948
 10
0.1979710000000523
 20
-0.1764060000000433
 42
0.125794
 10
0.149379999999951
 20
-0.150619000000006
  0
LWPOLYLINE
  5
1FE
330
1F5
100
AcDbEntity
  8
BLOCKS
100
AcDbPolyline
 90
        2
 70
     0
 43
0.0
 10
0.2521769999999606
 20
-0.1804610000000372
 42
0.180274
 10
-0.2521769999999606
 20
-0.1804610000000372
 42
0.180274
  0
LWPOLYLINE
  5
1FF
330
1F5
100
AcDbEntity
  8
BLOCKS
100
AcDbPolyline
 90
        4
 70
     0
 43
0.0
 10
-0.2237089999999853
 20
-0.0107120000000123
 42
0.257897
 10
-0.2159480000000258
 20
-0.0149999999999864
 10
0.2159480000000258
 20
-0.0149999999999864
 42
0.257897
 10
0.2237089999999853
 20
-0.0107120000000123
  0
LWPOLYLINE
  5
200
330
1F5
100
AcDbEntity
  8
BLOCKS
100
AcDbPolyline
 90
        8
 70
     1
 43
0.0
 10
0.2487800000000107
 20
-0.3086039999999462
 42
0.159542
 10
0.2706680000000006
 20
-0.1467850000000226
 42
0.051251
 10
0.2300000000000182
 20
0.0
 10
-0.2300000000000182
 20
0.0
 42
0.051251
 10
-0.2706680000000006
 20
-0.1467850000000226
 42
0.159542
 10
-0.2487800000000107
 20
-0.3086039999999462
 42
0.18978
 10
-0.1057070000000522
 20
-0.4405150000000054
 42
0.184327
 10
0.1057070000000522
 20
-0.4405150000000054
 42
0.18978
  0
ENDBLK
  5
202
330
1F5
100
AcDbEntity
  8
0
100
AcDbBlockEnd
  0
BLOCK
  5
211
330
204
100
AcDbEntity
  8
0
100
AcDbBlockBegin
  2
103300CT
 70
     0
 10
0.0
 20
0.0
 30
0.0
  3
103300CT
  1

  0
LWPOLYLINE
  5
205
330
204
100
AcDbEntity
  8
BLOCKS
100
AcDbPolyline
 90
        8
 70
     1
 43
0.0
 10
0.4284189999999626
 20
0.8309679999999616
 42
0.247691
 10
0.4249790000000076
 20
0.8278129999999691
 42
-0.058857
 10
0.3982320000000072
 20
0.7739049999999907
 42
0.887104
 10
0.4012750000000552
 20
0.7713529999999537
 42
0.067805
 10
0.4442719999999554
 20
0.8243320000000039
 42
0.137446
 10
0.4450000000000501
 20
0.8269299999999248
 10
0.4450000000000501
 20
0.8288369999999986
 42
0.491526
 10
0.4387309999999616
 20
0.8336729999999533
  0
LWPOLYLINE
  5
206
330
204
100
AcDbEntity
  8
BLOCKS
100
AcDbPolyline
 90
        8
 70
     0
 43
0.0
 10
0.0475000000000137
 20
0.8450000000000045
 10
0.0475000000000137
 20
0.8299999999999045
 10
0.0299999999999727
 20
0.8299999999999045
 42
0.4142140000000001
 10
0.0199999999999818
 20
0.8199999999999135
 10
0.0199999999999818
 20
0.77999999999995
 42
-0.4142140000000001
 10
0.0149999999999864
 20
0.7749999999999546
 10
0.0049999999999955
 20
0.7749999999999546
 42
-0.4142140000000001
 10
0.0
 20
0.77999999999995
  0
LWPOLYLINE
  5
207
330
204
100
AcDbEntity
  8
BLOCKS
100
AcDbPolyline
 90
        4
 70
     1
 43
0.0
 10
0.2713850000000093
 20
0.6732309999999643
 42
0.798945
 10
0.2689400000000432
 20
0.6762699999999086
 10
0.2620719999999892
 20
0.6729109999999765
 42
1.339982
 10
0.2672639999999546
 20
0.6672659999999042
 42
-0.032994
  0
LWPOLYLINE
  5
208
330
204
100
AcDbEntity
  8
BLOCKS
100
AcDbPolyline
 90
        2
 70
     0
 43
0.0
 10
0.2124999999999773
 20
0.6859519999999066
 10
0.1675000000000182
 20
0.6859519999999066
  0
LWPOLYLINE
  5
209
330
204
100
AcDbEntity
  8
BLOCKS
100
AcDbPolyline
 90
        2
 70
     0
 43
0.0
 10
0.2481259999999565
 20
0.6708569999999327
 10
0.2274999999999636
 20
0.6708569999999327
  0
LWPOLYLINE
  5
20A
330
204
100
AcDbEntity
  8
BLOCKS
100
AcDbPolyline
 90
        8
 70
     0
 43
0.0
 10
0.2815000000000509
 20
0.6935479999999416
 10
0.2537310000000161
 20
0.6799619999999095
 42
0.463451
 10
0.2499870000000328
 20
0.6651679999999715
 42
-0.147571
 10
0.25926800000002
 20
0.6378149999999096
 10
0.2789510000000064
 20
0.0305110000000468
 42
-0.424231
 10
0.2639599999999973
 20
0.0149999999999864
 10
0.1749999999999545
 20
0.0149999999999864
 10
0.1749999999999545
 20
0.0
  0
LWPOLYLINE
  5
20B
330
204
100
AcDbEntity
  8
BLOCKS
100
AcDbPolyline
 90
        3
 70
     0
 43
0.0
 10
0.2265479999999798
 20
0.6999999999999091
 10
0.2124999999999773
 20
0.6859519999999066
 10
0.2124999999999773
 20
0.6319999999999255
  0
LWPOLYLINE
  5
20C
330
204
100
AcDbEntity
  8
BLOCKS
100
AcDbPolyline
 90
       11
 70
     0
 43
0.0
 10
0.1344960000000128
 20
0.8003799999999955
 10
0.1245470000000068
 20
0.7993779999999106
 10
0.1344139999999925
 20
0.7014569999999822
 42
0.18138
 10
0.1390850000000228
 20
0.6920129999999518
 10
0.150918000000047
 20
0.6809299999999667
 42
-0.207438
 10
0.1525000000000318
 20
0.6772809999999709
 10
0.1525000000000318
 20
0.6694489999999633
 42
0.4142140000000001
 10
0.1575000000000273
 20
0.6644489999999678
 10
0.1675000000000182
 20
0.6644489999999678
 10
0.1675000000000182
 20
0.6859519999999066
 10
0.1525000000000318
 20
0.6999999999999091
  0
LWPOLYLINE
  5
20D
330
204
100
AcDbEntity
  8
BLOCKS
100
AcDbPolyline
 90
       10
 70
     0
 43
0.0
 10
0.1675000000000182
 20
0.6319999999999255
 10
0.1675000000000182
 20
0.6494489999999815
 10
0.1460929999999507
 20
0.6494489999999815
 42
-0.190757
 10
0.1358249999999543
 20
0.6535139999999501
 10
0.131230999999957
 20
0.6578279999999723
 42
-0.181039
 10
0.128125999999952
 20
0.6641149999999016
 10
0.1119619999999486
 20
0.8245239999999739
 42
-1.0
 10
0.1219119999999521
 20
0.8255269999999427
 10
0.1225409999999556
 20
0.81927699999992
 10
0.1324909999999591
 20
0.8202800000000024
  0
LWPOLYLINE
  5
20E
330
204
100
AcDbEntity
  8
BLOCKS
100
AcDbPolyline
 90
       24
 70
     0
 43
0.0
 10
0.0135000000000218
 20
0.8519999999999527
 42
0.236068
 10
0.0175000000000409
 20
0.85
 10
0.4524999999999864
 20
0.85
 42
-0.4142140000000001
 10
0.4600000000000364
 20
0.8424999999999499
 10
0.4600000000000364
 20
0.8296209999999518
 42
-0.159743
 10
0.4541769999999588
 20
0.811859000000004
 42
-0.169851
 10
0.315311999999949
 20
0.702439000000004
 10
0.3131260000000111
 20
0.6999999999999091
 10
0.3054090000000542
 20
0.6999999999999091
 10
0.2815000000000509
 20
0.6935479999999416
 10
0.2401630000000523
 20
0.6870279999999184
 42
0.369104
 10
0.2274999999999636
 20
0.6722109999999248
 10
0.2274999999999636
 20
0.6319999999999255
 10
0.1525000000000318
 20
0.6319999999999255
 10
0.1525000000000318
 20
0.6344489999999951
 42
0.4142140000000001
 10
0.1475000000000364
 20
0.6394489999999906
 10
0.1421340000000555
 20
0.6394489999999906
 42
-0.190757
 10
0.1318649999999479
 20
0.6435139999999592
 10
0.12165600000003
 20
0.6531009999999697
 42
-0.181039
 10
0.1185520000000224
 20
0.659387999999899
 10
0.1018129999999928
 20
0.8255009999998947
 42
0.385095
 10
0.096838000000048
 20
0.8299999999999045
 10
0.0824999999999818
 20
0.8299999999999045
 10
0.0824999999999818
 20
0.8450000000000045
  0
LWPOLYLINE
  5
20F
330
204
100
AcDbEntity
  8
BLOCKS
100
AcDbPolyline
 90
       17
 70
     0
 43
0.0
 10
0.4457230000000437
 20
0.85
 42
0.064234
 10
0.4381100000000516
 20
0.8490179999999782
 10
0.419373999999948
 20
0.844101999999998
 42
0.224826
 10
0.4128210000000081
 20
0.8385949999999184
 42
-0.094576
 10
0.3688949999999522
 20
0.7594119999999748
 42
-0.200313
 10
0.2421100000000251
 20
0.6999999999999091
 10
0.1491330000000062
 20
0.6999999999999091
 42
-0.385095
 10
0.1441579999999476
 20
0.7044989999999189
 10
0.1304529999999886
 20
0.8405009999999947
 42
0.385095
 10
0.1254790000000412
 20
0.8450000000000045
 10
0.0212500000000091
 20
0.8450000000000045
 42
-0.236068
 10
0.01724999999999
 20
0.8469999999999572
 10
0.0090000000000146
 20
0.8579999999999245
 42
0.7207590000000001
 10
0.0
 20
0.8549999999999954
 10
0.0
 20
0.7200000000000046
 42
0.4142140000000001
 10
0.0099999999999909
 20
0.7099999999999
 10
0.1134520000000521
 20
0.7099999999999
  0
LWPOLYLINE
  5
210
330
204
100
AcDbEntity
  8
BLOCKS
100
AcDbPolyline
 90
        9
 70
     0
 43
0.0
 10
0.1150000000000091
 20
0.6946379999999181
 10
0.1150000000000091
 20
0.0
 10
0.2949999999999591
 20
0.0
 10
0.2744750000000522
 20
0.6319999999999255
 10
0.2744750000000522
 20
0.6390509999999722
 42
-0.203485
 10
0.2866920000000164
 20
0.6678279999999632
 10
0.3023550000000341
 20
0.6829489999999851
 42
0.203485
 10
0.3054090000000542
 20
0.6901429999998982
 10
0.3054090000000542
 20
0.6999999999999091
  0
ENDBLK
  5
212
330
204
100
AcDbEntity
  8
0
100
AcDbBlockEnd
  0
BLOCK
  5
219
330
214
100
AcDbEntity
  8
0
100
AcDbBlockBegin
  2
103300AL
 70
     0
 10
0.0
 20
0.0
 30
0.0
  3
103300AL
  1

  0
LWPOLYLINE
  5
215
330
214
100
AcDbEntity
  8
BLOCKS
100
AcDbPolyline
 90
        3
 70
     0
 43
0.0
 10
0.1370990000000347
 20
0.7099999999999
 42
0.087119
 10
0.1459839999999986
 20
0.6993959999999561
 42
0.176705
 10
0.1492040000000543
 20
0.6982219999999643
  0
LWPOLYLINE
  5
216
330
214
100
AcDbEntity
  8
BLOCKS
100
AcDbPolyline
 90
        2
 70
     0
 43
0.0
 10
0.1134520000000521
 20
0.7099999999999
 10
0.1150629999999637
 20
0.6940129999999045
  0
LWPOLYLINE
  5
217
330
214
100
AcDbEntity
  8
BLOCKS
100
AcDbPolyline
 90
       14
 70
     0
 43
0.0
 10
0.3054090000000542
 20
0.6999999999999091
 10
0.3131260000000111
 20
0.6999999999999091
 10
0.315311999999949
 20
0.702439000000004
 42
0.169851
 10
0.4541769999999588
 20
0.811859000000004
 42
0.159743
 10
0.4600000000000364
 20
0.8296209999999518
 10
0.4600000000000364
 20
0.8424999999999499
 42
0.4142140000000001
 10
0.4524999999999864
 20
0.85
 10
0.0175000000000409
 20
0.85
 42
-0.236068
 10
0.0135000000000218
 20
0.8519999999999527
 10
0.0090000000000146
 20
0.8579999999999245
 42
0.7207590000000001
 10
0.0
 20
0.8549999999999954
 10
0.0
 20
0.7200000000000046
 42
0.4142140000000001
 10
0.0099999999999909
 20
0.7099999999999
 10
0.1601779999999735
 20
0.7099999999999
  0
LWPOLYLINE
  5
218
330
214
100
AcDbEntity
  8
BLOCKS
100
AcDbPolyline
 90
       12
 70
     0
 43
0.0
 10
0.2866340000000491
 20
0.6677709999999934
 10
0.3023550000000341
 20
0.6829489999999851
 42
0.203485
 10
0.3054090000000542
 20
0.6901429999998982
 10
0.3054090000000542
 20
0.6999999999999091
 10
0.2988189999999804
 20
0.6982219999999643
 10
0.1200000000000045
 20
0.6982219999999643
 42
0.4142140000000001
 10
0.1150000000000091
 20
0.6932219999999689
 10
0.1150000000000091
 20
0.0
 10
0.2949999999999591
 20
0.0
 10
0.2744750000000522
 20
0.6319999999999255
 10
0.2744750000000522
 20
0.6390509999999722
 42
-0.203485
 10
0.2866920000000164
 20
0.6678279999999632
  0
ENDBLK
  5
21A
330
214
100
AcDbEntity
  8
0
100
AcDbBlockEnd
  0
BLOCK
  5
220
330
21C
100
AcDbEntity
  8
0
100
AcDbBlockBegin
  2
103300AF
 70
     0
 10
0.0
 20
0.0
 30
0.0
  3
103300AF
  1

  0
LWPOLYLINE
  5
21D
330
21C
100
AcDbEntity
  8
BLOCKS
100
AcDbPolyline
 90
       14
 70
     1
 43
0.0
 10
-0.0960529999999835
 20
0.6982108218926215
 10
0.0960529999999835
 20
0.6982108218926215
 10
0.1104090000000042
 20
0.6999888218925662
 10
0.1104090000000042
 20
0.6901318218925553
 42
-0.203485
 10
0.1073549999999841
 20
0.6829378218926422
 10
0.0916919999999664
 20
0.6678168218926203
 42
0.203485
 10
0.0794750000000022
 20
0.6390398218926294
 10
0.0794750000000022
 20
0.0
 10
-0.0794750000000022
 20
0.0
 10
-0.0794750000000022
 20
0.6390398218926294
 42
0.203485
 10
-0.0916919999999664
 20
0.6678168218926203
 10
-0.1073549999999841
 20
0.6829378218926422
 42
-0.203485
 10
-0.1104090000000042
 20
0.6901318218925553
 10
-0.1104090000000042
 20
0.6999888218925662
  0
LWPOLYLINE
  5
21E
330
21C
100
AcDbEntity
  8
BLOCKS
100
AcDbPolyline
 90
        8
 70
     0
 43
0.0
 10
-0.2284479999999576
 20
0.8499888218926571
 42
0.236068
 10
-0.2244480000000522
 20
0.8519888218926098
 10
-0.2199480000000449
 20
0.8579888218925816
 42
-0.236068
 10
-0.2159480000000258
 20
0.859988821892648
 10
0.2159480000000258
 20
0.859988821892648
 42
-0.236068
 10
0.2199480000000449
 20
0.8579888218925816
 10
0.2244480000000522
 20
0.8519888218926098
 42
0.236068
 10
0.2284479999999576
 20
0.8499888218926571
  0
LWPOLYLINE
  5
21F
330
21C
100
AcDbEntity
  8
BLOCKS
100
AcDbPolyline
 90
       14
 70
     0
 43
0.0
 10
0.1104090000000042
 20
0.6999888218925662
 10
0.1181259999999611
 20
0.6999888218925662
 10
0.1203120000000126
 20
0.7024278218926611
 42
0.194952
 10
0.2691770000000133
 20
0.8118478218926611
 42
0.159743
 10
0.2749999999999773
 20
0.829609821892609
 10
0.2749999999999773
 20
0.8424888218926071
 42
0.4142140000000001
 10
0.2675000000000409
 20
0.8499888218926571
 10
-0.2675000000000409
 20
0.8499888218926571
 42
0.4142140000000001
 10
-0.2749999999999773
 20
0.8424888218926071
 10
-0.2749999999999773
 20
0.829609821892609
 42
0.159743
 10
-0.2691770000000133
 20
0.8118478218926611
 42
0.194952
 10
-0.1203120000000126
 20
0.7024278218926611
 10
-0.1181259999999611
 20
0.6999888218925662
 10
-0.1104090000000042
 20
0.6999888218925662
  0
ENDBLK
  5
221
330
21C
100
AcDbEntity
  8
0
100
AcDbBlockEnd
  0
ENDSEC
  0
SECTION
  2
ENTITIES
  0
INSERT
  5
203
330
23
100
AcDbEntity
  8
0
100
AcDbBlockReference
  2
103300PL
 10
73.04577418237636
 20
147.8525322498427
 30
0.0
  0
INSERT
  5
213
330
23
100
AcDbEntity
  8
0
100
AcDbBlockReference
  2
103300CT
 10
73.52061271392821
 20
147.1836098695182
 30
0.0
  0
INSERT
  5
21B
330
23
100
AcDbEntity
  8
0
100
AcDbBlockReference
  2
103300AL
 10
74.22828712656883
 20
147.1836098695182
 30
0.0
  0
INSERT
  5
222
330
23
100
AcDbEntity
  8
0
100
AcDbBlockReference
  2
103300AF
 10
75.16879742565075
 20
147.1836098695182
 30
0.0
  0
ENDSEC
  0
SECTION
  2
OBJECTS
  0
DICTIONARY
  5
C
330
0
100
AcDbDictionary
281
     1
  3
ACAD_COLOR
350
1C
  3
ACAD_GROUP
350
D
  3
ACAD_LAYOUT
350
1A
  3
ACAD_MATERIAL
350
1B
  3
ACAD_MLEADERSTYLE
350
283
  3
ACAD_MLINESTYLE
350
17
  3
ACAD_PLOTSETTINGS
350
19
  3
ACAD_PLOTSTYLENAME
350
E
  3
ACAD_SCALELIST
350
271
  3
ACAD_TABLESTYLE
350
1D
  3
ACAD_VISUALSTYLE
350
25D
  3
ACDB_RECOMPOSE_DATA
350
293
  3
AcDbVariableDictionary
350
1D2
  3
ASE_INDEX_DICTIONARY
350
58
  3
DWGPROPS
350
294
  0
DICTIONARY
  5
288
330
10
100
AcDbDictionary
280
     1
281
     1
  3
ADSK_XREC_LAYER_RECONCILED
360
289
  0
DICTIONARY
  5
28A
330
2F
100
AcDbDictionary
280
     1
281
     1
  3
ADSK_XREC_LAYER_RECONCILED
360
28B
  0
DICTIONARY
  5
1C
102
{ACAD_REACTORS
330
C
102
}
330
C
100
AcDbDictionary
281
     1
  0
DICTIONARY
  5
D
102
{ACAD_REACTORS
330
C
102
}
330
C
100
AcDbDictionary
281
     1
  0
DICTIONARY
  5
1A
102
{ACAD_REACTORS
330
C
102
}
330
C
100
AcDbDictionary
281
     1
  3
Layout1
350
22
  3
Layout2
350
2A
  3
Model
350
26
  0
DICTIONARY
  5
1B
102
{ACAD_REACTORS
330
C
102
}
330
C
100
AcDbDictionary
281
     1
  3
ByBlock
350
24D
  3
ByLayer
350
245
  3
Global
350
255
  0
DICTIONARY
  5
283
102
{ACAD_REACTORS
330
C
102
}
330
C
100
AcDbDictionary
281
     1
  3
Standard
350
284
  0
DICTIONARY
  5
17
102
{ACAD_REACTORS
330
C
102
}
330
C
100
AcDbDictionary
281
     1
  3
Standard
350
18
  0
DICTIONARY
  5
19
102
{ACAD_REACTORS
330
C
102
}
330
C
100
AcDbDictionary
281
     1
  0
ACDBDICTIONARYWDFLT
  5
E
102
{ACAD_REACTORS
330
C
102
}
330
C
100
AcDbDictionary
281
     1
  3
Normal
350
F
100
AcDbDictionaryWithDefault
340
F
  0
DICTIONARY
  5
271
102
{ACAD_REACTORS
330
C
102
}
330
C
100
AcDbDictionary
281
     1
  3
A0
350
272
  3
A1
350
273
  3
A2
350
274
  3
A3
350
275
  3
A4
350
276
  3
A5
350
277
  3
A6
350
278
  3
A7
350
279
  3
A8
350
27A
  3
A9
350
27B
  3
B0
350
27C
  3
B1
350
27D
  3
B2
350
27E
  3
B3
350
27F
  3
B4
350
280
  3
B5
350
281
  3
B6
350
282
  0
DICTIONARY
  5
1D
102
{ACAD_REACTORS
330
C
102
}
330
C
100
AcDbDictionary
281
     1
  3
Standard
350
1E
  0
DICTIONARY
  5
25D
102
{ACAD_REACTORS
330
C
102
}
330
C
100
AcDbDictionary
281
     1
  3
2dWireframe
350
263
  3
3D Hidden
350
265
  3
3dWireframe
350
264
  3
Basic
350
262
  3
Brighten
350
269
  3
ColorChange
350
26D
  3
Conceptual
350
266
  3
Dim
350
268
  3
EdgeColorOff
350
270
  3
Facepattern
350
26C
  3
Flat
350
25E
  3
FlatWithEdges
350
25F
  3
Gouraud
350
260
  3
GouraudWithEdges
350
261
  3
JitterOff
350
26E
  3
Linepattern
350
26B
  3
OverhangOff
350
26F
  3
Realistic
350
267
  3
Thicken
350
26A
  0
XRECORD
  5
293
102
{ACAD_REACTORS
330
C
102
}
330
C
100
AcDbXrecord
280
     1
 90
        1
330
1E
  0
DICTIONARY
  5
1D2
102
{ACAD_REACTORS
330
C
102
}
330
C
100
AcDbDictionary
281
     1
  3
CANNOSCALE
350
28D
  3
CMLEADERSTYLE
350
28C
  3
CTABLESTYLE
350
1D3
  3
DIMASSOC
350
242
  3
HIDETEXT
350
241
  3
INDEXCTL
350
28F
  3
PROJECTNAME
350
243
  3
SORTENTS
350
28E
  3
XCLIPFRAME
350
290
  0
DICTIONARY
  5
58
102
{ACAD_REACTORS
330
C
102
}
330
C
100
AcDbDictionary
281
     1
  3
ASEBlockHierarchyIndexRecord
350
5A
1001
DCO15
1040
1564401471.921
  0
XRECORD
  5
294
102
{ACAD_REACTORS
330
C
102
}
330
C
100
AcDbXrecord
280
     1
  1
DWGPROPS COOKIE
  2

  3

  4

  6

  7

  8
Julio
  9

300
=
301
=
302
=
303
=
304
=
305
=
306
=
307
=
308
=
309
=
 40
0.0156074537037037
 41
2453909.694926933
 42
2456141.716995081
  1

 90
        0
  0
XRECORD
  5
289
102
{ACAD_REACTORS
330
288
102
}
330
288
100
AcDbXrecord
280
     1
290
     1
  0
XRECORD
  5
28B
102
{ACAD_REACTORS
330
28A
102
}
330
28A
100
AcDbXrecord
280
     1
290
     1
  0
LAYOUT
  5
22
102
{ACAD_XDICTIONARY
360
296
102
}
102
{ACAD_REACTORS
330
1A
102
}
330
1A
100
AcDbPlotSettings
  1

  2
HP DesignJet 500PS42+HPGL2 Card
  4

  6

 40
0.0
 41
0.0
 42
0.0
 43
0.0
 44
0.0
 45
0.0
 46
0.0
 47
0.0
 48
0.0
 49
0.0
140
0.0
141
0.0
142
1.0
143
1.0
 70
   688
 72
     0
 73
     0
 74
     5
  7
C:\Documents and Settings\Julio\Application Data\Autodesk\AutoCAD 2006\R16.2\enu\Plot Styles\sanindusa.ctb
 75
    16
147
1.0
148
0.0
149
0.0
100
AcDbLayout
  1
Layout1
 70
     1
 71
     1
 10
0.0
 20
0.0
 11
420.0
 21
297.0
 12
0.0
 22
0.0
 32
0.0
 14
1.000000000000000E+20
 24
1.000000000000000E+20
 34
1.000000000000000E+20
 15
-1.000000000000000E+20
 25
-1.000000000000000E+20
 35
-1.000000000000000E+20
146
0.0
 13
0.0
 23
0.0
 33
0.0
 16
1.0
 26
0.0
 36
0.0
 17
0.0
 27
1.0
 37
0.0
 76
     0
330
1F
  0
LAYOUT
  5
2A
102
{ACAD_XDICTIONARY
360
29A
102
}
102
{ACAD_REACTORS
330
1A
102
}
330
1A
100
AcDbPlotSettings
  1

  2
HP DesignJet 500PS42+HPGL2 Card
  4

  6

 40
0.0
 41
0.0
 42
0.0
 43
0.0
 44
0.0
 45
0.0
 46
0.0
 47
0.0
 48
0.0
 49
0.0
140
0.0
141
0.0
142
1.0
143
1.0
 70
   688
 72
     0
 73
     0
 74
     5
  7
C:\Documents and Settings\Julio\Application Data\Autodesk\AutoCAD 2006\R16.2\enu\Plot Styles\sanindusa.ctb
 75
    16
147
1.0
148
0.0
149
0.0
100
AcDbLayout
  1
Layout2
 70
     1
 71
     2
 10
0.0
 20
0.0
 11
12.0
 21
9.0
 12
0.0
 22
0.0
 32
0.0
 14
0.0
 24
0.0
 34
0.0
 15
0.0
 25
0.0
 35
0.0
146
0.0
 13
0.0
 23
0.0
 33
0.0
 16
1.0
 26
0.0
 36
0.0
 17
0.0
 27
1.0
 37
0.0
 76
     0
330
27
  0
LAYOUT
  5
26
102
{ACAD_XDICTIONARY
360
298
102
}
102
{ACAD_REACTORS
330
1A
102
}
330
1A
100
AcDbPlotSettings
  1

  2
HP DesignJet 500PS42+HPGL2 Card
  4

  6

 40
0.0
 41
0.0
 42
0.0
 43
0.0
 44
0.0
 45
0.0
 46
0.0
 47
0.0
 48
0.0
 49
0.0
140
0.0
141
0.0
142
1.0
143
1.0
 70
  1712
 72
     0
 73
     0
 74
     0
  7
C:\Documents and Settings\Julio\Application Data\Autodesk\AutoCAD 2006\R16.2\enu\Plot Styles\sanindusa.ctb
 75
     0
147
1.0
148
0.0
149
0.0
100
AcDbLayout
  1
Model
 70
     1
 71
     0
 10
0.0
 20
0.0
 11
12.0
 21
9.0
 12
0.0
 22
0.0
 32
0.0
 14
0.0
 24
0.0
 34
0.0
 15
0.0
 25
0.0
 35
0.0
146
0.0
 13
0.0
 23
0.0
 33
0.0
 16
1.0
 26
0.0
 36
0.0
 17
0.0
 27
1.0
 37
0.0
 76
     0
330
23
331
239
  0
MATERIAL
  5
24D
102
{ACAD_XDICTIONARY
360
24E
102
}
102
{ACAD_REACTORS
330
1B
102
}
330
1B
100
AcDbMaterial
  1
ByBlock
 72
     0
 43
0.0008202099737533
 43
0.0
 43
0.0
 43
0.0
 43
0.0
 43
0.0008202099737533
 43
0.0
 43
0.0
 43
0.0
 43
0.0
 43
1.0
 43
0.0
 43
0.0
 43
0.0
 43
0.0
 43
1.0
 77
     0
 47
0.0008202099737533
 47
0.0
 47
0.0
 47
0.0
 47
0.0
 47
0.0008202099737533
 47
0.0
 47
0.0
 47
0.0
 47
0.0
 47
1.0
 47
0.0
 47
0.0
 47
0.0
 47
0.0
 47
1.0
171
     0
 49
0.0008202099737533
 49
0.0
 49
0.0
 49
0.0
 49
0.0
 49
0.0008202099737533
 49
0.0
 49
0.0
 49
0.0
 49
0.0
 49
1.0
 49
0.0
 49
0.0
 49
0.0
 49
0.0
 49
1.0
175
     0
142
0.0008202099737533
142
0.0
142
0.0
142
0.0
142
0.0
142
0.0008202099737533
142
0.0
142
0.0
142
0.0
142
0.0
142
1.0
142
0.0
142
0.0
142
0.0
142
0.0
142
1.0
179
     0
144
0.0008202099737533
144
0.0
144
0.0
144
0.0
144
0.0
144
0.0008202099737533
144
0.0
144
0.0
144
0.0
144
0.0
144
1.0
144
0.0
144
0.0
144
0.0
144
0.0
144
1.0
147
0.0008202099737533
147
0.0
147
0.0
147
0.0
147
0.0
147
0.0008202099737533
147
0.0
147
0.0
147
0.0
147
0.0
147
1.0
147
0.0
147
0.0
147
0.0
147
0.0
147
1.0
  0
MATERIAL
  5
245
102
{ACAD_XDICTIONARY
360
246
102
}
102
{ACAD_REACTORS
330
1B
102
}
330
1B
100
AcDbMaterial
  1
ByLayer
 72
     0
 43
0.0008202099737533
 43
0.0
 43
0.0
 43
0.0
 43
0.0
 43
0.0008202099737533
 43
0.0
 43
0.0
 43
0.0
 43
0.0
 43
1.0
 43
0.0
 43
0.0
 43
0.0
 43
0.0
 43
1.0
 77
     0
 47
0.0008202099737533
 47
0.0
 47
0.0
 47
0.0
 47
0.0
 47
0.0008202099737533
 47
0.0
 47
0.0
 47
0.0
 47
0.0
 47
1.0
 47
0.0
 47
0.0
 47
0.0
 47
0.0
 47
1.0
171
     0
 49
0.0008202099737533
 49
0.0
 49
0.0
 49
0.0
 49
0.0
 49
0.0008202099737533
 49
0.0
 49
0.0
 49
0.0
 49
0.0
 49
1.0
 49
0.0
 49
0.0
 49
0.0
 49
0.0
 49
1.0
175
     0
142
0.0008202099737533
142
0.0
142
0.0
142
0.0
142
0.0
142
0.0008202099737533
142
0.0
142
0.0
142
0.0
142
0.0
142
1.0
142
0.0
142
0.0
142
0.0
142
0.0
142
1.0
179
     0
144
0.0008202099737533
144
0.0
144
0.0
144
0.0
144
0.0
144
0.0008202099737533
144
0.0
144
0.0
144
0.0
144
0.0
144
1.0
144
0.0
144
0.0
144
0.0
144
0.0
144
1.0
147
0.0008202099737533
147
0.0
147
0.0
147
0.0
147
0.0
147
0.0008202099737533
147
0.0
147
0.0
147
0.0
147
0.0
147
1.0
147
0.0
147
0.0
147
0.0
147
0.0
147
1.0
  0
MATERIAL
  5
255
102
{ACAD_XDICTIONARY
360
256
102
}
102
{ACAD_REACTORS
330
1B
102
}
330
1B
100
AcDbMaterial
  1
Global
 72
     0
 43
0.0008202099737533
 43
0.0
 43
0.0
 43
0.0
 43
0.0
 43
0.0008202099737533
 43
0.0
 43
0.0
 43
0.0
 43
0.0
 43
1.0
 43
0.0
 43
0.0
 43
0.0
 43
0.0
 43
1.0
 77
     0
 47
0.0008202099737533
 47
0.0
 47
0.0
 47
0.0
 47
0.0
 47
0.0008202099737533
 47
0.0
 47
0.0
 47
0.0
 47
0.0
 47
1.0
 47
0.0
 47
0.0
 47
0.0
 47
0.0
 47
1.0
171
     0
 49
0.0008202099737533
 49
0.0
 49
0.0
 49
0.0
 49
0.0
 49
0.0008202099737533
 49
0.0
 49
0.0
 49
0.0
 49
0.0
 49
1.0
 49
0.0
 49
0.0
 49
0.0
 49
0.0
 49
1.0
175
     0
142
0.0008202099737533
142
0.0
142
0.0
142
0.0
142
0.0
142
0.0008202099737533
142
0.0
142
0.0
142
0.0
142
0.0
142
1.0
142
0.0
142
0.0
142
0.0
142
0.0
142
1.0
179
     0
144
0.0008202099737533
144
0.0
144
0.0
144
0.0
144
0.0
144
0.0008202099737533
144
0.0
144
0.0
144
0.0
144
0.0
144
1.0
144
0.0
144
0.0
144
0.0
144
0.0
144
1.0
147
0.0008202099737533
147
0.0
147
0.0
147
0.0
147
0.0
147
0.0008202099737533
147
0.0
147
0.0
147
0.0
147
0.0
147
1.0
147
0.0
147
0.0
147
0.0
147
0.0
147
1.0
  0
MLEADERSTYLE
  5
284
102
{ACAD_REACTORS
330
283
102
}
330
283
100
AcDbMLeaderStyle
170
     2
171
     1
172
     0
 90
        2
 40
0.0
 41
0.0
173
     1
 91
-1056964608
340
14
 92
       -2
290
     1
 42
2.0
291
     1
 43
0.36
  3
Standard
 44
4.0
300

342
11
174
     1
178
     6
175
     1
176
     0
 93
-1056964608
 45
4.0
292
     0
297
     0
 46
4.0
 94
-1056964608
 47
1.0
 49
1.0
140
1.0
293
     1
141
0.0
294
     1
177
     0
142
1.0
295
     0
296
     0
143
0.125
1001
ACAD_MLEADERVER
1070
     2
  0
MLINESTYLE
  5
18
102
{ACAD_REACTORS
330
17
102
}
330
17
100
AcDbMlineStyle
  2
STANDARD
 70
     0
  3

 62
   256
 51
90.0
 52
90.0
 71
     2
 49
0.5
 62
   256
  6
BYLAYER
 49
-0.5
 62
   256
  6
BYLAYER
  0
ACDBPLACEHOLDER
  5
F
102
{ACAD_REACTORS
330
E
102
}
330
E
  0
SCALE
  5
272
102
{ACAD_REACTORS
330
271
102
}
330
271
100
AcDbScale
 70
     0
300
1:1
140
1.0
141
1.0
290
     1
  0
SCALE
  5
273
102
{ACAD_REACTORS
330
271
102
}
330
271
100
AcDbScale
 70
     0
300
1:2
140
1.0
141
2.0
290
     0
  0
SCALE
  5
274
102
{ACAD_REACTORS
330
271
102
}
330
271
100
AcDbScale
 70
     0
300
1:4
140
1.0
141
4.0
290
     0
  0
SCALE
  5
275
102
{ACAD_REACTORS
330
271
102
}
330
271
100
AcDbScale
 70
     0
300
1:5
140
1.0
141
5.0
290
     0
  0
SCALE
  5
276
102
{ACAD_REACTORS
330
271
102
}
330
271
100
AcDbScale
 70
     0
300
1:8
140
1.0
141
8.0
290
     0
  0
SCALE
  5
277
102
{ACAD_REACTORS
330
271
102
}
330
271
100
AcDbScale
 70
     0
300
1:10
140
1.0
141
10.0
290
     0
  0
SCALE
  5
278
102
{ACAD_REACTORS
330
271
102
}
330
271
100
AcDbScale
 70
     0
300
1:16
140
1.0
141
16.0
290
     0
  0
SCALE
  5
279
102
{ACAD_REACTORS
330
271
102
}
330
271
100
AcDbScale
 70
     0
300
1:20
140
1.0
141
20.0
290
     0
  0
SCALE
  5
27A
102
{ACAD_REACTORS
330
271
102
}
330
271
100
AcDbScale
 70
     0
300
1:30
140
1.0
141
30.0
290
     0
  0
SCALE
  5
27B
102
{ACAD_REACTORS
330
271
102
}
330
271
100
AcDbScale
 70
     0
300
1:40
140
1.0
141
40.0
290
     0
  0
SCALE
  5
27C
102
{ACAD_REACTORS
330
271
102
}
330
271
100
AcDbScale
 70
     0
300
1:50
140
1.0
141
50.0
290
     0
  0
SCALE
  5
27D
102
{ACAD_REACTORS
330
271
102
}
330
271
100
AcDbScale
 70
     0
300
1:100
140
1.0
141
100.0
290
     0
  0
SCALE
  5
27E
102
{ACAD_REACTORS
330
271
102
}
330
271
100
AcDbScale
 70
     0
300
2:1
140
2.0
141
1.0
290
     0
  0
SCALE
  5
27F
102
{ACAD_REACTORS
330
271
102
}
330
271
100
AcDbScale
 70
     0
300
4:1
140
4.0
141
1.0
290
     0
  0
SCALE
  5
280
102
{ACAD_REACTORS
330
271
102
}
330
271
100
AcDbScale
 70
     0
300
8:1
140
8.0
141
1.0
290
     0
  0
SCALE
  5
281
102
{ACAD_REACTORS
330
271
102
}
330
271
100
AcDbScale
 70
     0
300
10:1
140
10.0
141
1.0
290
     0
  0
SCALE
  5
282
102
{ACAD_REACTORS
330
271
102
}
330
271
100
AcDbScale
 70
     0
300
100:1
140
100.0
141
1.0
290
     0
  0
TABLESTYLE
  5
1E
102
{ACAD_XDICTIONARY
360
291
102
}
102
{ACAD_REACTORS
330
1D
102
}
330
1D
100
AcDbTableStyle
  3
Standard
 70
     0
 71
     0
 40
1.5
 41
1.5
280
     0
281
     0
  7
Standard
140
4.5
170
     2
 62
     0
 63
     7
283
     0
274
    -2
284
     1
 64
     0
275
    -2
285
     1
 65
     0
276
    -2
286
     1
 66
     0
277
    -2
287
     1
 67
     0
278
    -2
288
     1
 68
     0
279
    -2
289
     1
 69
     0
  7
Standard
140
6.0
170
     5
 62
     0
 63
     7
283
     0
274
    -2
284
     1
 64
     0
275
    -2
285
     1
 65
     0
276
    -2
286
     1
 66
     0
277
    -2
287
     1
 67
     0
278
    -2
288
     1
 68
     0
279
    -2
289
     1
 69
     0
  7
Standard
140
4.5
170
     5
 62
     0
 63
     7
283
     0
274
    -2
284
     1
 64
     0
275
    -2
285
     1
 65
     0
276
    -2
286
     1
 66
     0
277
    -2
287
     1
 67
     0
278
    -2
288
     1
 68
     0
279
    -2
289
     1
 69
     0
  0
VISUALSTYLE
  5
263
102
{ACAD_XDICTIONARY
360
2A9
102
}
102
{ACAD_REACTORS
330
25D
102
}
330
25D
100
AcDbVisualStyle
  2
2dWireframe
 70
     4
 71
     0
 72
     2
 73
     0
 90
        0
 40
-0.6
 41
-30.0
 62
     5
 63
     7
 74
     1
 91
        4
 64
     7
 65
   257
 75
     1
175
     1
 42
1.0
 92
        0
 66
   257
 43
1.0
 76
     1
 77
     6
 78
     2
 67
     7
 79
     5
170
     0
171
     0
290
     0
174
     0
 93
        1
 44
0.0
173
     0
291
     0
 45
0.0
1001
ACAD
1000
AcDbSavedByObjectVersion
1070
     0
  0
VISUALSTYLE
  5
265
102
{ACAD_XDICTIONARY
360
2AD
102
}
102
{ACAD_REACTORS
330
25D
102
}
330
25D
100
AcDbVisualStyle
  2
3D Hidden
 70
     6
 71
     1
 72
     2
 73
     2
 90
        0
 40
-0.6
 41
-30.0
 62
     5
 63
     7
 74
     2
 91
        2
 64
     7
 65
   257
 75
     2
175
     1
 42
179.0
 92
        0
 66
   257
 43
1.0
 76
     1
 77
     6
 78
     2
 67
     7
 79
     3
170
     0
171
     0
290
     0
174
     0
 93
        1
 44
0.0
173
     0
291
     0
 45
0.0
1001
ACAD
1000
AcDbSavedByObjectVersion
1070
     0
  0
VISUALSTYLE
  5
264
102
{ACAD_XDICTIONARY
360
2AB
102
}
102
{ACAD_REACTORS
330
25D
102
}
330
25D
100
AcDbVisualStyle
  2
3dWireframe
 70
     5
 71
     0
 72
     2
 73
     0
 90
        0
 40
-0.6
 41
-30.0
 62
     5
 63
     7
 74
     1
 91
        4
 64
     7
 65
   257
 75
     1
175
     1
 42
1.0
 92
        0
 66
   257
 43
1.0
 76
     1
 77
     6
 78
     2
 67
     7
 79
     5
170
     0
171
     0
290
     0
174
     0
 93
        1
 44
0.0
173
     0
291
     0
 45
0.0
1001
ACAD
1000
AcDbSavedByObjectVersion
1070
     0
  0
VISUALSTYLE
  5
262
102
{ACAD_XDICTIONARY
360
2A7
102
}
102
{ACAD_REACTORS
330
25D
102
}
330
25D
100
AcDbVisualStyle
  2
Basic
 70
     7
 71
     1
 72
     0
 73
     1
 90
        0
 40
-0.6
 41
-30.0
 62
     5
 63
     7
 74
     0
 91
        4
 64
     7
 65
   257
 75
     1
175
     1
 42
1.0
 92
        8
 66
     7
 43
1.0
 76
     1
 77
     6
 78
     2
 67
     7
 79
     5
170
     0
171
     0
290
     0
174
     0
 93
        1
 44
0.0
173
     0
291
     1
 45
0.0
1001
ACAD
1000
AcDbSavedByObjectVersion
1070
     0
  0
VISUALSTYLE
  5
269
102
{ACAD_XDICTIONARY
360
2B5
102
}
102
{ACAD_REACTORS
330
25D
102
}
330
25D
100
AcDbVisualStyle
  2
Brighten
 70
    12
 71
     2
 72
     2
 73
     0
 90
        0
 40
-0.6
 41
-30.0
 62
     5
 63
     7
 74
     1
 91
        4
 64
     7
 65
   257
 75
     1
175
     1
 42
1.0
 92
        8
 66
     7
 43
1.0
 76
     1
 77
     6
 78
     2
 67
     7
 79
     5
170
     0
171
     0
290
     0
174
     0
 93
        1
 44
50.0
173
     0
291
     1
 45
0.0
1001
ACAD
1000
AcDbSavedByObjectVersion
1070
     0
  0
VISUALSTYLE
  5
26D
102
{ACAD_XDICTIONARY
360
2BD
102
}
102
{ACAD_REACTORS
330
25D
102
}
330
25D
100
AcDbVisualStyle
  2
ColorChange
 70
    16
 71
     2
 72
     2
 73
     3
 90
        0
 40
-0.6
 41
-30.0
 62
     5
 63
     8
 74
     1
 91
        4
 64
     7
 65
   257
 75
     1
175
     1
 42
1.0
 92
        8
 66
     8
 43
1.0
 76
     1
 77
     6
 78
     2
 67
     7
 79
     5
170
     0
171
     0
290
     0
174
     0
 93
        1
 44
0.0
173
     0
291
     1
 45
0.0
1001
ACAD
1000
AcDbSavedByObjectVersion
1070
     0
  0
VISUALSTYLE
  5
266
102
{ACAD_XDICTIONARY
360
2AF
102
}
102
{ACAD_REACTORS
330
25D
102
}
330
25D
100
AcDbVisualStyle
  2
Conceptual
 70
     9
 71
     3
 72
     2
 73
     0
 90
        0
 40
-0.6
 41
-30.0
 62
     5
 63
     7
 74
     2
 91
        2
 64
     7
 65
   257
 75
     1
175
     1
 42
179.0
 92
        8
 66
     7
 43
1.0
 76
     1
 77
     6
 78
     2
 67
     7
 79
     3
170
     0
171
     0
290
     0
174
     0
 93
        1
 44
0.0
173
     0
291
     0
 45
0.0
1001
ACAD
1000
AcDbSavedByObjectVersion
1070
     0
  0
VISUALSTYLE
  5
268
102
{ACAD_XDICTIONARY
360
2B3
102
}
102
{ACAD_REACTORS
330
25D
102
}
330
25D
100
AcDbVisualStyle
  2
Dim
 70
    11
 71
     2
 72
     2
 73
     0
 90
        0
 40
-0.6
 41
-30.0
 62
     5
 63
     7
 74
     1
 91
        4
 64
     7
 65
   257
 75
     1
175
     1
 42
1.0
 92
        8
 66
     7
 43
1.0
 76
     1
 77
     6
 78
     2
 67
     7
 79
     5
170
     0
171
     0
290
     0
174
     0
 93
        1
 44
-50.0
173
     0
291
     1
 45
0.0
1001
ACAD
1000
AcDbSavedByObjectVersion
1070
     0
  0
VISUALSTYLE
  5
270
102
{ACAD_XDICTIONARY
360
2C3
102
}
102
{ACAD_REACTORS
330
25D
102
}
330
25D
100
AcDbVisualStyle
  2
EdgeColorOff
 70
    22
 71
     2
 72
     2
 73
     0
 90
        0
 40
-0.6
 41
-30.0
 62
     5
 63
     7
 74
     1
 91
        4
 64
     7
 65
   257
 75
     1
175
     1
 42
1.0
 92
        8
 66
     7
 43
1.0
 76
     1
 77
     6
 78
     2
 67
     7
 79
     5
170
     0
171
     0
290
     0
174
     0
 93
        1
 44
0.0
173
     0
291
     1
 45
0.0
1001
ACAD
1000
AcDbSavedByObjectVersion
1070
     0
  0
VISUALSTYLE
  5
26C
102
{ACAD_XDICTIONARY
360
2BB
102
}
102
{ACAD_REACTORS
330
25D
102
}
330
25D
100
AcDbVisualStyle
  2
Facepattern
 70
    15
 71
     2
 72
     2
 73
     0
 90
        0
 40
-0.6
 41
-30.0
 62
     5
 63
     7
 74
     1
 91
        4
 64
     7
 65
   257
 75
     1
175
     1
 42
1.0
 92
        8
 66
     7
 43
1.0
 76
     1
 77
     6
 78
     2
 67
     7
 79
     5
170
     0
171
     0
290
     0
174
     0
 93
        1
 44
0.0
173
     0
291
     1
 45
0.0
1001
ACAD
1000
AcDbSavedByObjectVersion
1070
     0
  0
VISUALSTYLE
  5
25E
102
{ACAD_XDICTIONARY
360
29F
102
}
102
{ACAD_REACTORS
330
25D
102
}
330
25D
100
AcDbVisualStyle
  2
Flat
 70
     0
 71
     2
 72
     1
 73
     1
 90
        2
 40
-0.6
 41
30.0
 62
     5
 63
     7
 74
     0
 91
        4
 64
     7
 65
   257
 75
     1
175
     1
 42
1.0
 92
        8
 66
     7
 43
1.0
 76
     1
 77
     6
 78
     2
 67
     7
 79
     5
170
     0
171
     0
290
     0
174
     0
 93
       13
 44
0.0
173
     0
291
     1
 45
0.0
1001
ACAD
1000
AcDbSavedByObjectVersion
1070
     0
  0
VISUALSTYLE
  5
25F
102
{ACAD_XDICTIONARY
360
2A1
102
}
102
{ACAD_REACTORS
330
25D
102
}
330
25D
100
AcDbVisualStyle
  2
FlatWithEdges
 70
     1
 71
     2
 72
     1
 73
     1
 90
        2
 40
-0.6
 41
30.0
 62
     5
 63
     7
 74
     1
 91
        4
 64
     7
 65
   257
 75
     1
175
     1
 42
1.0
 92
        0
 66
   257
 43
1.0
 76
     1
 77
     6
 78
     2
 67
     7
 79
     5
170
     0
171
     0
290
     0
174
     0
 93
       13
 44
0.0
173
     0
291
     1
 45
0.0
1001
ACAD
1000
AcDbSavedByObjectVersion
1070
     0
  0
VISUALSTYLE
  5
260
102
{ACAD_XDICTIONARY
360
2A3
102
}
102
{ACAD_REACTORS
330
25D
102
}
330
25D
100
AcDbVisualStyle
  2
Gouraud
 70
     2
 71
     2
 72
     2
 73
     1
 90
        2
 40
-0.6
 41
30.0
 62
     5
 63
     7
 74
     0
 91
        4
 64
     7
 65
   257
 75
     1
175
     1
 42
1.0
 92
        0
 66
     7
 43
1.0
 76
     1
 77
     6
 78
     2
 67
     7
 79
     5
170
     0
171
     0
290
     0
174
     0
 93
       13
 44
0.0
173
     0
291
     1
 45
0.0
1001
ACAD
1000
AcDbSavedByObjectVersion
1070
     0
  0
VISUALSTYLE
  5
261
102
{ACAD_XDICTIONARY
360
2A5
102
}
102
{ACAD_REACTORS
330
25D
102
}
330
25D
100
AcDbVisualStyle
  2
GouraudWithEdges
 70
     3
 71
     2
 72
     2
 73
     1
 90
        2
 40
-0.6
 41
30.0
 62
     5
 63
     7
 74
     1
 91
        4
 64
     7
 65
   257
 75
     1
175
     1
 42
1.0
 92
        0
 66
   257
 43
1.0
 76
     1
 77
     6
 78
     2
 67
     7
 79
     5
170
     0
171
     0
290
     0
174
     0
 93
       13
 44
0.0
173
     0
291
     1
 45
0.0
1001
ACAD
1000
AcDbSavedByObjectVersion
1070
     0
  0
VISUALSTYLE
  5
26E
102
{ACAD_XDICTIONARY
360
2BF
102
}
102
{ACAD_REACTORS
330
25D
102
}
330
25D
100
AcDbVisualStyle
  2
JitterOff
 70
    20
 71
     2
 72
     2
 73
     0
 90
        0
 40
-0.6
 41
-30.0
 62
     5
 63
     7
 74
     1
 91
        4
 64
     7
 65
   257
 75
     1
175
     1
 42
1.0
 92
       10
 66
     7
 43
1.0
 76
     1
 77
     6
 78
     2
 67
     7
 79
     5
170
     0
171
     0
290
     0
174
     0
 93
        1
 44
0.0
173
     0
291
     1
 45
0.0
1001
ACAD
1000
AcDbSavedByObjectVersion
1070
     0
  0
VISUALSTYLE
  5
26B
102
{ACAD_XDICTIONARY
360
2B9
102
}
102
{ACAD_REACTORS
330
25D
102
}
330
25D
100
AcDbVisualStyle
  2
Linepattern
 70
    14
 71
     2
 72
     2
 73
     0
 90
        0
 40
-0.6
 41
-30.0
 62
     5
 63
     7
 74
     1
 91
        4
 64
     7
 65
   257
 75
     7
175
     7
 42
1.0
 92
        8
 66
     7
 43
1.0
 76
     1
 77
     6
 78
     2
 67
     7
 79
     5
170
     0
171
     0
290
     0
174
     0
 93
        1
 44
0.0
173
     0
291
     1
 45
0.0
1001
ACAD
1000
AcDbSavedByObjectVersion
1070
     0
  0
VISUALSTYLE
  5
26F
102
{ACAD_XDICTIONARY
360
2C1
102
}
102
{ACAD_REACTORS
330
25D
102
}
330
25D
100
AcDbVisualStyle
  2
OverhangOff
 70
    21
 71
     2
 72
     2
 73
     0
 90
        0
 40
-0.6
 41
-30.0
 62
     5
 63
     7
 74
     1
 91
        4
 64
     7
 65
   257
 75
     1
175
     1
 42
1.0
 92
        9
 66
     7
 43
1.0
 76
     1
 77
     6
 78
     2
 67
     7
 79
     5
170
     0
171
     0
290
     0
174
     0
 93
        1
 44
0.0
173
     0
291
     1
 45
0.0
1001
ACAD
1000
AcDbSavedByObjectVersion
1070
     0
  0
VISUALSTYLE
  5
267
102
{ACAD_XDICTIONARY
360
2B1
102
}
102
{ACAD_REACTORS
330
25D
102
}
330
25D
100
AcDbVisualStyle
  2
Realistic
 70
     8
 71
     2
 72
     2
 73
     0
 90
        0
 40
-0.6
 41
-30.0
 62
     5
 63
     7
 74
     1
 91
        0
 64
     7
 65
   257
 75
     1
175
     1
 42
1.0
 92
        8
 66
     8
 43
1.0
 76
     1
 77
     6
 78
     2
 67
     7
 79
     5
170
     0
171
     0
290
     0
174
     0
 93
       13
 44
0.0
173
     0
291
     0
 45
0.0
1001
ACAD
1000
AcDbSavedByObjectVersion
1070
     0
  0
VISUALSTYLE
  5
26A
102
{ACAD_XDICTIONARY
360
2B7
102
}
102
{ACAD_REACTORS
330
25D
102
}
330
25D
100
AcDbVisualStyle
  2
Thicken
 70
    13
 71
     2
 72
     2
 73
     0
 90
        0
 40
-0.6
 41
-30.0
 62
     5
 63
     7
 74
     1
 91
        4
 64
     7
 65
   257
 75
     1
175
     1
 42
1.0
 92
       12
 66
     7
 43
1.0
 76
     1
 77
     6
 78
     2
 67
     7
 79
     5
170
     0
171
     0
290
     0
174
     0
 93
        1
 44
0.0
173
     0
291
     1
 45
0.0
1001
ACAD
1000
AcDbSavedByObjectVersion
1070
     0
  0
DICTIONARYVAR
  5
28D
102
{ACAD_REACTORS
330
1D2
102
}
330
1D2
100
DictionaryVariables
280
     0
  1
1:1
  0
DICTIONARYVAR
  5
28C
102
{ACAD_REACTORS
330
1D2
102
}
330
1D2
100
DictionaryVariables
280
     0
  1
STANDARD
  0
DICTIONARYVAR
  5
1D3
102
{ACAD_REACTORS
330
1D2
102
}
330
1D2
100
DictionaryVariables
280
     0
  1
STANDARD
  0
DICTIONARYVAR
  5
242
102
{ACAD_REACTORS
330
1D2
102
}
330
1D2
100
DictionaryVariables
280
     0
  1
2
  0
DICTIONARYVAR
  5
241
102
{ACAD_REACTORS
330
1D2
102
}
330
1D2
100
DictionaryVariables
280
     0
  1
1
  0
DICTIONARYVAR
  5
28F
102
{ACAD_REACTORS
330
1D2
102
}
330
1D2
100
DictionaryVariables
280
     0
  1
0
  0
DICTIONARYVAR
  5
243
102
{ACAD_REACTORS
330
1D2
102
}
330
1D2
100
DictionaryVariables
280
     0
  1

  0
DICTIONARYVAR
  5
28E
102
{ACAD_REACTORS
330
1D2
102
}
330
1D2
100
DictionaryVariables
280
     0
  1
127
  0
DICTIONARYVAR
  5
290
102
{ACAD_REACTORS
330
1D2
102
}
330
1D2
100
DictionaryVariables
280
     0
  1
2
  0
XRECORD
  5
5A
102
{ACAD_REACTORS
330
58
102
}
330
58
100
AcDbXrecord
280
     1
330
203
330
213
330
21B
330
222
  0
DICTIONARY
  5
296
330
22
100
AcDbDictionary
280
     1
281
     1
  3
ACAD_XREC_ROUNDTRIP
360
297
  0
DICTIONARY
  5
29A
330
2A
100
AcDbDictionary
280
     1
281
     1
  3
ACAD_XREC_ROUNDTRIP
360
29B
  0
DICTIONARY
  5
298
330
26
100
AcDbDictionary
280
     1
281
     1
  3
ACAD_XREC_ROUNDTRIP
360
299
  0
DICTIONARY
  5
24E
330
24D
100
AcDbDictionary
280
     1
281
     1
  3
ACAD_XREC_ROUNDTRIP
360
29D
  3
BUMPTILE
360
250
  3
DIFFUSETILE
360
24F
  3
OPACITYTILE
360
253
  3
REFLECTIONTILE
360
252
  3
REFRACTIONTILE
360
254
  3
SPECULARTILE
360
251
  0
DICTIONARY
  5
246
330
245
100
AcDbDictionary
280
     1
281
     1
  3
ACAD_XREC_ROUNDTRIP
360
29C
  3
BUMPTILE
360
248
  3
DIFFUSETILE
360
247
  3
OPACITYTILE
360
24B
  3
REFLECTIONTILE
360
24A
  3
REFRACTIONTILE
360
24C
  3
SPECULARTILE
360
249
  0
DICTIONARY
  5
256
330
255
100
AcDbDictionary
280
     1
281
     1
  3
ACAD_XREC_ROUNDTRIP
360
29E
  3
BUMPTILE
360
258
  3
DIFFUSETILE
360
257
  3
OPACITYTILE
360
25B
  3
REFLECTIONTILE
360
25A
  3
REFRACTIONTILE
360
25C
  3
SPECULARTILE
360
259
  0
DICTIONARY
  5
291
330
1E
100
AcDbDictionary
280
     1
281
     1
  3
ACAD_ROUNDTRIP_2008_TABLESTYLE_CELLSTYLEMAP
360
292
  3
ACAD_XREC_ROUNDTRIP
360
295
  0
DICTIONARY
  5
2A9
330
263
100
AcDbDictionary
280
     1
281
     1
  3
ACAD_XREC_ROUNDTRIP
360
2AA
  0
DICTIONARY
  5
2AD
330
265
100
AcDbDictionary
280
     1
281
     1
  3
ACAD_XREC_ROUNDTRIP
360
2AE
  0
DICTIONARY
  5
2AB
330
264
100
AcDbDictionary
280
     1
281
     1
  3
ACAD_XREC_ROUNDTRIP
360
2AC
  0
DICTIONARY
  5
2A7
330
262
100
AcDbDictionary
280
     1
281
     1
  3
ACAD_XREC_ROUNDTRIP
360
2A8
  0
DICTIONARY
  5
2B5
330
269
100
AcDbDictionary
280
     1
281
     1
  3
ACAD_XREC_ROUNDTRIP
360
2B6
  0
DICTIONARY
  5
2BD
330
26D
100
AcDbDictionary
280
     1
281
     1
  3
ACAD_XREC_ROUNDTRIP
360
2BE
  0
DICTIONARY
  5
2AF
330
266
100
AcDbDictionary
280
     1
281
     1
  3
ACAD_XREC_ROUNDTRIP
360
2B0
  0
DICTIONARY
  5
2B3
330
268
100
AcDbDictionary
280
     1
281
     1
  3
ACAD_XREC_ROUNDTRIP
360
2B4
  0
DICTIONARY
  5
2C3
330
270
100
AcDbDictionary
280
     1
281
     1
  3
ACAD_XREC_ROUNDTRIP
360
2C4
  0
DICTIONARY
  5
2BB
330
26C
100
AcDbDictionary
280
     1
281
     1
  3
ACAD_XREC_ROUNDTRIP
360
2BC
  0
DICTIONARY
  5
29F
330
25E
100
AcDbDictionary
280
     1
281
     1
  3
ACAD_XREC_ROUNDTRIP
360
2A0
  0
DICTIONARY
  5
2A1
330
25F
100
AcDbDictionary
280
     1
281
     1
  3
ACAD_XREC_ROUNDTRIP
360
2A2
  0
DICTIONARY
  5
2A3
330
260
100
AcDbDictionary
280
     1
281
     1
  3
ACAD_XREC_ROUNDTRIP
360
2A4
  0
DICTIONARY
  5
2A5
330
261
100
AcDbDictionary
280
     1
281
     1
  3
ACAD_XREC_ROUNDTRIP
360
2A6
  0
DICTIONARY
  5
2BF
330
26E
100
AcDbDictionary
280
     1
281
     1
  3
ACAD_XREC_ROUNDTRIP
360
2C0
  0
DICTIONARY
  5
2B9
330
26B
100
AcDbDictionary
280
     1
281
     1
  3
ACAD_XREC_ROUNDTRIP
360
2BA
  0
DICTIONARY
  5
2C1
330
26F
100
AcDbDictionary
280
     1
281
     1
  3
ACAD_XREC_ROUNDTRIP
360
2C2
  0
DICTIONARY
  5
2B1
330
267
100
AcDbDictionary
280
     1
281
     1
  3
ACAD_XREC_ROUNDTRIP
360
2B2
  0
DICTIONARY
  5
2B7
330
26A
100
AcDbDictionary
280
     1
281
     1
  3
ACAD_XREC_ROUNDTRIP
360
2B8
  0
XRECORD
  5
297
102
{ACAD_REACTORS
330
296
102
}
330
296
100
AcDbXrecord
280
     1
102
SHADEPLOT
 70
     0
102
SHADEPLOTRESLEVEL
 70
     2
102
SHADEPLOTCUSTOMDPI
 70
   300
  0
XRECORD
  5
29B
102
{ACAD_REACTORS
330
29A
102
}
330
29A
100
AcDbXrecord
280
     1
102
SHADEPLOT
 70
     0
102
SHADEPLOTRESLEVEL
 70
     2
102
SHADEPLOTCUSTOMDPI
 70
   300
  0
XRECORD
  5
299
102
{ACAD_REACTORS
330
298
102
}
330
298
100
AcDbXrecord
280
     1
102
SHADEPLOT
 70
     0
102
SHADEPLOTRESLEVEL
 70
     2
102
SHADEPLOTCUSTOMDPI
 70
   300
  0
XRECORD
  5
29D
102
{ACAD_REACTORS
330
24E
102
}
330
24E
100
AcDbXrecord
280
     1
102
MATERIAL
148
0.0
149
0.0
149
0.0
 93
        0
 94
      127
282
     0
 72
     0
 77
     0
171
     0
175
     0
179
     0
273
     0
  0
XRECORD
  5
250
102
{ACAD_REACTORS
330
24E
102
}
330
24E
100
AcDbXrecord
280
     1
270
     1
271
     1
  0
XRECORD
  5
24F
102
{ACAD_REACTORS
330
24E
102
}
330
24E
100
AcDbXrecord
280
     1
270
     1
271
     1
  0
XRECORD
  5
253
102
{ACAD_REACTORS
330
24E
102
}
330
24E
100
AcDbXrecord
280
     1
270
     1
271
     1
  0
XRECORD
  5
252
102
{ACAD_REACTORS
330
24E
102
}
330
24E
100
AcDbXrecord
280
     1
270
     1
271
     1
  0
XRECORD
  5
254
102
{ACAD_REACTORS
330
24E
102
}
330
24E
100
AcDbXrecord
280
     1
270
     1
271
     1
  0
XRECORD
  5
251
102
{ACAD_REACTORS
330
24E
102
}
330
24E
100
AcDbXrecord
280
     1
270
     1
271
     1
  0
XRECORD
  5
29C
102
{ACAD_REACTORS
330
246
102
}
330
246
100
AcDbXrecord
280
     1
102
MATERIAL
148
0.0
149
0.0
149
0.0
 93
        0
 94
      127
282
     0
 72
     0
 77
     0
171
     0
175
     0
179
     0
273
     0
  0
XRECORD
  5
248
102
{ACAD_REACTORS
330
246
102
}
330
246
100
AcDbXrecord
280
     1
270
     1
271
     1
  0
XRECORD
  5
247
102
{ACAD_REACTORS
330
246
102
}
330
246
100
AcDbXrecord
280
     1
270
     1
271
     1
  0
XRECORD
  5
24B
102
{ACAD_REACTORS
330
246
102
}
330
246
100
AcDbXrecord
280
     1
270
     1
271
     1
  0
XRECORD
  5
24A
102
{ACAD_REACTORS
330
246
102
}
330
246
100
AcDbXrecord
280
     1
270
     1
271
     1
  0
XRECORD
  5
24C
102
{ACAD_REACTORS
330
246
102
}
330
246
100
AcDbXrecord
280
     1
270
     1
271
     1
  0
XRECORD
  5
249
102
{ACAD_REACTORS
330
246
102
}
330
246
100
AcDbXrecord
280
     1
270
     1
271
     1
  0
XRECORD
  5
29E
102
{ACAD_REACTORS
330
256
102
}
330
256
100
AcDbXrecord
280
     1
102
MATERIAL
148
0.0
149
0.0
149
0.0
 93
        0
 94
      127
282
     0
 72
     0
 77
     0
171
     0
175
     0
179
     0
273
     0
  0
XRECORD
  5
258
102
{ACAD_REACTORS
330
256
102
}
330
256
100
AcDbXrecord
280
     1
270
     1
271
     1
  0
XRECORD
  5
257
102
{ACAD_REACTORS
330
256
102
}
330
256
100
AcDbXrecord
280
     1
270
     1
271
     1
  0
XRECORD
  5
25B
102
{ACAD_REACTORS
330
256
102
}
330
256
100
AcDbXrecord
280
     1
270
     1
271
     1
  0
XRECORD
  5
25A
102
{ACAD_REACTORS
330
256
102
}
330
256
100
AcDbXrecord
280
     1
270
     1
271
     1
  0
XRECORD
  5
25C
102
{ACAD_REACTORS
330
256
102
}
330
256
100
AcDbXrecord
280
     1
270
     1
271
     1
  0
XRECORD
  5
259
102
{ACAD_REACTORS
330
256
102
}
330
256
100
AcDbXrecord
280
     1
270
     1
271
     1
  0
CELLSTYLEMAP
  5
292
102
{ACAD_REACTORS
330
291
102
}
330
291
100
AcDbCellStyleMap
 90
        3
300
CELLSTYLE
  1
TABLEFORMAT_BEGIN
 90
        5
170
     1
 91
        0
 92
    32768
 62
   257
 93
        1
300
CONTENTFORMAT
  1
CONTENTFORMAT_BEGIN
 90
        0
 91
        0
 92
        4
 93
        0
300

 40
0.0
140
1.0
 94
        5
 62
     0
340
11
144
6.0
309
CONTENTFORMAT_END
171
     1
301
MARGIN
  1
CELLMARGIN_BEGIN
 40
1.5
 40
1.5
 40
1.5
 40
1.5
 40
0.18
 40
0.18
309
CELLMARGIN_END
 94
        6
 95
        1
302
GRIDFORMAT
  1
GRIDFORMAT_BEGIN
 90
        0
 91
        1
 62
     0
 92
       -2
340
0
 93
        0
 40
0.045
309
GRIDFORMAT_END
 95
        2
302
GRIDFORMAT
  1
GRIDFORMAT_BEGIN
 90
        0
 91
        1
 62
     0
 92
       -2
340
0
 93
        0
 40
0.045
309
GRIDFORMAT_END
 95
        4
302
GRIDFORMAT
  1
GRIDFORMAT_BEGIN
 90
        0
 91
        1
 62
     0
 92
       -2
340
0
 93
        0
 40
0.045
309
GRIDFORMAT_END
 95
        8
302
GRIDFORMAT
  1
GRIDFORMAT_BEGIN
 90
        0
 91
        1
 62
     0
 92
       -2
340
0
 93
        0
 40
0.045
309
GRIDFORMAT_END
 95
       16
302
GRIDFORMAT
  1
GRIDFORMAT_BEGIN
 90
        0
 91
        1
 62
     0
 92
       -2
340
0
 93
        0
 40
0.045
309
GRIDFORMAT_END
 95
       32
302
GRIDFORMAT
  1
GRIDFORMAT_BEGIN
 90
        0
 91
        1
 62
     0
 92
       -2
340
0
 93
        0
 40
0.045
309
GRIDFORMAT_END
309
TABLEFORMAT_END
  1
CELLSTYLE_BEGIN
 90
        1
 91
        1
300
_TITLE
309
CELLSTYLE_END
300
CELLSTYLE
  1
TABLEFORMAT_BEGIN
 90
        5
170
     1
 91
        0
 92
        0
 62
   257
 93
        1
300
CONTENTFORMAT
  1
CONTENTFORMAT_BEGIN
 90
        0
 91
        0
 92
        4
 93
        0
300

 40
0.0
140
1.0
 94
        5
 62
     0
340
11
144
4.5
309
CONTENTFORMAT_END
171
     1
301
MARGIN
  1
CELLMARGIN_BEGIN
 40
1.5
 40
1.5
 40
1.5
 40
1.5
 40
0.18
 40
0.18
309
CELLMARGIN_END
 94
        6
 95
        1
302
GRIDFORMAT
  1
GRIDFORMAT_BEGIN
 90
        0
 91
        1
 62
     0
 92
       -2
340
0
 93
        0
 40
0.045
309
GRIDFORMAT_END
 95
        2
302
GRIDFORMAT
  1
GRIDFORMAT_BEGIN
 90
        0
 91
        1
 62
     0
 92
       -2
340
0
 93
        0
 40
0.045
309
GRIDFORMAT_END
 95
        4
302
GRIDFORMAT
  1
GRIDFORMAT_BEGIN
 90
        0
 91
        1
 62
     0
 92
       -2
340
0
 93
        0
 40
0.045
309
GRIDFORMAT_END
 95
        8
302
GRIDFORMAT
  1
GRIDFORMAT_BEGIN
 90
        0
 91
        1
 62
     0
 92
       -2
340
0
 93
        0
 40
0.045
309
GRIDFORMAT_END
 95
       16
302
GRIDFORMAT
  1
GRIDFORMAT_BEGIN
 90
        0
 91
        1
 62
     0
 92
       -2
340
0
 93
        0
 40
0.045
309
GRIDFORMAT_END
 95
       32
302
GRIDFORMAT
  1
GRIDFORMAT_BEGIN
 90
        0
 91
        1
 62
     0
 92
       -2
340
0
 93
        0
 40
0.045
309
GRIDFORMAT_END
309
TABLEFORMAT_END
  1
CELLSTYLE_BEGIN
 90
        2
 91
        1
300
_HEADER
309
CELLSTYLE_END
300
CELLSTYLE
  1
TABLEFORMAT_BEGIN
 90
        5
170
     1
 91
        0
 92
        0
 62
   257
 93
        1
300
CONTENTFORMAT
  1
CONTENTFORMAT_BEGIN
 90
        0
 91
        0
 92
        4
 93
        0
300

 40
0.0
140
1.0
 94
        2
 62
     0
340
11
144
4.5
309
CONTENTFORMAT_END
171
     1
301
MARGIN
  1
CELLMARGIN_BEGIN
 40
1.5
 40
1.5
 40
1.5
 40
1.5
 40
0.18
 40
0.18
309
CELLMARGIN_END
 94
        6
 95
        1
302
GRIDFORMAT
  1
GRIDFORMAT_BEGIN
 90
        0
 91
        1
 62
     0
 92
       -2
340
0
 93
        0
 40
0.045
309
GRIDFORMAT_END
 95
        2
302
GRIDFORMAT
  1
GRIDFORMAT_BEGIN
 90
        0
 91
        1
 62
     0
 92
       -2
340
0
 93
        0
 40
0.045
309
GRIDFORMAT_END
 95
        4
302
GRIDFORMAT
  1
GRIDFORMAT_BEGIN
 90
        0
 91
        1
 62
     0
 92
       -2
340
0
 93
        0
 40
0.045
309
GRIDFORMAT_END
 95
        8
302
GRIDFORMAT
  1
GRIDFORMAT_BEGIN
 90
        0
 91
        1
 62
     0
 92
       -2
340
0
 93
        0
 40
0.045
309
GRIDFORMAT_END
 95
       16
302
GRIDFORMAT
  1
GRIDFORMAT_BEGIN
 90
        0
 91
        1
 62
     0
 92
       -2
340
0
 93
        0
 40
0.045
309
GRIDFORMAT_END
 95
       32
302
GRIDFORMAT
  1
GRIDFORMAT_BEGIN
 90
        0
 91
        1
 62
     0
 92
       -2
340
0
 93
        0
 40
0.045
309
GRIDFORMAT_END
309
TABLEFORMAT_END
  1
CELLSTYLE_BEGIN
 90
        3
 91
        2
300
_DATA
309
CELLSTYLE_END
  0
XRECORD
  5
295
102
{ACAD_REACTORS
330
291
102
}
330
291
100
AcDbXrecord
280
     1
102
ACAD_ROUNDTRIP_PRE2007_TABLESTYLE
 90
        4
 91
        0
  1

 92
        4
 93
        0
  2

 94
        4
 95
        0
  3

  0
XRECORD
  5
2AA
102
{ACAD_REACTORS
330
2A9
102
}
330
2A9
100
AcDbXrecord
280
     1
102
RTVSPropertyOp0
 70
     1
102
RTVSPropertyOp1
 70
     1
102
RTVSPropertyOp2
 70
     1
102
RTVSPropertyOp3
 70
     1
102
RTVSPropertyOp4
 70
     1
102
RTVSPropertyOp5
 70
     1
102
RTVSPropertyOp6
 70
     1
102
RTVSPropertyOp7
 70
     1
102
RTVSPropertyOp8
 70
     1
102
RTVSPropertyOp9
 70
     1
102
RTVSPropertyOp10
 70
     1
102
RTVSPropertyOp11
 70
     1
102
RTVSPropertyOp12
 70
     1
102
RTVSPropertyOp13
 70
     1
102
RTVSPropertyOp14
 70
     1
102
RTVSPropertyOp15
 70
     1
102
RTVSPropertyOp16
 70
     1
102
RTVSPropertyOp17
 70
     1
102
RTVSPropertyOp18
 70
     1
102
RTVSPropertyOp19
 70
     1
102
RTVSPropertyOp20
 70
     1
102
RTVSPropertyOp21
 70
     1
102
RTVSPropertyOp22
 70
     1
102
RTVSPropertyOp23
 70
     1
102
RTVSPropertyOp24
 70
     1
102
RTVSPropertyOp25
 70
     1
102
RTVSPropertyOp26
 70
     1
102
RTVSPropertyOp27
 70
     1
  0
XRECORD
  5
2AE
102
{ACAD_REACTORS
330
2AD
102
}
330
2AD
100
AcDbXrecord
280
     1
102
RTVSPropertyOp0
 70
     1
102
RTVSPropertyOp1
 70
     1
102
RTVSPropertyOp2
 70
     1
102
RTVSPropertyOp3
 70
     1
102
RTVSPropertyOp4
 70
     1
102
RTVSPropertyOp5
 70
     1
102
RTVSPropertyOp6
 70
     1
102
RTVSPropertyOp7
 70
     1
102
RTVSPropertyOp8
 70
     1
102
RTVSPropertyOp9
 70
     1
102
RTVSPropertyOp10
 70
     1
102
RTVSPropertyOp11
 70
     1
102
RTVSPropertyOp12
 70
     1
102
RTVSPropertyOp13
 70
     1
102
RTVSPropertyOp14
 70
     1
102
RTVSPropertyOp15
 70
     1
102
RTVSPropertyOp16
 70
     1
102
RTVSPropertyOp17
 70
     1
102
RTVSPropertyOp18
 70
     1
102
RTVSPropertyOp19
 70
     1
102
RTVSPropertyOp20
 70
     1
102
RTVSPropertyOp21
 70
     1
102
RTVSPropertyOp22
 70
     1
102
RTVSPropertyOp23
 70
     1
102
RTVSPropertyOp24
 70
     1
102
RTVSPropertyOp25
 70
     1
102
RTVSPropertyOp26
 70
     1
102
RTVSPropertyOp27
 70
     1
  0
XRECORD
  5
2AC
102
{ACAD_REACTORS
330
2AB
102
}
330
2AB
100
AcDbXrecord
280
     1
102
RTVSPropertyOp0
 70
     1
102
RTVSPropertyOp1
 70
     1
102
RTVSPropertyOp2
 70
     1
102
RTVSPropertyOp3
 70
     1
102
RTVSPropertyOp4
 70
     1
102
RTVSPropertyOp5
 70
     1
102
RTVSPropertyOp6
 70
     1
102
RTVSPropertyOp7
 70
     1
102
RTVSPropertyOp8
 70
     1
102
RTVSPropertyOp9
 70
     1
102
RTVSPropertyOp10
 70
     1
102
RTVSPropertyOp11
 70
     1
102
RTVSPropertyOp12
 70
     1
102
RTVSPropertyOp13
 70
     1
102
RTVSPropertyOp14
 70
     1
102
RTVSPropertyOp15
 70
     1
102
RTVSPropertyOp16
 70
     1
102
RTVSPropertyOp17
 70
     1
102
RTVSPropertyOp18
 70
     1
102
RTVSPropertyOp19
 70
     1
102
RTVSPropertyOp20
 70
     1
102
RTVSPropertyOp21
 70
     1
102
RTVSPropertyOp22
 70
     1
102
RTVSPropertyOp23
 70
     1
102
RTVSPropertyOp24
 70
     1
102
RTVSPropertyOp25
 70
     1
102
RTVSPropertyOp26
 70
     1
102
RTVSPropertyOp27
 70
     1
  0
XRECORD
  5
2A8
102
{ACAD_REACTORS
330
2A7
102
}
330
2A7
100
AcDbXrecord
280
     1
102
RTVSPropertyOp0
 70
     1
102
RTVSPropertyOp1
 70
     1
102
RTVSPropertyOp2
 70
     1
102
RTVSPropertyOp3
 70
     1
102
RTVSPropertyOp4
 70
     1
102
RTVSPropertyOp5
 70
     1
102
RTVSPropertyOp6
 70
     1
102
RTVSPropertyOp7
 70
     1
102
RTVSPropertyOp8
 70
     1
102
RTVSPropertyOp9
 70
     1
102
RTVSPropertyOp10
 70
     1
102
RTVSPropertyOp11
 70
     1
102
RTVSPropertyOp12
 70
     1
102
RTVSPropertyOp13
 70
     1
102
RTVSPropertyOp14
 70
     1
102
RTVSPropertyOp15
 70
     1
102
RTVSPropertyOp16
 70
     1
102
RTVSPropertyOp17
 70
     1
102
RTVSPropertyOp18
 70
     1
102
RTVSPropertyOp19
 70
     1
102
RTVSPropertyOp20
 70
     1
102
RTVSPropertyOp21
 70
     1
102
RTVSPropertyOp22
 70
     1
102
RTVSPropertyOp23
 70
     1
102
RTVSPropertyOp24
 70
     1
102
RTVSPropertyOp25
 70
     1
102
RTVSPropertyOp26
 70
     1
102
RTVSPropertyOp27
 70
     1
  0
XRECORD
  5
2B6
102
{ACAD_REACTORS
330
2B5
102
}
330
2B5
100
AcDbXrecord
280
     1
102
RTVSPropertyOp0
 70
     1
102
RTVSPropertyOp1
 70
     1
102
RTVSPropertyOp2
 70
     1
102
RTVSPropertyOp3
 70
     1
102
RTVSPropertyOp4
 70
     1
102
RTVSPropertyOp5
 70
     1
102
RTVSPropertyOp6
 70
     1
102
RTVSPropertyOp7
 70
     1
102
RTVSPropertyOp8
 70
     1
102
RTVSPropertyOp9
 70
     1
102
RTVSPropertyOp10
 70
     1
102
RTVSPropertyOp11
 70
     1
102
RTVSPropertyOp12
 70
     1
102
RTVSPropertyOp13
 70
     1
102
RTVSPropertyOp14
 70
     1
102
RTVSPropertyOp15
 70
     1
102
RTVSPropertyOp16
 70
     1
102
RTVSPropertyOp17
 70
     1
102
RTVSPropertyOp18
 70
     1
102
RTVSPropertyOp19
 70
     1
102
RTVSPropertyOp20
 70
     1
102
RTVSPropertyOp21
 70
     1
102
RTVSPropertyOp22
 70
     1
102
RTVSPropertyOp23
 70
     1
102
RTVSPropertyOp24
 70
     1
102
RTVSPropertyOp25
 70
     1
102
RTVSPropertyOp26
 70
     1
102
RTVSPropertyOp27
 70
     1
  0
XRECORD
  5
2BE
102
{ACAD_REACTORS
330
2BD
102
}
330
2BD
100
AcDbXrecord
280
     1
102
RTVSPropertyOp0
 70
     1
102
RTVSPropertyOp1
 70
     1
102
RTVSPropertyOp2
 70
     1
102
RTVSPropertyOp3
 70
     1
102
RTVSPropertyOp4
 70
     1
102
RTVSPropertyOp5
 70
     1
102
RTVSPropertyOp6
 70
     1
102
RTVSPropertyOp7
 70
     1
102
RTVSPropertyOp8
 70
     1
102
RTVSPropertyOp9
 70
     1
102
RTVSPropertyOp10
 70
     1
102
RTVSPropertyOp11
 70
     1
102
RTVSPropertyOp12
 70
     1
102
RTVSPropertyOp13
 70
     1
102
RTVSPropertyOp14
 70
     1
102
RTVSPropertyOp15
 70
     1
102
RTVSPropertyOp16
 70
     1
102
RTVSPropertyOp17
 70
     1
102
RTVSPropertyOp18
 70
     1
102
RTVSPropertyOp19
 70
     1
102
RTVSPropertyOp20
 70
     1
102
RTVSPropertyOp21
 70
     1
102
RTVSPropertyOp22
 70
     1
102
RTVSPropertyOp23
 70
     1
102
RTVSPropertyOp24
 70
     1
102
RTVSPropertyOp25
 70
     1
102
RTVSPropertyOp26
 70
     1
102
RTVSPropertyOp27
 70
     1
  0
XRECORD
  5
2B0
102
{ACAD_REACTORS
330
2AF
102
}
330
2AF
100
AcDbXrecord
280
     1
102
RTVSPropertyOp0
 70
     1
102
RTVSPropertyOp1
 70
     1
102
RTVSPropertyOp2
 70
     1
102
RTVSPropertyOp3
 70
     1
102
RTVSPropertyOp4
 70
     1
102
RTVSPropertyOp5
 70
     1
102
RTVSPropertyOp6
 70
     1
102
RTVSPropertyOp7
 70
     1
102
RTVSPropertyOp8
 70
     1
102
RTVSPropertyOp9
 70
     1
102
RTVSPropertyOp10
 70
     1
102
RTVSPropertyOp11
 70
     1
102
RTVSPropertyOp12
 70
     1
102
RTVSPropertyOp13
 70
     1
102
RTVSPropertyOp14
 70
     1
102
RTVSPropertyOp15
 70
     1
102
RTVSPropertyOp16
 70
     1
102
RTVSPropertyOp17
 70
     1
102
RTVSPropertyOp18
 70
     1
102
RTVSPropertyOp19
 70
     1
102
RTVSPropertyOp20
 70
     1
102
RTVSPropertyOp21
 70
     1
102
RTVSPropertyOp22
 70
     1
102
RTVSPropertyOp23
 70
     1
102
RTVSPropertyOp24
 70
     1
102
RTVSPropertyOp25
 70
     1
102
RTVSPropertyOp26
 70
     1
102
RTVSPropertyOp27
 70
     1
  0
XRECORD
  5
2B4
102
{ACAD_REACTORS
330
2B3
102
}
330
2B3
100
AcDbXrecord
280
     1
102
RTVSPropertyOp0
 70
     1
102
RTVSPropertyOp1
 70
     1
102
RTVSPropertyOp2
 70
     1
102
RTVSPropertyOp3
 70
     1
102
RTVSPropertyOp4
 70
     1
102
RTVSPropertyOp5
 70
     1
102
RTVSPropertyOp6
 70
     1
102
RTVSPropertyOp7
 70
     1
102
RTVSPropertyOp8
 70
     1
102
RTVSPropertyOp9
 70
     1
102
RTVSPropertyOp10
 70
     1
102
RTVSPropertyOp11
 70
     1
102
RTVSPropertyOp12
 70
     1
102
RTVSPropertyOp13
 70
     1
102
RTVSPropertyOp14
 70
     1
102
RTVSPropertyOp15
 70
     1
102
RTVSPropertyOp16
 70
     1
102
RTVSPropertyOp17
 70
     1
102
RTVSPropertyOp18
 70
     1
102
RTVSPropertyOp19
 70
     1
102
RTVSPropertyOp20
 70
     1
102
RTVSPropertyOp21
 70
     1
102
RTVSPropertyOp22
 70
     1
102
RTVSPropertyOp23
 70
     1
102
RTVSPropertyOp24
 70
     1
102
RTVSPropertyOp25
 70
     1
102
RTVSPropertyOp26
 70
     1
102
RTVSPropertyOp27
 70
     1
  0
XRECORD
  5
2C4
102
{ACAD_REACTORS
330
2C3
102
}
330
2C3
100
AcDbXrecord
280
     1
102
RTVSPropertyOp0
 70
     0
102
RTVSPropertyOp1
 70
     0
102
RTVSPropertyOp2
 70
     0
102
RTVSPropertyOp3
 70
     0
102
RTVSPropertyOp4
 70
     0
102
RTVSPropertyOp5
 70
     0
102
RTVSPropertyOp6
 70
     0
102
RTVSPropertyOp7
 70
     0
102
RTVSPropertyOp8
 70
     0
102
RTVSPropertyOp9
 70
     0
102
RTVSPropertyOp10
 70
     0
102
RTVSPropertyOp11
 70
     0
102
RTVSPropertyOp12
 70
     0
102
RTVSPropertyOp13
 70
     0
102
RTVSPropertyOp14
 70
     2
102
RTVSPropertyOp15
 70
     0
102
RTVSPropertyOp16
 70
     0
102
RTVSPropertyOp17
 70
     0
102
RTVSPropertyOp18
 70
     0
102
RTVSPropertyOp19
 70
     0
102
RTVSPropertyOp20
 70
     0
102
RTVSPropertyOp21
 70
     0
102
RTVSPropertyOp22
 70
     0
102
RTVSPropertyOp23
 70
     0
102
RTVSPropertyOp24
 70
     0
102
RTVSPropertyOp25
 70
     0
102
RTVSPropertyOp26
 70
     0
102
RTVSPropertyOp27
 70
     0
  0
XRECORD
  5
2BC
102
{ACAD_REACTORS
330
2BB
102
}
330
2BB
100
AcDbXrecord
280
     1
102
RTVSPropertyOp0
 70
     1
102
RTVSPropertyOp1
 70
     1
102
RTVSPropertyOp2
 70
     1
102
RTVSPropertyOp3
 70
     1
102
RTVSPropertyOp4
 70
     1
102
RTVSPropertyOp5
 70
     1
102
RTVSPropertyOp6
 70
     1
102
RTVSPropertyOp7
 70
     1
102
RTVSPropertyOp8
 70
     1
102
RTVSPropertyOp9
 70
     1
102
RTVSPropertyOp10
 70
     1
102
RTVSPropertyOp11
 70
     1
102
RTVSPropertyOp12
 70
     1
102
RTVSPropertyOp13
 70
     1
102
RTVSPropertyOp14
 70
     1
102
RTVSPropertyOp15
 70
     1
102
RTVSPropertyOp16
 70
     1
102
RTVSPropertyOp17
 70
     1
102
RTVSPropertyOp18
 70
     1
102
RTVSPropertyOp19
 70
     1
102
RTVSPropertyOp20
 70
     1
102
RTVSPropertyOp21
 70
     1
102
RTVSPropertyOp22
 70
     1
102
RTVSPropertyOp23
 70
     1
102
RTVSPropertyOp24
 70
     1
102
RTVSPropertyOp25
 70
     1
102
RTVSPropertyOp26
 70
     1
102
RTVSPropertyOp27
 70
     1
  0
XRECORD
  5
2A0
102
{ACAD_REACTORS
330
29F
102
}
330
29F
100
AcDbXrecord
280
     1
102
RTVSPropertyOp0
 70
     1
102
RTVSPropertyOp1
 70
     1
102
RTVSPropertyOp2
 70
     1
102
RTVSPropertyOp3
 70
     1
102
RTVSPropertyOp4
 70
     1
102
RTVSPropertyOp5
 70
     1
102
RTVSPropertyOp6
 70
     1
102
RTVSPropertyOp7
 70
     1
102
RTVSPropertyOp8
 70
     1
102
RTVSPropertyOp9
 70
     1
102
RTVSPropertyOp10
 70
     1
102
RTVSPropertyOp11
 70
     1
102
RTVSPropertyOp12
 70
     1
102
RTVSPropertyOp13
 70
     1
102
RTVSPropertyOp14
 70
     1
102
RTVSPropertyOp15
 70
     1
102
RTVSPropertyOp16
 70
     1
102
RTVSPropertyOp17
 70
     1
102
RTVSPropertyOp18
 70
     1
102
RTVSPropertyOp19
 70
     1
102
RTVSPropertyOp20
 70
     1
102
RTVSPropertyOp21
 70
     1
102
RTVSPropertyOp22
 70
     1
102
RTVSPropertyOp23
 70
     1
102
RTVSPropertyOp24
 70
     1
102
RTVSPropertyOp25
 70
     1
102
RTVSPropertyOp26
 70
     1
102
RTVSPropertyOp27
 70
     1
  0
XRECORD
  5
2A2
102
{ACAD_REACTORS
330
2A1
102
}
330
2A1
100
AcDbXrecord
280
     1
102
RTVSPropertyOp0
 70
     1
102
RTVSPropertyOp1
 70
     1
102
RTVSPropertyOp2
 70
     1
102
RTVSPropertyOp3
 70
     1
102
RTVSPropertyOp4
 70
     1
102
RTVSPropertyOp5
 70
     1
102
RTVSPropertyOp6
 70
     1
102
RTVSPropertyOp7
 70
     1
102
RTVSPropertyOp8
 70
     1
102
RTVSPropertyOp9
 70
     1
102
RTVSPropertyOp10
 70
     1
102
RTVSPropertyOp11
 70
     1
102
RTVSPropertyOp12
 70
     1
102
RTVSPropertyOp13
 70
     1
102
RTVSPropertyOp14
 70
     1
102
RTVSPropertyOp15
 70
     1
102
RTVSPropertyOp16
 70
     1
102
RTVSPropertyOp17
 70
     1
102
RTVSPropertyOp18
 70
     1
102
RTVSPropertyOp19
 70
     1
102
RTVSPropertyOp20
 70
     1
102
RTVSPropertyOp21
 70
     1
102
RTVSPropertyOp22
 70
     1
102
RTVSPropertyOp23
 70
     1
102
RTVSPropertyOp24
 70
     1
102
RTVSPropertyOp25
 70
     1
102
RTVSPropertyOp26
 70
     1
102
RTVSPropertyOp27
 70
     1
  0
XRECORD
  5
2A4
102
{ACAD_REACTORS
330
2A3
102
}
330
2A3
100
AcDbXrecord
280
     1
102
RTVSPropertyOp0
 70
     1
102
RTVSPropertyOp1
 70
     1
102
RTVSPropertyOp2
 70
     1
102
RTVSPropertyOp3
 70
     1
102
RTVSPropertyOp4
 70
     1
102
RTVSPropertyOp5
 70
     1
102
RTVSPropertyOp6
 70
     1
102
RTVSPropertyOp7
 70
     1
102
RTVSPropertyOp8
 70
     1
102
RTVSPropertyOp9
 70
     1
102
RTVSPropertyOp10
 70
     1
102
RTVSPropertyOp11
 70
     1
102
RTVSPropertyOp12
 70
     1
102
RTVSPropertyOp13
 70
     1
102
RTVSPropertyOp14
 70
     1
102
RTVSPropertyOp15
 70
     1
102
RTVSPropertyOp16
 70
     1
102
RTVSPropertyOp17
 70
     1
102
RTVSPropertyOp18
 70
     1
102
RTVSPropertyOp19
 70
     1
102
RTVSPropertyOp20
 70
     1
102
RTVSPropertyOp21
 70
     1
102
RTVSPropertyOp22
 70
     1
102
RTVSPropertyOp23
 70
     1
102
RTVSPropertyOp24
 70
     1
102
RTVSPropertyOp25
 70
     1
102
RTVSPropertyOp26
 70
     1
102
RTVSPropertyOp27
 70
     1
  0
XRECORD
  5
2A6
102
{ACAD_REACTORS
330
2A5
102
}
330
2A5
100
AcDbXrecord
280
     1
102
RTVSPropertyOp0
 70
     1
102
RTVSPropertyOp1
 70
     1
102
RTVSPropertyOp2
 70
     1
102
RTVSPropertyOp3
 70
     1
102
RTVSPropertyOp4
 70
     1
102
RTVSPropertyOp5
 70
     1
102
RTVSPropertyOp6
 70
     1
102
RTVSPropertyOp7
 70
     1
102
RTVSPropertyOp8
 70
     1
102
RTVSPropertyOp9
 70
     1
102
RTVSPropertyOp10
 70
     1
102
RTVSPropertyOp11
 70
     1
102
RTVSPropertyOp12
 70
     1
102
RTVSPropertyOp13
 70
     1
102
RTVSPropertyOp14
 70
     1
102
RTVSPropertyOp15
 70
     1
102
RTVSPropertyOp16
 70
     1
102
RTVSPropertyOp17
 70
     1
102
RTVSPropertyOp18
 70
     1
102
RTVSPropertyOp19
 70
     1
102
RTVSPropertyOp20
 70
     1
102
RTVSPropertyOp21
 70
     1
102
RTVSPropertyOp22
 70
     1
102
RTVSPropertyOp23
 70
     1
102
RTVSPropertyOp24
 70
     1
102
RTVSPropertyOp25
 70
     1
102
RTVSPropertyOp26
 70
     1
102
RTVSPropertyOp27
 70
     1
  0
XRECORD
  5
2C0
102
{ACAD_REACTORS
330
2BF
102
}
330
2BF
100
AcDbXrecord
280
     1
102
RTVSPropertyOp0
 70
     0
102
RTVSPropertyOp1
 70
     0
102
RTVSPropertyOp2
 70
     0
102
RTVSPropertyOp3
 70
     0
102
RTVSPropertyOp4
 70
     0
102
RTVSPropertyOp5
 70
     0
102
RTVSPropertyOp6
 70
     0
102
RTVSPropertyOp7
 70
     0
102
RTVSPropertyOp8
 70
     0
102
RTVSPropertyOp9
 70
     0
102
RTVSPropertyOp10
 70
     0
102
RTVSPropertyOp11
 70
     0
102
RTVSPropertyOp12
 70
     0
102
RTVSPropertyOp13
 70
     0
102
RTVSPropertyOp14
 70
     2
102
RTVSPropertyOp15
 70
     0
102
RTVSPropertyOp16
 70
     0
102
RTVSPropertyOp17
 70
     0
102
RTVSPropertyOp18
 70
     0
102
RTVSPropertyOp19
 70
     0
102
RTVSPropertyOp20
 70
     0
102
RTVSPropertyOp21
 70
     0
102
RTVSPropertyOp22
 70
     0
102
RTVSPropertyOp23
 70
     0
102
RTVSPropertyOp24
 70
     0
102
RTVSPropertyOp25
 70
     0
102
RTVSPropertyOp26
 70
     0
102
RTVSPropertyOp27
 70
     0
  0
XRECORD
  5
2BA
102
{ACAD_REACTORS
330
2B9
102
}
330
2B9
100
AcDbXrecord
280
     1
102
RTVSPropertyOp0
 70
     1
102
RTVSPropertyOp1
 70
     1
102
RTVSPropertyOp2
 70
     1
102
RTVSPropertyOp3
 70
     1
102
RTVSPropertyOp4
 70
     1
102
RTVSPropertyOp5
 70
     1
102
RTVSPropertyOp6
 70
     1
102
RTVSPropertyOp7
 70
     1
102
RTVSPropertyOp8
 70
     1
102
RTVSPropertyOp9
 70
     1
102
RTVSPropertyOp10
 70
     1
102
RTVSPropertyOp11
 70
     1
102
RTVSPropertyOp12
 70
     1
102
RTVSPropertyOp13
 70
     1
102
RTVSPropertyOp14
 70
     1
102
RTVSPropertyOp15
 70
     1
102
RTVSPropertyOp16
 70
     1
102
RTVSPropertyOp17
 70
     1
102
RTVSPropertyOp18
 70
     1
102
RTVSPropertyOp19
 70
     1
102
RTVSPropertyOp20
 70
     1
102
RTVSPropertyOp21
 70
     1
102
RTVSPropertyOp22
 70
     1
102
RTVSPropertyOp23
 70
     1
102
RTVSPropertyOp24
 70
     1
102
RTVSPropertyOp25
 70
     1
102
RTVSPropertyOp26
 70
     1
102
RTVSPropertyOp27
 70
     1
  0
XRECORD
  5
2C2
102
{ACAD_REACTORS
330
2C1
102
}
330
2C1
100
AcDbXrecord
280
     1
102
RTVSPropertyOp0
 70
     0
102
RTVSPropertyOp1
 70
     0
102
RTVSPropertyOp2
 70
     0
102
RTVSPropertyOp3
 70
     0
102
RTVSPropertyOp4
 70
     0
102
RTVSPropertyOp5
 70
     0
102
RTVSPropertyOp6
 70
     0
102
RTVSPropertyOp7
 70
     0
102
RTVSPropertyOp8
 70
     0
102
RTVSPropertyOp9
 70
     0
102
RTVSPropertyOp10
 70
     0
102
RTVSPropertyOp11
 70
     0
102
RTVSPropertyOp12
 70
     0
102
RTVSPropertyOp13
 70
     0
102
RTVSPropertyOp14
 70
     2
102
RTVSPropertyOp15
 70
     0
102
RTVSPropertyOp16
 70
     0
102
RTVSPropertyOp17
 70
     0
102
RTVSPropertyOp18
 70
     0
102
RTVSPropertyOp19
 70
     0
102
RTVSPropertyOp20
 70
     0
102
RTVSPropertyOp21
 70
     0
102
RTVSPropertyOp22
 70
     0
102
RTVSPropertyOp23
 70
     0
102
RTVSPropertyOp24
 70
     0
102
RTVSPropertyOp25
 70
     0
102
RTVSPropertyOp26
 70
     0
102
RTVSPropertyOp27
 70
     0
  0
XRECORD
  5
2B2
102
{ACAD_REACTORS
330
2B1
102
}
330
2B1
100
AcDbXrecord
280
     1
102
RTVSPropertyOp0
 70
     1
102
RTVSPropertyOp1
 70
     1
102
RTVSPropertyOp2
 70
     1
102
RTVSPropertyOp3
 70
     1
102
RTVSPropertyOp4
 70
     1
102
RTVSPropertyOp5
 70
     1
102
RTVSPropertyOp6
 70
     1
102
RTVSPropertyOp7
 70
     1
102
RTVSPropertyOp8
 70
     1
102
RTVSPropertyOp9
 70
     1
102
RTVSPropertyOp10
 70
     1
102
RTVSPropertyOp11
 70
     1
102
RTVSPropertyOp12
 70
     1
102
RTVSPropertyOp13
 70
     1
102
RTVSPropertyOp14
 70
     1
102
RTVSPropertyOp15
 70
     1
102
RTVSPropertyOp16
 70
     1
102
RTVSPropertyOp17
 70
     1
102
RTVSPropertyOp18
 70
     1
102
RTVSPropertyOp19
 70
     1
102
RTVSPropertyOp20
 70
     1
102
RTVSPropertyOp21
 70
     1
102
RTVSPropertyOp22
 70
     1
102
RTVSPropertyOp23
 70
     1
102
RTVSPropertyOp24
 70
     1
102
RTVSPropertyOp25
 70
     1
102
RTVSPropertyOp26
 70
     1
102
RTVSPropertyOp27
 70
     1
  0
XRECORD
  5
2B8
102
{ACAD_REACTORS
330
2B7
102
}
330
2B7
100
AcDbXrecord
280
     1
102
RTVSPropertyOp0
 70
     1
102
RTVSPropertyOp1
 70
     1
102
RTVSPropertyOp2
 70
     1
102
RTVSPropertyOp3
 70
     1
102
RTVSPropertyOp4
 70
     1
102
RTVSPropertyOp5
 70
     1
102
RTVSPropertyOp6
 70
     1
102
RTVSPropertyOp7
 70
     1
102
RTVSPropertyOp8
 70
     1
102
RTVSPropertyOp9
 70
     1
102
RTVSPropertyOp10
 70
     1
102
RTVSPropertyOp11
 70
     1
102
RTVSPropertyOp12
 70
     1
102
RTVSPropertyOp13
 70
     1
102
RTVSPropertyOp14
 70
     1
102
RTVSPropertyOp15
 70
     1
102
RTVSPropertyOp16
 70
     1
102
RTVSPropertyOp17
 70
     1
102
RTVSPropertyOp18
 70
     1
102
RTVSPropertyOp19
 70
     1
102
RTVSPropertyOp20
 70
     1
102
RTVSPropertyOp21
 70
     1
102
RTVSPropertyOp22
 70
     1
102
RTVSPropertyOp23
 70
     1
102
RTVSPropertyOp24
 70
     1
102
RTVSPropertyOp25
 70
     1
102
RTVSPropertyOp26
 70
     1
102
RTVSPropertyOp27
 70
     1
  0
ENDSEC
  0
EOF
