  0
SECTION
  2
HEADER
  9
$ACADVER
  1
AC1015
  9
$ACADMAINTVER
 70
    20
  9
$DWGCODEPAGE
  3
ANSI_1252
  9
$INSBASE
 10
0.0
 20
0.0
 30
0.0
  9
$EXTMIN
 10
55.45067881227016
 20
188.1284599006196
 30
0.0
  9
$EXTMAX
 10
58.32851348547094
 20
188.9584599006196
 30
0.0
  9
$LIMMIN
 10
0.0
 20
0.0
  9
$LIMMAX
 10
420.0
 20
297.0
  9
$ORTHOMODE
 70
     0
  9
$REGENMODE
 70
     1
  9
$FILLMODE
 70
     1
  9
$QTEXTMODE
 70
     0
  9
$MIRRTEXT
 70
     0
  9
$LTSCALE
 40
1.0
  9
$ATTMODE
 70
     1
  9
$TEXTSIZE
 40
2.5
  9
$TRACEWID
 40
1.0
  9
$TEXTSTYLE
  7
Standard
  9
$CLAYER
  8
0
  9
$CELTYPE
  6
ByLayer
  9
$CECOLOR
 62
   256
  9
$CELTSCALE
 40
1.0
  9
$DISPSILH
 70
     0
  9
$DIMSCALE
 40
1.0
  9
$DIMASZ
 40
2.5
  9
$DIMEXO
 40
0.625
  9
$DIMDLI
 40
3.75
  9
$DIMRND
 40
0.0
  9
$DIMDLE
 40
0.0
  9
$DIMEXE
 40
1.25
  9
$DIMTP
 40
0.0
  9
$DIMTM
 40
0.0
  9
$DIMTXT
 40
2.5
  9
$DIMCEN
 40
2.5
  9
$DIMTSZ
 40
0.0
  9
$DIMTOL
 70
     0
  9
$DIMLIM
 70
     0
  9
$DIMTIH
 70
     0
  9
$DIMTOH
 70
     0
  9
$DIMSE1
 70
     0
  9
$DIMSE2
 70
     0
  9
$DIMTAD
 70
     1
  9
$DIMZIN
 70
     8
  9
$DIMBLK
  1

  9
$DIMASO
 70
     1
  9
$DIMSHO
 70
     1
  9
$DIMPOST
  1

  9
$DIMAPOST
  1

  9
$DIMALT
 70
     0
  9
$DIMALTD
 70
     3
  9
$DIMALTF
 40
0.03937007874016
  9
$DIMLFAC
 40
1.0
  9
$DIMTOFL
 70
     1
  9
$DIMTVP
 40
0.0
  9
$DIMTIX
 70
     0
  9
$DIMSOXD
 70
     0
  9
$DIMSAH
 70
     0
  9
$DIMBLK1
  1

  9
$DIMBLK2
  1

  9
$DIMSTYLE
  2
ISO-25
  9
$DIMCLRD
 70
     0
  9
$DIMCLRE
 70
     0
  9
$DIMCLRT
 70
     0
  9
$DIMTFAC
 40
1.0
  9
$DIMGAP
 40
0.625
  9
$DIMJUST
 70
     0
  9
$DIMSD1
 70
     0
  9
$DIMSD2
 70
     0
  9
$DIMTOLJ
 70
     0
  9
$DIMTZIN
 70
     8
  9
$DIMALTZ
 70
     0
  9
$DIMALTTZ
 70
     0
  9
$DIMUPT
 70
     0
  9
$DIMDEC
 70
     2
  9
$DIMTDEC
 70
     2
  9
$DIMALTU
 70
     2
  9
$DIMALTTD
 70
     3
  9
$DIMTXSTY
  7
Standard
  9
$DIMAUNIT
 70
     0
  9
$DIMADEC
 70
     0
  9
$DIMALTRND
 40
0.0
  9
$DIMAZIN
 70
     0
  9
$DIMDSEP
 70
    44
  9
$DIMATFIT
 70
     3
  9
$DIMFRAC
 70
     0
  9
$DIMLDRBLK
  1

  9
$DIMLUNIT
 70
     2
  9
$DIMLWD
 70
    -2
  9
$DIMLWE
 70
    -2
  9
$DIMTMOVE
 70
     0
  9
$LUNITS
 70
     2
  9
$LUPREC
 70
     4
  9
$SKETCHINC
 40
1.0
  9
$FILLETRAD
 40
0.0
  9
$AUNITS
 70
     0
  9
$AUPREC
 70
     0
  9
$MENU
  1
.
  9
$ELEVATION
 40
0.0
  9
$PELEVATION
 40
0.0
  9
$THICKNESS
 40
0.0
  9
$LIMCHECK
 70
     0
  9
$CHAMFERA
 40
0.0
  9
$CHAMFERB
 40
0.0
  9
$CHAMFERC
 40
0.0
  9
$CHAMFERD
 40
0.0
  9
$SKPOLY
 70
     0
  9
$TDCREATE
 40
2453909.669349862
  9
$TDUCREATE
 40
2453909.627683195
  9
$TDUPDATE
 40
2456141.396627963
  9
$TDUUPDATE
 40
2456141.354961296
  9
$TDINDWG
 40
0.0058917477
  9
$TDUSRTIMER
 40
0.0058915625
  9
$USRTIMER
 70
     1
  9
$ANGBASE
 50
0.0
  9
$ANGDIR
 70
     0
  9
$PDMODE
 70
     0
  9
$PDSIZE
 40
0.0
  9
$PLINEWID
 40
0.0
  9
$SPLFRAME
 70
     0
  9
$SPLINETYPE
 70
     6
  9
$SPLINESEGS
 70
     8
  9
$HANDSEED
  5
1B5
  9
$SURFTAB1
 70
     6
  9
$SURFTAB2
 70
     6
  9
$SURFTYPE
 70
     6
  9
$SURFU
 70
     6
  9
$SURFV
 70
     6
  9
$UCSBASE
  2

  9
$UCSNAME
  2

  9
$UCSORG
 10
0.0
 20
0.0
 30
0.0
  9
$UCSXDIR
 10
1.0
 20
0.0
 30
0.0
  9
$UCSYDIR
 10
0.0
 20
1.0
 30
0.0
  9
$UCSORTHOREF
  2

  9
$UCSORTHOVIEW
 70
     0
  9
$UCSORGTOP
 10
0.0
 20
0.0
 30
0.0
  9
$UCSORGBOTTOM
 10
0.0
 20
0.0
 30
0.0
  9
$UCSORGLEFT
 10
0.0
 20
0.0
 30
0.0
  9
$UCSORGRIGHT
 10
0.0
 20
0.0
 30
0.0
  9
$UCSORGFRONT
 10
0.0
 20
0.0
 30
0.0
  9
$UCSORGBACK
 10
0.0
 20
0.0
 30
0.0
  9
$PUCSBASE
  2

  9
$PUCSNAME
  2

  9
$PUCSORG
 10
0.0
 20
0.0
 30
0.0
  9
$PUCSXDIR
 10
1.0
 20
0.0
 30
0.0
  9
$PUCSYDIR
 10
0.0
 20
1.0
 30
0.0
  9
$PUCSORTHOREF
  2

  9
$PUCSORTHOVIEW
 70
     0
  9
$PUCSORGTOP
 10
0.0
 20
0.0
 30
0.0
  9
$PUCSORGBOTTOM
 10
0.0
 20
0.0
 30
0.0
  9
$PUCSORGLEFT
 10
0.0
 20
0.0
 30
0.0
  9
$PUCSORGRIGHT
 10
0.0
 20
0.0
 30
0.0
  9
$PUCSORGFRONT
 10
0.0
 20
0.0
 30
0.0
  9
$PUCSORGBACK
 10
0.0
 20
0.0
 30
0.0
  9
$USERI1
 70
     0
  9
$USERI2
 70
     0
  9
$USERI3
 70
     0
  9
$USERI4
 70
     0
  9
$USERI5
 70
     0
  9
$USERR1
 40
0.0
  9
$USERR2
 40
0.0
  9
$USERR3
 40
0.0
  9
$USERR4
 40
0.0
  9
$USERR5
 40
0.0
  9
$WORLDVIEW
 70
     1
  9
$SHADEDGE
 70
     3
  9
$SHADEDIF
 70
    70
  9
$TILEMODE
 70
     1
  9
$MAXACTVP
 70
    64
  9
$PINSBASE
 10
0.0
 20
0.0
 30
0.0
  9
$PLIMCHECK
 70
     0
  9
$PEXTMIN
 10
1.000000000000000E+20
 20
1.000000000000000E+20
 30
1.000000000000000E+20
  9
$PEXTMAX
 10
-1.000000000000000E+20
 20
-1.000000000000000E+20
 30
-1.000000000000000E+20
  9
$PLIMMIN
 10
0.0
 20
0.0
  9
$PLIMMAX
 10
420.0
 20
297.0
  9
$UNITMODE
 70
     0
  9
$VISRETAIN
 70
     1
  9
$PLINEGEN
 70
     0
  9
$PSLTSCALE
 70
     1
  9
$TREEDEPTH
 70
  3020
  9
$CMLSTYLE
  2
Standard
  9
$CMLJUST
 70
     0
  9
$CMLSCALE
 40
20.0
  9
$PROXYGRAPHICS
 70
     1
  9
$MEASUREMENT
 70
     1
  9
$CELWEIGHT
370
    -1
  9
$ENDCAPS
280
     0
  9
$JOINSTYLE
280
     0
  9
$LWDISPLAY
290
     0
  9
$INSUNITS
 70
     4
  9
$HYPERLINKBASE
  1

  9
$STYLESHEET
  1

  9
$XEDIT
290
     1
  9
$CEPSNTYPE
380
     0
  9
$PSTYLEMODE
290
     1
  9
$FINGERPRINTGUID
  2
{9E4EA45D-AD75-4D73-87C6-807FA0B0DC72}
  9
$VERSIONGUID
  2
{D71CF0D8-02B4-4543-936D-5ADB2AAB0368}
  9
$EXTNAMES
290
     1
  9
$PSVPSCALE
 40
0.0
  9
$OLESTARTUP
290
     0
  0
ENDSEC
  0
SECTION
  2
CLASSES
  0
CLASS
  1
ACDBDICTIONARYWDFLT
  2
AcDbDictionaryWithDefault
  3
ObjectDBX Classes
 90
        0
280
     0
281
     0
  0
CLASS
  1
TABLESTYLE
  2
AcDbTableStyle
  3
ObjectDBX Classes
 90
     4095
280
     0
281
     0
  0
CLASS
  1
DICTIONARYVAR
  2
AcDbDictionaryVar
  3
ObjectDBX Classes
 90
        0
280
     0
281
     0
  0
CLASS
  1
DIMASSOC
  2
AcDbDimAssoc
  3
"AcDbDimAssoc|Product Desc:     AcDim ARX App For Dimension|Company:          Autodesk, Inc.|WEB Address:      www.autodesk.com"
 90
    32768
280
     0
281
     0
  0
CLASS
  1
ACDBPLACEHOLDER
  2
AcDbPlaceHolder
  3
ObjectDBX Classes
 90
        0
280
     0
281
     0
  0
CLASS
  1
LAYOUT
  2
AcDbLayout
  3
ObjectDBX Classes
 90
        0
280
     0
281
     0
  0
CLASS
  1
MATERIAL
  2
AcDbMaterial
  3
ObjectDBX Classes
 90
     1153
280
     0
281
     0
  0
CLASS
  1
VISUALSTYLE
  2
AcDbVisualStyle
  3
ObjectDBX Classes
 90
     4095
280
     0
281
     0
  0
CLASS
  1
SCALE
  2
AcDbScale
  3
ObjectDBX Classes
 90
     1153
280
     0
281
     0
  0
CLASS
  1
MLEADERSTYLE
  2
AcDbMLeaderStyle
  3
ACDB_MLEADERSTYLE_CLASS
 90
     4095
280
     0
281
     0
  0
CLASS
  1
CELLSTYLEMAP
  2
AcDbCellStyleMap
  3
ObjectDBX Classes
 90
     1152
280
     0
281
     0
  0
ENDSEC
  0
SECTION
  2
TABLES
  0
TABLE
  2
VPORT
  5
8
330
0
100
AcDbSymbolTable
 70
     1
  0
VPORT
  5
126
330
8
100
AcDbSymbolTableRecord
100
AcDbViewportTableRecord
  2
*Active
 70
     0
 10
0.0
 20
0.0
 11
1.0
 21
1.0
 12
56.92764999729853
 22
188.5389869441732
 13
0.0
 23
0.0
 14
10.0
 24
10.0
 15
10.0
 25
10.0
 16
0.0
 26
0.0
 36
1.0
 17
0.0
 27
0.0
 37
0.0
 40
1.836349741663258
 41
1.645464025026068
 42
50.0
 43
0.0
 44
0.0
 50
0.0
 51
0.0
 71
     0
 72
  1000
 73
     1
 74
     3
 75
     0
 76
     0
 77
     0
 78
     0
281
     0
 65
     1
110
0.0
120
0.0
130
0.0
111
1.0
121
0.0
131
0.0
112
0.0
122
1.0
132
0.0
 79
     0
146
0.0
  0
ENDTAB
  0
TABLE
  2
LTYPE
  5
5
330
0
100
AcDbSymbolTable
 70
     1
  0
LTYPE
  5
14
330
5
100
AcDbSymbolTableRecord
100
AcDbLinetypeTableRecord
  2
ByBlock
 70
     0
  3

 72
    65
 73
     0
 40
0.0
  0
LTYPE
  5
15
330
5
100
AcDbSymbolTableRecord
100
AcDbLinetypeTableRecord
  2
ByLayer
 70
     0
  3

 72
    65
 73
     0
 40
0.0
  0
LTYPE
  5
16
330
5
100
AcDbSymbolTableRecord
100
AcDbLinetypeTableRecord
  2
Continuous
 70
     0
  3
Solid line
 72
    65
 73
     0
 40
0.0
  0
ENDTAB
  0
TABLE
  2
LAYER
  5
2
330
0
100
AcDbSymbolTable
 70
     3
  0
LAYER
  5
10
102
{ACAD_XDICTIONARY
360
177
102
}
330
2
100
AcDbSymbolTableRecord
100
AcDbLayerTableRecord
  2
0
 70
     0
 62
     7
  6
Continuous
370
    -3
390
F
  0
LAYER
  5
2F
102
{ACAD_XDICTIONARY
360
179
102
}
330
2
100
AcDbSymbolTableRecord
100
AcDbLayerTableRecord
  2
BLOCKS
 70
     0
 62
     3
  6
Continuous
370
    -3
390
F
  0
LAYER
  5
A0
330
2
100
AcDbSymbolTableRecord
100
AcDbLayerTableRecord
  2
Defpoints
 70
     0
 62
     7
  6
Continuous
290
     0
370
    -3
390
F
  0
ENDTAB
  0
TABLE
  2
STYLE
  5
3
330
0
100
AcDbSymbolTable
 70
     2
  0
STYLE
  5
11
330
3
100
AcDbSymbolTableRecord
100
AcDbTextStyleTableRecord
  2
Standard
 70
     0
 40
0.0
 41
1.0
 50
0.0
 71
     0
 42
2.5
  3
txt
  4

  0
STYLE
  5
30
330
3
100
AcDbSymbolTableRecord
100
AcDbTextStyleTableRecord
  2
cotas
 70
     0
 40
2.0
 41
0.8
 50
0.0
 71
     0
 42
4.0
  3
ISOCP.shx
  4

  0
ENDTAB
  0
TABLE
  2
VIEW
  5
6
330
0
100
AcDbSymbolTable
 70
     0
  0
ENDTAB
  0
TABLE
  2
UCS
  5
7
330
0
100
AcDbSymbolTable
 70
     0
  0
ENDTAB
  0
TABLE
  2
APPID
  5
9
330
0
100
AcDbSymbolTable
 70
     3
  0
APPID
  5
12
330
9
100
AcDbSymbolTableRecord
100
AcDbRegAppTableRecord
  2
ACAD
 70
     0
  0
APPID
  5
5A
330
9
100
AcDbSymbolTableRecord
100
AcDbRegAppTableRecord
  2
DCO15
 70
     0
  0
APPID
  5
1B4
330
9
100
AcDbSymbolTableRecord
100
AcDbRegAppTableRecord
  2
ACAD_MLEADERVER
 70
     0
  0
ENDTAB
  0
TABLE
  2
DIMSTYLE
  5
A
330
0
100
AcDbSymbolTable
 70
     1
100
AcDbDimStyleTable
 71
     1
340
2B
  0
DIMSTYLE
105
2B
330
A
100
AcDbSymbolTableRecord
100
AcDbDimStyleTableRecord
  2
ISO-25
 70
     0
 41
2.5
 42
0.625
 43
3.75
 44
1.25
 73
     0
 74
     0
 77
     1
 78
     8
140
2.5
141
2.5
143
0.03937007874016
147
0.625
171
     3
172
     1
271
     2
272
     2
274
     3
278
    44
283
     0
284
     8
340
11
  0
ENDTAB
  0
TABLE
  2
BLOCK_RECORD
  5
1
330
0
100
AcDbSymbolTable
 70
    14
  0
BLOCK_RECORD
  5
23
330
1
100
AcDbSymbolTableRecord
100
AcDbBlockTableRecord
  2
*Model_Space
340
26
  0
BLOCK_RECORD
  5
1F
330
1
100
AcDbSymbolTableRecord
100
AcDbBlockTableRecord
  2
*Paper_Space
340
22
  0
BLOCK_RECORD
  5
27
330
1
100
AcDbSymbolTableRecord
100
AcDbBlockTableRecord
  2
*Paper_Space0
340
2A
  0
BLOCK_RECORD
  5
31
330
1
100
AcDbSymbolTableRecord
100
AcDbBlockTableRecord
  2
100410PL
340
0
1001
ACAD
1000
DesignCenter Data
1002
{
1070
     1
1070
     4
1002
}
  0
BLOCK_RECORD
  5
3C
330
1
100
AcDbSymbolTableRecord
100
AcDbBlockTableRecord
  2
100410CT
340
0
1001
ACAD
1000
DesignCenter Data
1002
{
1070
     1
1070
     4
1002
}
  0
BLOCK_RECORD
  5
4B
330
1
100
AcDbSymbolTableRecord
100
AcDbBlockTableRecord
  2
100410AL
340
0
1001
ACAD
1000
DesignCenter Data
1002
{
1070
     1
1070
     4
1002
}
  0
BLOCK_RECORD
  5
52
330
1
100
AcDbSymbolTableRecord
100
AcDbBlockTableRecord
  2
100410AF
340
0
1001
ACAD
1000
DesignCenter Data
1002
{
1070
     1
1070
     4
1002
}
  0
BLOCK_RECORD
  5
76
330
1
100
AcDbSymbolTableRecord
100
AcDbBlockTableRecord
  2
100320PL
340
0
1001
ACAD
1000
DesignCenter Data
1002
{
1070
     1
1070
     4
1002
}
  0
BLOCK_RECORD
  5
80
330
1
100
AcDbSymbolTableRecord
100
AcDbBlockTableRecord
  2
100320CT
340
0
1001
ACAD
1000
DesignCenter Data
1002
{
1070
     1
1070
     4
1002
}
  0
BLOCK_RECORD
  5
90
330
1
100
AcDbSymbolTableRecord
100
AcDbBlockTableRecord
  2
100320AL
340
0
1001
ACAD
1000
DesignCenter Data
1002
{
1070
     1
1070
     4
1002
}
  0
BLOCK_RECORD
  5
98
330
1
100
AcDbSymbolTableRecord
100
AcDbBlockTableRecord
  2
100320AF
340
0
1001
ACAD
1000
DesignCenter Data
1002
{
1070
     1
1070
     4
1002
}
  0
BLOCK_RECORD
  5
E3
330
1
100
AcDbSymbolTableRecord
100
AcDbBlockTableRecord
  2
100310PL
340
0
102
{BLKREFS
331
EC
102
}
1001
ACAD
1000
DesignCenter Data
1002
{
1070
     1
1070
     4
1002
}
  0
BLOCK_RECORD
  5
ED
330
1
100
AcDbSymbolTableRecord
100
AcDbBlockTableRecord
  2
100310CT
340
0
102
{BLKREFS
331
FC
102
}
1001
ACAD
1000
DesignCenter Data
1002
{
1070
     1
1070
     4
1002
}
  0
BLOCK_RECORD
  5
FD
330
1
100
AcDbSymbolTableRecord
100
AcDbBlockTableRecord
  2
100310AL
340
0
102
{BLKREFS
331
104
102
}
1001
ACAD
1000
DesignCenter Data
1002
{
1070
     1
1070
     4
1002
}
  0
BLOCK_RECORD
  5
105
330
1
100
AcDbSymbolTableRecord
100
AcDbBlockTableRecord
  2
100310AF
340
0
102
{BLKREFS
331
10B
102
}
1001
ACAD
1000
DesignCenter Data
1002
{
1070
     1
1070
     4
1002
}
  0
ENDTAB
  0
ENDSEC
  0
SECTION
  2
BLOCKS
  0
BLOCK
  5
24
330
23
100
AcDbEntity
  8
0
100
AcDbBlockBegin
  2
*Model_Space
 70
     0
 10
0.0
 20
0.0
 30
0.0
  3
*Model_Space
  1

  0
ENDBLK
  5
25
330
23
100
AcDbEntity
  8
0
100
AcDbBlockEnd
  0
BLOCK
  5
20
330
1F
100
AcDbEntity
 67
     1
  8
0
100
AcDbBlockBegin
  2
*Paper_Space
 70
     0
 10
0.0
 20
0.0
 30
0.0
  3
*Paper_Space
  1

  0
ENDBLK
  5
21
330
1F
100
AcDbEntity
 67
     1
  8
0
100
AcDbBlockEnd
  0
BLOCK
  5
28
330
27
100
AcDbEntity
 67
     1
  8
0
100
AcDbBlockBegin
  2
*Paper_Space0
 70
     0
 10
0.0
 20
0.0
 30
0.0
  3
*Paper_Space0
  1

  0
ENDBLK
  5
29
330
27
100
AcDbEntity
 67
     1
  8
0
100
AcDbBlockEnd
  0
BLOCK
  5
38
330
31
100
AcDbEntity
  8
0
100
AcDbBlockBegin
  2
100410PL
 70
     0
 10
0.0
 20
0.0
 30
0.0
  3
100410PL
  1

  0
CIRCLE
  5
32
330
31
100
AcDbEntity
  8
BLOCKS
100
AcDbCircle
 10
0.0
 20
-0.0550000000000637
 30
0.0
 40
0.0175
  0
CIRCLE
  5
33
330
31
100
AcDbEntity
  8
BLOCKS
100
AcDbCircle
 10
0.0
 20
-0.1950000000000511
 30
0.0
 40
0.0225
  0
LWPOLYLINE
  5
34
330
31
100
AcDbEntity
  8
BLOCKS
100
AcDbPolyline
 90
        6
 70
     1
 43
0.0
 10
-0.1299999999999954
 20
-0.347500000000083
 42
1.0
 10
0.1299999999999954
 20
-0.347500000000083
 10
0.1299999999999954
 20
-0.1800000000000648
 42
0.4142140000000001
 10
0.07000000000005
 20
-0.1200000000000045
 10
-0.07000000000005
 20
-0.1200000000000045
 42
0.4142140000000001
 10
-0.1299999999999954
 20
-0.1800000000000648
  0
LWPOLYLINE
  5
35
330
31
100
AcDbEntity
  8
BLOCKS
100
AcDbPolyline
 90
        6
 70
     1
 43
0.0
 10
-0.1399999999999864
 20
-0.347500000000083
 10
-0.1399999999999864
 20
-0.0550000000000637
 42
-0.4142140000000001
 10
-0.1100000000000136
 20
-0.025000000000091
 10
0.1100000000000136
 20
-0.025000000000091
 42
-0.4142140000000001
 10
0.1399999999999864
 20
-0.0550000000000637
 10
0.1399999999999864
 20
-0.347500000000083
 42
-1.0
  0
LWPOLYLINE
  5
36
330
31
100
AcDbEntity
  8
BLOCKS
100
AcDbPolyline
 90
        6
 70
     1
 43
0.0
 10
0.1575000000000273
 20
0.0
 10
-0.1575000000000273
 20
0.0
 42
0.4142140000000001
 10
-0.1875
 20
-0.0300000000000864
 10
-0.1875
 20
-0.347500000000083
 42
1.0
 10
0.1875
 20
-0.347500000000083
 10
0.1875
 20
-0.0300000000000864
 42
0.4142140000000001
  0
LWPOLYLINE
  5
37
330
31
100
AcDbEntity
  8
BLOCKS
100
AcDbPolyline
 90
        6
 70
     0
 43
0.0
 10
-0.1475000000000364
 20
0.0
 42
0.4142140000000001
 10
-0.1775000000000091
 20
-0.0300000000000864
 10
-0.1775000000000091
 20
-0.347500000000083
 42
1.0
 10
0.1775000000000091
 20
-0.347500000000083
 10
0.1775000000000091
 20
-0.0300000000000864
 42
0.4142140000000001
 10
0.1475000000000364
 20
0.0
  0
ENDBLK
  5
39
330
31
100
AcDbEntity
  8
0
100
AcDbBlockEnd
  0
BLOCK
  5
48
330
3C
100
AcDbEntity
  8
0
100
AcDbBlockBegin
  2
100410CT
 70
     0
 10
0.0
 20
0.0
 30
0.0
  3
100410CT
  1

  0
LWPOLYLINE
  5
3D
330
3C
100
AcDbEntity
  8
BLOCKS
100
AcDbPolyline
 90
        8
 70
     0
 43
0.0
 10
0.5200000000000955
 20
0.3814310000000205
 42
0.4142140000000001
 10
0.5082950000000892
 20
0.3931360000000268
 10
0.5007229999999936
 20
0.3931360000000268
 42
0.37748
 10
0.4908040000000256
 20
0.3844030000000202
 42
-0.213338
 10
0.4204340000000002
 20
0.2689540000000079
 42
0.9461529999999999
 10
0.4245930000000726
 20
0.2621339999999463
 42
0.173029
 10
0.5184670000001006
 20
0.3658239999999751
 42
0.05073
 10
0.5199990000000981
 20
0.3815130000000408
  0
LWPOLYLINE
  5
3E
330
3C
100
AcDbEntity
  8
BLOCKS
100
AcDbPolyline
 90
        2
 70
     0
 43
0.0
 10
0.2175000000000864
 20
0.2369999999999663
 10
0.1725000000000136
 20
0.2369999999999663
  0
LWPOLYLINE
  5
3F
330
3C
100
AcDbEntity
  8
BLOCKS
100
AcDbPolyline
 90
        5
 70
     0
 43
0.0
 10
0.1323580000000675
 20
0.3435940000000528
 10
0.1223930000001019
 20
0.342757000000006
 10
0.1285470000000259
 20
0.2694890000000214
 42
0.231174
 10
0.1420450000000528
 20
0.2468780000000379
 10
0.1725000000000136
 20
0.2269999999999754
  0
LWPOLYLINE
  5
40
330
3C
100
AcDbEntity
  8
BLOCKS
100
AcDbPolyline
 90
        6
 70
     0
 43
0.0
 10
0.0375000000000227
 20
0.3999999999999772
 10
0.0375000000000227
 20
0.3849999999999909
 10
0.0300000000000864
 20
0.3849999999999909
 42
0.4142140000000001
 10
0.0200000000000955
 20
0.375
 10
0.0200000000000955
 20
0.3700000000000045
 10
0.0
 20
0.3700000000000045
  0
LWPOLYLINE
  5
41
330
3C
100
AcDbEntity
  8
BLOCKS
100
AcDbPolyline
 90
        4
 70
     0
 43
0.0
 10
0.2075000000000955
 20
0.2019999999999982
 10
0.2075000000000955
 20
0.0475000000000137
 42
-1.0
 10
0.1425000000000409
 20
0.0475000000000137
 10
0.1425000000000409
 20
0.2226980000000367
  0
LWPOLYLINE
  5
42
330
3C
100
AcDbEntity
  8
BLOCKS
100
AcDbPolyline
 90
        7
 70
     0
 43
0.0
 10
0.1306840000000875
 20
0.3635229999999865
 10
0.1207190000000082
 20
0.3626860000000533
 10
0.1199390000000449
 20
0.3719780000000128
 42
1.0
 10
0.1099740000000793
 20
0.371140999999966
 10
0.1185830000000578
 20
0.2686519999999746
 42
0.231174
 10
0.136579000000097
 20
0.238503000000037
 10
0.1725000000000136
 20
0.2150579999999991
  0
LWPOLYLINE
  5
43
330
3C
100
AcDbEntity
  8
BLOCKS
100
AcDbPolyline
 90
        3
 70
     0
 43
0.0
 10
0.1575000000000273
 20
0.2520220000000108
 10
0.1725000000000136
 20
0.2369999999999663
 10
0.1725000000000136
 20
0.2019999999999982
  0
LWPOLYLINE
  5
44
330
3C
100
AcDbEntity
  8
BLOCKS
100
AcDbPolyline
 90
        3
 70
     0
 43
0.0
 10
0.2175000000000864
 20
0.2019999999999982
 10
0.2175000000000864
 20
0.2369999999999663
 10
0.2325000000000728
 20
0.2519999999999527
  0
LWPOLYLINE
  5
45
330
3C
100
AcDbEntity
  8
BLOCKS
100
AcDbPolyline
 90
       18
 70
     1
 43
0.0
 10
0.5231150000000753
 20
0.4049999999999728
 42
0.4142140000000001
 10
0.5181150000000799
 20
0.4099999999999682
 10
0.0099999999999909
 20
0.4099999999999682
 42
0.4142140000000001
 10
0.0
 20
0.3999999999999772
 10
0.0
 20
0.3490980000000263
 42
0.355037
 10
0.0159060000000864
 20
0.3295209999999997
 10
0.056030000000078
 20
0.3211290000000417
 42
-0.18271
 10
0.0810390000000325
 20
0.254976000000056
 10
0.0810390000000325
 20
0.0
 10
0.434039000000098
 20
0.0
 10
0.4182020000000648
 20
0.228334000000018
 42
-0.298833
 10
0.4289449999999988
 20
0.2474710000000186
 42
0.177188
 10
0.5325160000001006
 20
0.3605459999999994
 42
0.046569
 10
0.5330610000000889
 20
0.3623229999999467
 42
0.090836
 10
0.5338480000000346
 20
0.3957850000000462
 42
0.368752
 10
0.5289099999999963
 20
0.3999999999999772
 10
0.5261150000000044
 20
0.3999999999999772
 42
-0.4142140000000001
 10
0.5231150000000753
 20
0.40300000000002
  0
LWPOLYLINE
  5
46
330
3C
100
AcDbEntity
  8
BLOCKS
100
AcDbPolyline
 90
       15
 70
     0
 43
0.0
 10
0.4190030000000889
 20
0.0
 10
0.4038560000000189
 20
0.2183840000000146
 42
0.394073
 10
0.3839040000000295
 20
0.2369999999999663
 10
0.2387130000000752
 20
0.2369999999999663
 10
0.2325000000000728
 20
0.2307869999999639
 10
0.2325000000000728
 20
0.2019999999999982
 10
0.1575000000000273
 20
0.2019999999999982
 10
0.1575000000000273
 20
0.2129069999999729
 10
0.131114000000025
 20
0.2301290000000336
 42
-0.231174
 10
0.1086180000000922
 20
0.2678150000000414
 10
0.100009
 20
0.3703030000000353
 42
-0.130612
 10
0.1013570000000072
 20
0.3778899999999794
 42
0.548415
 10
0.0968250000000808
 20
0.3849999999999909
 10
0.0724999999999909
 20
0.3849999999999909
 10
0.0724999999999909
 20
0.3999999999999772
  0
LWPOLYLINE
  5
47
330
3C
100
AcDbEntity
  8
BLOCKS
100
AcDbPolyline
 90
       16
 70
     0
 43
0.0
 10
0.0200000000000955
 20
0.4099999999999682
 42
-0.4142140000000001
 10
0.025000000000091
 20
0.4049999999999728
 10
0.025000000000091
 20
0.40300000000002
 42
0.4142140000000001
 10
0.02800000000002
 20
0.3999999999999772
 10
0.1230360000000701
 20
0.3999999999999772
 42
-0.368752
 10
0.1279739999999947
 20
0.3957850000000462
 10
0.1385119999999915
 20
0.2703259999999545
 42
0.389876
 10
0.1584420000000364
 20
0.2519999999999527
 10
0.3200430000000551
 20
0.2519999999999527
 42
0.149535
 10
0.4125190000000885
 20
0.2817179999999553
 42
0.228345
 10
0.4768200000000889
 20
0.3956020000000535
 42
-0.379305
 10
0.4817840000000615
 20
0.3999999999999772
 10
0.4844260000000986
 20
0.3999999999999772
 42
0.4142140000000001
 10
0.4874260000000277
 20
0.40300000000002
 10
0.4874260000000277
 20
0.4049999999999728
 42
-0.4142140000000001
 10
0.4924260000000232
 20
0.4099999999999682
  0
ENDBLK
  5
49
330
3C
100
AcDbEntity
  8
0
100
AcDbBlockEnd
  0
BLOCK
  5
4F
330
4B
100
AcDbEntity
  8
0
100
AcDbBlockBegin
  2
100410AL
 70
     0
 10
0.0
 20
0.0
 30
0.0
  3
100410AL
  1

  0
LWPOLYLINE
  5
4C
330
4B
100
AcDbEntity
  8
BLOCKS
100
AcDbPolyline
 90
        4
 70
     1
 43
0.0
 10
0.2030870000000959
 20
0.0299999999999727
 10
0.2030870000000959
 20
0.1509529999999586
 42
1.0
 10
0.144992000000002
 20
0.1509529999999586
 10
0.144992000000002
 20
0.0299999999999727
  0
LWPOLYLINE
  5
4D
330
4B
100
AcDbEntity
  8
BLOCKS
100
AcDbPolyline
 90
       11
 70
     0
 43
0.0
 10
0.0079370000000836
 20
0.3999999999999784
 10
0.5289099999999963
 20
0.3999999999999784
 42
-0.368752
 10
0.5338480000000346
 20
0.3957850000000474
 42
-0.090836
 10
0.5330610000000889
 20
0.3623229999999478
 42
-0.046569
 10
0.5325160000001006
 20
0.3605460000000005
 42
-0.177188
 10
0.4289449999999988
 20
0.2474710000000186
 42
0.298833
 10
0.4182020000000648
 20
0.228334000000018
 10
0.434039000000098
 20
0.0
 10
0.0810390000000325
 20
0.0
 10
0.0810390000000325
 20
0.254976000000056
 42
0.18271
 10
0.056030000000078
 20
0.3211290000000429
  0
LWPOLYLINE
  5
4E
330
4B
100
AcDbEntity
  8
BLOCKS
100
AcDbPolyline
 90
        9
 70
     0
 43
0.0
 10
0.1121840000000702
 20
0.3093850000000214
 10
0.0159060000000864
 20
0.3295210000000009
 42
-0.355037
 10
0.0
 20
0.3490980000000275
 10
0.0
 20
0.3999999999999784
 42
-0.4142140000000001
 10
0.0099999999999909
 20
0.4099999999999694
 10
0.5181150000000799
 20
0.4099999999999694
 42
-0.4142140000000001
 10
0.5231150000000753
 20
0.4049999999999739
 10
0.5231150000000753
 20
0.4030000000000212
 42
0.4142140000000001
 10
0.5261150000000044
 20
0.3999999999999784
  0
ENDBLK
  5
50
330
4B
100
AcDbEntity
  8
0
100
AcDbBlockEnd
  0
BLOCK
  5
55
330
52
100
AcDbEntity
  8
0
100
AcDbBlockBegin
  2
100410AF
 70
     0
 10
0.0
 20
0.0
 30
0.0
  3
100410AF
  1

  0
LWPOLYLINE
  5
53
330
52
100
AcDbEntity
  8
BLOCKS
100
AcDbPolyline
 90
       14
 70
     1
 43
0.0
 10
-0.1814470000000483
 20
0.3999999999999772
 42
0.368752
 10
-0.1863849999999729
 20
0.3957850000000462
 42
0.090836
 10
-0.1855980000000272
 20
0.3623229999999467
 42
0.046569
 10
-0.185053000000039
 20
0.3605459999999994
 42
0.212886
 10
-0.0949060000000373
 20
0.2474710000000186
 42
-0.298833
 10
-0.0841629999999896
 20
0.228334000000018
 10
-0.1000000000000227
 20
0.0
 10
0.1000000000000227
 20
0.0
 10
0.0841629999999896
 20
0.228334000000018
 42
-0.298833
 10
0.0949060000000373
 20
0.2474710000000186
 42
0.212886
 10
0.185053000000039
 20
0.3605459999999994
 42
0.046569
 10
0.1855980000000272
 20
0.3623229999999467
 42
0.090836
 10
0.1863849999999729
 20
0.3957850000000462
 42
0.368752
 10
0.1814470000000483
 20
0.3999999999999772
  0
LWPOLYLINE
  5
54
330
52
100
AcDbEntity
  8
BLOCKS
100
AcDbPolyline
 90
        8
 70
     0
 43
0.0
 10
-0.1786520000000564
 20
0.3999999999999772
 42
0.4142140000000001
 10
-0.1756520000000137
 20
0.40300000000002
 10
-0.1756520000000137
 20
0.4049999999999728
 42
-0.4142140000000001
 10
-0.1706520000000182
 20
0.4099999999999682
 10
0.1706520000000182
 20
0.4099999999999682
 42
-0.4142140000000001
 10
0.1756520000000137
 20
0.4049999999999728
 10
0.1756520000000137
 20
0.40300000000002
 42
0.4142140000000001
 10
0.1786520000000564
 20
0.3999999999999772
  0
ENDBLK
  5
56
330
52
100
AcDbEntity
  8
0
100
AcDbBlockEnd
  0
BLOCK
  5
7D
330
76
100
AcDbEntity
  8
0
100
AcDbBlockBegin
  2
100320PL
 70
     0
 10
0.0
 20
0.0
 30
0.0
  3
100320PL
  1

  0
CIRCLE
  5
77
330
76
100
AcDbEntity
  8
BLOCKS
100
AcDbCircle
 10
0.0
 20
-0.07000000000005
 30
0.0
 40
0.0175
  0
CIRCLE
  5
78
330
76
100
AcDbEntity
  8
BLOCKS
100
AcDbCircle
 10
0.0
 20
-0.2150000000000324
 30
0.0
 40
0.0225
  0
LWPOLYLINE
  5
79
330
76
100
AcDbEntity
  8
BLOCKS
100
AcDbPolyline
 90
        8
 70
     1
 43
0.0
 10
0.1599609999999529
 20
-0.4816580000000391
 42
-0.14592
 10
-0.1599609999999529
 20
-0.4816580000000391
 42
-0.130433
 10
-0.2900829999999814
 20
-0.405184999999961
 42
-0.214164
 10
-0.3424999999999727
 20
-0.2651260000000098
 10
-0.3424999999999727
 20
0.0
 10
0.3424999999999727
 20
0.0
 10
0.3424999999999727
 20
-0.2651260000000098
 42
-0.214164
 10
0.2900829999999814
 20
-0.405184999999961
 42
-0.130433
  0
LWPOLYLINE
  5
7A
330
76
100
AcDbEntity
  8
BLOCKS
100
AcDbPolyline
 90
        8
 70
     0
 43
0.0
 10
-0.3309870000000501
 20
0.0
 10
-0.3309870000000501
 20
-0.2654989999999776
 42
0.214717
 10
-0.281898999999953
 20
-0.3970880000000539
 42
0.130525
 10
-0.1567700000000514
 20
-0.470596000000001
 42
0.146017
 10
0.1567700000000514
 20
-0.470596000000001
 42
0.130525
 10
0.281898999999953
 20
-0.3970880000000539
 42
0.214717
 10
0.3309870000000501
 20
-0.2654989999999776
 10
0.3309870000000501
 20
0.0
  0
LWPOLYLINE
  5
7B
330
76
100
AcDbEntity
  8
BLOCKS
100
AcDbPolyline
 90
       10
 70
     1
 43
0.0
 10
-0.2964500000000498
 20
-0.2667030000000073
 42
0.216778
 10
-0.2573469999999816
 20
-0.3727969999999919
 42
0.110918
 10
-0.1657679999999573
 20
-0.4314699999999908
 42
0.165772
 10
0.1657679999999573
 20
-0.4314699999999908
 42
0.110918
 10
0.2573469999999816
 20
-0.3727969999999919
 42
0.216778
 10
0.2964500000000498
 20
-0.2667030000000073
 10
0.2964500000000498
 20
-0.0575629999999592
 42
0.4142140000000001
 10
0.2619120000000521
 20
-0.0230249999999614
 10
-0.2619120000000521
 20
-0.0230249999999614
 42
0.4142140000000001
 10
-0.2964500000000498
 20
-0.0575629999999592
  0
LWPOLYLINE
  5
7C
330
76
100
AcDbEntity
  8
BLOCKS
100
AcDbPolyline
 90
        9
 70
     1
 43
0.0
 10
0.1619419999999536
 20
-0.4206110000000086
 42
0.110793
 10
0.2491629999999532
 20
-0.3646999999999712
 42
0.217649
 10
0.2849370000000135
 20
-0.2671380000000459
 10
0.2849370000000135
 20
-0.2647899999999486
 42
0.4142140000000001
 10
0.1698109999999815
 20
-0.1496640000000298
 10
-0.1698109999999815
 20
-0.1496640000000298
 42
0.419573
 10
-0.2849179999999478
 20
-0.2668919999999849
 42
0.218164
 10
-0.2491629999999532
 20
-0.3646999999999712
 42
0.130971
 10
-0.14401799999996
 20
-0.4263439999999724
 42
0.156041
  0
ENDBLK
  5
7E
330
76
100
AcDbEntity
  8
0
100
AcDbBlockEnd
  0
BLOCK
  5
8D
330
80
100
AcDbEntity
  8
0
100
AcDbBlockBegin
  2
100320CT
 70
     0
 10
0.0
 20
0.0
 30
0.0
  3
100320CT
  1

  0
LWPOLYLINE
  5
81
330
80
100
AcDbEntity
  8
BLOCKS
100
AcDbPolyline
 90
        9
 70
     0
 43
0.0
 10
0.4880500000000439
 20
0.7754260000000386
 42
-0.077158
 10
0.4417909999999666
 20
0.7211670000000368
 42
-0.878611
 10
0.4358839999999873
 20
0.726462999999967
 42
0.132086
 10
0.4638670000000503
 20
0.8057649999999512
 42
-0.391959
 10
0.4738380000000007
 20
0.8150000000000545
 10
0.4849010000000363
 20
0.8150000000000545
 42
-0.399021
 10
0.4948869999999488
 20
0.8055209999999988
 42
-0.021283
 10
0.4950529999999845
 20
0.8002699999999549
 42
-0.113972
 10
0.4878179999999475
 20
0.7750310000000127
  0
LWPOLYLINE
  5
82
330
80
100
AcDbEntity
  8
BLOCKS
100
AcDbPolyline
 90
        6
 70
     0
 43
0.0
 10
0.0049999999999955
 20
0.7400000000000091
 10
0.0249999999999773
 20
0.7400000000000091
 10
0.0249999999999773
 20
0.7999999999999546
 42
-0.4142140000000001
 10
0.0299999999999727
 20
0.8049999999999499
 10
0.0525000000000091
 20
0.8049999999999499
 10
0.0525000000000091
 20
0.82000000000005
  0
LWPOLYLINE
  5
83
330
80
100
AcDbEntity
  8
BLOCKS
100
AcDbPolyline
 90
        4
 70
     1
 43
0.0
 10
0.2805170000000316
 20
0.6281000000000177
 10
0.2811100000000124
 20
0.6089719999999943
 10
0.2725000000000364
 20
0.614908000000014
 10
0.2725000000000364
 20
0.6271930000000339
  0
LWPOLYLINE
  5
84
330
80
100
AcDbEntity
  8
BLOCKS
100
AcDbPolyline
 90
        3
 70
     0
 43
0.0
 10
0.2374999999999545
 20
0.6100000000000137
 10
0.2374999999999545
 20
0.6399999999999864
 10
0.2525000000000546
 20
0.6549999999999728
  0
LWPOLYLINE
  5
85
330
80
100
AcDbEntity
  8
BLOCKS
100
AcDbPolyline
 90
        2
 70
     0
 43
0.0
 10
0.1924999999999954
 20
0.6399999999999864
 10
0.2374999999999545
 20
0.6399999999999864
  0
LWPOLYLINE
  5
86
330
80
100
AcDbEntity
  8
BLOCKS
100
AcDbPolyline
 90
        3
 70
     0
 43
0.0
 10
0.1924999999999954
 20
0.6100000000000137
 10
0.1924999999999954
 20
0.6399999999999864
 10
0.1775000000000091
 20
0.6549999999999728
  0
LWPOLYLINE
  5
87
330
80
100
AcDbEntity
  8
BLOCKS
100
AcDbPolyline
 90
        6
 70
     0
 43
0.0
 10
0.2560019999999668
 20
0.6404209999999467
 10
0.2864889999999605
 20
0.6438719999999876
 42
0.009546
 10
0.2949999999999591
 20
0.6449999999999818
 10
0.3150000000000546
 20
0.0
 10
0.1349999999999909
 20
0.0
 10
0.1349999999999909
 20
0.6303719999999658
  0
LWPOLYLINE
  5
88
330
80
100
AcDbEntity
  8
BLOCKS
100
AcDbPolyline
 90
        9
 70
     0
 43
0.0
 10
0.25750000000005
 20
0.6405909999999722
 10
0.25750000000005
 20
0.614908000000014
 42
0.246631
 10
0.2639860000000453
 20
0.6025580000000446
 10
0.2754429999999957
 20
0.5946599999999762
 42
-0.238426
 10
0.2819220000000087
 20
0.5827749999999697
 10
0.2989079999999831
 20
0.0349899999999934
 10
0.2795280000000275
 20
0.0149999999999864
 10
0.2150000000000318
 20
0.0149999999999864
 10
0.2150000000000318
 20
0.0
  0
LWPOLYLINE
  5
89
330
80
100
AcDbEntity
  8
BLOCKS
100
AcDbPolyline
 90
       28
 70
     0
 43
0.0
 10
0.1042589999999564
 20
0.67999999999995
 10
0.0199999999999818
 20
0.67999999999995
 42
-0.4142140000000001
 10
0.0049999999999955
 20
0.6950000000000501
 10
0.0049999999999955
 20
0.8099999999999454
 10
0.0
 20
0.8150000000000545
 10
0.0
 20
0.8300000000000409
 10
0.4881149999999935
 20
0.8300000000000409
 42
-0.4142140000000001
 10
0.4931149999999889
 20
0.8250000000000454
 10
0.4931149999999889
 20
0.822999999999979
 42
0.4142140000000001
 10
0.4961150000000317
 20
0.82000000000005
 10
0.4989100000000235
 20
0.82000000000005
 42
-0.368752
 10
0.5038479999999482
 20
0.8157850000000053
 42
-0.046878
 10
0.5049589999999853
 20
0.7984420000000228
 42
-0.109126
 10
0.4965650000000324
 20
0.7701829999999746
 42
-0.10775
 10
0.4249210000000403
 20
0.6957989999999655
 42
-0.078723
 10
0.2903119999999717
 20
0.6459879999999885
 10
0.2613900000000058
 20
0.6427589999999555
 42
0.382004
 10
0.2525000000000546
 20
0.6328200000000379
 10
0.2525000000000546
 20
0.6100000000000137
 10
0.1775000000000091
 20
0.6100000000000137
 10
0.1775000000000091
 20
0.6148160000000189
 10
0.1263509999999997
 20
0.6335380000000442
 42
-0.253264
 10
0.1054860000000417
 20
0.6653919999999971
 10
0.0949940000000425
 20
0.7903029999999945
 42
-0.130612
 10
0.0963420000000497
 20
0.7978900000000522
 42
0.548415
 10
0.091809000000012
 20
0.8049999999999499
 10
0.0874999999999773
 20
0.8049999999999499
 10
0.0874999999999773
 20
0.82000000000005
  0
LWPOLYLINE
  5
8A
330
80
100
AcDbEntity
  8
BLOCKS
100
AcDbPolyline
 90
       16
 70
     0
 43
0.0
 10
0.4699259999999868
 20
0.8300000000000409
 42
0.4142140000000001
 10
0.4649259999999913
 20
0.8250000000000454
 10
0.4649259999999913
 20
0.822999999999979
 42
-0.4142140000000001
 10
0.4619259999999486
 20
0.82000000000005
 10
0.4592840000000252
 20
0.82000000000005
 42
0.379305
 10
0.4543200000000525
 20
0.8156020000000125
 42
-0.279577
 10
0.3772189999999682
 20
0.6888460000000123
 42
-0.072019
 10
0.2525000000000546
 20
0.6549999999999728
 10
0.1572989999999663
 20
0.6549999999999728
 42
-0.389876
 10
0.1423509999999624
 20
0.668743999999947
 10
0.1299999999999954
 20
0.8157850000000053
 42
0.368752
 10
0.1250619999999571
 20
0.82000000000005
 10
0.0330000000000155
 20
0.82000000000005
 42
-0.4142140000000001
 10
0.0299999999999727
 20
0.822999999999979
 10
0.0299999999999727
 20
0.8250000000000454
 42
0.4142140000000001
 10
0.0249999999999773
 20
0.8300000000000409
  0
LWPOLYLINE
  5
8B
330
80
100
AcDbEntity
  8
BLOCKS
100
AcDbPolyline
 90
        7
 70
     0
 43
0.0
 10
0.1327099999999746
 20
0.7835229999999456
 10
0.122745000000009
 20
0.7826860000000125
 10
0.1219650000000456
 20
0.7919779999999719
 42
1.0
 10
0.105007999999998
 20
0.7905530000000454
 10
0.1154510000000073
 20
0.666229000000044
 42
0.253264
 10
0.1310999999999467
 20
0.6423379999999952
 10
0.1924999999999954
 20
0.6200000000000046
  0
LWPOLYLINE
  5
8C
330
80
100
AcDbEntity
  8
BLOCKS
100
AcDbPolyline
 90
        5
 70
     0
 43
0.0
 10
0.1343839999999545
 20
0.7635940000000119
 10
0.1244189999999889
 20
0.7627569999999651
 10
0.1323859999999968
 20
0.6679070000000138
 42
0.229747
 10
0.1435209999999643
 20
0.6491389999999911
 10
0.1924999999999954
 20
0.6299999999999955
  0
ENDBLK
  5
8E
330
80
100
AcDbEntity
  8
0
100
AcDbBlockEnd
  0
BLOCK
  5
95
330
90
100
AcDbEntity
  8
0
100
AcDbBlockBegin
  2
100320AL
 70
     0
 10
0.0
 20
0.0
 30
0.0
  3
100320AL
  1

  0
LWPOLYLINE
  5
91
330
90
100
AcDbEntity
  8
BLOCKS
100
AcDbPolyline
 90
       10
 70
     0
 43
0.0
 10
0.4961150000000317
 20
0.8200000000000505
 42
-0.4142140000000001
 10
0.4931149999999889
 20
0.8229999999999796
 10
0.4931149999999889
 20
0.825000000000046
 42
0.4142140000000001
 10
0.4881149999999935
 20
0.8300000000000414
 10
0.0
 20
0.8300000000000414
 10
0.0
 20
0.8150000000000551
 10
0.0049999999999955
 20
0.8099999999999459
 10
0.0049999999999955
 20
0.6950000000000506
 42
0.4142140000000001
 10
0.0199999999999818
 20
0.6799999999999505
 10
0.1285930000000235
 20
0.6799999999999505
  0
LWPOLYLINE
  5
92
330
90
100
AcDbEntity
  8
BLOCKS
100
AcDbPolyline
 90
        9
 70
     0
 43
0.0
 10
0.1349999999999909
 20
0.642758999999956
 10
0.2613900000000058
 20
0.642758999999956
 10
0.2903119999999717
 20
0.645987999999989
 42
0.078723
 10
0.4249210000000403
 20
0.695798999999966
 42
0.10775
 10
0.4965650000000324
 20
0.7701829999999751
 42
0.109126
 10
0.5049589999999853
 20
0.7984420000000233
 42
0.046878
 10
0.5038479999999482
 20
0.8157850000000058
 42
0.368752
 10
0.4989100000000235
 20
0.8200000000000505
 10
0.0138950000000477
 20
0.8200000000000505
  0
LWPOLYLINE
  5
93
330
90
100
AcDbEntity
  8
BLOCKS
100
AcDbPolyline
 90
        4
 70
     0
 43
0.0
 10
0.1042589999999564
 20
0.6799999999999505
 10
0.1054860000000417
 20
0.6653919999999977
 42
0.253264
 10
0.1263509999999997
 20
0.6335380000000447
 10
0.1349999999999909
 20
0.6303719999999663
  0
LWPOLYLINE
  5
94
330
90
100
AcDbEntity
  8
BLOCKS
100
AcDbPolyline
 90
        4
 70
     0
 43
0.0
 10
0.2949399999999969
 20
0.6469379999999779
 10
0.3150000000000546
 20
0.0
 10
0.1349999999999909
 20
0.0
 10
0.1349999999999909
 20
0.642758999999956
  0
ENDBLK
  5
96
330
90
100
AcDbEntity
  8
0
100
AcDbBlockEnd
  0
BLOCK
  5
9C
330
98
100
AcDbEntity
  8
0
100
AcDbBlockBegin
  2
100320AF
 70
     0
 10
0.0
 20
0.0
 30
0.0
  3
100320AF
  1

  0
LWPOLYLINE
  5
99
330
98
100
AcDbEntity
  8
BLOCKS
100
AcDbPolyline
 90
        4
 70
     0
 43
0.0
 10
-0.0765549999999848
 20
0.6465570000000298
 10
-0.0765549999999848
 20
0.0
 10
0.0765549999999848
 20
0.0
 10
0.0765549999999848
 20
0.6465570000000298
  0
LWPOLYLINE
  5
9A
330
98
100
AcDbEntity
  8
BLOCKS
100
AcDbPolyline
 90
       12
 70
     1
 43
0.0
 10
0.3364100000000008
 20
0.82000000000005
 10
-0.3364100000000008
 20
0.82000000000005
 42
0.368752
 10
-0.3413480000000391
 20
0.8157850000000053
 42
0.090836
 10
-0.3405609999999797
 20
0.7823230000000195
 42
0.046569
 10
-0.3400159999999914
 20
0.7805459999999585
 42
0.179255
 10
-0.238597000000027
 20
0.6689930000000004
 42
0.120124
 10
-0.1465600000000222
 20
0.6465570000000298
 10
0.1465600000000222
 20
0.6465570000000298
 42
0.120124
 10
0.238597000000027
 20
0.6689930000000004
 42
0.179255
 10
0.3400159999999914
 20
0.7805459999999585
 42
0.046569
 10
0.3405609999999797
 20
0.7823230000000195
 42
0.090836
 10
0.3413480000000391
 20
0.8157850000000053
 42
0.368752
  0
LWPOLYLINE
  5
9B
330
98
100
AcDbEntity
  8
BLOCKS
100
AcDbPolyline
 90
        8
 70
     0
 43
0.0
 10
0.3336150000000089
 20
0.82000000000005
 42
-0.4142140000000001
 10
0.3306149999999661
 20
0.822999999999979
 10
0.3306149999999661
 20
0.8250000000000454
 42
0.4142140000000001
 10
0.3256149999999707
 20
0.8300000000000409
 10
-0.3256149999999707
 20
0.8300000000000409
 42
0.4142140000000001
 10
-0.3306149999999661
 20
0.8250000000000454
 10
-0.3306149999999661
 20
0.822999999999979
 42
-0.4142140000000001
 10
-0.3336150000000089
 20
0.82000000000005
  0
ENDBLK
  5
9D
330
98
100
AcDbEntity
  8
0
100
AcDbBlockEnd
  0
BLOCK
  5
EA
330
E3
100
AcDbEntity
  8
0
100
AcDbBlockBegin
  2
100310PL
 70
     0
 10
0.0
 20
0.0
 30
0.0
  3
100310PL
  1

  0
CIRCLE
  5
E4
330
E3
100
AcDbEntity
  8
BLOCKS
100
AcDbCircle
 10
0.0
 20
-0.07000000000005
 30
0.0
 40
0.0175
  0
CIRCLE
  5
E5
330
E3
100
AcDbEntity
  8
BLOCKS
100
AcDbCircle
 10
0.0
 20
-0.1950000000000506
 30
0.0
 40
0.0225
  0
LWPOLYLINE
  5
E6
330
E3
100
AcDbEntity
  8
BLOCKS
100
AcDbPolyline
 90
        8
 70
     1
 43
0.0
 10
0.1389440000000377
 20
-0.4297249999999627
 42
-0.14592
 10
-0.1389440000000377
 20
-0.4297249999999627
 42
-0.130433
 10
-0.2519700000000284
 20
-0.3632999999999816
 42
-0.180994
 10
-0.2975000000000136
 20
-0.2618780000000248
 10
-0.2975000000000136
 20
0.0
 10
0.2975000000000136
 20
0.0
 10
0.2975000000000136
 20
-0.2618780000000248
 42
-0.180994
 10
0.2519700000000284
 20
-0.3632999999999816
 42
-0.130433
  0
LWPOLYLINE
  5
E7
330
E3
100
AcDbEntity
  8
BLOCKS
100
AcDbPolyline
 90
        8
 70
     0
 43
0.0
 10
-0.2875000000000227
 20
0.0
 10
-0.2875000000000227
 20
-0.2615530000000495
 42
0.180448
 10
-0.2448610000000144
 20
-0.3562660000000056
 42
0.130525
 10
-0.1361719999999877
 20
-0.4201170000000053
 42
0.146017
 10
0.1361719999999877
 20
-0.4201170000000053
 42
0.130525
 10
0.2448610000000144
 20
-0.3562660000000056
 42
0.180448
 10
0.2875000000000227
 20
-0.2615530000000495
 10
0.2875000000000227
 20
0.0
  0
LWPOLYLINE
  5
E8
330
E3
100
AcDbEntity
  8
BLOCKS
100
AcDbPolyline
 90
       10
 70
     1
 43
0.0
 10
-0.25750000000005
 20
-0.2430120000000221
 42
0.216778
 10
-0.2235349999999698
 20
-0.3351659999999589
 42
0.110918
 10
-0.1439890000000332
 20
-0.3861309999999781
 42
0.165772
 10
0.1439890000000332
 20
-0.3861309999999781
 42
0.110918
 10
0.2235349999999698
 20
-0.3351659999999589
 42
0.216778
 10
0.25750000000005
 20
-0.2430120000000221
 10
0.25750000000005
 20
-0.0499999999999545
 42
0.4142140000000001
 10
0.2274999999999636
 20
-0.0199999999999818
 10
-0.2274999999999636
 20
-0.0199999999999818
 42
0.4142140000000001
 10
-0.25750000000005
 20
-0.0499999999999545
  0
LWPOLYLINE
  5
E9
330
E3
100
AcDbEntity
  8
BLOCKS
100
AcDbPolyline
 90
       10
 70
     1
 43
0.0
 10
-0.125095999999985
 20
-0.3816789999999633
 42
-0.130971
 10
-0.2164269999999533
 20
-0.3281329999999803
 42
-0.217649
 10
-0.2474999999999454
 20
-0.2433899999999773
 10
-0.2474999999999454
 20
-0.2300000000000188
 42
-0.4142140000000001
 10
-0.1475000000000364
 20
-0.1299999999999954
 10
0.1475000000000364
 20
-0.1299999999999954
 42
-0.4142140000000001
 10
0.2474999999999454
 20
-0.2300000000000188
 10
0.2474999999999454
 20
-0.2433899999999773
 42
-0.217649
 10
0.2164269999999533
 20
-0.3281329999999803
 42
-0.110793
 10
0.1406650000000127
 20
-0.3766990000000311
 42
-0.156041
  0
ENDBLK
  5
EB
330
E3
100
AcDbEntity
  8
0
100
AcDbBlockEnd
  0
BLOCK
  5
FA
330
ED
100
AcDbEntity
  8
0
100
AcDbBlockBegin
  2
100310CT
 70
     0
 10
0.0
 20
0.0
 30
0.0
  3
100310CT
  1

  0
LWPOLYLINE
  5
EE
330
ED
100
AcDbEntity
  8
BLOCKS
100
AcDbPolyline
 90
        7
 70
     1
 43
0.0
 10
0.4398869999999988
 20
0.8055209999999988
 42
-0.086769
 10
0.4377869999999576
 20
0.784357
 42
-0.150615
 10
0.3619559999999637
 20
0.6899939999999561
 42
-0.9330169999999998
 10
0.3558070000000271
 20
0.6978490000000193
 42
0.192525
 10
0.4088669999999866
 20
0.8057649999999512
 42
-0.391959
 10
0.4188380000000507
 20
0.8150000000000545
 10
0.4299009999999726
 20
0.8150000000000545
 42
-0.399021
  0
LWPOLYLINE
  5
EF
330
ED
100
AcDbEntity
  8
BLOCKS
100
AcDbPolyline
 90
        6
 70
     0
 43
0.0
 10
0.0049999999999955
 20
0.7400000000000091
 10
0.0249999999999773
 20
0.7400000000000091
 10
0.0249999999999773
 20
0.7999999999999546
 42
-0.4142140000000001
 10
0.0299999999999727
 20
0.8049999999999499
 10
0.0525000000000091
 20
0.8049999999999499
 10
0.0525000000000091
 20
0.82000000000005
  0
LWPOLYLINE
  5
F0
330
ED
100
AcDbEntity
  8
BLOCKS
100
AcDbPolyline
 90
        4
 70
     1
 43
0.0
 10
0.2525000000000546
 20
0.6271930000000339
 10
0.2605170000000498
 20
0.6281000000000177
 10
0.2611100000000306
 20
0.6089719999999943
 10
0.2525000000000546
 20
0.614908000000014
  0
LWPOLYLINE
  5
F1
330
ED
100
AcDbEntity
  8
BLOCKS
100
AcDbPolyline
 90
        3
 70
     0
 43
0.0
 10
0.2174999999999727
 20
0.6100000000000137
 10
0.2174999999999727
 20
0.6399999999999864
 10
0.2324999999999591
 20
0.6549999999999728
  0
LWPOLYLINE
  5
F2
330
ED
100
AcDbEntity
  8
BLOCKS
100
AcDbPolyline
 90
        2
 70
     0
 43
0.0
 10
0.1725000000000136
 20
0.6399999999999864
 10
0.2174999999999727
 20
0.6399999999999864
  0
LWPOLYLINE
  5
F3
330
ED
100
AcDbEntity
  8
BLOCKS
100
AcDbPolyline
 90
        3
 70
     0
 43
0.0
 10
0.1725000000000136
 20
0.6100000000000137
 10
0.1725000000000136
 20
0.6399999999999864
 10
0.1575000000000273
 20
0.6549999999999728
  0
LWPOLYLINE
  5
F4
330
ED
100
AcDbEntity
  8
BLOCKS
100
AcDbPolyline
 90
        6
 70
     0
 43
0.0
 10
0.2360019999999849
 20
0.6404209999999467
 10
0.2664889999999787
 20
0.6438719999999876
 42
0.009546
 10
0.2749999999999773
 20
0.6449999999999818
 10
0.2949999999999591
 20
0.0
 10
0.1150000000000091
 20
0.0
 10
0.1150000000000091
 20
0.6426800000000413
  0
LWPOLYLINE
  5
F5
330
ED
100
AcDbEntity
  8
BLOCKS
100
AcDbPolyline
 90
        9
 70
     0
 43
0.0
 10
0.2374999999999545
 20
0.6405909999999722
 10
0.2374999999999545
 20
0.614908000000014
 42
0.246631
 10
0.2439859999999498
 20
0.6025580000000446
 10
0.2554430000000138
 20
0.5946599999999762
 42
-0.238426
 10
0.2619220000000268
 20
0.5827749999999697
 10
0.2789080000000013
 20
0.0349899999999934
 10
0.2595280000000457
 20
0.0149999999999864
 10
0.19500000000005
 20
0.0149999999999864
 10
0.19500000000005
 20
0.0
  0
LWPOLYLINE
  5
F6
330
ED
100
AcDbEntity
  8
BLOCKS
100
AcDbPolyline
 90
       27
 70
     0
 43
0.0
 10
0.0874999999999773
 20
0.82000000000005
 10
0.0874999999999773
 20
0.8049999999999499
 10
0.091809000000012
 20
0.8049999999999499
 42
-0.548415
 10
0.0963420000000497
 20
0.7978900000000522
 42
0.130612
 10
0.0949940000000425
 20
0.7903029999999945
 10
0.1054860000000417
 20
0.6653919999999971
 42
0.253264
 10
0.1263509999999997
 20
0.6335380000000442
 10
0.1575000000000273
 20
0.6167309999999589
 10
0.1575000000000273
 20
0.6100000000000137
 10
0.2324999999999591
 20
0.6100000000000137
 10
0.2324999999999591
 20
0.6328200000000379
 42
-0.382004
 10
0.241390000000024
 20
0.6427589999999555
 10
0.2703119999999899
 20
0.6459879999999885
 42
0.275811
 10
0.4475159999999505
 20
0.7805459999999585
 42
0.046569
 10
0.4480610000000525
 20
0.7823230000000195
 42
0.090836
 10
0.4488479999999982
 20
0.8157850000000053
 42
0.368752
 10
0.4439099999999599
 20
0.82000000000005
 10
0.441114999999968
 20
0.82000000000005
 42
-0.4142140000000001
 10
0.4381150000000389
 20
0.822999999999979
 10
0.4381150000000389
 20
0.8250000000000454
 42
0.4142140000000001
 10
0.4331150000000435
 20
0.8300000000000409
 10
0.0
 20
0.8300000000000409
 10
0.0
 20
0.8150000000000545
 10
0.0049999999999955
 20
0.8099999999999454
 10
0.0049999999999955
 20
0.6950000000000501
 42
0.4142140000000001
 10
0.0199999999999818
 20
0.67999999999995
 10
0.1042589999999564
 20
0.67999999999995
  0
LWPOLYLINE
  5
F7
330
ED
100
AcDbEntity
  8
BLOCKS
100
AcDbPolyline
 90
       16
 70
     0
 43
0.0
 10
0.4149260000000368
 20
0.8300000000000409
 42
0.4142140000000001
 10
0.4099260000000414
 20
0.8250000000000454
 10
0.4099260000000414
 20
0.822999999999979
 42
-0.4142140000000001
 10
0.4069259999999986
 20
0.82000000000005
 10
0.4042839999999615
 20
0.82000000000005
 42
0.379305
 10
0.3993199999999888
 20
0.8156020000000125
 42
-0.249351
 10
0.3302260000000388
 20
0.6907710000000407
 42
-0.113301
 10
0.2324999999999591
 20
0.6549999999999728
 10
0.1572989999999663
 20
0.6549999999999728
 42
-0.389876
 10
0.1423509999999624
 20
0.668743999999947
 10
0.1299999999999954
 20
0.8157850000000053
 42
0.368752
 10
0.1250619999999571
 20
0.82000000000005
 10
0.0330000000000155
 20
0.82000000000005
 42
-0.4142140000000001
 10
0.0299999999999727
 20
0.822999999999979
 10
0.0299999999999727
 20
0.8250000000000454
 42
0.4142140000000001
 10
0.0249999999999773
 20
0.8300000000000409
  0
LWPOLYLINE
  5
F8
330
ED
100
AcDbEntity
  8
BLOCKS
100
AcDbPolyline
 90
        7
 70
     0
 43
0.0
 10
0.1327099999999746
 20
0.7835229999999456
 10
0.122745000000009
 20
0.7826860000000125
 10
0.1219650000000456
 20
0.7919779999999719
 42
1.0
 10
0.105007999999998
 20
0.7905530000000454
 10
0.1154510000000073
 20
0.666229000000044
 42
0.253264
 10
0.1310999999999467
 20
0.6423379999999952
 10
0.1725000000000136
 20
0.6200000000000046
  0
LWPOLYLINE
  5
F9
330
ED
100
AcDbEntity
  8
BLOCKS
100
AcDbPolyline
 90
        5
 70
     0
 43
0.0
 10
0.1343839999999545
 20
0.7635940000000119
 10
0.1244189999999889
 20
0.7627569999999651
 10
0.1323859999999968
 20
0.6679070000000138
 42
0.229747
 10
0.1435209999999643
 20
0.6491389999999911
 10
0.1725000000000136
 20
0.6299999999999955
  0
ENDBLK
  5
FB
330
ED
100
AcDbEntity
  8
0
100
AcDbBlockEnd
  0
BLOCK
  5
102
330
FD
100
AcDbEntity
  8
0
100
AcDbBlockBegin
  2
100310AL
 70
     0
 10
0.0
 20
0.0
 30
0.0
  3
100310AL
  1

  0
LWPOLYLINE
  5
FE
330
FD
100
AcDbEntity
  8
BLOCKS
100
AcDbPolyline
 90
       10
 70
     0
 43
0.0
 10
0.441114999999968
 20
0.8200000000000505
 42
-0.4142140000000001
 10
0.4381150000000389
 20
0.8229999999999796
 10
0.4381150000000389
 20
0.825000000000046
 42
0.4142140000000001
 10
0.4331150000000435
 20
0.8300000000000414
 10
0.0
 20
0.8300000000000414
 10
0.0
 20
0.8150000000000551
 10
0.0049999999999955
 20
0.8099999999999459
 10
0.0049999999999955
 20
0.6950000000000506
 42
0.4142140000000001
 10
0.0199999999999818
 20
0.6799999999999505
 10
0.1229879999999639
 20
0.6799999999999505
  0
LWPOLYLINE
  5
FF
330
FD
100
AcDbEntity
  8
BLOCKS
100
AcDbPolyline
 90
        8
 70
     0
 43
0.0
 10
0.0051300000000083
 20
0.8200000000000505
 10
0.4439099999999599
 20
0.8200000000000505
 42
-0.368752
 10
0.4488479999999982
 20
0.8157850000000058
 42
-0.090836
 10
0.4480610000000525
 20
0.78232300000002
 42
-0.046569
 10
0.4475159999999505
 20
0.780545999999959
 42
-0.275811
 10
0.2703119999999899
 20
0.645987999999989
 10
0.2358130000000074
 20
0.6420829999999575
 10
0.1150000000000091
 20
0.6420829999999575
  0
LWPOLYLINE
  5
100
330
FD
100
AcDbEntity
  8
BLOCKS
100
AcDbPolyline
 90
        3
 70
     0
 43
0.0
 10
0.1042589999999564
 20
0.6799999999999505
 10
0.1054860000000417
 20
0.6653919999999977
 42
0.162814
 10
0.1155220000000554
 20
0.6420829999999575
 42
0.162814
  0
LWPOLYLINE
  5
101
330
FD
100
AcDbEntity
  8
BLOCKS
100
AcDbPolyline
 90
        4
 70
     0
 43
0.0
 10
0.2749519999999848
 20
0.6465570000000304
 10
0.2949999999999591
 20
0.0
 10
0.1150000000000091
 20
0.0
 10
0.1150000000000091
 20
0.6420829999999575
  0
ENDBLK
  5
103
330
FD
100
AcDbEntity
  8
0
100
AcDbBlockEnd
  0
BLOCK
  5
109
330
105
100
AcDbEntity
  8
0
100
AcDbBlockBegin
  2
100310AF
 70
     0
 10
0.0
 20
0.0
 30
0.0
  3
100310AF
  1

  0
LWPOLYLINE
  5
106
330
105
100
AcDbEntity
  8
BLOCKS
100
AcDbPolyline
 90
        4
 70
     0
 43
0.0
 10
-0.0765549999999848
 20
0.6465570000000298
 10
-0.0765549999999848
 20
0.0
 10
0.0765549999999848
 20
0.0
 10
0.0765549999999848
 20
0.6465570000000298
  0
LWPOLYLINE
  5
107
330
105
100
AcDbEntity
  8
BLOCKS
100
AcDbPolyline
 90
       12
 70
     1
 43
0.0
 10
-0.2914100000000417
 20
0.82000000000005
 42
0.368752
 10
-0.2963479999999663
 20
0.8157850000000053
 42
0.090836
 10
-0.2955610000000206
 20
0.7823230000000195
 42
0.046569
 10
-0.2950160000000323
 20
0.7805459999999585
 42
0.257153
 10
-0.1327710000000479
 20
0.6481890000000022
 42
0.045254
 10
-0.1147799999999961
 20
0.6465570000000298
 10
0.1147799999999961
 20
0.6465570000000298
 42
0.045254
 10
0.1327710000000479
 20
0.6481890000000022
 42
0.257153
 10
0.2950160000000323
 20
0.7805459999999585
 42
0.046569
 10
0.2955610000000206
 20
0.7823230000000195
 42
0.090836
 10
0.2963479999999663
 20
0.8157850000000053
 42
0.368752
 10
0.2914100000000417
 20
0.82000000000005
  0
LWPOLYLINE
  5
108
330
105
100
AcDbEntity
  8
BLOCKS
100
AcDbPolyline
 90
        8
 70
     0
 43
0.0
 10
0.2886150000000498
 20
0.82000000000005
 42
-0.4142140000000001
 10
0.285615000000007
 20
0.822999999999979
 10
0.285615000000007
 20
0.8250000000000454
 42
0.4142140000000001
 10
0.2806150000000116
 20
0.8300000000000409
 10
-0.2806150000000116
 20
0.8300000000000409
 42
0.4142140000000001
 10
-0.285615000000007
 20
0.8250000000000454
 10
-0.285615000000007
 20
0.822999999999979
 42
-0.4142140000000001
 10
-0.2886150000000498
 20
0.82000000000005
  0
ENDBLK
  5
10A
330
105
100
AcDbEntity
  8
0
100
AcDbBlockEnd
  0
ENDSEC
  0
SECTION
  2
ENTITIES
  0
INSERT
  5
EC
330
23
100
AcDbEntity
  8
0
100
AcDbBlockReference
  2
100310PL
 10
55.74817881227017
 20
188.7139790709918
 30
0.0
  0
INSERT
  5
FC
330
23
100
AcDbEntity
  8
0
100
AcDbBlockReference
  2
100310CT
 10
56.2985843077752
 20
188.1284599006196
 30
0.0
  0
INSERT
  5
104
330
23
100
AcDbEntity
  8
0
100
AcDbBlockReference
  2
100310AL
 10
57.02128408990077
 20
188.1284599006196
 30
0.0
  0
INSERT
  5
10B
330
23
100
AcDbEntity
  8
0
100
AcDbBlockReference
  2
100310AF
 10
58.03101353052761
 20
188.1284599006196
 30
0.0
  0
ENDSEC
  0
SECTION
  2
OBJECTS
  0
DICTIONARY
  5
C
330
0
100
AcDbDictionary
281
     1
  3
ACAD_COLOR
350
1C
  3
ACAD_GROUP
350
D
  3
ACAD_LAYOUT
350
1A
  3
ACAD_MATERIAL
350
1B
  3
ACAD_MLEADERSTYLE
350
172
  3
ACAD_MLINESTYLE
350
17
  3
ACAD_PLOTSETTINGS
350
19
  3
ACAD_PLOTSTYLENAME
350
E
  3
ACAD_SCALELIST
350
160
  3
ACAD_TABLESTYLE
350
1D
  3
ACAD_VISUALSTYLE
350
14C
  3
ACDB_RECOMPOSE_DATA
350
182
  3
AcDbVariableDictionary
350
12E
  3
ASE_INDEX_DICTIONARY
350
59
  3
DWGPROPS
350
183
  0
DICTIONARY
  5
177
330
10
100
AcDbDictionary
280
     1
281
     1
  3
ADSK_XREC_LAYER_RECONCILED
360
178
  0
DICTIONARY
  5
179
330
2F
100
AcDbDictionary
280
     1
281
     1
  3
ADSK_XREC_LAYER_RECONCILED
360
17A
  0
DICTIONARY
  5
1C
102
{ACAD_REACTORS
330
C
102
}
330
C
100
AcDbDictionary
281
     1
  0
DICTIONARY
  5
D
102
{ACAD_REACTORS
330
C
102
}
330
C
100
AcDbDictionary
281
     1
  0
DICTIONARY
  5
1A
102
{ACAD_REACTORS
330
C
102
}
330
C
100
AcDbDictionary
281
     1
  3
Layout1
350
22
  3
Layout2
350
2A
  3
Model
350
26
  0
DICTIONARY
  5
1B
102
{ACAD_REACTORS
330
C
102
}
330
C
100
AcDbDictionary
281
     1
  3
ByBlock
350
13C
  3
ByLayer
350
134
  3
Global
350
144
  0
DICTIONARY
  5
172
102
{ACAD_REACTORS
330
C
102
}
330
C
100
AcDbDictionary
281
     1
  3
Standard
350
173
  0
DICTIONARY
  5
17
102
{ACAD_REACTORS
330
C
102
}
330
C
100
AcDbDictionary
281
     1
  3
Standard
350
18
  0
DICTIONARY
  5
19
102
{ACAD_REACTORS
330
C
102
}
330
C
100
AcDbDictionary
281
     1
  0
ACDBDICTIONARYWDFLT
  5
E
102
{ACAD_REACTORS
330
C
102
}
330
C
100
AcDbDictionary
281
     1
  3
Normal
350
F
100
AcDbDictionaryWithDefault
340
F
  0
DICTIONARY
  5
160
102
{ACAD_REACTORS
330
C
102
}
330
C
100
AcDbDictionary
281
     1
  3
A0
350
161
  3
A1
350
162
  3
A2
350
163
  3
A3
350
164
  3
A4
350
165
  3
A5
350
166
  3
A6
350
167
  3
A7
350
168
  3
A8
350
169
  3
A9
350
16A
  3
B0
350
16B
  3
B1
350
16C
  3
B2
350
16D
  3
B3
350
16E
  3
B4
350
16F
  3
B5
350
170
  3
B6
350
171
  0
DICTIONARY
  5
1D
102
{ACAD_REACTORS
330
C
102
}
330
C
100
AcDbDictionary
281
     1
  3
Standard
350
1E
  0
DICTIONARY
  5
14C
102
{ACAD_REACTORS
330
C
102
}
330
C
100
AcDbDictionary
281
     1
  3
2dWireframe
350
152
  3
3D Hidden
350
154
  3
3dWireframe
350
153
  3
Basic
350
151
  3
Brighten
350
158
  3
ColorChange
350
15C
  3
Conceptual
350
155
  3
Dim
350
157
  3
EdgeColorOff
350
15F
  3
Facepattern
350
15B
  3
Flat
350
14D
  3
FlatWithEdges
350
14E
  3
Gouraud
350
14F
  3
GouraudWithEdges
350
150
  3
JitterOff
350
15D
  3
Linepattern
350
15A
  3
OverhangOff
350
15E
  3
Realistic
350
156
  3
Thicken
350
159
  0
XRECORD
  5
182
102
{ACAD_REACTORS
330
C
102
}
330
C
100
AcDbXrecord
280
     1
 90
        1
330
1E
  0
DICTIONARY
  5
12E
102
{ACAD_REACTORS
330
C
102
}
330
C
100
AcDbDictionary
281
     1
  3
CANNOSCALE
350
17C
  3
CMLEADERSTYLE
350
17B
  3
CTABLESTYLE
350
12F
  3
DIMASSOC
350
131
  3
HIDETEXT
350
130
  3
INDEXCTL
350
17E
  3
PROJECTNAME
350
132
  3
SORTENTS
350
17D
  3
XCLIPFRAME
350
17F
  0
DICTIONARY
  5
59
102
{ACAD_REACTORS
330
C
102
}
330
C
100
AcDbDictionary
281
     1
  3
ASEBlockHierarchyIndexRecord
350
5B
1001
DCO15
1040
1564398421.375
  0
XRECORD
  5
183
102
{ACAD_REACTORS
330
C
102
}
330
C
100
AcDbXrecord
280
     1
  1
DWGPROPS COOKIE
  2

  3

  4

  6

  7

  8
Julio
  9

300
=
301
=
302
=
303
=
304
=
305
=
306
=
307
=
308
=
309
=
 40
0.0058912037037037
 41
2453909.669349862
 42
2456141.396627963
  1

 90
        0
  0
XRECORD
  5
178
102
{ACAD_REACTORS
330
177
102
}
330
177
100
AcDbXrecord
280
     1
290
     1
  0
XRECORD
  5
17A
102
{ACAD_REACTORS
330
179
102
}
330
179
100
AcDbXrecord
280
     1
290
     1
  0
LAYOUT
  5
22
102
{ACAD_XDICTIONARY
360
185
102
}
102
{ACAD_REACTORS
330
1A
102
}
330
1A
100
AcDbPlotSettings
  1

  2
HP DesignJet 500PS42+HPGL2 Card
  4

  6

 40
0.0
 41
0.0
 42
0.0
 43
0.0
 44
0.0
 45
0.0
 46
0.0
 47
0.0
 48
0.0
 49
0.0
140
0.0
141
0.0
142
1.0
143
1.0
 70
   688
 72
     0
 73
     0
 74
     5
  7
C:\Documents and Settings\Julio\Application Data\Autodesk\AutoCAD 2006\R16.2\enu\Plot Styles\sanindusa.ctb
 75
    16
147
1.0
148
0.0
149
0.0
100
AcDbLayout
  1
Layout1
 70
     1
 71
     1
 10
0.0
 20
0.0
 11
420.0
 21
297.0
 12
0.0
 22
0.0
 32
0.0
 14
1.000000000000000E+20
 24
1.000000000000000E+20
 34
1.000000000000000E+20
 15
-1.000000000000000E+20
 25
-1.000000000000000E+20
 35
-1.000000000000000E+20
146
0.0
 13
0.0
 23
0.0
 33
0.0
 16
1.0
 26
0.0
 36
0.0
 17
0.0
 27
1.0
 37
0.0
 76
     0
330
1F
  0
LAYOUT
  5
2A
102
{ACAD_XDICTIONARY
360
189
102
}
102
{ACAD_REACTORS
330
1A
102
}
330
1A
100
AcDbPlotSettings
  1

  2
HP DesignJet 500PS42+HPGL2 Card
  4

  6

 40
0.0
 41
0.0
 42
0.0
 43
0.0
 44
0.0
 45
0.0
 46
0.0
 47
0.0
 48
0.0
 49
0.0
140
0.0
141
0.0
142
1.0
143
1.0
 70
   688
 72
     0
 73
     0
 74
     5
  7
C:\Documents and Settings\Julio\Application Data\Autodesk\AutoCAD 2006\R16.2\enu\Plot Styles\sanindusa.ctb
 75
    16
147
1.0
148
0.0
149
0.0
100
AcDbLayout
  1
Layout2
 70
     1
 71
     2
 10
0.0
 20
0.0
 11
12.0
 21
9.0
 12
0.0
 22
0.0
 32
0.0
 14
0.0
 24
0.0
 34
0.0
 15
0.0
 25
0.0
 35
0.0
146
0.0
 13
0.0
 23
0.0
 33
0.0
 16
1.0
 26
0.0
 36
0.0
 17
0.0
 27
1.0
 37
0.0
 76
     0
330
27
  0
LAYOUT
  5
26
102
{ACAD_XDICTIONARY
360
187
102
}
102
{ACAD_REACTORS
330
1A
102
}
330
1A
100
AcDbPlotSettings
  1

  2
HP DesignJet 500PS42+HPGL2 Card
  4

  6

 40
0.0
 41
0.0
 42
0.0
 43
0.0
 44
0.0
 45
0.0
 46
0.0
 47
0.0
 48
0.0
 49
0.0
140
0.0
141
0.0
142
1.0
143
1.0
 70
  1712
 72
     0
 73
     0
 74
     0
  7
C:\Documents and Settings\Julio\Application Data\Autodesk\AutoCAD 2006\R16.2\enu\Plot Styles\sanindusa.ctb
 75
     0
147
1.0
148
0.0
149
0.0
100
AcDbLayout
  1
Model
 70
     1
 71
     0
 10
0.0
 20
0.0
 11
12.0
 21
9.0
 12
0.0
 22
0.0
 32
0.0
 14
0.0
 24
0.0
 34
0.0
 15
0.0
 25
0.0
 35
0.0
146
0.0
 13
0.0
 23
0.0
 33
0.0
 16
1.0
 26
0.0
 36
0.0
 17
0.0
 27
1.0
 37
0.0
 76
     0
330
23
331
126
  0
MATERIAL
  5
13C
102
{ACAD_XDICTIONARY
360
13D
102
}
102
{ACAD_REACTORS
330
1B
102
}
330
1B
100
AcDbMaterial
  1
ByBlock
 72
     0
 43
0.0008202099737533
 43
0.0
 43
0.0
 43
0.0
 43
0.0
 43
0.0008202099737533
 43
0.0
 43
0.0
 43
0.0
 43
0.0
 43
1.0
 43
0.0
 43
0.0
 43
0.0
 43
0.0
 43
1.0
 77
     0
 47
0.0008202099737533
 47
0.0
 47
0.0
 47
0.0
 47
0.0
 47
0.0008202099737533
 47
0.0
 47
0.0
 47
0.0
 47
0.0
 47
1.0
 47
0.0
 47
0.0
 47
0.0
 47
0.0
 47
1.0
171
     0
 49
0.0008202099737533
 49
0.0
 49
0.0
 49
0.0
 49
0.0
 49
0.0008202099737533
 49
0.0
 49
0.0
 49
0.0
 49
0.0
 49
1.0
 49
0.0
 49
0.0
 49
0.0
 49
0.0
 49
1.0
175
     0
142
0.0008202099737533
142
0.0
142
0.0
142
0.0
142
0.0
142
0.0008202099737533
142
0.0
142
0.0
142
0.0
142
0.0
142
1.0
142
0.0
142
0.0
142
0.0
142
0.0
142
1.0
179
     0
144
0.0008202099737533
144
0.0
144
0.0
144
0.0
144
0.0
144
0.0008202099737533
144
0.0
144
0.0
144
0.0
144
0.0
144
1.0
144
0.0
144
0.0
144
0.0
144
0.0
144
1.0
147
0.0008202099737533
147
0.0
147
0.0
147
0.0
147
0.0
147
0.0008202099737533
147
0.0
147
0.0
147
0.0
147
0.0
147
1.0
147
0.0
147
0.0
147
0.0
147
0.0
147
1.0
  0
MATERIAL
  5
134
102
{ACAD_XDICTIONARY
360
135
102
}
102
{ACAD_REACTORS
330
1B
102
}
330
1B
100
AcDbMaterial
  1
ByLayer
 72
     0
 43
0.0008202099737533
 43
0.0
 43
0.0
 43
0.0
 43
0.0
 43
0.0008202099737533
 43
0.0
 43
0.0
 43
0.0
 43
0.0
 43
1.0
 43
0.0
 43
0.0
 43
0.0
 43
0.0
 43
1.0
 77
     0
 47
0.0008202099737533
 47
0.0
 47
0.0
 47
0.0
 47
0.0
 47
0.0008202099737533
 47
0.0
 47
0.0
 47
0.0
 47
0.0
 47
1.0
 47
0.0
 47
0.0
 47
0.0
 47
0.0
 47
1.0
171
     0
 49
0.0008202099737533
 49
0.0
 49
0.0
 49
0.0
 49
0.0
 49
0.0008202099737533
 49
0.0
 49
0.0
 49
0.0
 49
0.0
 49
1.0
 49
0.0
 49
0.0
 49
0.0
 49
0.0
 49
1.0
175
     0
142
0.0008202099737533
142
0.0
142
0.0
142
0.0
142
0.0
142
0.0008202099737533
142
0.0
142
0.0
142
0.0
142
0.0
142
1.0
142
0.0
142
0.0
142
0.0
142
0.0
142
1.0
179
     0
144
0.0008202099737533
144
0.0
144
0.0
144
0.0
144
0.0
144
0.0008202099737533
144
0.0
144
0.0
144
0.0
144
0.0
144
1.0
144
0.0
144
0.0
144
0.0
144
0.0
144
1.0
147
0.0008202099737533
147
0.0
147
0.0
147
0.0
147
0.0
147
0.0008202099737533
147
0.0
147
0.0
147
0.0
147
0.0
147
1.0
147
0.0
147
0.0
147
0.0
147
0.0
147
1.0
  0
MATERIAL
  5
144
102
{ACAD_XDICTIONARY
360
145
102
}
102
{ACAD_REACTORS
330
1B
102
}
330
1B
100
AcDbMaterial
  1
Global
 72
     0
 43
0.0008202099737533
 43
0.0
 43
0.0
 43
0.0
 43
0.0
 43
0.0008202099737533
 43
0.0
 43
0.0
 43
0.0
 43
0.0
 43
1.0
 43
0.0
 43
0.0
 43
0.0
 43
0.0
 43
1.0
 77
     0
 47
0.0008202099737533
 47
0.0
 47
0.0
 47
0.0
 47
0.0
 47
0.0008202099737533
 47
0.0
 47
0.0
 47
0.0
 47
0.0
 47
1.0
 47
0.0
 47
0.0
 47
0.0
 47
0.0
 47
1.0
171
     0
 49
0.0008202099737533
 49
0.0
 49
0.0
 49
0.0
 49
0.0
 49
0.0008202099737533
 49
0.0
 49
0.0
 49
0.0
 49
0.0
 49
1.0
 49
0.0
 49
0.0
 49
0.0
 49
0.0
 49
1.0
175
     0
142
0.0008202099737533
142
0.0
142
0.0
142
0.0
142
0.0
142
0.0008202099737533
142
0.0
142
0.0
142
0.0
142
0.0
142
1.0
142
0.0
142
0.0
142
0.0
142
0.0
142
1.0
179
     0
144
0.0008202099737533
144
0.0
144
0.0
144
0.0
144
0.0
144
0.0008202099737533
144
0.0
144
0.0
144
0.0
144
0.0
144
1.0
144
0.0
144
0.0
144
0.0
144
0.0
144
1.0
147
0.0008202099737533
147
0.0
147
0.0
147
0.0
147
0.0
147
0.0008202099737533
147
0.0
147
0.0
147
0.0
147
0.0
147
1.0
147
0.0
147
0.0
147
0.0
147
0.0
147
1.0
  0
MLEADERSTYLE
  5
173
102
{ACAD_REACTORS
330
172
102
}
330
172
100
AcDbMLeaderStyle
170
     2
171
     1
172
     0
 90
        2
 40
0.0
 41
0.0
173
     1
 91
-1056964608
340
14
 92
       -2
290
     1
 42
2.0
291
     1
 43
0.36
  3
Standard
 44
4.0
300

342
11
174
     1
178
     6
175
     1
176
     0
 93
-1056964608
 45
4.0
292
     0
297
     0
 46
4.0
 94
-1056964608
 47
1.0
 49
1.0
140
1.0
293
     1
141
0.0
294
     1
177
     0
142
1.0
295
     0
296
     0
143
0.125
1001
ACAD_MLEADERVER
1070
     2
  0
MLINESTYLE
  5
18
102
{ACAD_REACTORS
330
17
102
}
330
17
100
AcDbMlineStyle
  2
STANDARD
 70
     0
  3

 62
   256
 51
90.0
 52
90.0
 71
     2
 49
0.5
 62
   256
  6
BYLAYER
 49
-0.5
 62
   256
  6
BYLAYER
  0
ACDBPLACEHOLDER
  5
F
102
{ACAD_REACTORS
330
E
102
}
330
E
  0
SCALE
  5
161
102
{ACAD_REACTORS
330
160
102
}
330
160
100
AcDbScale
 70
     0
300
1:1
140
1.0
141
1.0
290
     1
  0
SCALE
  5
162
102
{ACAD_REACTORS
330
160
102
}
330
160
100
AcDbScale
 70
     0
300
1:2
140
1.0
141
2.0
290
     0
  0
SCALE
  5
163
102
{ACAD_REACTORS
330
160
102
}
330
160
100
AcDbScale
 70
     0
300
1:4
140
1.0
141
4.0
290
     0
  0
SCALE
  5
164
102
{ACAD_REACTORS
330
160
102
}
330
160
100
AcDbScale
 70
     0
300
1:5
140
1.0
141
5.0
290
     0
  0
SCALE
  5
165
102
{ACAD_REACTORS
330
160
102
}
330
160
100
AcDbScale
 70
     0
300
1:8
140
1.0
141
8.0
290
     0
  0
SCALE
  5
166
102
{ACAD_REACTORS
330
160
102
}
330
160
100
AcDbScale
 70
     0
300
1:10
140
1.0
141
10.0
290
     0
  0
SCALE
  5
167
102
{ACAD_REACTORS
330
160
102
}
330
160
100
AcDbScale
 70
     0
300
1:16
140
1.0
141
16.0
290
     0
  0
SCALE
  5
168
102
{ACAD_REACTORS
330
160
102
}
330
160
100
AcDbScale
 70
     0
300
1:20
140
1.0
141
20.0
290
     0
  0
SCALE
  5
169
102
{ACAD_REACTORS
330
160
102
}
330
160
100
AcDbScale
 70
     0
300
1:30
140
1.0
141
30.0
290
     0
  0
SCALE
  5
16A
102
{ACAD_REACTORS
330
160
102
}
330
160
100
AcDbScale
 70
     0
300
1:40
140
1.0
141
40.0
290
     0
  0
SCALE
  5
16B
102
{ACAD_REACTORS
330
160
102
}
330
160
100
AcDbScale
 70
     0
300
1:50
140
1.0
141
50.0
290
     0
  0
SCALE
  5
16C
102
{ACAD_REACTORS
330
160
102
}
330
160
100
AcDbScale
 70
     0
300
1:100
140
1.0
141
100.0
290
     0
  0
SCALE
  5
16D
102
{ACAD_REACTORS
330
160
102
}
330
160
100
AcDbScale
 70
     0
300
2:1
140
2.0
141
1.0
290
     0
  0
SCALE
  5
16E
102
{ACAD_REACTORS
330
160
102
}
330
160
100
AcDbScale
 70
     0
300
4:1
140
4.0
141
1.0
290
     0
  0
SCALE
  5
16F
102
{ACAD_REACTORS
330
160
102
}
330
160
100
AcDbScale
 70
     0
300
8:1
140
8.0
141
1.0
290
     0
  0
SCALE
  5
170
102
{ACAD_REACTORS
330
160
102
}
330
160
100
AcDbScale
 70
     0
300
10:1
140
10.0
141
1.0
290
     0
  0
SCALE
  5
171
102
{ACAD_REACTORS
330
160
102
}
330
160
100
AcDbScale
 70
     0
300
100:1
140
100.0
141
1.0
290
     0
  0
TABLESTYLE
  5
1E
102
{ACAD_XDICTIONARY
360
180
102
}
102
{ACAD_REACTORS
330
1D
102
}
330
1D
100
AcDbTableStyle
  3
Standard
 70
     0
 71
     0
 40
1.5
 41
1.5
280
     0
281
     0
  7
Standard
140
4.5
170
     2
 62
     0
 63
     7
283
     0
274
    -2
284
     1
 64
     0
275
    -2
285
     1
 65
     0
276
    -2
286
     1
 66
     0
277
    -2
287
     1
 67
     0
278
    -2
288
     1
 68
     0
279
    -2
289
     1
 69
     0
  7
Standard
140
6.0
170
     5
 62
     0
 63
     7
283
     0
274
    -2
284
     1
 64
     0
275
    -2
285
     1
 65
     0
276
    -2
286
     1
 66
     0
277
    -2
287
     1
 67
     0
278
    -2
288
     1
 68
     0
279
    -2
289
     1
 69
     0
  7
Standard
140
4.5
170
     5
 62
     0
 63
     7
283
     0
274
    -2
284
     1
 64
     0
275
    -2
285
     1
 65
     0
276
    -2
286
     1
 66
     0
277
    -2
287
     1
 67
     0
278
    -2
288
     1
 68
     0
279
    -2
289
     1
 69
     0
  0
VISUALSTYLE
  5
152
102
{ACAD_XDICTIONARY
360
198
102
}
102
{ACAD_REACTORS
330
14C
102
}
330
14C
100
AcDbVisualStyle
  2
2dWireframe
 70
     4
 71
     0
 72
     2
 73
     0
 90
        0
 40
-0.6
 41
-30.0
 62
     5
 63
     7
 74
     1
 91
        4
 64
     7
 65
   257
 75
     1
175
     1
 42
1.0
 92
        0
 66
   257
 43
1.0
 76
     1
 77
     6
 78
     2
 67
     7
 79
     5
170
     0
171
     0
290
     0
174
     0
 93
        1
 44
0.0
173
     0
291
     0
 45
0.0
1001
ACAD
1000
AcDbSavedByObjectVersion
1070
     0
  0
VISUALSTYLE
  5
154
102
{ACAD_XDICTIONARY
360
19C
102
}
102
{ACAD_REACTORS
330
14C
102
}
330
14C
100
AcDbVisualStyle
  2
3D Hidden
 70
     6
 71
     1
 72
     2
 73
     2
 90
        0
 40
-0.6
 41
-30.0
 62
     5
 63
     7
 74
     2
 91
        2
 64
     7
 65
   257
 75
     2
175
     1
 42
179.0
 92
        0
 66
   257
 43
1.0
 76
     1
 77
     6
 78
     2
 67
     7
 79
     3
170
     0
171
     0
290
     0
174
     0
 93
        1
 44
0.0
173
     0
291
     0
 45
0.0
1001
ACAD
1000
AcDbSavedByObjectVersion
1070
     0
  0
VISUALSTYLE
  5
153
102
{ACAD_XDICTIONARY
360
19A
102
}
102
{ACAD_REACTORS
330
14C
102
}
330
14C
100
AcDbVisualStyle
  2
3dWireframe
 70
     5
 71
     0
 72
     2
 73
     0
 90
        0
 40
-0.6
 41
-30.0
 62
     5
 63
     7
 74
     1
 91
        4
 64
     7
 65
   257
 75
     1
175
     1
 42
1.0
 92
        0
 66
   257
 43
1.0
 76
     1
 77
     6
 78
     2
 67
     7
 79
     5
170
     0
171
     0
290
     0
174
     0
 93
        1
 44
0.0
173
     0
291
     0
 45
0.0
1001
ACAD
1000
AcDbSavedByObjectVersion
1070
     0
  0
VISUALSTYLE
  5
151
102
{ACAD_XDICTIONARY
360
196
102
}
102
{ACAD_REACTORS
330
14C
102
}
330
14C
100
AcDbVisualStyle
  2
Basic
 70
     7
 71
     1
 72
     0
 73
     1
 90
        0
 40
-0.6
 41
-30.0
 62
     5
 63
     7
 74
     0
 91
        4
 64
     7
 65
   257
 75
     1
175
     1
 42
1.0
 92
        8
 66
     7
 43
1.0
 76
     1
 77
     6
 78
     2
 67
     7
 79
     5
170
     0
171
     0
290
     0
174
     0
 93
        1
 44
0.0
173
     0
291
     1
 45
0.0
1001
ACAD
1000
AcDbSavedByObjectVersion
1070
     0
  0
VISUALSTYLE
  5
158
102
{ACAD_XDICTIONARY
360
1A4
102
}
102
{ACAD_REACTORS
330
14C
102
}
330
14C
100
AcDbVisualStyle
  2
Brighten
 70
    12
 71
     2
 72
     2
 73
     0
 90
        0
 40
-0.6
 41
-30.0
 62
     5
 63
     7
 74
     1
 91
        4
 64
     7
 65
   257
 75
     1
175
     1
 42
1.0
 92
        8
 66
     7
 43
1.0
 76
     1
 77
     6
 78
     2
 67
     7
 79
     5
170
     0
171
     0
290
     0
174
     0
 93
        1
 44
50.0
173
     0
291
     1
 45
0.0
1001
ACAD
1000
AcDbSavedByObjectVersion
1070
     0
  0
VISUALSTYLE
  5
15C
102
{ACAD_XDICTIONARY
360
1AC
102
}
102
{ACAD_REACTORS
330
14C
102
}
330
14C
100
AcDbVisualStyle
  2
ColorChange
 70
    16
 71
     2
 72
     2
 73
     3
 90
        0
 40
-0.6
 41
-30.0
 62
     5
 63
     8
 74
     1
 91
        4
 64
     7
 65
   257
 75
     1
175
     1
 42
1.0
 92
        8
 66
     8
 43
1.0
 76
     1
 77
     6
 78
     2
 67
     7
 79
     5
170
     0
171
     0
290
     0
174
     0
 93
        1
 44
0.0
173
     0
291
     1
 45
0.0
1001
ACAD
1000
AcDbSavedByObjectVersion
1070
     0
  0
VISUALSTYLE
  5
155
102
{ACAD_XDICTIONARY
360
19E
102
}
102
{ACAD_REACTORS
330
14C
102
}
330
14C
100
AcDbVisualStyle
  2
Conceptual
 70
     9
 71
     3
 72
     2
 73
     0
 90
        0
 40
-0.6
 41
-30.0
 62
     5
 63
     7
 74
     2
 91
        2
 64
     7
 65
   257
 75
     1
175
     1
 42
179.0
 92
        8
 66
     7
 43
1.0
 76
     1
 77
     6
 78
     2
 67
     7
 79
     3
170
     0
171
     0
290
     0
174
     0
 93
        1
 44
0.0
173
     0
291
     0
 45
0.0
1001
ACAD
1000
AcDbSavedByObjectVersion
1070
     0
  0
VISUALSTYLE
  5
157
102
{ACAD_XDICTIONARY
360
1A2
102
}
102
{ACAD_REACTORS
330
14C
102
}
330
14C
100
AcDbVisualStyle
  2
Dim
 70
    11
 71
     2
 72
     2
 73
     0
 90
        0
 40
-0.6
 41
-30.0
 62
     5
 63
     7
 74
     1
 91
        4
 64
     7
 65
   257
 75
     1
175
     1
 42
1.0
 92
        8
 66
     7
 43
1.0
 76
     1
 77
     6
 78
     2
 67
     7
 79
     5
170
     0
171
     0
290
     0
174
     0
 93
        1
 44
-50.0
173
     0
291
     1
 45
0.0
1001
ACAD
1000
AcDbSavedByObjectVersion
1070
     0
  0
VISUALSTYLE
  5
15F
102
{ACAD_XDICTIONARY
360
1B2
102
}
102
{ACAD_REACTORS
330
14C
102
}
330
14C
100
AcDbVisualStyle
  2
EdgeColorOff
 70
    22
 71
     2
 72
     2
 73
     0
 90
        0
 40
-0.6
 41
-30.0
 62
     5
 63
     7
 74
     1
 91
        4
 64
     7
 65
   257
 75
     1
175
     1
 42
1.0
 92
        8
 66
     7
 43
1.0
 76
     1
 77
     6
 78
     2
 67
     7
 79
     5
170
     0
171
     0
290
     0
174
     0
 93
        1
 44
0.0
173
     0
291
     1
 45
0.0
1001
ACAD
1000
AcDbSavedByObjectVersion
1070
     0
  0
VISUALSTYLE
  5
15B
102
{ACAD_XDICTIONARY
360
1AA
102
}
102
{ACAD_REACTORS
330
14C
102
}
330
14C
100
AcDbVisualStyle
  2
Facepattern
 70
    15
 71
     2
 72
     2
 73
     0
 90
        0
 40
-0.6
 41
-30.0
 62
     5
 63
     7
 74
     1
 91
        4
 64
     7
 65
   257
 75
     1
175
     1
 42
1.0
 92
        8
 66
     7
 43
1.0
 76
     1
 77
     6
 78
     2
 67
     7
 79
     5
170
     0
171
     0
290
     0
174
     0
 93
        1
 44
0.0
173
     0
291
     1
 45
0.0
1001
ACAD
1000
AcDbSavedByObjectVersion
1070
     0
  0
VISUALSTYLE
  5
14D
102
{ACAD_XDICTIONARY
360
18E
102
}
102
{ACAD_REACTORS
330
14C
102
}
330
14C
100
AcDbVisualStyle
  2
Flat
 70
     0
 71
     2
 72
     1
 73
     1
 90
        2
 40
-0.6
 41
30.0
 62
     5
 63
     7
 74
     0
 91
        4
 64
     7
 65
   257
 75
     1
175
     1
 42
1.0
 92
        8
 66
     7
 43
1.0
 76
     1
 77
     6
 78
     2
 67
     7
 79
     5
170
     0
171
     0
290
     0
174
     0
 93
       13
 44
0.0
173
     0
291
     1
 45
0.0
1001
ACAD
1000
AcDbSavedByObjectVersion
1070
     0
  0
VISUALSTYLE
  5
14E
102
{ACAD_XDICTIONARY
360
190
102
}
102
{ACAD_REACTORS
330
14C
102
}
330
14C
100
AcDbVisualStyle
  2
FlatWithEdges
 70
     1
 71
     2
 72
     1
 73
     1
 90
        2
 40
-0.6
 41
30.0
 62
     5
 63
     7
 74
     1
 91
        4
 64
     7
 65
   257
 75
     1
175
     1
 42
1.0
 92
        0
 66
   257
 43
1.0
 76
     1
 77
     6
 78
     2
 67
     7
 79
     5
170
     0
171
     0
290
     0
174
     0
 93
       13
 44
0.0
173
     0
291
     1
 45
0.0
1001
ACAD
1000
AcDbSavedByObjectVersion
1070
     0
  0
VISUALSTYLE
  5
14F
102
{ACAD_XDICTIONARY
360
192
102
}
102
{ACAD_REACTORS
330
14C
102
}
330
14C
100
AcDbVisualStyle
  2
Gouraud
 70
     2
 71
     2
 72
     2
 73
     1
 90
        2
 40
-0.6
 41
30.0
 62
     5
 63
     7
 74
     0
 91
        4
 64
     7
 65
   257
 75
     1
175
     1
 42
1.0
 92
        0
 66
     7
 43
1.0
 76
     1
 77
     6
 78
     2
 67
     7
 79
     5
170
     0
171
     0
290
     0
174
     0
 93
       13
 44
0.0
173
     0
291
     1
 45
0.0
1001
ACAD
1000
AcDbSavedByObjectVersion
1070
     0
  0
VISUALSTYLE
  5
150
102
{ACAD_XDICTIONARY
360
194
102
}
102
{ACAD_REACTORS
330
14C
102
}
330
14C
100
AcDbVisualStyle
  2
GouraudWithEdges
 70
     3
 71
     2
 72
     2
 73
     1
 90
        2
 40
-0.6
 41
30.0
 62
     5
 63
     7
 74
     1
 91
        4
 64
     7
 65
   257
 75
     1
175
     1
 42
1.0
 92
        0
 66
   257
 43
1.0
 76
     1
 77
     6
 78
     2
 67
     7
 79
     5
170
     0
171
     0
290
     0
174
     0
 93
       13
 44
0.0
173
     0
291
     1
 45
0.0
1001
ACAD
1000
AcDbSavedByObjectVersion
1070
     0
  0
VISUALSTYLE
  5
15D
102
{ACAD_XDICTIONARY
360
1AE
102
}
102
{ACAD_REACTORS
330
14C
102
}
330
14C
100
AcDbVisualStyle
  2
JitterOff
 70
    20
 71
     2
 72
     2
 73
     0
 90
        0
 40
-0.6
 41
-30.0
 62
     5
 63
     7
 74
     1
 91
        4
 64
     7
 65
   257
 75
     1
175
     1
 42
1.0
 92
       10
 66
     7
 43
1.0
 76
     1
 77
     6
 78
     2
 67
     7
 79
     5
170
     0
171
     0
290
     0
174
     0
 93
        1
 44
0.0
173
     0
291
     1
 45
0.0
1001
ACAD
1000
AcDbSavedByObjectVersion
1070
     0
  0
VISUALSTYLE
  5
15A
102
{ACAD_XDICTIONARY
360
1A8
102
}
102
{ACAD_REACTORS
330
14C
102
}
330
14C
100
AcDbVisualStyle
  2
Linepattern
 70
    14
 71
     2
 72
     2
 73
     0
 90
        0
 40
-0.6
 41
-30.0
 62
     5
 63
     7
 74
     1
 91
        4
 64
     7
 65
   257
 75
     7
175
     7
 42
1.0
 92
        8
 66
     7
 43
1.0
 76
     1
 77
     6
 78
     2
 67
     7
 79
     5
170
     0
171
     0
290
     0
174
     0
 93
        1
 44
0.0
173
     0
291
     1
 45
0.0
1001
ACAD
1000
AcDbSavedByObjectVersion
1070
     0
  0
VISUALSTYLE
  5
15E
102
{ACAD_XDICTIONARY
360
1B0
102
}
102
{ACAD_REACTORS
330
14C
102
}
330
14C
100
AcDbVisualStyle
  2
OverhangOff
 70
    21
 71
     2
 72
     2
 73
     0
 90
        0
 40
-0.6
 41
-30.0
 62
     5
 63
     7
 74
     1
 91
        4
 64
     7
 65
   257
 75
     1
175
     1
 42
1.0
 92
        9
 66
     7
 43
1.0
 76
     1
 77
     6
 78
     2
 67
     7
 79
     5
170
     0
171
     0
290
     0
174
     0
 93
        1
 44
0.0
173
     0
291
     1
 45
0.0
1001
ACAD
1000
AcDbSavedByObjectVersion
1070
     0
  0
VISUALSTYLE
  5
156
102
{ACAD_XDICTIONARY
360
1A0
102
}
102
{ACAD_REACTORS
330
14C
102
}
330
14C
100
AcDbVisualStyle
  2
Realistic
 70
     8
 71
     2
 72
     2
 73
     0
 90
        0
 40
-0.6
 41
-30.0
 62
     5
 63
     7
 74
     1
 91
        0
 64
     7
 65
   257
 75
     1
175
     1
 42
1.0
 92
        8
 66
     8
 43
1.0
 76
     1
 77
     6
 78
     2
 67
     7
 79
     5
170
     0
171
     0
290
     0
174
     0
 93
       13
 44
0.0
173
     0
291
     0
 45
0.0
1001
ACAD
1000
AcDbSavedByObjectVersion
1070
     0
  0
VISUALSTYLE
  5
159
102
{ACAD_XDICTIONARY
360
1A6
102
}
102
{ACAD_REACTORS
330
14C
102
}
330
14C
100
AcDbVisualStyle
  2
Thicken
 70
    13
 71
     2
 72
     2
 73
     0
 90
        0
 40
-0.6
 41
-30.0
 62
     5
 63
     7
 74
     1
 91
        4
 64
     7
 65
   257
 75
     1
175
     1
 42
1.0
 92
       12
 66
     7
 43
1.0
 76
     1
 77
     6
 78
     2
 67
     7
 79
     5
170
     0
171
     0
290
     0
174
     0
 93
        1
 44
0.0
173
     0
291
     1
 45
0.0
1001
ACAD
1000
AcDbSavedByObjectVersion
1070
     0
  0
DICTIONARYVAR
  5
17C
102
{ACAD_REACTORS
330
12E
102
}
330
12E
100
DictionaryVariables
280
     0
  1
1:1
  0
DICTIONARYVAR
  5
17B
102
{ACAD_REACTORS
330
12E
102
}
330
12E
100
DictionaryVariables
280
     0
  1
STANDARD
  0
DICTIONARYVAR
  5
12F
102
{ACAD_REACTORS
330
12E
102
}
330
12E
100
DictionaryVariables
280
     0
  1
STANDARD
  0
DICTIONARYVAR
  5
131
102
{ACAD_REACTORS
330
12E
102
}
330
12E
100
DictionaryVariables
280
     0
  1
2
  0
DICTIONARYVAR
  5
130
102
{ACAD_REACTORS
330
12E
102
}
330
12E
100
DictionaryVariables
280
     0
  1
1
  0
DICTIONARYVAR
  5
17E
102
{ACAD_REACTORS
330
12E
102
}
330
12E
100
DictionaryVariables
280
     0
  1
0
  0
DICTIONARYVAR
  5
132
102
{ACAD_REACTORS
330
12E
102
}
330
12E
100
DictionaryVariables
280
     0
  1

  0
DICTIONARYVAR
  5
17D
102
{ACAD_REACTORS
330
12E
102
}
330
12E
100
DictionaryVariables
280
     0
  1
127
  0
DICTIONARYVAR
  5
17F
102
{ACAD_REACTORS
330
12E
102
}
330
12E
100
DictionaryVariables
280
     0
  1
2
  0
XRECORD
  5
5B
102
{ACAD_REACTORS
330
59
102
}
330
59
100
AcDbXrecord
280
     1
330
EC
330
FC
330
104
330
10B
  0
DICTIONARY
  5
185
330
22
100
AcDbDictionary
280
     1
281
     1
  3
ACAD_XREC_ROUNDTRIP
360
186
  0
DICTIONARY
  5
189
330
2A
100
AcDbDictionary
280
     1
281
     1
  3
ACAD_XREC_ROUNDTRIP
360
18A
  0
DICTIONARY
  5
187
330
26
100
AcDbDictionary
280
     1
281
     1
  3
ACAD_XREC_ROUNDTRIP
360
188
  0
DICTIONARY
  5
13D
330
13C
100
AcDbDictionary
280
     1
281
     1
  3
ACAD_XREC_ROUNDTRIP
360
18C
  3
BUMPTILE
360
13F
  3
DIFFUSETILE
360
13E
  3
OPACITYTILE
360
142
  3
REFLECTIONTILE
360
141
  3
REFRACTIONTILE
360
143
  3
SPECULARTILE
360
140
  0
DICTIONARY
  5
135
330
134
100
AcDbDictionary
280
     1
281
     1
  3
ACAD_XREC_ROUNDTRIP
360
18B
  3
BUMPTILE
360
137
  3
DIFFUSETILE
360
136
  3
OPACITYTILE
360
13A
  3
REFLECTIONTILE
360
139
  3
REFRACTIONTILE
360
13B
  3
SPECULARTILE
360
138
  0
DICTIONARY
  5
145
330
144
100
AcDbDictionary
280
     1
281
     1
  3
ACAD_XREC_ROUNDTRIP
360
18D
  3
BUMPTILE
360
147
  3
DIFFUSETILE
360
146
  3
OPACITYTILE
360
14A
  3
REFLECTIONTILE
360
149
  3
REFRACTIONTILE
360
14B
  3
SPECULARTILE
360
148
  0
DICTIONARY
  5
180
330
1E
100
AcDbDictionary
280
     1
281
     1
  3
ACAD_ROUNDTRIP_2008_TABLESTYLE_CELLSTYLEMAP
360
181
  3
ACAD_XREC_ROUNDTRIP
360
184
  0
DICTIONARY
  5
198
330
152
100
AcDbDictionary
280
     1
281
     1
  3
ACAD_XREC_ROUNDTRIP
360
199
  0
DICTIONARY
  5
19C
330
154
100
AcDbDictionary
280
     1
281
     1
  3
ACAD_XREC_ROUNDTRIP
360
19D
  0
DICTIONARY
  5
19A
330
153
100
AcDbDictionary
280
     1
281
     1
  3
ACAD_XREC_ROUNDTRIP
360
19B
  0
DICTIONARY
  5
196
330
151
100
AcDbDictionary
280
     1
281
     1
  3
ACAD_XREC_ROUNDTRIP
360
197
  0
DICTIONARY
  5
1A4
330
158
100
AcDbDictionary
280
     1
281
     1
  3
ACAD_XREC_ROUNDTRIP
360
1A5
  0
DICTIONARY
  5
1AC
330
15C
100
AcDbDictionary
280
     1
281
     1
  3
ACAD_XREC_ROUNDTRIP
360
1AD
  0
DICTIONARY
  5
19E
330
155
100
AcDbDictionary
280
     1
281
     1
  3
ACAD_XREC_ROUNDTRIP
360
19F
  0
DICTIONARY
  5
1A2
330
157
100
AcDbDictionary
280
     1
281
     1
  3
ACAD_XREC_ROUNDTRIP
360
1A3
  0
DICTIONARY
  5
1B2
330
15F
100
AcDbDictionary
280
     1
281
     1
  3
ACAD_XREC_ROUNDTRIP
360
1B3
  0
DICTIONARY
  5
1AA
330
15B
100
AcDbDictionary
280
     1
281
     1
  3
ACAD_XREC_ROUNDTRIP
360
1AB
  0
DICTIONARY
  5
18E
330
14D
100
AcDbDictionary
280
     1
281
     1
  3
ACAD_XREC_ROUNDTRIP
360
18F
  0
DICTIONARY
  5
190
330
14E
100
AcDbDictionary
280
     1
281
     1
  3
ACAD_XREC_ROUNDTRIP
360
191
  0
DICTIONARY
  5
192
330
14F
100
AcDbDictionary
280
     1
281
     1
  3
ACAD_XREC_ROUNDTRIP
360
193
  0
DICTIONARY
  5
194
330
150
100
AcDbDictionary
280
     1
281
     1
  3
ACAD_XREC_ROUNDTRIP
360
195
  0
DICTIONARY
  5
1AE
330
15D
100
AcDbDictionary
280
     1
281
     1
  3
ACAD_XREC_ROUNDTRIP
360
1AF
  0
DICTIONARY
  5
1A8
330
15A
100
AcDbDictionary
280
     1
281
     1
  3
ACAD_XREC_ROUNDTRIP
360
1A9
  0
DICTIONARY
  5
1B0
330
15E
100
AcDbDictionary
280
     1
281
     1
  3
ACAD_XREC_ROUNDTRIP
360
1B1
  0
DICTIONARY
  5
1A0
330
156
100
AcDbDictionary
280
     1
281
     1
  3
ACAD_XREC_ROUNDTRIP
360
1A1
  0
DICTIONARY
  5
1A6
330
159
100
AcDbDictionary
280
     1
281
     1
  3
ACAD_XREC_ROUNDTRIP
360
1A7
  0
XRECORD
  5
186
102
{ACAD_REACTORS
330
185
102
}
330
185
100
AcDbXrecord
280
     1
102
SHADEPLOT
 70
     0
102
SHADEPLOTRESLEVEL
 70
     2
102
SHADEPLOTCUSTOMDPI
 70
   300
  0
XRECORD
  5
18A
102
{ACAD_REACTORS
330
189
102
}
330
189
100
AcDbXrecord
280
     1
102
SHADEPLOT
 70
     0
102
SHADEPLOTRESLEVEL
 70
     2
102
SHADEPLOTCUSTOMDPI
 70
   300
  0
XRECORD
  5
188
102
{ACAD_REACTORS
330
187
102
}
330
187
100
AcDbXrecord
280
     1
102
SHADEPLOT
 70
     0
102
SHADEPLOTRESLEVEL
 70
     2
102
SHADEPLOTCUSTOMDPI
 70
   300
  0
XRECORD
  5
18C
102
{ACAD_REACTORS
330
13D
102
}
330
13D
100
AcDbXrecord
280
     1
102
MATERIAL
148
0.0
149
0.0
149
0.0
 93
        0
 94
      127
282
     0
 72
     0
 77
     0
171
     0
175
     0
179
     0
273
     0
  0
XRECORD
  5
13F
102
{ACAD_REACTORS
330
13D
102
}
330
13D
100
AcDbXrecord
280
     1
270
     1
271
     1
  0
XRECORD
  5
13E
102
{ACAD_REACTORS
330
13D
102
}
330
13D
100
AcDbXrecord
280
     1
270
     1
271
     1
  0
XRECORD
  5
142
102
{ACAD_REACTORS
330
13D
102
}
330
13D
100
AcDbXrecord
280
     1
270
     1
271
     1
  0
XRECORD
  5
141
102
{ACAD_REACTORS
330
13D
102
}
330
13D
100
AcDbXrecord
280
     1
270
     1
271
     1
  0
XRECORD
  5
143
102
{ACAD_REACTORS
330
13D
102
}
330
13D
100
AcDbXrecord
280
     1
270
     1
271
     1
  0
XRECORD
  5
140
102
{ACAD_REACTORS
330
13D
102
}
330
13D
100
AcDbXrecord
280
     1
270
     1
271
     1
  0
XRECORD
  5
18B
102
{ACAD_REACTORS
330
135
102
}
330
135
100
AcDbXrecord
280
     1
102
MATERIAL
148
0.0
149
0.0
149
0.0
 93
        0
 94
      127
282
     0
 72
     0
 77
     0
171
     0
175
     0
179
     0
273
     0
  0
XRECORD
  5
137
102
{ACAD_REACTORS
330
135
102
}
330
135
100
AcDbXrecord
280
     1
270
     1
271
     1
  0
XRECORD
  5
136
102
{ACAD_REACTORS
330
135
102
}
330
135
100
AcDbXrecord
280
     1
270
     1
271
     1
  0
XRECORD
  5
13A
102
{ACAD_REACTORS
330
135
102
}
330
135
100
AcDbXrecord
280
     1
270
     1
271
     1
  0
XRECORD
  5
139
102
{ACAD_REACTORS
330
135
102
}
330
135
100
AcDbXrecord
280
     1
270
     1
271
     1
  0
XRECORD
  5
13B
102
{ACAD_REACTORS
330
135
102
}
330
135
100
AcDbXrecord
280
     1
270
     1
271
     1
  0
XRECORD
  5
138
102
{ACAD_REACTORS
330
135
102
}
330
135
100
AcDbXrecord
280
     1
270
     1
271
     1
  0
XRECORD
  5
18D
102
{ACAD_REACTORS
330
145
102
}
330
145
100
AcDbXrecord
280
     1
102
MATERIAL
148
0.0
149
0.0
149
0.0
 93
        0
 94
      127
282
     0
 72
     0
 77
     0
171
     0
175
     0
179
     0
273
     0
  0
XRECORD
  5
147
102
{ACAD_REACTORS
330
145
102
}
330
145
100
AcDbXrecord
280
     1
270
     1
271
     1
  0
XRECORD
  5
146
102
{ACAD_REACTORS
330
145
102
}
330
145
100
AcDbXrecord
280
     1
270
     1
271
     1
  0
XRECORD
  5
14A
102
{ACAD_REACTORS
330
145
102
}
330
145
100
AcDbXrecord
280
     1
270
     1
271
     1
  0
XRECORD
  5
149
102
{ACAD_REACTORS
330
145
102
}
330
145
100
AcDbXrecord
280
     1
270
     1
271
     1
  0
XRECORD
  5
14B
102
{ACAD_REACTORS
330
145
102
}
330
145
100
AcDbXrecord
280
     1
270
     1
271
     1
  0
XRECORD
  5
148
102
{ACAD_REACTORS
330
145
102
}
330
145
100
AcDbXrecord
280
     1
270
     1
271
     1
  0
CELLSTYLEMAP
  5
181
102
{ACAD_REACTORS
330
180
102
}
330
180
100
AcDbCellStyleMap
 90
        3
300
CELLSTYLE
  1
TABLEFORMAT_BEGIN
 90
        5
170
     1
 91
        0
 92
    32768
 62
   257
 93
        1
300
CONTENTFORMAT
  1
CONTENTFORMAT_BEGIN
 90
        0
 91
        0
 92
        4
 93
        0
300

 40
0.0
140
1.0
 94
        5
 62
     0
340
11
144
6.0
309
CONTENTFORMAT_END
171
     1
301
MARGIN
  1
CELLMARGIN_BEGIN
 40
1.5
 40
1.5
 40
1.5
 40
1.5
 40
0.18
 40
0.18
309
CELLMARGIN_END
 94
        6
 95
        1
302
GRIDFORMAT
  1
GRIDFORMAT_BEGIN
 90
        0
 91
        1
 62
     0
 92
       -2
340
0
 93
        0
 40
0.045
309
GRIDFORMAT_END
 95
        2
302
GRIDFORMAT
  1
GRIDFORMAT_BEGIN
 90
        0
 91
        1
 62
     0
 92
       -2
340
0
 93
        0
 40
0.045
309
GRIDFORMAT_END
 95
        4
302
GRIDFORMAT
  1
GRIDFORMAT_BEGIN
 90
        0
 91
        1
 62
     0
 92
       -2
340
0
 93
        0
 40
0.045
309
GRIDFORMAT_END
 95
        8
302
GRIDFORMAT
  1
GRIDFORMAT_BEGIN
 90
        0
 91
        1
 62
     0
 92
       -2
340
0
 93
        0
 40
0.045
309
GRIDFORMAT_END
 95
       16
302
GRIDFORMAT
  1
GRIDFORMAT_BEGIN
 90
        0
 91
        1
 62
     0
 92
       -2
340
0
 93
        0
 40
0.045
309
GRIDFORMAT_END
 95
       32
302
GRIDFORMAT
  1
GRIDFORMAT_BEGIN
 90
        0
 91
        1
 62
     0
 92
       -2
340
0
 93
        0
 40
0.045
309
GRIDFORMAT_END
309
TABLEFORMAT_END
  1
CELLSTYLE_BEGIN
 90
        1
 91
        1
300
_TITLE
309
CELLSTYLE_END
300
CELLSTYLE
  1
TABLEFORMAT_BEGIN
 90
        5
170
     1
 91
        0
 92
        0
 62
   257
 93
        1
300
CONTENTFORMAT
  1
CONTENTFORMAT_BEGIN
 90
        0
 91
        0
 92
        4
 93
        0
300

 40
0.0
140
1.0
 94
        5
 62
     0
340
11
144
4.5
309
CONTENTFORMAT_END
171
     1
301
MARGIN
  1
CELLMARGIN_BEGIN
 40
1.5
 40
1.5
 40
1.5
 40
1.5
 40
0.18
 40
0.18
309
CELLMARGIN_END
 94
        6
 95
        1
302
GRIDFORMAT
  1
GRIDFORMAT_BEGIN
 90
        0
 91
        1
 62
     0
 92
       -2
340
0
 93
        0
 40
0.045
309
GRIDFORMAT_END
 95
        2
302
GRIDFORMAT
  1
GRIDFORMAT_BEGIN
 90
        0
 91
        1
 62
     0
 92
       -2
340
0
 93
        0
 40
0.045
309
GRIDFORMAT_END
 95
        4
302
GRIDFORMAT
  1
GRIDFORMAT_BEGIN
 90
        0
 91
        1
 62
     0
 92
       -2
340
0
 93
        0
 40
0.045
309
GRIDFORMAT_END
 95
        8
302
GRIDFORMAT
  1
GRIDFORMAT_BEGIN
 90
        0
 91
        1
 62
     0
 92
       -2
340
0
 93
        0
 40
0.045
309
GRIDFORMAT_END
 95
       16
302
GRIDFORMAT
  1
GRIDFORMAT_BEGIN
 90
        0
 91
        1
 62
     0
 92
       -2
340
0
 93
        0
 40
0.045
309
GRIDFORMAT_END
 95
       32
302
GRIDFORMAT
  1
GRIDFORMAT_BEGIN
 90
        0
 91
        1
 62
     0
 92
       -2
340
0
 93
        0
 40
0.045
309
GRIDFORMAT_END
309
TABLEFORMAT_END
  1
CELLSTYLE_BEGIN
 90
        2
 91
        1
300
_HEADER
309
CELLSTYLE_END
300
CELLSTYLE
  1
TABLEFORMAT_BEGIN
 90
        5
170
     1
 91
        0
 92
        0
 62
   257
 93
        1
300
CONTENTFORMAT
  1
CONTENTFORMAT_BEGIN
 90
        0
 91
        0
 92
        4
 93
        0
300

 40
0.0
140
1.0
 94
        2
 62
     0
340
11
144
4.5
309
CONTENTFORMAT_END
171
     1
301
MARGIN
  1
CELLMARGIN_BEGIN
 40
1.5
 40
1.5
 40
1.5
 40
1.5
 40
0.18
 40
0.18
309
CELLMARGIN_END
 94
        6
 95
        1
302
GRIDFORMAT
  1
GRIDFORMAT_BEGIN
 90
        0
 91
        1
 62
     0
 92
       -2
340
0
 93
        0
 40
0.045
309
GRIDFORMAT_END
 95
        2
302
GRIDFORMAT
  1
GRIDFORMAT_BEGIN
 90
        0
 91
        1
 62
     0
 92
       -2
340
0
 93
        0
 40
0.045
309
GRIDFORMAT_END
 95
        4
302
GRIDFORMAT
  1
GRIDFORMAT_BEGIN
 90
        0
 91
        1
 62
     0
 92
       -2
340
0
 93
        0
 40
0.045
309
GRIDFORMAT_END
 95
        8
302
GRIDFORMAT
  1
GRIDFORMAT_BEGIN
 90
        0
 91
        1
 62
     0
 92
       -2
340
0
 93
        0
 40
0.045
309
GRIDFORMAT_END
 95
       16
302
GRIDFORMAT
  1
GRIDFORMAT_BEGIN
 90
        0
 91
        1
 62
     0
 92
       -2
340
0
 93
        0
 40
0.045
309
GRIDFORMAT_END
 95
       32
302
GRIDFORMAT
  1
GRIDFORMAT_BEGIN
 90
        0
 91
        1
 62
     0
 92
       -2
340
0
 93
        0
 40
0.045
309
GRIDFORMAT_END
309
TABLEFORMAT_END
  1
CELLSTYLE_BEGIN
 90
        3
 91
        2
300
_DATA
309
CELLSTYLE_END
  0
XRECORD
  5
184
102
{ACAD_REACTORS
330
180
102
}
330
180
100
AcDbXrecord
280
     1
102
ACAD_ROUNDTRIP_PRE2007_TABLESTYLE
 90
        4
 91
        0
  1

 92
        4
 93
        0
  2

 94
        4
 95
        0
  3

  0
XRECORD
  5
199
102
{ACAD_REACTORS
330
198
102
}
330
198
100
AcDbXrecord
280
     1
102
RTVSPropertyOp0
 70
     1
102
RTVSPropertyOp1
 70
     1
102
RTVSPropertyOp2
 70
     1
102
RTVSPropertyOp3
 70
     1
102
RTVSPropertyOp4
 70
     1
102
RTVSPropertyOp5
 70
     1
102
RTVSPropertyOp6
 70
     1
102
RTVSPropertyOp7
 70
     1
102
RTVSPropertyOp8
 70
     1
102
RTVSPropertyOp9
 70
     1
102
RTVSPropertyOp10
 70
     1
102
RTVSPropertyOp11
 70
     1
102
RTVSPropertyOp12
 70
     1
102
RTVSPropertyOp13
 70
     1
102
RTVSPropertyOp14
 70
     1
102
RTVSPropertyOp15
 70
     1
102
RTVSPropertyOp16
 70
     1
102
RTVSPropertyOp17
 70
     1
102
RTVSPropertyOp18
 70
     1
102
RTVSPropertyOp19
 70
     1
102
RTVSPropertyOp20
 70
     1
102
RTVSPropertyOp21
 70
     1
102
RTVSPropertyOp22
 70
     1
102
RTVSPropertyOp23
 70
     1
102
RTVSPropertyOp24
 70
     1
102
RTVSPropertyOp25
 70
     1
102
RTVSPropertyOp26
 70
     1
102
RTVSPropertyOp27
 70
     1
  0
XRECORD
  5
19D
102
{ACAD_REACTORS
330
19C
102
}
330
19C
100
AcDbXrecord
280
     1
102
RTVSPropertyOp0
 70
     1
102
RTVSPropertyOp1
 70
     1
102
RTVSPropertyOp2
 70
     1
102
RTVSPropertyOp3
 70
     1
102
RTVSPropertyOp4
 70
     1
102
RTVSPropertyOp5
 70
     1
102
RTVSPropertyOp6
 70
     1
102
RTVSPropertyOp7
 70
     1
102
RTVSPropertyOp8
 70
     1
102
RTVSPropertyOp9
 70
     1
102
RTVSPropertyOp10
 70
     1
102
RTVSPropertyOp11
 70
     1
102
RTVSPropertyOp12
 70
     1
102
RTVSPropertyOp13
 70
     1
102
RTVSPropertyOp14
 70
     1
102
RTVSPropertyOp15
 70
     1
102
RTVSPropertyOp16
 70
     1
102
RTVSPropertyOp17
 70
     1
102
RTVSPropertyOp18
 70
     1
102
RTVSPropertyOp19
 70
     1
102
RTVSPropertyOp20
 70
     1
102
RTVSPropertyOp21
 70
     1
102
RTVSPropertyOp22
 70
     1
102
RTVSPropertyOp23
 70
     1
102
RTVSPropertyOp24
 70
     1
102
RTVSPropertyOp25
 70
     1
102
RTVSPropertyOp26
 70
     1
102
RTVSPropertyOp27
 70
     1
  0
XRECORD
  5
19B
102
{ACAD_REACTORS
330
19A
102
}
330
19A
100
AcDbXrecord
280
     1
102
RTVSPropertyOp0
 70
     1
102
RTVSPropertyOp1
 70
     1
102
RTVSPropertyOp2
 70
     1
102
RTVSPropertyOp3
 70
     1
102
RTVSPropertyOp4
 70
     1
102
RTVSPropertyOp5
 70
     1
102
RTVSPropertyOp6
 70
     1
102
RTVSPropertyOp7
 70
     1
102
RTVSPropertyOp8
 70
     1
102
RTVSPropertyOp9
 70
     1
102
RTVSPropertyOp10
 70
     1
102
RTVSPropertyOp11
 70
     1
102
RTVSPropertyOp12
 70
     1
102
RTVSPropertyOp13
 70
     1
102
RTVSPropertyOp14
 70
     1
102
RTVSPropertyOp15
 70
     1
102
RTVSPropertyOp16
 70
     1
102
RTVSPropertyOp17
 70
     1
102
RTVSPropertyOp18
 70
     1
102
RTVSPropertyOp19
 70
     1
102
RTVSPropertyOp20
 70
     1
102
RTVSPropertyOp21
 70
     1
102
RTVSPropertyOp22
 70
     1
102
RTVSPropertyOp23
 70
     1
102
RTVSPropertyOp24
 70
     1
102
RTVSPropertyOp25
 70
     1
102
RTVSPropertyOp26
 70
     1
102
RTVSPropertyOp27
 70
     1
  0
XRECORD
  5
197
102
{ACAD_REACTORS
330
196
102
}
330
196
100
AcDbXrecord
280
     1
102
RTVSPropertyOp0
 70
     1
102
RTVSPropertyOp1
 70
     1
102
RTVSPropertyOp2
 70
     1
102
RTVSPropertyOp3
 70
     1
102
RTVSPropertyOp4
 70
     1
102
RTVSPropertyOp5
 70
     1
102
RTVSPropertyOp6
 70
     1
102
RTVSPropertyOp7
 70
     1
102
RTVSPropertyOp8
 70
     1
102
RTVSPropertyOp9
 70
     1
102
RTVSPropertyOp10
 70
     1
102
RTVSPropertyOp11
 70
     1
102
RTVSPropertyOp12
 70
     1
102
RTVSPropertyOp13
 70
     1
102
RTVSPropertyOp14
 70
     1
102
RTVSPropertyOp15
 70
     1
102
RTVSPropertyOp16
 70
     1
102
RTVSPropertyOp17
 70
     1
102
RTVSPropertyOp18
 70
     1
102
RTVSPropertyOp19
 70
     1
102
RTVSPropertyOp20
 70
     1
102
RTVSPropertyOp21
 70
     1
102
RTVSPropertyOp22
 70
     1
102
RTVSPropertyOp23
 70
     1
102
RTVSPropertyOp24
 70
     1
102
RTVSPropertyOp25
 70
     1
102
RTVSPropertyOp26
 70
     1
102
RTVSPropertyOp27
 70
     1
  0
XRECORD
  5
1A5
102
{ACAD_REACTORS
330
1A4
102
}
330
1A4
100
AcDbXrecord
280
     1
102
RTVSPropertyOp0
 70
     1
102
RTVSPropertyOp1
 70
     1
102
RTVSPropertyOp2
 70
     1
102
RTVSPropertyOp3
 70
     1
102
RTVSPropertyOp4
 70
     1
102
RTVSPropertyOp5
 70
     1
102
RTVSPropertyOp6
 70
     1
102
RTVSPropertyOp7
 70
     1
102
RTVSPropertyOp8
 70
     1
102
RTVSPropertyOp9
 70
     1
102
RTVSPropertyOp10
 70
     1
102
RTVSPropertyOp11
 70
     1
102
RTVSPropertyOp12
 70
     1
102
RTVSPropertyOp13
 70
     1
102
RTVSPropertyOp14
 70
     1
102
RTVSPropertyOp15
 70
     1
102
RTVSPropertyOp16
 70
     1
102
RTVSPropertyOp17
 70
     1
102
RTVSPropertyOp18
 70
     1
102
RTVSPropertyOp19
 70
     1
102
RTVSPropertyOp20
 70
     1
102
RTVSPropertyOp21
 70
     1
102
RTVSPropertyOp22
 70
     1
102
RTVSPropertyOp23
 70
     1
102
RTVSPropertyOp24
 70
     1
102
RTVSPropertyOp25
 70
     1
102
RTVSPropertyOp26
 70
     1
102
RTVSPropertyOp27
 70
     1
  0
XRECORD
  5
1AD
102
{ACAD_REACTORS
330
1AC
102
}
330
1AC
100
AcDbXrecord
280
     1
102
RTVSPropertyOp0
 70
     1
102
RTVSPropertyOp1
 70
     1
102
RTVSPropertyOp2
 70
     1
102
RTVSPropertyOp3
 70
     1
102
RTVSPropertyOp4
 70
     1
102
RTVSPropertyOp5
 70
     1
102
RTVSPropertyOp6
 70
     1
102
RTVSPropertyOp7
 70
     1
102
RTVSPropertyOp8
 70
     1
102
RTVSPropertyOp9
 70
     1
102
RTVSPropertyOp10
 70
     1
102
RTVSPropertyOp11
 70
     1
102
RTVSPropertyOp12
 70
     1
102
RTVSPropertyOp13
 70
     1
102
RTVSPropertyOp14
 70
     1
102
RTVSPropertyOp15
 70
     1
102
RTVSPropertyOp16
 70
     1
102
RTVSPropertyOp17
 70
     1
102
RTVSPropertyOp18
 70
     1
102
RTVSPropertyOp19
 70
     1
102
RTVSPropertyOp20
 70
     1
102
RTVSPropertyOp21
 70
     1
102
RTVSPropertyOp22
 70
     1
102
RTVSPropertyOp23
 70
     1
102
RTVSPropertyOp24
 70
     1
102
RTVSPropertyOp25
 70
     1
102
RTVSPropertyOp26
 70
     1
102
RTVSPropertyOp27
 70
     1
  0
XRECORD
  5
19F
102
{ACAD_REACTORS
330
19E
102
}
330
19E
100
AcDbXrecord
280
     1
102
RTVSPropertyOp0
 70
     1
102
RTVSPropertyOp1
 70
     1
102
RTVSPropertyOp2
 70
     1
102
RTVSPropertyOp3
 70
     1
102
RTVSPropertyOp4
 70
     1
102
RTVSPropertyOp5
 70
     1
102
RTVSPropertyOp6
 70
     1
102
RTVSPropertyOp7
 70
     1
102
RTVSPropertyOp8
 70
     1
102
RTVSPropertyOp9
 70
     1
102
RTVSPropertyOp10
 70
     1
102
RTVSPropertyOp11
 70
     1
102
RTVSPropertyOp12
 70
     1
102
RTVSPropertyOp13
 70
     1
102
RTVSPropertyOp14
 70
     1
102
RTVSPropertyOp15
 70
     1
102
RTVSPropertyOp16
 70
     1
102
RTVSPropertyOp17
 70
     1
102
RTVSPropertyOp18
 70
     1
102
RTVSPropertyOp19
 70
     1
102
RTVSPropertyOp20
 70
     1
102
RTVSPropertyOp21
 70
     1
102
RTVSPropertyOp22
 70
     1
102
RTVSPropertyOp23
 70
     1
102
RTVSPropertyOp24
 70
     1
102
RTVSPropertyOp25
 70
     1
102
RTVSPropertyOp26
 70
     1
102
RTVSPropertyOp27
 70
     1
  0
XRECORD
  5
1A3
102
{ACAD_REACTORS
330
1A2
102
}
330
1A2
100
AcDbXrecord
280
     1
102
RTVSPropertyOp0
 70
     1
102
RTVSPropertyOp1
 70
     1
102
RTVSPropertyOp2
 70
     1
102
RTVSPropertyOp3
 70
     1
102
RTVSPropertyOp4
 70
     1
102
RTVSPropertyOp5
 70
     1
102
RTVSPropertyOp6
 70
     1
102
RTVSPropertyOp7
 70
     1
102
RTVSPropertyOp8
 70
     1
102
RTVSPropertyOp9
 70
     1
102
RTVSPropertyOp10
 70
     1
102
RTVSPropertyOp11
 70
     1
102
RTVSPropertyOp12
 70
     1
102
RTVSPropertyOp13
 70
     1
102
RTVSPropertyOp14
 70
     1
102
RTVSPropertyOp15
 70
     1
102
RTVSPropertyOp16
 70
     1
102
RTVSPropertyOp17
 70
     1
102
RTVSPropertyOp18
 70
     1
102
RTVSPropertyOp19
 70
     1
102
RTVSPropertyOp20
 70
     1
102
RTVSPropertyOp21
 70
     1
102
RTVSPropertyOp22
 70
     1
102
RTVSPropertyOp23
 70
     1
102
RTVSPropertyOp24
 70
     1
102
RTVSPropertyOp25
 70
     1
102
RTVSPropertyOp26
 70
     1
102
RTVSPropertyOp27
 70
     1
  0
XRECORD
  5
1B3
102
{ACAD_REACTORS
330
1B2
102
}
330
1B2
100
AcDbXrecord
280
     1
102
RTVSPropertyOp0
 70
     0
102
RTVSPropertyOp1
 70
     0
102
RTVSPropertyOp2
 70
     0
102
RTVSPropertyOp3
 70
     0
102
RTVSPropertyOp4
 70
     0
102
RTVSPropertyOp5
 70
     0
102
RTVSPropertyOp6
 70
     0
102
RTVSPropertyOp7
 70
     0
102
RTVSPropertyOp8
 70
     0
102
RTVSPropertyOp9
 70
     0
102
RTVSPropertyOp10
 70
     0
102
RTVSPropertyOp11
 70
     0
102
RTVSPropertyOp12
 70
     0
102
RTVSPropertyOp13
 70
     0
102
RTVSPropertyOp14
 70
     2
102
RTVSPropertyOp15
 70
     0
102
RTVSPropertyOp16
 70
     0
102
RTVSPropertyOp17
 70
     0
102
RTVSPropertyOp18
 70
     0
102
RTVSPropertyOp19
 70
     0
102
RTVSPropertyOp20
 70
     0
102
RTVSPropertyOp21
 70
     0
102
RTVSPropertyOp22
 70
     0
102
RTVSPropertyOp23
 70
     0
102
RTVSPropertyOp24
 70
     0
102
RTVSPropertyOp25
 70
     0
102
RTVSPropertyOp26
 70
     0
102
RTVSPropertyOp27
 70
     0
  0
XRECORD
  5
1AB
102
{ACAD_REACTORS
330
1AA
102
}
330
1AA
100
AcDbXrecord
280
     1
102
RTVSPropertyOp0
 70
     1
102
RTVSPropertyOp1
 70
     1
102
RTVSPropertyOp2
 70
     1
102
RTVSPropertyOp3
 70
     1
102
RTVSPropertyOp4
 70
     1
102
RTVSPropertyOp5
 70
     1
102
RTVSPropertyOp6
 70
     1
102
RTVSPropertyOp7
 70
     1
102
RTVSPropertyOp8
 70
     1
102
RTVSPropertyOp9
 70
     1
102
RTVSPropertyOp10
 70
     1
102
RTVSPropertyOp11
 70
     1
102
RTVSPropertyOp12
 70
     1
102
RTVSPropertyOp13
 70
     1
102
RTVSPropertyOp14
 70
     1
102
RTVSPropertyOp15
 70
     1
102
RTVSPropertyOp16
 70
     1
102
RTVSPropertyOp17
 70
     1
102
RTVSPropertyOp18
 70
     1
102
RTVSPropertyOp19
 70
     1
102
RTVSPropertyOp20
 70
     1
102
RTVSPropertyOp21
 70
     1
102
RTVSPropertyOp22
 70
     1
102
RTVSPropertyOp23
 70
     1
102
RTVSPropertyOp24
 70
     1
102
RTVSPropertyOp25
 70
     1
102
RTVSPropertyOp26
 70
     1
102
RTVSPropertyOp27
 70
     1
  0
XRECORD
  5
18F
102
{ACAD_REACTORS
330
18E
102
}
330
18E
100
AcDbXrecord
280
     1
102
RTVSPropertyOp0
 70
     1
102
RTVSPropertyOp1
 70
     1
102
RTVSPropertyOp2
 70
     1
102
RTVSPropertyOp3
 70
     1
102
RTVSPropertyOp4
 70
     1
102
RTVSPropertyOp5
 70
     1
102
RTVSPropertyOp6
 70
     1
102
RTVSPropertyOp7
 70
     1
102
RTVSPropertyOp8
 70
     1
102
RTVSPropertyOp9
 70
     1
102
RTVSPropertyOp10
 70
     1
102
RTVSPropertyOp11
 70
     1
102
RTVSPropertyOp12
 70
     1
102
RTVSPropertyOp13
 70
     1
102
RTVSPropertyOp14
 70
     1
102
RTVSPropertyOp15
 70
     1
102
RTVSPropertyOp16
 70
     1
102
RTVSPropertyOp17
 70
     1
102
RTVSPropertyOp18
 70
     1
102
RTVSPropertyOp19
 70
     1
102
RTVSPropertyOp20
 70
     1
102
RTVSPropertyOp21
 70
     1
102
RTVSPropertyOp22
 70
     1
102
RTVSPropertyOp23
 70
     1
102
RTVSPropertyOp24
 70
     1
102
RTVSPropertyOp25
 70
     1
102
RTVSPropertyOp26
 70
     1
102
RTVSPropertyOp27
 70
     1
  0
XRECORD
  5
191
102
{ACAD_REACTORS
330
190
102
}
330
190
100
AcDbXrecord
280
     1
102
RTVSPropertyOp0
 70
     1
102
RTVSPropertyOp1
 70
     1
102
RTVSPropertyOp2
 70
     1
102
RTVSPropertyOp3
 70
     1
102
RTVSPropertyOp4
 70
     1
102
RTVSPropertyOp5
 70
     1
102
RTVSPropertyOp6
 70
     1
102
RTVSPropertyOp7
 70
     1
102
RTVSPropertyOp8
 70
     1
102
RTVSPropertyOp9
 70
     1
102
RTVSPropertyOp10
 70
     1
102
RTVSPropertyOp11
 70
     1
102
RTVSPropertyOp12
 70
     1
102
RTVSPropertyOp13
 70
     1
102
RTVSPropertyOp14
 70
     1
102
RTVSPropertyOp15
 70
     1
102
RTVSPropertyOp16
 70
     1
102
RTVSPropertyOp17
 70
     1
102
RTVSPropertyOp18
 70
     1
102
RTVSPropertyOp19
 70
     1
102
RTVSPropertyOp20
 70
     1
102
RTVSPropertyOp21
 70
     1
102
RTVSPropertyOp22
 70
     1
102
RTVSPropertyOp23
 70
     1
102
RTVSPropertyOp24
 70
     1
102
RTVSPropertyOp25
 70
     1
102
RTVSPropertyOp26
 70
     1
102
RTVSPropertyOp27
 70
     1
  0
XRECORD
  5
193
102
{ACAD_REACTORS
330
192
102
}
330
192
100
AcDbXrecord
280
     1
102
RTVSPropertyOp0
 70
     1
102
RTVSPropertyOp1
 70
     1
102
RTVSPropertyOp2
 70
     1
102
RTVSPropertyOp3
 70
     1
102
RTVSPropertyOp4
 70
     1
102
RTVSPropertyOp5
 70
     1
102
RTVSPropertyOp6
 70
     1
102
RTVSPropertyOp7
 70
     1
102
RTVSPropertyOp8
 70
     1
102
RTVSPropertyOp9
 70
     1
102
RTVSPropertyOp10
 70
     1
102
RTVSPropertyOp11
 70
     1
102
RTVSPropertyOp12
 70
     1
102
RTVSPropertyOp13
 70
     1
102
RTVSPropertyOp14
 70
     1
102
RTVSPropertyOp15
 70
     1
102
RTVSPropertyOp16
 70
     1
102
RTVSPropertyOp17
 70
     1
102
RTVSPropertyOp18
 70
     1
102
RTVSPropertyOp19
 70
     1
102
RTVSPropertyOp20
 70
     1
102
RTVSPropertyOp21
 70
     1
102
RTVSPropertyOp22
 70
     1
102
RTVSPropertyOp23
 70
     1
102
RTVSPropertyOp24
 70
     1
102
RTVSPropertyOp25
 70
     1
102
RTVSPropertyOp26
 70
     1
102
RTVSPropertyOp27
 70
     1
  0
XRECORD
  5
195
102
{ACAD_REACTORS
330
194
102
}
330
194
100
AcDbXrecord
280
     1
102
RTVSPropertyOp0
 70
     1
102
RTVSPropertyOp1
 70
     1
102
RTVSPropertyOp2
 70
     1
102
RTVSPropertyOp3
 70
     1
102
RTVSPropertyOp4
 70
     1
102
RTVSPropertyOp5
 70
     1
102
RTVSPropertyOp6
 70
     1
102
RTVSPropertyOp7
 70
     1
102
RTVSPropertyOp8
 70
     1
102
RTVSPropertyOp9
 70
     1
102
RTVSPropertyOp10
 70
     1
102
RTVSPropertyOp11
 70
     1
102
RTVSPropertyOp12
 70
     1
102
RTVSPropertyOp13
 70
     1
102
RTVSPropertyOp14
 70
     1
102
RTVSPropertyOp15
 70
     1
102
RTVSPropertyOp16
 70
     1
102
RTVSPropertyOp17
 70
     1
102
RTVSPropertyOp18
 70
     1
102
RTVSPropertyOp19
 70
     1
102
RTVSPropertyOp20
 70
     1
102
RTVSPropertyOp21
 70
     1
102
RTVSPropertyOp22
 70
     1
102
RTVSPropertyOp23
 70
     1
102
RTVSPropertyOp24
 70
     1
102
RTVSPropertyOp25
 70
     1
102
RTVSPropertyOp26
 70
     1
102
RTVSPropertyOp27
 70
     1
  0
XRECORD
  5
1AF
102
{ACAD_REACTORS
330
1AE
102
}
330
1AE
100
AcDbXrecord
280
     1
102
RTVSPropertyOp0
 70
     0
102
RTVSPropertyOp1
 70
     0
102
RTVSPropertyOp2
 70
     0
102
RTVSPropertyOp3
 70
     0
102
RTVSPropertyOp4
 70
     0
102
RTVSPropertyOp5
 70
     0
102
RTVSPropertyOp6
 70
     0
102
RTVSPropertyOp7
 70
     0
102
RTVSPropertyOp8
 70
     0
102
RTVSPropertyOp9
 70
     0
102
RTVSPropertyOp10
 70
     0
102
RTVSPropertyOp11
 70
     0
102
RTVSPropertyOp12
 70
     0
102
RTVSPropertyOp13
 70
     0
102
RTVSPropertyOp14
 70
     2
102
RTVSPropertyOp15
 70
     0
102
RTVSPropertyOp16
 70
     0
102
RTVSPropertyOp17
 70
     0
102
RTVSPropertyOp18
 70
     0
102
RTVSPropertyOp19
 70
     0
102
RTVSPropertyOp20
 70
     0
102
RTVSPropertyOp21
 70
     0
102
RTVSPropertyOp22
 70
     0
102
RTVSPropertyOp23
 70
     0
102
RTVSPropertyOp24
 70
     0
102
RTVSPropertyOp25
 70
     0
102
RTVSPropertyOp26
 70
     0
102
RTVSPropertyOp27
 70
     0
  0
XRECORD
  5
1A9
102
{ACAD_REACTORS
330
1A8
102
}
330
1A8
100
AcDbXrecord
280
     1
102
RTVSPropertyOp0
 70
     1
102
RTVSPropertyOp1
 70
     1
102
RTVSPropertyOp2
 70
     1
102
RTVSPropertyOp3
 70
     1
102
RTVSPropertyOp4
 70
     1
102
RTVSPropertyOp5
 70
     1
102
RTVSPropertyOp6
 70
     1
102
RTVSPropertyOp7
 70
     1
102
RTVSPropertyOp8
 70
     1
102
RTVSPropertyOp9
 70
     1
102
RTVSPropertyOp10
 70
     1
102
RTVSPropertyOp11
 70
     1
102
RTVSPropertyOp12
 70
     1
102
RTVSPropertyOp13
 70
     1
102
RTVSPropertyOp14
 70
     1
102
RTVSPropertyOp15
 70
     1
102
RTVSPropertyOp16
 70
     1
102
RTVSPropertyOp17
 70
     1
102
RTVSPropertyOp18
 70
     1
102
RTVSPropertyOp19
 70
     1
102
RTVSPropertyOp20
 70
     1
102
RTVSPropertyOp21
 70
     1
102
RTVSPropertyOp22
 70
     1
102
RTVSPropertyOp23
 70
     1
102
RTVSPropertyOp24
 70
     1
102
RTVSPropertyOp25
 70
     1
102
RTVSPropertyOp26
 70
     1
102
RTVSPropertyOp27
 70
     1
  0
XRECORD
  5
1B1
102
{ACAD_REACTORS
330
1B0
102
}
330
1B0
100
AcDbXrecord
280
     1
102
RTVSPropertyOp0
 70
     0
102
RTVSPropertyOp1
 70
     0
102
RTVSPropertyOp2
 70
     0
102
RTVSPropertyOp3
 70
     0
102
RTVSPropertyOp4
 70
     0
102
RTVSPropertyOp5
 70
     0
102
RTVSPropertyOp6
 70
     0
102
RTVSPropertyOp7
 70
     0
102
RTVSPropertyOp8
 70
     0
102
RTVSPropertyOp9
 70
     0
102
RTVSPropertyOp10
 70
     0
102
RTVSPropertyOp11
 70
     0
102
RTVSPropertyOp12
 70
     0
102
RTVSPropertyOp13
 70
     0
102
RTVSPropertyOp14
 70
     2
102
RTVSPropertyOp15
 70
     0
102
RTVSPropertyOp16
 70
     0
102
RTVSPropertyOp17
 70
     0
102
RTVSPropertyOp18
 70
     0
102
RTVSPropertyOp19
 70
     0
102
RTVSPropertyOp20
 70
     0
102
RTVSPropertyOp21
 70
     0
102
RTVSPropertyOp22
 70
     0
102
RTVSPropertyOp23
 70
     0
102
RTVSPropertyOp24
 70
     0
102
RTVSPropertyOp25
 70
     0
102
RTVSPropertyOp26
 70
     0
102
RTVSPropertyOp27
 70
     0
  0
XRECORD
  5
1A1
102
{ACAD_REACTORS
330
1A0
102
}
330
1A0
100
AcDbXrecord
280
     1
102
RTVSPropertyOp0
 70
     1
102
RTVSPropertyOp1
 70
     1
102
RTVSPropertyOp2
 70
     1
102
RTVSPropertyOp3
 70
     1
102
RTVSPropertyOp4
 70
     1
102
RTVSPropertyOp5
 70
     1
102
RTVSPropertyOp6
 70
     1
102
RTVSPropertyOp7
 70
     1
102
RTVSPropertyOp8
 70
     1
102
RTVSPropertyOp9
 70
     1
102
RTVSPropertyOp10
 70
     1
102
RTVSPropertyOp11
 70
     1
102
RTVSPropertyOp12
 70
     1
102
RTVSPropertyOp13
 70
     1
102
RTVSPropertyOp14
 70
     1
102
RTVSPropertyOp15
 70
     1
102
RTVSPropertyOp16
 70
     1
102
RTVSPropertyOp17
 70
     1
102
RTVSPropertyOp18
 70
     1
102
RTVSPropertyOp19
 70
     1
102
RTVSPropertyOp20
 70
     1
102
RTVSPropertyOp21
 70
     1
102
RTVSPropertyOp22
 70
     1
102
RTVSPropertyOp23
 70
     1
102
RTVSPropertyOp24
 70
     1
102
RTVSPropertyOp25
 70
     1
102
RTVSPropertyOp26
 70
     1
102
RTVSPropertyOp27
 70
     1
  0
XRECORD
  5
1A7
102
{ACAD_REACTORS
330
1A6
102
}
330
1A6
100
AcDbXrecord
280
     1
102
RTVSPropertyOp0
 70
     1
102
RTVSPropertyOp1
 70
     1
102
RTVSPropertyOp2
 70
     1
102
RTVSPropertyOp3
 70
     1
102
RTVSPropertyOp4
 70
     1
102
RTVSPropertyOp5
 70
     1
102
RTVSPropertyOp6
 70
     1
102
RTVSPropertyOp7
 70
     1
102
RTVSPropertyOp8
 70
     1
102
RTVSPropertyOp9
 70
     1
102
RTVSPropertyOp10
 70
     1
102
RTVSPropertyOp11
 70
     1
102
RTVSPropertyOp12
 70
     1
102
RTVSPropertyOp13
 70
     1
102
RTVSPropertyOp14
 70
     1
102
RTVSPropertyOp15
 70
     1
102
RTVSPropertyOp16
 70
     1
102
RTVSPropertyOp17
 70
     1
102
RTVSPropertyOp18
 70
     1
102
RTVSPropertyOp19
 70
     1
102
RTVSPropertyOp20
 70
     1
102
RTVSPropertyOp21
 70
     1
102
RTVSPropertyOp22
 70
     1
102
RTVSPropertyOp23
 70
     1
102
RTVSPropertyOp24
 70
     1
102
RTVSPropertyOp25
 70
     1
102
RTVSPropertyOp26
 70
     1
102
RTVSPropertyOp27
 70
     1
  0
ENDSEC
  0
EOF
