  0
SECTION
  2
HEADER
  9
$ACADVER
  1
AC1015
  9
$ACADMAINTVER
 70
    20
  9
$DWGCODEPAGE
  3
ANSI_1252
  9
$INSBASE
 10
0.0
 20
0.0
 30
0.0
  9
$EXTMIN
 10
8665.392626177469
 20
1090.573934976544
 30
0.0
  9
$EXTMAX
 10
8667.93070552312
 20
1092.075006305044
 30
0.0
  9
$LIMMIN
 10
0.0
 20
0.0
  9
$LIMMAX
 10
420.0
 20
297.0
  9
$ORTHOMODE
 70
     0
  9
$REGENMODE
 70
     1
  9
$FILLMODE
 70
     1
  9
$QTEXTMODE
 70
     0
  9
$MIRRTEXT
 70
     1
  9
$LTSCALE
 40
0.2
  9
$ATTMODE
 70
     1
  9
$TEXTSIZE
 40
2.5
  9
$TRACEWID
 40
1.0
  9
$TEXTSTYLE
  7
SANINDUSA
  9
$CLAYER
  8
0
  9
$CELTYPE
  6
ByLayer
  9
$CECOLOR
 62
   256
  9
$CELTSCALE
 40
1.0
  9
$DISPSILH
 70
     0
  9
$DIMSCALE
 40
12.0
  9
$DIMASZ
 40
2.0
  9
$DIMEXO
 40
1.0
  9
$DIMDLI
 40
1.0
  9
$DIMRND
 40
0.0
  9
$DIMDLE
 40
0.0
  9
$DIMEXE
 40
1.0
  9
$DIMTP
 40
0.0
  9
$DIMTM
 40
0.0
  9
$DIMTXT
 40
2.0
  9
$DIMCEN
 40
0.0
  9
$DIMTSZ
 40
0.0
  9
$DIMTOL
 70
     0
  9
$DIMLIM
 70
     0
  9
$DIMTIH
 70
     0
  9
$DIMTOH
 70
     0
  9
$DIMSE1
 70
     0
  9
$DIMSE2
 70
     0
  9
$DIMTAD
 70
     1
  9
$DIMZIN
 70
     8
  9
$DIMBLK
  1

  9
$DIMASO
 70
     1
  9
$DIMSHO
 70
     1
  9
$DIMPOST
  1

  9
$DIMAPOST
  1

  9
$DIMALT
 70
     0
  9
$DIMALTD
 70
     3
  9
$DIMALTF
 40
0.03937007874016
  9
$DIMLFAC
 40
1.0
  9
$DIMTOFL
 70
     1
  9
$DIMTVP
 40
0.0
  9
$DIMTIX
 70
     0
  9
$DIMSOXD
 70
     0
  9
$DIMSAH
 70
     0
  9
$DIMBLK1
  1

  9
$DIMBLK2
  1

  9
$DIMSTYLE
  2
SANINDUSA
  9
$DIMCLRD
 70
   256
  9
$DIMCLRE
 70
   256
  9
$DIMCLRT
 70
   256
  9
$DIMTFAC
 40
1.0
  9
$DIMGAP
 40
1.0
  9
$DIMJUST
 70
     0
  9
$DIMSD1
 70
     0
  9
$DIMSD2
 70
     0
  9
$DIMTOLJ
 70
     0
  9
$DIMTZIN
 70
     8
  9
$DIMALTZ
 70
     0
  9
$DIMALTTZ
 70
     0
  9
$DIMUPT
 70
     0
  9
$DIMDEC
 70
     0
  9
$DIMTDEC
 70
     0
  9
$DIMALTU
 70
     2
  9
$DIMALTTD
 70
     3
  9
$DIMTXSTY
  7
SANINDUSA
  9
$DIMAUNIT
 70
     0
  9
$DIMADEC
 70
     1
  9
$DIMALTRND
 40
0.0
  9
$DIMAZIN
 70
     0
  9
$DIMDSEP
 70
    44
  9
$DIMATFIT
 70
     3
  9
$DIMFRAC
 70
     0
  9
$DIMLDRBLK
  1

  9
$DIMLUNIT
 70
     2
  9
$DIMLWD
 70
    -1
  9
$DIMLWE
 70
    -1
  9
$DIMTMOVE
 70
     0
  9
$LUNITS
 70
     2
  9
$LUPREC
 70
     4
  9
$SKETCHINC
 40
1.0
  9
$FILLETRAD
 40
0.0
  9
$AUNITS
 70
     0
  9
$AUPREC
 70
     0
  9
$MENU
  1
.
  9
$ELEVATION
 40
0.0
  9
$PELEVATION
 40
0.0
  9
$THICKNESS
 40
0.0
  9
$LIMCHECK
 70
     0
  9
$CHAMFERA
 40
10.0
  9
$CHAMFERB
 40
10.0
  9
$CHAMFERC
 40
20.0
  9
$CHAMFERD
 40
0.0
  9
$SKPOLY
 70
     0
  9
$TDCREATE
 40
2453388.706751840
  9
$TDUCREATE
 40
2453388.665085174
  9
$TDUPDATE
 40
2455817.478623403
  9
$TDUUPDATE
 40
2455817.436956737
  9
$TDINDWG
 40
0.1135423727
  9
$TDUSRTIMER
 40
0.1135423727
  9
$USRTIMER
 70
     1
  9
$ANGBASE
 50
0.0
  9
$ANGDIR
 70
     0
  9
$PDMODE
 70
     0
  9
$PDSIZE
 40
0.0
  9
$PLINEWID
 40
0.0
  9
$SPLFRAME
 70
     0
  9
$SPLINETYPE
 70
     6
  9
$SPLINESEGS
 70
     8
  9
$HANDSEED
  5
35FE
  9
$SURFTAB1
 70
     6
  9
$SURFTAB2
 70
     6
  9
$SURFTYPE
 70
     6
  9
$SURFU
 70
     6
  9
$SURFV
 70
     6
  9
$UCSBASE
  2

  9
$UCSNAME
  2

  9
$UCSORG
 10
0.0
 20
0.0
 30
0.0
  9
$UCSXDIR
 10
1.0
 20
0.0
 30
0.0
  9
$UCSYDIR
 10
0.0
 20
1.0
 30
0.0
  9
$UCSORTHOREF
  2

  9
$UCSORTHOVIEW
 70
     0
  9
$UCSORGTOP
 10
0.0
 20
0.0
 30
0.0
  9
$UCSORGBOTTOM
 10
0.0
 20
0.0
 30
0.0
  9
$UCSORGLEFT
 10
0.0
 20
0.0
 30
0.0
  9
$UCSORGRIGHT
 10
0.0
 20
0.0
 30
0.0
  9
$UCSORGFRONT
 10
0.0
 20
0.0
 30
0.0
  9
$UCSORGBACK
 10
0.0
 20
0.0
 30
0.0
  9
$PUCSBASE
  2

  9
$PUCSNAME
  2

  9
$PUCSORG
 10
0.0
 20
0.0
 30
0.0
  9
$PUCSXDIR
 10
1.0
 20
0.0
 30
0.0
  9
$PUCSYDIR
 10
0.0
 20
1.0
 30
0.0
  9
$PUCSORTHOREF
  2

  9
$PUCSORTHOVIEW
 70
     0
  9
$PUCSORGTOP
 10
0.0
 20
0.0
 30
0.0
  9
$PUCSORGBOTTOM
 10
0.0
 20
0.0
 30
0.0
  9
$PUCSORGLEFT
 10
0.0
 20
0.0
 30
0.0
  9
$PUCSORGRIGHT
 10
0.0
 20
0.0
 30
0.0
  9
$PUCSORGFRONT
 10
0.0
 20
0.0
 30
0.0
  9
$PUCSORGBACK
 10
0.0
 20
0.0
 30
0.0
  9
$USERI1
 70
     0
  9
$USERI2
 70
     0
  9
$USERI3
 70
     0
  9
$USERI4
 70
     0
  9
$USERI5
 70
     0
  9
$USERR1
 40
0.0
  9
$USERR2
 40
0.0
  9
$USERR3
 40
0.0
  9
$USERR4
 40
0.0
  9
$USERR5
 40
0.0
  9
$WORLDVIEW
 70
     1
  9
$SHADEDGE
 70
     3
  9
$SHADEDIF
 70
    70
  9
$TILEMODE
 70
     1
  9
$MAXACTVP
 70
    64
  9
$PINSBASE
 10
0.0
 20
0.0
 30
0.0
  9
$PLIMCHECK
 70
     0
  9
$PEXTMIN
 10
1.000000000000000E+20
 20
1.000000000000000E+20
 30
1.000000000000000E+20
  9
$PEXTMAX
 10
-1.000000000000000E+20
 20
-1.000000000000000E+20
 30
-1.000000000000000E+20
  9
$PLIMMIN
 10
0.0
 20
0.0
  9
$PLIMMAX
 10
420.0
 20
297.0
  9
$UNITMODE
 70
     0
  9
$VISRETAIN
 70
     1
  9
$PLINEGEN
 70
     0
  9
$PSLTSCALE
 70
     1
  9
$TREEDEPTH
 70
  3020
  9
$CMLSTYLE
  2
Standard
  9
$CMLJUST
 70
     0
  9
$CMLSCALE
 40
20.0
  9
$PROXYGRAPHICS
 70
     1
  9
$MEASUREMENT
 70
     1
  9
$CELWEIGHT
370
    -1
  9
$ENDCAPS
280
     0
  9
$JOINSTYLE
280
     0
  9
$LWDISPLAY
290
     0
  9
$INSUNITS
 70
     4
  9
$HYPERLINKBASE
  1

  9
$STYLESHEET
  1
monochrome.ctb
  9
$XEDIT
290
     1
  9
$CEPSNTYPE
380
     0
  9
$PSTYLEMODE
290
     1
  9
$FINGERPRINTGUID
  2
{B98A73AA-52AA-4C10-B469-C0E7150AC31F}
  9
$VERSIONGUID
  2
{F60B2A35-0A10-4FAC-BCD3-6C3029D9F177}
  9
$EXTNAMES
290
     1
  9
$PSVPSCALE
 40
0.0
  9
$OLESTARTUP
290
     0
  0
ENDSEC
  0
SECTION
  2
CLASSES
  0
CLASS
  1
ACDBDICTIONARYWDFLT
  2
AcDbDictionaryWithDefault
  3
ObjectDBX Classes
 90
        0
280
     0
281
     0
  0
CLASS
  1
ACDBPLACEHOLDER
  2
AcDbPlaceHolder
  3
ObjectDBX Classes
 90
        0
280
     0
281
     0
  0
CLASS
  1
LAYOUT
  2
AcDbLayout
  3
ObjectDBX Classes
 90
        0
280
     0
281
     0
  0
CLASS
  1
DICTIONARYVAR
  2
AcDbDictionaryVar
  3
ObjectDBX Classes
 90
        0
280
     0
281
     0
  0
CLASS
  1
DIMASSOC
  2
AcDbDimAssoc
  3
"AcDbDimAssoc|Product Desc:     AcDim ARX App For Dimension|Company:          Autodesk, Inc.|WEB Address:      www.autodesk.com"
 90
    32768
280
     0
281
     0
  0
CLASS
  1
TABLESTYLE
  2
AcDbTableStyle
  3
ObjectDBX Classes
 90
     4095
280
     0
281
     0
  0
CLASS
  1
SORTENTSTABLE
  2
AcDbSortentsTable
  3
ObjectDBX Classes
 90
        0
280
     0
281
     0
  0
CLASS
  1
MATERIAL
  2
AcDbMaterial
  3
ObjectDBX Classes
 90
     1153
280
     0
281
     0
  0
CLASS
  1
VISUALSTYLE
  2
AcDbVisualStyle
  3
ObjectDBX Classes
 90
     4095
280
     0
281
     0
  0
CLASS
  1
SCALE
  2
AcDbScale
  3
ObjectDBX Classes
 90
     1153
280
     0
281
     0
  0
CLASS
  1
MLEADERSTYLE
  2
AcDbMLeaderStyle
  3
ACDB_MLEADERSTYLE_CLASS
 90
     4095
280
     0
281
     0
  0
CLASS
  1
AEC_REFEDIT_STATUS_TRACKER
  2
AecDbRefEditStatusTracker
  3
AecArchBase60|Product Desc: Autodesk Architectural Desktop 2007 |Company: Autodesk,Inc. |WEB Address: www.autodesk.com
 90
    32897
280
     0
281
     0
  0
CLASS
  1
NPOCOLLECTION
  2
AcDbImpNonPersistentObjectsCollection
  3
ObjectDBX Classes
 90
    33921
280
     0
281
     0
  0
CLASS
  1
CELLSTYLEMAP
  2
AcDbCellStyleMap
  3
ObjectDBX Classes
 90
     1152
280
     0
281
     0
  0
CLASS
  1
SOLID_BACKGROUND
  2
AcDbSolidBackground
  3
SCENEOE
 90
    36863
280
     0
281
     0
  0
ENDSEC
  0
SECTION
  2
TABLES
  0
TABLE
  2
VPORT
  5
8
102
{ACAD_XDICTIONARY
360
34D6
102
}
330
0
100
AcDbSymbolTable
 70
     1
  0
VPORT
  5
2C6B
330
8
100
AcDbSymbolTableRecord
100
AcDbViewportTableRecord
  2
*Active
 70
     0
 10
0.0
 20
0.0
 11
1.0
 21
1.0
 12
8666.661665850297
 22
1091.324470640794
 13
0.0
 23
0.0
 14
10.0
 24
10.0
 15
10.0
 25
10.0
 16
0.0
 26
0.0
 36
1.0
 17
0.0
 27
0.0
 37
0.0
 40
1.548329070775512
 41
1.645464025026068
 42
50.0
 43
0.0
 44
0.0
 50
0.0
 51
0.0
 71
     0
 72
   100
 73
     1
 74
     2
 75
     0
 76
     0
 77
     0
 78
     0
281
     0
 65
     1
110
0.0
120
0.0
130
0.0
111
1.0
121
0.0
131
0.0
112
0.0
122
1.0
132
0.0
 79
     0
146
0.0
  0
ENDTAB
  0
TABLE
  2
LTYPE
  5
5
330
0
100
AcDbSymbolTable
 70
     4
  0
LTYPE
  5
14
330
5
100
AcDbSymbolTableRecord
100
AcDbLinetypeTableRecord
  2
ByBlock
 70
     0
  3

 72
    65
 73
     0
 40
0.0
  0
LTYPE
  5
15
330
5
100
AcDbSymbolTableRecord
100
AcDbLinetypeTableRecord
  2
ByLayer
 70
     0
  3

 72
    65
 73
     0
 40
0.0
  0
LTYPE
  5
16
330
5
100
AcDbSymbolTableRecord
100
AcDbLinetypeTableRecord
  2
Continuous
 70
     0
  3
Solid line
 72
    65
 73
     0
 40
0.0
  0
LTYPE
  5
2D
330
5
100
AcDbSymbolTableRecord
100
AcDbLinetypeTableRecord
  2
DASHDOT
 70
     0
  3
Dash dot __ . __ . __ . __ . __ . __ . __ . __
 72
    65
 73
     4
 40
25.4
 49
12.7
 74
     0
 49
-6.349999999999999
 74
     0
 49
0.0
 74
     0
 49
-6.349999999999999
 74
     0
  0
LTYPE
  5
2E
330
5
100
AcDbSymbolTableRecord
100
AcDbLinetypeTableRecord
  2
HIDDEN
 70
     0
  3
Hidden __ __ __ __ __ __ __ __ __ __ __ __ __ _
 72
    65
 73
     2
 40
9.524999999999998
 49
6.349999999999999
 74
     0
 49
-3.174999999999999
 74
     0
  0
LTYPE
  5
1D6F
330
5
100
AcDbSymbolTableRecord
100
AcDbLinetypeTableRecord
  2
CENTER
 70
     0
  3
____ _ ____ _ ____ _ ____ _ ____ _ ____ _ ____ 
 72
    65
 73
     4
 40
2.0
 49
1.25
 74
     0
 49
-0.25
 74
     0
 49
0.25
 74
     0
 49
-0.25
 74
     0
  0
ENDTAB
  0
TABLE
  2
LAYER
  5
2
330
0
100
AcDbSymbolTable
 70
    17
  0
LAYER
  5
10
102
{ACAD_XDICTIONARY
360
34B4
102
}
330
2
100
AcDbSymbolTableRecord
100
AcDbLayerTableRecord
  2
0
 70
     0
 62
     7
  6
Continuous
370
    -3
390
F
  0
LAYER
  5
2F
102
{ACAD_XDICTIONARY
360
34B6
102
}
330
2
100
AcDbSymbolTableRecord
100
AcDbLayerTableRecord
  2
1
 70
     0
 62
     1
  6
Continuous
370
    -3
390
F
  0
LAYER
  5
30
102
{ACAD_XDICTIONARY
360
34B8
102
}
330
2
100
AcDbSymbolTableRecord
100
AcDbLayerTableRecord
  2
2
 70
     0
 62
     2
  6
Continuous
370
    -3
390
F
  0
LAYER
  5
31
102
{ACAD_XDICTIONARY
360
34BA
102
}
330
2
100
AcDbSymbolTableRecord
100
AcDbLayerTableRecord
  2
3
 70
     0
 62
     3
  6
Continuous
370
    -3
390
F
  0
LAYER
  5
32
102
{ACAD_XDICTIONARY
360
34BC
102
}
330
2
100
AcDbSymbolTableRecord
100
AcDbLayerTableRecord
  2
4
 70
     0
 62
     4
  6
Continuous
370
    -3
390
F
  0
LAYER
  5
33
102
{ACAD_XDICTIONARY
360
34BE
102
}
330
2
100
AcDbSymbolTableRecord
100
AcDbLayerTableRecord
  2
5
 70
     0
 62
     5
  6
Continuous
370
    -3
390
F
  0
LAYER
  5
34
102
{ACAD_XDICTIONARY
360
34C0
102
}
330
2
100
AcDbSymbolTableRecord
100
AcDbLayerTableRecord
  2
6
 70
     0
 62
     6
  6
Continuous
370
    -3
390
F
  0
LAYER
  5
35
102
{ACAD_XDICTIONARY
360
34C2
102
}
330
2
100
AcDbSymbolTableRecord
100
AcDbLayerTableRecord
  2
7
 70
     0
 62
     7
  6
Continuous
370
    -3
390
F
  0
LAYER
  5
36
102
{ACAD_XDICTIONARY
360
34C4
102
}
330
2
100
AcDbSymbolTableRecord
100
AcDbLayerTableRecord
  2
cen
 70
     0
 62
     7
  6
DASHDOT
370
    -3
390
F
  0
LAYER
  5
37
102
{ACAD_XDICTIONARY
360
34C6
102
}
330
2
100
AcDbSymbolTableRecord
100
AcDbLayerTableRecord
  2
hid
 70
     0
 62
     7
  6
HIDDEN
370
    -3
390
F
  0
LAYER
  5
5D6
102
{ACAD_XDICTIONARY
360
34C8
102
}
330
2
100
AcDbSymbolTableRecord
100
AcDbLayerTableRecord
  2
hatch
 70
     0
 62
     9
  6
Continuous
370
    -3
390
F
  0
LAYER
  5
8AF
102
{ACAD_XDICTIONARY
360
34CA
102
}
330
2
100
AcDbSymbolTableRecord
100
AcDbLayerTableRecord
  2
9
 70
     0
 62
     9
  6
Continuous
370
    -3
390
F
  0
LAYER
  5
8F8
102
{ACAD_XDICTIONARY
360
34CC
102
}
330
2
100
AcDbSymbolTableRecord
100
AcDbLayerTableRecord
  2
leg fin
 70
     0
 62
     9
  6
Continuous
370
    -3
390
F
  0
LAYER
  5
91D
102
{ACAD_XDICTIONARY
360
34CE
102
}
330
2
100
AcDbSymbolTableRecord
100
AcDbLayerTableRecord
  2
cotas
 70
     0
 62
     1
  6
Continuous
370
    -3
390
F
  0
LAYER
  5
92F
330
2
100
AcDbSymbolTableRecord
100
AcDbLayerTableRecord
  2
Defpoints
 70
     0
 62
     7
  6
Continuous
290
     0
370
    -3
390
F
  0
LAYER
  5
1D70
102
{ACAD_XDICTIONARY
360
34D0
102
}
330
2
100
AcDbSymbolTableRecord
100
AcDbLayerTableRecord
  2
QUOTE
 70
     0
 62
     1
  6
Continuous
370
    -3
390
F
  0
LAYER
  5
3527
330
2
100
AcDbSymbolTableRecord
100
AcDbLayerTableRecord
  2
SANINDUSA
 70
     0
 62
     3
  6
Continuous
370
    -3
390
F
  0
ENDTAB
  0
TABLE
  2
STYLE
  5
3
330
0
100
AcDbSymbolTable
 70
     4
  0
STYLE
  5
11
330
3
100
AcDbSymbolTableRecord
100
AcDbTextStyleTableRecord
  2
Standard
 70
     0
 40
0.0
 41
1.0
 50
0.0
 71
     0
 42
2.5
  3
Avgardn.ttf
  4

1001
ACAD
1000
AvantGarde Bk BT
1071
       34
  0
STYLE
  5
2C
330
3
100
AcDbSymbolTableRecord
100
AcDbTextStyleTableRecord
  2

 70
     1
 40
0.0
 41
1.0
 50
0.0
 71
     0
 42
2.5
  3
ltypeshp.shx
  4

  0
STYLE
  5
91F
330
3
100
AcDbSymbolTableRecord
100
AcDbTextStyleTableRecord
  2
SANINDUSA
 70
     0
 40
0.0
 41
1.0
 50
0.0
 71
     0
 42
2.5
  3
verdana.TTF
  4

1001
ACAD
1000
Verdana
1071
       34
  0
STYLE
  5
1D71
330
3
100
AcDbSymbolTableRecord
100
AcDbTextStyleTableRecord
  2
ROMANS
 70
     0
 40
2.5
 41
1.0
 50
0.0
 71
     0
 42
2.5
  3
romans
  4

  0
ENDTAB
  0
TABLE
  2
VIEW
  5
6
330
0
100
AcDbSymbolTable
 70
     0
  0
ENDTAB
  0
TABLE
  2
UCS
  5
7
330
0
100
AcDbSymbolTable
 70
     0
  0
ENDTAB
  0
TABLE
  2
APPID
  5
9
330
0
100
AcDbSymbolTable
 70
    12
  0
APPID
  5
12
330
9
100
AcDbSymbolTableRecord
100
AcDbRegAppTableRecord
  2
ACAD
 70
     0
  0
APPID
  5
3A
330
9
100
AcDbSymbolTableRecord
100
AcDbRegAppTableRecord
  2
DCO15
 70
     0
  0
APPID
  5
1709
330
9
100
AcDbSymbolTableRecord
100
AcDbRegAppTableRecord
  2
ACAD_DSTYLE_DIMTEXT_FILL
 70
     0
  0
APPID
  5
170A
330
9
100
AcDbSymbolTableRecord
100
AcDbRegAppTableRecord
  2
ACAD_DSTYLE_DIMEXT_LENGTH
 70
     0
  0
APPID
  5
170B
330
9
100
AcDbSymbolTableRecord
100
AcDbRegAppTableRecord
  2
ACAD_DSTYLE_DIMEXT_ENABLED
 70
     0
  0
APPID
  5
170C
330
9
100
AcDbSymbolTableRecord
100
AcDbRegAppTableRecord
  2
ACAD_DSTYLE_DIM_LINETYPE
 70
     0
  0
APPID
  5
170D
330
9
100
AcDbSymbolTableRecord
100
AcDbRegAppTableRecord
  2
ACAD_DSTYLE_DIM_EXT1_LINETYPE
 70
     0
  0
APPID
  5
170E
330
9
100
AcDbSymbolTableRecord
100
AcDbRegAppTableRecord
  2
ACAD_DSTYLE_DIM_EXT2_LINETYPE
 70
     0
  0
APPID
  5
17CA
330
9
100
AcDbSymbolTableRecord
100
AcDbRegAppTableRecord
  2
ACAD_DSTYLE_DIMJOGGED_JOGANGLE_SYMBOL
 70
     0
  0
APPID
  5
185E
330
9
100
AcDbSymbolTableRecord
100
AcDbRegAppTableRecord
  2
ACAD_DSTYLE_DIMARC_LENGTH_SYMBOL
 70
     0
  0
APPID
  5
2351
330
9
100
AcDbSymbolTableRecord
100
AcDbRegAppTableRecord
  2
ACAD_EXEMPT_FROM_CAD_STANDARDS
 70
     0
  0
APPID
  5
350E
330
9
100
AcDbSymbolTableRecord
100
AcDbRegAppTableRecord
  2
ACAD_MLEADERVER
 70
     0
  0
ENDTAB
  0
TABLE
  2
DIMSTYLE
  5
A
330
0
100
AcDbSymbolTable
 70
     2
100
AcDbDimStyleTable
 71
     1
340
921
  0
DIMSTYLE
105
45
330
A
100
AcDbSymbolTableRecord
100
AcDbDimStyleTableRecord
  2
STANDARD
 70
     0
289
     0
340
11
  0
DIMSTYLE
105
921
330
A
100
AcDbSymbolTableRecord
100
AcDbDimStyleTableRecord
  2
SANINDUSA
 70
     0
 41
2.0
 42
1.0
 43
1.0
 44
1.0
 73
     0
 74
     0
 77
     1
 78
     8
140
2.0
141
0.0
143
0.03937007874016
147
1.0
171
     3
172
     1
176
   256
177
   256
178
   256
179
     1
271
     1
272
     1
274
     3
278
    44
283
     0
284
     8
340
91F
371
    -1
372
    -1
  0
ENDTAB
  0
TABLE
  2
BLOCK_RECORD
  5
1
330
0
100
AcDbSymbolTable
 70
    17
  0
BLOCK_RECORD
  5
1F
102
{ACAD_XDICTIONARY
360
2607
102
}
330
1
100
AcDbSymbolTableRecord
100
AcDbBlockTableRecord
  2
*Model_Space
340
22
  0
BLOCK_RECORD
  5
1B
330
1
100
AcDbSymbolTableRecord
100
AcDbBlockTableRecord
  2
*Paper_Space
340
1E
  0
BLOCK_RECORD
  5
23
330
1
100
AcDbSymbolTableRecord
100
AcDbBlockTableRecord
  2
*Paper_Space0
340
26
  0
BLOCK_RECORD
  5
919
330
1
100
AcDbSymbolTableRecord
100
AcDbBlockTableRecord
  2
_DotSmall
340
0
  0
BLOCK_RECORD
  5
922
330
1
100
AcDbSymbolTableRecord
100
AcDbBlockTableRecord
  2
base para cotas
340
0
310
2800000020000000200000000100080000000000000400000000000000000000000000000000000000000000000080000080000000808000800000008000800080800000C0C0C000C0DCC000F0CAA6000020400000206000002080000020A0000020C0000020E00000400000004020000040400000406000004080000040A0
310
000040C0000040E00000600000006020000060400000606000006080000060A0000060C0000060E00000800000008020000080400000806000008080000080A0000080C0000080E00000A0000000A0200000A0400000A0600000A0800000A0A00000A0C00000A0E00000C0000000C0200000C0400000C0600000C0800000C0
310
A00000C0C00000C0E00000E0000000E0200000E0400000E0600000E0800000E0A00000E0C00000E0E00040000000400020004000400040006000400080004000A0004000C0004000E00040200000402020004020400040206000402080004020A0004020C0004020E000404000004040200040404000404060004040800040
310
40A0004040C0004040E00040600000406020004060400040606000406080004060A0004060C0004060E00040800000408020004080400040806000408080004080A0004080C0004080E00040A0000040A0200040A0400040A0600040A0800040A0A00040A0C00040A0E00040C0000040C0200040C0400040C0600040C08000
310
40C0A00040C0C00040C0E00040E0000040E0200040E0400040E0600040E0800040E0A00040E0C00040E0E00080000000800020008000400080006000800080008000A0008000C0008000E00080200000802020008020400080206000802080008020A0008020C0008020E00080400000804020008040400080406000804080
310
008040A0008040C0008040E00080600000806020008060400080606000806080008060A0008060C0008060E00080800000808020008080400080806000808080008080A0008080C0008080E00080A0000080A0200080A0400080A0600080A0800080A0A00080A0C00080A0E00080C0000080C0200080C0400080C0600080C0
310
800080C0A00080C0C00080C0E00080E0000080E0200080E0400080E0600080E0800080E0A00080E0C00080E0E000C0000000C0002000C0004000C0006000C0008000C000A000C000C000C000E000C0200000C0202000C0204000C0206000C0208000C020A000C020C000C020E000C0400000C0402000C0404000C0406000C0
310
408000C040A000C040C000C040E000C0600000C0602000C0604000C0606000C0608000C060A000C060C000C060E000C0800000C0802000C0804000C0806000C0808000C080A000C080C000C080E000C0A00000C0A02000C0A04000C0A06000C0A08000C0A0A000C0A0C000C0A0E000C0C00000C0C02000C0C04000C0C06000
310
C0C08000C0C0A000F0FBFF00A4A0A000808080000000FF0000FF000000FFFF00FF000000FF00FF00FFFF0000FFFFFF00A4A4A4A4A4A4A4A4A4A4A4A4A4A4A4A4A4A4A4A4A4A4A4A4A4A4A4A4A4A4A4A4A4A4A4A4A4A4A4A4A4A4A4A4A4A4A4A4A4A4A4A4A4A4A4A4A4A4A4A4A4A4A4A4A4A4A4A4A4A4A4A4A4A4A4A4A4A4A4
310
A4A4A4A4A4A4A4A4A4A4A4A4A4A4A4A4A4A4A4A4A4A4A4A4A4A4A4A4A4A4A4A4A4A4A4A4A4A4A4A4A4A4A4A4A4A4A4A4A4A4A4A4A4A4A4A4A4A4A4A4A4A4A4A4A4A4A4A4A4A4A4A4A4A4A4A4A4A4A4A4A4A4A4A4A4A4A4A4A4A4A4A4A4A4A4A4A4A4A4A4A4A4A4A4A4A4A4A4A4A4A4A4A4A4A4A4A4A4A4A4A4A4A4A4A4A4A4
310
A4A4A4A4A4A4A4A4A4A4A4A4A4A4A4A4A4A4A4A4A4A4A4A4A4A4A4A4A4A4A4A4A4A4A4A4A4A4A4A4A4A4A4A4A4A4A4A4A4A4A4A4A4A4A4A4A4A4A4A4A4A4A4A4A4A4A4A4A4A4A4A4A4A4A4A4A4A4A4A4A4A4A4A4A4A4A4A4A4A4A4A4A4A4A4A4A4A4A4A4A4A4A4A4A4A4A4A4A4A4A4A4A4A4A4A4A4A4A4A4A4A4A4A4A4A4A4
310
A4A4A4A4A4A4A4A4A4A4A4A4A4A4A4A4A4A4A4A4A4A4A4A4A4A4A4A4A4A4A4A4A4A4A4A4A4A4A4A4A4A4A4A4A4A4A4A4A4A4A4A4A4A4A4A4A4A4A4A4A4A4A4A4A4A4A4A4A4A4A4A4A4A4A4A4A4A4A4A4A4A4A4A4A4A4A4A4A4A4A4A4A4A4A4A4A4A4A4A4A4A4A4A4A4A4A4A4A4A4A4A4A4A4A4A4F9F9F9F9F9F9F9F9F9F9F9
310
F9F9F9F9F9F9F9F9F9F9F9F9F9F9F9F9F9F9F9A4A4F9F9F9F9F9F9F9F9F9F9F9F9F9F9F9F9F9F9F9F9F9F9F9F9F9F9F9F9F9F9A4A4F9F9F9F9F9F9F9F9F9F9F9F9F9F9F9F9F9F9F9F9F9F9F9F9F9F9F9F9F9F9A4A4F9A4A4A4A4A4A4A4A4A4A4A4A4A4A4A4A4A4A4A4A4A4A4A4A4A4A4A4A4F9A4A4A4A4A4A4A4A4A4A4A4A4
310
A4A4A4A4A4A4A4A4A4A4A4A4A4A4A4A4A4A4A4A4A4A4A4A4A4A4A4A4A4A4A4A4A4A4A4A4A4A4A4A4A4A4A4A4A4A4A4A4A4A4A4A4A4A4A4A4A4A4A4A4A4A4A4A4A4A4A4A4A4A4A4A4A4A4A4A4A4A4A4A4A4A4A4A4A4A4A4A4A4A4A4A4A4A4A4A4A4A4A4A4A4A4A4A4A4A4A4A4A4A4A4A4A4A4A4A4A4A4A4A4A4A4A4A4A4A4A4
310
A4A4A4A4A4A4A4A4A4A4A4A4A4A4A4A4A4A4A4A4A4A4A4A4A4A4A4A4A4A4A4A4A4A4A4A4A4A4A4A4A4A4A4A4A4A4A4A4A4A4A4A4A4A4A4A4A4A4A4A4A4A4A4A4A4A4A4A4A4A4A4A4A4A4A4A4A4A4A4A4A4A4A4A4A4A4A4A4A4A4A4A4A4A4A4A4A4A4A4A4A4A4A4A4A4A4A4A4A4A4A4A4A4A4A4A4A4A4A4A4A4A4A4A4A4A4A4
310
A4A4A4A4A4A4A4A4A4A4A4A4A4A4A4A4A4A4A4A4A4A4A4A4A4A4A4A4A4A4A4A4A4A4A4A4A4A4A4A4A4A4A4A4A4A4A4A4A4A4A4A4A4A4A4A4A4A4A4A4A4A4A4A4A4A4A4A4A4A4A4A4A4A4A4A4A4A4A4A4A4A4A4A4A4A4A4A4A4A4A4A4A4A4A4A4A4A4A4A4A4A4A4A4A4A4A4A4A4A4A4A4A4A4A4A4A4A4A4A4A4A4A4A4A4A4A4
310
A4A4A4A4A4A4A4A4A4A4A4A4A4A4A4A4A4A4A4A4A4A4A4A4A4A4A4A4A4A4A4A4A4A4A4A4A4A4A4A4A4A4A4A4A4A4A4A4A4A4A4A4A4A4A4A4
1001
ACAD
1000
DesignCenter Data
1002
{
1070
     1
1070
     4
1002
}
  0
BLOCK_RECORD
  5
AA8
330
1
100
AcDbSymbolTableRecord
100
AcDbBlockTableRecord
  2
_CLOSED
340
0
  0
ENDTAB
  0
ENDSEC
  0
SECTION
  2
BLOCKS
  0
BLOCK
  5
20
330
1F
100
AcDbEntity
  8
0
100
AcDbBlockBegin
  2
*Model_Space
 70
     0
 10
0.0
 20
0.0
 30
0.0
  3
*Model_Space
  1

  0
ENDBLK
  5
21
330
1F
100
AcDbEntity
  8
0
100
AcDbBlockEnd
  0
BLOCK
  5
1C
330
1B
100
AcDbEntity
 67
     1
  8
0
100
AcDbBlockBegin
  2
*Paper_Space
 70
     0
 10
0.0
 20
0.0
 30
0.0
  3
*Paper_Space
  1

  0
ENDBLK
  5
1D
330
1B
100
AcDbEntity
 67
     1
  8
0
100
AcDbBlockEnd
  0
BLOCK
  5
24
330
23
100
AcDbEntity
 67
     1
  8
0
100
AcDbBlockBegin
  2
*Paper_Space0
 70
     0
 10
0.0
 20
0.0
 30
0.0
  3
*Paper_Space0
  1

  0
ENDBLK
  5
25
330
23
100
AcDbEntity
 67
     1
  8
0
100
AcDbBlockEnd
  0
BLOCK
  5
91B
330
919
100
AcDbEntity
  8
0
100
AcDbBlockBegin
  2
_DotSmall
 70
     0
 10
0.0
 20
0.0
 30
0.0
  3
_DotSmall
  1

  0
LWPOLYLINE
  5
91A
330
919
100
AcDbEntity
  8
0
  6
ByBlock
 62
     0
100
AcDbPolyline
 90
        2
 70
     1
 43
0.5
 10
-0.0625
 20
0.0
 42
1.0
 10
0.0625
 20
0.0
 42
1.0
  0
ENDBLK
  5
91C
330
919
100
AcDbEntity
  8
0
100
AcDbBlockEnd
  0
BLOCK
  5
92A
330
922
100
AcDbEntity
  8
0
100
AcDbBlockBegin
  2
base para cotas
 70
     0
 10
0.0
 20
0.0
 30
0.0
  3
base para cotas
  1

  0
LINE
  5
B36
330
922
100
AcDbEntity
  8
cotas
100
AcDbLine
 10
0.0
 20
-30.0
 30
0.0
 11
327.1260136525398
 21
-30.0
 31
0.0
  0
LINE
  5
B37
330
922
100
AcDbEntity
  8
cotas
100
AcDbLine
 10
0.0
 20
-25.0
 30
0.0
 11
327.1260136525398
 21
-25.0
 31
0.0
  0
LINE
  5
B38
330
922
100
AcDbEntity
  8
cotas
100
AcDbLine
 10
0.0
 20
-20.0
 30
0.0
 11
327.1260136525398
 21
-20.0
 31
0.0
  0
LINE
  5
B39
330
922
100
AcDbEntity
  8
cotas
100
AcDbLine
 10
0.0
 20
-15.0
 30
0.0
 11
327.1260136525398
 21
-15.0
 31
0.0
  0
LINE
  5
B3A
330
922
100
AcDbEntity
  8
cotas
100
AcDbLine
 10
0.0
 20
-10.0
 30
0.0
 11
327.1260136525398
 21
-10.0
 31
0.0
  0
LINE
  5
B3B
330
922
100
AcDbEntity
  8
cotas
100
AcDbLine
 10
0.0
 20
0.0
 30
0.0
 11
0.0
 21
-30.0
 31
0.0
  0
LINE
  5
B3C
330
922
100
AcDbEntity
  8
cotas
100
AcDbLine
 10
327.1260136525398
 20
-30.0
 30
0.0
 11
327.1260136525398
 21
0.0
 31
0.0
  0
ENDBLK
  5
92B
330
922
100
AcDbEntity
  8
0
100
AcDbBlockEnd
  0
BLOCK
  5
AAD
330
AA8
100
AcDbEntity
  8
0
100
AcDbBlockBegin
  2
_CLOSED
 70
     0
 10
0.0
 20
0.0
 30
0.0
  3
_CLOSED
  1

  0
LINE
  5
AA9
330
AA8
100
AcDbEntity
  8
0
100
AcDbLine
 10
-1.0
 20
0.166667
 30
0.0
 11
0.0
 21
0.0
 31
0.0
  0
LINE
  5
AAA
330
AA8
100
AcDbEntity
  8
0
100
AcDbLine
 10
0.0
 20
0.0
 30
0.0
 11
-1.0
 21
-0.166667
 31
0.0
  0
LINE
  5
AAB
330
AA8
100
AcDbEntity
  8
0
100
AcDbLine
 10
-1.0
 20
0.166667
 30
0.0
 11
-1.0
 21
-0.166667
 31
0.0
  0
LINE
  5
AAC
330
AA8
100
AcDbEntity
  8
0
100
AcDbLine
 10
0.0
 20
0.0
 30
0.0
 11
-1.0
 21
0.0
 31
0.0
  0
ENDBLK
  5
AAE
330
AA8
100
AcDbEntity
  8
0
100
AcDbBlockEnd
  0
ENDSEC
  0
SECTION
  2
ENTITIES
  0
LWPOLYLINE
  5
31BA
330
1F
100
AcDbEntity
  8
SANINDUSA
100
AcDbPolyline
 90
       16
 70
     0
 43
0.0
 10
8666.544461841311
 20
1090.575006405044
 10
8666.54453405559
 20
1090.575012255044
 10
8666.544605477014
 20
1090.575029805043
 10
8666.544675334153
 20
1090.575058840755
 10
8666.544742834149
 20
1090.575099019323
 10
8666.544807269858
 20
1090.575149933606
 10
8666.54486793414
 20
1090.575211026459
 10
8666.544924119852
 20
1090.57528159074
 10
8666.544975269848
 20
1090.575360897878
 10
8666.545020762702
 20
1090.575448047872
 10
8666.545060148413
 20
1090.575542119294
 10
8666.54509299841
 20
1090.575642040716
 10
8666.545118905553
 20
1090.575746740709
 10
8666.545137612695
 20
1090.57585506213
 10
8666.545148926978
 20
1090.575965826409
 10
8666.545152719837
 20
1090.576077833544
  0
LINE
  5
31BB
330
1F
100
AcDbEntity
  8
SANINDUSA
100
AcDbLine
 10
8665.962507488897
 20
1090.573934976544
 30
0.0
 11
8665.9196263489
 21
1090.573934976544
 31
0.0
  0
LINE
  5
31BC
330
1F
100
AcDbEntity
  8
SANINDUSA
100
AcDbLine
 10
8666.564143661428
 20
1090.575006405044
 30
0.0
 11
8666.57484980357
 21
1090.575006405044
 31
0.0
  0
LINE
  5
31BD
330
1F
100
AcDbEntity
  8
SANINDUSA
100
AcDbLine
 10
8666.574853874999
 20
1090.575006405044
 30
0.0
 11
8666.59253242382
 21
1090.575006405044
 31
0.0
  0
LINE
  5
31BE
330
1F
100
AcDbEntity
  8
SANINDUSA
100
AcDbLine
 10
8666.564139589999
 20
1090.575006405044
 30
0.0
 11
8666.52031816435
 21
1090.575006405044
 31
0.0
  0
LINE
  5
31BF
330
1F
100
AcDbEntity
  8
SANINDUSA
100
AcDbLine
 10
8666.549675326677
 20
1090.576077833544
 30
0.0
 11
8666.519246735848
 21
1090.576077833544
 31
0.0
  0
LINE
  5
31C0
330
1F
100
AcDbEntity
  8
SANINDUSA
100
AcDbLine
 10
8666.523859814112
 20
1090.590006404044
 30
0.0
 11
8666.519246907277
 21
1090.590006404044
 31
0.0
  0
LINE
  5
31C1
330
1F
100
AcDbEntity
  8
SANINDUSA
100
AcDbLine
 10
8665.959757063616
 20
1090.590006404044
 30
0.0
 11
8665.936239576362
 21
1090.590006404044
 31
0.0
  0
LINE
  5
31C2
330
1F
100
AcDbEntity
  8
SANINDUSA
100
AcDbLine
 10
8665.919626177471
 20
1090.590006404044
 30
0.0
 11
8665.392626177469
 21
1090.590006404044
 31
0.0
  0
LINE
  5
31C3
330
1F
100
AcDbEntity
  8
SANINDUSA
100
AcDbLine
 10
8665.959757063616
 20
1090.591077832544
 30
0.0
 11
8666.522822821324
 21
1090.591077832544
 31
0.0
  0
LINE
  5
31C4
330
1F
100
AcDbEntity
  8
SANINDUSA
100
AcDbLine
 10
8666.522822821324
 20
1090.601256403294
 30
0.0
 11
8666.543284084246
 21
1090.601256403294
 31
0.0
  0
LINE
  5
31C5
330
1F
100
AcDbEntity
  8
SANINDUSA
100
AcDbLine
 10
8666.549675326677
 20
1090.601792117544
 30
0.0
 11
8666.522463249918
 21
1090.601792117544
 31
0.0
  0
LWPOLYLINE
  5
31C6
330
1F
100
AcDbEntity
  8
SANINDUSA
100
AcDbPolyline
 90
       14
 70
     0
 43
0.0
 10
8666.532756999233
 20
1090.595025917995
 10
8666.531987092144
 20
1090.594638682307
 10
8666.531226549336
 20
1090.594252475189
 10
8666.5304761851
 20
1090.593866739501
 10
8666.529736406578
 20
1090.593480768098
 10
8666.529008285197
 20
1090.593094175267
 10
8666.528294456673
 20
1090.59270736815
 10
8666.52759755672
 20
1090.592320839604
 10
8666.526919771051
 20
1090.59193488963
 10
8666.526262192524
 20
1090.591549218227
 10
8666.525625913996
 20
1090.591163568253
 10
8666.525012371179
 20
1090.590777832564
 10
8666.524423192646
 20
1090.590392096876
 10
8666.523859814112
 20
1090.590006404044
  0
LINE
  5
31C7
330
1F
100
AcDbEntity
  8
SANINDUSA
100
AcDbLine
 10
8666.537415291781
 20
1090.597344382126
 30
0.0
 11
8666.535869563311
 21
1090.596573339321
 31
0.0
  0
LINE
  5
31C8
330
1F
100
AcDbEntity
  8
SANINDUSA
100
AcDbLine
 10
8666.53431249913
 20
1090.595800925086
 30
0.0
 11
8666.532756999233
 21
1090.595025917995
 31
0.0
  0
LINE
  5
31C9
330
1F
100
AcDbEntity
  8
SANINDUSA
100
AcDbLine
 10
8666.535869563311
 20
1090.596573339321
 30
0.0
 11
8666.53431249913
 21
1090.595800925086
 31
0.0
  0
LINE
  5
31CA
330
1F
100
AcDbEntity
  8
SANINDUSA
100
AcDbLine
 10
8666.544006505626
 20
1090.601792117544
 30
0.0
 11
8666.543506319944
 21
1090.601416817569
 31
0.0
  0
LWPOLYLINE
  5
31CB
330
1F
100
AcDbEntity
  8
SANINDUSA
100
AcDbPolyline
 90
        3
 70
     0
 43
0.0
 10
8666.543506319944
 20
1090.601416817569
 10
8666.542985648552
 20
1090.601040960451
 10
8666.542445605729
 20
1090.600664481905
  0
LWPOLYLINE
  5
31CC
330
1F
100
AcDbEntity
  8
SANINDUSA
100
AcDbPolyline
 90
       10
 70
     0
 43
0.0
 10
8666.542445605729
 20
1090.600664481905
 10
8666.541887091481
 20
1090.600287253359
 10
8666.541311605806
 20
1090.599909424812
 10
8666.540721205846
 20
1090.599531489123
 10
8666.540117177314
 20
1090.599153446292
 10
8666.539500998785
 20
1090.598775296317
 10
8666.538875220254
 20
1090.598397703485
 10
8666.538242048869
 20
1090.598021139224
 10
8666.537602341769
 20
1090.597645132106
 10
8666.536956548954
 20
1090.59726910356
  0
LWPOLYLINE
  5
31CD
330
1F
100
AcDbEntity
  8
SANINDUSA
100
AcDbPolyline
 90
       12
 70
     0
 43
0.0
 10
8666.545184798406
 20
1090.601634017555
 10
8666.544543462734
 20
1090.601226167582
 10
8666.54390964849
 20
1090.600838203322
 10
8666.543252755678
 20
1090.600449596205
 10
8666.542573598579
 20
1090.600059960517
 10
8666.541874427197
 20
1090.599669681971
 10
8666.54115914153
 20
1090.599279960569
 10
8666.540430098724
 20
1090.59889107488
 10
8666.539688648773
 20
1090.598502767764
 10
8666.538937427393
 20
1090.598115382075
 10
8666.538179327444
 20
1090.597729410672
 10
8666.537415291781
 20
1090.597344382126
  0
LWPOLYLINE
  5
31CE
330
1F
100
AcDbEntity
  8
SANINDUSA
100
AcDbPolyline
 90
        9
 70
     0
 43
0.0
 10
8666.545184798406
 20
1090.601634017555
 10
8666.545217819832
 20
1090.601654417553
 10
8666.5452516984
 20
1090.60167468898
 10
8666.545286412683
 20
1090.601694831836
 10
8666.545321898396
 20
1090.601714867549
 10
8666.545358026965
 20
1090.601734603262
 10
8666.545394755535
 20
1090.601754038975
 10
8666.545432019816
 20
1090.601773217545
 10
8666.545469755529
 20
1090.601792117544
  0
LWPOLYLINE
  5
31CF
330
1F
100
AcDbEntity
  8
SANINDUSA
100
AcDbPolyline
 90
        3
 70
     0
 43
0.0
 10
8666.536956548954
 20
1090.59726910356
 10
8666.535652063327
 20
1090.596516596467
 10
8666.534996734799
 20
1090.596140332206
  0
LINE
  5
31D0
330
1F
100
AcDbEntity
  8
SANINDUSA
100
AcDbLine
 10
8666.59253242382
 20
1090.575006405044
 30
0.0
 11
8666.59253242382
 21
1092.075006305044
 31
0.0
  0
LINE
  5
31D1
330
1F
100
AcDbEntity
  8
SANINDUSA
100
AcDbLine
 10
8666.591784566726
 20
1090.575006405044
 30
0.0
 11
8666.591784566726
 21
1092.075006305044
 31
0.0
  0
LINE
  5
31D2
330
1F
100
AcDbEntity
  8
SANINDUSA
100
AcDbLine
 10
8666.589642202584
 20
1090.575006405044
 30
0.0
 11
8666.589642202584
 21
1092.075006305044
 31
0.0
  0
LINE
  5
31D3
330
1F
100
AcDbEntity
  8
SANINDUSA
100
AcDbLine
 10
8666.586888417054
 20
1090.575006405044
 30
0.0
 11
8666.586888417054
 21
1092.075006305044
 31
0.0
  0
LINE
  5
31D4
330
1F
100
AcDbEntity
  8
SANINDUSA
100
AcDbLine
 10
8666.572478277956
 20
1090.575006405044
 30
0.0
 11
8666.572478277956
 21
1092.075006305044
 31
0.0
  0
LINE
  5
31D5
330
1F
100
AcDbEntity
  8
SANINDUSA
100
AcDbLine
 10
8666.569470156206
 20
1090.575006405044
 30
0.0
 11
8666.569470156206
 21
1092.075006305044
 31
0.0
  0
LINE
  5
31D6
330
1F
100
AcDbEntity
  8
SANINDUSA
100
AcDbLine
 10
8666.569363013357
 20
1090.575006405044
 30
0.0
 11
8666.569363013357
 21
1092.075006305044
 31
0.0
  0
LINE
  5
31D7
330
1F
100
AcDbEntity
  8
SANINDUSA
100
AcDbLine
 10
8666.56424673285
 20
1090.575006405044
 30
0.0
 11
8666.56424673285
 21
1092.075006305044
 31
0.0
  0
LINE
  5
31D8
330
1F
100
AcDbEntity
  8
SANINDUSA
100
AcDbLine
 10
8666.564139589999
 20
1090.575006405044
 30
0.0
 11
8666.564139589999
 21
1092.075006305044
 31
0.0
  0
LINE
  5
31D9
330
1F
100
AcDbEntity
  8
SANINDUSA
100
AcDbLine
 10
8666.564020275719
 20
1090.575006405044
 30
0.0
 11
8666.564020275719
 21
1092.075006305044
 31
0.0
  0
LINE
  5
31DA
330
1F
100
AcDbEntity
  8
SANINDUSA
100
AcDbLine
 10
8666.549987905227
 20
1090.575006405044
 30
0.0
 11
8666.549987905227
 21
1092.075006305044
 31
0.0
  0
LINE
  5
31DB
330
1F
100
AcDbEntity
  8
SANINDUSA
100
AcDbLine
 10
8666.549675326677
 20
1090.575006405044
 30
0.0
 11
8666.549675326677
 21
1092.075006305044
 31
0.0
  0
LINE
  5
31DC
330
1F
100
AcDbEntity
  8
SANINDUSA
100
AcDbLine
 10
8666.545843598361
 20
1092.048220592544
 30
0.0
 11
8666.545843598361
 21
1092.075006305044
 31
0.0
  0
LINE
  5
31DD
330
1F
100
AcDbEntity
  8
SANINDUSA
100
AcDbLine
 10
8666.545843598361
 20
1090.575006405044
 30
0.0
 11
8666.545843598361
 21
1090.601792117544
 31
0.0
  0
LINE
  5
31DE
330
1F
100
AcDbEntity
  8
SANINDUSA
100
AcDbLine
 10
8666.545152719837
 20
1090.601613488985
 30
0.0
 11
8666.545152719837
 21
1090.576077833544
 31
0.0
  0
LINE
  5
31DF
330
1F
100
AcDbEntity
  8
SANINDUSA
100
AcDbLine
 10
8666.545152719837
 20
1092.048220592544
 30
0.0
 11
8666.545152719837
 21
1092.073934876544
 31
0.0
  0
LINE
  5
31E0
330
1F
100
AcDbEntity
  8
SANINDUSA
100
AcDbLine
 10
8666.544346427032
 20
1092.048220592544
 30
0.0
 11
8666.544346427032
 21
1090.601792117544
 31
0.0
  0
LINE
  5
31E1
330
1F
100
AcDbEntity
  8
SANINDUSA
100
AcDbLine
 10
8666.543810712783
 20
1092.048220592544
 30
0.0
 11
8666.543810712783
 21
1090.601792117544
 31
0.0
  0
LINE
  5
31E2
330
1F
100
AcDbEntity
  8
SANINDUSA
100
AcDbLine
 10
8666.522822821324
 20
1090.601792117544
 30
0.0
 11
8666.522822821324
 21
1090.591077832544
 31
0.0
  0
LINE
  5
31E3
330
1F
100
AcDbEntity
  8
SANINDUSA
100
AcDbLine
 10
8666.522490121346
 20
1090.601792117544
 30
0.0
 11
8666.522490121346
 21
1092.042327735794
 31
0.0
  0
LINE
  5
31E4
330
1F
100
AcDbEntity
  8
SANINDUSA
100
AcDbLine
 10
8666.522463249918
 20
1090.601792117544
 30
0.0
 11
8666.522463249918
 21
1092.042327735794
 31
0.0
  0
LINE
  5
31E5
330
1F
100
AcDbEntity
  8
SANINDUSA
100
AcDbLine
 10
8666.521818164248
 20
1092.048220592544
 30
0.0
 11
8666.521818164248
 21
1092.042327735794
 31
0.0
  0
LINE
  5
31E6
330
1F
100
AcDbEntity
  8
SANINDUSA
100
AcDbLine
 10
8666.521818164248
 20
1090.591077832544
 30
0.0
 11
8666.521818164248
 21
1090.590006404044
 31
0.0
  0
LINE
  5
31E7
330
1F
100
AcDbEntity
  8
SANINDUSA
100
AcDbLine
 10
8666.519246735848
 20
1090.590006404044
 30
0.0
 11
8666.519246735848
 21
1090.576077833544
 31
0.0
  0
LINE
  5
31E8
330
1F
100
AcDbEntity
  8
SANINDUSA
100
AcDbLine
 10
8666.519246735848
 20
1092.048220592544
 30
0.0
 11
8666.519246735848
 21
1092.073934876544
 31
0.0
  0
LINE
  5
31E9
330
1F
100
AcDbEntity
  8
SANINDUSA
100
AcDbLine
 10
8665.66048330247
 20
1092.030006308044
 30
0.0
 11
8665.919626177471
 21
1092.030006308044
 31
0.0
  0
LINE
  5
31EA
330
1F
100
AcDbEntity
  8
SANINDUSA
100
AcDbLine
 10
8666.522463249918
 20
1092.036434879044
 30
0.0
 11
8665.959757063616
 21
1092.036434879044
 31
0.0
  0
LINE
  5
31EB
330
1F
100
AcDbEntity
  8
SANINDUSA
100
AcDbLine
 10
8665.959691427906
 20
1092.037506307544
 30
0.0
 11
8665.936491019204
 21
1092.037506307544
 31
0.0
  0
LINE
  5
31EC
330
1F
100
AcDbEntity
  8
SANINDUSA
100
AcDbLine
 10
8665.936366712069
 20
1092.037506307544
 30
0.0
 11
8665.919626006042
 21
1092.037506307544
 31
0.0
  0
LINE
  5
31ED
330
1F
100
AcDbEntity
  8
SANINDUSA
100
AcDbLine
 10
8666.543810712783
 20
1092.042327735794
 30
0.0
 11
8666.521818164248
 21
1092.042327735794
 31
0.0
  0
LINE
  5
31EE
330
1F
100
AcDbEntity
  8
SANINDUSA
100
AcDbLine
 10
8666.549675326677
 20
1092.048220592544
 30
0.0
 11
8666.519246971562
 21
1092.048220592544
 31
0.0
  0
LINE
  5
31EF
330
1F
100
AcDbEntity
  8
SANINDUSA
100
AcDbLine
 10
8665.959757063616
 20
1092.053577735044
 30
0.0
 11
8665.919626177471
 21
1092.053577735044
 31
0.0
  0
LINE
  5
31F0
330
1F
100
AcDbEntity
  8
SANINDUSA
100
AcDbLine
 10
8666.519246735848
 20
1092.073934876544
 30
0.0
 11
8666.549675326677
 21
1092.073934876544
 31
0.0
  0
LINE
  5
31F1
330
1F
100
AcDbEntity
  8
SANINDUSA
100
AcDbLine
 10
8666.520318357207
 20
1092.075006305044
 30
0.0
 11
8666.564139589999
 21
1092.075006305044
 31
0.0
  0
LINE
  5
31F2
330
1F
100
AcDbEntity
  8
SANINDUSA
100
AcDbLine
 10
8666.564143661428
 20
1092.075006305044
 30
0.0
 11
8666.57484980357
 21
1092.075006305044
 31
0.0
  0
LINE
  5
31F3
330
1F
100
AcDbEntity
  8
SANINDUSA
100
AcDbLine
 10
8666.574853874999
 20
1092.075006305044
 30
0.0
 11
8666.59253242382
 21
1092.075006305044
 31
0.0
  0
LWPOLYLINE
  5
31F4
330
1F
100
AcDbEntity
  8
SANINDUSA
100
AcDbPolyline
 90
       16
 70
     0
 43
0.0
 10
8666.544461841311
 20
1092.075006305044
 10
8666.54453405559
 20
1092.075000433616
 10
8666.544605477014
 20
1092.074982883617
 10
8666.544675334153
 20
1092.074953847905
 10
8666.544742855577
 20
1092.074913669336
 10
8666.544807291288
 20
1092.074862733625
 10
8666.54486793414
 20
1092.074801662201
 10
8666.544924141279
 20
1092.074731076491
 10
8666.544975269848
 20
1092.074651790782
 10
8666.545020784131
 20
1092.074564619359
 10
8666.545060169841
 20
1092.074470569365
 10
8666.54509299841
 20
1092.074370647944
 10
8666.545118905553
 20
1092.07426594795
 10
8666.545137612695
 20
1092.074157626529
 10
8666.545148926978
 20
1092.074046862251
 10
8666.545152719837
 20
1092.073934876544
  0
LINE
  5
31F5
330
1F
100
AcDbEntity
  8
SANINDUSA
100
AcDbLine
 10
8665.959757063616
 20
1092.053577735044
 30
0.0
 11
8665.959757063616
 21
1090.573934976544
 31
0.0
  0
LINE
  5
31F6
330
1F
100
AcDbEntity
  8
SANINDUSA
100
AcDbLine
 10
8665.959691427906
 20
1090.573934976544
 30
0.0
 11
8665.959691427906
 21
1092.053577735044
 31
0.0
  0
LINE
  5
31F7
330
1F
100
AcDbEntity
  8
SANINDUSA
100
AcDbLine
 10
8665.947206332774
 20
1092.037506307544
 30
0.0
 11
8665.947206332774
 21
1090.590006404044
 31
0.0
  0
LINE
  5
31F8
330
1F
100
AcDbEntity
  8
SANINDUSA
100
AcDbLine
 10
8665.947081168496
 20
1090.573934976544
 30
0.0
 11
8665.947081168496
 21
1092.053577735044
 31
0.0
  0
LINE
  5
31F9
330
1F
100
AcDbEntity
  8
SANINDUSA
100
AcDbLine
 10
8665.946974025647
 20
1092.037506307544
 30
0.0
 11
8665.946974025647
 21
1090.590006404044
 31
0.0
  0
LINE
  5
31FA
330
1F
100
AcDbEntity
  8
SANINDUSA
100
AcDbLine
 10
8665.936474026347
 20
1092.037506307544
 30
0.0
 11
8665.936474026347
 21
1090.590006404044
 31
0.0
  0
LINE
  5
31FB
330
1F
100
AcDbEntity
  8
SANINDUSA
100
AcDbLine
 10
8665.936366883498
 20
1090.573934976544
 30
0.0
 11
8665.936366883498
 21
1092.053577735044
 31
0.0
  0
LINE
  5
31FC
330
1F
100
AcDbEntity
  8
SANINDUSA
100
AcDbLine
 10
8665.936239576362
 20
1092.037506307544
 30
0.0
 11
8665.936239576362
 21
1090.590006404044
 31
0.0
  0
LINE
  5
31FD
330
1F
100
AcDbEntity
  8
SANINDUSA
100
AcDbLine
 10
8665.919746413177
 20
1090.573934976544
 30
0.0
 11
8665.919746413177
 21
1092.053577735044
 31
0.0
  0
LINE
  5
31FE
330
1F
100
AcDbEntity
  8
SANINDUSA
100
AcDbLine
 10
8665.919626177471
 20
1092.053577735044
 30
0.0
 11
8665.919626177471
 21
1090.573934976544
 31
0.0
  0
LINE
  5
31FF
330
1F
100
AcDbEntity
  8
SANINDUSA
100
AcDbLine
 10
8665.392626177469
 20
1090.590006404044
 30
0.0
 11
8665.392626177469
 21
1091.762149183044
 31
0.0
  0
ARC
  5
3201
330
1F
100
AcDbEntity
  8
SANINDUSA
100
AcDbCircle
 10
8666.52031816435
 20
1092.073934876544
 30
0.0
 40
0.0010714285
100
AcDbArc
 50
90.0
 51
180.0
  0
ARC
  5
3202
330
1F
100
AcDbEntity
  8
SANINDUSA
100
AcDbCircle
 10
8666.52031816435
 20
1090.576077833544
 30
0.0
 40
0.0010714285
100
AcDbArc
 50
180.0
 51
270.0
  0
ARC
  5
3203
330
1F
100
AcDbEntity
  8
SANINDUSA
100
AcDbCircle
 10
8665.66048330247
 20
1091.762149183044
 30
0.0
 40
0.267857125
100
AcDbArc
 50
90.0
 51
180.0
  0
POINT
  5
3204
330
1F
100
AcDbEntity
  8
SANINDUSA
100
AcDbPoint
 10
8666.59253242382
 20
1090.575006405044
 30
0.0
 50
180.0
  0
LINE
  5
3205
330
1F
100
AcDbEntity
  8
SANINDUSA
100
AcDbLine
 10
8667.884846521205
 20
1091.286590001595
 30
0.0
 11
8667.847677019093
 21
1091.286590001595
 31
0.0
  0
LINE
  5
3206
330
1F
100
AcDbEntity
  8
SANINDUSA
100
AcDbLine
 10
8667.885308961768
 20
1091.280573758095
 30
0.0
 11
8667.846596549889
 21
1091.280573758095
 31
0.0
  0
LWPOLYLINE
  5
3207
330
1F
100
AcDbEntity
  8
SANINDUSA
100
AcDbPolyline
 90
        8
 70
     1
 43
0.0
 10
8667.886483864602
 20
1091.28247890187
 42
-0.4142140000000001
 10
8667.886985218228
 20
1091.282980255495
 10
8667.893546808798
 20
1091.282980255495
 42
-0.443866
 10
8667.894045648971
 20
1091.282428766507
 42
-0.774767
 10
8667.871972968713
 20
1091.279040858022
 42
-0.538397
 10
8667.872157305076
 20
1091.279320374032
 10
8667.883977096478
 20
1091.279320374032
 42
0.4142140000000001
 10
8667.886483864602
 20
1091.281827142157
  0
LWPOLYLINE
  5
3208
330
1F
100
AcDbEntity
  8
SANINDUSA
100
AcDbPolyline
 90
       48
 70
     1
 43
0.0
 10
8667.879401423766
 20
1091.286737249823
 10
8667.879301253313
 20
1091.286837420277
 10
8667.877097503319
 20
1091.286837420277
 10
8667.876997332864
 20
1091.286737249823
 10
8667.876696821499
 20
1091.287037761186
 10
8667.876396310138
 20
1091.286737249823
 10
8667.876296139684
 20
1091.286837420277
 10
8667.874092389689
 20
1091.286837420277
 10
8667.873992219236
 20
1091.286737249823
 10
8667.873691707873
 20
1091.287037761186
 10
8667.87339119651
 20
1091.286737249823
 10
8667.873291026054
 20
1091.286837420277
 10
8667.871142759194
 20
1091.2868407252
 42
-0.510286
 10
8667.87066733157
 20
1091.28749888887
 42
-6.239652999999999
 10
8667.870665098876
 20
1091.279665139546
 42
-0.510107
 10
8667.871140616076
 20
1091.280323031815
 10
8667.873291026054
 20
1091.280326340749
 10
8667.87339119651
 20
1091.280426511204
 10
8667.873691707873
 20
1091.280125999841
 10
8667.873992219236
 20
1091.280426511204
 10
8667.874092389689
 20
1091.280326340749
 10
8667.876296139684
 20
1091.280326340749
 10
8667.876396310138
 20
1091.280426511204
 10
8667.876696821499
 20
1091.280125999841
 10
8667.876997332864
 20
1091.280426511204
 10
8667.877097503319
 20
1091.280326340749
 10
8667.879301253313
 20
1091.280326340749
 10
8667.879401423766
 20
1091.280426511204
 10
8667.879701935129
 20
1091.280125999841
 10
8667.880002446493
 20
1091.280426511204
 10
8667.880102616946
 20
1091.280326340749
 10
8667.882306366941
 20
1091.280326340749
 10
8667.882406537394
 20
1091.280426511204
 10
8667.882707048757
 20
1091.280125999841
 10
8667.883007560119
 20
1091.280426511204
 10
8667.883107730574
 20
1091.280326340749
 10
8667.883977096478
 20
1091.280326340749
 42
0.4142140000000001
 10
8667.885481157354
 20
1091.281830401624
 10
8667.885481157354
 20
1091.285333359402
 42
0.4142140000000001
 10
8667.883977096478
 20
1091.286837420277
 10
8667.883107730574
 20
1091.286837420277
 10
8667.883007560119
 20
1091.286737249823
 10
8667.882707048757
 20
1091.287037761186
 10
8667.882406537394
 20
1091.286737249823
 10
8667.882306366941
 20
1091.286837420277
 10
8667.880102616946
 20
1091.286837420277
 10
8667.880002446493
 20
1091.286737249823
 10
8667.879701935129
 20
1091.287037761186
  0
LWPOLYLINE
  5
3209
330
1F
100
AcDbEntity
  8
SANINDUSA
100
AcDbPolyline
 90
       34
 70
     1
 43
0.0
 10
8667.922182511494
 20
1091.27378551424
 10
8667.922182511494
 20
1091.281031567486
 42
0.580626
 10
8667.921880000065
 20
1091.281204248381
 42
-0.35562
 10
8667.918437012202
 20
1091.281724371349
 42
-0.8476239999999998
 10
8667.919168791966
 20
1091.282474389687
 42
-0.9277429999999998
 10
8667.91963511501
 20
1091.282096943939
 42
0.266788
 10
8667.92133329867
 20
1091.282104179475
 42
-0.9153349999999999
 10
8667.921790727033
 20
1091.282491340788
 42
0.362743
 10
8667.921781413888
 20
1091.284677050073
 42
-0.9153349999999999
 10
8667.92132070333
 20
1091.285060298153
 42
0.266788
 10
8667.919622519669
 20
1091.285053062618
 42
-0.9277429999999998
 10
8667.919159429354
 20
1091.284671656845
 42
-0.8476239999999998
 10
8667.918421284404
 20
1091.285415411605
 42
-0.358022
 10
8667.921880000065
 20
1091.285952993711
 42
0.580626
 10
8667.922182511494
 20
1091.286125675943
 10
8667.922182511494
 20
1091.29337172919
 42
0.4142140000000001
 10
8667.921981970044
 20
1091.29357227064
 10
8667.892911353106
 20
1091.29357227064
 42
0.6584750000000001
 10
8667.892765778729
 20
1091.293233798118
 42
-0.113179
 10
8667.895954379764
 20
1091.287829534928
 42
0.326721
 10
8667.896145505125
 20
1091.28768972144
 10
8667.900374341398
 20
1091.28768972144
 42
-0.236668
 10
8667.900776106138
 20
1091.287488268195
 10
8667.901589115883
 20
1091.286399108863
 42
0.31539
 10
8667.902135442934
 20
1091.286218950446
 42
-1.345489999999999
 10
8667.902135442934
 20
1091.280938292984
 42
0.31539
 10
8667.901589115883
 20
1091.28075813323
 10
8667.900776106138
 20
1091.279668975235
 42
-0.236668
 10
8667.900374341398
 20
1091.27946752199
 10
8667.896145505125
 20
1091.27946752199
 42
0.326721
 10
8667.895954379764
 20
1091.279327707165
 42
-0.113179
 10
8667.892765778729
 20
1091.273923445312
 42
0.6584750000000001
 10
8667.892911353106
 20
1091.27358497279
 10
8667.921981970044
 20
1091.27358497279
 42
0.4142140000000001
  0
LWPOLYLINE
  5
320A
330
1F
100
AcDbEntity
  8
SANINDUSA
100
AcDbPolyline
 90
       40
 70
     1
 43
0.0
 10
8667.902087738132
 20
1091.282096943939
 42
0.9823030000000001
 10
8667.901599350182
 20
1091.282448104051
 10
8667.900183102398
 20
1091.280550809468
 42
-0.236668
 10
8667.900022396501
 20
1091.28047022924
 10
8667.898318078945
 20
1091.28047022924
 42
-0.4142140000000001
 10
8667.898117537495
 20
1091.28067077069
 10
8667.898117537495
 20
1091.28107185359
 42
1.0
 10
8667.897114830244
 20
1091.28107185359
 10
8667.897114830244
 20
1091.28067077069
 42
-0.4142140000000001
 10
8667.896914288794
 20
1091.28047022924
 10
8667.895621948886
 20
1091.28047022924
 42
0.337188
 10
8667.895138749612
 20
1091.280102569915
 42
-0.155554
 10
8667.890808376528
 20
1091.273472321973
 42
0.705638
 10
8667.891125022119
 20
1091.27258226554
 10
8667.927196047745
 20
1091.27258226554
 42
1.0
 10
8667.927196047745
 20
1091.27358497279
 10
8667.923385760195
 20
1091.27358497279
 42
-0.4142140000000001
 10
8667.923185218745
 20
1091.27378551424
 10
8667.923185218745
 20
1091.29337172919
 42
-0.4142140000000001
 10
8667.923385760195
 20
1091.29357227064
 10
8667.927196047745
 20
1091.29357227064
 42
1.0
 10
8667.927196047745
 20
1091.29457497789
 10
8667.891125022119
 20
1091.29457497789
 42
0.705638
 10
8667.890808376528
 20
1091.29368492012
 42
-0.155554
 10
8667.895138749612
 20
1091.287054673515
 42
0.337188
 10
8667.895621948886
 20
1091.28668701419
 10
8667.896914288794
 20
1091.28668701419
 42
-0.4142140000000001
 10
8667.897114830244
 20
1091.28648647274
 10
8667.897114830244
 20
1091.28608538984
 42
1.0
 10
8667.898117537495
 20
1091.28608538984
 10
8667.898117537495
 20
1091.28648647274
 42
-0.4142140000000001
 10
8667.898318078945
 20
1091.28668701419
 10
8667.900022396501
 20
1091.28668701419
 42
-0.236668
 10
8667.900183102398
 20
1091.286606432624
 10
8667.901597473115
 20
1091.284688030386
 42
0.962241
 10
8667.902075142794
 20
1091.285053062618
 42
-0.266788
 10
8667.903773326456
 20
1091.285060298153
 42
0.9153349999999999
 10
8667.904234037013
 20
1091.284677050073
 42
-0.362743
 10
8667.904243350157
 20
1091.282491340788
 42
0.9153349999999999
 10
8667.903785921796
 20
1091.282104179475
 42
-0.266788
  0
LWPOLYLINE
  5
320B
330
1F
100
AcDbEntity
  8
SANINDUSA
100
AcDbPolyline
 90
       82
 70
     0
 43
0.0
 10
8667.928700085893
 20
1091.271274883686
 42
0.290181
 10
8667.930423937521
 20
1091.268554691329
 42
-0.290181
 10
8667.930705500392
 20
1091.268110393083
 10
8667.930705500392
 20
1091.268088229242
 42
-0.549295
 10
8667.930005604047
 20
1091.267643369481
 42
-0.187401
 10
8667.928000656139
 20
1091.269744910182
 42
0.407685
 10
8667.925423495292
 20
1091.270850324067
 42
-0.063888
 10
8667.9142725123
 20
1091.268104537273
 42
-0.447961
 10
8667.914160852159
 20
1091.268204158244
 10
8667.914160852159
 20
1091.268504971755
 42
0.4142140000000001
 10
8667.914060581434
 20
1091.26860524248
 10
8667.904234050382
 20
1091.26860524248
 42
0.4142140000000001
 10
8667.904133779657
 20
1091.268504971755
 10
8667.904133779657
 20
1091.268204152896
 42
-0.447961
 10
8667.904022119515
 20
1091.268104531925
 42
-0.07583
 10
8667.890889765606
 20
1091.27167125921
 42
-0.296841
 10
8667.890597243816
 20
1091.272120568318
 10
8667.890597243816
 20
1091.272124478877
 42
-0.4142140000000001
 10
8667.891088570369
 20
1091.272615805429
 10
8667.898117514766
 20
1091.272615805429
 42
-1.0
 10
8667.898117514766
 20
1091.271613098179
 10
8667.894837057728
 20
1091.271613098179
 42
0.846441
 10
8667.894771713301
 20
1091.271222959494
 42
0.04816
 10
8667.903016869399
 20
1091.2692432143
 42
0.455659
 10
8667.903131072408
 20
1091.26934251173
 10
8667.903131072408
 20
1091.269507679005
 42
-0.4142140000000001
 10
8667.903231343132
 20
1091.269607949731
 10
8667.905437299083
 20
1091.269607949731
 42
0.4142140000000001
 10
8667.905637840533
 20
1091.269808491181
 10
8667.905637819142
 20
1091.271412556729
 42
0.4142140000000001
 10
8667.905437277692
 20
1091.271613098179
 10
8667.904133758268
 20
1091.271613098179
 42
-1.0
 10
8667.904133758268
 20
1091.272615805429
 10
8667.908144587267
 20
1091.272615805429
 42
-1.0
 10
8667.908144587267
 20
1091.271613098179
 10
8667.906841067841
 20
1091.271613098179
 42
0.4142140000000001
 10
8667.906640526391
 20
1091.271412556729
 10
8667.906640526391
 20
1091.269808491181
 42
0.4142140000000001
 10
8667.906841067841
 20
1091.269607949731
 10
8667.915063288683
 20
1091.269607949731
 42
-0.4142140000000001
 10
8667.915163559408
 20
1091.269507679005
 10
8667.915163559408
 20
1091.269342518415
 42
0.455659
 10
8667.915277763752
 20
1091.269243220984
 42
0.012812
 10
8667.917507765961
 20
1091.269614609044
 42
0.359414
 10
8667.917670306144
 20
1091.269811516682
 10
8667.917670306144
 20
1091.271412556729
 42
0.4142140000000001
 10
8667.917469764693
 20
1091.271613098179
 10
8667.915664891642
 20
1091.271613098179
 42
-1.0
 10
8667.915664891642
 20
1091.272615805429
 10
8667.918171659767
 20
1091.272615805429
 42
-0.4142140000000001
 10
8667.918673013392
 20
1091.272114451804
 10
8667.918673013392
 20
1091.270106297908
 42
0.48124
 10
8667.918917966751
 20
1091.269910735233
 42
0.036447
 10
8667.925061801406
 20
1091.271785523717
 42
-0.203565
 10
8667.927412486784
 20
1091.271708850037
 42
0.547941
 10
8667.927697401371
 20
1091.271890778566
 10
8667.927697401371
 20
1091.294475878327
 42
0.414223
 10
8667.927496853236
 20
1091.294676419777
 10
8667.891098614822
 20
1091.294675187115
 42
-1.0
 10
8667.89109858006
 20
1091.295677894365
 10
8667.927496866605
 20
1091.295679127027
 42
0.414204
 10
8667.927697401371
 20
1091.295879668477
 10
8667.927697401371
 20
1091.296011904172
 42
-0.29091
 10
8667.930005628113
 20
1091.299643417041
 42
-0.549295
 10
8667.93070552312
 20
1091.299198557279
 10
8667.93070552312
 20
1091.299176394775
 42
-0.290181
 10
8667.93042396025
 20
1091.29873209653
 42
0.290181
 10
8667.928700108619
 20
1091.296011904172
 10
8667.928700108619
 20
1091.295679167135
 10
8667.928700108619
 20
1091.291868574762
 42
0.4142140000000001
 10
8667.928900650069
 20
1091.291668033312
 10
8667.929702795817
 20
1091.291668033312
 42
-1.0
 10
8667.929702795817
 20
1091.290665326062
 10
8667.928900650069
 20
1091.290665326062
 42
0.4142140000000001
 10
8667.928700108619
 20
1091.290464784612
 10
8667.928700108619
 20
1091.276827439257
 42
0.4142140000000001
 10
8667.928900650069
 20
1091.276626897807
 10
8667.929702795817
 20
1091.276626897807
 42
-1.0
 10
8667.929702795817
 20
1091.275624190557
 10
8667.928900650069
 20
1091.275624190557
 42
0.4142140000000001
 10
8667.928700108619
 20
1091.275423649107
 10
8667.928700108619
 20
1091.271263049067
  0
LWPOLYLINE
  5
320C
330
1F
100
AcDbEntity
  8
SANINDUSA
100
AcDbPolyline
 90
        8
 70
     1
 43
0.0
 10
8667.894045648971
 20
1091.284734993182
 42
0.774767
 10
8667.871972968713
 20
1091.288122901667
 42
0.538397
 10
8667.872157305076
 20
1091.287843385657
 10
8667.883977096478
 20
1091.287843385657
 42
-0.4142140000000001
 10
8667.886483864602
 20
1091.285336617532
 10
8667.886483864602
 20
1091.28468485782
 42
0.4142140000000001
 10
8667.886985218228
 20
1091.284183504195
 10
8667.893546808798
 20
1091.284183504195
 42
0.443866
  0
LWPOLYLINE
  5
320D
330
1F
100
AcDbEntity
  8
SANINDUSA
100
AcDbPolyline
 90
       25
 70
     1
 43
0.0
 10
8667.317646287477
 20
1091.28073923153
 42
0.155972
 10
8667.318486278068
 20
1091.279285096118
 42
0.8476239999999998
 10
8667.319236221537
 20
1091.280016802348
 42
0.9277429999999998
 10
8667.318858813224
 20
1091.280483078599
 42
-0.266788
 10
8667.318866048759
 20
1091.282181092469
 42
0.9153349999999999
 10
8667.319253171301
 20
1091.282638475375
 42
-0.362743
 10
8667.321438661327
 20
1091.282629163567
 42
0.9153349999999999
 10
8667.321821871974
 20
1091.282168498466
 42
-0.266788
 10
8667.321814636437
 20
1091.280470484596
 42
0.9277429999999998
 10
8667.321433268099
 20
1091.280007441072
 42
0.8476239999999998
 10
8667.322176949328
 20
1091.279269369657
 42
0.068567
 10
8667.322664634047
 20
1091.279842666859
 42
-0.449667
 10
8667.322960951421
 20
1091.279889782067
 42
0.173581
 10
8667.324551713049
 20
1091.279320374032
 10
8667.336162918614
 20
1091.279320374032
 42
-0.5903850000000001
 10
8667.336332564648
 20
1091.279012886501
 42
-0.181456
 10
8667.3253890097
 20
1091.270705483673
 42
-0.072703
 10
8667.325331605381
 20
1091.270697091682
 10
8667.311459832417
 20
1091.270697091682
 42
-0.06939
 10
8667.31140496695
 20
1091.270704743007
 42
-0.130293
 10
8667.300140845156
 20
1091.277399395504
 42
-0.664579
 10
8667.300284057153
 20
1091.27774031998
 10
8667.312327773137
 20
1091.27774031998
 42
0.185339
 10
8667.315011540484
 20
1091.278770521463
 10
8667.317316148121
 20
1091.280845600052
 42
-0.5757060000000001
  0
ARC
  5
320E
330
1F
100
AcDbEntity
  8
SANINDUSA
100
AcDbCircle
 10
8667.31840024846
 20
1091.295298270738
 30
0.0
 40
0.026571742125
100
AcDbArc
 50
219.4162709772959
 51
258.9502240144205
  0
ARC
  5
320F
330
1F
100
AcDbEntity
  8
SANINDUSA
100
AcDbCircle
 10
8667.319792185272
 20
1091.289440135454
 30
0.0
 40
0.020555498625
100
AcDbArc
 50
280.5926580054419
 51
331.3392869954715
  0
LINE
  5
3210
330
1F
100
AcDbEntity
  8
SANINDUSA
100
AcDbLine
 10
8667.322874357621
 20
1091.287199509898
 30
0.0
 11
8667.314340598313
 21
1091.279515678677
 31
0.0
  0
LINE
  5
3211
330
1F
100
AcDbEntity
  8
SANINDUSA
100
AcDbLine
 10
8667.323047652175
 20
1091.281827142157
 30
0.0
 11
8667.323047652175
 21
1091.285336617532
 31
0.0
  0
LINE
  5
3212
330
1F
100
AcDbEntity
  8
SANINDUSA
100
AcDbLine
 10
8667.334579115774
 20
1091.28673660809
 30
0.0
 11
8667.334879597722
 21
1091.287037088704
 31
0.0
  0
LINE
  5
3213
330
1F
100
AcDbEntity
  8
SANINDUSA
100
AcDbLine
 10
8667.334879597722
 20
1091.287037088704
 30
0.0
 11
8667.335180078337
 21
1091.28673660809
 31
0.0
  0
LINE
  5
3214
330
1F
100
AcDbEntity
  8
SANINDUSA
100
AcDbLine
 10
8667.328869970756
 20
1091.287037088704
 30
0.0
 11
8667.329170452706
 21
1091.28673660809
 31
0.0
  0
LINE
  5
3215
330
1F
100
AcDbEntity
  8
SANINDUSA
100
AcDbLine
 10
8667.328569490143
 20
1091.28673660809
 30
0.0
 11
8667.328869970756
 21
1091.287037088704
 31
0.0
  0
LINE
  5
3216
330
1F
100
AcDbEntity
  8
SANINDUSA
100
AcDbLine
 10
8667.331874784908
 20
1091.287037088704
 30
0.0
 11
8667.332175265521
 21
1091.28673660809
 31
0.0
  0
LINE
  5
3217
330
1F
100
AcDbEntity
  8
SANINDUSA
100
AcDbLine
 10
8667.331574302957
 20
1091.28673660809
 30
0.0
 11
8667.331874784908
 21
1091.287037088704
 31
0.0
  0
LINE
  5
3218
330
1F
100
AcDbEntity
  8
SANINDUSA
100
AcDbLine
 10
8667.325865157939
 20
1091.287037088704
 30
0.0
 11
8667.32616563989
 21
1091.28673660809
 31
0.0
  0
LINE
  5
3219
330
1F
100
AcDbEntity
  8
SANINDUSA
100
AcDbLine
 10
8667.325564677325
 20
1091.28673660809
 30
0.0
 11
8667.325865157939
 21
1091.287037088704
 31
0.0
  0
LINE
  5
321A
330
1F
100
AcDbEntity
  8
SANINDUSA
100
AcDbLine
 10
8667.337386365849
 20
1091.287843385657
 30
0.0
 11
8667.324551713049
 21
1091.287843385657
 31
0.0
  0
LINE
  5
321B
330
1F
100
AcDbEntity
  8
SANINDUSA
100
AcDbLine
 10
8667.335180078337
 20
1091.28673660809
 30
0.0
 11
8667.33528414999
 21
1091.286840678407
 31
0.0
  0
LINE
  5
321C
330
1F
100
AcDbEntity
  8
SANINDUSA
100
AcDbLine
 10
8667.337386365849
 20
1091.286840678407
 30
0.0
 11
8667.33528414999
 21
1091.286840678407
 31
0.0
  0
LINE
  5
321D
330
1F
100
AcDbEntity
  8
SANINDUSA
100
AcDbLine
 10
8667.334478956016
 20
1091.286836767849
 30
0.0
 11
8667.334579115774
 21
1091.28673660809
 31
0.0
  0
LINE
  5
321E
330
1F
100
AcDbEntity
  8
SANINDUSA
100
AcDbLine
 10
8667.3314741432
 20
1091.286836767849
 30
0.0
 11
8667.3292706138
 21
1091.286836767849
 31
0.0
  0
LINE
  5
321F
330
1F
100
AcDbEntity
  8
SANINDUSA
100
AcDbLine
 10
8667.329170452706
 20
1091.28673660809
 30
0.0
 11
8667.3292706138
 21
1091.286836767849
 31
0.0
  0
LINE
  5
3220
330
1F
100
AcDbEntity
  8
SANINDUSA
100
AcDbLine
 10
8667.332175265521
 20
1091.28673660809
 30
0.0
 11
8667.332275426618
 21
1091.286836767849
 31
0.0
  0
LINE
  5
3221
330
1F
100
AcDbEntity
  8
SANINDUSA
100
AcDbLine
 10
8667.3314741432
 20
1091.286836767849
 30
0.0
 11
8667.331574302957
 21
1091.28673660809
 31
0.0
  0
LINE
  5
3222
330
1F
100
AcDbEntity
  8
SANINDUSA
100
AcDbLine
 10
8667.332275426618
 20
1091.286836767849
 30
0.0
 11
8667.334478956016
 21
1091.286836767849
 31
0.0
  0
LINE
  5
3223
330
1F
100
AcDbEntity
  8
SANINDUSA
100
AcDbLine
 10
8667.328469329047
 20
1091.286836767849
 30
0.0
 11
8667.328569490143
 21
1091.28673660809
 31
0.0
  0
LINE
  5
3224
330
1F
100
AcDbEntity
  8
SANINDUSA
100
AcDbLine
 10
8667.32616563989
 20
1091.28673660809
 30
0.0
 11
8667.326265799648
 21
1091.286836767849
 31
0.0
  0
LINE
  5
3225
330
1F
100
AcDbEntity
  8
SANINDUSA
100
AcDbLine
 10
8667.325464516229
 20
1091.286836767849
 30
0.0
 11
8667.325564677325
 21
1091.28673660809
 31
0.0
  0
LINE
  5
3226
330
1F
100
AcDbEntity
  8
SANINDUSA
100
AcDbLine
 10
8667.325464516229
 20
1091.286836767849
 30
0.0
 11
8667.324551713049
 21
1091.286840678407
 31
0.0
  0
LINE
  5
3227
330
1F
100
AcDbEntity
  8
SANINDUSA
100
AcDbLine
 10
8667.328469329047
 20
1091.286836767849
 30
0.0
 11
8667.326265799648
 21
1091.286836767849
 31
0.0
  0
LINE
  5
3228
330
1F
100
AcDbEntity
  8
SANINDUSA
100
AcDbLine
 10
8667.328569490143
 20
1091.280427151599
 30
0.0
 11
8667.328869970756
 21
1091.280126670986
 31
0.0
  0
LINE
  5
3229
330
1F
100
AcDbEntity
  8
SANINDUSA
100
AcDbLine
 10
8667.334579115774
 20
1091.280427151599
 30
0.0
 11
8667.334879597722
 21
1091.280126670986
 31
0.0
  0
LINE
  5
322A
330
1F
100
AcDbEntity
  8
SANINDUSA
100
AcDbLine
 10
8667.334879597722
 20
1091.280126670986
 30
0.0
 11
8667.335180078337
 21
1091.280427151599
 31
0.0
  0
LINE
  5
322B
330
1F
100
AcDbEntity
  8
SANINDUSA
100
AcDbLine
 10
8667.335180078337
 20
1091.280427151599
 30
0.0
 11
8667.33528414999
 21
1091.280323081282
 31
0.0
  0
LINE
  5
322C
330
1F
100
AcDbEntity
  8
SANINDUSA
100
AcDbLine
 10
8667.337389201506
 20
1091.280323081282
 30
0.0
 11
8667.33528414999
 21
1091.280323081282
 31
0.0
  0
LINE
  5
322D
330
1F
100
AcDbEntity
  8
SANINDUSA
100
AcDbLine
 10
8667.334478956016
 20
1091.280326991841
 30
0.0
 11
8667.334579115774
 21
1091.280427151599
 31
0.0
  0
LINE
  5
322E
330
1F
100
AcDbEntity
  8
SANINDUSA
100
AcDbLine
 10
8667.3314741432
 20
1091.280326991841
 30
0.0
 11
8667.3292706138
 21
1091.280326991841
 31
0.0
  0
LINE
  5
322F
330
1F
100
AcDbEntity
  8
SANINDUSA
100
AcDbLine
 10
8667.328869970756
 20
1091.280126670986
 30
0.0
 11
8667.329170452706
 21
1091.280427151599
 31
0.0
  0
LINE
  5
3230
330
1F
100
AcDbEntity
  8
SANINDUSA
100
AcDbLine
 10
8667.329170452706
 20
1091.280427151599
 30
0.0
 11
8667.3292706138
 21
1091.280326991841
 31
0.0
  0
LINE
  5
3231
330
1F
100
AcDbEntity
  8
SANINDUSA
100
AcDbLine
 10
8667.331874784908
 20
1091.280126670986
 30
0.0
 11
8667.332175265521
 21
1091.280427151599
 31
0.0
  0
LINE
  5
3232
330
1F
100
AcDbEntity
  8
SANINDUSA
100
AcDbLine
 10
8667.332175265521
 20
1091.280427151599
 30
0.0
 11
8667.332275426618
 21
1091.280326991841
 31
0.0
  0
LINE
  5
3233
330
1F
100
AcDbEntity
  8
SANINDUSA
100
AcDbLine
 10
8667.3314741432
 20
1091.280326991841
 30
0.0
 11
8667.331574302957
 21
1091.280427151599
 31
0.0
  0
LINE
  5
3234
330
1F
100
AcDbEntity
  8
SANINDUSA
100
AcDbLine
 10
8667.331574302957
 20
1091.280427151599
 30
0.0
 11
8667.331874784908
 21
1091.280126670986
 31
0.0
  0
LINE
  5
3235
330
1F
100
AcDbEntity
  8
SANINDUSA
100
AcDbLine
 10
8667.332275426618
 20
1091.280326991841
 30
0.0
 11
8667.334478956016
 21
1091.280326991841
 31
0.0
  0
LINE
  5
3236
330
1F
100
AcDbEntity
  8
SANINDUSA
100
AcDbLine
 10
8667.328469329047
 20
1091.280326991841
 30
0.0
 11
8667.328569490143
 21
1091.280427151599
 31
0.0
  0
LINE
  5
3237
330
1F
100
AcDbEntity
  8
SANINDUSA
100
AcDbLine
 10
8667.325865157939
 20
1091.280126670986
 30
0.0
 11
8667.32616563989
 21
1091.280427151599
 31
0.0
  0
LINE
  5
3238
330
1F
100
AcDbEntity
  8
SANINDUSA
100
AcDbLine
 10
8667.32616563989
 20
1091.280427151599
 30
0.0
 11
8667.326265799648
 21
1091.280326991841
 31
0.0
  0
LINE
  5
3239
330
1F
100
AcDbEntity
  8
SANINDUSA
100
AcDbLine
 10
8667.325464516229
 20
1091.280326991841
 30
0.0
 11
8667.325564677325
 21
1091.280427151599
 31
0.0
  0
LINE
  5
323A
330
1F
100
AcDbEntity
  8
SANINDUSA
100
AcDbLine
 10
8667.325564677325
 20
1091.280427151599
 30
0.0
 11
8667.325865157939
 21
1091.280126670986
 31
0.0
  0
LINE
  5
323B
330
1F
100
AcDbEntity
  8
SANINDUSA
100
AcDbLine
 10
8667.325464516229
 20
1091.280326991841
 30
0.0
 11
8667.324551713049
 21
1091.280323081282
 31
0.0
  0
LINE
  5
323C
330
1F
100
AcDbEntity
  8
SANINDUSA
100
AcDbLine
 10
8667.328469329047
 20
1091.280326991841
 30
0.0
 11
8667.326265799648
 21
1091.280326991841
 31
0.0
  0
LINE
  5
323D
330
1F
100
AcDbEntity
  8
SANINDUSA
100
AcDbLine
 10
8667.312327773137
 20
1091.27874302723
 30
0.0
 11
8667.299005275184
 21
1091.27874302723
 31
0.0
  0
ARC
  5
323E
330
1F
100
AcDbEntity
  8
SANINDUSA
100
AcDbCircle
 10
8667.337386365849
 20
1091.287342032032
 30
0.0
 40
0.000501353625
100
AcDbArc
 50
270.0
 51
90.0
  0
ARC
  5
323F
330
1F
100
AcDbEntity
  8
SANINDUSA
100
AcDbCircle
 10
8667.324551713049
 20
1091.285336617532
 30
0.0
 40
0.001504060875
100
AcDbArc
 50
90.0
 51
180.0
  0
ARC
  5
3240
330
1F
100
AcDbEntity
  8
SANINDUSA
100
AcDbCircle
 10
8667.324551713049
 20
1091.285336617532
 30
0.0
 40
0.002506768125
100
AcDbArc
 50
90.0
 51
131.9999999919911
  0
ARC
  5
3241
330
1F
100
AcDbEntity
  8
SANINDUSA
100
AcDbCircle
 10
8667.337389201506
 20
1091.279821727658
 30
0.0
 40
0.000501353625
100
AcDbArc
 50
331.3392869954715
 51
90.0
  0
ARC
  5
3242
330
1F
100
AcDbEntity
  8
SANINDUSA
100
AcDbCircle
 10
8667.324551713049
 20
1091.281827142157
 30
0.0
 40
0.001504060875
100
AcDbArc
 50
180.0
 51
270.0
  0
ARC
  5
3243
330
1F
100
AcDbEntity
  8
SANINDUSA
100
AcDbCircle
 10
8667.312327773137
 20
1091.28175114898
 30
0.0
 40
0.00300812175
100
AcDbArc
 50
270.0
 51
311.9999999919912
  0
ARC
  5
3244
330
1F
100
AcDbEntity
  8
SANINDUSA
100
AcDbCircle
 10
8667.318558291167
 20
1091.295263419307
 30
0.0
 40
0.0256693056
100
AcDbArc
 50
219.1428689820278
 51
219.8499380041006
  0
ARC
  5
3245
330
1F
100
AcDbEntity
  8
SANINDUSA
100
AcDbCircle
 10
8667.298260999016
 20
1091.27874302723
 30
0.0
 40
0.000501353625
100
AcDbArc
 50
39.14286898202782
 51
219.1428689820278
  0
ARC
  5
3246
330
1F
100
AcDbEntity
  8
SANINDUSA
100
AcDbCircle
 10
8667.299005275184
 20
1091.27894356868
 30
0.0
 40
0.00020054145
100
AcDbArc
 50
219.8499380041006
 51
270.0
  0
LINE
  5
3247
330
1F
100
AcDbEntity
  8
SANINDUSA
100
AcDbLine
 10
8667.313526877315
 20
1091.269694384432
 30
0.0
 11
8667.323353408365
 21
1091.269694384432
 31
0.0
  0
LINE
  5
3248
330
1F
100
AcDbEntity
  8
SANINDUSA
100
AcDbLine
 10
8667.32345367909
 20
1091.269594113708
 30
0.0
 11
8667.32345367909
 21
1091.269333768123
 31
0.0
  0
LINE
  5
3249
330
1F
100
AcDbEntity
  8
SANINDUSA
100
AcDbLine
 10
8667.31342660659
 20
1091.269317619189
 30
0.0
 11
8667.31342660659
 21
1091.269594113708
 31
0.0
  0
ARC
  5
324A
330
1F
100
AcDbEntity
  8
SANINDUSA
100
AcDbCircle
 10
8667.323553949815
 20
1091.269333768123
 30
0.0
 40
0.000100270725
100
AcDbArc
 50
180.0
 51
279.6789680225213
  0
ARC
  5
324B
330
1F
100
AcDbEntity
  8
SANINDUSA
100
AcDbCircle
 10
8667.323353408365
 20
1091.269594113708
 30
0.0
 40
0.000100270725
100
AcDbArc
 50
0.0
 51
90.0
  0
ARC
  5
324C
330
1F
100
AcDbEntity
  8
SANINDUSA
100
AcDbCircle
 10
8667.313326335865
 20
1091.269317619189
 30
0.0
 40
0.000100270725
100
AcDbArc
 50
259.1513610096456
 51
0.0
  0
ARC
  5
324D
330
1F
100
AcDbEntity
  8
SANINDUSA
100
AcDbCircle
 10
8667.313526877315
 20
1091.269594113708
 30
0.0
 40
0.000100270725
100
AcDbArc
 50
90.0
 51
180.0
  0
POINT
  5
324E
330
1F
100
AcDbEntity
  8
SANINDUSA
100
AcDbPoint
 10
8667.313307463578
 20
1091.269219139967
 30
0.0
 50
270.0
  0
LINE
  5
324F
330
1F
100
AcDbEntity
  8
SANINDUSA
100
AcDbLine
 10
8667.846596549889
 20
1091.280573758095
 30
0.0
 11
8667.323720312118
 21
1091.280573758095
 31
0.0
  0
LINE
  5
3250
330
1F
100
AcDbEntity
  8
SANINDUSA
100
AcDbLine
 10
8667.847677019093
 20
1091.286590001595
 30
0.0
 11
8667.323720312118
 21
1091.286590001595
 31
0.0
  0
LINE
  5
3253
330
1F
100
AcDbEntity
  8
SANINDUSA
100
AcDbLine
 10
8667.927697401371
 20
1091.286654233684
 30
0.0
 11
8667.928700108619
 21
1091.286654233684
 31
0.0
  0
LINE
  5
3254
330
1F
100
AcDbEntity
  8
SANINDUSA
100
AcDbLine
 10
8667.927697401371
 20
1091.280637990184
 30
0.0
 11
8667.928700108619
 21
1091.280637990184
 31
0.0
  0
LINE
  5
3257
330
1F
100
AcDbEntity
  8
SANINDUSA
100
AcDbLine
 10
8667.323720312118
 20
1091.280573758095
 30
0.0
 11
8667.323720312118
 21
1091.286590001595
 31
0.0
  0
LINE
  5
3258
330
1F
100
AcDbEntity
  8
SANINDUSA
100
AcDbLine
 10
8667.311425335276
 20
1091.28676468523
 30
0.0
 11
8667.311325064551
 21
1091.286664414505
 31
0.0
  0
LINE
  5
3259
330
1F
100
AcDbEntity
  8
SANINDUSA
100
AcDbLine
 10
8667.311325064551
 20
1091.286664414505
 30
0.0
 11
8667.311024252375
 21
1091.28696522668
 31
0.0
  0
LINE
  5
325A
330
1F
100
AcDbEntity
  8
SANINDUSA
100
AcDbLine
 10
8667.311024252375
 20
1091.28696522668
 30
0.0
 11
8667.3107234402
 21
1091.286664414505
 31
0.0
  0
LINE
  5
325B
330
1F
100
AcDbEntity
  8
SANINDUSA
100
AcDbLine
 10
8667.3107234402
 20
1091.286664414505
 30
0.0
 11
8667.310623169475
 21
1091.28676468523
 31
0.0
  0
LINE
  5
325C
330
1F
100
AcDbEntity
  8
SANINDUSA
100
AcDbLine
 10
8667.310623169475
 20
1091.28676468523
 30
0.0
 11
8667.308417213526
 21
1091.28676468523
 31
0.0
  0
LINE
  5
325D
330
1F
100
AcDbEntity
  8
SANINDUSA
100
AcDbLine
 10
8667.308417213526
 20
1091.28676468523
 30
0.0
 11
8667.308316942801
 21
1091.286664414505
 31
0.0
  0
LINE
  5
325E
330
1F
100
AcDbEntity
  8
SANINDUSA
100
AcDbLine
 10
8667.308316942801
 20
1091.286664414505
 30
0.0
 11
8667.308016130625
 21
1091.28696522668
 31
0.0
  0
LINE
  5
325F
330
1F
100
AcDbEntity
  8
SANINDUSA
100
AcDbLine
 10
8667.308016130625
 20
1091.28696522668
 30
0.0
 11
8667.30771531845
 21
1091.286664414505
 31
0.0
  0
LINE
  5
3260
330
1F
100
AcDbEntity
  8
SANINDUSA
100
AcDbLine
 10
8667.30771531845
 20
1091.286664414505
 30
0.0
 11
8667.307615047727
 21
1091.28676468523
 31
0.0
  0
LINE
  5
3261
330
1F
100
AcDbEntity
  8
SANINDUSA
100
AcDbLine
 10
8667.307615047727
 20
1091.28676468523
 30
0.0
 11
8667.305409091776
 21
1091.28676468523
 31
0.0
  0
LINE
  5
3262
330
1F
100
AcDbEntity
  8
SANINDUSA
100
AcDbLine
 10
8667.305409091776
 20
1091.28676468523
 30
0.0
 11
8667.305308821051
 21
1091.286664414505
 31
0.0
  0
LINE
  5
3263
330
1F
100
AcDbEntity
  8
SANINDUSA
100
AcDbLine
 10
8667.305308821051
 20
1091.286664414505
 30
0.0
 11
8667.305008008876
 21
1091.28696522668
 31
0.0
  0
LINE
  5
3264
330
1F
100
AcDbEntity
  8
SANINDUSA
100
AcDbLine
 10
8667.305008008876
 20
1091.28696522668
 30
0.0
 11
8667.304707196702
 21
1091.286664414505
 31
0.0
  0
LINE
  5
3265
330
1F
100
AcDbEntity
  8
SANINDUSA
100
AcDbLine
 10
8667.304707196702
 20
1091.286664414505
 30
0.0
 11
8667.304606925977
 21
1091.28676468523
 31
0.0
  0
LINE
  5
3266
330
1F
100
AcDbEntity
  8
SANINDUSA
100
AcDbLine
 10
8667.304606925977
 20
1091.28676468523
 30
0.0
 11
8667.302400970026
 21
1091.28676468523
 31
0.0
  0
LINE
  5
3267
330
1F
100
AcDbEntity
  8
SANINDUSA
100
AcDbLine
 10
8667.302400970026
 20
1091.28676468523
 30
0.0
 11
8667.302300699301
 21
1091.286664414505
 31
0.0
  0
LINE
  5
3268
330
1F
100
AcDbEntity
  8
SANINDUSA
100
AcDbLine
 10
8667.302300699301
 20
1091.286664414505
 30
0.0
 11
8667.301999887126
 21
1091.28696522668
 31
0.0
  0
LINE
  5
3269
330
1F
100
AcDbEntity
  8
SANINDUSA
100
AcDbLine
 10
8667.301999887126
 20
1091.28696522668
 30
0.0
 11
8667.301699074952
 21
1091.286664414505
 31
0.0
  0
LINE
  5
326A
330
1F
100
AcDbEntity
  8
SANINDUSA
100
AcDbLine
 10
8667.301699074952
 20
1091.286664414505
 30
0.0
 11
8667.301598804227
 21
1091.28676468523
 31
0.0
  0
LINE
  5
326B
330
1F
100
AcDbEntity
  8
SANINDUSA
100
AcDbLine
 10
8667.301598804227
 20
1091.28676468523
 30
0.0
 11
8667.299493119001
 21
1091.28676468523
 31
0.0
  0
ARC
  5
326C
330
1F
100
AcDbEntity
  8
SANINDUSA
100
AcDbCircle
 10
8667.299493119001
 20
1091.287266038855
 30
0.0
 40
0.000501353625
100
AcDbArc
 50
149.0502769897372
 51
270.0
  0
ARC
  5
326D
330
1F
100
AcDbEntity
  8
SANINDUSA
100
AcDbCircle
 10
8667.329591044277
 20
1091.269217308355
 30
0.0
 40
0.035596107375
100
AcDbArc
 50
90.0
 51
149.0502769897372
  0
ARC
  5
326E
330
1F
100
AcDbEntity
  8
SANINDUSA
100
AcDbCircle
 10
8667.329591044277
 20
1091.29679175773
 30
0.0
 40
0.008021658
100
AcDbArc
 50
270.0
 51
90.0
  0
LINE
  5
326F
330
1F
100
AcDbEntity
  8
SANINDUSA
100
AcDbLine
 10
8667.329591044277
 20
1091.28877009973
 30
0.0
 11
8667.325024123194
 21
1091.28877009973
 31
0.0
  0
ARC
  5
3270
330
1F
100
AcDbEntity
  8
SANINDUSA
100
AcDbCircle
 10
8667.325024123194
 20
1091.28576197798
 30
0.0
 40
0.00300812175
100
AcDbArc
 50
90.0
 51
131.9999999919911
  0
LINE
  5
3271
330
1F
100
AcDbEntity
  8
SANINDUSA
100
AcDbLine
 10
8667.323011296684
 20
1091.287997448284
 30
0.0
 11
8667.314005127229
 21
1091.279888257952
 31
0.0
  0
ARC
  5
3272
330
1F
100
AcDbEntity
  8
SANINDUSA
100
AcDbCircle
 10
8667.312327771801
 20
1091.28175114898
 30
0.0
 40
0.002506768125
100
AcDbArc
 50
270.0
 51
311.9999999919912
  0
LINE
  5
3273
330
1F
100
AcDbEntity
  8
SANINDUSA
100
AcDbLine
 10
8667.312327771801
 20
1091.279244380855
 30
0.0
 11
8667.299493119001
 21
1091.279244380855
 31
0.0
  0
ARC
  5
3274
330
1F
100
AcDbEntity
  8
SANINDUSA
100
AcDbCircle
 10
8667.299493119001
 20
1091.27974573448
 30
0.0
 40
0.000501353625
100
AcDbArc
 50
90.0
 51
270.0
  0
LINE
  5
3275
330
1F
100
AcDbEntity
  8
SANINDUSA
100
AcDbLine
 10
8667.299493119001
 20
1091.280247088105
 30
0.0
 11
8667.301598804227
 21
1091.280247088105
 31
0.0
  0
LINE
  5
3276
330
1F
100
AcDbEntity
  8
SANINDUSA
100
AcDbLine
 10
8667.301598804227
 20
1091.280247088105
 30
0.0
 11
8667.301699074952
 21
1091.28034735883
 31
0.0
  0
LINE
  5
3277
330
1F
100
AcDbEntity
  8
SANINDUSA
100
AcDbLine
 10
8667.301699074952
 20
1091.28034735883
 30
0.0
 11
8667.301999887126
 21
1091.280046546655
 31
0.0
  0
LINE
  5
3278
330
1F
100
AcDbEntity
  8
SANINDUSA
100
AcDbLine
 10
8667.301999887126
 20
1091.280046546655
 30
0.0
 11
8667.302300699301
 21
1091.28034735883
 31
0.0
  0
LINE
  5
3279
330
1F
100
AcDbEntity
  8
SANINDUSA
100
AcDbLine
 10
8667.302300699301
 20
1091.28034735883
 30
0.0
 11
8667.302400970026
 21
1091.280247088105
 31
0.0
  0
LINE
  5
327A
330
1F
100
AcDbEntity
  8
SANINDUSA
100
AcDbLine
 10
8667.302400970026
 20
1091.280247088105
 30
0.0
 11
8667.304606925977
 21
1091.280247088105
 31
0.0
  0
LINE
  5
327B
330
1F
100
AcDbEntity
  8
SANINDUSA
100
AcDbLine
 10
8667.304606925977
 20
1091.280247088105
 30
0.0
 11
8667.304707196702
 21
1091.28034735883
 31
0.0
  0
LINE
  5
327C
330
1F
100
AcDbEntity
  8
SANINDUSA
100
AcDbLine
 10
8667.304707196702
 20
1091.28034735883
 30
0.0
 11
8667.305008008876
 21
1091.280046546655
 31
0.0
  0
LINE
  5
327D
330
1F
100
AcDbEntity
  8
SANINDUSA
100
AcDbLine
 10
8667.305008008876
 20
1091.280046546655
 30
0.0
 11
8667.305308821051
 21
1091.28034735883
 31
0.0
  0
LINE
  5
327E
330
1F
100
AcDbEntity
  8
SANINDUSA
100
AcDbLine
 10
8667.305308821051
 20
1091.28034735883
 30
0.0
 11
8667.305409091776
 21
1091.280247088105
 31
0.0
  0
LINE
  5
327F
330
1F
100
AcDbEntity
  8
SANINDUSA
100
AcDbLine
 10
8667.305409091776
 20
1091.280247088105
 30
0.0
 11
8667.307615047727
 21
1091.280247088105
 31
0.0
  0
LINE
  5
3280
330
1F
100
AcDbEntity
  8
SANINDUSA
100
AcDbLine
 10
8667.307615047727
 20
1091.280247088105
 30
0.0
 11
8667.30771531845
 21
1091.28034735883
 31
0.0
  0
LINE
  5
3281
330
1F
100
AcDbEntity
  8
SANINDUSA
100
AcDbLine
 10
8667.30771531845
 20
1091.28034735883
 30
0.0
 11
8667.308016130625
 21
1091.280046546655
 31
0.0
  0
LINE
  5
3282
330
1F
100
AcDbEntity
  8
SANINDUSA
100
AcDbLine
 10
8667.308016130625
 20
1091.280046546655
 30
0.0
 11
8667.308316942801
 21
1091.28034735883
 31
0.0
  0
LINE
  5
3283
330
1F
100
AcDbEntity
  8
SANINDUSA
100
AcDbLine
 10
8667.308316942801
 20
1091.28034735883
 30
0.0
 11
8667.308417213526
 21
1091.280247088105
 31
0.0
  0
LINE
  5
3284
330
1F
100
AcDbEntity
  8
SANINDUSA
100
AcDbLine
 10
8667.308417213526
 20
1091.280247088105
 30
0.0
 11
8667.310623169475
 21
1091.280247088105
 31
0.0
  0
LINE
  5
3285
330
1F
100
AcDbEntity
  8
SANINDUSA
100
AcDbLine
 10
8667.310623169475
 20
1091.280247088105
 30
0.0
 11
8667.3107234402
 21
1091.28034735883
 31
0.0
  0
LINE
  5
3286
330
1F
100
AcDbEntity
  8
SANINDUSA
100
AcDbLine
 10
8667.3107234402
 20
1091.28034735883
 30
0.0
 11
8667.311024252375
 21
1091.280046546655
 31
0.0
  0
LINE
  5
3287
330
1F
100
AcDbEntity
  8
SANINDUSA
100
AcDbLine
 10
8667.311024252375
 20
1091.280046546655
 30
0.0
 11
8667.311325064551
 21
1091.28034735883
 31
0.0
  0
LINE
  5
3288
330
1F
100
AcDbEntity
  8
SANINDUSA
100
AcDbLine
 10
8667.311325064551
 20
1091.28034735883
 30
0.0
 11
8667.311425335276
 21
1091.280247088105
 31
0.0
  0
LINE
  5
3289
330
1F
100
AcDbEntity
  8
SANINDUSA
100
AcDbLine
 10
8667.311425335276
 20
1091.280247088105
 30
0.0
 11
8667.312327771801
 21
1091.280247088105
 31
0.0
  0
ARC
  5
328A
330
1F
100
AcDbEntity
  8
SANINDUSA
100
AcDbCircle
 10
8667.312327771801
 20
1091.28175114898
 30
0.0
 40
0.001504060875
100
AcDbArc
 50
270.0
 51
0.0
  0
LINE
  5
328B
330
1F
100
AcDbEntity
  8
SANINDUSA
100
AcDbLine
 10
8667.313831832677
 20
1091.28175114898
 30
0.0
 11
8667.313831832677
 21
1091.285260624355
 31
0.0
  0
ARC
  5
328C
330
1F
100
AcDbEntity
  8
SANINDUSA
100
AcDbCircle
 10
8667.312327771801
 20
1091.285260624355
 30
0.0
 40
0.001504060875
100
AcDbArc
 50
0.0
 51
90.0
  0
LINE
  5
328D
330
1F
100
AcDbEntity
  8
SANINDUSA
100
AcDbLine
 10
8667.312327771801
 20
1091.28676468523
 30
0.0
 11
8667.311425335276
 21
1091.28676468523
 31
0.0
  0
LINE
  5
328E
330
1F
100
AcDbEntity
  8
SANINDUSA
100
AcDbLine
 10
8667.300759068991
 20
1091.28776739248
 30
0.0
 11
8667.312327771801
 21
1091.28776739248
 31
0.0
  0
ARC
  5
328F
330
1F
100
AcDbEntity
  8
SANINDUSA
100
AcDbCircle
 10
8667.312327771801
 20
1091.285260624355
 30
0.0
 40
0.002506768125
100
AcDbArc
 50
0.0
 51
90.0
  0
LINE
  5
3290
330
1F
100
AcDbEntity
  8
SANINDUSA
100
AcDbLine
 10
8667.314834539926
 20
1091.285260624355
 30
0.0
 11
8667.314834539926
 21
1091.282434764034
 31
0.0
  0
ARC
  5
3291
330
1F
100
AcDbEntity
  8
SANINDUSA
100
AcDbCircle
 10
8667.315035081376
 20
1091.282434764034
 30
0.0
 40
0.00020054145
100
AcDbArc
 50
180.0
 51
311.9999999919912
  0
LINE
  5
3292
330
1F
100
AcDbEntity
  8
SANINDUSA
100
AcDbLine
 10
8667.315169270345
 20
1091.282285732324
 30
0.0
 11
8667.322340354512
 21
1091.288742605498
 31
0.0
  0
ARC
  5
3293
330
1F
100
AcDbEntity
  8
SANINDUSA
100
AcDbCircle
 10
8667.325024123194
 20
1091.28576197798
 30
0.0
 40
0.004010829
100
AcDbArc
 50
90.0
 51
131.9999999919911
  0
LINE
  5
3294
330
1F
100
AcDbEntity
  8
SANINDUSA
100
AcDbLine
 10
8667.325024123194
 20
1091.28977280698
 30
0.0
 11
8667.329591044277
 21
1091.28977280698
 31
0.0
  0
ARC
  5
3295
330
1F
100
AcDbEntity
  8
SANINDUSA
100
AcDbCircle
 10
8667.329591044277
 20
1091.29679175773
 30
0.0
 40
0.00701895075
100
AcDbArc
 50
270.0
 51
90.0
  0
ARC
  5
3296
330
1F
100
AcDbEntity
  8
SANINDUSA
100
AcDbCircle
 10
8667.329591044277
 20
1091.269217308355
 30
0.0
 40
0.034593400125
100
AcDbArc
 50
90.0
 51
146.9623849794611
  0
ARC
  5
3297
330
1F
100
AcDbEntity
  8
SANINDUSA
100
AcDbCircle
 10
8667.300759068991
 20
1091.28796793393
 30
0.0
 40
0.00020054145
100
AcDbArc
 50
146.9623849794611
 51
270.0
  0
POINT
  5
3298
330
1F
100
AcDbEntity
  8
SANINDUSA
100
AcDbPoint
 10
8667.329591044277
 20
1091.28877009973
 30
0.0
 50
90.00000000000003
  0
CIRCLE
  5
3299
330
1F
100
AcDbEntity
  8
SANINDUSA
100
AcDbCircle
 10
8667.329591044277
 20
1091.29679175773
 30
0.0
 40
0.00157113530531
  0
LINE
  5
329A
330
1F
100
AcDbEntity
  8
SANINDUSA
100
AcDbLine
 10
8666.750759645394
 20
1091.280573758095
 30
0.0
 11
8666.750759645394
 21
1091.286590001595
 31
0.0
  0
LINE
  5
329B
330
1F
100
AcDbEntity
  8
SANINDUSA
100
AcDbLine
 10
8667.313031302375
 20
1091.280573758095
 30
0.0
 11
8666.750759645394
 21
1091.280573758095
 31
0.0
  0
LINE
  5
329C
330
1F
100
AcDbEntity
  8
SANINDUSA
100
AcDbLine
 10
8667.313031302375
 20
1091.286590001595
 30
0.0
 11
8666.750759645394
 21
1091.286590001595
 31
0.0
  0
LINE
  5
329D
330
1F
100
AcDbEntity
  8
SANINDUSA
100
AcDbLine
 10
8667.313031302375
 20
1091.286590001595
 30
0.0
 11
8667.313031302375
 21
1091.280573758095
 31
0.0
  0
CIRCLE
  5
32DF
330
1F
100
AcDbEntity
  8
SANINDUSA
 48
3.0
100
AcDbCircle
 10
8667.329591044277
 20
1091.29679175773
 30
0.0
 40
0.00157113530531
  0
CIRCLE
  5
3325
330
1F
100
AcDbEntity
  8
SANINDUSA
 48
3.0
100
AcDbCircle
 10
8667.329591044277
 20
1091.29679175773
 30
0.0
 40
0.00157113530531
  0
ENDSEC
  0
SECTION
  2
OBJECTS
  0
DICTIONARY
  5
C
330
0
100
AcDbDictionary
281
     1
  3
ACAD_BACKGROUND
350
3573
  3
ACAD_COLOR
350
16A7
  3
ACAD_GROUP
350
D
  3
ACAD_LAYOUT
350
1A
  3
ACAD_MATERIAL
350
16A6
  3
ACAD_MLEADERSTYLE
350
2CB2
  3
ACAD_MLINESTYLE
350
17
  3
ACAD_PLOTSETTINGS
350
19
  3
ACAD_PLOTSTYLENAME
350
E
  3
ACAD_SCALELIST
350
2CA0
  3
ACAD_TABLESTYLE
350
16A8
  3
ACAD_VISUALSTYLE
350
2C8C
  3
ACDB_RECOMPOSE_DATA
350
35C6
  3
AcDbVariableDictionary
350
3D
  3
AEC_PROPERTY_SET_DEFS
350
309C
  3
ASE_INDEX_DICTIONARY
350
B91
  3
Autodesk_PNP
350
2CBA
  3
DWGPROPS
350
35C7
  0
DICTIONARY
  5
34D6
330
8
100
AcDbDictionary
280
     1
281
     1
  0
DICTIONARY
  5
34B4
330
10
100
AcDbDictionary
280
     1
281
     1
  3
ADSK_XREC_LAYER_RECONCILED
360
34B5
  0
DICTIONARY
  5
34B6
330
2F
100
AcDbDictionary
280
     1
281
     1
  3
ADSK_XREC_LAYER_RECONCILED
360
34B7
  0
DICTIONARY
  5
34B8
330
30
100
AcDbDictionary
280
     1
281
     1
  3
ADSK_XREC_LAYER_RECONCILED
360
34B9
  0
DICTIONARY
  5
34BA
330
31
100
AcDbDictionary
280
     1
281
     1
  3
ADSK_XREC_LAYER_RECONCILED
360
34BB
  0
DICTIONARY
  5
34BC
330
32
100
AcDbDictionary
280
     1
281
     1
  3
ADSK_XREC_LAYER_RECONCILED
360
34BD
  0
DICTIONARY
  5
34BE
330
33
100
AcDbDictionary
280
     1
281
     1
  3
ADSK_XREC_LAYER_RECONCILED
360
34BF
  0
DICTIONARY
  5
34C0
330
34
100
AcDbDictionary
280
     1
281
     1
  3
ADSK_XREC_LAYER_RECONCILED
360
34C1
  0
DICTIONARY
  5
34C2
330
35
100
AcDbDictionary
280
     1
281
     1
  3
ADSK_XREC_LAYER_RECONCILED
360
34C3
  0
DICTIONARY
  5
34C4
330
36
100
AcDbDictionary
280
     1
281
     1
  3
ADSK_XREC_LAYER_RECONCILED
360
34C5
  0
DICTIONARY
  5
34C6
330
37
100
AcDbDictionary
280
     1
281
     1
  3
ADSK_XREC_LAYER_RECONCILED
360
34C7
  0
DICTIONARY
  5
34C8
330
5D6
100
AcDbDictionary
280
     1
281
     1
  3
ADSK_XREC_LAYER_RECONCILED
360
34C9
  0
DICTIONARY
  5
34CA
330
8AF
100
AcDbDictionary
280
     1
281
     1
  3
ADSK_XREC_LAYER_RECONCILED
360
34CB
  0
DICTIONARY
  5
34CC
330
8F8
100
AcDbDictionary
280
     1
281
     1
  3
ADSK_XREC_LAYER_RECONCILED
360
34CD
  0
DICTIONARY
  5
34CE
330
91D
100
AcDbDictionary
280
     1
281
     1
  3
ADSK_XREC_LAYER_RECONCILED
360
34CF
  0
DICTIONARY
  5
34D0
330
1D70
100
AcDbDictionary
280
     1
281
     1
  3
ADSK_XREC_LAYER_RECONCILED
360
34D1
  0
DICTIONARY
  5
2607
330
1F
100
AcDbDictionary
280
     1
281
     1
  3
ACAD_SORTENTS
360
2608
  0
DICTIONARY
  5
3573
102
{ACAD_REACTORS
330
C
102
}
330
C
100
AcDbDictionary
281
     1
  0
DICTIONARY
  5
16A7
102
{ACAD_REACTORS
330
C
102
}
330
C
100
AcDbDictionary
281
     1
  0
DICTIONARY
  5
D
102
{ACAD_REACTORS
330
C
102
}
330
C
100
AcDbDictionary
281
     1
  0
DICTIONARY
  5
1A
102
{ACAD_REACTORS
330
C
102
}
330
C
100
AcDbDictionary
281
     1
  3
Layout1
350
1E
  3
Layout2
350
26
  3
Model
350
22
  0
DICTIONARY
  5
16A6
102
{ACAD_REACTORS
330
C
102
}
330
C
100
AcDbDictionary
281
     1
  3
ByBlock
350
2C7C
  3
ByLayer
350
2C74
  3
Global
350
2C84
  0
DICTIONARY
  5
2CB2
102
{ACAD_REACTORS
330
C
102
}
330
C
100
AcDbDictionary
281
     1
  3
Standard
350
2CB3
  0
DICTIONARY
  5
17
102
{ACAD_REACTORS
330
C
102
}
330
C
100
AcDbDictionary
281
     1
  3
Standard
350
18
  0
DICTIONARY
  5
19
102
{ACAD_REACTORS
330
C
102
}
330
C
100
AcDbDictionary
281
     1
  0
ACDBDICTIONARYWDFLT
  5
E
102
{ACAD_REACTORS
330
C
102
}
330
C
100
AcDbDictionary
281
     1
  3
Normal
350
F
100
AcDbDictionaryWithDefault
340
F
  0
DICTIONARY
  5
2CA0
102
{ACAD_REACTORS
330
C
102
}
330
C
100
AcDbDictionary
281
     1
  3
A0
350
2CA1
  3
A1
350
2CA2
  3
A2
350
2CA3
  3
A3
350
2CA4
  3
A4
350
2CA5
  3
A5
350
2CA6
  3
A6
350
2CA7
  3
A7
350
2CA8
  3
A8
350
2CA9
  3
A9
350
2CAA
  3
B0
350
2CAB
  3
B1
350
2CAC
  3
B2
350
2CAD
  3
B3
350
2CAE
  3
B4
350
2CAF
  3
B5
350
2CB0
  3
B6
350
2CB1
  0
DICTIONARY
  5
16A8
102
{ACAD_REACTORS
330
C
102
}
330
C
100
AcDbDictionary
281
     1
  3
Standard
350
16A9
  0
DICTIONARY
  5
2C8C
102
{ACAD_REACTORS
330
C
102
}
330
C
100
AcDbDictionary
281
     1
  3
2dWireframe
350
2C92
  3
3D Hidden
350
2C94
  3
3dWireframe
350
2C93
  3
Basic
350
2C91
  3
Brighten
350
2C98
  3
ColorChange
350
2C9C
  3
Conceptual
350
2C95
  3
Dim
350
2C97
  3
EdgeColorOff
350
2C9F
  3
Facepattern
350
2C9B
  3
Flat
350
2C8D
  3
FlatWithEdges
350
2C8E
  3
Gouraud
350
2C8F
  3
GouraudWithEdges
350
2C90
  3
JitterOff
350
2C9D
  3
Linepattern
350
2C9A
  3
OverhangOff
350
2C9E
  3
Realistic
350
2C96
  3
Thicken
350
2C99
  0
XRECORD
  5
35C6
102
{ACAD_REACTORS
330
C
102
}
330
C
100
AcDbXrecord
280
     1
 90
        1
330
16A9
  0
DICTIONARY
  5
3D
102
{ACAD_REACTORS
330
C
102
}
330
C
100
AcDbDictionary
281
     1
  3
CANNOSCALE
350
3516
  3
CMLEADERSTYLE
350
3515
  3
CTABLESTYLE
350
20BB
  3
DIMASSOC
350
3F
  3
HIDETEXT
350
3E
  3
INDEXCTL
350
3518
  3
PROJECTNAME
350
2C59
  3
SORTENTS
350
3517
  3
XCLIPFRAME
350
35C4
  0
DICTIONARY
  5
309C
102
{ACAD_REACTORS
330
C
102
}
330
C
100
AcDbDictionary
281
     1
  0
DICTIONARY
  5
B91
102
{ACAD_REACTORS
330
C
102
}
330
C
100
AcDbDictionary
281
     1
  3
ASEBlockHierarchyIndexRecord
350
B92
1001
DCO15
1040
1485069952.593
  0
DICTIONARY
  5
2CBA
102
{ACAD_REACTORS
330
C
102
}
330
C
100
AcDbDictionary
281
     1
  0
XRECORD
  5
35C7
102
{ACAD_REACTORS
330
C
102
}
330
C
100
AcDbXrecord
280
     1
  1
DWGPROPS COOKIE
  2

  3

  4

  6

  7

  8
Julio
  9

300
=
301
=
302
=
303
=
304
=
305
=
306
=
307
=
308
=
309
=
 40
0.1135421990740741
 41
2453388.70675184
 42
2455817.478623403
  1

 90
        0
  0
XRECORD
  5
34B5
102
{ACAD_REACTORS
330
34B4
102
}
330
34B4
100
AcDbXrecord
280
     1
290
     1
  0
XRECORD
  5
34B7
102
{ACAD_REACTORS
330
34B6
102
}
330
34B6
100
AcDbXrecord
280
     1
290
     1
  0
XRECORD
  5
34B9
102
{ACAD_REACTORS
330
34B8
102
}
330
34B8
100
AcDbXrecord
280
     1
290
     1
  0
XRECORD
  5
34BB
102
{ACAD_REACTORS
330
34BA
102
}
330
34BA
100
AcDbXrecord
280
     1
290
     1
  0
XRECORD
  5
34BD
102
{ACAD_REACTORS
330
34BC
102
}
330
34BC
100
AcDbXrecord
280
     1
290
     1
  0
XRECORD
  5
34BF
102
{ACAD_REACTORS
330
34BE
102
}
330
34BE
100
AcDbXrecord
280
     1
290
     1
  0
XRECORD
  5
34C1
102
{ACAD_REACTORS
330
34C0
102
}
330
34C0
100
AcDbXrecord
280
     1
290
     1
  0
XRECORD
  5
34C3
102
{ACAD_REACTORS
330
34C2
102
}
330
34C2
100
AcDbXrecord
280
     1
290
     1
  0
XRECORD
  5
34C5
102
{ACAD_REACTORS
330
34C4
102
}
330
34C4
100
AcDbXrecord
280
     1
290
     1
  0
XRECORD
  5
34C7
102
{ACAD_REACTORS
330
34C6
102
}
330
34C6
100
AcDbXrecord
280
     1
290
     1
  0
XRECORD
  5
34C9
102
{ACAD_REACTORS
330
34C8
102
}
330
34C8
100
AcDbXrecord
280
     1
290
     1
  0
XRECORD
  5
34CB
102
{ACAD_REACTORS
330
34CA
102
}
330
34CA
100
AcDbXrecord
280
     1
290
     1
  0
XRECORD
  5
34CD
102
{ACAD_REACTORS
330
34CC
102
}
330
34CC
100
AcDbXrecord
280
     1
290
     1
  0
XRECORD
  5
34CF
102
{ACAD_REACTORS
330
34CE
102
}
330
34CE
100
AcDbXrecord
280
     1
290
     1
  0
XRECORD
  5
34D1
102
{ACAD_REACTORS
330
34D0
102
}
330
34D0
100
AcDbXrecord
280
     1
290
     1
  0
SORTENTSTABLE
  5
2608
102
{ACAD_REACTORS
330
2607
102
}
330
2607
100
AcDbSortentsTable
330
1F
  0
LAYOUT
  5
1E
102
{ACAD_XDICTIONARY
360
35C8
102
}
102
{ACAD_REACTORS
330
1A
102
}
330
1A
100
AcDbPlotSettings
  1

  2
Ploter HP500
  4

  6

 40
0.0
 41
0.0
 42
0.0
 43
0.0
 44
0.0
 45
0.0
 46
0.0
 47
0.0
 48
0.0
 49
0.0
140
0.0
141
0.0
142
1.0
143
1.0
 70
   688
 72
     0
 73
     0
 74
     5
  7
monochrome.ctb
 75
    16
147
1.0
148
0.0
149
0.0
100
AcDbLayout
  1
Layout1
 70
     1
 71
     1
 10
0.0
 20
0.0
 11
420.0
 21
297.0
 12
0.0
 22
0.0
 32
0.0
 14
1.000000000000000E+20
 24
1.000000000000000E+20
 34
1.000000000000000E+20
 15
-1.000000000000000E+20
 25
-1.000000000000000E+20
 35
-1.000000000000000E+20
146
0.0
 13
0.0
 23
0.0
 33
0.0
 16
1.0
 26
0.0
 36
0.0
 17
0.0
 27
1.0
 37
0.0
 76
     0
330
1B
  0
LAYOUT
  5
26
102
{ACAD_XDICTIONARY
360
35CC
102
}
102
{ACAD_REACTORS
330
1A
102
}
330
1A
100
AcDbPlotSettings
  1

  2
Ploter HP500
  4

  6

 40
0.0
 41
0.0
 42
0.0
 43
0.0
 44
0.0
 45
0.0
 46
0.0
 47
0.0
 48
0.0
 49
0.0
140
0.0
141
0.0
142
1.0
143
1.0
 70
   688
 72
     0
 73
     0
 74
     5
  7
monochrome.ctb
 75
    16
147
1.0
148
0.0
149
0.0
100
AcDbLayout
  1
Layout2
 70
     1
 71
     2
 10
0.0
 20
0.0
 11
12.0
 21
9.0
 12
0.0
 22
0.0
 32
0.0
 14
0.0
 24
0.0
 34
0.0
 15
0.0
 25
0.0
 35
0.0
146
0.0
 13
0.0
 23
0.0
 33
0.0
 16
1.0
 26
0.0
 36
0.0
 17
0.0
 27
1.0
 37
0.0
 76
     0
330
23
  0
LAYOUT
  5
22
102
{ACAD_XDICTIONARY
360
35CA
102
}
102
{ACAD_REACTORS
330
1A
102
}
330
1A
100
AcDbPlotSettings
  1

  2
Ploter HP500
  4
User268
  6

 40
4.995333194732666
 41
16.97565841674804
 42
4.995330810546875
 43
16.97567749023437
 44
209.9733276367187
 45
296.9259948730469
 46
0.0
 47
0.0
 48
0.0
 49
0.0
140
0.0
141
0.0
142
1.0
143
1.0
 70
 11952
 72
     1
 73
     1
 74
     0
  7

 75
     0
147
1.0
148
-427.5957866592534
149
7.362384574453926
100
AcDbLayout
  1
Model
 70
     1
 71
     0
 10
0.0
 20
0.0
 11
12.0
 21
9.0
 12
0.0
 22
0.0
 32
0.0
 14
0.0
 24
0.0
 34
0.0
 15
0.0
 25
0.0
 35
0.0
146
0.0
 13
0.0
 23
0.0
 33
0.0
 16
1.0
 26
0.0
 36
0.0
 17
0.0
 27
1.0
 37
0.0
 76
     0
330
1F
331
2C6B
  0
MATERIAL
  5
2C7C
102
{ACAD_XDICTIONARY
360
2C7D
102
}
102
{ACAD_REACTORS
330
16A6
102
}
330
16A6
100
AcDbMaterial
  1
ByBlock
 72
     0
 43
0.0008202099737533
 43
0.0
 43
0.0
 43
0.0
 43
0.0
 43
0.0008202099737533
 43
0.0
 43
0.0
 43
0.0
 43
0.0
 43
1.0
 43
0.0
 43
0.0
 43
0.0
 43
0.0
 43
1.0
 77
     0
 47
0.0008202099737533
 47
0.0
 47
0.0
 47
0.0
 47
0.0
 47
0.0008202099737533
 47
0.0
 47
0.0
 47
0.0
 47
0.0
 47
1.0
 47
0.0
 47
0.0
 47
0.0
 47
0.0
 47
1.0
171
     0
 49
0.0008202099737533
 49
0.0
 49
0.0
 49
0.0
 49
0.0
 49
0.0008202099737533
 49
0.0
 49
0.0
 49
0.0
 49
0.0
 49
1.0
 49
0.0
 49
0.0
 49
0.0
 49
0.0
 49
1.0
175
     0
142
0.0008202099737533
142
0.0
142
0.0
142
0.0
142
0.0
142
0.0008202099737533
142
0.0
142
0.0
142
0.0
142
0.0
142
1.0
142
0.0
142
0.0
142
0.0
142
0.0
142
1.0
179
     0
144
0.0008202099737533
144
0.0
144
0.0
144
0.0
144
0.0
144
0.0008202099737533
144
0.0
144
0.0
144
0.0
144
0.0
144
1.0
144
0.0
144
0.0
144
0.0
144
0.0
144
1.0
147
0.0008202099737533
147
0.0
147
0.0
147
0.0
147
0.0
147
0.0008202099737533
147
0.0
147
0.0
147
0.0
147
0.0
147
1.0
147
0.0
147
0.0
147
0.0
147
0.0
147
1.0
  0
MATERIAL
  5
2C74
102
{ACAD_XDICTIONARY
360
2C75
102
}
102
{ACAD_REACTORS
330
16A6
102
}
330
16A6
100
AcDbMaterial
  1
ByLayer
 72
     0
 43
0.0008202099737533
 43
0.0
 43
0.0
 43
0.0
 43
0.0
 43
0.0008202099737533
 43
0.0
 43
0.0
 43
0.0
 43
0.0
 43
1.0
 43
0.0
 43
0.0
 43
0.0
 43
0.0
 43
1.0
 77
     0
 47
0.0008202099737533
 47
0.0
 47
0.0
 47
0.0
 47
0.0
 47
0.0008202099737533
 47
0.0
 47
0.0
 47
0.0
 47
0.0
 47
1.0
 47
0.0
 47
0.0
 47
0.0
 47
0.0
 47
1.0
171
     0
 49
0.0008202099737533
 49
0.0
 49
0.0
 49
0.0
 49
0.0
 49
0.0008202099737533
 49
0.0
 49
0.0
 49
0.0
 49
0.0
 49
1.0
 49
0.0
 49
0.0
 49
0.0
 49
0.0
 49
1.0
175
     0
142
0.0008202099737533
142
0.0
142
0.0
142
0.0
142
0.0
142
0.0008202099737533
142
0.0
142
0.0
142
0.0
142
0.0
142
1.0
142
0.0
142
0.0
142
0.0
142
0.0
142
1.0
179
     0
144
0.0008202099737533
144
0.0
144
0.0
144
0.0
144
0.0
144
0.0008202099737533
144
0.0
144
0.0
144
0.0
144
0.0
144
1.0
144
0.0
144
0.0
144
0.0
144
0.0
144
1.0
147
0.0008202099737533
147
0.0
147
0.0
147
0.0
147
0.0
147
0.0008202099737533
147
0.0
147
0.0
147
0.0
147
0.0
147
1.0
147
0.0
147
0.0
147
0.0
147
0.0
147
1.0
  0
MATERIAL
  5
2C84
102
{ACAD_XDICTIONARY
360
2C85
102
}
102
{ACAD_REACTORS
330
16A6
102
}
330
16A6
100
AcDbMaterial
  1
Global
 72
     0
 43
0.0008202099737533
 43
0.0
 43
0.0
 43
0.0
 43
0.0
 43
0.0008202099737533
 43
0.0
 43
0.0
 43
0.0
 43
0.0
 43
1.0
 43
0.0
 43
0.0
 43
0.0
 43
0.0
 43
1.0
 77
     0
 47
0.0008202099737533
 47
0.0
 47
0.0
 47
0.0
 47
0.0
 47
0.0008202099737533
 47
0.0
 47
0.0
 47
0.0
 47
0.0
 47
1.0
 47
0.0
 47
0.0
 47
0.0
 47
0.0
 47
1.0
171
     0
 49
0.0008202099737533
 49
0.0
 49
0.0
 49
0.0
 49
0.0
 49
0.0008202099737533
 49
0.0
 49
0.0
 49
0.0
 49
0.0
 49
1.0
 49
0.0
 49
0.0
 49
0.0
 49
0.0
 49
1.0
175
     0
142
0.0008202099737533
142
0.0
142
0.0
142
0.0
142
0.0
142
0.0008202099737533
142
0.0
142
0.0
142
0.0
142
0.0
142
1.0
142
0.0
142
0.0
142
0.0
142
0.0
142
1.0
179
     0
144
0.0008202099737533
144
0.0
144
0.0
144
0.0
144
0.0
144
0.0008202099737533
144
0.0
144
0.0
144
0.0
144
0.0
144
1.0
144
0.0
144
0.0
144
0.0
144
0.0
144
1.0
147
0.0008202099737533
147
0.0
147
0.0
147
0.0
147
0.0
147
0.0008202099737533
147
0.0
147
0.0
147
0.0
147
0.0
147
1.0
147
0.0
147
0.0
147
0.0
147
0.0
147
1.0
  0
MLEADERSTYLE
  5
2CB3
102
{ACAD_REACTORS
330
2CB2
102
}
330
2CB2
100
AcDbMLeaderStyle
170
     2
171
     1
172
     0
 90
        2
 40
0.0
 41
0.0
173
     1
 91
-1056964608
340
14
 92
       -2
290
     1
 42
2.0
291
     1
 43
0.36
  3
Standard
 44
4.0
300

342
11
174
     1
178
     6
175
     1
176
     0
 93
-1056964608
 45
4.0
292
     0
297
     0
 46
4.0
 94
-1056964608
 47
1.0
 49
1.0
140
1.0
293
     1
141
0.0
294
     1
177
     0
142
1.0
295
     0
296
     0
143
0.125
1001
ACAD_MLEADERVER
1070
     2
  0
MLINESTYLE
  5
18
102
{ACAD_REACTORS
330
17
102
}
330
17
100
AcDbMlineStyle
  2
STANDARD
 70
     0
  3

 62
   256
 51
90.0
 52
90.0
 71
     2
 49
0.5
 62
   256
  6
BYLAYER
 49
-0.5
 62
   256
  6
BYLAYER
  0
ACDBPLACEHOLDER
  5
F
102
{ACAD_REACTORS
330
E
102
}
330
E
  0
SCALE
  5
2CA1
102
{ACAD_REACTORS
330
2CA0
102
}
330
2CA0
100
AcDbScale
 70
     0
300
1:1
140
1.0
141
1.0
290
     1
  0
SCALE
  5
2CA2
102
{ACAD_REACTORS
330
2CA0
102
}
330
2CA0
100
AcDbScale
 70
     0
300
1:2
140
1.0
141
2.0
290
     0
  0
SCALE
  5
2CA3
102
{ACAD_REACTORS
330
2CA0
102
}
330
2CA0
100
AcDbScale
 70
     0
300
1:4
140
1.0
141
4.0
290
     0
  0
SCALE
  5
2CA4
102
{ACAD_REACTORS
330
2CA0
102
}
330
2CA0
100
AcDbScale
 70
     0
300
1:5
140
1.0
141
5.0
290
     0
  0
SCALE
  5
2CA5
102
{ACAD_REACTORS
330
2CA0
102
}
330
2CA0
100
AcDbScale
 70
     0
300
1:8
140
1.0
141
8.0
290
     0
  0
SCALE
  5
2CA6
102
{ACAD_REACTORS
330
2CA0
102
}
330
2CA0
100
AcDbScale
 70
     0
300
1:10
140
1.0
141
10.0
290
     0
  0
SCALE
  5
2CA7
102
{ACAD_REACTORS
330
2CA0
102
}
330
2CA0
100
AcDbScale
 70
     0
300
1:16
140
1.0
141
16.0
290
     0
  0
SCALE
  5
2CA8
102
{ACAD_REACTORS
330
2CA0
102
}
330
2CA0
100
AcDbScale
 70
     0
300
1:20
140
1.0
141
20.0
290
     0
  0
SCALE
  5
2CA9
102
{ACAD_REACTORS
330
2CA0
102
}
330
2CA0
100
AcDbScale
 70
     0
300
1:30
140
1.0
141
30.0
290
     0
  0
SCALE
  5
2CAA
102
{ACAD_REACTORS
330
2CA0
102
}
330
2CA0
100
AcDbScale
 70
     0
300
1:40
140
1.0
141
40.0
290
     0
  0
SCALE
  5
2CAB
102
{ACAD_REACTORS
330
2CA0
102
}
330
2CA0
100
AcDbScale
 70
     0
300
1:50
140
1.0
141
50.0
290
     0
  0
SCALE
  5
2CAC
102
{ACAD_REACTORS
330
2CA0
102
}
330
2CA0
100
AcDbScale
 70
     0
300
1:100
140
1.0
141
100.0
290
     0
  0
SCALE
  5
2CAD
102
{ACAD_REACTORS
330
2CA0
102
}
330
2CA0
100
AcDbScale
 70
     0
300
2:1
140
2.0
141
1.0
290
     0
  0
SCALE
  5
2CAE
102
{ACAD_REACTORS
330
2CA0
102
}
330
2CA0
100
AcDbScale
 70
     0
300
4:1
140
4.0
141
1.0
290
     0
  0
SCALE
  5
2CAF
102
{ACAD_REACTORS
330
2CA0
102
}
330
2CA0
100
AcDbScale
 70
     0
300
8:1
140
8.0
141
1.0
290
     0
  0
SCALE
  5
2CB0
102
{ACAD_REACTORS
330
2CA0
102
}
330
2CA0
100
AcDbScale
 70
     0
300
10:1
140
10.0
141
1.0
290
     0
  0
SCALE
  5
2CB1
102
{ACAD_REACTORS
330
2CA0
102
}
330
2CA0
100
AcDbScale
 70
     0
300
100:1
140
100.0
141
1.0
290
     0
  0
TABLESTYLE
  5
16A9
102
{ACAD_XDICTIONARY
360
34D2
102
}
102
{ACAD_REACTORS
330
16A8
102
}
330
16A8
100
AcDbTableStyle
  3
Standard
 70
     0
 71
     0
 40
1.5
 41
1.5
280
     0
281
     0
  7
Standard
140
4.5
170
     2
 62
     0
 63
     7
283
     0
274
    -2
284
     1
 64
     0
275
    -2
285
     1
 65
     0
276
    -2
286
     1
 66
     0
277
    -2
287
     1
 67
     0
278
    -2
288
     1
 68
     0
279
    -2
289
     1
 69
     0
  7
Standard
140
6.0
170
     5
 62
     0
 63
     7
283
     0
274
    -2
284
     1
 64
     0
275
    -2
285
     1
 65
     0
276
    -2
286
     1
 66
     0
277
    -2
287
     1
 67
     0
278
    -2
288
     1
 68
     0
279
    -2
289
     1
 69
     0
  7
Standard
140
4.5
170
     5
 62
     0
 63
     7
283
     0
274
    -2
284
     1
 64
     0
275
    -2
285
     1
 65
     0
276
    -2
286
     1
 66
     0
277
    -2
287
     1
 67
     0
278
    -2
288
     1
 68
     0
279
    -2
289
     1
 69
     0
  0
VISUALSTYLE
  5
2C92
102
{ACAD_XDICTIONARY
360
35DC
102
}
102
{ACAD_REACTORS
330
2C8C
102
}
330
2C8C
100
AcDbVisualStyle
  2
2dWireframe
 70
     4
 71
     0
 72
     2
 73
     0
 90
        0
 40
-0.6
 41
-30.0
 62
     5
 63
     7
 74
     1
 91
        4
 64
     7
 65
   257
 75
     1
175
     1
 42
1.0
 92
        0
 66
   257
 43
1.0
 76
     1
 77
     6
 78
     2
 67
     7
 79
     5
170
     0
171
     0
290
     0
174
     0
 93
        1
 44
0.0
173
     0
291
     0
 45
0.0
1001
ACAD
1000
AcDbSavedByObjectVersion
1070
     0
  0
VISUALSTYLE
  5
2C94
102
{ACAD_XDICTIONARY
360
35E0
102
}
102
{ACAD_REACTORS
330
2C8C
102
}
330
2C8C
100
AcDbVisualStyle
  2
3D Hidden
 70
     6
 71
     1
 72
     2
 73
     2
 90
        0
 40
-0.6
 41
-30.0
 62
     5
 63
     7
 74
     2
 91
        2
 64
     7
 65
   257
 75
     2
175
     1
 42
179.0
 92
        0
 66
   257
 43
1.0
 76
     1
 77
     6
 78
     2
 67
     7
 79
     3
170
     0
171
     0
290
     0
174
     0
 93
        1
 44
0.0
173
     0
291
     0
 45
0.0
1001
ACAD
1000
AcDbSavedByObjectVersion
1070
     0
  0
VISUALSTYLE
  5
2C93
102
{ACAD_XDICTIONARY
360
35DE
102
}
102
{ACAD_REACTORS
330
2C8C
102
}
330
2C8C
100
AcDbVisualStyle
  2
3dWireframe
 70
     5
 71
     0
 72
     2
 73
     0
 90
        0
 40
-0.6
 41
-30.0
 62
     5
 63
     7
 74
     1
 91
        4
 64
     7
 65
   257
 75
     1
175
     1
 42
1.0
 92
        0
 66
   257
 43
1.0
 76
     1
 77
     6
 78
     2
 67
     7
 79
     5
170
     0
171
     0
290
     0
174
     0
 93
        1
 44
0.0
173
     0
291
     0
 45
0.0
1001
ACAD
1000
AcDbSavedByObjectVersion
1070
     0
  0
VISUALSTYLE
  5
2C91
102
{ACAD_XDICTIONARY
360
35DA
102
}
102
{ACAD_REACTORS
330
2C8C
102
}
330
2C8C
100
AcDbVisualStyle
  2
Basic
 70
     7
 71
     1
 72
     0
 73
     1
 90
        0
 40
-0.6
 41
-30.0
 62
     5
 63
     7
 74
     0
 91
        4
 64
     7
 65
   257
 75
     1
175
     1
 42
1.0
 92
        8
 66
     7
 43
1.0
 76
     1
 77
     6
 78
     2
 67
     7
 79
     5
170
     0
171
     0
290
     0
174
     0
 93
        1
 44
0.0
173
     0
291
     1
 45
0.0
1001
ACAD
1000
AcDbSavedByObjectVersion
1070
     0
  0
VISUALSTYLE
  5
2C98
102
{ACAD_XDICTIONARY
360
35E8
102
}
102
{ACAD_REACTORS
330
2C8C
102
}
330
2C8C
100
AcDbVisualStyle
  2
Brighten
 70
    12
 71
     2
 72
     2
 73
     0
 90
        0
 40
-0.6
 41
-30.0
 62
     5
 63
     7
 74
     1
 91
        4
 64
     7
 65
   257
 75
     1
175
     1
 42
1.0
 92
        8
 66
     7
 43
1.0
 76
     1
 77
     6
 78
     2
 67
     7
 79
     5
170
     0
171
     0
290
     0
174
     0
 93
        1
 44
50.0
173
     0
291
     1
 45
0.0
1001
ACAD
1000
AcDbSavedByObjectVersion
1070
     0
  0
VISUALSTYLE
  5
2C9C
102
{ACAD_XDICTIONARY
360
35F0
102
}
102
{ACAD_REACTORS
330
2C8C
102
}
330
2C8C
100
AcDbVisualStyle
  2
ColorChange
 70
    16
 71
     2
 72
     2
 73
     3
 90
        0
 40
-0.6
 41
-30.0
 62
     5
 63
     8
 74
     1
 91
        4
 64
     7
 65
   257
 75
     1
175
     1
 42
1.0
 92
        8
 66
     8
 43
1.0
 76
     1
 77
     6
 78
     2
 67
     7
 79
     5
170
     0
171
     0
290
     0
174
     0
 93
        1
 44
0.0
173
     0
291
     1
 45
0.0
1001
ACAD
1000
AcDbSavedByObjectVersion
1070
     0
  0
VISUALSTYLE
  5
2C95
102
{ACAD_XDICTIONARY
360
35E2
102
}
102
{ACAD_REACTORS
330
2C8C
102
}
330
2C8C
100
AcDbVisualStyle
  2
Conceptual
 70
     9
 71
     3
 72
     2
 73
     0
 90
        0
 40
-0.6
 41
-30.0
 62
     5
 63
     7
 74
     2
 91
        2
 64
     7
 65
   257
 75
     1
175
     1
 42
179.0
 92
        8
 66
     7
 43
1.0
 76
     1
 77
     6
 78
     2
 67
     7
 79
     3
170
     0
171
     0
290
     0
174
     0
 93
        1
 44
0.0
173
     0
291
     0
 45
0.0
1001
ACAD
1000
AcDbSavedByObjectVersion
1070
     0
  0
VISUALSTYLE
  5
2C97
102
{ACAD_XDICTIONARY
360
35E6
102
}
102
{ACAD_REACTORS
330
2C8C
102
}
330
2C8C
100
AcDbVisualStyle
  2
Dim
 70
    11
 71
     2
 72
     2
 73
     0
 90
        0
 40
-0.6
 41
-30.0
 62
     5
 63
     7
 74
     1
 91
        4
 64
     7
 65
   257
 75
     1
175
     1
 42
1.0
 92
        8
 66
     7
 43
1.0
 76
     1
 77
     6
 78
     2
 67
     7
 79
     5
170
     0
171
     0
290
     0
174
     0
 93
        1
 44
-50.0
173
     0
291
     1
 45
0.0
1001
ACAD
1000
AcDbSavedByObjectVersion
1070
     0
  0
VISUALSTYLE
  5
2C9F
102
{ACAD_XDICTIONARY
360
35F6
102
}
102
{ACAD_REACTORS
330
2C8C
102
}
330
2C8C
100
AcDbVisualStyle
  2
EdgeColorOff
 70
    22
 71
     2
 72
     2
 73
     0
 90
        0
 40
-0.6
 41
-30.0
 62
     5
 63
     7
 74
     1
 91
        4
 64
     7
 65
   257
 75
     1
175
     1
 42
1.0
 92
        8
 66
     7
 43
1.0
 76
     1
 77
     6
 78
     2
 67
     7
 79
     5
170
     0
171
     0
290
     0
174
     0
 93
        1
 44
0.0
173
     0
291
     1
 45
0.0
1001
ACAD
1000
AcDbSavedByObjectVersion
1070
     0
  0
VISUALSTYLE
  5
2C9B
102
{ACAD_XDICTIONARY
360
35EE
102
}
102
{ACAD_REACTORS
330
2C8C
102
}
330
2C8C
100
AcDbVisualStyle
  2
Facepattern
 70
    15
 71
     2
 72
     2
 73
     0
 90
        0
 40
-0.6
 41
-30.0
 62
     5
 63
     7
 74
     1
 91
        4
 64
     7
 65
   257
 75
     1
175
     1
 42
1.0
 92
        8
 66
     7
 43
1.0
 76
     1
 77
     6
 78
     2
 67
     7
 79
     5
170
     0
171
     0
290
     0
174
     0
 93
        1
 44
0.0
173
     0
291
     1
 45
0.0
1001
ACAD
1000
AcDbSavedByObjectVersion
1070
     0
  0
VISUALSTYLE
  5
2C8D
102
{ACAD_XDICTIONARY
360
35D2
102
}
102
{ACAD_REACTORS
330
2C8C
102
}
330
2C8C
100
AcDbVisualStyle
  2
Flat
 70
     0
 71
     2
 72
     1
 73
     1
 90
        2
 40
-0.6
 41
30.0
 62
     5
 63
     7
 74
     0
 91
        4
 64
     7
 65
   257
 75
     1
175
     1
 42
1.0
 92
        8
 66
     7
 43
1.0
 76
     1
 77
     6
 78
     2
 67
     7
 79
     5
170
     0
171
     0
290
     0
174
     0
 93
       13
 44
0.0
173
     0
291
     1
 45
0.0
1001
ACAD
1000
AcDbSavedByObjectVersion
1070
     0
  0
VISUALSTYLE
  5
2C8E
102
{ACAD_XDICTIONARY
360
35D4
102
}
102
{ACAD_REACTORS
330
2C8C
102
}
330
2C8C
100
AcDbVisualStyle
  2
FlatWithEdges
 70
     1
 71
     2
 72
     1
 73
     1
 90
        2
 40
-0.6
 41
30.0
 62
     5
 63
     7
 74
     1
 91
        4
 64
     7
 65
   257
 75
     1
175
     1
 42
1.0
 92
        0
 66
   257
 43
1.0
 76
     1
 77
     6
 78
     2
 67
     7
 79
     5
170
     0
171
     0
290
     0
174
     0
 93
       13
 44
0.0
173
     0
291
     1
 45
0.0
1001
ACAD
1000
AcDbSavedByObjectVersion
1070
     0
  0
VISUALSTYLE
  5
2C8F
102
{ACAD_XDICTIONARY
360
35D6
102
}
102
{ACAD_REACTORS
330
2C8C
102
}
330
2C8C
100
AcDbVisualStyle
  2
Gouraud
 70
     2
 71
     2
 72
     2
 73
     1
 90
        2
 40
-0.6
 41
30.0
 62
     5
 63
     7
 74
     0
 91
        4
 64
     7
 65
   257
 75
     1
175
     1
 42
1.0
 92
        0
 66
     7
 43
1.0
 76
     1
 77
     6
 78
     2
 67
     7
 79
     5
170
     0
171
     0
290
     0
174
     0
 93
       13
 44
0.0
173
     0
291
     1
 45
0.0
1001
ACAD
1000
AcDbSavedByObjectVersion
1070
     0
  0
VISUALSTYLE
  5
2C90
102
{ACAD_XDICTIONARY
360
35D8
102
}
102
{ACAD_REACTORS
330
2C8C
102
}
330
2C8C
100
AcDbVisualStyle
  2
GouraudWithEdges
 70
     3
 71
     2
 72
     2
 73
     1
 90
        2
 40
-0.6
 41
30.0
 62
     5
 63
     7
 74
     1
 91
        4
 64
     7
 65
   257
 75
     1
175
     1
 42
1.0
 92
        0
 66
   257
 43
1.0
 76
     1
 77
     6
 78
     2
 67
     7
 79
     5
170
     0
171
     0
290
     0
174
     0
 93
       13
 44
0.0
173
     0
291
     1
 45
0.0
1001
ACAD
1000
AcDbSavedByObjectVersion
1070
     0
  0
VISUALSTYLE
  5
2C9D
102
{ACAD_XDICTIONARY
360
35F2
102
}
102
{ACAD_REACTORS
330
2C8C
102
}
330
2C8C
100
AcDbVisualStyle
  2
JitterOff
 70
    20
 71
     2
 72
     2
 73
     0
 90
        0
 40
-0.6
 41
-30.0
 62
     5
 63
     7
 74
     1
 91
        4
 64
     7
 65
   257
 75
     1
175
     1
 42
1.0
 92
       10
 66
     7
 43
1.0
 76
     1
 77
     6
 78
     2
 67
     7
 79
     5
170
     0
171
     0
290
     0
174
     0
 93
        1
 44
0.0
173
     0
291
     1
 45
0.0
1001
ACAD
1000
AcDbSavedByObjectVersion
1070
     0
  0
VISUALSTYLE
  5
2C9A
102
{ACAD_XDICTIONARY
360
35EC
102
}
102
{ACAD_REACTORS
330
2C8C
102
}
330
2C8C
100
AcDbVisualStyle
  2
Linepattern
 70
    14
 71
     2
 72
     2
 73
     0
 90
        0
 40
-0.6
 41
-30.0
 62
     5
 63
     7
 74
     1
 91
        4
 64
     7
 65
   257
 75
     7
175
     7
 42
1.0
 92
        8
 66
     7
 43
1.0
 76
     1
 77
     6
 78
     2
 67
     7
 79
     5
170
     0
171
     0
290
     0
174
     0
 93
        1
 44
0.0
173
     0
291
     1
 45
0.0
1001
ACAD
1000
AcDbSavedByObjectVersion
1070
     0
  0
VISUALSTYLE
  5
2C9E
102
{ACAD_XDICTIONARY
360
35F4
102
}
102
{ACAD_REACTORS
330
2C8C
102
}
330
2C8C
100
AcDbVisualStyle
  2
OverhangOff
 70
    21
 71
     2
 72
     2
 73
     0
 90
        0
 40
-0.6
 41
-30.0
 62
     5
 63
     7
 74
     1
 91
        4
 64
     7
 65
   257
 75
     1
175
     1
 42
1.0
 92
        9
 66
     7
 43
1.0
 76
     1
 77
     6
 78
     2
 67
     7
 79
     5
170
     0
171
     0
290
     0
174
     0
 93
        1
 44
0.0
173
     0
291
     1
 45
0.0
1001
ACAD
1000
AcDbSavedByObjectVersion
1070
     0
  0
VISUALSTYLE
  5
2C96
102
{ACAD_XDICTIONARY
360
35E4
102
}
102
{ACAD_REACTORS
330
2C8C
102
}
330
2C8C
100
AcDbVisualStyle
  2
Realistic
 70
     8
 71
     2
 72
     2
 73
     0
 90
        0
 40
-0.6
 41
-30.0
 62
     5
 63
     7
 74
     1
 91
        0
 64
     7
 65
   257
 75
     1
175
     1
 42
1.0
 92
        8
 66
     8
 43
1.0
 76
     1
 77
     6
 78
     2
 67
     7
 79
     5
170
     0
171
     0
290
     0
174
     0
 93
       13
 44
0.0
173
     0
291
     0
 45
0.0
1001
ACAD
1000
AcDbSavedByObjectVersion
1070
     0
  0
VISUALSTYLE
  5
2C99
102
{ACAD_XDICTIONARY
360
35EA
102
}
102
{ACAD_REACTORS
330
2C8C
102
}
330
2C8C
100
AcDbVisualStyle
  2
Thicken
 70
    13
 71
     2
 72
     2
 73
     0
 90
        0
 40
-0.6
 41
-30.0
 62
     5
 63
     7
 74
     1
 91
        4
 64
     7
 65
   257
 75
     1
175
     1
 42
1.0
 92
       12
 66
     7
 43
1.0
 76
     1
 77
     6
 78
     2
 67
     7
 79
     5
170
     0
171
     0
290
     0
174
     0
 93
        1
 44
0.0
173
     0
291
     1
 45
0.0
1001
ACAD
1000
AcDbSavedByObjectVersion
1070
     0
  0
DICTIONARYVAR
  5
3516
102
{ACAD_REACTORS
330
3D
102
}
330
3D
100
DictionaryVariables
280
     0
  1
1:1
  0
DICTIONARYVAR
  5
3515
102
{ACAD_REACTORS
330
3D
102
}
330
3D
100
DictionaryVariables
280
     0
  1
STANDARD
  0
DICTIONARYVAR
  5
20BB
102
{ACAD_REACTORS
330
3D
102
}
330
3D
100
DictionaryVariables
280
     0
  1
STANDARD
  0
DICTIONARYVAR
  5
3F
102
{ACAD_REACTORS
330
3D
102
}
330
3D
100
DictionaryVariables
280
     0
  1
2
  0
DICTIONARYVAR
  5
3E
102
{ACAD_REACTORS
330
3D
102
}
330
3D
100
DictionaryVariables
280
     0
  1
1
  0
DICTIONARYVAR
  5
3518
102
{ACAD_REACTORS
330
3D
102
}
330
3D
100
DictionaryVariables
280
     0
  1
0
  0
DICTIONARYVAR
  5
2C59
102
{ACAD_REACTORS
330
3D
102
}
330
3D
100
DictionaryVariables
280
     0
  1

  0
DICTIONARYVAR
  5
3517
102
{ACAD_REACTORS
330
3D
102
}
330
3D
100
DictionaryVariables
280
     0
  1
127
  0
DICTIONARYVAR
  5
35C4
102
{ACAD_REACTORS
330
3D
102
}
330
3D
100
DictionaryVariables
280
     0
  1
2
  0
XRECORD
  5
B92
102
{ACAD_REACTORS
330
B91
102
}
330
B91
100
AcDbXrecord
280
     1
  0
DICTIONARY
  5
35C8
330
1E
100
AcDbDictionary
280
     1
281
     1
  3
ACAD_XREC_ROUNDTRIP
360
35C9
  0
DICTIONARY
  5
35CC
330
26
100
AcDbDictionary
280
     1
281
     1
  3
ACAD_XREC_ROUNDTRIP
360
35CD
  0
DICTIONARY
  5
35CA
330
22
100
AcDbDictionary
280
     1
281
     1
  3
ACAD_XREC_ROUNDTRIP
360
35CB
  0
DICTIONARY
  5
2C7D
330
2C7C
100
AcDbDictionary
280
     1
281
     1
  3
ACAD_XREC_ROUNDTRIP
360
35D0
  3
BUMPTILE
360
2C7F
  3
DIFFUSETILE
360
2C7E
  3
OPACITYTILE
360
2C82
  3
REFLECTIONTILE
360
2C81
  3
REFRACTIONTILE
360
2C83
  3
SPECULARTILE
360
2C80
  0
DICTIONARY
  5
2C75
330
2C74
100
AcDbDictionary
280
     1
281
     1
  3
ACAD_XREC_ROUNDTRIP
360
35CF
  3
BUMPTILE
360
2C77
  3
DIFFUSETILE
360
2C76
  3
OPACITYTILE
360
2C7A
  3
REFLECTIONTILE
360
2C79
  3
REFRACTIONTILE
360
2C7B
  3
SPECULARTILE
360
2C78
  0
DICTIONARY
  5
2C85
330
2C84
100
AcDbDictionary
280
     1
281
     1
  3
ACAD_XREC_ROUNDTRIP
360
35D1
  3
BUMPTILE
360
2C87
  3
DIFFUSETILE
360
2C86
  3
OPACITYTILE
360
2C8A
  3
REFLECTIONTILE
360
2C89
  3
REFRACTIONTILE
360
2C8B
  3
SPECULARTILE
360
2C88
  0
DICTIONARY
  5
34D2
330
16A9
100
AcDbDictionary
280
     1
281
     1
  3
ACAD_ROUNDTRIP_2008_TABLESTYLE_CELLSTYLEMAP
360
35C5
  3
ACAD_XREC_ROUNDTRIP
360
35CE
  0
DICTIONARY
  5
35DC
330
2C92
100
AcDbDictionary
280
     1
281
     1
  3
ACAD_XREC_ROUNDTRIP
360
35DD
  0
DICTIONARY
  5
35E0
330
2C94
100
AcDbDictionary
280
     1
281
     1
  3
ACAD_XREC_ROUNDTRIP
360
35E1
  0
DICTIONARY
  5
35DE
330
2C93
100
AcDbDictionary
280
     1
281
     1
  3
ACAD_XREC_ROUNDTRIP
360
35DF
  0
DICTIONARY
  5
35DA
330
2C91
100
AcDbDictionary
280
     1
281
     1
  3
ACAD_XREC_ROUNDTRIP
360
35DB
  0
DICTIONARY
  5
35E8
330
2C98
100
AcDbDictionary
280
     1
281
     1
  3
ACAD_XREC_ROUNDTRIP
360
35E9
  0
DICTIONARY
  5
35F0
330
2C9C
100
AcDbDictionary
280
     1
281
     1
  3
ACAD_XREC_ROUNDTRIP
360
35F1
  0
DICTIONARY
  5
35E2
330
2C95
100
AcDbDictionary
280
     1
281
     1
  3
ACAD_XREC_ROUNDTRIP
360
35E3
  0
DICTIONARY
  5
35E6
330
2C97
100
AcDbDictionary
280
     1
281
     1
  3
ACAD_XREC_ROUNDTRIP
360
35E7
  0
DICTIONARY
  5
35F6
330
2C9F
100
AcDbDictionary
280
     1
281
     1
  3
ACAD_XREC_ROUNDTRIP
360
35F7
  0
DICTIONARY
  5
35EE
330
2C9B
100
AcDbDictionary
280
     1
281
     1
  3
ACAD_XREC_ROUNDTRIP
360
35EF
  0
DICTIONARY
  5
35D2
330
2C8D
100
AcDbDictionary
280
     1
281
     1
  3
ACAD_XREC_ROUNDTRIP
360
35D3
  0
DICTIONARY
  5
35D4
330
2C8E
100
AcDbDictionary
280
     1
281
     1
  3
ACAD_XREC_ROUNDTRIP
360
35D5
  0
DICTIONARY
  5
35D6
330
2C8F
100
AcDbDictionary
280
     1
281
     1
  3
ACAD_XREC_ROUNDTRIP
360
35D7
  0
DICTIONARY
  5
35D8
330
2C90
100
AcDbDictionary
280
     1
281
     1
  3
ACAD_XREC_ROUNDTRIP
360
35D9
  0
DICTIONARY
  5
35F2
330
2C9D
100
AcDbDictionary
280
     1
281
     1
  3
ACAD_XREC_ROUNDTRIP
360
35F3
  0
DICTIONARY
  5
35EC
330
2C9A
100
AcDbDictionary
280
     1
281
     1
  3
ACAD_XREC_ROUNDTRIP
360
35ED
  0
DICTIONARY
  5
35F4
330
2C9E
100
AcDbDictionary
280
     1
281
     1
  3
ACAD_XREC_ROUNDTRIP
360
35F5
  0
DICTIONARY
  5
35E4
330
2C96
100
AcDbDictionary
280
     1
281
     1
  3
ACAD_XREC_ROUNDTRIP
360
35E5
  0
DICTIONARY
  5
35EA
330
2C99
100
AcDbDictionary
280
     1
281
     1
  3
ACAD_XREC_ROUNDTRIP
360
35EB
  0
XRECORD
  5
35C9
102
{ACAD_REACTORS
330
35C8
102
}
330
35C8
100
AcDbXrecord
280
     1
102
SHADEPLOT
 70
     0
102
SHADEPLOTRESLEVEL
 70
     2
102
SHADEPLOTCUSTOMDPI
 70
   300
  0
XRECORD
  5
35CD
102
{ACAD_REACTORS
330
35CC
102
}
330
35CC
100
AcDbXrecord
280
     1
102
SHADEPLOT
 70
     0
102
SHADEPLOTRESLEVEL
 70
     2
102
SHADEPLOTCUSTOMDPI
 70
   300
  0
XRECORD
  5
35CB
102
{ACAD_REACTORS
330
35CA
102
}
330
35CA
100
AcDbXrecord
280
     1
102
SHADEPLOT
 70
     0
102
SHADEPLOTRESLEVEL
 70
     2
102
SHADEPLOTCUSTOMDPI
 70
   300
  0
XRECORD
  5
35D0
102
{ACAD_REACTORS
330
2C7D
102
}
330
2C7D
100
AcDbXrecord
280
     1
102
MATERIAL
148
0.0
149
0.0
149
0.0
 93
        0
 94
      127
282
     0
 72
     0
 77
     0
171
     0
175
     0
179
     0
273
     0
  0
XRECORD
  5
2C7F
102
{ACAD_REACTORS
330
2C7D
102
}
330
2C7D
100
AcDbXrecord
280
     1
270
     1
271
     1
  0
XRECORD
  5
2C7E
102
{ACAD_REACTORS
330
2C7D
102
}
330
2C7D
100
AcDbXrecord
280
     1
270
     1
271
     1
  0
XRECORD
  5
2C82
102
{ACAD_REACTORS
330
2C7D
102
}
330
2C7D
100
AcDbXrecord
280
     1
270
     1
271
     1
  0
XRECORD
  5
2C81
102
{ACAD_REACTORS
330
2C7D
102
}
330
2C7D
100
AcDbXrecord
280
     1
270
     1
271
     1
  0
XRECORD
  5
2C83
102
{ACAD_REACTORS
330
2C7D
102
}
330
2C7D
100
AcDbXrecord
280
     1
270
     1
271
     1
  0
XRECORD
  5
2C80
102
{ACAD_REACTORS
330
2C7D
102
}
330
2C7D
100
AcDbXrecord
280
     1
270
     1
271
     1
  0
XRECORD
  5
35CF
102
{ACAD_REACTORS
330
2C75
102
}
330
2C75
100
AcDbXrecord
280
     1
102
MATERIAL
148
0.0
149
0.0
149
0.0
 93
        0
 94
      127
282
     0
 72
     0
 77
     0
171
     0
175
     0
179
     0
273
     0
  0
XRECORD
  5
2C77
102
{ACAD_REACTORS
330
2C75
102
}
330
2C75
100
AcDbXrecord
280
     1
270
     1
271
     1
  0
XRECORD
  5
2C76
102
{ACAD_REACTORS
330
2C75
102
}
330
2C75
100
AcDbXrecord
280
     1
270
     1
271
     1
  0
XRECORD
  5
2C7A
102
{ACAD_REACTORS
330
2C75
102
}
330
2C75
100
AcDbXrecord
280
     1
270
     1
271
     1
  0
XRECORD
  5
2C79
102
{ACAD_REACTORS
330
2C75
102
}
330
2C75
100
AcDbXrecord
280
     1
270
     1
271
     1
  0
XRECORD
  5
2C7B
102
{ACAD_REACTORS
330
2C75
102
}
330
2C75
100
AcDbXrecord
280
     1
270
     1
271
     1
  0
XRECORD
  5
2C78
102
{ACAD_REACTORS
330
2C75
102
}
330
2C75
100
AcDbXrecord
280
     1
270
     1
271
     1
  0
XRECORD
  5
35D1
102
{ACAD_REACTORS
330
2C85
102
}
330
2C85
100
AcDbXrecord
280
     1
102
MATERIAL
148
0.0
149
0.0
149
0.0
 93
        0
 94
      127
282
     0
 72
     0
 77
     0
171
     0
175
     0
179
     0
273
     0
  0
XRECORD
  5
2C87
102
{ACAD_REACTORS
330
2C85
102
}
330
2C85
100
AcDbXrecord
280
     1
270
     1
271
     1
  0
XRECORD
  5
2C86
102
{ACAD_REACTORS
330
2C85
102
}
330
2C85
100
AcDbXrecord
280
     1
270
     1
271
     1
  0
XRECORD
  5
2C8A
102
{ACAD_REACTORS
330
2C85
102
}
330
2C85
100
AcDbXrecord
280
     1
270
     1
271
     1
  0
XRECORD
  5
2C89
102
{ACAD_REACTORS
330
2C85
102
}
330
2C85
100
AcDbXrecord
280
     1
270
     1
271
     1
  0
XRECORD
  5
2C8B
102
{ACAD_REACTORS
330
2C85
102
}
330
2C85
100
AcDbXrecord
280
     1
270
     1
271
     1
  0
XRECORD
  5
2C88
102
{ACAD_REACTORS
330
2C85
102
}
330
2C85
100
AcDbXrecord
280
     1
270
     1
271
     1
  0
CELLSTYLEMAP
  5
35C5
102
{ACAD_REACTORS
330
34D2
102
}
330
34D2
100
AcDbCellStyleMap
 90
        3
300
CELLSTYLE
  1
TABLEFORMAT_BEGIN
 90
        5
170
     1
 91
        0
 92
    32768
 62
   257
 93
        1
300
CONTENTFORMAT
  1
CONTENTFORMAT_BEGIN
 90
        0
 91
        0
 92
        4
 93
        0
300

 40
0.0
140
1.0
 94
        5
 62
     0
340
11
144
6.0
309
CONTENTFORMAT_END
171
     1
301
MARGIN
  1
CELLMARGIN_BEGIN
 40
1.5
 40
1.5
 40
1.5
 40
1.5
 40
0.18
 40
0.18
309
CELLMARGIN_END
 94
        6
 95
        1
302
GRIDFORMAT
  1
GRIDFORMAT_BEGIN
 90
        0
 91
        1
 62
     0
 92
       -2
340
0
 93
        0
 40
0.045
309
GRIDFORMAT_END
 95
        2
302
GRIDFORMAT
  1
GRIDFORMAT_BEGIN
 90
        0
 91
        1
 62
     0
 92
       -2
340
0
 93
        0
 40
0.045
309
GRIDFORMAT_END
 95
        4
302
GRIDFORMAT
  1
GRIDFORMAT_BEGIN
 90
        0
 91
        1
 62
     0
 92
       -2
340
0
 93
        0
 40
0.045
309
GRIDFORMAT_END
 95
        8
302
GRIDFORMAT
  1
GRIDFORMAT_BEGIN
 90
        0
 91
        1
 62
     0
 92
       -2
340
0
 93
        0
 40
0.045
309
GRIDFORMAT_END
 95
       16
302
GRIDFORMAT
  1
GRIDFORMAT_BEGIN
 90
        0
 91
        1
 62
     0
 92
       -2
340
0
 93
        0
 40
0.045
309
GRIDFORMAT_END
 95
       32
302
GRIDFORMAT
  1
GRIDFORMAT_BEGIN
 90
        0
 91
        1
 62
     0
 92
       -2
340
0
 93
        0
 40
0.045
309
GRIDFORMAT_END
309
TABLEFORMAT_END
  1
CELLSTYLE_BEGIN
 90
        1
 91
        1
300
_TITLE
309
CELLSTYLE_END
300
CELLSTYLE
  1
TABLEFORMAT_BEGIN
 90
        5
170
     1
 91
        0
 92
        0
 62
   257
 93
        1
300
CONTENTFORMAT
  1
CONTENTFORMAT_BEGIN
 90
        0
 91
        0
 92
        4
 93
        0
300

 40
0.0
140
1.0
 94
        5
 62
     0
340
11
144
4.5
309
CONTENTFORMAT_END
171
     1
301
MARGIN
  1
CELLMARGIN_BEGIN
 40
1.5
 40
1.5
 40
1.5
 40
1.5
 40
0.18
 40
0.18
309
CELLMARGIN_END
 94
        6
 95
        1
302
GRIDFORMAT
  1
GRIDFORMAT_BEGIN
 90
        0
 91
        1
 62
     0
 92
       -2
340
0
 93
        0
 40
0.045
309
GRIDFORMAT_END
 95
        2
302
GRIDFORMAT
  1
GRIDFORMAT_BEGIN
 90
        0
 91
        1
 62
     0
 92
       -2
340
0
 93
        0
 40
0.045
309
GRIDFORMAT_END
 95
        4
302
GRIDFORMAT
  1
GRIDFORMAT_BEGIN
 90
        0
 91
        1
 62
     0
 92
       -2
340
0
 93
        0
 40
0.045
309
GRIDFORMAT_END
 95
        8
302
GRIDFORMAT
  1
GRIDFORMAT_BEGIN
 90
        0
 91
        1
 62
     0
 92
       -2
340
0
 93
        0
 40
0.045
309
GRIDFORMAT_END
 95
       16
302
GRIDFORMAT
  1
GRIDFORMAT_BEGIN
 90
        0
 91
        1
 62
     0
 92
       -2
340
0
 93
        0
 40
0.045
309
GRIDFORMAT_END
 95
       32
302
GRIDFORMAT
  1
GRIDFORMAT_BEGIN
 90
        0
 91
        1
 62
     0
 92
       -2
340
0
 93
        0
 40
0.045
309
GRIDFORMAT_END
309
TABLEFORMAT_END
  1
CELLSTYLE_BEGIN
 90
        2
 91
        1
300
_HEADER
309
CELLSTYLE_END
300
CELLSTYLE
  1
TABLEFORMAT_BEGIN
 90
        5
170
     1
 91
        0
 92
        0
 62
   257
 93
        1
300
CONTENTFORMAT
  1
CONTENTFORMAT_BEGIN
 90
        0
 91
        0
 92
        4
 93
        0
300

 40
0.0
140
1.0
 94
        2
 62
     0
340
11
144
4.5
309
CONTENTFORMAT_END
171
     1
301
MARGIN
  1
CELLMARGIN_BEGIN
 40
1.5
 40
1.5
 40
1.5
 40
1.5
 40
0.18
 40
0.18
309
CELLMARGIN_END
 94
        6
 95
        1
302
GRIDFORMAT
  1
GRIDFORMAT_BEGIN
 90
        0
 91
        1
 62
     0
 92
       -2
340
0
 93
        0
 40
0.045
309
GRIDFORMAT_END
 95
        2
302
GRIDFORMAT
  1
GRIDFORMAT_BEGIN
 90
        0
 91
        1
 62
     0
 92
       -2
340
0
 93
        0
 40
0.045
309
GRIDFORMAT_END
 95
        4
302
GRIDFORMAT
  1
GRIDFORMAT_BEGIN
 90
        0
 91
        1
 62
     0
 92
       -2
340
0
 93
        0
 40
0.045
309
GRIDFORMAT_END
 95
        8
302
GRIDFORMAT
  1
GRIDFORMAT_BEGIN
 90
        0
 91
        1
 62
     0
 92
       -2
340
0
 93
        0
 40
0.045
309
GRIDFORMAT_END
 95
       16
302
GRIDFORMAT
  1
GRIDFORMAT_BEGIN
 90
        0
 91
        1
 62
     0
 92
       -2
340
0
 93
        0
 40
0.045
309
GRIDFORMAT_END
 95
       32
302
GRIDFORMAT
  1
GRIDFORMAT_BEGIN
 90
        0
 91
        1
 62
     0
 92
       -2
340
0
 93
        0
 40
0.045
309
GRIDFORMAT_END
309
TABLEFORMAT_END
  1
CELLSTYLE_BEGIN
 90
        3
 91
        2
300
_DATA
309
CELLSTYLE_END
  0
XRECORD
  5
35CE
102
{ACAD_REACTORS
330
34D2
102
}
330
34D2
100
AcDbXrecord
280
     1
102
ACAD_ROUNDTRIP_PRE2007_TABLESTYLE
 90
        4
 91
        0
  1

 92
        4
 93
        0
  2

 94
        4
 95
        0
  3

  0
XRECORD
  5
35DD
102
{ACAD_REACTORS
330
35DC
102
}
330
35DC
100
AcDbXrecord
280
     1
102
RTVSPropertyOp0
 70
     1
102
RTVSPropertyOp1
 70
     1
102
RTVSPropertyOp2
 70
     1
102
RTVSPropertyOp3
 70
     1
102
RTVSPropertyOp4
 70
     1
102
RTVSPropertyOp5
 70
     1
102
RTVSPropertyOp6
 70
     1
102
RTVSPropertyOp7
 70
     1
102
RTVSPropertyOp8
 70
     1
102
RTVSPropertyOp9
 70
     1
102
RTVSPropertyOp10
 70
     1
102
RTVSPropertyOp11
 70
     1
102
RTVSPropertyOp12
 70
     1
102
RTVSPropertyOp13
 70
     1
102
RTVSPropertyOp14
 70
     1
102
RTVSPropertyOp15
 70
     1
102
RTVSPropertyOp16
 70
     1
102
RTVSPropertyOp17
 70
     1
102
RTVSPropertyOp18
 70
     1
102
RTVSPropertyOp19
 70
     1
102
RTVSPropertyOp20
 70
     1
102
RTVSPropertyOp21
 70
     1
102
RTVSPropertyOp22
 70
     1
102
RTVSPropertyOp23
 70
     1
102
RTVSPropertyOp24
 70
     1
102
RTVSPropertyOp25
 70
     1
102
RTVSPropertyOp26
 70
     1
102
RTVSPropertyOp27
 70
     1
  0
XRECORD
  5
35E1
102
{ACAD_REACTORS
330
35E0
102
}
330
35E0
100
AcDbXrecord
280
     1
102
RTVSPropertyOp0
 70
     1
102
RTVSPropertyOp1
 70
     1
102
RTVSPropertyOp2
 70
     1
102
RTVSPropertyOp3
 70
     1
102
RTVSPropertyOp4
 70
     1
102
RTVSPropertyOp5
 70
     1
102
RTVSPropertyOp6
 70
     1
102
RTVSPropertyOp7
 70
     1
102
RTVSPropertyOp8
 70
     1
102
RTVSPropertyOp9
 70
     1
102
RTVSPropertyOp10
 70
     1
102
RTVSPropertyOp11
 70
     1
102
RTVSPropertyOp12
 70
     1
102
RTVSPropertyOp13
 70
     1
102
RTVSPropertyOp14
 70
     1
102
RTVSPropertyOp15
 70
     1
102
RTVSPropertyOp16
 70
     1
102
RTVSPropertyOp17
 70
     1
102
RTVSPropertyOp18
 70
     1
102
RTVSPropertyOp19
 70
     1
102
RTVSPropertyOp20
 70
     1
102
RTVSPropertyOp21
 70
     1
102
RTVSPropertyOp22
 70
     1
102
RTVSPropertyOp23
 70
     1
102
RTVSPropertyOp24
 70
     1
102
RTVSPropertyOp25
 70
     1
102
RTVSPropertyOp26
 70
     1
102
RTVSPropertyOp27
 70
     1
  0
XRECORD
  5
35DF
102
{ACAD_REACTORS
330
35DE
102
}
330
35DE
100
AcDbXrecord
280
     1
102
RTVSPropertyOp0
 70
     1
102
RTVSPropertyOp1
 70
     1
102
RTVSPropertyOp2
 70
     1
102
RTVSPropertyOp3
 70
     1
102
RTVSPropertyOp4
 70
     1
102
RTVSPropertyOp5
 70
     1
102
RTVSPropertyOp6
 70
     1
102
RTVSPropertyOp7
 70
     1
102
RTVSPropertyOp8
 70
     1
102
RTVSPropertyOp9
 70
     1
102
RTVSPropertyOp10
 70
     1
102
RTVSPropertyOp11
 70
     1
102
RTVSPropertyOp12
 70
     1
102
RTVSPropertyOp13
 70
     1
102
RTVSPropertyOp14
 70
     1
102
RTVSPropertyOp15
 70
     1
102
RTVSPropertyOp16
 70
     1
102
RTVSPropertyOp17
 70
     1
102
RTVSPropertyOp18
 70
     1
102
RTVSPropertyOp19
 70
     1
102
RTVSPropertyOp20
 70
     1
102
RTVSPropertyOp21
 70
     1
102
RTVSPropertyOp22
 70
     1
102
RTVSPropertyOp23
 70
     1
102
RTVSPropertyOp24
 70
     1
102
RTVSPropertyOp25
 70
     1
102
RTVSPropertyOp26
 70
     1
102
RTVSPropertyOp27
 70
     1
  0
XRECORD
  5
35DB
102
{ACAD_REACTORS
330
35DA
102
}
330
35DA
100
AcDbXrecord
280
     1
102
RTVSPropertyOp0
 70
     1
102
RTVSPropertyOp1
 70
     1
102
RTVSPropertyOp2
 70
     1
102
RTVSPropertyOp3
 70
     1
102
RTVSPropertyOp4
 70
     1
102
RTVSPropertyOp5
 70
     1
102
RTVSPropertyOp6
 70
     1
102
RTVSPropertyOp7
 70
     1
102
RTVSPropertyOp8
 70
     1
102
RTVSPropertyOp9
 70
     1
102
RTVSPropertyOp10
 70
     1
102
RTVSPropertyOp11
 70
     1
102
RTVSPropertyOp12
 70
     1
102
RTVSPropertyOp13
 70
     1
102
RTVSPropertyOp14
 70
     1
102
RTVSPropertyOp15
 70
     1
102
RTVSPropertyOp16
 70
     1
102
RTVSPropertyOp17
 70
     1
102
RTVSPropertyOp18
 70
     1
102
RTVSPropertyOp19
 70
     1
102
RTVSPropertyOp20
 70
     1
102
RTVSPropertyOp21
 70
     1
102
RTVSPropertyOp22
 70
     1
102
RTVSPropertyOp23
 70
     1
102
RTVSPropertyOp24
 70
     1
102
RTVSPropertyOp25
 70
     1
102
RTVSPropertyOp26
 70
     1
102
RTVSPropertyOp27
 70
     1
  0
XRECORD
  5
35E9
102
{ACAD_REACTORS
330
35E8
102
}
330
35E8
100
AcDbXrecord
280
     1
102
RTVSPropertyOp0
 70
     1
102
RTVSPropertyOp1
 70
     1
102
RTVSPropertyOp2
 70
     1
102
RTVSPropertyOp3
 70
     1
102
RTVSPropertyOp4
 70
     1
102
RTVSPropertyOp5
 70
     1
102
RTVSPropertyOp6
 70
     1
102
RTVSPropertyOp7
 70
     1
102
RTVSPropertyOp8
 70
     1
102
RTVSPropertyOp9
 70
     1
102
RTVSPropertyOp10
 70
     1
102
RTVSPropertyOp11
 70
     1
102
RTVSPropertyOp12
 70
     1
102
RTVSPropertyOp13
 70
     1
102
RTVSPropertyOp14
 70
     1
102
RTVSPropertyOp15
 70
     1
102
RTVSPropertyOp16
 70
     1
102
RTVSPropertyOp17
 70
     1
102
RTVSPropertyOp18
 70
     1
102
RTVSPropertyOp19
 70
     1
102
RTVSPropertyOp20
 70
     1
102
RTVSPropertyOp21
 70
     1
102
RTVSPropertyOp22
 70
     1
102
RTVSPropertyOp23
 70
     1
102
RTVSPropertyOp24
 70
     1
102
RTVSPropertyOp25
 70
     1
102
RTVSPropertyOp26
 70
     1
102
RTVSPropertyOp27
 70
     1
  0
XRECORD
  5
35F1
102
{ACAD_REACTORS
330
35F0
102
}
330
35F0
100
AcDbXrecord
280
     1
102
RTVSPropertyOp0
 70
     1
102
RTVSPropertyOp1
 70
     1
102
RTVSPropertyOp2
 70
     1
102
RTVSPropertyOp3
 70
     1
102
RTVSPropertyOp4
 70
     1
102
RTVSPropertyOp5
 70
     1
102
RTVSPropertyOp6
 70
     1
102
RTVSPropertyOp7
 70
     1
102
RTVSPropertyOp8
 70
     1
102
RTVSPropertyOp9
 70
     1
102
RTVSPropertyOp10
 70
     1
102
RTVSPropertyOp11
 70
     1
102
RTVSPropertyOp12
 70
     1
102
RTVSPropertyOp13
 70
     1
102
RTVSPropertyOp14
 70
     1
102
RTVSPropertyOp15
 70
     1
102
RTVSPropertyOp16
 70
     1
102
RTVSPropertyOp17
 70
     1
102
RTVSPropertyOp18
 70
     1
102
RTVSPropertyOp19
 70
     1
102
RTVSPropertyOp20
 70
     1
102
RTVSPropertyOp21
 70
     1
102
RTVSPropertyOp22
 70
     1
102
RTVSPropertyOp23
 70
     1
102
RTVSPropertyOp24
 70
     1
102
RTVSPropertyOp25
 70
     1
102
RTVSPropertyOp26
 70
     1
102
RTVSPropertyOp27
 70
     1
  0
XRECORD
  5
35E3
102
{ACAD_REACTORS
330
35E2
102
}
330
35E2
100
AcDbXrecord
280
     1
102
RTVSPropertyOp0
 70
     1
102
RTVSPropertyOp1
 70
     1
102
RTVSPropertyOp2
 70
     1
102
RTVSPropertyOp3
 70
     1
102
RTVSPropertyOp4
 70
     1
102
RTVSPropertyOp5
 70
     1
102
RTVSPropertyOp6
 70
     1
102
RTVSPropertyOp7
 70
     1
102
RTVSPropertyOp8
 70
     1
102
RTVSPropertyOp9
 70
     1
102
RTVSPropertyOp10
 70
     1
102
RTVSPropertyOp11
 70
     1
102
RTVSPropertyOp12
 70
     1
102
RTVSPropertyOp13
 70
     1
102
RTVSPropertyOp14
 70
     1
102
RTVSPropertyOp15
 70
     1
102
RTVSPropertyOp16
 70
     1
102
RTVSPropertyOp17
 70
     1
102
RTVSPropertyOp18
 70
     1
102
RTVSPropertyOp19
 70
     1
102
RTVSPropertyOp20
 70
     1
102
RTVSPropertyOp21
 70
     1
102
RTVSPropertyOp22
 70
     1
102
RTVSPropertyOp23
 70
     1
102
RTVSPropertyOp24
 70
     1
102
RTVSPropertyOp25
 70
     1
102
RTVSPropertyOp26
 70
     1
102
RTVSPropertyOp27
 70
     1
  0
XRECORD
  5
35E7
102
{ACAD_REACTORS
330
35E6
102
}
330
35E6
100
AcDbXrecord
280
     1
102
RTVSPropertyOp0
 70
     1
102
RTVSPropertyOp1
 70
     1
102
RTVSPropertyOp2
 70
     1
102
RTVSPropertyOp3
 70
     1
102
RTVSPropertyOp4
 70
     1
102
RTVSPropertyOp5
 70
     1
102
RTVSPropertyOp6
 70
     1
102
RTVSPropertyOp7
 70
     1
102
RTVSPropertyOp8
 70
     1
102
RTVSPropertyOp9
 70
     1
102
RTVSPropertyOp10
 70
     1
102
RTVSPropertyOp11
 70
     1
102
RTVSPropertyOp12
 70
     1
102
RTVSPropertyOp13
 70
     1
102
RTVSPropertyOp14
 70
     1
102
RTVSPropertyOp15
 70
     1
102
RTVSPropertyOp16
 70
     1
102
RTVSPropertyOp17
 70
     1
102
RTVSPropertyOp18
 70
     1
102
RTVSPropertyOp19
 70
     1
102
RTVSPropertyOp20
 70
     1
102
RTVSPropertyOp21
 70
     1
102
RTVSPropertyOp22
 70
     1
102
RTVSPropertyOp23
 70
     1
102
RTVSPropertyOp24
 70
     1
102
RTVSPropertyOp25
 70
     1
102
RTVSPropertyOp26
 70
     1
102
RTVSPropertyOp27
 70
     1
  0
XRECORD
  5
35F7
102
{ACAD_REACTORS
330
35F6
102
}
330
35F6
100
AcDbXrecord
280
     1
102
RTVSPropertyOp0
 70
     0
102
RTVSPropertyOp1
 70
     0
102
RTVSPropertyOp2
 70
     0
102
RTVSPropertyOp3
 70
     0
102
RTVSPropertyOp4
 70
     0
102
RTVSPropertyOp5
 70
     0
102
RTVSPropertyOp6
 70
     0
102
RTVSPropertyOp7
 70
     0
102
RTVSPropertyOp8
 70
     0
102
RTVSPropertyOp9
 70
     0
102
RTVSPropertyOp10
 70
     0
102
RTVSPropertyOp11
 70
     0
102
RTVSPropertyOp12
 70
     0
102
RTVSPropertyOp13
 70
     0
102
RTVSPropertyOp14
 70
     2
102
RTVSPropertyOp15
 70
     0
102
RTVSPropertyOp16
 70
     0
102
RTVSPropertyOp17
 70
     0
102
RTVSPropertyOp18
 70
     0
102
RTVSPropertyOp19
 70
     0
102
RTVSPropertyOp20
 70
     0
102
RTVSPropertyOp21
 70
     0
102
RTVSPropertyOp22
 70
     0
102
RTVSPropertyOp23
 70
     0
102
RTVSPropertyOp24
 70
     0
102
RTVSPropertyOp25
 70
     0
102
RTVSPropertyOp26
 70
     0
102
RTVSPropertyOp27
 70
     0
  0
XRECORD
  5
35EF
102
{ACAD_REACTORS
330
35EE
102
}
330
35EE
100
AcDbXrecord
280
     1
102
RTVSPropertyOp0
 70
     1
102
RTVSPropertyOp1
 70
     1
102
RTVSPropertyOp2
 70
     1
102
RTVSPropertyOp3
 70
     1
102
RTVSPropertyOp4
 70
     1
102
RTVSPropertyOp5
 70
     1
102
RTVSPropertyOp6
 70
     1
102
RTVSPropertyOp7
 70
     1
102
RTVSPropertyOp8
 70
     1
102
RTVSPropertyOp9
 70
     1
102
RTVSPropertyOp10
 70
     1
102
RTVSPropertyOp11
 70
     1
102
RTVSPropertyOp12
 70
     1
102
RTVSPropertyOp13
 70
     1
102
RTVSPropertyOp14
 70
     1
102
RTVSPropertyOp15
 70
     1
102
RTVSPropertyOp16
 70
     1
102
RTVSPropertyOp17
 70
     1
102
RTVSPropertyOp18
 70
     1
102
RTVSPropertyOp19
 70
     1
102
RTVSPropertyOp20
 70
     1
102
RTVSPropertyOp21
 70
     1
102
RTVSPropertyOp22
 70
     1
102
RTVSPropertyOp23
 70
     1
102
RTVSPropertyOp24
 70
     1
102
RTVSPropertyOp25
 70
     1
102
RTVSPropertyOp26
 70
     1
102
RTVSPropertyOp27
 70
     1
  0
XRECORD
  5
35D3
102
{ACAD_REACTORS
330
35D2
102
}
330
35D2
100
AcDbXrecord
280
     1
102
RTVSPropertyOp0
 70
     1
102
RTVSPropertyOp1
 70
     1
102
RTVSPropertyOp2
 70
     1
102
RTVSPropertyOp3
 70
     1
102
RTVSPropertyOp4
 70
     1
102
RTVSPropertyOp5
 70
     1
102
RTVSPropertyOp6
 70
     1
102
RTVSPropertyOp7
 70
     1
102
RTVSPropertyOp8
 70
     1
102
RTVSPropertyOp9
 70
     1
102
RTVSPropertyOp10
 70
     1
102
RTVSPropertyOp11
 70
     1
102
RTVSPropertyOp12
 70
     1
102
RTVSPropertyOp13
 70
     1
102
RTVSPropertyOp14
 70
     1
102
RTVSPropertyOp15
 70
     1
102
RTVSPropertyOp16
 70
     1
102
RTVSPropertyOp17
 70
     1
102
RTVSPropertyOp18
 70
     1
102
RTVSPropertyOp19
 70
     1
102
RTVSPropertyOp20
 70
     1
102
RTVSPropertyOp21
 70
     1
102
RTVSPropertyOp22
 70
     1
102
RTVSPropertyOp23
 70
     1
102
RTVSPropertyOp24
 70
     1
102
RTVSPropertyOp25
 70
     1
102
RTVSPropertyOp26
 70
     1
102
RTVSPropertyOp27
 70
     1
  0
XRECORD
  5
35D5
102
{ACAD_REACTORS
330
35D4
102
}
330
35D4
100
AcDbXrecord
280
     1
102
RTVSPropertyOp0
 70
     1
102
RTVSPropertyOp1
 70
     1
102
RTVSPropertyOp2
 70
     1
102
RTVSPropertyOp3
 70
     1
102
RTVSPropertyOp4
 70
     1
102
RTVSPropertyOp5
 70
     1
102
RTVSPropertyOp6
 70
     1
102
RTVSPropertyOp7
 70
     1
102
RTVSPropertyOp8
 70
     1
102
RTVSPropertyOp9
 70
     1
102
RTVSPropertyOp10
 70
     1
102
RTVSPropertyOp11
 70
     1
102
RTVSPropertyOp12
 70
     1
102
RTVSPropertyOp13
 70
     1
102
RTVSPropertyOp14
 70
     1
102
RTVSPropertyOp15
 70
     1
102
RTVSPropertyOp16
 70
     1
102
RTVSPropertyOp17
 70
     1
102
RTVSPropertyOp18
 70
     1
102
RTVSPropertyOp19
 70
     1
102
RTVSPropertyOp20
 70
     1
102
RTVSPropertyOp21
 70
     1
102
RTVSPropertyOp22
 70
     1
102
RTVSPropertyOp23
 70
     1
102
RTVSPropertyOp24
 70
     1
102
RTVSPropertyOp25
 70
     1
102
RTVSPropertyOp26
 70
     1
102
RTVSPropertyOp27
 70
     1
  0
XRECORD
  5
35D7
102
{ACAD_REACTORS
330
35D6
102
}
330
35D6
100
AcDbXrecord
280
     1
102
RTVSPropertyOp0
 70
     1
102
RTVSPropertyOp1
 70
     1
102
RTVSPropertyOp2
 70
     1
102
RTVSPropertyOp3
 70
     1
102
RTVSPropertyOp4
 70
     1
102
RTVSPropertyOp5
 70
     1
102
RTVSPropertyOp6
 70
     1
102
RTVSPropertyOp7
 70
     1
102
RTVSPropertyOp8
 70
     1
102
RTVSPropertyOp9
 70
     1
102
RTVSPropertyOp10
 70
     1
102
RTVSPropertyOp11
 70
     1
102
RTVSPropertyOp12
 70
     1
102
RTVSPropertyOp13
 70
     1
102
RTVSPropertyOp14
 70
     1
102
RTVSPropertyOp15
 70
     1
102
RTVSPropertyOp16
 70
     1
102
RTVSPropertyOp17
 70
     1
102
RTVSPropertyOp18
 70
     1
102
RTVSPropertyOp19
 70
     1
102
RTVSPropertyOp20
 70
     1
102
RTVSPropertyOp21
 70
     1
102
RTVSPropertyOp22
 70
     1
102
RTVSPropertyOp23
 70
     1
102
RTVSPropertyOp24
 70
     1
102
RTVSPropertyOp25
 70
     1
102
RTVSPropertyOp26
 70
     1
102
RTVSPropertyOp27
 70
     1
  0
XRECORD
  5
35D9
102
{ACAD_REACTORS
330
35D8
102
}
330
35D8
100
AcDbXrecord
280
     1
102
RTVSPropertyOp0
 70
     1
102
RTVSPropertyOp1
 70
     1
102
RTVSPropertyOp2
 70
     1
102
RTVSPropertyOp3
 70
     1
102
RTVSPropertyOp4
 70
     1
102
RTVSPropertyOp5
 70
     1
102
RTVSPropertyOp6
 70
     1
102
RTVSPropertyOp7
 70
     1
102
RTVSPropertyOp8
 70
     1
102
RTVSPropertyOp9
 70
     1
102
RTVSPropertyOp10
 70
     1
102
RTVSPropertyOp11
 70
     1
102
RTVSPropertyOp12
 70
     1
102
RTVSPropertyOp13
 70
     1
102
RTVSPropertyOp14
 70
     1
102
RTVSPropertyOp15
 70
     1
102
RTVSPropertyOp16
 70
     1
102
RTVSPropertyOp17
 70
     1
102
RTVSPropertyOp18
 70
     1
102
RTVSPropertyOp19
 70
     1
102
RTVSPropertyOp20
 70
     1
102
RTVSPropertyOp21
 70
     1
102
RTVSPropertyOp22
 70
     1
102
RTVSPropertyOp23
 70
     1
102
RTVSPropertyOp24
 70
     1
102
RTVSPropertyOp25
 70
     1
102
RTVSPropertyOp26
 70
     1
102
RTVSPropertyOp27
 70
     1
  0
XRECORD
  5
35F3
102
{ACAD_REACTORS
330
35F2
102
}
330
35F2
100
AcDbXrecord
280
     1
102
RTVSPropertyOp0
 70
     0
102
RTVSPropertyOp1
 70
     0
102
RTVSPropertyOp2
 70
     0
102
RTVSPropertyOp3
 70
     0
102
RTVSPropertyOp4
 70
     0
102
RTVSPropertyOp5
 70
     0
102
RTVSPropertyOp6
 70
     0
102
RTVSPropertyOp7
 70
     0
102
RTVSPropertyOp8
 70
     0
102
RTVSPropertyOp9
 70
     0
102
RTVSPropertyOp10
 70
     0
102
RTVSPropertyOp11
 70
     0
102
RTVSPropertyOp12
 70
     0
102
RTVSPropertyOp13
 70
     0
102
RTVSPropertyOp14
 70
     2
102
RTVSPropertyOp15
 70
     0
102
RTVSPropertyOp16
 70
     0
102
RTVSPropertyOp17
 70
     0
102
RTVSPropertyOp18
 70
     0
102
RTVSPropertyOp19
 70
     0
102
RTVSPropertyOp20
 70
     0
102
RTVSPropertyOp21
 70
     0
102
RTVSPropertyOp22
 70
     0
102
RTVSPropertyOp23
 70
     0
102
RTVSPropertyOp24
 70
     0
102
RTVSPropertyOp25
 70
     0
102
RTVSPropertyOp26
 70
     0
102
RTVSPropertyOp27
 70
     0
  0
XRECORD
  5
35ED
102
{ACAD_REACTORS
330
35EC
102
}
330
35EC
100
AcDbXrecord
280
     1
102
RTVSPropertyOp0
 70
     1
102
RTVSPropertyOp1
 70
     1
102
RTVSPropertyOp2
 70
     1
102
RTVSPropertyOp3
 70
     1
102
RTVSPropertyOp4
 70
     1
102
RTVSPropertyOp5
 70
     1
102
RTVSPropertyOp6
 70
     1
102
RTVSPropertyOp7
 70
     1
102
RTVSPropertyOp8
 70
     1
102
RTVSPropertyOp9
 70
     1
102
RTVSPropertyOp10
 70
     1
102
RTVSPropertyOp11
 70
     1
102
RTVSPropertyOp12
 70
     1
102
RTVSPropertyOp13
 70
     1
102
RTVSPropertyOp14
 70
     1
102
RTVSPropertyOp15
 70
     1
102
RTVSPropertyOp16
 70
     1
102
RTVSPropertyOp17
 70
     1
102
RTVSPropertyOp18
 70
     1
102
RTVSPropertyOp19
 70
     1
102
RTVSPropertyOp20
 70
     1
102
RTVSPropertyOp21
 70
     1
102
RTVSPropertyOp22
 70
     1
102
RTVSPropertyOp23
 70
     1
102
RTVSPropertyOp24
 70
     1
102
RTVSPropertyOp25
 70
     1
102
RTVSPropertyOp26
 70
     1
102
RTVSPropertyOp27
 70
     1
  0
XRECORD
  5
35F5
102
{ACAD_REACTORS
330
35F4
102
}
330
35F4
100
AcDbXrecord
280
     1
102
RTVSPropertyOp0
 70
     0
102
RTVSPropertyOp1
 70
     0
102
RTVSPropertyOp2
 70
     0
102
RTVSPropertyOp3
 70
     0
102
RTVSPropertyOp4
 70
     0
102
RTVSPropertyOp5
 70
     0
102
RTVSPropertyOp6
 70
     0
102
RTVSPropertyOp7
 70
     0
102
RTVSPropertyOp8
 70
     0
102
RTVSPropertyOp9
 70
     0
102
RTVSPropertyOp10
 70
     0
102
RTVSPropertyOp11
 70
     0
102
RTVSPropertyOp12
 70
     0
102
RTVSPropertyOp13
 70
     0
102
RTVSPropertyOp14
 70
     2
102
RTVSPropertyOp15
 70
     0
102
RTVSPropertyOp16
 70
     0
102
RTVSPropertyOp17
 70
     0
102
RTVSPropertyOp18
 70
     0
102
RTVSPropertyOp19
 70
     0
102
RTVSPropertyOp20
 70
     0
102
RTVSPropertyOp21
 70
     0
102
RTVSPropertyOp22
 70
     0
102
RTVSPropertyOp23
 70
     0
102
RTVSPropertyOp24
 70
     0
102
RTVSPropertyOp25
 70
     0
102
RTVSPropertyOp26
 70
     0
102
RTVSPropertyOp27
 70
     0
  0
XRECORD
  5
35E5
102
{ACAD_REACTORS
330
35E4
102
}
330
35E4
100
AcDbXrecord
280
     1
102
RTVSPropertyOp0
 70
     1
102
RTVSPropertyOp1
 70
     1
102
RTVSPropertyOp2
 70
     1
102
RTVSPropertyOp3
 70
     1
102
RTVSPropertyOp4
 70
     1
102
RTVSPropertyOp5
 70
     1
102
RTVSPropertyOp6
 70
     1
102
RTVSPropertyOp7
 70
     1
102
RTVSPropertyOp8
 70
     1
102
RTVSPropertyOp9
 70
     1
102
RTVSPropertyOp10
 70
     1
102
RTVSPropertyOp11
 70
     1
102
RTVSPropertyOp12
 70
     1
102
RTVSPropertyOp13
 70
     1
102
RTVSPropertyOp14
 70
     1
102
RTVSPropertyOp15
 70
     1
102
RTVSPropertyOp16
 70
     1
102
RTVSPropertyOp17
 70
     1
102
RTVSPropertyOp18
 70
     1
102
RTVSPropertyOp19
 70
     1
102
RTVSPropertyOp20
 70
     1
102
RTVSPropertyOp21
 70
     1
102
RTVSPropertyOp22
 70
     1
102
RTVSPropertyOp23
 70
     1
102
RTVSPropertyOp24
 70
     1
102
RTVSPropertyOp25
 70
     1
102
RTVSPropertyOp26
 70
     1
102
RTVSPropertyOp27
 70
     1
  0
XRECORD
  5
35EB
102
{ACAD_REACTORS
330
35EA
102
}
330
35EA
100
AcDbXrecord
280
     1
102
RTVSPropertyOp0
 70
     1
102
RTVSPropertyOp1
 70
     1
102
RTVSPropertyOp2
 70
     1
102
RTVSPropertyOp3
 70
     1
102
RTVSPropertyOp4
 70
     1
102
RTVSPropertyOp5
 70
     1
102
RTVSPropertyOp6
 70
     1
102
RTVSPropertyOp7
 70
     1
102
RTVSPropertyOp8
 70
     1
102
RTVSPropertyOp9
 70
     1
102
RTVSPropertyOp10
 70
     1
102
RTVSPropertyOp11
 70
     1
102
RTVSPropertyOp12
 70
     1
102
RTVSPropertyOp13
 70
     1
102
RTVSPropertyOp14
 70
     1
102
RTVSPropertyOp15
 70
     1
102
RTVSPropertyOp16
 70
     1
102
RTVSPropertyOp17
 70
     1
102
RTVSPropertyOp18
 70
     1
102
RTVSPropertyOp19
 70
     1
102
RTVSPropertyOp20
 70
     1
102
RTVSPropertyOp21
 70
     1
102
RTVSPropertyOp22
 70
     1
102
RTVSPropertyOp23
 70
     1
102
RTVSPropertyOp24
 70
     1
102
RTVSPropertyOp25
 70
     1
102
RTVSPropertyOp26
 70
     1
102
RTVSPropertyOp27
 70
     1
  0
ENDSEC
  0
EOF
