  0
SECTION
  2
HEADER
  9
$ACADVER
  1
AC1015
  9
$ACADMAINTVER
 70
    20
  9
$DWGCODEPAGE
  3
ANSI_1252
  9
$INSBASE
 10
0.0
 20
0.0
 30
0.0
  9
$EXTMIN
 10
9119.04296649712
 20
2114.042884428635
 30
-0.0000000017937957
  9
$EXTMAX
 10
9122.493810676825
 20
2115.892884428635
 30
0.0000000001557791
  9
$LIMMIN
 10
0.0
 20
0.0
  9
$LIMMAX
 10
420.0
 20
297.0
  9
$ORTHOMODE
 70
     1
  9
$REGENMODE
 70
     1
  9
$FILLMODE
 70
     1
  9
$QTEXTMODE
 70
     0
  9
$MIRRTEXT
 70
     1
  9
$LTSCALE
 40
1.0
  9
$ATTMODE
 70
     1
  9
$TEXTSIZE
 40
2.5
  9
$TRACEWID
 40
1.0
  9
$TEXTSTYLE
  7
SANINDUSA
  9
$CLAYER
  8
7
  9
$CELTYPE
  6
ByLayer
  9
$CECOLOR
 62
   256
  9
$CELTSCALE
 40
1.0
  9
$DISPSILH
 70
     0
  9
$DIMSCALE
 40
10.0
  9
$DIMASZ
 40
2.0
  9
$DIMEXO
 40
1.0
  9
$DIMDLI
 40
1.0
  9
$DIMRND
 40
0.0
  9
$DIMDLE
 40
0.0
  9
$DIMEXE
 40
1.0
  9
$DIMTP
 40
0.0
  9
$DIMTM
 40
0.0
  9
$DIMTXT
 40
2.0
  9
$DIMCEN
 40
0.0
  9
$DIMTSZ
 40
0.0
  9
$DIMTOL
 70
     0
  9
$DIMLIM
 70
     0
  9
$DIMTIH
 70
     0
  9
$DIMTOH
 70
     0
  9
$DIMSE1
 70
     0
  9
$DIMSE2
 70
     0
  9
$DIMTAD
 70
     1
  9
$DIMZIN
 70
     8
  9
$DIMBLK
  1

  9
$DIMASO
 70
     1
  9
$DIMSHO
 70
     1
  9
$DIMPOST
  1

  9
$DIMAPOST
  1

  9
$DIMALT
 70
     0
  9
$DIMALTD
 70
     3
  9
$DIMALTF
 40
0.03937007874016
  9
$DIMLFAC
 40
1.0
  9
$DIMTOFL
 70
     1
  9
$DIMTVP
 40
0.0
  9
$DIMTIX
 70
     0
  9
$DIMSOXD
 70
     0
  9
$DIMSAH
 70
     0
  9
$DIMBLK1
  1

  9
$DIMBLK2
  1

  9
$DIMSTYLE
  2
SANINDUSA
  9
$DIMCLRD
 70
   256
  9
$DIMCLRE
 70
   256
  9
$DIMCLRT
 70
   256
  9
$DIMTFAC
 40
1.0
  9
$DIMGAP
 40
1.0
  9
$DIMJUST
 70
     0
  9
$DIMSD1
 70
     0
  9
$DIMSD2
 70
     0
  9
$DIMTOLJ
 70
     0
  9
$DIMTZIN
 70
     8
  9
$DIMALTZ
 70
     0
  9
$DIMALTTZ
 70
     0
  9
$DIMUPT
 70
     0
  9
$DIMDEC
 70
     1
  9
$DIMTDEC
 70
     1
  9
$DIMALTU
 70
     2
  9
$DIMALTTD
 70
     3
  9
$DIMTXSTY
  7
SANINDUSA
  9
$DIMAUNIT
 70
     0
  9
$DIMADEC
 70
     1
  9
$DIMALTRND
 40
0.0
  9
$DIMAZIN
 70
     0
  9
$DIMDSEP
 70
    44
  9
$DIMATFIT
 70
     3
  9
$DIMFRAC
 70
     0
  9
$DIMLDRBLK
  1

  9
$DIMLUNIT
 70
     2
  9
$DIMLWD
 70
    -1
  9
$DIMLWE
 70
    -1
  9
$DIMTMOVE
 70
     0
  9
$LUNITS
 70
     2
  9
$LUPREC
 70
     4
  9
$SKETCHINC
 40
1.0
  9
$FILLETRAD
 40
0.0
  9
$AUNITS
 70
     0
  9
$AUPREC
 70
     0
  9
$MENU
  1
.
  9
$ELEVATION
 40
0.0
  9
$PELEVATION
 40
0.0
  9
$THICKNESS
 40
0.0
  9
$LIMCHECK
 70
     0
  9
$CHAMFERA
 40
10.0
  9
$CHAMFERB
 40
10.0
  9
$CHAMFERC
 40
20.0
  9
$CHAMFERD
 40
0.0
  9
$SKPOLY
 70
     0
  9
$TDCREATE
 40
2454138.513543831
  9
$TDUCREATE
 40
2454138.471877164
  9
$TDUPDATE
 40
2455824.658116493
  9
$TDUUPDATE
 40
2455824.616449826
  9
$TDINDWG
 40
0.0212794792
  9
$TDUSRTIMER
 40
0.0212794792
  9
$USRTIMER
 70
     1
  9
$ANGBASE
 50
0.0
  9
$ANGDIR
 70
     0
  9
$PDMODE
 70
     0
  9
$PDSIZE
 40
0.0
  9
$PLINEWID
 40
0.0
  9
$SPLFRAME
 70
     0
  9
$SPLINETYPE
 70
     6
  9
$SPLINESEGS
 70
     8
  9
$HANDSEED
  5
2D12
  9
$SURFTAB1
 70
     6
  9
$SURFTAB2
 70
     6
  9
$SURFTYPE
 70
     6
  9
$SURFU
 70
     6
  9
$SURFV
 70
     6
  9
$UCSBASE
  2

  9
$UCSNAME
  2

  9
$UCSORG
 10
0.0
 20
0.0
 30
0.0
  9
$UCSXDIR
 10
1.0
 20
0.0
 30
0.0
  9
$UCSYDIR
 10
0.0
 20
1.0
 30
0.0
  9
$UCSORTHOREF
  2

  9
$UCSORTHOVIEW
 70
     0
  9
$UCSORGTOP
 10
0.0
 20
0.0
 30
0.0
  9
$UCSORGBOTTOM
 10
0.0
 20
0.0
 30
0.0
  9
$UCSORGLEFT
 10
0.0
 20
0.0
 30
0.0
  9
$UCSORGRIGHT
 10
0.0
 20
0.0
 30
0.0
  9
$UCSORGFRONT
 10
0.0
 20
0.0
 30
0.0
  9
$UCSORGBACK
 10
0.0
 20
0.0
 30
0.0
  9
$PUCSBASE
  2

  9
$PUCSNAME
  2

  9
$PUCSORG
 10
0.0
 20
0.0
 30
0.0
  9
$PUCSXDIR
 10
1.0
 20
0.0
 30
0.0
  9
$PUCSYDIR
 10
0.0
 20
1.0
 30
0.0
  9
$PUCSORTHOREF
  2

  9
$PUCSORTHOVIEW
 70
     0
  9
$PUCSORGTOP
 10
0.0
 20
0.0
 30
0.0
  9
$PUCSORGBOTTOM
 10
0.0
 20
0.0
 30
0.0
  9
$PUCSORGLEFT
 10
0.0
 20
0.0
 30
0.0
  9
$PUCSORGRIGHT
 10
0.0
 20
0.0
 30
0.0
  9
$PUCSORGFRONT
 10
0.0
 20
0.0
 30
0.0
  9
$PUCSORGBACK
 10
0.0
 20
0.0
 30
0.0
  9
$USERI1
 70
     0
  9
$USERI2
 70
     0
  9
$USERI3
 70
     0
  9
$USERI4
 70
     0
  9
$USERI5
 70
     0
  9
$USERR1
 40
0.0
  9
$USERR2
 40
0.0
  9
$USERR3
 40
0.0
  9
$USERR4
 40
0.0
  9
$USERR5
 40
0.0
  9
$WORLDVIEW
 70
     1
  9
$SHADEDGE
 70
     3
  9
$SHADEDIF
 70
    70
  9
$TILEMODE
 70
     1
  9
$MAXACTVP
 70
    64
  9
$PINSBASE
 10
0.0
 20
0.0
 30
0.0
  9
$PLIMCHECK
 70
     0
  9
$PEXTMIN
 10
1.000000000000000E+20
 20
1.000000000000000E+20
 30
1.000000000000000E+20
  9
$PEXTMAX
 10
-1.000000000000000E+20
 20
-1.000000000000000E+20
 30
-1.000000000000000E+20
  9
$PLIMMIN
 10
0.0
 20
0.0
  9
$PLIMMAX
 10
420.0
 20
297.0
  9
$UNITMODE
 70
     0
  9
$VISRETAIN
 70
     1
  9
$PLINEGEN
 70
     0
  9
$PSLTSCALE
 70
     1
  9
$TREEDEPTH
 70
  3020
  9
$CMLSTYLE
  2
Standard
  9
$CMLJUST
 70
     0
  9
$CMLSCALE
 40
20.0
  9
$PROXYGRAPHICS
 70
     1
  9
$MEASUREMENT
 70
     1
  9
$CELWEIGHT
370
    -1
  9
$ENDCAPS
280
     0
  9
$JOINSTYLE
280
     0
  9
$LWDISPLAY
290
     0
  9
$INSUNITS
 70
     4
  9
$HYPERLINKBASE
  1

  9
$STYLESHEET
  1
sanindusa.ctb
  9
$XEDIT
290
     1
  9
$CEPSNTYPE
380
     0
  9
$PSTYLEMODE
290
     1
  9
$FINGERPRINTGUID
  2
{61266F24-2214-45F5-A707-2F5E56B37604}
  9
$VERSIONGUID
  2
{606F6631-CFBF-4286-83DD-FF763EDC556C}
  9
$EXTNAMES
290
     1
  9
$PSVPSCALE
 40
0.0
  9
$OLESTARTUP
290
     0
  0
ENDSEC
  0
SECTION
  2
CLASSES
  0
CLASS
  1
ACDBDICTIONARYWDFLT
  2
AcDbDictionaryWithDefault
  3
ObjectDBX Classes
 90
        0
280
     0
281
     0
  0
CLASS
  1
ACDBPLACEHOLDER
  2
AcDbPlaceHolder
  3
ObjectDBX Classes
 90
        0
280
     0
281
     0
  0
CLASS
  1
LAYOUT
  2
AcDbLayout
  3
ObjectDBX Classes
 90
        0
280
     0
281
     0
  0
CLASS
  1
DICTIONARYVAR
  2
AcDbDictionaryVar
  3
ObjectDBX Classes
 90
        0
280
     0
281
     0
  0
CLASS
  1
DIMASSOC
  2
AcDbDimAssoc
  3
"AcDbDimAssoc|Product Desc:     AcDim ARX App For Dimension|Company:          Autodesk, Inc.|WEB Address:      www.autodesk.com"
 90
        0
280
     0
281
     0
  0
CLASS
  1
TABLESTYLE
  2
AcDbTableStyle
  3
ObjectDBX Classes
 90
     4095
280
     0
281
     0
  0
CLASS
  1
SORTENTSTABLE
  2
AcDbSortentsTable
  3
ObjectDBX Classes
 90
        0
280
     0
281
     0
  0
CLASS
  1
MATERIAL
  2
AcDbMaterial
  3
ObjectDBX Classes
 90
     1153
280
     0
281
     0
  0
CLASS
  1
VISUALSTYLE
  2
AcDbVisualStyle
  3
ObjectDBX Classes
 90
     4095
280
     0
281
     0
  0
CLASS
  1
SCALE
  2
AcDbScale
  3
ObjectDBX Classes
 90
     1153
280
     0
281
     0
  0
CLASS
  1
MLEADERSTYLE
  2
AcDbMLeaderStyle
  3
ACDB_MLEADERSTYLE_CLASS
 90
     4095
280
     0
281
     0
  0
CLASS
  1
CELLSTYLEMAP
  2
AcDbCellStyleMap
  3
ObjectDBX Classes
 90
     1152
280
     0
281
     0
  0
ENDSEC
  0
SECTION
  2
TABLES
  0
TABLE
  2
VPORT
  5
8
330
0
100
AcDbSymbolTable
 70
     1
  0
VPORT
  5
2BDB
330
8
100
AcDbSymbolTableRecord
100
AcDbViewportTableRecord
  2
*Active
 70
     0
 10
0.0
 20
0.0
 11
1.0
 21
1.0
 12
9120.768388586972
 22
2114.967884428635
 13
0.0
 23
0.0
 14
10.0
 24
10.0
 15
10.0
 25
10.0
 16
0.0
 26
0.0
 36
1.0
 17
0.0
 27
0.0
 37
0.0
 40
2.105151823290621
 41
1.645464025026068
 42
50.0
 43
0.0
 44
0.0
 50
0.0
 51
0.0
 71
     0
 72
   100
 73
     1
 74
     2
 75
     0
 76
     0
 77
     0
 78
     0
281
     0
 65
     1
110
0.0
120
0.0
130
0.0
111
1.0
121
0.0
131
0.0
112
0.0
122
1.0
132
0.0
 79
     0
146
0.0
  0
ENDTAB
  0
TABLE
  2
LTYPE
  5
5
330
0
100
AcDbSymbolTable
 70
     6
  0
LTYPE
  5
14
330
5
100
AcDbSymbolTableRecord
100
AcDbLinetypeTableRecord
  2
ByBlock
 70
     0
  3

 72
    65
 73
     0
 40
0.0
  0
LTYPE
  5
15
330
5
100
AcDbSymbolTableRecord
100
AcDbLinetypeTableRecord
  2
ByLayer
 70
     0
  3

 72
    65
 73
     0
 40
0.0
  0
LTYPE
  5
16
330
5
100
AcDbSymbolTableRecord
100
AcDbLinetypeTableRecord
  2
Continuous
 70
     0
  3
Solid line
 72
    65
 73
     0
 40
0.0
  0
LTYPE
  5
2D
330
5
100
AcDbSymbolTableRecord
100
AcDbLinetypeTableRecord
  2
DASHDOT
 70
     0
  3
Dash dot __ . __ . __ . __ . __ . __ . __ . __
 72
    65
 73
     4
 40
25.4
 49
12.7
 74
     0
 49
-6.349999999999999
 74
     0
 49
0.0
 74
     0
 49
-6.349999999999999
 74
     0
  0
LTYPE
  5
2E
330
5
100
AcDbSymbolTableRecord
100
AcDbLinetypeTableRecord
  2
HIDDEN
 70
     0
  3
Hidden __ __ __ __ __ __ __ __ __ __ __ __ __ _
 72
    65
 73
     2
 40
9.524999999999998
 49
6.349999999999999
 74
     0
 49
-3.174999999999999
 74
     0
  0
LTYPE
  5
C75
330
5
100
AcDbSymbolTableRecord
100
AcDbLinetypeTableRecord
  2
AM_ISO02W050
 70
     0
  3
__ __ __ __ __ __ __ __ __ __ __ __ __ __ __
 72
    65
 73
     2
 40
7.5
 49
6.0
 74
     0
 49
-1.5
 74
     0
  0
LTYPE
  5
C76
330
5
100
AcDbSymbolTableRecord
100
AcDbLinetypeTableRecord
  2
AM_ISO08W050
 70
     0
  3
____ . ____ . ____ . ____ . ____ . ____ . ____
 72
    65
 73
     4
 40
18.0
 49
12.0
 74
     0
 49
-1.5
 74
     0
 49
3.0
 74
     0
 49
-1.5
 74
     0
  0
ENDTAB
  0
TABLE
  2
LAYER
  5
2
102
{ACAD_XDICTIONARY
360
1051
102
}
330
0
100
AcDbSymbolTable
 70
    17
  0
LAYER
  5
10
102
{ACAD_XDICTIONARY
360
2C74
102
}
330
2
100
AcDbSymbolTableRecord
100
AcDbLayerTableRecord
  2
0
 70
     0
 62
     7
  6
Continuous
370
    -3
390
F
  0
LAYER
  5
2F
102
{ACAD_XDICTIONARY
360
2C76
102
}
330
2
100
AcDbSymbolTableRecord
100
AcDbLayerTableRecord
  2
1
 70
     0
 62
     1
  6
Continuous
370
    -3
390
F
  0
LAYER
  5
30
102
{ACAD_XDICTIONARY
360
2C78
102
}
330
2
100
AcDbSymbolTableRecord
100
AcDbLayerTableRecord
  2
2
 70
     0
 62
     2
  6
Continuous
370
    -3
390
F
  0
LAYER
  5
31
102
{ACAD_XDICTIONARY
360
2C7A
102
}
330
2
100
AcDbSymbolTableRecord
100
AcDbLayerTableRecord
  2
3
 70
     0
 62
     3
  6
Continuous
370
    -3
390
F
  0
LAYER
  5
32
102
{ACAD_XDICTIONARY
360
2C7C
102
}
330
2
100
AcDbSymbolTableRecord
100
AcDbLayerTableRecord
  2
4
 70
     0
 62
     4
  6
Continuous
370
    -3
390
F
  0
LAYER
  5
33
102
{ACAD_XDICTIONARY
360
2C7E
102
}
330
2
100
AcDbSymbolTableRecord
100
AcDbLayerTableRecord
  2
5
 70
     0
 62
     5
  6
Continuous
370
    -3
390
F
  0
LAYER
  5
34
102
{ACAD_XDICTIONARY
360
2C80
102
}
330
2
100
AcDbSymbolTableRecord
100
AcDbLayerTableRecord
  2
6
 70
     0
 62
     6
  6
Continuous
370
    -3
390
F
  0
LAYER
  5
35
102
{ACAD_XDICTIONARY
360
2C82
102
}
330
2
100
AcDbSymbolTableRecord
100
AcDbLayerTableRecord
  2
7
 70
     0
 62
     7
  6
Continuous
370
    -3
390
F
  0
LAYER
  5
36
102
{ACAD_XDICTIONARY
360
2C84
102
}
330
2
100
AcDbSymbolTableRecord
100
AcDbLayerTableRecord
  2
cen
 70
     0
 62
     7
  6
DASHDOT
370
    -3
390
F
  0
LAYER
  5
37
102
{ACAD_XDICTIONARY
360
2C86
102
}
330
2
100
AcDbSymbolTableRecord
100
AcDbLayerTableRecord
  2
hid
 70
     0
 62
     7
  6
HIDDEN
370
    -3
390
F
  0
LAYER
  5
5D6
102
{ACAD_XDICTIONARY
360
2C88
102
}
330
2
100
AcDbSymbolTableRecord
100
AcDbLayerTableRecord
  2
hatch
 70
     0
 62
     9
  6
Continuous
370
    -3
390
F
  0
LAYER
  5
8AF
102
{ACAD_XDICTIONARY
360
2C8A
102
}
330
2
100
AcDbSymbolTableRecord
100
AcDbLayerTableRecord
  2
9
 70
     0
 62
     9
  6
Continuous
370
    -3
390
F
  0
LAYER
  5
8F8
102
{ACAD_XDICTIONARY
360
2C8C
102
}
330
2
100
AcDbSymbolTableRecord
100
AcDbLayerTableRecord
  2
leg fin
 70
     0
 62
     9
  6
Continuous
370
    -3
390
F
  0
LAYER
  5
91D
102
{ACAD_XDICTIONARY
360
2C8E
102
}
330
2
100
AcDbSymbolTableRecord
100
AcDbLayerTableRecord
  2
cotas
 70
     0
 62
     1
  6
Continuous
370
    -3
390
F
  0
LAYER
  5
92F
330
2
100
AcDbSymbolTableRecord
100
AcDbLayerTableRecord
  2
Defpoints
 70
     0
 62
     7
  6
Continuous
290
     0
370
    -3
390
F
  0
LAYER
  5
C7B
102
{ACAD_XDICTIONARY
360
2C90
102
}
330
2
100
AcDbSymbolTableRecord
100
AcDbLayerTableRecord
  2
SANINDUSA
 70
     0
 62
     3
  6
Continuous
370
    -3
390
F
  0
LAYER
  5
10DD
102
{ACAD_XDICTIONARY
360
2C92
102
}
330
2
100
AcDbSymbolTableRecord
100
AcDbLayerTableRecord
  2
quote
 70
     0
 62
   250
  6
Continuous
370
     5
390
F
  0
ENDTAB
  0
TABLE
  2
STYLE
  5
3
330
0
100
AcDbSymbolTable
 70
     4
  0
STYLE
  5
11
330
3
100
AcDbSymbolTableRecord
100
AcDbTextStyleTableRecord
  2
Standard
 70
     0
 40
0.0
 41
1.0
 50
0.0
 71
     0
 42
2.5
  3
Avgardn.ttf
  4

1001
ACAD
1000
AvantGarde Bk BT
1071
       34
  0
STYLE
  5
2C
330
3
100
AcDbSymbolTableRecord
100
AcDbTextStyleTableRecord
  2

 70
     1
 40
0.0
 41
1.0
 50
0.0
 71
     0
 42
2.5
  3
ltypeshp.shx
  4

  0
STYLE
  5
91F
330
3
100
AcDbSymbolTableRecord
100
AcDbTextStyleTableRecord
  2
SANINDUSA
 70
     0
 40
0.0
 41
1.0
 50
0.0
 71
     0
 42
2.5
  3
verdana.TTF
  4

1001
ACAD
1000
Verdana
1071
       34
  0
STYLE
  5
C7C
330
3
100
AcDbSymbolTableRecord
100
AcDbTextStyleTableRecord
  2
futura
 70
     0
 40
0.0
 41
1.0
 50
0.0
 71
     0
 42
2.5
  3
ZURCHN.TTF
  4

1001
ACAD
1000
Zurich BT
1071
       34
  0
ENDTAB
  0
TABLE
  2
VIEW
  5
6
330
0
100
AcDbSymbolTable
 70
     0
  0
ENDTAB
  0
TABLE
  2
UCS
  5
7
330
0
100
AcDbSymbolTable
 70
     0
  0
ENDTAB
  0
TABLE
  2
APPID
  5
9
330
0
100
AcDbSymbolTable
 70
    15
  0
APPID
  5
12
330
9
100
AcDbSymbolTableRecord
100
AcDbRegAppTableRecord
  2
ACAD
 70
     0
  0
APPID
  5
3A
330
9
100
AcDbSymbolTableRecord
100
AcDbRegAppTableRecord
  2
DCO15
 70
     0
  0
APPID
  5
EEE
330
9
100
AcDbSymbolTableRecord
100
AcDbRegAppTableRecord
  2
ACAD_DSTYLE_DIMTEXT_FILL
 70
     0
  0
APPID
  5
EEF
330
9
100
AcDbSymbolTableRecord
100
AcDbRegAppTableRecord
  2
ACAD_DSTYLE_DIMEXT_LENGTH
 70
     0
  0
APPID
  5
EF0
330
9
100
AcDbSymbolTableRecord
100
AcDbRegAppTableRecord
  2
ACAD_DSTYLE_DIMEXT_ENABLED
 70
     0
  0
APPID
  5
EF1
330
9
100
AcDbSymbolTableRecord
100
AcDbRegAppTableRecord
  2
ACAD_DSTYLE_DIM_LINETYPE
 70
     0
  0
APPID
  5
EF2
330
9
100
AcDbSymbolTableRecord
100
AcDbRegAppTableRecord
  2
ACAD_DSTYLE_DIM_EXT1_LINETYPE
 70
     0
  0
APPID
  5
EF3
330
9
100
AcDbSymbolTableRecord
100
AcDbRegAppTableRecord
  2
ACAD_DSTYLE_DIM_EXT2_LINETYPE
 70
     0
  0
APPID
  5
FAF
330
9
100
AcDbSymbolTableRecord
100
AcDbRegAppTableRecord
  2
ACAD_DSTYLE_DIMJOGGED_JOGANGLE_SYMBOL
 70
     0
  0
APPID
  5
1013
330
9
100
AcDbSymbolTableRecord
100
AcDbRegAppTableRecord
  2
ACAD_DSTYLE_DIMARC_LENGTH_SYMBOL
 70
     0
  0
APPID
  5
10DE
330
9
100
AcDbSymbolTableRecord
100
AcDbRegAppTableRecord
  2
GENIUS_GENREC_14
 70
     0
  0
APPID
  5
10DF
330
9
100
AcDbSymbolTableRecord
100
AcDbRegAppTableRecord
  2
GENIUS_GENODEF_13
 70
     0
  0
APPID
  5
10E0
330
9
100
AcDbSymbolTableRecord
100
AcDbRegAppTableRecord
  2
GENIUS_GENOBJ-N-REC_13
 70
     0
  0
APPID
  5
2164
330
9
100
AcDbSymbolTableRecord
100
AcDbRegAppTableRecord
  2
ACAD_EXEMPT_FROM_CAD_STANDARDS
 70
     0
  0
APPID
  5
2D11
330
9
100
AcDbSymbolTableRecord
100
AcDbRegAppTableRecord
  2
ACAD_MLEADERVER
 70
     0
  0
ENDTAB
  0
TABLE
  2
DIMSTYLE
  5
A
330
0
100
AcDbSymbolTable
 70
     4
100
AcDbDimStyleTable
 71
     1
340
921
  0
DIMSTYLE
105
45
330
A
100
AcDbSymbolTableRecord
100
AcDbDimStyleTableRecord
  2
STANDARD
 70
     0
289
     0
340
11
  0
DIMSTYLE
105
921
330
A
100
AcDbSymbolTableRecord
100
AcDbDimStyleTableRecord
  2
SANINDUSA
 70
     0
 40
10.0
 41
2.0
 42
1.0
 43
1.0
 44
1.0
 73
     0
 74
     0
 77
     1
 78
     8
140
2.0
141
0.0
143
0.03937007874016
147
1.0
171
     3
172
     1
176
   256
177
   256
178
   256
179
     1
271
     1
272
     1
274
     3
278
    44
283
     0
284
     8
340
91F
371
    -1
372
    -1
1001
ACAD_DSTYLE_DIMJOGGED_JOGANGLE_SYMBOL
1070
   384
1040
1.570796326794896
  0
DIMSTYLE
105
C7D
330
A
100
AcDbSymbolTableRecord
100
AcDbDimStyleTableRecord
  2
AM_ISO
 70
     0
  4
"
 41
2.5
 42
1.0
 43
10.0
 44
1.0
 47
0.1
 48
0.1
 73
     0
 74
     0
 77
     1
 78
     8
 79
     2
140
3.5
141
0.0
143
0.0393701
146
0.71
147
1.5
172
     1
176
   256
177
   256
178
     2
271
     2
272
     3
274
     4
283
     0
284
     8
340
11
371
    -1
372
    -1
  0
ENDTAB
  0
TABLE
  2
BLOCK_RECORD
  5
1
330
0
100
AcDbSymbolTable
 70
    24
  0
BLOCK_RECORD
  5
1F
102
{ACAD_XDICTIONARY
360
223C
102
}
330
1
100
AcDbSymbolTableRecord
100
AcDbBlockTableRecord
  2
*Model_Space
340
22
  0
BLOCK_RECORD
  5
1B
330
1
100
AcDbSymbolTableRecord
100
AcDbBlockTableRecord
  2
*Paper_Space
340
1E
  0
BLOCK_RECORD
  5
23
330
1
100
AcDbSymbolTableRecord
100
AcDbBlockTableRecord
  2
*Paper_Space0
340
26
  0
BLOCK_RECORD
  5
919
330
1
100
AcDbSymbolTableRecord
100
AcDbBlockTableRecord
  2
_DotSmall
340
0
  0
BLOCK_RECORD
  5
922
330
1
100
AcDbSymbolTableRecord
100
AcDbBlockTableRecord
  2
base para cotas
340
0
310
2800000020000000200000000100080000000000000400000000000000000000000000000000000000000000000080000080000000808000800000008000800080800000C0C0C000C0DCC000F0CAA6000020400000206000002080000020A0000020C0000020E00000400000004020000040400000406000004080000040A0
310
000040C0000040E00000600000006020000060400000606000006080000060A0000060C0000060E00000800000008020000080400000806000008080000080A0000080C0000080E00000A0000000A0200000A0400000A0600000A0800000A0A00000A0C00000A0E00000C0000000C0200000C0400000C0600000C0800000C0
310
A00000C0C00000C0E00000E0000000E0200000E0400000E0600000E0800000E0A00000E0C00000E0E00040000000400020004000400040006000400080004000A0004000C0004000E00040200000402020004020400040206000402080004020A0004020C0004020E000404000004040200040404000404060004040800040
310
40A0004040C0004040E00040600000406020004060400040606000406080004060A0004060C0004060E00040800000408020004080400040806000408080004080A0004080C0004080E00040A0000040A0200040A0400040A0600040A0800040A0A00040A0C00040A0E00040C0000040C0200040C0400040C0600040C08000
310
40C0A00040C0C00040C0E00040E0000040E0200040E0400040E0600040E0800040E0A00040E0C00040E0E00080000000800020008000400080006000800080008000A0008000C0008000E00080200000802020008020400080206000802080008020A0008020C0008020E00080400000804020008040400080406000804080
310
008040A0008040C0008040E00080600000806020008060400080606000806080008060A0008060C0008060E00080800000808020008080400080806000808080008080A0008080C0008080E00080A0000080A0200080A0400080A0600080A0800080A0A00080A0C00080A0E00080C0000080C0200080C0400080C0600080C0
310
800080C0A00080C0C00080C0E00080E0000080E0200080E0400080E0600080E0800080E0A00080E0C00080E0E000C0000000C0002000C0004000C0006000C0008000C000A000C000C000C000E000C0200000C0202000C0204000C0206000C0208000C020A000C020C000C020E000C0400000C0402000C0404000C0406000C0
310
408000C040A000C040C000C040E000C0600000C0602000C0604000C0606000C0608000C060A000C060C000C060E000C0800000C0802000C0804000C0806000C0808000C080A000C080C000C080E000C0A00000C0A02000C0A04000C0A06000C0A08000C0A0A000C0A0C000C0A0E000C0C00000C0C02000C0C04000C0C06000
310
C0C08000C0C0A000F0FBFF00A4A0A000808080000000FF0000FF000000FFFF00FF000000FF00FF00FFFF0000FFFFFF00A4A4A4A4A4A4A4A4A4A4A4A4A4A4A4A4A4A4A4A4A4A4A4A4A4A4A4A4A4A4A4A4A4A4A4A4A4A4A4A4A4A4A4A4A4A4A4A4A4A4A4A4A4A4A4A4A4A4A4A4A4A4A4A4A4A4A4A4A4A4A4A4A4A4A4A4A4A4A4
310
A4A4A4A4A4A4A4A4A4A4A4A4A4A4A4A4A4A4A4A4A4A4A4A4A4A4A4A4A4A4A4A4A4A4A4A4A4A4A4A4A4A4A4A4A4A4A4A4A4A4A4A4A4A4A4A4A4A4A4A4A4A4A4A4A4A4A4A4A4A4A4A4A4A4A4A4A4A4A4A4A4A4A4A4A4A4A4A4A4A4A4A4A4A4A4A4A4A4A4A4A4A4A4A4A4A4A4A4A4A4A4A4A4A4A4A4A4A4A4A4A4A4A4A4A4A4A4
310
A4A4A4A4A4A4A4A4A4A4A4A4A4A4A4A4A4A4A4A4A4A4A4A4A4A4A4A4A4A4A4A4A4A4A4A4A4A4A4A4A4A4A4A4A4A4A4A4A4A4A4A4A4A4A4A4A4A4A4A4A4A4A4A4A4A4A4A4A4A4A4A4A4A4A4A4A4A4A4A4A4A4A4A4A4A4A4A4A4A4A4A4A4A4A4A4A4A4A4A4A4A4A4A4A4A4A4A4A4A4A4A4A4A4A4A4A4A4A4A4A4A4A4A4A4A4A4
310
A4A4A4A4A4A4A4A4A4A4A4A4A4A4A4A4A4A4A4A4A4A4A4A4A4A4A4A4A4A4A4A4A4A4A4A4A4A4A4A4A4A4A4A4A4A4A4A4A4A4A4A4A4A4A4A4A4A4A4A4A4A4A4A4A4A4A4A4A4A4A4A4A4A4A4A4A4A4A4A4A4A4A4A4A4A4A4A4A4A4A4A4A4A4A4A4A4A4A4A4A4A4A4A4A4A4A4A4A4A4A4A4A4A4A4A4F9F9F9F9F9F9F9F9F9F9F9
310
F9F9F9F9F9F9F9F9F9F9F9F9F9F9F9F9F9F9F9A4A4F9F9F9F9F9F9F9F9F9F9F9F9F9F9F9F9F9F9F9F9F9F9F9F9F9F9F9F9F9F9A4A4F9F9F9F9F9F9F9F9F9F9F9F9F9F9F9F9F9F9F9F9F9F9F9F9F9F9F9F9F9F9A4A4F9A4A4A4A4A4A4A4A4A4A4A4A4A4A4A4A4A4A4A4A4A4A4A4A4A4A4A4A4F9A4A4A4A4A4A4A4A4A4A4A4A4
310
A4A4A4A4A4A4A4A4A4A4A4A4A4A4A4A4A4A4A4A4A4A4A4A4A4A4A4A4A4A4A4A4A4A4A4A4A4A4A4A4A4A4A4A4A4A4A4A4A4A4A4A4A4A4A4A4A4A4A4A4A4A4A4A4A4A4A4A4A4A4A4A4A4A4A4A4A4A4A4A4A4A4A4A4A4A4A4A4A4A4A4A4A4A4A4A4A4A4A4A4A4A4A4A4A4A4A4A4A4A4A4A4A4A4A4A4A4A4A4A4A4A4A4A4A4A4A4
310
A4A4A4A4A4A4A4A4A4A4A4A4A4A4A4A4A4A4A4A4A4A4A4A4A4A4A4A4A4A4A4A4A4A4A4A4A4A4A4A4A4A4A4A4A4A4A4A4A4A4A4A4A4A4A4A4A4A4A4A4A4A4A4A4A4A4A4A4A4A4A4A4A4A4A4A4A4A4A4A4A4A4A4A4A4A4A4A4A4A4A4A4A4A4A4A4A4A4A4A4A4A4A4A4A4A4A4A4A4A4A4A4A4A4A4A4A4A4A4A4A4A4A4A4A4A4A4
310
A4A4A4A4A4A4A4A4A4A4A4A4A4A4A4A4A4A4A4A4A4A4A4A4A4A4A4A4A4A4A4A4A4A4A4A4A4A4A4A4A4A4A4A4A4A4A4A4A4A4A4A4A4A4A4A4A4A4A4A4A4A4A4A4A4A4A4A4A4A4A4A4A4A4A4A4A4A4A4A4A4A4A4A4A4A4A4A4A4A4A4A4A4A4A4A4A4A4A4A4A4A4A4A4A4A4A4A4A4A4A4A4A4A4A4A4A4A4A4A4A4A4A4A4A4A4A4
310
A4A4A4A4A4A4A4A4A4A4A4A4A4A4A4A4A4A4A4A4A4A4A4A4A4A4A4A4A4A4A4A4A4A4A4A4A4A4A4A4A4A4A4A4A4A4A4A4A4A4A4A4A4A4A4A4
1001
ACAD
1000
DesignCenter Data
1002
{
1070
     1
1070
     4
1002
}
  0
BLOCK_RECORD
  5
AA8
330
1
100
AcDbSymbolTableRecord
100
AcDbBlockTableRecord
  2
_CLOSED
340
0
  0
BLOCK_RECORD
  5
B79
330
1
100
AcDbSymbolTableRecord
100
AcDbBlockTableRecord
  2
nota revisoes
340
0
1001
ACAD
1000
DesignCenter Data
1002
{
1070
     1
1070
     4
1002
}
  0
BLOCK_RECORD
  5
B8E
330
1
100
AcDbSymbolTableRecord
100
AcDbBlockTableRecord
  2
a3l
340
0
1001
ACAD
1000
DesignCenter Data
1002
{
1070
     1
1070
     4
1002
}
  0
BLOCK_RECORD
  5
B9E
330
1
100
AcDbSymbolTableRecord
100
AcDbBlockTableRecord
  2
legenda desenvolvimento
340
0
1001
ACAD
1000
DesignCenter Data
1002
{
1070
     1
1070
     4
1002
}
  0
BLOCK_RECORD
  5
1060
330
1
100
AcDbSymbolTableRecord
100
AcDbBlockTableRecord
  2
guarnizione
340
0
102
{BLKREFS
331
28CF
102
}
  0
BLOCK_RECORD
  5
2A38
330
1
100
AcDbSymbolTableRecord
100
AcDbBlockTableRecord
  2
*D8
340
0
  0
BLOCK_RECORD
  5
2A44
330
1
100
AcDbSymbolTableRecord
100
AcDbBlockTableRecord
  2
*D9
340
0
  0
BLOCK_RECORD
  5
2A52
330
1
100
AcDbSymbolTableRecord
100
AcDbBlockTableRecord
  2
*D10
340
0
  0
BLOCK_RECORD
  5
2A5E
330
1
100
AcDbSymbolTableRecord
100
AcDbBlockTableRecord
  2
*D11
340
0
  0
BLOCK_RECORD
  5
2A6A
330
1
100
AcDbSymbolTableRecord
100
AcDbBlockTableRecord
  2
*D12
340
0
  0
BLOCK_RECORD
  5
2A76
330
1
100
AcDbSymbolTableRecord
100
AcDbBlockTableRecord
  2
*D13
340
0
  0
BLOCK_RECORD
  5
2A82
330
1
100
AcDbSymbolTableRecord
100
AcDbBlockTableRecord
  2
*D14
340
0
  0
BLOCK_RECORD
  5
2ABE
330
1
100
AcDbSymbolTableRecord
100
AcDbBlockTableRecord
  2
*D15
340
0
  0
BLOCK_RECORD
  5
2AD3
330
1
100
AcDbSymbolTableRecord
100
AcDbBlockTableRecord
  2
*D16
340
0
  0
BLOCK_RECORD
  5
2ADF
330
1
100
AcDbSymbolTableRecord
100
AcDbBlockTableRecord
  2
*D17
340
0
  0
BLOCK_RECORD
  5
2B28
330
1
100
AcDbSymbolTableRecord
100
AcDbBlockTableRecord
  2
*D18
340
0
  0
BLOCK_RECORD
  5
2B4A
330
1
100
AcDbSymbolTableRecord
100
AcDbBlockTableRecord
  2
*D19
340
0
  0
BLOCK_RECORD
  5
2BBB
330
1
100
AcDbSymbolTableRecord
100
AcDbBlockTableRecord
  2
*D20
340
0
  0
BLOCK_RECORD
  5
2C3B
330
1
100
AcDbSymbolTableRecord
100
AcDbBlockTableRecord
  2
*D22
340
0
  0
BLOCK_RECORD
  5
2C59
330
1
100
AcDbSymbolTableRecord
100
AcDbBlockTableRecord
  2
*D23
340
0
  0
ENDTAB
  0
ENDSEC
  0
SECTION
  2
BLOCKS
  0
BLOCK
  5
20
330
1F
100
AcDbEntity
  8
0
100
AcDbBlockBegin
  2
*Model_Space
 70
     0
 10
0.0
 20
0.0
 30
0.0
  3
*Model_Space
  1

  0
ENDBLK
  5
21
330
1F
100
AcDbEntity
  8
0
100
AcDbBlockEnd
  0
BLOCK
  5
1C
330
1B
100
AcDbEntity
 67
     1
  8
0
100
AcDbBlockBegin
  2
*Paper_Space
 70
     0
 10
0.0
 20
0.0
 30
0.0
  3
*Paper_Space
  1

  0
ENDBLK
  5
1D
330
1B
100
AcDbEntity
 67
     1
  8
0
100
AcDbBlockEnd
  0
BLOCK
  5
24
330
23
100
AcDbEntity
 67
     1
  8
0
100
AcDbBlockBegin
  2
*Paper_Space0
 70
     0
 10
0.0
 20
0.0
 30
0.0
  3
*Paper_Space0
  1

  0
ENDBLK
  5
25
330
23
100
AcDbEntity
 67
     1
  8
0
100
AcDbBlockEnd
  0
BLOCK
  5
91B
330
919
100
AcDbEntity
  8
0
100
AcDbBlockBegin
  2
_DotSmall
 70
     0
 10
0.0
 20
0.0
 30
0.0
  3
_DotSmall
  1

  0
LWPOLYLINE
  5
91A
330
919
100
AcDbEntity
  8
0
  6
ByBlock
 62
     0
100
AcDbPolyline
 90
        2
 70
     1
 43
0.5
 10
-0.0625
 20
0.0
 42
1.0
 10
0.0625
 20
0.0
 42
1.0
  0
ENDBLK
  5
91C
330
919
100
AcDbEntity
  8
0
100
AcDbBlockEnd
  0
BLOCK
  5
92A
330
922
100
AcDbEntity
  8
0
100
AcDbBlockBegin
  2
base para cotas
 70
     0
 10
0.0
 20
0.0
 30
0.0
  3
base para cotas
  1

  0
LINE
  5
B36
330
922
100
AcDbEntity
  8
cotas
100
AcDbLine
 10
0.0
 20
-30.0
 30
0.0
 11
327.1260136525398
 21
-30.0
 31
0.0
  0
LINE
  5
B37
330
922
100
AcDbEntity
  8
cotas
100
AcDbLine
 10
0.0
 20
-25.0
 30
0.0
 11
327.1260136525398
 21
-25.0
 31
0.0
  0
LINE
  5
B38
330
922
100
AcDbEntity
  8
cotas
100
AcDbLine
 10
0.0
 20
-20.0
 30
0.0
 11
327.1260136525398
 21
-20.0
 31
0.0
  0
LINE
  5
B39
330
922
100
AcDbEntity
  8
cotas
100
AcDbLine
 10
0.0
 20
-15.0
 30
0.0
 11
327.1260136525398
 21
-15.0
 31
0.0
  0
LINE
  5
B3A
330
922
100
AcDbEntity
  8
cotas
100
AcDbLine
 10
0.0
 20
-10.0
 30
0.0
 11
327.1260136525398
 21
-10.0
 31
0.0
  0
LINE
  5
B3B
330
922
100
AcDbEntity
  8
cotas
100
AcDbLine
 10
0.0
 20
0.0
 30
0.0
 11
0.0
 21
-30.0
 31
0.0
  0
LINE
  5
B3C
330
922
100
AcDbEntity
  8
cotas
100
AcDbLine
 10
327.1260136525398
 20
-30.0
 30
0.0
 11
327.1260136525398
 21
0.0
 31
0.0
  0
ENDBLK
  5
92B
330
922
100
AcDbEntity
  8
0
100
AcDbBlockEnd
  0
BLOCK
  5
AAD
330
AA8
100
AcDbEntity
  8
0
100
AcDbBlockBegin
  2
_CLOSED
 70
     0
 10
0.0
 20
0.0
 30
0.0
  3
_CLOSED
  1

  0
LINE
  5
AA9
330
AA8
100
AcDbEntity
  8
0
100
AcDbLine
 10
-1.0
 20
0.166667
 30
0.0
 11
0.0
 21
0.0
 31
0.0
  0
LINE
  5
AAA
330
AA8
100
AcDbEntity
  8
0
100
AcDbLine
 10
0.0
 20
0.0
 30
0.0
 11
-1.0
 21
-0.166667
 31
0.0
  0
LINE
  5
AAB
330
AA8
100
AcDbEntity
  8
0
100
AcDbLine
 10
-1.0
 20
0.166667
 30
0.0
 11
-1.0
 21
-0.166667
 31
0.0
  0
LINE
  5
AAC
330
AA8
100
AcDbEntity
  8
0
100
AcDbLine
 10
0.0
 20
0.0
 30
0.0
 11
-1.0
 21
0.0
 31
0.0
  0
ENDBLK
  5
AAE
330
AA8
100
AcDbEntity
  8
0
100
AcDbBlockEnd
  0
BLOCK
  5
B7C
330
B79
100
AcDbEntity
  8
0
100
AcDbBlockBegin
  2
nota revisoes
 70
     0
 10
0.0
 20
0.0
 30
0.0
  3
nota revisoes
  1

  0
CIRCLE
  5
B7A
330
B79
100
AcDbEntity
  8
4
100
AcDbCircle
 10
0.0
 20
0.0
 30
0.0
 40
13.69426055101189
  0
TEXT
  5
B7B
330
B79
100
AcDbEntity
  8
4
100
AcDbText
 10
-5.496248358154345
 20
-5.354545554066362
 30
0.0
 40
12.0
  1
1
  7
SANINDUSA
 72
     1
 11
-0.249774214433728
 21
-5.354545554066362
 31
0.0
100
AcDbText
  0
ENDBLK
  5
B7D
330
B79
100
AcDbEntity
  8
0
100
AcDbBlockEnd
  0
BLOCK
  5
B9C
330
B8E
100
AcDbEntity
  8
0
100
AcDbBlockBegin
  2
a3l
 70
     0
 10
0.0
 20
0.0
 30
0.0
  3
a3l
  1

  0
LINE
  5
B8F
330
B8E
100
AcDbEntity
  8
1
100
AcDbLine
 10
-364.2925296599447
 20
-362.1188951399395
 30
0.0
 11
-364.2925296599447
 21
-65.11889513993946
 31
0.0
  0
LINE
  5
B90
330
B8E
100
AcDbEntity
  8
4
100
AcDbLine
 10
-369.2925296599447
 20
-357.1188951399395
 30
0.0
 11
-369.2925296599447
 21
-70.11889513993946
 31
0.0
  0
LINE
  5
B91
330
B8E
100
AcDbEntity
  8
1
100
AcDbLine
 10
-784.2925296599446
 20
-65.11889513993946
 30
0.0
 11
-784.2925296599446
 21
-362.1188951399395
 31
0.0
  0
LINE
  5
B92
330
B8E
100
AcDbEntity
  8
4
100
AcDbLine
 10
-759.2925296599446
 20
-357.1188951399395
 30
0.0
 11
-759.2925296599446
 21
-70.11889513993946
 31
0.0
  0
LINE
  5
B93
330
B8E
100
AcDbEntity
  8
1
100
AcDbLine
 10
-784.2925296599446
 20
-362.1188951399395
 30
0.0
 11
-364.2925296599447
 21
-362.1188951399395
 31
0.0
  0
LINE
  5
B94
330
B8E
100
AcDbEntity
  8
4
100
AcDbLine
 10
-759.2925296599446
 20
-357.1188951399395
 30
0.0
 11
-369.2925296599447
 21
-357.1188951399395
 31
0.0
  0
LINE
  5
B95
330
B8E
100
AcDbEntity
  8
1
100
AcDbLine
 10
-654.2925296599446
 20
-357.1188951399395
 30
0.0
 11
-654.2925296599446
 21
-362.1188951399395
 31
0.0
  0
LINE
  5
B96
330
B8E
100
AcDbEntity
  8
1
100
AcDbLine
 10
-364.2925296599447
 20
-65.11889513993946
 30
0.0
 11
-784.2925296599446
 21
-65.11889513993946
 31
0.0
  0
LINE
  5
B97
330
B8E
100
AcDbEntity
  8
4
100
AcDbLine
 10
-369.2925296599447
 20
-70.11889513993946
 30
0.0
 11
-759.2925296599446
 21
-70.11889513993946
 31
0.0
  0
LINE
  5
B98
330
B8E
100
AcDbEntity
  8
1
100
AcDbLine
 10
-654.2925296599446
 20
-65.11889513993946
 30
0.0
 11
-654.2925296599446
 21
-70.11889513993946
 31
0.0
  0
LINE
  5
B99
330
B8E
100
AcDbEntity
  8
1
100
AcDbLine
 10
-549.2925296599446
 20
-70.11889513993946
 30
0.0
 11
-549.2925296599446
 21
-65.11889513993946
 31
0.0
  0
LINE
  5
B9A
330
B8E
100
AcDbEntity
  8
1
100
AcDbLine
 10
-369.2925296599447
 20
-65.11889513993946
 30
0.0
 11
-364.2925296599447
 21
-65.11889513993946
 31
0.0
  0
LINE
  5
B9B
330
B8E
100
AcDbEntity
  8
1
100
AcDbLine
 10
-549.2925296599446
 20
-357.1188951399395
 30
0.0
 11
-549.2925296599446
 21
-362.1188951399395
 31
0.0
  0
ENDBLK
  5
B9D
330
B8E
100
AcDbEntity
  8
0
100
AcDbBlockEnd
  0
BLOCK
  5
C13
330
B9E
100
AcDbEntity
  8
0
100
AcDbBlockBegin
  2
legenda desenvolvimento
 70
     2
 10
0.0
 20
0.0
 30
0.0
  3
legenda desenvolvimento
  1

  0
ATTDEF
  5
B9F
330
B9E
100
AcDbEntity
  8
1
100
AcDbText
 10
-108.606245802552
 20
55.5
 30
0.0
 40
4.0
  1
XXXXXXXXXXXXXX
 41
0.8
  7
SANINDUSA
 72
     4
 11
-87.5
 21
57.5
 31
0.0
100
AcDbAttributeDefinition
  3
Nome do Produto:
  2
PRODUTO
 70
     0
  0
ATTDEF
  5
BA0
330
B9E
100
AcDbEntity
  8
1
100
AcDbText
 10
-97.9997966101695
 20
41.25
 30
0.0
 40
3.0
  1
XXXXXXXXX
 41
0.8
  7
futura
 72
     4
 11
-87.5
 21
42.75
 31
0.0
100
AcDbAttributeDefinition
  3
Nome da Peça:
  2
PECA
 70
     0
  0
ATTDEF
  5
BA1
330
B9E
100
AcDbEntity
  8
1
100
AcDbText
 10
-133.4422431161853
 20
21.11745296763252
 30
0.0
 40
2.5
  1
X
 41
0.8
  7
SANINDUSA
 72
     4
 11
-132.5
 21
22.36745296763252
 31
0.0
100
AcDbAttributeDefinition
  3
Cod. TESTE:
  2
TESTE
 70
     0
  0
ATTDEF
  5
BA2
330
B9E
100
AcDbEntity
  8
1
100
AcDbText
 10
-124.3844862323707
 20
21.11745296763252
 30
0.0
 40
2.5
  1
XX
 41
0.8
  7
SANINDUSA
 72
     4
 11
-122.5
 21
22.36745296763252
 31
0.0
100
AcDbAttributeDefinition
  3
Cod. Ano:
  2
ANO
 70
     0
  0
ATTDEF
  5
BA3
330
B9E
100
AcDbEntity
  8
1
100
AcDbText
 10
-112.526889953052
 20
21.11745296763252
 30
0.0
 40
2.5
  1
XXX
 41
0.8
  7
SANINDUSA
 72
     4
 11
-109.700160604496
 21
22.36745296763252
 31
0.0
100
AcDbAttributeDefinition
  3
Cod. Sequência:
  2
SEQUENCIA
 70
     0
  0
ATTDEF
  5
BA4
330
B9E
100
AcDbEntity
  8
1
100
AcDbText
 10
-99.35382430979316
 20
21.11745296763252
 30
0.0
 40
2.5
  1
XX
 41
0.8
  7
SANINDUSA
 72
     4
 11
-97.46933807742244
 21
22.36745296763252
 31
0.0
100
AcDbAttributeDefinition
  3
Cod. Tipo:
  2
TIPO
 70
     0
  0
ATTDEF
  5
BA5
330
B9E
100
AcDbEntity
  8
1
100
AcDbText
 10
-87.42035911468438
 20
21.11745296763252
 30
0.0
 40
2.5
  1
XXX
 41
0.8
  7
SANINDUSA
 72
     4
 11
-84.59362976612828
 21
22.36745296763252
 31
0.0
100
AcDbAttributeDefinition
  3
Cod. Produto:
  2
PRODUTO
 70
     0
  0
ATTDEF
  5
BA6
330
B9E
100
AcDbEntity
  8
1
100
AcDbText
 10
-74.62051971917853
 20
21.11745296763252
 30
0.0
 40
2.5
  1
XXX
 41
0.8
  7
SANINDUSA
 72
     4
 11
-71.79379037062244
 21
22.36745296763252
 31
0.0
100
AcDbAttributeDefinition
  3
Cod. Peça:
  2
PECA
 70
     0
  0
ATTDEF
  5
BA7
330
B9E
100
AcDbEntity
  8
1
100
AcDbText
 10
-61.10603446650329
 20
21.11745296763252
 30
0.0
 40
2.5
  1
XX
 41
0.8
  7
SANINDUSA
 72
     4
 11
-59.22154823413257
 21
22.36745296763252
 31
0.0
100
AcDbAttributeDefinition
  3
Cod. Revisão:
  2
REV
 70
     0
  0
ATTDEF
  5
BA8
330
B9E
100
AcDbEntity
  8
1
100
AcDbText
 10
-48.43615325006194
 20
21.11745296763252
 30
0.0
 40
2.5
  1
XX
 41
0.8
  7
SANINDUSA
 72
     4
 11
-46.55166701769121
 21
22.36745296763252
 31
0.0
100
AcDbAttributeDefinition
  3
Cod. Alteração:
  2
ALT
 70
     0
  0
ATTDEF
  5
BA9
330
B9E
100
AcDbEntity
  8
1
100
AcDbText
 10
-35.19086635325722
 20
23.98875083948959
 30
0.0
 40
3.0
  1
1/XXX
 41
0.8
  7
SANINDUSA
 72
     4
 11
-30.0
 21
25.25
 31
0.0
100
AcDbAttributeDefinition
  3
Escala geral:
  2
ESCALA
 70
     0
  0
ATTDEF
  5
BAA
330
B9E
100
AcDbEntity
  8
1
100
AcDbText
 10
-15.65345869711215
 20
23.75
 30
0.0
 40
3.0
  1
XXXXX
 41
0.8
  7
SANINDUSA
 72
     4
 11
-10.0
 21
25.25
 31
0.0
100
AcDbAttributeDefinition
  3
Folha:
  2
FOLHA
 70
     0
  0
ATTDEF
  5
BAB
330
B9E
100
AcDbEntity
  8
1
100
AcDbText
 10
-178.5146998822042
 20
56.9531347542807
 30
0.0
 40
2.0
  1
xx
 41
0.8
  7
SANINDUSA
 72
     4
 11
-177.2123493113513
 21
57.70330265219877
 31
0.0
100
AcDbAttributeDefinition
  3
revisão
  2
REV.
 70
     0
  0
ATTDEF
  5
BAC
330
B9E
100
AcDbEntity
  8
1
100
AcDbText
 10
-172.7849640077129
 20
56.9531347542807
 30
0.0
 40
2.0
  1
xx
 41
0.8
  7
SANINDUSA
 72
     4
 11
-171.48261343686
 21
57.70330265219877
 31
0.0
100
AcDbAttributeDefinition
  3
alteração
  2
ALT.
 70
     0
  0
ATTDEF
  5
BAD
330
B9E
100
AcDbEntity
  8
1
100
AcDbText
 10
-168.007199951307
 20
56.70330265219877
 30
0.0
 40
2.0
  1
xx/xx/xxxx
 41
0.8
  7
SANINDUSA
 11
-168.007199951307
 21
57.70330265219877
 31
0.0
100
AcDbAttributeDefinition
  3
data
  2
DATA
 70
     0
 74
     2
  0
ATTDEF
  5
BAE
330
B9E
100
AcDbEntity
  8
1
100
AcDbText
 10
-168.5396372253371
 20
13.15916722632639
 30
0.0
 40
2.0
  1
XX/XX/XXXX
 41
0.8
  7
SANINDUSA
 72
     4
 11
-161.5099528734231
 21
14.0
 31
0.0
100
AcDbAttributeDefinition
  3
Data projecto
  2
DATA_PROJ
 70
     0
  0
ATTDEF
  5
BAF
330
B9E
100
AcDbEntity
  8
1
100
AcDbText
 10
-150.8658110728766
 20
13.24983210208193
 30
0.0
 40
2.0
  1
xxxxxxxx
 41
0.8
  7
SANINDUSA
 72
     4
 11
-145.6564087894649
 21
14.0
 31
0.0
100
AcDbAttributeDefinition
  3
nome de quem projectou
  2
NOME
 70
     0
  0
ATTDEF
  5
BB0
330
B9E
100
AcDbEntity
  8
1
100
AcDbText
 10
-168.5396372253371
 20
9.159167226326394
 30
0.0
 40
2.0
  1
XX/XX/XXXX
 41
0.8
  7
SANINDUSA
 72
     4
 11
-161.5099528734231
 21
10.0
 31
0.0
100
AcDbAttributeDefinition
  3
Data desenhou
  2
DATA_DES
 70
     0
  0
ATTDEF
  5
BB1
330
B9E
100
AcDbEntity
  8
1
100
AcDbText
 10
-151.516986358303
 20
9.249832102081933
 30
0.0
 40
2.0
  1
xxxxxxxxx
 41
0.8
  7
SANINDUSA
 72
     4
 11
-145.6564087894649
 21
10.0
 31
0.0
100
AcDbAttributeDefinition
  3
nome
  2
NOME
 70
     0
  0
ATTDEF
  5
BB2
330
B9E
100
AcDbEntity
  8
1
100
AcDbText
 10
-127.2924214135946
 20
14.1979876583216
 30
0.0
 40
2.0
  1
Vitreous China
 41
0.8
  7
SANINDUSA
 72
     4
 11
-119.231709526422
 21
15.22216495852308
 31
0.0
100
AcDbAttributeDefinition
  3
Nome do Material:
  2
MATERIAL
 70
     0
  0
ATTDEF
  5
BB3
330
B9E
100
AcDbEntity
  8
1
100
AcDbText
 10
-103.1563452122093
 20
14.38019043949261
 30
0.0
 40
2.0
  1
Branco
 41
0.8
  7
SANINDUSA
 72
     4
 11
-99.33418268702462
 21
15.35937109765245
 31
0.0
100
AcDbAttributeDefinition
  3
cor da peça
  2
COR
 70
     0
  0
ATTDEF
  5
BB4
330
B9E
100
AcDbEntity
  8
1
100
AcDbText
 10
-116.7235057085292
 20
5.975822699798522
 30
0.0
 40
2.0
  1
Vidrado
 41
0.8
  7
SANINDUSA
 72
     4
 11
-112.5
 21
7.0
 31
0.0
100
AcDbAttributeDefinition
  3
Tipo de acabamento:
  2
ACABAMENTO
 70
     0
  0
ATTDEF
  5
BB5
330
B9E
100
AcDbEntity
  8
1
100
AcDbText
 10
-79.18527869967246
 20
16.65066409850533
 30
0.0
 40
2.0
  1
XXXXXXX
 41
0.8
  7
SANINDUSA
 72
     4
 11
-73.90871724903445
 21
17.65066409850533
 31
0.0
100
AcDbAttributeDefinition
  3
Normas
  2
NORMAS
 70
     0
  0
ATTDEF
  5
BB6
330
B9E
100
AcDbEntity
  8
1
100
AcDbText
 10
-30.55312290127603
 20
14.0
 30
0.0
 40
2.0
  1
XXXXXXXXXXXXXX
 41
0.8
  7
SANINDUSA
 72
     4
 11
-20.0
 21
15.0
 31
0.0
100
AcDbAttributeDefinition
  3
Substitui o desenho:
  2
SUBSTITUI
 70
     0
  0
ATTDEF
  5
BB7
330
B9E
100
AcDbEntity
  8
1
100
AcDbText
 10
-31.30691739422431
 20
6.0
 30
0.0
 40
2.0
  1
XXXXXXXXXXXXXXX
 41
0.8
  7
SANINDUSA
 72
     4
 11
-20.0
 21
7.0
 31
0.0
100
AcDbAttributeDefinition
  3
Substituido por:
  2
SUBSTITUIDO
 70
     0
  0
ATTDEF
  5
BB8
330
B9E
100
AcDbEntity
  8
1
100
AcDbText
 10
-110.0220608548302
 20
1.478208457928303
 30
0.0
 40
2.0
  1
XXXXXXXXXXXXXXXXXXXXXXXXXXXXXXXXXX
 41
0.8
  7
SANINDUSA
 11
-110.0220608548302
 21
2.478208457928303
 31
0.0
100
AcDbAttributeDefinition
  3
Localização do desenho:
  2
LOC-DWG
 70
     0
 74
     2
  0
LINE
  5
BB9
330
B9E
100
AcDbEntity
  8
3
100
AcDbLine
 10
-135.0
 20
4.0
 30
0.0
 11
0.0000000000004547
 21
4.0
 31
0.0
  0
LINE
  5
BBA
330
B9E
100
AcDbEntity
  8
3
100
AcDbLine
 10
-90.00000000000046
 20
12.0
 30
0.0
 11
-135.0
 21
12.0
 31
0.0
  0
LINE
  5
BBB
330
B9E
100
AcDbEntity
  8
3
100
AcDbLine
 10
-135.0
 20
32.5
 30
0.0
 11
-40.0
 21
32.5
 31
0.0
  0
TEXT
  5
BBC
330
B9E
100
AcDbEntity
  8
1
100
AcDbText
 10
-134.0
 20
1.25
 30
0.0
 40
2.0
  1
Localização do des.:
 41
0.8
  7
SANINDUSA
 11
-134.0
 21
2.25
 31
0.0
100
AcDbText
 73
     2
  0
LINE
  5
BBD
330
B9E
100
AcDbEntity
  8
3
100
AcDbLine
 10
-180.0
 20
65.0
 30
0.0
 11
0.0
 21
65.0
 31
0.0
  0
LINE
  5
BBE
330
B9E
100
AcDbEntity
  8
leg fin
100
AcDbLine
 10
-40.0
 20
25.05956924886846
 30
0.0
 11
-135.0
 21
25.05956924886846
 31
0.0
  0
LINE
  5
BBF
330
B9E
100
AcDbEntity
  8
leg fin
100
AcDbLine
 10
-40.0
 20
28.5
 30
0.0
 11
-135.0
 21
28.5
 31
0.0
  0
LINE
  5
BC0
330
B9E
100
AcDbEntity
  8
3
100
AcDbLine
 10
-135.0
 20
50.0
 30
0.0
 11
-40.0
 21
50.0
 31
0.0
  0
TEXT
  5
BC1
330
B9E
100
AcDbEntity
  8
1
100
AcDbText
 10
-134.0
 20
29.75
 30
0.0
 40
2.0
  1
Desenho nº:
 41
0.8
  7
SANINDUSA
 11
-134.0
 21
30.75
 31
0.0
100
AcDbText
 73
     2
  0
TEXT
  5
BC2
330
B9E
100
AcDbEntity
  8
1
100
AcDbText
 10
-134.0
 20
9.25
 30
0.0
 40
2.0
  1
Acabamento:
 41
0.8
  7
SANINDUSA
 11
-134.0
 21
10.25
 31
0.0
100
AcDbText
 73
     2
  0
LINE
  5
BC3
330
B9E
100
AcDbEntity
  8
3
100
AcDbLine
 10
-180.0
 20
20.0
 30
0.0
 11
0.0
 21
20.0
 31
0.0
  0
LINE
  5
BC4
330
B9E
100
AcDbEntity
  8
1
100
AcDbLine
 10
-174.5810776056337
 20
55.5
 30
0.0
 11
-174.5810776056337
 21
65.0
 31
0.0
  0
LINE
  5
BC5
330
B9E
100
AcDbEntity
  8
1
100
AcDbLine
 10
-168.9210461879161
 20
55.5
 30
0.0
 11
-168.9210461879161
 21
65.0
 31
0.0
  0
LINE
  5
BC6
330
B9E
100
AcDbEntity
  8
1
100
AcDbLine
 10
-154.0988595589306
 20
55.5
 30
0.0
 11
-154.0988595589306
 21
65.0
 31
0.0
  0
LINE
  5
BC7
330
B9E
100
AcDbEntity
  8
3
100
AcDbLine
 10
-180.0
 20
65.0
 30
0.0
 11
-180.0
 21
0.0
 31
0.0
  0
LINE
  5
BC8
330
B9E
100
AcDbEntity
  8
3
100
AcDbLine
 10
-135.0
 20
0.0
 30
0.0
 11
-135.0
 21
65.0
 31
0.0
  0
TEXT
  5
BC9
330
B9E
100
AcDbEntity
  8
1
100
AcDbText
 10
-179.0
 20
9.75
 30
0.0
 40
1.5
  1
Des.
 41
0.8
  7
SANINDUSA
 11
-179.0
 21
10.5
 31
0.0
100
AcDbText
 73
     2
  0
LINE
  5
BCA
330
B9E
100
AcDbEntity
  8
1
100
AcDbLine
 10
-168.9210461879161
 20
20.0
 30
0.0
 11
-168.9210461879161
 21
0.0
 31
0.0
  0
LINE
  5
BCB
330
B9E
100
AcDbEntity
  8
1
100
AcDbLine
 10
-154.0988595589306
 20
20.0
 30
0.0
 11
-154.0988595589306
 21
0.0
 31
0.0
  0
LINE
  5
BCC
330
B9E
100
AcDbEntity
  8
1
100
AcDbLine
 10
-180.0
 20
4.0
 30
0.0
 11
-135.0
 21
4.0
 31
0.0
  0
LINE
  5
BCD
330
B9E
100
AcDbEntity
  8
1
100
AcDbLine
 10
-180.0
 20
8.0
 30
0.0
 11
-135.0
 21
8.0
 31
0.0
  0
TEXT
  5
BCE
330
B9E
100
AcDbEntity
  8
1
100
AcDbText
 10
-179.0
 20
1.73257823687436
 30
0.0
 40
1.5
  1
Aprov.
 41
0.8
  7
SANINDUSA
 11
-179.0
 21
2.48257823687436
 31
0.0
100
AcDbText
 73
     2
  0
TEXT
  5
BCF
330
B9E
100
AcDbEntity
  8
1
100
AcDbText
 10
-179.0
 20
5.75
 30
0.0
 40
1.5
  1
Ver.
 41
0.8
  7
SANINDUSA
 11
-179.0
 21
6.5
 31
0.0
100
AcDbText
 73
     2
  0
LINE
  5
BD0
330
B9E
100
AcDbEntity
  8
1
100
AcDbLine
 10
-180.0
 20
16.0
 30
0.0
 11
-135.0
 21
16.0
 31
0.0
  0
LINE
  5
BD1
330
B9E
100
AcDbEntity
  8
1
100
AcDbLine
 10
-180.0
 20
12.0
 30
0.0
 11
-135.0
 21
12.0
 31
0.0
  0
TEXT
  5
BD2
330
B9E
100
AcDbEntity
  8
1
100
AcDbText
 10
-179.0
 20
13.75
 30
0.0
 40
1.5
  1
Proj.
 41
0.8
  7
SANINDUSA
 11
-179.0
 21
14.5
 31
0.0
100
AcDbText
 73
     2
  0
TEXT
  5
BD3
330
B9E
100
AcDbEntity
  8
1
100
AcDbText
 10
-167.9210461879161
 20
17.75
 30
0.0
 40
1.5
  1
Data
 41
0.8
  7
SANINDUSA
 11
-167.9210461879161
 21
18.5
 31
0.0
100
AcDbText
 73
     2
  0
TEXT
  5
BD4
330
B9E
100
AcDbEntity
  8
1
100
AcDbText
 10
-153.0988595589306
 20
17.75
 30
0.0
 40
1.5
  1
Nome
 41
0.8
  7
SANINDUSA
 11
-153.0988595589306
 21
18.5
 31
0.0
100
AcDbText
 73
     2
  0
LINE
  5
BD5
330
B9E
100
AcDbEntity
  8
leg fin
100
AcDbLine
 10
-130.0
 20
20.0
 30
0.0
 11
-130.0
 21
28.5
 31
0.0
  0
TEXT
  5
BD6
330
B9E
100
AcDbEntity
  8
1
100
AcDbText
 10
-134.0
 20
17.25
 30
0.0
 40
2.0
  1
Material:
 41
0.8
  7
SANINDUSA
 11
-134.0
 21
18.25
 31
0.0
100
AcDbText
 73
     2
  0
TEXT
  5
BD7
330
B9E
100
AcDbEntity
  8
1
100
AcDbText
 10
-129.0
 20
26.43288406845113
 30
0.0
 40
1.5
  1
Ano:
 41
0.8
  7
SANINDUSA
 11
-129.0
 21
27.18288406845113
 31
0.0
100
AcDbText
 73
     2
  0
LINE
  5
BD8
330
B9E
100
AcDbEntity
  8
1
100
AcDbLine
 10
-180.0
 20
55.5
 30
0.0
 11
-135.0
 21
55.5
 31
0.0
  0
TEXT
  5
BD9
330
B9E
100
AcDbEntity
  8
1
100
AcDbText
 10
-179.0
 20
52.67772246885193
 30
0.0
 40
1.5
  1
descrição
 41
0.8
  7
SANINDUSA
 11
-179.0
 21
53.42772246885193
 31
0.0
100
AcDbText
 73
     2
  0
TEXT
  5
BDA
330
B9E
100
AcDbEntity
  8
1
100
AcDbText
 10
-134.0
 20
47.25
 30
0.0
 40
2.0
  1
Peça:
 41
0.8
  7
SANINDUSA
 11
-134.0
 21
48.25
 31
0.0
100
AcDbText
 73
     2
  0
LINE
  5
BDB
330
B9E
100
AcDbEntity
  8
1
100
AcDbLine
 10
-180.0
 20
59.5
 30
0.0
 11
-135.0
 21
59.5
 31
0.0
  0
TEXT
  5
BDC
330
B9E
100
AcDbEntity
  8
1
100
AcDbText
 10
-173.5810776056337
 20
62.75
 30
0.0
 40
1.5
  1
Alt.
 41
0.8
  7
SANINDUSA
 11
-173.5810776056337
 21
63.5
 31
0.0
100
AcDbText
 73
     2
  0
TEXT
  5
BDD
330
B9E
100
AcDbEntity
  8
1
100
AcDbText
 10
-179.0
 20
62.75
 30
0.0
 40
1.5
  1
Rev.
 41
0.8
  7
SANINDUSA
 11
-179.0
 21
63.5
 31
0.0
100
AcDbText
 73
     2
  0
TEXT
  5
BDE
330
B9E
100
AcDbEntity
  8
1
100
AcDbText
 10
-167.9210461879161
 20
62.75
 30
0.0
 40
1.5
  1
Data
 41
0.8
  7
SANINDUSA
 11
-167.9210461879161
 21
63.5
 31
0.0
100
AcDbText
 73
     2
  0
TEXT
  5
BDF
330
B9E
100
AcDbEntity
  8
1
100
AcDbText
 10
-153.0988595589306
 20
62.75
 30
0.0
 40
1.5
  1
Nome
 41
0.8
  7
SANINDUSA
 11
-153.0988595589306
 21
63.5
 31
0.0
100
AcDbText
 73
     2
  0
TEXT
  5
BE0
330
B9E
100
AcDbEntity
  8
1
100
AcDbText
 10
-134.0
 20
62.25
 30
0.0
 40
2.0
  1
Produto:
 41
0.8
  7
SANINDUSA
 11
-134.0
 21
63.25
 31
0.0
100
AcDbText
 73
     2
  0
LINE
  5
BE1
330
B9E
100
AcDbEntity
  8
3
100
AcDbLine
 10
-40.0
 20
4.0
 30
0.0
 11
-40.0
 21
65.0
 31
0.0
  0
LWPOLYLINE
  5
BE2
102
{ACAD_REACTORS
330
BEC
102
}
330
B9E
100
AcDbEntity
  8
9
100
AcDbPolyline
 90
       12
 70
     1
 43
0.0
 10
-3.038714600644652
 20
58.90010174665076
 10
-5.726962862472191
 20
58.90010174665076
 10
-5.726962862472191
 20
58.5001017466509
 10
-3.038748516195028
 20
58.5001017466509
 42
-0.4142135623731731
 10
-2.638748516194482
 20
58.1001017466508
 10
-2.638748516194482
 20
57.42799728675596
 10
-5.21497371544865
 20
57.42799728675596
 42
0.4142135623731289
 10
-6.014973715448377
 20
56.627997286756
 10
-6.014973715448377
 20
55.92380871629643
 42
0.4142135623731132
 10
-5.21497371544865
 20
55.12380871629648
 10
-2.23871460064447
 20
55.12380871629648
 10
-2.23871460064447
 20
58.10010174665103
 42
0.4142135623730717
  0
LWPOLYLINE
  5
BE3
102
{ACAD_REACTORS
330
BEC
102
}
330
B9E
100
AcDbEntity
  8
9
100
AcDbPolyline
 90
       20
 70
     1
 43
0.0
 10
-10.01531287095122
 20
57.82799728675581
 10
-10.01531287095122
 20
58.10010174665103
 42
-0.4142135623730744
 10
-9.615312870951584
 20
58.5001017466509
 10
-6.92703069357276
 20
58.5001017466509
 10
-6.92703069357276
 20
58.90010174665076
 10
-9.615346786501959
 20
58.90010174665076
 42
0.4142135623730883
 10
-10.41534678650168
 20
58.1001017466508
 10
-10.41534678650168
 20
57.82796337120567
 42
0.4142135623730717
 10
-9.615346786501959
 20
57.02796337120571
 10
-7.423079531965413
 20
57.02796337120571
 42
-0.4142135623730847
 10
-7.023079531965322
 20
56.62796337120562
 10
-7.023079531965322
 20
55.90786840766487
 42
-0.4142135623730744
 10
-7.423079531965413
 20
55.507868407665
 10
-10.41534678650168
 20
55.507868407665
 10
-10.41534678650168
 20
55.12380871629648
 10
-7.445787917283723
 20
55.12380871629648
 42
0.4114777732064574
 10
-6.645822882998345
 20
55.9163291493976
 10
-6.639238813324936
 20
56.62051771985716
 42
0.4169546541682913
 10
-7.439203847610315
 20
57.42799728675596
 10
-9.615312870951584
 20
57.42799728675596
 42
-0.4142135623731576
  0
LWPOLYLINE
  5
BE4
102
{ACAD_REACTORS
330
BEC
102
}
330
B9E
100
AcDbEntity
  8
9
100
AcDbPolyline
 90
       12
 70
     1
 43
0.0
 10
-14.41561811090378
 20
58.90010174665076
 10
-14.79964388672215
 20
58.90010174665076
 10
-14.79964388672215
 20
55.92380871629643
 42
0.4142135623731133
 10
-13.99964388672242
 20
55.12380871629648
 10
-11.8233508563676
 20
55.12380871629648
 42
0.4142135623730872
 10
-11.02335085636741
 20
55.92380871629643
 10
-11.02335085636741
 20
58.90010174665076
 10
-11.42338477191788
 20
58.90010174665076
 10
-11.42338477191788
 20
55.91567577726095
 42
-0.4131711701795318
 10
-11.82196067063523
 20
55.51567831234956
 10
-14.0141940096214
 20
55.50787335710947
 42
-0.4152567234624407
 10
-14.41561811090378
 20
55.90787082202087
  0
LWPOLYLINE
  5
BE5
102
{ACAD_REACTORS
330
BEC
102
}
330
B9E
100
AcDbEntity
  8
9
100
AcDbPolyline
 90
        6
 70
     1
 43
0.0
 10
-15.80771578768872
 20
55.507868407665
 10
-18.39994912667453
 20
55.507868407665
 42
-0.4142135623731731
 10
-18.79994912667462
 20
55.90786840766487
 10
-18.79994912667462
 20
58.10010174665103
 42
-0.4142135623730744
 10
-18.39994912667453
 20
58.5001017466509
 10
-15.80771578768872
 20
58.5001017466509
  0
LWPOLYLINE
  5
BE6
102
{ACAD_REACTORS
330
BEC
102
}
330
B9E
100
AcDbEntity
  8
9
100
AcDbPolyline
 90
        8
 70
     1
 43
0.0
 10
-15.4236900118708
 20
59.87619128370352
 10
-15.80771578768872
 20
59.87619128370352
 10
-15.80771578768872
 20
58.90010174665076
 10
-18.39176256411201
 20
58.90010174665076
 42
0.4131164467977967
 10
-19.19175694739761
 20
58.1030995310698
 10
-19.1999120763262
 20
55.92680650071542
 42
0.4153115297271718
 10
-18.39991769304061
 20
55.12380871629648
 10
-15.4236900118708
 20
55.12380871629648
  0
LWPOLYLINE
  5
BE7
102
{ACAD_REACTORS
330
BEC
102
}
330
B9E
100
AcDbEntity
  8
9
100
AcDbPolyline
 90
       10
 70
     1
 43
0.0
 10
-20.59201288790928
 20
58.90010174665076
 10
-23.56830591826338
 20
58.90010174665076
 10
-23.56830591826338
 20
55.12380871629648
 10
-23.18424622689509
 20
55.12380871629648
 10
-23.18424622689509
 20
58.5001017466509
 10
-20.59204680345965
 20
58.5001017466509
 42
-0.4142135623730898
 10
-20.19204680345956
 20
58.1001017466508
 10
-20.19204680345956
 20
55.12380871629648
 10
-19.79201288790909
 20
55.12380871629648
 10
-19.79201288790909
 20
58.10010174665103
 42
0.4142135623731132
  0
LWPOLYLINE
  5
BE8
102
{ACAD_REACTORS
330
BEC
102
}
330
B9E
100
AcDbEntity
  8
9
100
AcDbPolyline
 90
        4
 70
     1
 43
0.0
 10
-24.19231812786165
 20
58.90010174665076
 10
-24.57637781922995
 20
58.90010174665076
 10
-24.57637781922995
 20
55.12380871629648
 10
-24.19231812786165
 20
55.12380871629648
  0
LWPOLYLINE
  5
BE9
102
{ACAD_REACTORS
330
BEC
102
}
330
B9E
100
AcDbEntity
  8
9
100
AcDbPolyline
 90
       10
 70
     1
 43
0.0
 10
-28.57661522808212
 20
58.5001017466509
 10
-25.98444972019706
 20
58.5001017466509
 42
-0.4142135623731731
 10
-25.58444972019652
 20
58.1001017466508
 10
-25.58444972019652
 20
55.12380871629648
 10
-25.2004239443786
 20
55.12380871629648
 10
-25.2004239443786
 20
58.10010174665103
 42
0.4142135623730717
 10
-26.00042394437833
 20
58.90010174665076
 10
-28.97664914363259
 20
58.90010174665076
 10
-28.97664914363259
 20
55.12380871629648
 10
-28.57661522808212
 20
55.12380871629648
  0
LWPOLYLINE
  5
BEA
102
{ACAD_REACTORS
330
BEC
102
}
330
B9E
100
AcDbEntity
  8
9
100
AcDbPolyline
 90
       12
 70
     1
 43
0.0
 10
-29.58465321349832
 20
58.10010174665103
 42
0.4142135623730716
 10
-30.3846532134985
 20
58.90010174665076
 10
-33.07296930642724
 20
58.90010174665076
 10
-33.07296930642724
 20
58.5001017466509
 10
-30.38468712904842
 20
58.5001017466509
 42
-0.4142135623730067
 10
-29.98468712904878
 20
58.1001017466508
 10
-29.98468712904878
 20
57.42799728675618
 10
-32.56098015940324
 20
57.42799728675596
 42
0.4142135623731289
 10
-33.36098015940343
 20
56.627997286756
 10
-33.36098015940343
 20
55.92380871629643
 42
0.4142135623731132
 10
-32.56098015940324
 20
55.12380871629648
 10
-29.58465321349832
 20
55.12380871629648
  0
LWPOLYLINE
  5
BEB
102
{ACAD_REACTORS
330
BEC
102
}
330
B9E
100
AcDbEntity
  8
9
100
AcDbPolyline
 90
       20
 70
     1
 43
0.0
 10
-34.7850262845518
 20
57.42799728675596
 10
-36.96125148380543
 20
57.42799728675596
 42
-0.4142135623730898
 10
-37.36125148380552
 20
57.82799728675604
 10
-37.36125148380552
 20
58.10010174665103
 42
-0.4142135623730744
 10
-36.96125148380543
 20
58.5001017466509
 10
-34.27303713752781
 20
58.50010174665067
 10
-34.27303713752781
 20
58.90010174665076
 10
-36.96128539935535
 20
58.90010174665076
 42
0.4142135623731289
 10
-37.76128539935553
 20
58.1001017466508
 10
-37.76128539935553
 20
57.82796337120567
 42
0.4142135623730716
 10
-36.9612853993558
 20
57.02796337120571
 10
-34.76901814481926
 20
57.02796337120571
 42
-0.414213562373168
 10
-34.36901814481962
 20
56.62796337120562
 10
-34.36901814481962
 20
55.90786840766487
 42
-0.4142135623730744
 10
-34.76901814481926
 20
55.507868407665
 10
-37.76128539935553
 20
55.507868407665
 10
-37.76128539935553
 20
55.12380871629648
 10
-34.7850262845518
 20
55.12380871629648
 42
0.4142135623731289
 10
-33.98502628455162
 20
55.92380871629643
 10
-33.98502628455162
 20
56.627997286756
 42
0.4142135623731132
  0
HATCH
  5
BEC
330
B9E
100
AcDbEntity
  8
9
100
AcDbHatch
 10
0.0
 20
0.0
 30
0.0
210
0.0
220
0.0
230
1.0
  2
SOLID
 70
     1
 71
     1
 91
       13
 92
        7
 72
     1
 73
     1
 93
       20
 10
-34.36901814481962
 20
55.90786840766487
 42
-0.414213562372991
 10
-34.76901814481926
 20
55.507868407665
 42
0.0
 10
-37.76128539935553
 20
55.507868407665
 42
0.0
 10
-37.76128539935553
 20
55.12380871629648
 42
0.0
 10
-34.7850262845518
 20
55.12380871629648
 42
0.4142135623731705
 10
-33.98502628455162
 20
55.92380871629666
 42
0.0
 10
-33.98502628455162
 20
56.627997286756
 42
0.4142135623731547
 10
-34.7850262845518
 20
57.42799728675596
 42
0.0
 10
-36.96125148380543
 20
57.42799728675596
 42
-0.4142135623730898
 10
-37.36125148380552
 20
57.82799728675604
 42
0.0
 10
-37.36125148380552
 20
58.1001017466508
 42
-0.4142135623731575
 10
-36.96125148380543
 20
58.5001017466509
 42
0.0
 10
-34.27303713752781
 20
58.50010174665067
 42
0.0
 10
-34.27303713752781
 20
58.90010174665076
 42
0.0
 10
-36.96128539935535
 20
58.90010174665076
 42
0.4142135623731705
 10
-37.76128539935553
 20
58.10010174665058
 42
0.0
 10
-37.76128539935553
 20
57.82796337120544
 42
0.4142135623730299
 10
-36.9612853993558
 20
57.02796337120571
 42
0.0
 10
-34.76901814481926
 20
57.02796337120571
 42
-0.4142135623730015
 10
-34.36901814481962
 20
56.62796337120608
 42
0.0
 97
        1
330
BEB
 92
        7
 72
     1
 73
     1
 93
       12
 10
-33.36098015940343
 20
55.92380871629666
 42
0.4142135623731547
 10
-32.56098015940324
 20
55.12380871629648
 42
0.0
 10
-29.58465321349877
 20
55.12380871629648
 42
0.0
 10
-29.58465321349832
 20
58.10010174665058
 42
0.4142135623731964
 10
-30.3846532134985
 20
58.90010174665076
 42
0.0
 10
-33.07296930642724
 20
58.90010174665076
 42
0.0
 10
-33.07296930642724
 20
58.50010174665067
 42
0.0
 10
-30.38468712904887
 20
58.5001017466509
 42
-0.4142135623732564
 10
-29.98468712904878
 20
58.10010174665103
 42
0.0
 10
-29.98468712904923
 20
57.42799728675596
 42
0.0
 10
-32.56098015940324
 20
57.42799728675596
 42
0.4142135623731705
 10
-33.36098015940343
 20
56.627997286756
 42
0.0
 97
        1
330
BEA
 92
       22
 72
     1
 73
     1
 93
        6
 10
-32.97692046803468
 20
56.62796337120562
 42
-0.4142135623731576
 10
-32.57692046803459
 20
57.02796337120571
 42
0.0
 10
-29.98468712904878
 20
57.02796337120571
 42
0.0
 10
-29.98468712904878
 20
55.507868407665
 42
0.0
 10
-32.57692046803459
 20
55.507868407665
 42
-0.4142135623731731
 10
-32.97692046803468
 20
55.90786840766487
 42
0.0
 97
        1
330
C11
 92
        7
 72
     1
 73
     1
 93
       10
 10
-28.57661522808212
 20
58.5001017466509
 42
0.0
 10
-25.98444972019661
 20
58.5001017466509
 42
-0.4142135623730067
 10
-25.58444972019652
 20
58.10010174665058
 42
0.0
 10
-25.58444972019606
 20
55.12380871629648
 42
0.0
 10
-25.20042394437906
 20
55.12380871629648
 42
0.0
 10
-25.2004239443786
 20
58.1001017466508
 42
0.4142135623731134
 10
-26.00042394437833
 20
58.90010174665076
 42
0.0
 10
-28.97664914363259
 20
58.90010174665076
 42
0.0
 10
-28.97664914363259
 20
55.12380871629648
 42
0.0
 10
-28.57661522808212
 20
55.12380871629648
 42
0.0
 97
        1
330
BE9
 92
        7
 72
     0
 73
     1
 93
        4
 10
-24.57637781922995
 20
55.12380871629648
 10
-24.19231812786165
 20
55.12380871629648
 10
-24.19231812786165
 20
58.90010174665076
 10
-24.57637781922995
 20
58.90010174665076
 97
        1
330
BE8
 92
        7
 72
     0
 73
     1
 93
        4
 10
-24.19231812786165
 20
59.87619128370352
 10
-24.5763778192304
 20
59.87619128370352
 10
-24.5763778192304
 20
59.28412752246913
 10
-24.1923181278612
 20
59.28412752246913
 97
        1
330
C12
 92
        7
 72
     1
 73
     1
 93
       10
 10
-23.18424622689509
 20
58.5001017466509
 42
0.0
 10
-20.59204680345965
 20
58.5001017466509
 42
-0.4142135623730898
 10
-20.19204680345956
 20
58.1001017466508
 42
0.0
 10
-20.19204680345956
 20
55.12380871629648
 42
0.0
 10
-19.79201288790909
 20
55.12380871629648
 42
0.0
 10
-19.79201288790909
 20
58.1001017466508
 42
0.4142135623731547
 10
-20.59201288790928
 20
58.90010174665076
 42
0.0
 10
-23.56830591826338
 20
58.90010174665076
 42
0.0
 10
-23.56830591826338
 20
55.12380871629648
 42
0.0
 10
-23.18424622689463
 20
55.12380871629648
 42
0.0
 97
        1
330
BE7
 92
        7
 72
     1
 73
     1
 93
        8
 10
-19.1999120763262
 20
55.92680650071542
 42
0.4153115297271299
 10
-18.39991769304061
 20
55.12380871629648
 42
0.0
 10
-15.4236900118708
 20
55.12380871629648
 42
0.0
 10
-15.4236900118708
 20
59.87619128370352
 42
0.0
 10
-15.80771578768872
 20
59.87619128370352
 42
0.0
 10
-15.80771578768872
 20
58.90010174665076
 42
0.0
 10
-18.39176256411201
 20
58.90010174665076
 42
0.4131164467977965
 10
-19.19175694739761
 20
58.1030995310698
 42
0.0
 97
        1
330
BE6
 92
       22
 72
     1
 73
     1
 93
        6
 10
-18.79994912667462
 20
58.1001017466508
 42
-0.4142135623731575
 10
-18.39994912667453
 20
58.5001017466509
 42
0.0
 10
-15.80771578768872
 20
58.50010174665067
 42
0.0
 10
-15.80771578768827
 20
55.507868407665
 42
0.0
 10
-18.39994912667453
 20
55.507868407665
 42
-0.4142135623731731
 10
-18.79994912667462
 20
55.90786840766487
 42
0.0
 97
        1
330
BE5
 92
        7
 72
     1
 73
     1
 93
       12
 10
-14.79964388672215
 20
55.92380871629621
 42
0.4142135623729885
 10
-13.99964388672242
 20
55.12380871629648
 42
0.0
 10
-11.8233508563676
 20
55.12380871629648
 42
0.4142135623731289
 10
-11.02335085636741
 20
55.92380871629666
 42
0.0
 10
-11.02335085636741
 20
58.90010174665076
 42
0.0
 10
-11.42338477191788
 20
58.90010174665076
 42
0.0
 10
-11.42338477191788
 20
55.91567577726095
 42
-0.4131711701795319
 10
-11.82196067063523
 20
55.51567831234956
 42
0.0
 10
-14.01419400962095
 20
55.50787335710947
 42
-0.4152567234626918
 10
-14.41561811090378
 20
55.90787082202087
 42
0.0
 10
-14.41561811090378
 20
58.90010174665076
 42
0.0
 10
-14.7996438867226
 20
58.90010174665076
 42
0.0
 97
        1
330
BE4
 92
        7
 72
     1
 73
     1
 93
       20
 10
-7.423079531965413
 20
57.02796337120571
 42
-0.414213562373168
 10
-7.023079531965322
 20
56.62796337120562
 42
0.0
 10
-7.023079531965322
 20
55.90786840766487
 42
-0.4142135623731575
 10
-7.423079531965413
 20
55.507868407665
 42
0.0
 10
-10.41534678650168
 20
55.507868407665
 42
0.0
 10
-10.41534678650168
 20
55.12380871629648
 42
0.0
 10
-7.445787917283723
 20
55.12380871629648
 42
0.4114777732065809
 10
-6.645822882998345
 20
55.91632914939783
 42
0.0
 10
-6.639238813324936
 20
56.62051771985716
 42
0.4169546541682913
 10
-7.439203847610315
 20
57.42799728675596
 42
0.0
 10
-9.615312870951584
 20
57.42799728675596
 42
-0.4142135623729911
 10
-10.01531287095122
 20
57.82799728675581
 42
0.0
 10
-10.01531287095122
 20
58.10010174665103
 42
-0.414213562372991
 10
-9.615312870951584
 20
58.5001017466509
 42
0.0
 10
-6.92703069357276
 20
58.50010174665067
 42
0.0
 10
-6.927030693572305
 20
58.90010174665076
 42
0.0
 10
-9.615346786501959
 20
58.90010174665076
 42
0.4142135623730467
 10
-10.41534678650168
 20
58.10010174665103
 42
0.0
 10
-10.41534678650168
 20
57.82796337120544
 42
0.4142135623730301
 10
-9.615346786501959
 20
57.02796337120571
 42
0.0
 97
        1
330
BE3
 92
        7
 72
     1
 73
     1
 93
       12
 10
-5.21497371544865
 20
57.42799728675596
 42
0.4142135623730871
 10
-6.014973715448377
 20
56.627997286756
 42
0.0
 10
-6.014973715448377
 20
55.92380871629621
 42
0.4142135623730715
 10
-5.21497371544865
 20
55.12380871629648
 42
0.0
 10
-2.23871460064447
 20
55.12380871629648
 42
0.0
 10
-2.23871460064447
 20
58.10010174665058
 42
0.414213562373155
 10
-3.038714600644652
 20
58.90010174665076
 42
0.0
 10
-5.726962862471737
 20
58.90010174665076
 42
0.0
 10
-5.726962862472191
 20
58.5001017466509
 42
0.0
 10
-3.038748516194573
 20
58.5001017466509
 42
-0.4142135623730067
 10
-2.638748516194482
 20
58.10010174665058
 42
0.0
 10
-2.638748516194482
 20
57.42799728675596
 42
0.0
 97
        1
330
BE2
 92
       22
 72
     1
 73
     1
 93
        6
 10
-2.638748516194937
 20
57.02796337120571
 42
0.0
 10
-2.638748516194482
 20
55.50786840766477
 42
0.0
 10
-5.21497371544865
 20
55.507868407665
 42
-0.4142135623731731
 10
-5.614973715448741
 20
55.90786840766509
 42
0.0
 10
-5.614973715448741
 20
56.62796337120562
 42
-0.4142135623731576
 10
-5.21497371544865
 20
57.02796337120571
 42
0.0
 97
        1
330
C0D
 75
     0
 76
     1
 47
0.0407044778999864
 98
       13
 10
-34.18710075113677
 20
56.16907953933765
 10
-33.12851374392494
 20
56.49471602641233
 10
-33.12851374392494
 20
56.49471602641233
 10
-28.77202873835904
 20
57.51232930166111
 10
-24.41554807250941
 20
57.91937341678636
 10
-24.41554807250941
 20
59.384734621186
 10
-23.31624584658039
 20
58.3264175319116
 10
-19.04119127844888
 20
57.75655517324913
 10
-19.04119127844888
 20
57.75655517324913
 10
-14.64399105416578
 20
57.43091868617466
 10
-8.048195057457178
 20
57.22739662861204
 10
-4.017427461911665
 20
57.18669281458665
 10
-4.017427461911665
 20
57.18669281458665
  0
TEXT
  5
BED
330
B9E
100
AcDbEntity
  8
leg fin
100
AcDbText
 10
3.391127401597259
 20
2.107634911895729
 30
0.0
 40
1.5
  1
Este desenho é propriedade da Sanindusa, S.A., e não pode ser copiado nem divulgado sem nossa autorização.
 50
90.0
 41
0.8
  7
SANINDUSA
100
AcDbText
  0
LINE
  5
BEE
330
B9E
100
AcDbEntity
  8
3
100
AcDbLine
 10
-90.0
 20
4.0
 30
0.0
 11
-90.0
 21
12.0
 31
0.0
  0
TEXT
  5
BEF
330
B9E
100
AcDbEntity
  8
1
100
AcDbText
 10
-39.0
 20
9.25
 30
0.0
 40
2.0
  1
Substituido por:
 41
0.8
  7
SANINDUSA
 11
-39.0
 21
10.25
 31
0.0
100
AcDbText
 73
     2
  0
POINT
  5
BF0
330
B9E
100
AcDbEntity
  8
SANINDUSA
100
AcDbPoint
 10
0.0
 20
0.0
 30
0.0
  0
TEXT
  5
BF1
330
B9E
100
AcDbEntity
  8
1
100
AcDbText
 10
-89.0
 20
16.74927010445663
 30
0.0
 40
2.0
  1
Normas:
 41
0.8
  7
SANINDUSA
 11
-89.0
 21
17.74927010445663
 31
0.0
100
AcDbText
 73
     2
  0
LINE
  5
BF2
330
B9E
100
AcDbEntity
  8
3
100
AcDbLine
 10
-90.0
 20
12.0
 30
0.0
 11
-90.0
 21
20.0
 31
0.0
  0
LINE
  5
BF3
330
B9E
100
AcDbEntity
  8
3
100
AcDbLine
 10
-110.546019464768
 20
12.0
 30
0.0
 11
-110.546019464768
 21
20.0
 31
0.0
  0
TEXT
  5
BF4
330
B9E
100
AcDbEntity
  8
1
100
AcDbText
 10
-109.6177520618648
 20
17.25
 30
0.0
 40
2.0
  1
Cor:
 41
0.8
  7
SANINDUSA
 11
-109.6177520618648
 21
18.25
 31
0.0
100
AcDbText
 73
     2
  0
LINE
  5
BF5
330
B9E
100
AcDbEntity
  8
leg fin
100
AcDbLine
 10
-91.42857142857156
 20
20.0
 30
0.0
 11
-91.42857142857156
 21
28.5
 31
0.0
  0
LINE
  5
BF6
330
B9E
100
AcDbEntity
  8
leg fin
100
AcDbLine
 10
-104.2857142857142
 20
20.0
 30
0.0
 11
-104.2857142857142
 21
28.5
 31
0.0
  0
LINE
  5
BF7
330
B9E
100
AcDbEntity
  8
leg fin
100
AcDbLine
 10
-117.1428571428573
 20
20.0
 30
0.0
 11
-117.1428571428573
 21
28.5
 31
0.0
  0
POINT
  5
BF8
330
B9E
100
AcDbEntity
  8
SANINDUSA
100
AcDbPoint
 10
-117.1428571428573
 20
28.5
 30
0.0
  0
POINT
  5
BF9
330
B9E
100
AcDbEntity
  8
SANINDUSA
100
AcDbPoint
 10
-104.2857142857142
 20
28.5
 30
0.0
  0
POINT
  5
BFA
330
B9E
100
AcDbEntity
  8
SANINDUSA
100
AcDbPoint
 10
-91.42857142857156
 20
28.5
 30
0.0
  0
TEXT
  5
BFB
330
B9E
100
AcDbEntity
  8
1
100
AcDbText
 10
-116.200160604496
 20
26.43288406845113
 30
0.0
 40
1.5
  1
Nº Seq.:
 41
0.8
  7
SANINDUSA
 11
-116.200160604496
 21
27.18288406845113
 31
0.0
100
AcDbText
 73
     2
  0
TEXT
  5
BFC
330
B9E
100
AcDbEntity
  8
1
100
AcDbText
 10
-103.2106584078738
 20
26.43288406845113
 30
0.0
 40
1.5
  1
Tipo:
 41
0.8
  7
SANINDUSA
 11
-103.2106584078738
 21
27.18288406845113
 31
0.0
100
AcDbText
 73
     2
  0
TEXT
  5
BFD
330
B9E
100
AcDbEntity
  8
1
100
AcDbText
 10
-90.22114672289353
 20
26.43288406845113
 30
0.0
 40
1.5
  1
Prod.:
 41
0.8
  7
SANINDUSA
 11
-90.22114672289353
 21
27.18288406845113
 31
0.0
100
AcDbText
 73
     2
  0
TEXT
  5
BFE
330
B9E
100
AcDbEntity
  8
1
100
AcDbText
 10
-64.77320576346574
 20
26.43288406845113
 30
0.0
 40
1.5
  1
Rev.:
 41
0.8
  7
SANINDUSA
 11
-64.77320576346574
 21
27.18288406845113
 31
0.0
100
AcDbText
 73
     2
  0
LINE
  5
BFF
330
B9E
100
AcDbEntity
  8
leg fin
100
AcDbLine
 10
-52.85714285714266
 20
20.0
 30
0.0
 11
-52.85714285714266
 21
28.5
 31
0.0
  0
LINE
  5
C00
330
B9E
100
AcDbEntity
  8
leg fin
100
AcDbLine
 10
-65.71428571428578
 20
20.0
 30
0.0
 11
-65.71428571428578
 21
28.5
 31
0.0
  0
LINE
  5
C01
330
B9E
100
AcDbEntity
  8
leg fin
100
AcDbLine
 10
-78.57142857142844
 20
20.0
 30
0.0
 11
-78.57142857142844
 21
28.5
 31
0.0
  0
POINT
  5
C02
330
B9E
100
AcDbEntity
  8
SANINDUSA
100
AcDbPoint
 10
-78.57142857142844
 20
28.5
 30
0.0
  0
POINT
  5
C03
330
B9E
100
AcDbEntity
  8
SANINDUSA
100
AcDbPoint
 10
-65.71428571428578
 20
28.5
 30
0.0
  0
POINT
  5
C04
330
B9E
100
AcDbEntity
  8
SANINDUSA
100
AcDbPoint
 10
-52.85714285714266
 20
28.5
 30
0.0
  0
TEXT
  5
C05
330
B9E
100
AcDbEntity
  8
1
100
AcDbText
 10
-77.61097961686573
 20
26.43288406845113
 30
0.0
 40
1.5
  1
Peça:
 41
0.8
  7
SANINDUSA
 11
-77.61097961686573
 21
27.18288406845113
 31
0.0
100
AcDbText
 73
     2
  0
TEXT
  5
C06
330
B9E
100
AcDbEntity
  8
1
100
AcDbText
 10
-52.06538060077036
 20
26.43288406845113
 30
0.0
 40
1.5
  1
Alt.:
 41
0.8
  7
SANINDUSA
 11
-52.06538060077036
 21
27.18288406845113
 31
0.0
100
AcDbText
 73
     2
  0
LINE
  5
C07
330
B9E
100
AcDbEntity
  8
3
100
AcDbLine
 10
0.0
 20
12.0
 30
0.0
 11
-40.0
 21
12.0
 31
0.0
  0
LINE
  5
C08
330
B9E
100
AcDbEntity
  8
3
100
AcDbLine
 10
-40.0
 20
32.5
 30
0.0
 11
0.0
 21
32.5
 31
0.0
  0
TEXT
  5
C09
330
B9E
100
AcDbEntity
  8
1
100
AcDbText
 10
-19.0
 20
29.75
 30
0.0
 40
2.0
  1
Folha:
 41
0.8
  7
SANINDUSA
 11
-19.0
 21
30.75
 31
0.0
100
AcDbText
 73
     2
  0
LINE
  5
C0A
330
B9E
100
AcDbEntity
  8
3
100
AcDbLine
 10
-20.0
 20
32.5
 30
0.0
 11
-20.0
 21
20.0
 31
0.0
  0
TEXT
  5
C0B
330
B9E
100
AcDbEntity
  8
1
100
AcDbText
 10
-39.0
 20
29.75
 30
0.0
 40
2.0
  1
Escala:
 41
0.8
  7
SANINDUSA
 11
-39.0
 21
30.75
 31
0.0
100
AcDbText
 73
     2
  0
TEXT
  5
C0C
330
B9E
100
AcDbEntity
  8
1
100
AcDbText
 10
-39.0
 20
17.25
 30
0.0
 40
2.0
  1
Substitui:
 41
0.8
  7
SANINDUSA
 11
-39.0
 21
18.25
 31
0.0
100
AcDbText
 73
     2
  0
LWPOLYLINE
  5
C0D
102
{ACAD_REACTORS
330
BEC
102
}
330
B9E
100
AcDbEntity
  8
9
100
AcDbPolyline
 90
        6
 70
     1
 43
0.0
 10
-2.638748516194482
 20
57.02796337120571
 10
-2.638748516194482
 20
55.50786840766477
 10
-5.21497371544865
 20
55.507868407665
 42
-0.4142135623730898
 10
-5.614973715448741
 20
55.90786840766487
 10
-5.614973715448741
 20
56.62796337120562
 42
-0.4142135623731576
 10
-5.21497371544865
 20
57.02796337120571
  0
LINE
  5
C0E
330
B9E
100
AcDbEntity
  8
3
100
AcDbLine
 10
-40.0
 20
50.0
 30
0.0
 11
0.0
 21
50.0
 31
0.0
  0
ATTDEF
  5
C0F
330
B9E
100
AcDbEntity
  8
1
100
AcDbText
 10
-31.30691739422431
 20
40.25
 30
0.0
 40
2.0
  1
XXXXXXXXXXXXXXX
 41
0.8
  7
SANINDUSA
 72
     4
 11
-20.0
 21
41.25
 31
0.0
100
AcDbAttributeDefinition
  3
Observações:
  2
OBS
 70
     0
  0
TEXT
  5
C10
330
B9E
100
AcDbEntity
  8
1
100
AcDbText
 10
-39.0
 20
47.25
 30
0.0
 40
2.0
  1
Observações:
 41
0.8
  7
SANINDUSA
 11
-39.0
 21
48.25
 31
0.0
100
AcDbText
 73
     2
  0
LWPOLYLINE
  5
C11
102
{ACAD_REACTORS
330
BEC
102
}
330
B9E
100
AcDbEntity
  8
9
100
AcDbPolyline
 90
        6
 70
     1
 43
0.0
 10
-29.98468712904878
 20
57.02796337120571
 10
-29.98468712904878
 20
55.507868407665
 10
-32.57692046803459
 20
55.507868407665
 42
-0.4142135623731731
 10
-32.97692046803468
 20
55.90786840766487
 10
-32.97692046803468
 20
56.62796337120562
 42
-0.4142135623731576
 10
-32.57692046803459
 20
57.02796337120571
  0
LWPOLYLINE
  5
C12
102
{ACAD_REACTORS
330
BEC
102
}
330
B9E
100
AcDbEntity
  8
9
100
AcDbPolyline
 90
        4
 70
     1
 43
0.0
 10
-24.19231812786165
 20
59.87619128370352
 10
-24.57637781922995
 20
59.87619128370352
 10
-24.57637781922995
 20
59.28412752246913
 10
-24.19231812786165
 20
59.28412752246913
  0
ENDBLK
  5
C14
330
B9E
100
AcDbEntity
  8
0
100
AcDbBlockEnd
  0
BLOCK
  5
1061
330
1060
100
AcDbEntity
  8
0
 62
     4
100
AcDbBlockBegin
  2
guarnizione
 70
     0
 10
0.0
 20
0.0
 30
0.0
  3
guarnizione
  1

  0
LINE
  5
1062
330
1060
100
AcDbEntity
  8
0
100
AcDbLine
 10
12.0
 20
3.179312414488776
 30
0.0
 11
12.0
 21
2.699999999999818
 31
0.0
  0
LINE
  5
1063
330
1060
100
AcDbEntity
  8
0
100
AcDbLine
 10
9.5
 20
3.130475008156281
 30
0.0
 11
9.440776269158959
 21
2.734883615801663
 31
0.0
  0
ARC
  5
1064
330
1060
100
AcDbEntity
  8
0
100
AcDbCircle
 10
11.19999999999891
 20
3.179312414488776
 30
0.0
 40
0.8
100
AcDbArc
 50
0.0
 51
81.48552156587461
  0
ARC
  5
1065
330
1060
100
AcDbEntity
  8
0
100
AcDbCircle
 10
8.753809903480942
 20
1.523241254200002
 30
0.0
 40
0.1999999999999504
100
AcDbArc
 50
171.485521565823
 51
351.485521565823
  0
LINE
  5
1066
330
1060
100
AcDbEntity
  8
0
100
AcDbLine
 10
11.65558220186904
 20
-2.403306455734309
 30
0.0
 11
9.440776269158959
 21
-2.734883615802573
 31
0.0
  0
ARC
  5
1067
330
1060
100
AcDbEntity
  8
0
100
AcDbCircle
 10
8.753809903480942
 20
-1.523241254200911
 30
0.0
 40
0.1999999999999504
100
AcDbArc
 50
8.514478434176927
 51
188.5144784341769
  0
LINE
  5
1068
330
1060
100
AcDbEntity
  8
0
100
AcDbLine
 10
9.5
 20
-3.130475008157191
 30
0.0
 11
9.440776269158959
 21
-2.734883615802573
 31
0.0
  0
ARC
  5
1069
330
1060
100
AcDbEntity
  8
0
100
AcDbCircle
 10
11.69999999999891
 20
-2.699999999999818
 30
0.0
 40
0.3
100
AcDbArc
 50
0.0
 51
98.51447843412536
  0
ARC
  5
106A
330
1060
100
AcDbEntity
  8
0
100
AcDbCircle
 10
11.69999999999891
 20
2.699999999999818
 30
0.0
 40
0.3
100
AcDbArc
 50
261.4855215658746
 51
0.0
  0
LINE
  5
106B
330
1060
100
AcDbEntity
  8
0
100
AcDbLine
 10
11.65558220186904
 20
2.4033064557334
 30
0.0
 11
9.440776269158959
 21
2.734883615801663
 31
0.0
  0
LINE
  5
106C
330
1060
100
AcDbEntity
  8
0
100
AcDbLine
 10
8.807715063378054
 20
3.234116537129011
 30
0.0
 11
8.556014207302723
 21
1.552853119620522
 31
0.0
  0
LINE
  5
106D
330
1060
100
AcDbEntity
  8
0
100
AcDbLine
 10
9.203306455732672
 20
3.174892806287971
 30
0.0
 11
8.951605599657341
 21
1.493629388779481
 31
0.0
  0
LINE
  5
106E
330
1060
100
AcDbEntity
  8
0
100
AcDbLine
 10
6.681411329471302
 20
3.552444090400967
 30
0.0
 11
6.622187598630262
 21
3.15685269804544
 31
0.0
  0
ARC
  5
106F
330
1060
100
AcDbEntity
  8
0
100
AcDbCircle
 10
0.2999999999992724
 20
3.800000000000181
 30
0.0
 40
0.3
100
AcDbArc
 50
81.48552156587461
 51
180.0
  0
ARC
  5
1070
330
1060
100
AcDbEntity
  8
0
100
AcDbCircle
 10
1.042400829128382
 20
4.699999999999818
 30
0.0
 40
0.8
100
AcDbArc
 50
81.48552156587461
 51
90.0
  0
LINE
  5
1071
330
1060
100
AcDbEntity
  8
0
100
AcDbLine
 10
1.5
 20
3.923692082123125
 30
0.0
 11
0.3444177981309622
 21
4.09669354426569
 31
0.0
  0
LINE
  5
1072
330
1060
100
AcDbEntity
  8
0
100
AcDbLine
 10
1.5
 20
3.923692082123125
 30
0.0
 11
1.5
 21
3.099999999999454
 31
0.0
  0
LINE
  5
1073
330
1060
100
AcDbEntity
  8
0
100
AcDbLine
 10
1.5
 20
3.099999999999454
 30
0.0
 11
2.699999999998908
 21
3.099999999999454
 31
0.0
  0
LINE
  5
1074
330
1060
100
AcDbEntity
  8
0
100
AcDbLine
 10
2.699999999998908
 20
3.744040860223321
 30
0.0
 11
2.699999999998908
 21
3.099999999999454
 31
0.0
  0
LINE
  5
1075
330
1060
100
AcDbEntity
  8
0
100
AcDbLine
 10
6.622187598630262
 20
3.15685269804544
 30
0.0
 11
2.699999999998908
 21
3.744040860223321
 31
0.0
  0
LINE
  5
1076
330
1060
100
AcDbEntity
  8
0
100
AcDbLine
 10
1.5
 20
-3.100000000000363
 30
0.0
 11
2.699999999998908
 21
-3.100000000000363
 31
0.0
  0
LINE
  5
1077
330
1060
100
AcDbEntity
  8
0
100
AcDbLine
 10
11.31844746168099
 20
3.970495199198012
 30
0.0
 11
1.160848290810463
 21
5.491182784709053
 31
0.0
  0
LINE
  5
1078
330
1060
100
AcDbEntity
  8
0
100
AcDbLine
 10
9.5
 20
3.130475008156281
 30
0.0
 11
6.681411329471302
 21
3.552444090400967
 31
0.0
  0
ARC
  5
1079
330
1060
100
AcDbEntity
  8
0
100
AcDbCircle
 10
11.19999999999891
 20
-3.179312414488776
 30
0.0
 40
0.8
100
AcDbArc
 50
278.5144784341254
 51
0.0
  0
LINE
  5
107A
330
1060
100
AcDbEntity
  8
0
100
AcDbLine
 10
6.681411329471302
 20
-3.552444090400967
 30
0.0
 11
6.622187598630262
 21
-3.15685269804635
 31
0.0
  0
ARC
  5
107B
330
1060
100
AcDbEntity
  8
0
100
AcDbCircle
 10
0.2999999999992724
 20
-3.800000000000181
 30
0.0
 40
0.3
100
AcDbArc
 50
180.0
 51
278.5144784341254
  0
ARC
  5
107C
330
1060
100
AcDbEntity
  8
0
100
AcDbCircle
 10
1.042400829128382
 20
-4.699999999999818
 30
0.0
 40
0.8
100
AcDbArc
 50
270.0
 51
278.5144784341254
  0
LINE
  5
107D
330
1060
100
AcDbEntity
  8
0
100
AcDbLine
 10
0.3444177981309622
 20
-4.096693544266599
 30
0.0
 11
1.5
 21
-3.923692082124034
 31
0.0
  0
LINE
  5
107E
330
1060
100
AcDbEntity
  8
0
100
AcDbLine
 10
6.622187598630262
 20
-3.15685269804635
 30
0.0
 11
2.699999999998908
 21
-3.744040860224231
 31
0.0
  0
LINE
  5
107F
330
1060
100
AcDbEntity
  8
0
100
AcDbLine
 10
1.160848290810463
 20
-5.491182784709963
 30
0.0
 11
11.31844746168099
 21
-3.970495199198921
 31
0.0
  0
LINE
  5
1080
330
1060
100
AcDbEntity
  8
0
100
AcDbLine
 10
0.0
 20
3.800000000000181
 30
0.0
 11
0.0
 21
-3.800000000000181
 31
0.0
  0
LINE
  5
1081
330
1060
100
AcDbEntity
  8
0
100
AcDbLine
 10
12.0
 20
-2.699999999999818
 30
0.0
 11
12.0
 21
-3.179312414488776
 31
0.0
  0
LINE
  5
1082
330
1060
100
AcDbEntity
  8
0
100
AcDbLine
 10
2.699999999998908
 20
-3.100000000000363
 30
0.0
 11
2.699999999998908
 21
-3.744040860224231
 31
0.0
  0
LINE
  5
1083
330
1060
100
AcDbEntity
  8
0
100
AcDbLine
 10
1.5
 20
-3.100000000000363
 30
0.0
 11
1.5
 21
-3.923692082124034
 31
0.0
  0
LINE
  5
1084
330
1060
100
AcDbEntity
  8
0
100
AcDbLine
 10
9.5
 20
-3.130475008157191
 30
0.0
 11
6.681411329471302
 21
-3.552444090400967
 31
0.0
  0
LINE
  5
1085
330
1060
100
AcDbEntity
  8
0
100
AcDbLine
 10
9.203306455732672
 20
-3.174892806287971
 30
0.0
 11
8.951605599657341
 21
-1.493629388780391
 31
0.0
  0
LINE
  5
1086
330
1060
100
AcDbEntity
  8
0
100
AcDbLine
 10
8.807715063378054
 20
-3.234116537129011
 30
0.0
 11
8.556014207302723
 21
-1.552853119621431
 31
0.0
  0
LINE
  5
1087
330
1060
100
AcDbEntity
  8
0
100
AcDbLine
 10
-1.5
 20
5.5
 30
0.0
 11
-3.757359312881817
 21
5.5
 31
0.0
  0
ARC
  5
1088
330
1060
100
AcDbEntity
  8
0
100
AcDbCircle
 10
-2.5
 20
3.5
 30
0.0
 40
1.0
100
AcDbArc
 50
0.0
 51
90.0
  0
ARC
  5
1089
330
1060
100
AcDbEntity
  8
0
100
AcDbCircle
 10
-3.769781102879278
 20
4.149978862833449
 30
0.0
 40
0.75
100
AcDbArc
 50
47.16775949949599
 51
90.19499109987526
  0
ARC
  5
108A
330
1060
100
AcDbEntity
  8
0
100
AcDbCircle
 10
-2.75
 20
5.25
 30
0.0
 40
0.75
100
AcDbArc
 50
227.167759499496
 51
270.0
  0
LINE
  5
108B
330
1060
100
AcDbEntity
  8
0
100
AcDbLine
 10
-2.75
 20
4.5
 30
0.0
 11
-2.5
 21
4.5
 31
0.0
  0
LINE
  5
108C
330
1060
100
AcDbEntity
  8
0
100
AcDbLine
 10
-7.415254325502246
 20
3.064644661409147
 30
0.0
 11
-6.868629150101696
 21
3.611269837220788
 31
0.0
  0
ARC
  5
108D
102
{ACAD_REACTORS
330
10A7
102
}
330
1060
100
AcDbEntity
  8
0
100
AcDbCircle
 10
-7.980939750059405
 20
2.569669913566031
 30
0.0
 40
0.2
100
AcDbArc
 50
45.0000001037625
 51
135.0000000719631
  0
ARC
  5
108E
330
1060
100
AcDbEntity
  8
0
100
AcDbCircle
 10
-3.757359312881817
 20
0.5
 30
0.0
 40
5.0
100
AcDbArc
 50
90.0
 51
135.0
  0
ARC
  5
108F
330
1060
100
AcDbEntity
  8
0
100
AcDbCircle
 10
-3.757359312881817
 20
0.5
 30
0.0
 40
4.4
100
AcDbArc
 50
90.19499109987526
 51
135.0
  0
ARC
  5
1090
330
1060
100
AcDbEntity
  8
0
100
AcDbCircle
 10
-6.814213563102384
 20
0.9786796633270569
 30
0.0
 40
0.75
100
AcDbArc
 50
314.9999999676111
 51
45.0
  0
ARC
  5
1091
102
{ACAD_REACTORS
330
10A7
102
}
330
1060
100
AcDbEntity
  8
0
100
AcDbCircle
 10
-6.814213563102384
 20
0.9786796633270569
 30
0.0
 40
0.5
100
AcDbArc
 50
314.9999999676111
 51
45.0
  0
ARC
  5
1092
330
1060
100
AcDbEntity
  8
0
100
AcDbCircle
 10
-7.203122291144609
 20
2.852512627053329
 30
0.0
 40
0.3
100
AcDbArc
 50
135.0
 51
225.0000001112794
  0
LINE
  5
1093
330
1060
100
AcDbEntity
  8
0
100
AcDbLine
 10
-8.051650430128574
 20
3.276776694619002
 30
0.0
 11
-6.283883477519339
 21
1.509009749524921
 31
0.0
  0
LINE
  5
1094
102
{ACAD_REACTORS
330
10A7
102
}
330
1060
100
AcDbEntity
  8
0
100
AcDbLine
 10
-7.839518394079277
 20
2.711091270059114
 30
0.0
 11
-6.460660172508141
 21
1.33223305392039
 31
0.0
  0
ARC
  5
1095
330
1060
100
AcDbEntity
  8
0
100
AcDbCircle
 10
-12.57713383280133
 20
-2.521498914058611
 30
0.0
 40
0.3
100
AcDbArc
 50
45.00000003552097
 51
135.0
  0
ARC
  5
1096
102
{ACAD_REACTORS
330
10A7
102
}
330
1060
100
AcDbEntity
  8
0
100
AcDbCircle
 10
-12.29429112059733
 20
-1.743681468243266
 30
0.0
 40
0.2
100
AcDbArc
 50
135.0000000660675
 51
225.0000002990173
  0
LINE
  5
1097
330
1060
100
AcDbEntity
  8
0
100
AcDbLine
 10
-12.9899494936617
 20
-2.510050506339212
 30
0.0
 11
-12.78926586715715
 21
-2.309366879702793
 31
0.0
  0
LINE
  5
1098
330
1060
100
AcDbEntity
  8
0
100
AcDbLine
 10
-13.41421356237333
 20
-2.085786437626666
 30
0.0
 11
-7.292893218815152
 21
4.035533905932425
 31
0.0
  0
LINE
  5
1099
102
{ACAD_REACTORS
330
10A7
102
}
330
1060
100
AcDbEntity
  8
0
100
AcDbLine
 10
-12.43571247699765
 20
-1.602260112168551
 30
0.0
 11
-8.122361106474272
 21
2.711091269625285
 31
0.0
  0
ARC
  5
109A
330
1060
100
AcDbEntity
  8
0
100
AcDbCircle
 10
-2.5
 20
-3.5
 30
0.0
 40
1.0
100
AcDbArc
 50
270.0
 51
0.0
  0
ARC
  5
109B
330
1060
100
AcDbEntity
  8
0
100
AcDbCircle
 10
-7.519803902720013
 20
-4.150000000000545
 30
0.0
 40
0.75
100
AcDbArc
 50
270.0
 51
312.8334280660476
  0
ARC
  5
109C
330
1060
100
AcDbEntity
  8
0
100
AcDbCircle
 10
-6.5
 20
-5.25
 30
0.0
 40
0.75
100
AcDbArc
 50
90.0
 51
132.8334280660476
  0
LINE
  5
109D
330
1060
100
AcDbEntity
  8
0
100
AcDbLine
 10
-2.5
 20
-4.5
 30
0.0
 11
-6.5
 21
-4.5
 31
0.0
  0
ARC
  5
109E
330
1060
100
AcDbEntity
  8
0
100
AcDbCircle
 10
-10.7033008647486
 20
-2.910407640086305
 30
0.0
 40
0.75
100
AcDbArc
 50
225.0
 51
315.0
  0
ARC
  5
109F
102
{ACAD_REACTORS
330
10A7
102
}
330
1060
100
AcDbEntity
  8
0
100
AcDbCircle
 10
-10.7033008647486
 20
-2.910407640086305
 30
0.0
 40
0.5
100
AcDbArc
 50
225.0
 51
315.0
  0
LINE
  5
10A0
330
1060
100
AcDbEntity
  8
0
100
AcDbLine
 10
-1.5
 20
-5.5
 30
0.0
 11
-12.0
 21
-5.5
 31
0.0
  0
LINE
  5
10A1
330
1060
100
AcDbEntity
  8
0
100
AcDbLine
 10
-7.519803902720013
 20
-4.900000000000545
 30
0.0
 11
-12.0
 21
-4.900000000000545
 31
0.0
  0
ARC
  5
10A2
330
1060
100
AcDbEntity
  8
0
100
AcDbCircle
 10
-12.0
 20
-3.5
 30
0.0
 40
2.0
100
AcDbArc
 50
135.0
 51
270.0
  0
LINE
  5
10A3
330
1060
100
AcDbEntity
  8
0
100
AcDbLine
 10
-10.17297077881812
 20
-3.440737725935832
 30
0.0
 11
-6.283883477372
 21
0.4483495772774404
 31
0.0
  0
ARC
  5
10A4
330
1060
100
AcDbEntity
  8
0
100
AcDbCircle
 10
-12.0
 20
-3.5
 30
0.0
 40
1.399999999999999
100
AcDbArc
 50
135.0
 51
270.0
  0
LINE
  5
10A5
330
1060
100
AcDbEntity
  8
0
100
AcDbLine
 10
-13.00139790187859
 20
-1.672970777132832
 30
0.0
 11
-11.23363095093009
 21
-3.440737725682993
 31
0.0
  0
LINE
  5
10A6
330
1060
100
AcDbEntity
  8
0
100
AcDbLine
 10
-1.5
 20
3.5
 30
0.0
 11
-1.5
 21
-3.5
 31
0.0
  0
HATCH
  5
10A7
330
1060
100
AcDbEntity
  8
0
100
AcDbHatch
 10
0.0
 20
0.0
 30
0.0
210
0.0
220
0.0
230
1.0
  2
ANSI31
 70
     0
 71
     1
 91
        1
 92
        7
 72
     1
 73
     1
 93
        8
 10
-6.460660173204814
 20
1.332233054616153
 42
0.0
 10
-7.839518394101105
 20
2.711091270081851
 42
0.414213562178905
 10
-8.122361106481548
 20
2.711091269618009
 42
0.0
 10
-12.43571247701766
 20
-1.602260112190379
 42
0.4142135636146872
 10
-12.43571247604996
 20
-1.885102825264766
 42
0.0
 10
-11.05685425338015
 20
-3.263961032639599
 42
0.4142135608152901
 10
-10.34974747407432
 20
-3.263961030598693
 42
0.0
 10
-6.460660172428106
 20
0.625126272813759
 42
0.4142135628833784
 97
        8
330
1094
330
108D
330
1099
330
1096
330
10A9
330
109F
330
10A8
330
1091
 75
     0
 76
     1
 52
45.0
 41
0.25
 77
     0
 78
     1
 53
90.0
 43
-276.1145346408611
 44
-395.2719013892401
 45
-0.79375
 46
0.0000000000000002
 79
     0
 47
0.0364805528584695
 98
        1
 10
-7.399477738399582
 20
0.8532363732892918
  0
LINE
  5
10A8
102
{ACAD_REACTORS
330
10A7
102
}
330
1060
100
AcDbEntity
  8
0
100
AcDbLine
 10
-10.34974747415435
 20
-3.263961030678729
 30
0.0
 11
-6.46066017270823
 21
0.6251262725336347
 31
0.0
  0
LINE
  5
10A9
102
{ACAD_REACTORS
330
10A7
102
}
330
1060
100
AcDbEntity
  8
0
100
AcDbLine
 10
-12.43571247609543
 20
-1.885102825218382
 30
0.0
 11
-11.05685425534102
 21
-3.263961030678729
 31
0.0
  0
LINE
  5
10AA
330
1060
100
AcDbEntity
  8
0
100
AcDbLine
 10
-1.5
 20
5.5
 30
0.0
 11
1.042400829128382
 21
5.5
 31
0.0
  0
LINE
  5
10AB
330
1060
100
AcDbEntity
  8
0
100
AcDbLine
 10
-1.5
 20
-5.5
 30
0.0
 11
1.042400829128382
 21
-5.5
 31
0.0
  0
ENDBLK
  5
10AC
330
1060
100
AcDbEntity
  8
0
 62
     4
100
AcDbBlockEnd
  0
BLOCK
  5
2A42
330
2A38
100
AcDbEntity
  8
0
100
AcDbBlockBegin
  2
*D8
 70
     1
 10
0.0
 20
0.0
 30
0.0
  3
*D8
  1

  0
LINE
  5
2A8F
330
2A38
100
AcDbEntity
  8
7
100
AcDbLine
 10
9973.213301266529
 20
1484.967884428642
 30
0.0
 11
10086.29494209539
 21
1484.967884428642
 31
0.0
  0
LINE
  5
2A90
330
2A38
100
AcDbEntity
  8
7
100
AcDbLine
 10
10058.59344281369
 20
1199.967884428642
 30
0.0
 11
10086.29494209539
 21
1199.967884428642
 31
0.0
  0
LINE
  5
2A91
330
2A38
100
AcDbEntity
  8
7
100
AcDbLine
 10
10076.29494209539
 20
1464.967884428642
 30
0.0
 11
10076.29494209539
 21
1219.967884428642
 31
0.0
  0
SOLID
  5
2A92
330
2A38
100
AcDbEntity
  8
7
100
AcDbTrace
 10
10072.96160876205
 20
1464.967884428642
 30
0.0
 11
10079.62827542872
 21
1464.967884428642
 31
0.0
 12
10076.29494209539
 22
1484.967884428642
 32
0.0
 13
10076.29494209539
 23
1484.967884428642
 33
0.0
  0
SOLID
  5
2A93
330
2A38
100
AcDbEntity
  8
7
100
AcDbTrace
 10
10072.96160876205
 20
1219.967884428642
 30
0.0
 11
10079.62827542872
 21
1219.967884428642
 31
0.0
 12
10076.29494209539
 22
1199.967884428642
 32
0.0
 13
10076.29494209539
 23
1199.967884428642
 33
0.0
  0
MTEXT
  5
2A94
330
2A38
100
AcDbEntity
  8
7
100
AcDbMText
 10
10055.83825975825
 20
1342.467884428643
 30
0.0
 40
20.0
 41
0.0
 71
     5
 72
     1
  1
285
  7
SANINDUSA
 11
0.0000000000000001
 21
1.0
 31
0.0
 73
     1
 44
1.0
1001
ACAD
1000
MTEXTBEGIN
1070
    73
1070
     1
1070
    44
1040
1.0
1070
    74
1070
     0
1000
MTEXTEND
  0
POINT
  5
2A95
330
2A38
100
AcDbEntity
  8
Defpoints
 62
     0
100
AcDbPoint
 10
9963.213301266529
 20
1484.967884428642
 30
-0.0000017937957191
  0
POINT
  5
2A96
330
2A38
100
AcDbEntity
  8
Defpoints
 62
     0
100
AcDbPoint
 10
10048.5934428137
 20
1199.967884428642
 30
-0.0000017937957191
  0
POINT
  5
2A97
330
2A38
100
AcDbEntity
  8
Defpoints
 62
     0
100
AcDbPoint
 10
10076.29494209539
 20
1199.967884428642
 30
0.0
  0
ENDBLK
  5
2A43
330
2A38
100
AcDbEntity
  8
0
100
AcDbBlockEnd
  0
BLOCK
  5
2A50
330
2A44
100
AcDbEntity
  8
0
100
AcDbBlockBegin
  2
*D9
 70
     1
 10
0.0
 20
0.0
 30
0.0
  3
*D9
  1

  0
LINE
  5
2A98
330
2A44
100
AcDbEntity
  8
7
100
AcDbLine
 10
10368.00941056097
 20
1199.967884428646
 30
0.0
 11
10216.29494209539
 21
1199.967884428646
 31
0.0
  0
LINE
  5
2A99
330
2A44
100
AcDbEntity
  8
7
100
AcDbLine
 10
10395.79775548972
 20
1189.967884428646
 30
0.0
 11
10216.29494209539
 21
1189.967884428646
 31
0.0
  0
LINE
  5
2A9A
330
2A44
100
AcDbEntity
  8
7
100
AcDbLine
 10
10226.29494209539
 20
1219.967884428646
 30
0.0
 11
10226.29494209539
 21
1239.967884428646
 31
0.0
  0
LINE
  5
2A9B
330
2A44
100
AcDbEntity
  8
7
100
AcDbLine
 10
10226.29494209539
 20
1169.967884428646
 30
0.0
 11
10226.29494209539
 21
1100.53873735007
 31
0.0
  0
LINE
  5
2A9C
330
2A44
100
AcDbEntity
  8
7
100
AcDbLine
 10
10226.29494209539
 20
1199.967884428646
 30
0.0
 11
10226.29494209539
 21
1189.967884428646
 31
0.0
  0
SOLID
  5
2A9D
330
2A44
100
AcDbEntity
  8
7
100
AcDbTrace
 10
10222.96160876205
 20
1219.967884428646
 30
0.0
 11
10229.62827542872
 21
1219.967884428646
 31
0.0
 12
10226.29494209539
 22
1199.967884428646
 32
0.0
 13
10226.29494209539
 23
1199.967884428646
 33
0.0
  0
SOLID
  5
2A9E
330
2A44
100
AcDbEntity
  8
7
100
AcDbTrace
 10
10222.96160876205
 20
1169.967884428646
 30
0.0
 11
10229.62827542872
 21
1169.967884428646
 31
0.0
 12
10226.29494209539
 22
1189.967884428646
 32
0.0
 13
10226.29494209539
 23
1189.967884428646
 33
0.0
  0
MTEXT
  5
2A9F
330
2A44
100
AcDbEntity
  8
7
100
AcDbMText
 10
10205.88527117531
 20
1125.25331088936
 30
0.0
 40
20.0
 41
0.0
 71
     5
 72
     1
  1
10
  7
SANINDUSA
 11
0.0000000000000001
 21
1.0
 31
0.0
 73
     1
 44
1.0
1001
ACAD
1000
MTEXTBEGIN
1070
    73
1070
     1
1070
    44
1040
1.0
1070
    74
1070
     0
1000
MTEXTEND
  0
POINT
  5
2AA0
330
2A44
100
AcDbEntity
  8
Defpoints
 62
     0
100
AcDbPoint
 10
10378.00941056097
 20
1199.967884428646
 30
-0.0000017937957191
  0
POINT
  5
2AA1
330
2A44
100
AcDbEntity
  8
Defpoints
 62
     0
100
AcDbPoint
 10
10405.79775548972
 20
1189.967884428646
 30
0.0
  0
POINT
  5
2AA2
330
2A44
100
AcDbEntity
  8
Defpoints
 62
     0
100
AcDbPoint
 10
10226.29494209539
 20
1189.967884428646
 30
0.0
  0
ENDBLK
  5
2A51
330
2A44
100
AcDbEntity
  8
0
100
AcDbBlockEnd
  0
BLOCK
  5
2A5C
330
2A52
100
AcDbEntity
  8
0
100
AcDbBlockBegin
  2
*D10
 70
     1
 10
0.0
 20
0.0
 30
0.0
  3
*D10
  1

  0
LINE
  5
2AA3
330
2A52
100
AcDbEntity
  8
7
100
AcDbLine
 10
9718.462362439002
 20
1484.967884428635
 30
0.0
 11
9060.893487024085
 21
1484.967884428635
 31
0.0
  0
LINE
  5
2AA4
330
2A52
100
AcDbEntity
  8
7
100
AcDbLine
 10
9110.893487024084
 20
1189.967884428642
 30
0.0
 11
9060.893487024085
 21
1189.967884428642
 31
0.0
  0
LINE
  5
2AA5
330
2A52
100
AcDbEntity
  8
7
100
AcDbLine
 10
9070.893487024084
 20
1464.967884428635
 30
0.0
 11
9070.893487024084
 21
1209.967884428642
 31
0.0
  0
SOLID
  5
2AA6
330
2A52
100
AcDbEntity
  8
7
100
AcDbTrace
 10
9067.560153690751
 20
1464.967884428635
 30
0.0
 11
9074.226820357418
 21
1464.967884428635
 31
0.0
 12
9070.893487024084
 22
1484.967884428635
 32
0.0
 13
9070.893487024084
 23
1484.967884428635
 33
0.0
  0
SOLID
  5
2AA7
330
2A52
100
AcDbEntity
  8
7
100
AcDbTrace
 10
9067.560153690751
 20
1209.967884428642
 30
0.0
 11
9074.226820357418
 21
1209.967884428642
 31
0.0
 12
9070.893487024084
 22
1189.967884428642
 32
0.0
 13
9070.893487024084
 23
1189.967884428642
 33
0.0
  0
MTEXT
  5
2AA8
330
2A52
100
AcDbEntity
  8
7
100
AcDbMText
 10
9050.477100187281
 20
1337.46788442864
 30
0.0
 40
20.0
 41
0.0
 71
     5
 72
     1
  1
295
  7
SANINDUSA
 11
0.0000000000000001
 21
1.0
 31
0.0
 73
     1
 44
1.0
1001
ACAD
1000
MTEXTBEGIN
1070
    73
1070
     1
1070
    44
1040
1.0
1070
    74
1070
     0
1000
MTEXTEND
  0
POINT
  5
2AA9
330
2A52
100
AcDbEntity
  8
Defpoints
 62
     0
100
AcDbPoint
 10
9728.462362439001
 20
1484.967884428634
 30
-0.0000017937957191
  0
POINT
  5
2AAA
330
2A52
100
AcDbEntity
  8
Defpoints
 62
     0
100
AcDbPoint
 10
9120.893487024085
 20
1189.967884428642
 30
0.0
  0
POINT
  5
2AAB
330
2A52
100
AcDbEntity
  8
Defpoints
 62
     0
100
AcDbPoint
 10
9070.893487024084
 20
1189.967884428642
 30
0.0
  0
ENDBLK
  5
2A5D
330
2A52
100
AcDbEntity
  8
0
100
AcDbBlockEnd
  0
BLOCK
  5
2A68
330
2A5E
100
AcDbEntity
  8
0
100
AcDbBlockBegin
  2
*D11
 70
     1
 10
0.0
 20
0.0
 30
0.0
  3
*D11
  1

  0
LINE
  5
2BA3
330
2A5E
100
AcDbEntity
  8
7
100
AcDbLine
 10
9110.893487024084
 20
3039.967884428642
 30
0.0
 11
9060.893487024085
 21
3039.967884428642
 31
0.0
  0
LINE
  5
2BA4
330
2A5E
100
AcDbEntity
  8
7
100
AcDbLine
 10
9689.2887999592
 20
2744.967884418972
 30
0.0
 11
9060.893487024085
 21
2744.967884418973
 31
0.0
  0
LINE
  5
2BA5
330
2A5E
100
AcDbEntity
  8
7
100
AcDbLine
 10
9070.893487024084
 20
3019.967884428642
 30
0.0
 11
9070.893487024084
 21
2764.967884418973
 31
0.0
  0
SOLID
  5
2BA6
330
2A5E
100
AcDbEntity
  8
7
100
AcDbTrace
 10
9067.560153690751
 20
3019.967884428642
 30
0.0
 11
9074.226820357418
 21
3019.967884428642
 31
0.0
 12
9070.893487024084
 22
3039.967884428642
 32
0.0
 13
9070.893487024084
 23
3039.967884428642
 33
0.0
  0
SOLID
  5
2BA7
330
2A5E
100
AcDbEntity
  8
7
100
AcDbTrace
 10
9067.560153690751
 20
2764.967884418973
 30
0.0
 11
9074.226820357418
 21
2764.967884418973
 31
0.0
 12
9070.893487024084
 22
2744.967884418973
 32
0.0
 13
9070.893487024084
 23
2744.967884418973
 33
0.0
  0
MTEXT
  5
2BA8
330
2A5E
100
AcDbEntity
  8
7
100
AcDbMText
 10
9050.477100187281
 20
2892.467884423809
 30
0.0
 40
20.0
 41
0.0
 71
     5
 72
     1
  1
295
  7
SANINDUSA
 11
0.0000000000000001
 21
1.0
 31
0.0
 73
     1
 44
1.0
1001
ACAD
1000
MTEXTBEGIN
1070
    73
1070
     1
1070
    44
1040
1.0
1070
    74
1070
     0
1000
MTEXTEND
  0
POINT
  5
2BA9
330
2A5E
100
AcDbEntity
  8
Defpoints
 62
     0
100
AcDbPoint
 10
9120.893487024085
 20
3039.967884428642
 30
0.0000017938277934
  0
POINT
  5
2BAA
330
2A5E
100
AcDbEntity
  8
Defpoints
 62
     0
100
AcDbPoint
 10
9699.288799959198
 20
2744.967884418972
 30
0.0000000000320743
  0
POINT
  5
2BAB
330
2A5E
100
AcDbEntity
  8
Defpoints
 62
     0
100
AcDbPoint
 10
9070.893487024084
 20
2744.967884418973
 30
0.0
  0
ENDBLK
  5
2A69
330
2A5E
100
AcDbEntity
  8
0
100
AcDbBlockEnd
  0
BLOCK
  5
2A74
330
2A6A
100
AcDbEntity
  8
0
100
AcDbBlockBegin
  2
*D12
 70
     1
 10
0.0
 20
0.0
 30
0.0
  3
*D12
  1

  0
LINE
  5
2B40
330
2A6A
100
AcDbEntity
  8
7
100
AcDbLine
 10
10731.21713976388
 20
3039.967884428599
 30
0.0
 11
10781.21713976388
 21
3039.967884428599
 31
0.0
  0
LINE
  5
2B41
330
2A6A
100
AcDbEntity
  8
7
100
AcDbLine
 10
10727.35854329049
 20
1189.967884428646
 30
0.0
 11
10781.21713976388
 21
1189.967884428646
 31
0.0
  0
LINE
  5
2B42
330
2A6A
100
AcDbEntity
  8
7
100
AcDbLine
 10
10771.21713976388
 20
3019.967884428599
 30
0.0
 11
10771.21713976388
 21
1209.967884428646
 31
0.0
  0
SOLID
  5
2B43
330
2A6A
100
AcDbEntity
  8
7
100
AcDbTrace
 10
10767.88380643054
 20
3019.967884428599
 30
0.0
 11
10774.55047309721
 21
3019.967884428599
 31
0.0
 12
10771.21713976388
 22
3039.967884428599
 32
0.0
 13
10771.21713976388
 23
3039.967884428599
 33
0.0
  0
SOLID
  5
2B44
330
2A6A
100
AcDbEntity
  8
7
100
AcDbTrace
 10
10767.88380643054
 20
1209.967884428646
 30
0.0
 11
10774.55047309721
 21
1209.967884428646
 31
0.0
 12
10771.21713976388
 22
1189.967884428646
 32
0.0
 13
10771.21713976388
 23
1189.967884428646
 33
0.0
  0
MTEXT
  5
2B45
330
2A6A
100
AcDbEntity
  8
7
100
AcDbMText
 10
10750.76045742674
 20
2114.967884428625
 30
0.0
 40
20.0
 41
0.0
 71
     5
 72
     1
  1
1850
  7
SANINDUSA
 11
0.0000000000000001
 21
1.0
 31
0.0
 73
     1
 44
1.0
1001
ACAD
1000
MTEXTBEGIN
1070
    73
1070
     1
1070
    44
1040
1.0
1070
    74
1070
     0
1000
MTEXTEND
  0
POINT
  5
2B46
330
2A6A
100
AcDbEntity
  8
Defpoints
 62
     0
100
AcDbPoint
 10
10721.21713976388
 20
3039.967884428599
 30
0.0
  0
POINT
  5
2B47
330
2A6A
100
AcDbEntity
  8
Defpoints
 62
     0
100
AcDbPoint
 10
10717.35854329048
 20
1189.967884428646
 30
0.0
  0
POINT
  5
2B48
330
2A6A
100
AcDbEntity
  8
Defpoints
 62
     0
100
AcDbPoint
 10
10771.21713976388
 20
1189.967884428646
 30
0.0
  0
ENDBLK
  5
2A75
330
2A6A
100
AcDbEntity
  8
0
100
AcDbBlockEnd
  0
BLOCK
  5
2A80
330
2A76
100
AcDbEntity
  8
0
100
AcDbBlockBegin
  2
*D13
 70
     1
 10
0.0
 20
0.0
 30
0.0
  3
*D13
  1

  0
LINE
  5
2B63
330
2A76
100
AcDbEntity
  8
7
100
AcDbLine
 10
8806.409004518366
 20
2259.443834253155
 30
0.0
 11
8806.409004518366
 21
2191.017233440316
 31
0.0
  0
LINE
  5
2B64
330
2A76
100
AcDbEntity
  8
7
100
AcDbLine
 10
8006.409004518365
 20
2259.443834253158
 30
0.0
 11
8006.409004518365
 21
2191.017233440316
 31
0.0
  0
LINE
  5
2B65
330
2A76
100
AcDbEntity
  8
7
100
AcDbLine
 10
8786.409004518366
 20
2201.017233440317
 30
0.0
 11
8026.409004518365
 21
2201.017233440317
 31
0.0
  0
SOLID
  5
2B66
330
2A76
100
AcDbEntity
  8
7
100
AcDbTrace
 10
8786.409004518366
 20
2204.35056677365
 30
0.0
 11
8786.409004518366
 21
2197.683900106983
 31
0.0
 12
8806.409004518366
 22
2201.017233440317
 32
0.0
 13
8806.409004518366
 23
2201.017233440317
 33
0.0
  0
SOLID
  5
2B67
330
2A76
100
AcDbEntity
  8
7
100
AcDbTrace
 10
8026.409004518365
 20
2204.35056677365
 30
0.0
 11
8026.409004518365
 21
2197.683900106983
 31
0.0
 12
8006.409004518365
 22
2201.017233440317
 32
0.0
 13
8006.409004518365
 23
2201.017233440317
 33
0.0
  0
MTEXT
  5
2B68
330
2A76
100
AcDbEntity
  8
7
100
AcDbMText
 10
8406.409004518366
 20
2221.473915777456
 30
0.0
 40
20.0
 41
0.0
 71
     5
 72
     1
  1
800
  7
SANINDUSA
 73
     1
 44
1.0
1001
ACAD
1000
MTEXTBEGIN
1070
    73
1070
     1
1070
    44
1040
1.0
1070
    74
1070
     0
1000
MTEXTEND
  0
POINT
  5
2B69
330
2A76
100
AcDbEntity
  8
Defpoints
 62
     0
100
AcDbPoint
 10
8806.409004518366
 20
2269.443834253155
 30
0.0000001553314735
  0
POINT
  5
2B6A
330
2A76
100
AcDbEntity
  8
Defpoints
 62
     0
100
AcDbPoint
 10
8006.409004518365
 20
2269.443834253158
 30
0.0000001479286265
  0
POINT
  5
2B6B
330
2A76
100
AcDbEntity
  8
Defpoints
 62
     0
100
AcDbPoint
 10
8006.409004518365
 20
2201.017233440317
 30
0.0
  0
ENDBLK
  5
2A81
330
2A76
100
AcDbEntity
  8
0
100
AcDbBlockEnd
  0
BLOCK
  5
2A8D
330
2A82
100
AcDbEntity
  8
0
100
AcDbBlockBegin
  2
*D14
 70
     1
 10
0.0
 20
0.0
 30
0.0
  3
*D14
  1

  0
LINE
  5
2B0F
330
2A82
100
AcDbEntity
  8
7
100
AcDbLine
 10
8816.409004518366
 20
2269.443834253155
 30
0.0
 11
8821.682566524589
 21
2269.443834253153
 31
0.0
  0
ARC
  5
2B10
330
2A82
100
AcDbEntity
  8
7
100
AcDbCircle
 10
8022.309060621536
 20
2269.443834253155
 30
0.0
 40
789.3735059030525
100
AcDbArc
 50
271.4517161195754
 51
358.5482838804247
  0
SOLID
  5
2B11
330
2A82
100
AcDbEntity
  8
7
100
AcDbTrace
 10
8042.349683286023
 20
1476.990627986304
 30
0.0
 11
8042.265228124851
 21
1483.656759680937
 31
0.0
 12
8022.309060621536
 22
1480.070328350102
 32
0.0
 13
8022.309060621536
 23
1480.070328350102
 33
0.0
  0
SOLID
  5
2B12
330
2A82
100
AcDbEntity
  8
7
100
AcDbTrace
 10
8808.096135193753
 20
2249.487666749841
 30
0.0
 11
8814.762266888385
 21
2249.403211588668
 31
0.0
 12
8811.682566524588
 22
2269.443834253154
 32
0.0
 13
8811.682566524588
 23
2269.443834253154
 33
0.0
  0
MTEXT
  5
2B13
102
{ACAD_XDICTIONARY
360
2CE6
102
}
330
2A82
100
AcDbEntity
  8
7
100
AcDbMText
 10
8564.43873580827
 20
1727.314159066421
 30
0.0
 40
20.0
 41
0.0
 71
     5
 72
     1
  1
90,0\U+00B0
  7
SANINDUSA
 11
0.7071067811865476
 21
0.7071067811865475
 31
0.0
 73
     1
 44
1.0
1001
ACAD
1000
MTEXTBEGIN
1070
    73
1070
     1
1070
    44
1040
1.0
1070
    74
1070
     0
1000
MTEXTEND
  0
POINT
  5
2B14
330
2A82
100
AcDbEntity
  8
Defpoints
 62
     0
100
AcDbPoint
 10
8416.995813573061
 20
1585.826325066725
 30
0.0
  0
POINT
  5
2B15
330
2A82
100
AcDbEntity
  8
Defpoints
 62
     0
100
AcDbPoint
 10
8806.409004518366
 20
2269.443834253155
 30
0.0000001553314735
  0
POINT
  5
2B16
330
2A82
100
AcDbEntity
  8
Defpoints
 62
     0
100
AcDbPoint
 10
8022.309060621536
 20
2256.54378195958
 30
0.0000001479284879
  0
POINT
  5
2B17
330
2A82
100
AcDbEntity
  8
Defpoints
 62
     0
100
AcDbPoint
 10
8022.309060621536
 20
1456.54378195958
 30
0.0000001479284879
  0
POINT
  5
2B18
330
2A82
100
AcDbEntity
  8
Defpoints
 62
     0
100
AcDbPoint
 10
8006.409004518365
 20
2269.443834253154
 30
0.0000001553314735
  0
ENDBLK
  5
2A8E
330
2A82
100
AcDbEntity
  8
0
100
AcDbBlockEnd
  0
BLOCK
  5
2AC8
330
2ABE
100
AcDbEntity
  8
0
100
AcDbBlockBegin
  2
*D15
 70
     1
 10
0.0
 20
0.0
 30
0.0
  3
*D15
  1

  0
LINE
  5
2C2B
330
2ABE
100
AcDbEntity
  8
7
100
AcDbLine
 10
7270.372960059198
 20
2950.999133440316
 30
0.0
 11
7270.372960059198
 21
3020.23418794582
 31
0.0
  0
LINE
  5
2C2C
330
2ABE
100
AcDbEntity
  8
7
100
AcDbLine
 10
8870.368160059198
 20
2950.999133440317
 30
0.0
 11
8870.368160059198
 21
3020.23418794582
 31
0.0
  0
LINE
  5
2C2D
330
2ABE
100
AcDbEntity
  8
7
100
AcDbLine
 10
7290.372960059198
 20
3010.234187945819
 30
0.0
 11
8850.368160059199
 21
3010.234187945819
 31
0.0
  0
SOLID
  5
2C2E
330
2ABE
100
AcDbEntity
  8
7
100
AcDbTrace
 10
7290.372960059198
 20
3013.567521279153
 30
0.0
 11
7290.372960059198
 21
3006.900854612486
 31
0.0
 12
7270.372960059198
 22
3010.234187945819
 32
0.0
 13
7270.372960059198
 23
3010.234187945819
 33
0.0
  0
SOLID
  5
2C2F
330
2ABE
100
AcDbEntity
  8
7
100
AcDbTrace
 10
8850.368160059199
 20
3013.567521279153
 30
0.0
 11
8850.368160059199
 21
3006.900854612486
 31
0.0
 12
8870.368160059198
 22
3010.234187945819
 32
0.0
 13
8870.368160059198
 23
3010.234187945819
 33
0.0
  0
MTEXT
  5
2C30
330
2ABE
100
AcDbEntity
  8
7
100
AcDbMText
 10
8070.370560059199
 20
3030.643858865901
 30
0.0
 40
20.0
 41
0.0
 71
     5
 72
     1
  1
1600
  7
SANINDUSA
 73
     1
 44
1.0
1001
ACAD
1000
MTEXTBEGIN
1070
    73
1070
     1
1070
    44
1040
1.0
1070
    74
1070
     0
1000
MTEXTEND
  0
POINT
  5
2C31
330
2ABE
100
AcDbEntity
  8
Defpoints
 62
     0
100
AcDbPoint
 10
7270.372960059198
 20
2940.999133440315
 30
0.0
  0
POINT
  5
2C32
330
2ABE
100
AcDbEntity
  8
Defpoints
 62
     0
100
AcDbPoint
 10
8870.368160059198
 20
2940.999133440318
 30
0.0
  0
POINT
  5
2C33
330
2ABE
100
AcDbEntity
  8
Defpoints
 62
     0
100
AcDbPoint
 10
8870.368160059198
 20
3010.234187945819
 30
0.0
  0
ENDBLK
  5
2AC9
330
2ABE
100
AcDbEntity
  8
0
100
AcDbBlockEnd
  0
BLOCK
  5
2ADD
330
2AD3
100
AcDbEntity
  8
0
100
AcDbBlockBegin
  2
*D16
 70
     1
 10
0.0
 20
0.0
 30
0.0
  3
*D16
  1

  0
LINE
  5
2B75
330
2AD3
100
AcDbEntity
  8
7
100
AcDbLine
 10
8003.744983819109
 20
2259.443838062755
 30
0.0
 11
8003.744983819109
 21
2191.017233440316
 31
0.0
  0
LINE
  5
2B76
330
2AD3
100
AcDbEntity
  8
7
100
AcDbLine
 10
7314.744983819109
 20
2259.443838062755
 30
0.0
 11
7314.744983819109
 21
2191.017233440316
 31
0.0
  0
LINE
  5
2B77
330
2AD3
100
AcDbEntity
  8
7
100
AcDbLine
 10
7983.744983819109
 20
2201.017233440317
 30
0.0
 11
7334.744983819108
 21
2201.017233440317
 31
0.0
  0
SOLID
  5
2B78
330
2AD3
100
AcDbEntity
  8
7
100
AcDbTrace
 10
7983.744983819109
 20
2204.35056677365
 30
0.0
 11
7983.744983819109
 21
2197.683900106983
 31
0.0
 12
8003.744983819109
 22
2201.017233440317
 32
0.0
 13
8003.744983819109
 23
2201.017233440317
 33
0.0
  0
SOLID
  5
2B79
330
2AD3
100
AcDbEntity
  8
7
100
AcDbTrace
 10
7334.744983819108
 20
2204.35056677365
 30
0.0
 11
7334.744983819108
 21
2197.683900106983
 31
0.0
 12
7314.744983819109
 22
2201.017233440317
 32
0.0
 13
7314.744983819109
 23
2201.017233440317
 33
0.0
  0
MTEXT
  5
2B7A
330
2AD3
100
AcDbEntity
  8
7
100
AcDbMText
 10
7659.244983819109
 20
2221.473915777456
 30
0.0
 40
20.0
 41
0.0
 71
     5
 72
     1
  1
689
  7
SANINDUSA
 73
     1
 44
1.0
1001
ACAD
1000
MTEXTBEGIN
1070
    73
1070
     1
1070
    44
1040
1.0
1070
    74
1070
     0
1000
MTEXTEND
  0
POINT
  5
2B7B
330
2AD3
100
AcDbEntity
  8
Defpoints
 62
     0
100
AcDbPoint
 10
8003.744983819109
 20
2269.443838062755
 30
0.0000001479284879
  0
POINT
  5
2B7C
330
2AD3
100
AcDbEntity
  8
Defpoints
 62
     0
100
AcDbPoint
 10
7314.744983819109
 20
2269.443838062755
 30
0.0000001479284879
  0
POINT
  5
2B7D
330
2AD3
100
AcDbEntity
  8
Defpoints
 62
     0
100
AcDbPoint
 10
7314.744983819109
 20
2201.017233440317
 30
0.0
  0
ENDBLK
  5
2ADE
330
2AD3
100
AcDbEntity
  8
0
100
AcDbBlockEnd
  0
BLOCK
  5
2AE9
330
2ADF
100
AcDbEntity
  8
0
100
AcDbBlockBegin
  2
*D17
 70
     1
 10
0.0
 20
0.0
 30
0.0
  3
*D17
  1

  0
LINE
  5
2B06
330
2ADF
100
AcDbEntity
  8
7
100
AcDbLine
 10
8870.368160059198
 20
2251.017233440316
 30
0.0
 11
8943.267501697345
 21
2251.017233440316
 31
0.0
  0
LINE
  5
2B07
330
2ADF
100
AcDbEntity
  8
7
100
AcDbLine
 10
8870.368160059198
 20
2950.999133440317
 30
0.0
 11
8943.267501697345
 21
2950.999133440317
 31
0.0
  0
LINE
  5
2B08
330
2ADF
100
AcDbEntity
  8
7
100
AcDbLine
 10
8933.267501697343
 20
2271.017233440316
 30
0.0
 11
8933.267501697343
 21
2930.999133440317
 31
0.0
  0
SOLID
  5
2B09
330
2ADF
100
AcDbEntity
  8
7
100
AcDbTrace
 10
8929.934168364011
 20
2271.017233440316
 30
0.0
 11
8936.600835030679
 21
2271.017233440316
 31
0.0
 12
8933.267501697343
 22
2251.017233440316
 32
0.0
 13
8933.267501697343
 23
2251.017233440316
 33
0.0
  0
SOLID
  5
2B0A
330
2ADF
100
AcDbEntity
  8
7
100
AcDbTrace
 10
8929.934168364011
 20
2930.999133440317
 30
0.0
 11
8936.600835030679
 21
2930.999133440317
 31
0.0
 12
8933.267501697343
 22
2950.999133440317
 32
0.0
 13
8933.267501697343
 23
2950.999133440317
 33
0.0
  0
MTEXT
  5
2B0B
330
2ADF
100
AcDbEntity
  8
7
100
AcDbMText
 10
8912.857830777264
 20
2601.008183440318
 30
0.0
 40
20.0
 41
0.0
 71
     5
 72
     1
  1
700
  7
SANINDUSA
 11
0.0000000000000001
 21
1.0
 31
0.0
 73
     1
 44
1.0
1001
ACAD
1000
MTEXTBEGIN
1070
    73
1070
     1
1070
    44
1040
1.0
1070
    74
1070
     0
1000
MTEXTEND
  0
POINT
  5
2B0C
330
2ADF
100
AcDbEntity
  8
Defpoints
 62
     0
100
AcDbPoint
 10
8860.3681600592
 20
2251.017233440316
 30
0.0
  0
POINT
  5
2B0D
330
2ADF
100
AcDbEntity
  8
Defpoints
 62
     0
100
AcDbPoint
 10
8860.3681600592
 20
2950.999133440317
 30
0.0
  0
POINT
  5
2B0E
330
2ADF
100
AcDbEntity
  8
Defpoints
 62
     0
100
AcDbPoint
 10
8933.267501697343
 20
2950.999133440317
 30
0.0
  0
ENDBLK
  5
2AEA
330
2ADF
100
AcDbEntity
  8
0
100
AcDbBlockEnd
  0
BLOCK
  5
2B32
330
2B28
100
AcDbEntity
  8
0
100
AcDbBlockBegin
  2
*D18
 70
     1
 10
0.0
 20
0.0
 30
0.0
  3
*D18
  1

  0
LINE
  5
2B90
330
2B28
100
AcDbEntity
  8
7
100
AcDbLine
 10
7270.372960059198
 20
2247.217342827795
 30
0.0
 11
7270.372960059198
 21
2141.017233440317
 31
0.0
  0
LINE
  5
2B91
330
2B28
100
AcDbEntity
  8
7
100
AcDbLine
 10
8870.368160059198
 20
2247.217335208606
 30
0.0
 11
8870.368160059198
 21
2141.017233440317
 31
0.0
  0
LINE
  5
2B92
330
2B28
100
AcDbEntity
  8
7
100
AcDbLine
 10
7290.372960059198
 20
2151.017233440317
 30
0.0
 11
8850.368160059199
 21
2151.017233440317
 31
0.0
  0
SOLID
  5
2B93
330
2B28
100
AcDbEntity
  8
7
100
AcDbTrace
 10
7290.372960059198
 20
2154.35056677365
 30
0.0
 11
7290.372960059198
 21
2147.683900106983
 31
0.0
 12
7270.372960059198
 22
2151.017233440317
 32
0.0
 13
7270.372960059198
 23
2151.017233440317
 33
0.0
  0
SOLID
  5
2B94
330
2B28
100
AcDbEntity
  8
7
100
AcDbTrace
 10
8850.368160059199
 20
2154.35056677365
 30
0.0
 11
8850.368160059199
 21
2147.683900106983
 31
0.0
 12
8870.368160059198
 22
2151.017233440317
 32
0.0
 13
8870.368160059198
 23
2151.017233440317
 33
0.0
  0
MTEXT
  5
2B95
330
2B28
100
AcDbEntity
  8
7
100
AcDbMText
 10
8136.156813458649
 20
2171.473915777456
 30
0.0
 40
20.0
 41
0.0
 71
     5
 72
     1
  1
1580 - 1610
  7
SANINDUSA
 73
     1
 44
1.0
1001
ACAD
1000
MTEXTBEGIN
1070
    73
1070
     1
1070
    44
1040
1.0
1070
    74
1070
     0
1000
MTEXTEND
  0
POINT
  5
2B96
330
2B28
100
AcDbEntity
  8
Defpoints
 62
     0
100
AcDbPoint
 10
7270.372960059198
 20
2257.217342827795
 30
0.0
  0
POINT
  5
2B97
330
2B28
100
AcDbEntity
  8
Defpoints
 62
     0
100
AcDbPoint
 10
8870.368160059198
 20
2257.217335208606
 30
0.0
  0
POINT
  5
2B98
330
2B28
100
AcDbEntity
  8
Defpoints
 62
     0
100
AcDbPoint
 10
8870.368160059198
 20
2151.017233440317
 30
0.0
  0
ENDBLK
  5
2B33
330
2B28
100
AcDbEntity
  8
0
100
AcDbBlockEnd
  0
BLOCK
  5
2B54
330
2B4A
100
AcDbEntity
  8
0
100
AcDbBlockBegin
  2
*D19
 70
     1
 10
0.0
 20
0.0
 30
0.0
  3
*D19
  1

  0
LINE
  5
2B9A
330
2B4A
100
AcDbEntity
  8
7
100
AcDbLine
 10
10721.21713976388
 20
3049.967884428639
 30
0.0
 11
10721.21713976388
 21
3099.967884428656
 31
0.0
  0
LINE
  5
2B9B
330
2B4A
100
AcDbEntity
  8
7
100
AcDbLine
 10
9120.893487024085
 20
3049.967884428635
 30
0.0
 11
9120.893487024085
 21
3099.967884428656
 31
0.0
  0
LINE
  5
2B9C
330
2B4A
100
AcDbEntity
  8
7
100
AcDbLine
 10
10701.21713976388
 20
3089.967884428656
 30
0.0
 11
9140.893487024085
 21
3089.967884428656
 31
0.0
  0
SOLID
  5
2B9D
330
2B4A
100
AcDbEntity
  8
7
100
AcDbTrace
 10
10701.21713976388
 20
3093.301217761989
 30
0.0
 11
10701.21713976388
 21
3086.634551095322
 31
0.0
 12
10721.21713976388
 22
3089.967884428656
 32
0.0
 13
10721.21713976388
 23
3089.967884428656
 33
0.0
  0
SOLID
  5
2B9E
330
2B4A
100
AcDbEntity
  8
7
100
AcDbTrace
 10
9140.893487024085
 20
3093.301217761989
 30
0.0
 11
9140.893487024085
 21
3086.634551095322
 31
0.0
 12
9120.893487024085
 22
3089.967884428656
 32
0.0
 13
9120.893487024085
 23
3089.967884428656
 33
0.0
  0
MTEXT
  5
2B9F
330
2B4A
100
AcDbEntity
  8
7
100
AcDbMText
 10
9921.055313393983
 20
3110.424566765795
 30
0.0
 40
20.0
 41
0.0
 71
     5
 72
     1
  1
1580 - 1610
  7
SANINDUSA
 73
     1
 44
1.0
1001
ACAD
1000
MTEXTBEGIN
1070
    73
1070
     1
1070
    44
1040
1.0
1070
    74
1070
     0
1000
MTEXTEND
  0
POINT
  5
2BA0
330
2B4A
100
AcDbEntity
  8
Defpoints
 62
     0
100
AcDbPoint
 10
10721.21713976388
 20
3039.967884428639
 30
0.0
  0
POINT
  5
2BA1
330
2B4A
100
AcDbEntity
  8
Defpoints
 62
     0
100
AcDbPoint
 10
9120.893487024085
 20
3039.967884428635
 30
0.0
  0
POINT
  5
2BA2
330
2B4A
100
AcDbEntity
  8
Defpoints
 62
     0
100
AcDbPoint
 10
9120.893487024085
 20
3089.967884428656
 30
0.0
  0
ENDBLK
  5
2B55
330
2B4A
100
AcDbEntity
  8
0
100
AcDbBlockEnd
  0
BLOCK
  5
2BC5
330
2BBB
100
AcDbEntity
  8
0
100
AcDbBlockBegin
  2
*D20
 70
     1
 10
0.0
 20
0.0
 30
0.0
  3
*D20
  1

  0
LINE
  5
2BD2
330
2BBB
100
AcDbEntity
  8
7
100
AcDbLine
 10
7794.396136299297
 20
2259.34383425316
 30
0.0
 11
7751.639418608731
 21
2259.34383425316
 31
0.0
  0
LINE
  5
2BD3
330
2BBB
100
AcDbEntity
  8
7
100
AcDbLine
 10
7801.896136299294
 20
2950.999133440316
 30
0.0
 11
7751.639418608731
 21
2950.999133440316
 31
0.0
  0
LINE
  5
2BD4
330
2BBB
100
AcDbEntity
  8
7
100
AcDbLine
 10
7761.63941860873
 20
2279.343834253159
 30
0.0
 11
7761.63941860873
 21
2930.999133440316
 31
0.0
  0
SOLID
  5
2BD5
330
2BBB
100
AcDbEntity
  8
7
100
AcDbTrace
 10
7758.306085275397
 20
2279.343834253159
 30
0.0
 11
7764.972751942064
 21
2279.343834253159
 31
0.0
 12
7761.63941860873
 22
2259.34383425316
 32
0.0
 13
7761.63941860873
 23
2259.34383425316
 33
0.0
  0
SOLID
  5
2BD6
330
2BBB
100
AcDbEntity
  8
7
100
AcDbTrace
 10
7758.306085275397
 20
2930.999133440316
 30
0.0
 11
7764.972751942064
 21
2930.999133440316
 31
0.0
 12
7761.63941860873
 22
2950.999133440316
 32
0.0
 13
7761.63941860873
 23
2950.999133440316
 33
0.0
  0
MTEXT
  5
2BD7
330
2BBB
100
AcDbEntity
  8
7
100
AcDbMText
 10
7741.223031771927
 20
2605.171483846739
 30
0.0
 40
20.0
 41
0.0
 71
     5
 72
     1
  1
420 - 720
  7
SANINDUSA
 11
0.0000000000000001
 21
1.0
 31
0.0
 73
     1
 44
1.0
1001
ACAD
1000
MTEXTBEGIN
1070
    73
1070
     1
1070
    44
1040
1.0
1070
    74
1070
     0
1000
MTEXTEND
  0
POINT
  5
2BD8
330
2BBB
100
AcDbEntity
  8
Defpoints
 62
     0
100
AcDbPoint
 10
7804.396136299297
 20
2259.34383425316
 30
0.0000001479286265
  0
POINT
  5
2BD9
330
2BBB
100
AcDbEntity
  8
Defpoints
 62
     0
100
AcDbPoint
 10
7811.896136299293
 20
2950.999133440316
 30
0.0
  0
POINT
  5
2BDA
330
2BBB
100
AcDbEntity
  8
Defpoints
 62
     0
100
AcDbPoint
 10
7761.63941860873
 20
2950.999133440316
 30
0.0
  0
ENDBLK
  5
2BC6
330
2BBB
100
AcDbEntity
  8
0
100
AcDbBlockEnd
  0
BLOCK
  5
2C3C
330
2C3B
100
AcDbEntity
  8
0
100
AcDbBlockBegin
  2
*D22
 70
     1
 10
0.0
 20
0.0
 30
0.0
  3
*D22
  1

  0
LINE
  5
2C48
330
2C3B
100
AcDbEntity
  8
7
100
AcDbLine
 10
10731.21713976388
 20
3039.967884428639
 30
0.0
 11
11044.84028176962
 21
3039.967884428639
 31
0.0
  0
LINE
  5
2C49
330
2C3B
100
AcDbEntity
  8
7
100
AcDbLine
 10
10731.21713976388
 20
1189.967884428639
 30
0.0
 11
11044.84028176962
 21
1189.967884428638
 31
0.0
  0
LINE
  5
2C4A
330
2C3B
100
AcDbEntity
  8
7
100
AcDbLine
 10
11034.84028176962
 20
3019.967884428639
 30
0.0
 11
11034.84028176962
 21
1209.967884428639
 31
0.0
  0
SOLID
  5
2C4B
330
2C3B
100
AcDbEntity
  8
7
100
AcDbTrace
 10
11031.50694843628
 20
3019.967884428639
 30
0.0
 11
11038.17361510295
 21
3019.967884428639
 31
0.0
 12
11034.84028176962
 22
3039.967884428639
 32
0.0
 13
11034.84028176962
 23
3039.967884428639
 33
0.0
  0
SOLID
  5
2C4C
330
2C3B
100
AcDbEntity
  8
7
100
AcDbTrace
 10
11031.50694843628
 20
1209.967884428639
 30
0.0
 11
11038.17361510295
 21
1209.967884428639
 31
0.0
 12
11034.84028176962
 22
1189.967884428638
 32
0.0
 13
11034.84028176962
 23
1189.967884428638
 33
0.0
  0
MTEXT
  5
2C4D
330
2C3B
100
AcDbEntity
  8
7
100
AcDbMText
 10
11014.38359943248
 20
2114.967884428641
 30
0.0
 40
20.0
 41
0.0
 71
     5
 72
     1
  1
1850
  7
SANINDUSA
 11
0.0000000000000001
 21
1.0
 31
0.0
 73
     1
 44
1.0
1001
ACAD
1000
MTEXTBEGIN
1070
    73
1070
     1
1070
    44
1040
1.0
1070
    74
1070
     0
1000
MTEXTEND
  0
POINT
  5
2C4E
330
2C3B
100
AcDbEntity
  8
Defpoints
 62
     0
100
AcDbPoint
 10
10721.21713976388
 20
3039.967884428639
 30
0.0
  0
POINT
  5
2C4F
330
2C3B
100
AcDbEntity
  8
Defpoints
 62
     0
100
AcDbPoint
 10
10721.21713976388
 20
1189.967884428639
 30
0.0
  0
POINT
  5
2C50
330
2C3B
100
AcDbEntity
  8
Defpoints
 62
     0
100
AcDbPoint
 10
11034.84028176962
 20
1189.967884428638
 30
0.0
  0
ENDBLK
  5
2C3D
330
2C3B
100
AcDbEntity
  8
0
100
AcDbBlockEnd
  0
BLOCK
  5
2C5A
330
2C59
100
AcDbEntity
  8
0
100
AcDbBlockBegin
  2
*D23
 70
     1
 10
0.0
 20
0.0
 30
0.0
  3
*D23
  1

  0
LINE
  5
2C68
330
2C59
100
AcDbEntity
  8
7
100
AcDbLine
 10
9132.493810676825
 20
2115.892884428635
 30
0.0
 11
9135.854459702022
 21
2115.892884428635
 31
0.0
  0
LINE
  5
2C69
330
2C59
100
AcDbEntity
  8
7
100
AcDbLine
 10
9132.493810676825
 20
2114.042884428635
 30
0.0
 11
9135.854459702022
 21
2114.042884428635
 31
0.0
  0
LINE
  5
2C6A
330
2C59
100
AcDbEntity
  8
7
100
AcDbLine
 10
9125.854459702024
 20
2135.892884428635
 30
0.0
 11
9125.854459702024
 21
2155.892884428635
 31
0.0
  0
LINE
  5
2C6B
330
2C59
100
AcDbEntity
  8
7
100
AcDbLine
 10
9125.854459702024
 20
2094.042884428635
 30
0.0
 11
9125.854459702024
 21
2014.607021433336
 31
0.0
  0
LINE
  5
2C6C
330
2C59
100
AcDbEntity
  8
7
100
AcDbLine
 10
9125.854459702024
 20
2115.892884428635
 30
0.0
 11
9125.854459702024
 21
2114.042884428635
 31
0.0
  0
SOLID
  5
2C6D
330
2C59
100
AcDbEntity
  8
7
100
AcDbTrace
 10
9122.521126368688
 20
2135.892884428635
 30
0.0
 11
9129.187793035356
 21
2135.892884428635
 31
0.0
 12
9125.854459702024
 22
2115.892884428635
 32
0.0
 13
9125.854459702024
 23
2115.892884428635
 33
0.0
  0
SOLID
  5
2C6E
330
2C59
100
AcDbEntity
  8
7
100
AcDbTrace
 10
9122.521126368688
 20
2094.042884428635
 30
0.0
 11
9129.187793035356
 21
2094.042884428635
 31
0.0
 12
9125.854459702024
 22
2114.042884428635
 32
0.0
 13
9125.854459702024
 23
2114.042884428635
 33
0.0
  0
MTEXT
  5
2C6F
330
2C59
100
AcDbEntity
  8
7
100
AcDbMText
 10
9103.168093012969
 20
2044.324952930987
 30
0.0
 40
20.0
 41
0.0
 71
     5
 72
     1
  1
1,9
  7
SANINDUSA
 11
0.0000000000000001
 21
1.0
 31
0.0
 73
     1
 44
1.0
1001
ACAD
1000
MTEXTBEGIN
1070
    73
1070
     1
1070
    44
1040
1.0
1070
    74
1070
     0
1000
MTEXTEND
  0
POINT
  5
2C70
330
2C59
100
AcDbEntity
  8
Defpoints
 62
     0
100
AcDbPoint
 10
9122.493810676825
 20
2115.892884428635
 30
0.0
  0
POINT
  5
2C71
330
2C59
100
AcDbEntity
  8
Defpoints
 62
     0
100
AcDbPoint
 10
9122.493810676825
 20
2114.042884428635
 30
0.0
  0
POINT
  5
2C72
330
2C59
100
AcDbEntity
  8
Defpoints
 62
     0
100
AcDbPoint
 10
9125.854459702024
 20
2114.042884428635
 30
0.0
  0
ENDBLK
  5
2C5B
330
2C59
100
AcDbEntity
  8
0
100
AcDbBlockEnd
  0
ENDSEC
  0
SECTION
  2
ENTITIES
  0
LINE
  5
2705
330
1F
100
AcDbEntity
  8
SANINDUSA
100
AcDbLine
 10
9119.762502541579
 20
2114.773129322164
 30
0.0000000001479286
 11
9119.777502587174
 21
2114.773129322164
 31
0.0000000001479286
  0
LINE
  5
2706
330
1F
100
AcDbEntity
  8
SANINDUSA
100
AcDbLine
 10
9119.710502541577
 20
2114.765129322164
 30
0.0000000001479286
 11
9119.769502541577
 21
2114.765129322164
 31
0.0000000001479286
  0
LINE
  5
2707
330
1F
100
AcDbEntity
  8
SANINDUSA
100
AcDbLine
 10
9119.786391430467
 20
2114.765129322165
 30
0.0000000001479286
 11
9119.786391430467
 21
2114.773129374458
 31
0.0000000001479286
  0
CIRCLE
  5
2708
330
1F
100
AcDbEntity
  8
SANINDUSA
100
AcDbCircle
 10
9119.777502541579
 20
2114.765129322165
 30
0.0000000001479286
 40
0.008
  0
LINE
  5
2709
330
1F
100
AcDbEntity
  8
SANINDUSA
100
AcDbLine
 10
9119.76861365269
 20
2114.765129322164
 30
0.0000000001479286
 11
9119.76861365269
 21
2114.773129322164
 31
0.0000000001479286
  0
LINE
  5
270A
330
1F
100
AcDbEntity
  8
SANINDUSA
100
AcDbLine
 10
9119.845502541577
 20
2114.775129374458
 30
0.0000000001479286
 11
9119.845502541577
 21
2114.766129322165
 31
0.0000000001479286
  0
LINE
  5
270B
330
1F
100
AcDbEntity
  8
SANINDUSA
100
AcDbLine
 10
9119.786391430467
 20
2114.765129322165
 30
0.0000000001479286
 11
9119.84450254158
 21
2114.765129322165
 31
0.0000000001479286
  0
ARC
  5
270C
330
1F
100
AcDbEntity
  8
SANINDUSA
100
AcDbCircle
 10
9119.84450254158
 20
2114.766129322165
 30
0.0000000001479286
 40
0.001
100
AcDbArc
 50
270.0
 51
0.0
  0
LINE
  5
270D
330
1F
100
AcDbEntity
  8
SANINDUSA
100
AcDbLine
 10
9119.845502541577
 20
2114.775129374458
 30
0.0000000001479286
 11
9119.792502541578
 21
2114.775129374458
 31
0.0000000001479286
  0
LWPOLYLINE
  5
270E
330
1F
100
AcDbEntity
  8
SANINDUSA
100
AcDbPolyline
 90
        2
 70
     0
 43
0.0
 38
0.0000000001479285
 10
9119.792502541578
 20
2114.776329374459
 10
9119.845502541577
 20
2114.776329374459
1001
GENIUS_GENREC_14
1002
{
1000
PYDIR
1011
9119.546220284499
1021
2113.742099518447
1031
0.0000000001479286
1002
}
1002
{
1000
PXDIR
1011
9119.4932202845
1021
2113.743099518446
1031
0.0000000001479286
1002
}
1002
{
1000
PORI
1011
9119.546220284499
1021
2113.743099518446
1031
0.0000000001479286
1002
}
1002
{
1000
PINS
1011
9119.546220284499
1021
2113.743099518446
1031
0.0000000001479286
1002
}
1002
{
1000
PINS2
1011
9119.4932202845
1021
2113.742099518447
1031
0.0000000001479286
1002
}
1002
{
1000
C
1070
     1
1002
}
1001
GENIUS_GENODEF_13
1002
{
1000
HIER
1070
     0
1002
}
1002
{
1000
MANEDIT
1070
     0
1002
}
1002
{
1000
NOSEL
1070
     0
1002
}
1002
{
1000
BEHIND
1070
     0
1002
}
1002
{
1000
REACTOR
1002
}
1001
GENIUS_GENOBJ-N-REC_13
1002
{
1000
OWNER
1000
GEN
1002
}
  0
LWPOLYLINE
  5
270F
330
1F
100
AcDbEntity
  8
SANINDUSA
100
AcDbPolyline
 90
        2
 70
     0
 43
0.0
 38
0.0000000001479285
 10
9119.845502541577
 20
2114.775329374458
 10
9119.792502541578
 20
2114.775329374458
1001
GENIUS_GENREC_14
1002
{
1000
PYDIR
1011
9119.546220284499
1021
2113.742099518447
1031
0.0000000001479286
1002
}
1002
{
1000
PXDIR
1011
9119.4932202845
1021
2113.743099518446
1031
0.0000000001479286
1002
}
1002
{
1000
PORI
1011
9119.546220284499
1021
2113.743099518446
1031
0.0000000001479286
1002
}
1002
{
1000
PINS
1011
9119.546220284499
1021
2113.743099518446
1031
0.0000000001479286
1002
}
1002
{
1000
PINS2
1011
9119.4932202845
1021
2113.742099518447
1031
0.0000000001479286
1002
}
1002
{
1000
C
1070
     1
1002
}
1001
GENIUS_GENODEF_13
1002
{
1000
HIER
1070
     0
1002
}
1002
{
1000
MANEDIT
1070
     0
1002
}
1002
{
1000
NOSEL
1070
     0
1002
}
1002
{
1000
BEHIND
1070
     0
1002
}
1002
{
1000
REACTOR
1002
}
1001
GENIUS_GENOBJ-N-REC_13
1002
{
1000
OWNER
1000
GEN
1002
}
  0
LINE
  5
2710
330
1F
100
AcDbEntity
  8
SANINDUSA
100
AcDbLine
 10
9119.84450254158
 20
2114.788929374459
 30
0.0000000001479286
 11
9119.793502541579
 21
2114.788929374459
 31
0.0000000001479286
  0
LINE
  5
2711
330
1F
100
AcDbEntity
  8
SANINDUSA
100
AcDbLine
 10
9119.792502541578
 20
2114.783929374458
 30
0.0000000001479286
 11
9119.845502541577
 21
2114.783929374458
 31
0.0000000001479286
  0
LWPOLYLINE
  5
2712
330
1F
100
AcDbEntity
  8
SANINDUSA
100
AcDbPolyline
 90
        4
 70
     1
 43
0.0
 38
0.0000000001479285
 10
9119.845502541577
 20
2114.783729374458
 10
9119.792502541578
 20
2114.783729374458
 10
9119.792502541578
 20
2114.782729374459
 10
9119.845502541577
 20
2114.782729374459
1001
GENIUS_GENREC_14
1002
{
1000
PYDIR
1011
9119.546220284499
1021
2113.741899518446
1031
0.0000000001479286
1002
}
1002
{
1000
PXDIR
1011
9119.4932202845
1021
2113.742899518446
1031
0.0000000001479286
1002
}
1002
{
1000
PORI
1011
9119.546220284499
1021
2113.742899518446
1031
0.0000000001479286
1002
}
1002
{
1000
PINS
1011
9119.546220284499
1021
2113.742899518446
1031
0.0000000001479286
1002
}
1002
{
1000
PINS2
1011
9119.4932202845
1021
2113.741899518446
1031
0.0000000001479286
1002
}
1002
{
1000
C
1070
     1
1002
}
1001
GENIUS_GENODEF_13
1002
{
1000
HIER
1070
     0
1002
}
1002
{
1000
MANEDIT
1070
     0
1002
}
1002
{
1000
NOSEL
1070
     0
1002
}
1002
{
1000
BEHIND
1070
     0
1002
}
1002
{
1000
REACTOR
1002
}
1001
GENIUS_GENOBJ-N-REC_13
1002
{
1000
OWNER
1000
GEN
1002
}
  0
LINE
  5
2713
330
1F
100
AcDbEntity
  8
SANINDUSA
100
AcDbLine
 10
9119.845502541577
 20
2114.776329374459
 30
0.0000000001479286
 11
9119.845502541577
 21
2114.775329374458
 31
0.0000000001479286
1001
GENIUS_GENREC_14
1002
{
1000
PYDIR
1011
9119.845502541577
1021
2114.776329374459
1031
0.0000000001479286
1002
}
1002
{
1000
PXDIR
1011
9119.792502541578
1021
2114.775329374458
1031
0.0000000001479286
1002
}
1002
{
1000
PORI
1011
9119.845502541577
1021
2114.775329374458
1031
0.0000000001479286
1002
}
1002
{
1000
PINS
1011
9119.845502541577
1021
2114.775329374458
1031
0.0000000001479286
1002
}
1002
{
1000
PINS2
1011
9119.792502541578
1021
2114.776329374459
1031
0.0000000001479286
1002
}
1002
{
1000
C
1070
     1
1002
}
1001
GENIUS_GENODEF_13
1002
{
1000
HIER
1070
     0
1002
}
1002
{
1000
MANEDIT
1070
     0
1002
}
1002
{
1000
NOSEL
1070
     0
1002
}
1002
{
1000
BEHIND
1070
     0
1002
}
1002
{
1000
REACTOR
1002
}
1001
GENIUS_GENOBJ-N-REC_13
1002
{
1000
OWNER
1000
GEN
1002
}
  0
ARC
  5
2714
330
1F
100
AcDbEntity
  8
SANINDUSA
100
AcDbCircle
 10
9119.84450254158
 20
2114.787929374458
 30
0.0000000001479286
 40
0.001
100
AcDbArc
 50
0.0
 51
90.0
  0
LINE
  5
2715
330
1F
100
AcDbEntity
  8
SANINDUSA
100
AcDbLine
 10
9119.845502541577
 20
2114.783929374458
 30
0.0000000001479286
 11
9119.845502541577
 21
2114.787929374458
 31
0.0000000001479286
  0
LINE
  5
2716
330
1F
100
AcDbEntity
  8
SANINDUSA
100
AcDbLine
 10
9119.785852084575
 20
2114.782533159659
 30
0.0000000001479285
 11
9119.787928412931
 21
2114.782824968579
 31
0.0000000001479285
  0
LINE
  5
2717
330
1F
100
AcDbEntity
  8
SANINDUSA
100
AcDbLine
 10
9119.790854680925
 20
2114.782645012599
 30
0.0000000001479285
 11
9119.790854680925
 21
2114.781938256965
 31
0.0000000001479285
  0
ARC
  5
2718
330
1F
100
AcDbEntity
  8
SANINDUSA
100
AcDbCircle
 10
9119.787959904009
 20
2114.782980868497
 30
0.0000000001479285
 40
0.0004999999999883
100
AcDbArc
 50
277.9999999612152
 51
331.8736260450295
  0
ARC
  5
2719
330
1F
100
AcDbEntity
  8
SANINDUSA
100
AcDbCircle
 10
9119.788254680925
 20
2114.782163238621
 30
0.0000000001479285
 40
0.0006000000000005
100
AcDbArc
 50
32.46948080063537
 51
75.89910821324153
  0
ARC
  5
271A
330
1F
100
AcDbEntity
  8
SANINDUSA
100
AcDbCircle
 10
9119.781394068057
 20
2114.782779108128
 30
0.0000000001479285
 40
0.00075
100
AcDbArc
 50
170.6591659119865
 51
350.6591659119866
  0
LINE
  5
271B
330
1F
100
AcDbEntity
  8
SANINDUSA
100
AcDbLine
 10
9119.777854680924
 20
2114.785129378268
 30
0.0000000001479285
 11
9119.777854680924
 21
2114.773929378268
 31
0.0000000001479285
  0
LINE
  5
271C
330
1F
100
AcDbEntity
  8
SANINDUSA
100
AcDbLine
 10
9119.779002541578
 20
2114.783225808718
 30
0.0000000001479285
 11
9119.779002541578
 21
2114.775832947818
 31
0.0000000001479285
  0
ARC
  5
271D
330
1F
100
AcDbEntity
  8
SANINDUSA
100
AcDbCircle
 10
9119.777016988617
 20
2114.779529378268
 30
0.0000000001479285
 40
0.0056623076923077
100
AcDbArc
 50
81.49232715786251
 51
278.5076728421375
  0
ARC
  5
271E
330
1F
100
AcDbEntity
  8
SANINDUSA
100
AcDbCircle
 10
9119.777016988617
 20
2114.779529378268
 30
0.0000000001479285
 40
0.0052623076923077
100
AcDbArc
 50
80.84027534148978
 51
279.1597246585102
  0
LINE
  5
271F
330
1F
100
AcDbEntity
  8
SANINDUSA
100
AcDbLine
 10
9119.792502541578
 20
2114.773129374458
 30
0.0000000001479286
 11
9119.777502541579
 21
2114.773129322164
 31
0.0000000001479286
  0
LINE
  5
2720
330
1F
100
AcDbEntity
  8
SANINDUSA
100
AcDbLine
 10
9119.792502541578
 20
2114.775329374458
 30
0.0000000001479286
 11
9119.792502541578
 21
2114.776329374459
 31
0.0000000001479286
1001
GENIUS_GENREC_14
1002
{
1000
PYDIR
1011
9119.845502541577
1021
2114.776329374459
1031
0.0000000001479286
1002
}
1002
{
1000
PXDIR
1011
9119.792502541578
1021
2114.775329374458
1031
0.0000000001479286
1002
}
1002
{
1000
PORI
1011
9119.845502541577
1021
2114.775329374458
1031
0.0000000001479286
1002
}
1002
{
1000
PINS
1011
9119.845502541577
1021
2114.775329374458
1031
0.0000000001479286
1002
}
1002
{
1000
PINS2
1011
9119.792502541578
1021
2114.776329374459
1031
0.0000000001479286
1002
}
1002
{
1000
C
1070
     1
1002
}
1001
GENIUS_GENODEF_13
1002
{
1000
HIER
1070
     0
1002
}
1002
{
1000
MANEDIT
1070
     0
1002
}
1002
{
1000
NOSEL
1070
     0
1002
}
1002
{
1000
BEHIND
1070
     0
1002
}
1002
{
1000
REACTOR
1002
}
1001
GENIUS_GENOBJ-N-REC_13
1002
{
1000
OWNER
1000
GEN
1002
}
  0
LINE
  5
2721
330
1F
100
AcDbEntity
  8
SANINDUSA
100
AcDbLine
 10
9119.792502541578
 20
2114.775129374458
 30
0.0000000001479286
 11
9119.792502541578
 21
2114.773129374458
 31
0.0000000001479286
  0
LINE
  5
2722
330
1F
100
AcDbEntity
  8
SANINDUSA
100
AcDbLine
 10
9119.779002541578
 20
2114.782529378268
 30
0.0000000001479285
 11
9119.779002541578
 21
2114.776529378268
 31
0.0000000001479285
  0
LINE
  5
2723
330
1F
100
AcDbEntity
  8
SANINDUSA
100
AcDbLine
 10
9119.776338520878
 20
2114.782529374458
 30
0.0000000001479286
 11
9119.776338520878
 21
2114.776529374458
 31
0.0000000001479286
1001
GENIUS_GENREC_14
1002
{
1000
PYDIR
1011
9119.929338520879
1021
2114.776329374459
1031
0.0000000001479286
1002
}
1002
{
1000
PXDIR
1011
9119.779338520878
1021
2114.782329374458
1031
0.0000000001479286
1002
}
1002
{
1000
PORI
1011
9119.929338520879
1021
2114.782329374458
1031
0.0000000001479286
1002
}
1002
{
1000
PINS
1011
9119.929338520879
1021
2114.782329374458
1031
0.0000000001479286
1002
}
1002
{
1000
PINS2
1011
9119.779338520878
1021
2114.776529374458
1031
0.0000000001479286
1002
}
1002
{
1000
C
1070
     1
1002
}
1001
GENIUS_GENODEF_13
1002
{
1000
HIER
1070
     0
1002
}
1002
{
1000
MANEDIT
1070
     0
1002
}
1002
{
1000
NOSEL
1070
     0
1002
}
1002
{
1000
BEHIND
1070
     0
1002
}
1002
{
1000
REACTOR
1002
}
1001
GENIUS_GENOBJ-N-REC_13
1002
{
1000
OWNER
1000
GEN
1002
}
  0
LINE
  5
2724
330
1F
100
AcDbEntity
  8
SANINDUSA
100
AcDbLine
 10
9119.790352065185
 20
2114.775821699761
 30
0.0000000001479285
 11
9119.778847763504
 21
2114.773929378268
 31
0.0000000001479285
  0
LINE
  5
2725
330
1F
100
AcDbEntity
  8
SANINDUSA
100
AcDbLine
 10
9119.787928412931
 20
2114.776233787957
 30
0.0000000001479285
 11
9119.785852084575
 21
2114.776525596877
 31
0.0000000001479285
  0
LINE
  5
2726
330
1F
100
AcDbEntity
  8
SANINDUSA
100
AcDbLine
 10
9119.785552065186
 20
2114.775842906873
 30
0.0000000001479285
 11
9119.787928412931
 21
2114.776233787957
 31
0.0000000001479285
  0
LINE
  5
2727
330
1F
100
AcDbEntity
  8
SANINDUSA
100
AcDbLine
 10
9119.788029490559
 20
2114.782485734463
 30
0.0000000001479285
 11
9119.785900795161
 21
2114.782186565835
 31
0.0000000001479285
  0
LINE
  5
2728
330
1F
100
AcDbEntity
  8
SANINDUSA
100
AcDbLine
 10
9119.785900795161
 20
2114.776872190701
 30
0.0000000001479285
 11
9119.788029490559
 21
2114.776573022073
 31
0.0000000001479285
  0
LINE
  5
2729
330
1F
100
AcDbEntity
  8
SANINDUSA
100
AcDbLine
 10
9119.790854680925
 20
2114.781938256965
 30
0.0000000001479285
 11
9119.789169709694
 21
2114.782215414794
 31
0.0000000001479285
  0
ARC
  5
272A
330
1F
100
AcDbEntity
  8
SANINDUSA
100
AcDbCircle
 10
9119.789267093954
 20
2114.78280745897
 30
0.0000000001479285
 40
0.0006
100
AcDbArc
 50
212.4694808006354
 51
260.6591658778191
  0
ARC
  5
272B
330
1F
100
AcDbEntity
  8
SANINDUSA
100
AcDbCircle
 10
9119.790254680923
 20
2114.776413743937
 30
0.0000000001479285
 40
0.0006
100
AcDbArc
 50
279.3408341221809
 51
0.0
  0
ARC
  5
272C
330
1F
100
AcDbEntity
  8
SANINDUSA
100
AcDbCircle
 10
9119.788254680925
 20
2114.776895517915
 30
0.0000000001479285
 40
0.0005999999999989
100
AcDbArc
 50
284.1008917867585
 51
327.5305191993646
  0
LINE
  5
272D
330
1F
100
AcDbEntity
  8
SANINDUSA
100
AcDbLine
 10
9119.789169709694
 20
2114.776843341742
 30
0.0000000001479285
 11
9119.790854680925
 21
2114.777120499571
 31
0.0000000001479285
  0
LINE
  5
272E
330
1F
100
AcDbEntity
  8
SANINDUSA
100
AcDbLine
 10
9119.790854680925
 20
2114.777120499571
 30
0.0000000001479285
 11
9119.790854680925
 21
2114.776413743937
 31
0.0000000001479285
  0
ARC
  5
272F
330
1F
100
AcDbEntity
  8
SANINDUSA
100
AcDbCircle
 10
9119.789267093954
 20
2114.776251297566
 30
0.0000000001479285
 40
0.0006
100
AcDbArc
 50
99.3408341221809
 51
147.5305191993646
  0
ARC
  5
2730
330
1F
100
AcDbEntity
  8
SANINDUSA
100
AcDbCircle
 10
9119.787959904009
 20
2114.776077888038
 30
0.0000000001479285
 40
0.0005
100
AcDbArc
 50
28.12637395497053
 51
82.00000003878484
  0
ARC
  5
2731
330
1F
100
AcDbEntity
  8
SANINDUSA
100
AcDbCircle
 10
9119.785876439868
 20
2114.782359862747
 30
0.0000000001479285
 40
0.000175
100
AcDbArc
 50
97.99999996121519
 51
277.9999999612152
  0
ARC
  5
2732
330
1F
100
AcDbEntity
  8
SANINDUSA
100
AcDbCircle
 10
9119.780201219468
 20
2114.775830079457
 30
0.0000000001479285
 40
0.0005
100
AcDbArc
 50
279.3408341221809
 51
9.340834088013414
  0
ARC
  5
2733
330
1F
100
AcDbEntity
  8
SANINDUSA
100
AcDbCircle
 10
9119.784701959257
 20
2114.775500386929
 30
0.0000000001479285
 40
0.0006000000000005
100
AcDbArc
 50
51.15114903522314
 51
99.3408341221809
  0
LINE
  5
2734
330
1F
100
AcDbEntity
  8
SANINDUSA
100
AcDbLine
 10
9119.782725218056
 20
2114.775783299128
 30
0.0000000001479285
 11
9119.784604574999
 21
2114.776092431105
 31
0.0000000001479285
  0
LINE
  5
2735
330
1F
100
AcDbEntity
  8
SANINDUSA
100
AcDbLine
 10
9119.782134123278
 20
2114.776401378734
 30
0.0000000001479285
 11
9119.782174700054
 21
2114.776154693661
 31
0.0000000001479285
  0
LINE
  5
2736
330
1F
100
AcDbEntity
  8
SANINDUSA
100
AcDbLine
 10
9119.780694589612
 20
2114.775911233008
 30
0.0000000001479285
 11
9119.780654012838
 21
2114.776157918081
 31
0.0000000001479285
  0
ARC
  5
2737
330
1F
100
AcDbEntity
  8
SANINDUSA
100
AcDbCircle
 10
9119.782644064507
 20
2114.776276669274
 30
0.0000000001479285
 40
0.0005
100
AcDbArc
 50
179.8634464259011
 51
279.3408341221809
  0
ARC
  5
2738
330
1F
100
AcDbEntity
  8
SANINDUSA
100
AcDbCircle
 10
9119.781394068057
 20
2114.776279648408
 30
0.0000000001479285
 40
0.00075
100
AcDbArc
 50
359.8634464259011
 51
189.3408340880134
  0
ARC
  5
2739
330
1F
100
AcDbEntity
  8
SANINDUSA
100
AcDbCircle
 10
9119.785876439868
 20
2114.776698893789
 30
0.0000000001479285
 40
0.000175
100
AcDbArc
 50
82.00000003878484
 51
262.0000000387848
  0
ARC
  5
273A
330
1F
100
AcDbEntity
  8
SANINDUSA
100
AcDbCircle
 10
9119.785454680926
 20
2114.776434951048
 30
0.0000000001479285
 40
0.0006
100
AcDbArc
 50
231.1511490352232
 51
279.3408341221809
  0
LINE
  5
273B
330
1F
100
AcDbEntity
  8
SANINDUSA
100
AcDbLine
 10
9119.778847763504
 20
2114.773929378268
 30
0.0000000001479285
 11
9119.777854680924
 21
2114.773929378268
 31
0.0000000001479285
  0
LINE
  5
273C
330
1F
100
AcDbEntity
  8
SANINDUSA
100
AcDbLine
 10
9119.779699925839
 20
2114.775240903643
 30
0.0000000001479285
 11
9119.780282373019
 21
2114.775336709311
 31
0.0000000001479285
  0
ARC
  5
273D
330
1F
100
AcDbEntity
  8
SANINDUSA
100
AcDbCircle
 10
9119.77960254158
 20
2114.775832947818
 30
0.0000000001479285
 40
0.0006
100
AcDbArc
 50
180.0
 51
279.3408341221809
  0
ARC
  5
273E
330
1F
100
AcDbEntity
  8
SANINDUSA
100
AcDbCircle
 10
9119.793502541579
 20
2114.787929374458
 30
0.0000000001479286
 40
0.001
100
AcDbArc
 50
90.0
 51
180.0
  0
ARC
  5
273F
330
1F
100
AcDbEntity
  8
SANINDUSA
100
AcDbCircle
 10
9119.780201219468
 20
2114.783228677079
 30
0.0000000001479285
 40
0.0005
100
AcDbArc
 50
350.6591659119866
 51
80.65916587781911
  0
LINE
  5
2740
330
1F
100
AcDbEntity
  8
SANINDUSA
100
AcDbLine
 10
9119.778847763504
 20
2114.785129378268
 30
0.0000000001479285
 11
9119.777854680924
 21
2114.785129378268
 31
0.0000000001479285
  0
LINE
  5
2741
330
1F
100
AcDbEntity
  8
SANINDUSA
100
AcDbLine
 10
9119.780282373019
 20
2114.783722047225
 30
0.0000000001479285
 11
9119.779699925839
 21
2114.783817852893
 31
0.0000000001479285
  0
ARC
  5
2742
330
1F
100
AcDbEntity
  8
SANINDUSA
100
AcDbCircle
 10
9119.77960254158
 20
2114.783225808718
 30
0.0000000001479285
 40
0.0006
100
AcDbArc
 50
80.65916587781911
 51
180.0
  0
LINE
  5
2743
330
1F
100
AcDbEntity
  8
SANINDUSA
100
AcDbLine
 10
9119.787928412931
 20
2114.782824968579
 30
0.0000000001479285
 11
9119.785552065186
 21
2114.783215849663
 31
0.0000000001479285
  0
ARC
  5
2744
330
1F
100
AcDbEntity
  8
SANINDUSA
100
AcDbCircle
 10
9119.790254680923
 20
2114.782645012599
 30
0.0000000001479285
 40
0.0006
100
AcDbArc
 50
0.0
 51
80.65916587781911
  0
LINE
  5
2745
330
1F
100
AcDbEntity
  8
SANINDUSA
100
AcDbLine
 10
9119.780654012838
 20
2114.782900838455
 30
0.0000000001479285
 11
9119.780694589612
 21
2114.783147523528
 31
0.0000000001479285
  0
LINE
  5
2746
330
1F
100
AcDbEntity
  8
SANINDUSA
100
AcDbLine
 10
9119.7821675298
 20
2114.782860471583
 30
0.0000000001479285
 11
9119.782134123278
 21
2114.782657377802
 31
0.0000000001479285
  0
LINE
  5
2747
330
1F
100
AcDbEntity
  8
SANINDUSA
100
AcDbLine
 10
9119.784604574999
 20
2114.782966325431
 30
0.0000000001479285
 11
9119.782742053498
 21
2114.783272688178
 31
0.0000000001479285
  0
ARC
  5
2748
330
1F
100
AcDbEntity
  8
SANINDUSA
100
AcDbCircle
 10
9119.784701959257
 20
2114.783558369607
 30
0.0000000001479285
 40
0.0006000000000005
100
AcDbArc
 50
260.6591658778191
 51
308.8488509647768
  0
ARC
  5
2749
330
1F
100
AcDbEntity
  8
SANINDUSA
100
AcDbCircle
 10
9119.782660899948
 20
2114.782779318032
 30
0.0000000001479285
 40
0.0005
100
AcDbArc
 50
80.65916587781911
 51
170.6591659119865
  0
ARC
  5
274A
330
1F
100
AcDbEntity
  8
SANINDUSA
100
AcDbCircle
 10
9119.785454680926
 20
2114.782623805488
 30
0.0000000001479285
 40
0.0006
100
AcDbArc
 50
80.65916587781911
 51
128.8488509647768
  0
LINE
  5
274B
330
1F
100
AcDbEntity
  8
SANINDUSA
100
AcDbLine
 10
9119.778847763504
 20
2114.785129378268
 30
0.0000000001479285
 11
9119.790352065185
 21
2114.783237056775
 31
0.0000000001479285
  0
LINE
  5
274C
330
1F
100
AcDbEntity
  8
SANINDUSA
100
AcDbLine
 10
9119.792502541578
 20
2114.783929374458
 30
0.0000000001479286
 11
9119.792502541578
 21
2114.787929374458
 31
0.0000000001479286
  0
LINE
  5
274D
330
1F
100
AcDbEntity
  8
SANINDUSA
100
AcDbLine
 10
9119.70950254158
 20
2114.775129322165
 30
0.0000000001479286
 11
9119.70950254158
 21
2114.766129322164
 31
0.0000000001479286
  0
ARC
  5
274E
330
1F
100
AcDbEntity
  8
SANINDUSA
100
AcDbCircle
 10
9119.710502541577
 20
2114.766129322164
 30
0.0000000001479286
 40
0.001
100
AcDbArc
 50
180.0
 51
270.0
  0
LINE
  5
274F
330
1F
100
AcDbEntity
  8
SANINDUSA
100
AcDbLine
 10
9119.710502541577
 20
2114.788929374459
 30
0.0000000001479286
 11
9119.761502541578
 21
2114.788929374459
 31
0.0000000001479286
  0
LINE
  5
2750
330
1F
100
AcDbEntity
  8
SANINDUSA
100
AcDbLine
 10
9119.762502541579
 20
2114.783929374458
 30
0.0000000001479286
 11
9119.70950254158
 21
2114.783929374458
 31
0.0000000001479286
  0
LINE
  5
2751
330
1F
100
AcDbEntity
  8
SANINDUSA
100
AcDbLine
 10
9119.762502541579
 20
2114.775129322165
 30
0.0000000001479286
 11
9119.70950254158
 21
2114.775129322165
 31
0.0000000001479286
  0
LWPOLYLINE
  5
2752
330
1F
100
AcDbEntity
  8
SANINDUSA
100
AcDbPolyline
 90
        4
 70
     1
 43
0.0
 38
0.0000000001479285
 10
9119.70950254158
 20
2114.783729374458
 10
9119.762502541579
 20
2114.783729374458
 10
9119.762502541579
 20
2114.782729374459
 10
9119.70950254158
 20
2114.782729374459
1001
GENIUS_GENREC_14
1002
{
1000
PYDIR
1011
9119.845502541577
1021
2114.041181775526
1031
0.0000000001479286
1002
}
1002
{
1000
PXDIR
1011
9119.792502541578
1021
2114.042181775525
1031
0.0000000001479286
1002
}
1002
{
1000
PORI
1011
9119.845502541577
1021
2114.042181775525
1031
0.0000000001479286
1002
}
1002
{
1000
PINS
1011
9119.845502541577
1021
2114.042181775525
1031
0.0000000001479286
1002
}
1002
{
1000
PINS2
1011
9119.792502541578
1021
2114.041181775526
1031
0.0000000001479286
1002
}
1002
{
1000
C
1070
     1
1002
}
1001
GENIUS_GENODEF_13
1002
{
1000
HIER
1070
     0
1002
}
1002
{
1000
MANEDIT
1070
     0
1002
}
1002
{
1000
NOSEL
1070
     0
1002
}
1002
{
1000
BEHIND
1070
     0
1002
}
1002
{
1000
REACTOR
1002
}
1001
GENIUS_GENOBJ-N-REC_13
1002
{
1000
OWNER
1000
GEN
1002
}
  0
LWPOLYLINE
  5
2753
330
1F
100
AcDbEntity
  8
SANINDUSA
100
AcDbPolyline
 90
        2
 70
     0
 43
0.0
 38
0.0000000001479285
 10
9119.70950254158
 20
2114.775229374458
 10
9119.762502541579
 20
2114.775229374458
1001
GENIUS_GENREC_14
1002
{
1000
PYDIR
1011
9119.845502541577
1021
2114.041481775525
1031
0.0000000001479286
1002
}
1002
{
1000
PXDIR
1011
9119.792502541578
1021
2114.042481775525
1031
0.0000000001479286
1002
}
1002
{
1000
PORI
1011
9119.845502541577
1021
2114.042481775525
1031
0.0000000001479286
1002
}
1002
{
1000
PINS
1011
9119.845502541577
1021
2114.042481775525
1031
0.0000000001479286
1002
}
1002
{
1000
PINS2
1011
9119.792502541578
1021
2114.041481775525
1031
0.0000000001479286
1002
}
1002
{
1000
C
1070
     1
1002
}
1001
GENIUS_GENODEF_13
1002
{
1000
HIER
1070
     0
1002
}
1002
{
1000
MANEDIT
1070
     0
1002
}
1002
{
1000
NOSEL
1070
     0
1002
}
1002
{
1000
BEHIND
1070
     0
1002
}
1002
{
1000
REACTOR
1002
}
1001
GENIUS_GENOBJ-N-REC_13
1002
{
1000
OWNER
1000
GEN
1002
}
  0
LWPOLYLINE
  5
2754
330
1F
100
AcDbEntity
  8
SANINDUSA
100
AcDbPolyline
 90
        2
 70
     0
 43
0.0
 38
0.0000000001479285
 10
9119.762502541579
 20
2114.776229374458
 10
9119.70950254158
 20
2114.776229374458
1001
GENIUS_GENREC_14
1002
{
1000
PYDIR
1011
9119.845502541577
1021
2114.041481775525
1031
0.0000000001479286
1002
}
1002
{
1000
PXDIR
1011
9119.792502541578
1021
2114.042481775525
1031
0.0000000001479286
1002
}
1002
{
1000
PORI
1011
9119.845502541577
1021
2114.042481775525
1031
0.0000000001479286
1002
}
1002
{
1000
PINS
1011
9119.845502541577
1021
2114.042481775525
1031
0.0000000001479286
1002
}
1002
{
1000
PINS2
1011
9119.792502541578
1021
2114.041481775525
1031
0.0000000001479286
1002
}
1002
{
1000
C
1070
     1
1002
}
1001
GENIUS_GENODEF_13
1002
{
1000
HIER
1070
     0
1002
}
1002
{
1000
MANEDIT
1070
     0
1002
}
1002
{
1000
NOSEL
1070
     0
1002
}
1002
{
1000
BEHIND
1070
     0
1002
}
1002
{
1000
REACTOR
1002
}
1001
GENIUS_GENOBJ-N-REC_13
1002
{
1000
OWNER
1000
GEN
1002
}
  0
LINE
  5
2755
330
1F
100
AcDbEntity
  8
SANINDUSA
100
AcDbLine
 10
9119.762502541579
 20
2114.775229374458
 30
0.0000000001479286
 11
9119.762502541579
 21
2114.776229374458
 31
0.0000000001479286
1001
GENIUS_GENREC_14
1002
{
1000
PYDIR
1011
9119.845502541577
1021
2114.776229374458
1031
0.0000000001479286
1002
}
1002
{
1000
PXDIR
1011
9119.792502541578
1021
2114.775229374458
1031
0.0000000001479286
1002
}
1002
{
1000
PORI
1011
9119.845502541577
1021
2114.775229374458
1031
0.0000000001479286
1002
}
1002
{
1000
PINS
1011
9119.845502541577
1021
2114.775229374458
1031
0.0000000001479286
1002
}
1002
{
1000
PINS2
1011
9119.792502541578
1021
2114.776229374458
1031
0.0000000001479286
1002
}
1002
{
1000
C
1070
     1
1002
}
1001
GENIUS_GENODEF_13
1002
{
1000
HIER
1070
     0
1002
}
1002
{
1000
MANEDIT
1070
     0
1002
}
1002
{
1000
NOSEL
1070
     0
1002
}
1002
{
1000
BEHIND
1070
     0
1002
}
1002
{
1000
REACTOR
1002
}
1001
GENIUS_GENOBJ-N-REC_13
1002
{
1000
OWNER
1000
GEN
1002
}
  0
LINE
  5
2756
330
1F
100
AcDbEntity
  8
SANINDUSA
100
AcDbLine
 10
9119.762502541579
 20
2114.773129322164
 30
0.0000000001479286
 11
9119.762502541579
 21
2114.775129322165
 31
0.0000000001479286
  0
ARC
  5
2757
330
1F
100
AcDbEntity
  8
SANINDUSA
100
AcDbCircle
 10
9119.761502541578
 20
2114.787929374458
 30
0.0000000001479286
 40
0.001
100
AcDbArc
 50
0.0
 51
90.0
  0
LINE
  5
2758
330
1F
100
AcDbEntity
  8
SANINDUSA
100
AcDbLine
 10
9119.762502541579
 20
2114.783929374458
 30
0.0000000001479286
 11
9119.762502541579
 21
2114.787929374458
 31
0.0000000001479286
  0
LINE
  5
2759
330
1F
100
AcDbEntity
  8
SANINDUSA
100
AcDbLine
 10
9119.70950254158
 20
2114.776229374458
 30
0.0000000001479286
 11
9119.70950254158
 21
2114.775229374458
 31
0.0000000001479286
1001
GENIUS_GENREC_14
1002
{
1000
PYDIR
1011
9119.845502541577
1021
2114.776229374458
1031
0.0000000001479286
1002
}
1002
{
1000
PXDIR
1011
9119.792502541578
1021
2114.775229374458
1031
0.0000000001479286
1002
}
1002
{
1000
PORI
1011
9119.845502541577
1021
2114.775229374458
1031
0.0000000001479286
1002
}
1002
{
1000
PINS
1011
9119.845502541577
1021
2114.775229374458
1031
0.0000000001479286
1002
}
1002
{
1000
PINS2
1011
9119.792502541578
1021
2114.776229374458
1031
0.0000000001479286
1002
}
1002
{
1000
C
1070
     1
1002
}
1001
GENIUS_GENODEF_13
1002
{
1000
HIER
1070
     0
1002
}
1002
{
1000
MANEDIT
1070
     0
1002
}
1002
{
1000
NOSEL
1070
     0
1002
}
1002
{
1000
BEHIND
1070
     0
1002
}
1002
{
1000
REACTOR
1002
}
1001
GENIUS_GENOBJ-N-REC_13
1002
{
1000
OWNER
1000
GEN
1002
}
  0
ARC
  5
275A
330
1F
100
AcDbEntity
  8
SANINDUSA
100
AcDbCircle
 10
9119.710502541577
 20
2114.787929374458
 30
0.0000000001479286
 40
0.001
100
AcDbArc
 50
90.0
 51
180.0
  0
LINE
  5
275B
330
1F
100
AcDbEntity
  8
SANINDUSA
100
AcDbLine
 10
9119.70950254158
 20
2114.783929374458
 30
0.0000000001479286
 11
9119.70950254158
 21
2114.787929374458
 31
0.0000000001479286
  0
LINE
  5
275C
330
1F
100
AcDbEntity
  8
SANINDUSA
100
AcDbLine
 10
9119.087338520881
 20
2114.782529378268
 30
0.0000000001479285
 11
9119.087338520881
 21
2114.776529378268
 31
0.0000000001479285
  0
LINE
  5
275D
330
1F
100
AcDbEntity
  8
SANINDUSA
100
AcDbLine
 10
9120.57900254158
 20
2114.782529374458
 30
0.0000000001557791
 11
9120.57900254158
 21
2114.776529374458
 31
0.0000000001553315
  0
ARC
  5
275E
330
1F
100
AcDbEntity
  8
SANINDUSA
100
AcDbCircle
 10
9119.046316497119
 20
2114.787229378268
 30
0.0
 40
0.0009999999999999
100
AcDbArc
 50
90.0
 51
180.0
  0
LINE
  5
275F
330
1F
100
AcDbEntity
  8
SANINDUSA
100
AcDbLine
 10
9119.046316497119
 20
2114.788229378268
 30
0.0
 11
9119.081339801251
 21
2114.788229378268
 31
0.0
  0
LINE
  5
2760
330
1F
100
AcDbEntity
  8
SANINDUSA
100
AcDbLine
 10
9119.045316497119
 20
2114.786243591831
 30
0.0
 11
9119.045316497119
 21
2114.787229378268
 31
0.0
  0
ARC
  5
2761
330
1F
100
AcDbEntity
  8
SANINDUSA
100
AcDbCircle
 10
9119.081339801251
 20
2114.787229378268
 30
0.0
 40
0.001
100
AcDbArc
 50
270.0
 51
90.0
  0
ARC
  5
2762
330
1F
100
AcDbEntity
  8
SANINDUSA
100
AcDbCircle
 10
9119.046316497119
 20
2114.786243591831
 30
0.0
 40
0.0010000000000003
100
AcDbArc
 50
180.0
 51
225.0
  0
LINE
  5
2763
330
1F
100
AcDbEntity
  8
SANINDUSA
100
AcDbLine
 10
9119.081339801251
 20
2114.786229378267
 30
0.0
 11
9119.04981649712
 21
2114.786229378267
 31
0.0
  0
LINE
  5
2764
330
1F
100
AcDbEntity
  8
SANINDUSA
100
AcDbLine
 10
9119.0465236039
 20
2114.784622271487
 30
0.0
 11
9119.045609390338
 21
2114.785536485049
 31
0.0
  0
ARC
  5
2765
330
1F
100
AcDbEntity
  8
SANINDUSA
100
AcDbCircle
 10
9119.04981649712
 20
2114.785229378268
 30
0.0
 40
0.001
100
AcDbArc
 50
90.0
 51
180.0
  0
ARC
  5
2766
330
1F
100
AcDbEntity
  8
SANINDUSA
100
AcDbCircle
 10
9119.045816497118
 20
2114.783915164705
 30
0.0
 40
0.0010000000000003
100
AcDbArc
 50
0.0
 51
45.0
  0
LINE
  5
2767
330
1F
100
AcDbEntity
  8
SANINDUSA
100
AcDbLine
 10
9119.048816497119
 20
2114.785229378268
 30
0.0
 11
9119.048816497119
 21
2114.767370191991
 31
0.0
  0
LINE
  5
2768
330
1F
100
AcDbEntity
  8
SANINDUSA
100
AcDbLine
 10
9119.046816497119
 20
2114.78054003844
 30
0.0
 11
9119.046816497119
 21
2114.783915164705
 31
0.0
  0
ARC
  5
2769
330
1F
100
AcDbEntity
  8
SANINDUSA
100
AcDbCircle
 10
9119.04981649712
 20
2114.767370191991
 30
0.0
 40
0.001
100
AcDbArc
 50
180.0
 51
272.1494579411624
  0
ARC
  5
276A
330
1F
100
AcDbEntity
  8
SANINDUSA
100
AcDbCircle
 10
9119.04706649712
 20
2114.78054003844
 30
0.0
 40
0.0002500000000003
100
AcDbArc
 50
180.0
 51
225.0
  0
ARC
  5
276B
330
1F
100
AcDbEntity
  8
SANINDUSA
100
AcDbCircle
 10
9119.046226388682
 20
2114.863022937913
 30
0.0
 40
0.0967200954923435
100
AcDbArc
 50
272.1494579411624
 51
285.5601696204736
  0
LINE
  5
276C
330
1F
100
AcDbEntity
  8
SANINDUSA
100
AcDbLine
 10
9119.047370050509
 20
2114.779882931658
 30
0.0
 11
9119.046889720424
 21
2114.780363261744
 31
0.0
  0
ARC
  5
276D
330
1F
100
AcDbEntity
  8
SANINDUSA
100
AcDbCircle
 10
9119.072037447878
 20
2114.770329378268
 30
0.0
 40
0.0005
100
AcDbArc
 50
285.5601696204736
 51
90.0
  0
ARC
  5
276E
330
1F
100
AcDbEntity
  8
SANINDUSA
100
AcDbCircle
 10
9119.047016497118
 20
2114.779529378268
 30
0.0
 40
0.0005
100
AcDbArc
 50
315.0
 51
45.0
  0
LINE
  5
276F
330
1F
100
AcDbEntity
  8
SANINDUSA
100
AcDbLine
 10
9119.072037447878
 20
2114.770829378268
 30
0.0
 11
9119.059339801252
 21
2114.770829378268
 31
0.0
  0
LINE
  5
2770
330
1F
100
AcDbEntity
  8
SANINDUSA
100
AcDbLine
 10
9119.046889720424
 20
2114.778695494791
 30
0.0
 11
9119.047370050509
 21
2114.779175824877
 31
0.0
  0
ARC
  5
2771
330
1F
100
AcDbEntity
  8
SANINDUSA
100
AcDbCircle
 10
9119.059339801252
 20
2114.771829378268
 30
0.0
 40
0.001
100
AcDbArc
 50
90.0
 51
270.0
  0
ARC
  5
2772
330
1F
100
AcDbEntity
  8
SANINDUSA
100
AcDbCircle
 10
9119.04706649712
 20
2114.778518718096
 30
0.0
 40
0.00025
100
AcDbArc
 50
135.0
 51
180.0
  0
LINE
  5
2773
330
1F
100
AcDbEntity
  8
SANINDUSA
100
AcDbLine
 10
9119.059339801252
 20
2114.772829378268
 30
0.0
 11
9119.081339801251
 21
2114.772829378268
 31
0.0
  0
LINE
  5
2774
330
1F
100
AcDbEntity
  8
SANINDUSA
100
AcDbLine
 10
9119.046816497119
 20
2114.768329354607
 30
0.0
 11
9119.046816497119
 21
2114.778518718096
 31
0.0
  0
ARC
  5
2775
330
1F
100
AcDbEntity
  8
SANINDUSA
100
AcDbCircle
 10
9119.081339801251
 20
2114.771829378268
 30
0.0
 40
0.001
100
AcDbArc
 50
291.0588352226754
 51
90.0
  0
ARC
  5
2776
330
1F
100
AcDbEntity
  8
SANINDUSA
100
AcDbCircle
 10
9119.045816497118
 20
2114.768329354607
 30
0.0
 40
0.0010000000000003
100
AcDbArc
 50
314.9106959658541
 51
0.0
  0
ARC
  5
2777
330
1F
100
AcDbEntity
  8
SANINDUSA
100
AcDbCircle
 10
9119.046226388682
 20
2114.863022937913
 30
0.0
 40
0.0987200954923432
100
AcDbArc
 50
270.0522366344934
 51
291.0588352226754
  0
LINE
  5
2778
330
1F
100
AcDbEntity
  8
SANINDUSA
100
AcDbLine
 10
9119.0456160618
 20
2114.766717528689
 30
0.0
 11
9119.04652250091
 21
2114.767621146553
 31
0.0
  0
ARC
  5
2779
330
1F
100
AcDbEntity
  8
SANINDUSA
100
AcDbCircle
 10
9119.046315480138
 20
2114.765302883033
 30
0.0
 40
0.001
100
AcDbArc
 50
179.4659008824504
 51
270.0522366344934
  0
ARC
  5
277A
330
1F
100
AcDbEntity
  8
SANINDUSA
100
AcDbCircle
 10
9119.046322065591
 20
2114.766009320636
 30
0.0
 40
0.0010000000000003
100
AcDbArc
 50
134.9106959658541
 51
179.4659008824504
  0
LINE
  5
277B
330
1F
100
AcDbEntity
  8
SANINDUSA
100
AcDbLine
 10
9119.045315523583
 20
2114.765312204686
 30
0.0
 11
9119.045322109037
 21
2114.766018642288
 31
0.0
  0
LINE
  5
277C
330
1F
100
AcDbEntity
  8
SANINDUSA
100
AcDbLine
 10
9119.09494172441
 20
2114.783529378268
 30
0.0
 11
9119.09225311126
 21
2114.783529378268
 31
0.0
  0
ARC
  5
277D
330
1F
100
AcDbEntity
  8
SANINDUSA
100
AcDbCircle
 10
9119.09225311126
 20
2114.783029378268
 30
0.0
 40
0.0005
100
AcDbArc
 50
90.0
 51
160.5287793619829
  0
ARC
  5
277E
330
1F
100
AcDbEntity
  8
SANINDUSA
100
AcDbCircle
 10
9119.09494172441
 20
2114.783029378268
 30
0.0
 40
0.0005000000000001
100
AcDbArc
 50
23.57817848029807
 51
90.0
  0
ARC
  5
277F
330
1F
100
AcDbEntity
  8
SANINDUSA
100
AcDbCircle
 10
9119.090838897699
 20
2114.783529378268
 30
0.0
 40
0.001
100
AcDbArc
 50
199.471220638017
 51
340.5287793619829
  0
ARC
  5
2780
330
1F
100
AcDbEntity
  8
SANINDUSA
100
AcDbCircle
 10
9119.096316497119
 20
2114.783629378268
 30
0.0
 40
0.0009999999999999
100
AcDbArc
 50
203.5781784802981
 51
0.0
  0
ARC
  5
2781
330
1F
100
AcDbEntity
  8
SANINDUSA
100
AcDbCircle
 10
9119.089424684137
 20
2114.783029378268
 30
0.0
 40
0.0004999999999999
100
AcDbArc
 50
19.47122063801706
 51
90.0
  0
LINE
  5
2782
330
1F
100
AcDbEntity
  8
SANINDUSA
100
AcDbLine
 10
9119.097316497118
 20
2114.783629378268
 30
0.0
 11
9119.097316497118
 21
2114.784529378268
 31
0.0
  0
LINE
  5
2783
330
1F
100
AcDbEntity
  8
SANINDUSA
100
AcDbLine
 10
9119.089424684137
 20
2114.783529378268
 30
0.0
 11
9119.087838520881
 21
2114.783529378268
 31
0.0
  0
ARC
  5
2784
330
1F
100
AcDbEntity
  8
SANINDUSA
100
AcDbCircle
 10
9119.096316497119
 20
2114.784529378268
 30
0.0
 40
0.0009999999999999
100
AcDbArc
 50
0.0
 51
90.0
  0
ARC
  5
2785
330
1F
100
AcDbEntity
  8
SANINDUSA
100
AcDbCircle
 10
9119.087838520881
 20
2114.783029378268
 30
0.0
 40
0.0005
100
AcDbArc
 50
90.0
 51
180.0
  0
LINE
  5
2786
330
1F
100
AcDbEntity
  8
SANINDUSA
100
AcDbLine
 10
9119.096316497119
 20
2114.785529378268
 30
0.0
 11
9119.06481649712
 21
2114.785529378268
 31
0.0
  0
LINE
  5
2787
330
1F
100
AcDbEntity
  8
SANINDUSA
100
AcDbLine
 10
9119.087338520881
 20
2114.783029378268
 30
0.0
 11
9119.087338520881
 21
2114.776029378268
 31
0.0
  0
ARC
  5
2788
330
1F
100
AcDbEntity
  8
SANINDUSA
100
AcDbCircle
 10
9119.06481649712
 20
2114.784529378268
 30
0.0
 40
0.001
100
AcDbArc
 50
90.0
 51
270.0
  0
ARC
  5
2789
330
1F
100
AcDbEntity
  8
SANINDUSA
100
AcDbCircle
 10
9119.087838520881
 20
2114.776029378268
 30
0.0
 40
0.0005
100
AcDbArc
 50
180.0
 51
270.0
  0
LINE
  5
278A
330
1F
100
AcDbEntity
  8
SANINDUSA
100
AcDbLine
 10
9119.06481649712
 20
2114.783529378268
 30
0.0
 11
9119.08483852088
 21
2114.783529378268
 31
0.0
  0
LINE
  5
278B
330
1F
100
AcDbEntity
  8
SANINDUSA
100
AcDbLine
 10
9119.087838520881
 20
2114.775529378268
 30
0.0
 11
9119.089424684137
 21
2114.775529378268
 31
0.0
  0
ARC
  5
278C
330
1F
100
AcDbEntity
  8
SANINDUSA
100
AcDbCircle
 10
9119.08483852088
 20
2114.783029378268
 30
0.0
 40
0.0005000000000001
100
AcDbArc
 50
0.0
 51
90.0
  0
ARC
  5
278D
330
1F
100
AcDbEntity
  8
SANINDUSA
100
AcDbCircle
 10
9119.089424684137
 20
2114.776029378268
 30
0.0
 40
0.0005
100
AcDbArc
 50
270.0
 51
340.5287793619829
  0
LINE
  5
278E
330
1F
100
AcDbEntity
  8
SANINDUSA
100
AcDbLine
 10
9119.08533852088
 20
2114.783029378268
 30
0.0
 11
9119.08533852088
 21
2114.776029378268
 31
0.0
  0
ARC
  5
278F
330
1F
100
AcDbEntity
  8
SANINDUSA
100
AcDbCircle
 10
9119.090838897699
 20
2114.775529378268
 30
0.0
 40
0.001
100
AcDbArc
 50
19.47122063801706
 51
160.5287793619829
  0
ARC
  5
2790
330
1F
100
AcDbEntity
  8
SANINDUSA
100
AcDbCircle
 10
9119.08483852088
 20
2114.776029378268
 30
0.0
 40
0.0005000000000001
100
AcDbArc
 50
270.0
 51
0.0
  0
ARC
  5
2791
330
1F
100
AcDbEntity
  8
SANINDUSA
100
AcDbCircle
 10
9119.09225311126
 20
2114.776029378268
 30
0.0
 40
0.0005
100
AcDbArc
 50
199.471220638017
 51
270.0
  0
LINE
  5
2792
330
1F
100
AcDbEntity
  8
SANINDUSA
100
AcDbLine
 10
9119.08483852088
 20
2114.775529378268
 30
0.0
 11
9119.06481649712
 21
2114.775529378268
 31
0.0
  0
LINE
  5
2793
330
1F
100
AcDbEntity
  8
SANINDUSA
100
AcDbLine
 10
9119.09225311126
 20
2114.775529378268
 30
0.0
 11
9119.09494172441
 21
2114.775529378268
 31
0.0
  0
ARC
  5
2794
330
1F
100
AcDbEntity
  8
SANINDUSA
100
AcDbCircle
 10
9119.06481649712
 20
2114.774529378268
 30
0.0
 40
0.001
100
AcDbArc
 50
90.0
 51
270.0
  0
ARC
  5
2795
330
1F
100
AcDbEntity
  8
SANINDUSA
100
AcDbCircle
 10
9119.09494172441
 20
2114.776029378268
 30
0.0
 40
0.0005000000000001
100
AcDbArc
 50
270.0
 51
336.4218215197019
  0
LINE
  5
2796
330
1F
100
AcDbEntity
  8
SANINDUSA
100
AcDbLine
 10
9119.06481649712
 20
2114.773529378268
 30
0.0
 11
9119.096316497119
 21
2114.773529378268
 31
0.0
  0
ARC
  5
2797
330
1F
100
AcDbEntity
  8
SANINDUSA
100
AcDbCircle
 10
9119.096316497119
 20
2114.775429378268
 30
0.0
 40
0.0009999999999999
100
AcDbArc
 50
0.0
 51
156.4218215197019
  0
ARC
  5
2798
330
1F
100
AcDbEntity
  8
SANINDUSA
100
AcDbCircle
 10
9119.096316497119
 20
2114.774529378268
 30
0.0
 40
0.0010000000000001
100
AcDbArc
 50
270.0
 51
0.0
  0
LINE
  5
2799
330
1F
100
AcDbEntity
  8
SANINDUSA
100
AcDbLine
 10
9119.097316497118
 20
2114.774529378268
 30
0.0
 11
9119.097316497118
 21
2114.775429378268
 31
0.0
  0
LINE
  5
279A
330
1F
100
AcDbEntity
  8
SANINDUSA
100
AcDbLine
 10
9119.04296649712
 20
2114.764302883033
 30
0.0
 11
9119.04296649712
 21
2114.788229378268
 31
0.0
  0
LINE
  5
279B
330
1F
100
AcDbEntity
  8
SANINDUSA
100
AcDbLine
 10
9119.043966497121
 20
2114.788229378268
 30
0.0
 11
9119.04296649712
 21
2114.788229378268
 31
0.0
  0
LINE
  5
279C
330
1F
100
AcDbEntity
  8
SANINDUSA
100
AcDbLine
 10
9119.04296649712
 20
2114.764302883033
 30
0.0
 11
9119.043965378033
 21
2114.764302883033
 31
0.0
  0
ARC
  5
279D
330
1F
100
AcDbEntity
  8
SANINDUSA
100
AcDbCircle
 10
9119.043966497121
 20
2114.787229378268
 30
0.0
 40
0.0009999999999999
100
AcDbArc
 50
0.0
 51
90.0
  0
ARC
  5
279E
330
1F
100
AcDbEntity
  8
SANINDUSA
100
AcDbCircle
 10
9119.043965378033
 20
2114.765302883033
 30
0.0
 40
0.0009999999999999
100
AcDbArc
 50
270.0
 51
359.4659008824505
  0
LINE
  5
279F
330
1F
100
AcDbEntity
  8
SANINDUSA
100
AcDbLine
 10
9119.044966497119
 20
2114.786243591831
 30
0.0
 11
9119.044966497119
 21
2114.787229378268
 31
0.0
  0
LINE
  5
27A0
330
1F
100
AcDbEntity
  8
SANINDUSA
100
AcDbLine
 10
9119.044965334584
 20
2114.76529356138
 30
0.0
 11
9119.044972124244
 21
2114.766021904867
 31
0.0
  0
ARC
  5
27A1
330
1F
100
AcDbEntity
  8
SANINDUSA
100
AcDbCircle
 10
9119.046316497119
 20
2114.786243591831
 30
0.0
 40
0.0013499999999998
100
AcDbArc
 50
180.0
 51
225.0
  0
ARC
  5
27A2
330
1F
100
AcDbEntity
  8
SANINDUSA
100
AcDbCircle
 10
9119.046322065591
 20
2114.766009320636
 30
0.0
 40
0.00135
100
AcDbArc
 50
134.9106959658541
 51
179.4659008824504
  0
LINE
  5
27A3
330
1F
100
AcDbEntity
  8
SANINDUSA
100
AcDbLine
 10
9119.046276116527
 20
2114.784374784113
 30
0.0
 11
9119.045361902966
 21
2114.785288997676
 31
0.0
  0
LINE
  5
27A4
330
1F
100
AcDbEntity
  8
SANINDUSA
100
AcDbLine
 10
9119.045368960472
 20
2114.766965401507
 30
0.0
 11
9119.046275399583
 21
2114.767869019372
 31
0.0
  0
ARC
  5
27A5
330
1F
100
AcDbEntity
  8
SANINDUSA
100
AcDbCircle
 10
9119.045816497118
 20
2114.783915164705
 30
0.0
 40
0.0006500000000003
100
AcDbArc
 50
0.0
 51
45.0
  0
ARC
  5
27A6
330
1F
100
AcDbEntity
  8
SANINDUSA
100
AcDbCircle
 10
9119.045816497118
 20
2114.768329354607
 30
0.0
 40
0.0006500000000003
100
AcDbArc
 50
314.9106959658541
 51
0.0
  0
LINE
  5
27A7
330
1F
100
AcDbEntity
  8
SANINDUSA
100
AcDbLine
 10
9119.046466497119
 20
2114.768329354607
 30
0.0
 11
9119.046466497119
 21
2114.783915164705
 31
0.0
  0
LINE
  5
27AB
330
1F
100
AcDbEntity
  8
SANINDUSA
 48
2.0
100
AcDbLine
 10
9119.605989673358
 20
2114.819179374459
 30
0.0000000001479286
 11
9119.605989673358
 21
2115.418334673646
 31
0.0000000001479286
  0
LINE
  5
27AC
330
1F
100
AcDbEntity
  8
SANINDUSA
 48
2.0
100
AcDbLine
 10
9119.59298967336
 20
2114.819179374459
 30
0.0000000001479286
 11
9119.59298967336
 21
2115.418334673646
 31
0.0000000001479286
  0
LINE
  5
27AD
330
1F
100
AcDbEntity
  8
SANINDUSA
100
AcDbLine
 10
9119.608489673359
 20
2115.435834673645
 30
0.0
 11
9119.608489673359
 21
2115.453084673646
 31
0.0
  0
LINE
  5
27AE
330
1F
100
AcDbEntity
  8
SANINDUSA
100
AcDbLine
 10
9119.59048967336
 20
2115.435834673645
 30
0.0
 11
9119.59048967336
 21
2115.453084673646
 31
0.0
  0
LINE
  5
27AF
330
1F
100
AcDbEntity
  8
SANINDUSA
100
AcDbLine
 10
9119.59885067336
 20
2115.438804673646
 30
0.0
 11
9119.60012867336
 21
2115.438804673646
 31
0.0
  0
LINE
  5
27B0
330
1F
100
AcDbEntity
  8
SANINDUSA
100
AcDbLine
 10
9119.59948967336
 20
2115.435834673645
 30
0.0
 11
9119.60012867336
 21
2115.435834673645
 31
0.0
  0
LINE
  5
27B1
330
1F
100
AcDbEntity
  8
SANINDUSA
100
AcDbLine
 10
9119.59948967336
 20
2115.435834673645
 30
0.0
 11
9119.60012867336
 21
2115.435195673645
 31
0.0
  0
LINE
  5
27B2
330
1F
100
AcDbEntity
  8
SANINDUSA
100
AcDbLine
 10
9119.60012867336
 20
2115.436473673646
 30
0.0
 11
9119.59948967336
 21
2115.435834673645
 31
0.0
  0
LINE
  5
27B3
330
1F
100
AcDbEntity
  8
SANINDUSA
100
AcDbLine
 10
9119.60012867336
 20
2115.435195673645
 30
0.0
 11
9119.59885067336
 21
2115.435195673645
 31
0.0
  0
LINE
  5
27B4
330
1F
100
AcDbEntity
  8
SANINDUSA
100
AcDbLine
 10
9119.59885067336
 20
2115.436473673646
 30
0.0
 11
9119.60012867336
 21
2115.436473673646
 31
0.0
  0
LINE
  5
27B5
330
1F
100
AcDbEntity
  8
SANINDUSA
100
AcDbLine
 10
9119.60012867336
 20
2115.435195673645
 30
0.0
 11
9119.60012867336
 21
2115.436473673646
 31
0.0
  0
LINE
  5
27B6
330
1F
100
AcDbEntity
  8
SANINDUSA
100
AcDbLine
 10
9119.602459673359
 20
2115.436473673646
 30
0.0
 11
9119.602459673359
 21
2115.435195673645
 31
0.0
  0
LINE
  5
27B7
330
1F
100
AcDbEntity
  8
SANINDUSA
100
AcDbLine
 10
9119.602459673359
 20
2115.435195673645
 30
0.0
 11
9119.600608620176
 21
2115.435195673645
 31
0.0
  0
LINE
  5
27B8
330
1F
100
AcDbEntity
  8
SANINDUSA
100
AcDbLine
 10
9119.600608620176
 20
2115.436473673646
 30
0.0
 11
9119.602459673359
 21
2115.436473673646
 31
0.0
  0
LINE
  5
27B9
330
1F
100
AcDbEntity
  8
SANINDUSA
100
AcDbLine
 10
9119.60012867336
 20
2115.435195673645
 30
0.0
 11
9119.600608620176
 21
2115.435195673645
 31
0.0
  0
LINE
  5
27BA
330
1F
100
AcDbEntity
  8
SANINDUSA
100
AcDbLine
 10
9119.60012867336
 20
2115.436473673646
 30
0.0
 11
9119.60012867336
 21
2115.436953620463
 31
0.0
  0
LINE
  5
27BB
330
1F
100
AcDbEntity
  8
SANINDUSA
100
AcDbLine
 10
9119.60012867336
 20
2115.436953620463
 30
0.0
 11
9119.601589780499
 21
2115.437934780786
 31
0.0
  0
LINE
  5
27BC
330
1F
100
AcDbEntity
  8
SANINDUSA
100
AcDbLine
 10
9119.600608620176
 20
2115.436473673646
 30
0.0
 11
9119.60012867336
 21
2115.436473673646
 31
0.0
  0
LINE
  5
27BD
330
1F
100
AcDbEntity
  8
SANINDUSA
100
AcDbLine
 10
9119.601589780499
 20
2115.437934780786
 30
0.0
 11
9119.60012867336
 21
2115.436473673646
 31
0.0
  0
LINE
  5
27BE
330
1F
100
AcDbEntity
  8
SANINDUSA
100
AcDbLine
 10
9119.601589780499
 20
2115.437934780786
 30
0.0
 11
9119.600608620176
 21
2115.436473673646
 31
0.0
  0
LINE
  5
27BF
330
1F
100
AcDbEntity
  8
SANINDUSA
100
AcDbLine
 10
9119.59885067336
 20
2115.435834673645
 30
0.0
 11
9119.59948967336
 21
2115.435834673645
 31
0.0
  0
LINE
  5
27C0
330
1F
100
AcDbEntity
  8
SANINDUSA
100
AcDbLine
 10
9119.59948967336
 20
2115.435834673645
 30
0.0
 11
9119.59948967336
 21
2115.435195673645
 31
0.0
  0
LINE
  5
27C1
330
1F
100
AcDbEntity
  8
SANINDUSA
100
AcDbLine
 10
9119.59885067336
 20
2115.435195673645
 30
0.0
 11
9119.59948967336
 21
2115.435834673645
 31
0.0
  0
LINE
  5
27C2
330
1F
100
AcDbEntity
  8
SANINDUSA
100
AcDbLine
 10
9119.59885067336
 20
2115.436473673646
 30
0.0
 11
9119.59885067336
 21
2115.435195673645
 31
0.0
  0
LINE
  5
27C3
330
1F
100
AcDbEntity
  8
SANINDUSA
100
AcDbLine
 10
9119.59948967336
 20
2115.436473673646
 30
0.0
 11
9119.59948967336
 21
2115.435834673645
 31
0.0
  0
LINE
  5
27C4
330
1F
100
AcDbEntity
  8
SANINDUSA
100
AcDbLine
 10
9119.59948967336
 20
2115.435834673645
 30
0.0
 11
9119.59885067336
 21
2115.436473673646
 31
0.0
  0
LINE
  5
27C5
330
1F
100
AcDbEntity
  8
SANINDUSA
100
AcDbLine
 10
9119.59885067336
 20
2115.436473673646
 30
0.0
 11
9119.598370726542
 21
2115.436473673646
 31
0.0
  0
LINE
  5
27C6
330
1F
100
AcDbEntity
  8
SANINDUSA
100
AcDbLine
 10
9119.598370726542
 20
2115.436473673646
 30
0.0
 11
9119.597389566219
 21
2115.437934780786
 31
0.0
  0
LINE
  5
27C7
330
1F
100
AcDbEntity
  8
SANINDUSA
100
AcDbLine
 10
9119.59885067336
 20
2115.436953620463
 30
0.0
 11
9119.59885067336
 21
2115.436473673646
 31
0.0
  0
LINE
  5
27C8
330
1F
100
AcDbEntity
  8
SANINDUSA
100
AcDbLine
 10
9119.597389566219
 20
2115.437934780786
 30
0.0
 11
9119.59885067336
 21
2115.436473673646
 31
0.0
  0
LINE
  5
27C9
330
1F
100
AcDbEntity
  8
SANINDUSA
100
AcDbLine
 10
9119.597389566219
 20
2115.437934780786
 30
0.0
 11
9119.59885067336
 21
2115.436953620463
 31
0.0
  0
LINE
  5
27CA
330
1F
100
AcDbEntity
  8
SANINDUSA
100
AcDbLine
 10
9119.598370726542
 20
2115.435195673645
 30
0.0
 11
9119.59885067336
 21
2115.435195673645
 31
0.0
  0
LINE
  5
27CB
330
1F
100
AcDbEntity
  8
SANINDUSA
100
AcDbLine
 10
9119.596519673359
 20
2115.435195673645
 30
0.0
 11
9119.596519673359
 21
2115.436473673646
 31
0.0
  0
LINE
  5
27CC
330
1F
100
AcDbEntity
  8
SANINDUSA
100
AcDbLine
 10
9119.596519673359
 20
2115.436473673646
 30
0.0
 11
9119.598370726542
 21
2115.436473673646
 31
0.0
  0
LINE
  5
27CD
330
1F
100
AcDbEntity
  8
SANINDUSA
100
AcDbLine
 10
9119.598370726542
 20
2115.435195673645
 30
0.0
 11
9119.596519673359
 21
2115.435195673645
 31
0.0
  0
LINE
  5
27CE
330
1F
100
AcDbEntity
  8
SANINDUSA
100
AcDbLine
 10
9119.60012867336
 20
2115.438804673646
 30
0.0
 11
9119.60012867336
 21
2115.436953620463
 31
0.0
  0
LINE
  5
27CF
330
1F
100
AcDbEntity
  8
SANINDUSA
100
AcDbLine
 10
9119.59885067336
 20
2115.436953620463
 30
0.0
 11
9119.59885067336
 21
2115.438804673646
 31
0.0
  0
LINE
  5
27D0
330
1F
100
AcDbEntity
  8
SANINDUSA
100
AcDbLine
 10
9119.60012867336
 20
2115.432864673645
 30
0.0
 11
9119.59885067336
 21
2115.432864673645
 31
0.0
  0
LINE
  5
27D1
330
1F
100
AcDbEntity
  8
SANINDUSA
100
AcDbLine
 10
9119.591489673359
 20
2115.418334673646
 30
0.0
 11
9119.591489673359
 21
2115.43171156802
 31
0.0
  0
LINE
  5
27D2
330
1F
100
AcDbEntity
  8
SANINDUSA
100
AcDbLine
 10
9119.60012867336
 20
2115.434715726829
 30
0.0
 11
9119.60012867336
 21
2115.432864673645
 31
0.0
  0
LINE
  5
27D3
330
1F
100
AcDbEntity
  8
SANINDUSA
100
AcDbLine
 10
9119.601589780499
 20
2115.433734566505
 30
0.0
 11
9119.60012867336
 21
2115.434715726829
 31
0.0
  0
LINE
  5
27D4
330
1F
100
AcDbEntity
  8
SANINDUSA
100
AcDbLine
 10
9119.607489673359
 20
2115.425334673645
 30
0.0
 11
9119.591489673359
 21
2115.425334673645
 31
0.0
  0
LINE
  5
27D5
330
1F
100
AcDbEntity
  8
SANINDUSA
100
AcDbLine
 10
9119.59885067336
 20
2115.432864673645
 30
0.0
 11
9119.59885067336
 21
2115.434715726829
 31
0.0
  0
LINE
  5
27D6
330
1F
100
AcDbEntity
  8
SANINDUSA
100
AcDbLine
 10
9119.59885067336
 20
2115.434715726829
 30
0.0
 11
9119.597389566219
 21
2115.433734566505
 31
0.0
  0
LINE
  5
27D7
330
1F
100
AcDbEntity
  8
SANINDUSA
100
AcDbLine
 10
9119.607489673359
 20
2115.418334673646
 30
0.0
 11
9119.591489673359
 21
2115.418334673646
 31
0.0
  0
LINE
  5
27D8
330
1F
100
AcDbEntity
  8
SANINDUSA
100
AcDbLine
 10
9119.600608620176
 20
2115.435195673645
 30
0.0
 11
9119.601589780499
 21
2115.433734566505
 31
0.0
  0
LINE
  5
27D9
330
1F
100
AcDbEntity
  8
SANINDUSA
100
AcDbLine
 10
9119.60012867336
 20
2115.434715726829
 30
0.0
 11
9119.60012867336
 21
2115.435195673645
 31
0.0
  0
LINE
  5
27DA
330
1F
100
AcDbEntity
  8
SANINDUSA
100
AcDbLine
 10
9119.601589780499
 20
2115.433734566505
 30
0.0
 11
9119.60012867336
 21
2115.435195673645
 31
0.0
  0
LINE
  5
27DB
330
1F
100
AcDbEntity
  8
SANINDUSA
100
AcDbLine
 10
9119.59885067336
 20
2115.435195673645
 30
0.0
 11
9119.59885067336
 21
2115.434715726829
 31
0.0
  0
LINE
  5
27DC
330
1F
100
AcDbEntity
  8
SANINDUSA
100
AcDbLine
 10
9119.597389566219
 20
2115.433734566505
 30
0.0
 11
9119.59885067336
 21
2115.435195673645
 31
0.0
  0
LINE
  5
27DD
330
1F
100
AcDbEntity
  8
SANINDUSA
100
AcDbLine
 10
9119.597389566219
 20
2115.433734566505
 30
0.0
 11
9119.598370726542
 21
2115.435195673645
 31
0.0
  0
ARC
  5
27DE
330
1F
100
AcDbEntity
  8
SANINDUSA
100
AcDbCircle
 10
9119.59948967336
 20
2115.435834673645
 30
0.0
 40
0.009
100
AcDbArc
 50
180.0
 51
0.0
  0
LINE
  5
27DF
330
1F
100
AcDbEntity
  8
SANINDUSA
100
AcDbLine
 10
9119.607489673359
 20
2115.418334673646
 30
0.0
 11
9119.607489673359
 21
2115.43171156802
 31
0.0
  0
CIRCLE
  5
27E0
330
1F
100
AcDbEntity
  8
SANINDUSA
100
AcDbCircle
 10
9119.59948967336
 20
2115.435834673645
 30
0.0
 40
0.005085
  0
LINE
  5
27E1
330
1F
100
AcDbEntity
  8
SANINDUSA
100
AcDbLine
 10
9119.584489673361
 20
2115.458084673646
 30
0.0
 11
9119.584489673361
 21
2115.455084673646
 31
0.0
  0
LINE
  5
27E2
330
1F
100
AcDbEntity
  8
SANINDUSA
100
AcDbLine
 10
9119.614489673358
 20
2115.455084673646
 30
0.0
 11
9119.614489673358
 21
2115.458084673646
 31
0.0
  0
LINE
  5
27E3
330
1F
100
AcDbEntity
  8
SANINDUSA
100
AcDbLine
 10
9119.586489673359
 20
2115.453084673646
 30
0.0
 11
9119.612489673361
 21
2115.453084673646
 31
0.0
  0
ARC
  5
27E4
330
1F
100
AcDbEntity
  8
SANINDUSA
100
AcDbCircle
 10
9119.612489673361
 20
2115.455084673646
 30
0.0
 40
0.002
100
AcDbArc
 50
270.0
 51
0.0
  0
ARC
  5
27E5
330
1F
100
AcDbEntity
  8
SANINDUSA
100
AcDbCircle
 10
9119.586489673359
 20
2115.455084673646
 30
0.0
 40
0.002
100
AcDbArc
 50
180.0
 51
270.0
  0
LINE
  5
27E6
330
1F
100
AcDbEntity
  8
SANINDUSA
100
AcDbLine
 10
9119.614489673358
 20
2115.458084673646
 30
0.0
 11
9119.584489673361
 21
2115.458084673646
 31
0.0
  0
LINE
  5
27E7
330
1F
100
AcDbEntity
  8
SANINDUSA
100
AcDbLine
 10
9119.608489673359
 20
2114.801679374458
 30
0.0000000001479286
 11
9119.608489673359
 21
2114.784429374458
 31
0.0000000001479286
  0
LINE
  5
27E8
330
1F
100
AcDbEntity
  8
SANINDUSA
100
AcDbLine
 10
9119.607489673359
 20
2114.819179374459
 30
0.0000000001479286
 11
9119.607489673359
 21
2114.805802480084
 31
0.0000000001479286
  0
LINE
  5
27E9
330
1F
100
AcDbEntity
  8
SANINDUSA
100
AcDbLine
 10
9119.597389566219
 20
2114.799579267318
 30
0.0000000001479286
 11
9119.59885067336
 21
2114.800560427641
 31
0.0000000001479286
  0
LINE
  5
27EA
330
1F
100
AcDbEntity
  8
SANINDUSA
100
AcDbLine
 10
9119.600608620176
 20
2114.802318374458
 30
0.0000000001479286
 11
9119.601589780499
 21
2114.803779481599
 31
0.0000000001479286
  0
LINE
  5
27EB
330
1F
100
AcDbEntity
  8
SANINDUSA
100
AcDbLine
 10
9119.59948967336
 20
2114.801679374458
 30
0.0000000001479286
 11
9119.60012867336
 21
2114.801679374458
 31
0.0000000001479286
  0
LINE
  5
27EC
330
1F
100
AcDbEntity
  8
SANINDUSA
100
AcDbLine
 10
9119.60012867336
 20
2114.802318374458
 30
0.0000000001479286
 11
9119.60012867336
 21
2114.801040374459
 31
0.0000000001479286
  0
LINE
  5
27ED
330
1F
100
AcDbEntity
  8
SANINDUSA
100
AcDbLine
 10
9119.60012867336
 20
2114.801040374459
 30
0.0000000001479286
 11
9119.59948967336
 21
2114.801679374458
 31
0.0000000001479286
  0
LINE
  5
27EE
330
1F
100
AcDbEntity
  8
SANINDUSA
100
AcDbLine
 10
9119.59948967336
 20
2114.801040374459
 30
0.0000000001479286
 11
9119.59948967336
 21
2114.801679374458
 31
0.0000000001479286
  0
LINE
  5
27EF
330
1F
100
AcDbEntity
  8
SANINDUSA
100
AcDbLine
 10
9119.59885067336
 20
2114.801040374459
 30
0.0000000001479286
 11
9119.60012867336
 21
2114.801040374459
 31
0.0000000001479286
  0
LINE
  5
27F0
330
1F
100
AcDbEntity
  8
SANINDUSA
100
AcDbLine
 10
9119.60012867336
 20
2114.802318374458
 30
0.0000000001479286
 11
9119.600608620176
 21
2114.802318374458
 31
0.0000000001479286
  0
LINE
  5
27F1
330
1F
100
AcDbEntity
  8
SANINDUSA
100
AcDbLine
 10
9119.59885067336
 20
2114.800560427641
 30
0.0000000001479286
 11
9119.59885067336
 21
2114.801040374459
 31
0.0000000001479286
  0
LINE
  5
27F2
330
1F
100
AcDbEntity
  8
SANINDUSA
100
AcDbLine
 10
9119.59048967336
 20
2114.801679374458
 30
0.0000000001479286
 11
9119.59048967336
 21
2114.784429374458
 31
0.0000000001479286
  0
CIRCLE
  5
27F3
330
1F
100
AcDbEntity
  8
SANINDUSA
100
AcDbCircle
 10
9119.59948967336
 20
2114.801679374458
 30
0.0000000001479286
 40
0.005085
  0
ARC
  5
27F4
330
1F
100
AcDbEntity
  8
SANINDUSA
100
AcDbCircle
 10
9119.59948967336
 20
2114.801679374458
 30
0.0000000001479286
 40
0.009
100
AcDbArc
 50
0.0
 51
180.0
  0
LINE
  5
27F5
330
1F
100
AcDbEntity
  8
SANINDUSA
100
AcDbLine
 10
9119.59885067336
 20
2114.798709374458
 30
0.0000000001479286
 11
9119.60012867336
 21
2114.798709374458
 31
0.0000000001479286
  0
LINE
  5
27F6
330
1F
100
AcDbEntity
  8
SANINDUSA
100
AcDbLine
 10
9119.59885067336
 20
2114.800560427641
 30
0.0000000001479286
 11
9119.59885067336
 21
2114.798709374458
 31
0.0000000001479286
  0
LINE
  5
27F7
330
1F
100
AcDbEntity
  8
SANINDUSA
100
AcDbLine
 10
9119.62198967336
 20
2114.784429374458
 30
0.0000000001479286
 11
9119.57698967336
 21
2114.784429374458
 31
0.0000000001479286
  0
LINE
  5
27F8
330
1F
100
AcDbEntity
  8
SANINDUSA
100
AcDbLine
 10
9119.62198967336
 20
2114.766429374459
 30
0.0000000001479286
 11
9119.57698967336
 21
2114.766429374459
 31
0.0000000001479286
  0
LINE
  5
27F9
330
1F
100
AcDbEntity
  8
SANINDUSA
100
AcDbLine
 10
9119.57698967336
 20
2114.784429374458
 30
0.0000000001479286
 11
9119.57698967336
 21
2114.766429374459
 31
0.0000000001479286
  0
LINE
  5
27FA
330
1F
100
AcDbEntity
  8
SANINDUSA
100
AcDbLine
 10
9119.60012867336
 20
2114.798709374458
 30
0.0000000001479286
 11
9119.60012867336
 21
2114.800560427641
 31
0.0000000001479286
  0
LINE
  5
27FB
330
1F
100
AcDbEntity
  8
SANINDUSA
100
AcDbLine
 10
9119.602459673359
 20
2114.801040374459
 30
0.0000000001479286
 11
9119.602459673359
 21
2114.802318374458
 31
0.0000000001479286
  0
LINE
  5
27FC
330
1F
100
AcDbEntity
  8
SANINDUSA
100
AcDbLine
 10
9119.602459673359
 20
2114.802318374458
 30
0.0000000001479286
 11
9119.600608620176
 21
2114.802318374458
 31
0.0000000001479286
  0
LINE
  5
27FD
330
1F
100
AcDbEntity
  8
SANINDUSA
100
AcDbLine
 10
9119.600608620176
 20
2114.801040374459
 30
0.0000000001479286
 11
9119.602459673359
 21
2114.801040374459
 31
0.0000000001479286
  0
LINE
  5
27FE
330
1F
100
AcDbEntity
  8
SANINDUSA
100
AcDbLine
 10
9119.60012867336
 20
2114.801040374459
 30
0.0000000001479286
 11
9119.60012867336
 21
2114.800560427641
 31
0.0000000001479286
  0
LINE
  5
27FF
330
1F
100
AcDbEntity
  8
SANINDUSA
100
AcDbLine
 10
9119.60012867336
 20
2114.800560427641
 30
0.0000000001479286
 11
9119.601589780499
 21
2114.799579267318
 31
0.0000000001479286
  0
LINE
  5
2800
330
1F
100
AcDbEntity
  8
SANINDUSA
100
AcDbLine
 10
9119.600608620176
 20
2114.801040374459
 30
0.0000000001479286
 11
9119.60012867336
 21
2114.801040374459
 31
0.0000000001479286
  0
LINE
  5
2801
330
1F
100
AcDbEntity
  8
SANINDUSA
100
AcDbLine
 10
9119.601589780499
 20
2114.799579267318
 30
0.0000000001479286
 11
9119.60012867336
 21
2114.801040374459
 31
0.0000000001479286
  0
LINE
  5
2802
330
1F
100
AcDbEntity
  8
SANINDUSA
100
AcDbLine
 10
9119.601589780499
 20
2114.799579267318
 30
0.0000000001479286
 11
9119.600608620176
 21
2114.801040374459
 31
0.0000000001479286
  0
LINE
  5
2803
330
1F
100
AcDbEntity
  8
SANINDUSA
100
AcDbLine
 10
9119.62198967336
 20
2114.784429374458
 30
0.0000000001479286
 11
9119.62198967336
 21
2114.766429374459
 31
0.0000000001479286
  0
LINE
  5
2804
330
1F
100
AcDbEntity
  8
SANINDUSA
100
AcDbLine
 10
9119.596519673359
 20
2114.802318374458
 30
0.0000000001479286
 11
9119.596519673359
 21
2114.801040374459
 31
0.0000000001479286
  0
LINE
  5
2805
330
1F
100
AcDbEntity
  8
SANINDUSA
100
AcDbLine
 10
9119.598370726542
 20
2114.801040374459
 30
0.0000000001479286
 11
9119.597389566219
 21
2114.799579267318
 31
0.0000000001479286
  0
LINE
  5
2806
330
1F
100
AcDbEntity
  8
SANINDUSA
100
AcDbLine
 10
9119.597389566219
 20
2114.799579267318
 30
0.0000000001479286
 11
9119.59885067336
 21
2114.801040374459
 31
0.0000000001479286
  0
LINE
  5
2807
330
1F
100
AcDbEntity
  8
SANINDUSA
100
AcDbLine
 10
9119.596519673359
 20
2114.801040374459
 30
0.0000000001479286
 11
9119.598370726542
 21
2114.801040374459
 31
0.0000000001479286
  0
LINE
  5
2808
330
1F
100
AcDbEntity
  8
SANINDUSA
100
AcDbLine
 10
9119.591489673359
 20
2114.819179374459
 30
0.0000000001479286
 11
9119.591489673359
 21
2114.805802480084
 31
0.0000000001479286
  0
LINE
  5
2809
330
1F
100
AcDbEntity
  8
SANINDUSA
100
AcDbLine
 10
9119.607489673359
 20
2114.819179374459
 30
0.0000000001479286
 11
9119.591489673359
 21
2114.819179374459
 31
0.0000000001479286
  0
LINE
  5
280A
330
1F
100
AcDbEntity
  8
SANINDUSA
100
AcDbLine
 10
9119.59885067336
 20
2114.804649374459
 30
0.0000000001479286
 11
9119.59885067336
 21
2114.802798321276
 31
0.0000000001479286
  0
LINE
  5
280B
330
1F
100
AcDbEntity
  8
SANINDUSA
100
AcDbLine
 10
9119.59885067336
 20
2114.802798321276
 30
0.0000000001479286
 11
9119.597389566219
 21
2114.803779481599
 31
0.0000000001479286
  0
LINE
  5
280C
330
1F
100
AcDbEntity
  8
SANINDUSA
100
AcDbLine
 10
9119.597389566219
 20
2114.803779481599
 30
0.0000000001479286
 11
9119.59885067336
 21
2114.802318374458
 31
0.0000000001479286
  0
LINE
  5
280D
330
1F
100
AcDbEntity
  8
SANINDUSA
100
AcDbLine
 10
9119.597389566219
 20
2114.803779481599
 30
0.0000000001479286
 11
9119.598370726542
 21
2114.802318374458
 31
0.0000000001479286
  0
LINE
  5
280E
330
1F
100
AcDbEntity
  8
SANINDUSA
100
AcDbLine
 10
9119.598370726542
 20
2114.802318374458
 30
0.0000000001479286
 11
9119.596519673359
 21
2114.802318374458
 31
0.0000000001479286
  0
LINE
  5
280F
330
1F
100
AcDbEntity
  8
SANINDUSA
100
AcDbLine
 10
9119.59885067336
 20
2114.802318374458
 30
0.0000000001479286
 11
9119.59885067336
 21
2114.802798321276
 31
0.0000000001479286
  0
LINE
  5
2810
330
1F
100
AcDbEntity
  8
SANINDUSA
100
AcDbLine
 10
9119.598370726542
 20
2114.802318374458
 30
0.0000000001479286
 11
9119.59885067336
 21
2114.802318374458
 31
0.0000000001479286
  0
LINE
  5
2811
330
1F
100
AcDbEntity
  8
SANINDUSA
100
AcDbLine
 10
9119.60012867336
 20
2114.804649374459
 30
0.0000000001479286
 11
9119.59885067336
 21
2114.804649374459
 31
0.0000000001479286
  0
LINE
  5
2812
330
1F
100
AcDbEntity
  8
SANINDUSA
100
AcDbLine
 10
9119.601589780499
 20
2114.803779481599
 30
0.0000000001479286
 11
9119.60012867336
 21
2114.802318374458
 31
0.0000000001479286
  0
LINE
  5
2813
330
1F
100
AcDbEntity
  8
SANINDUSA
100
AcDbLine
 10
9119.601589780499
 20
2114.803779481599
 30
0.0000000001479286
 11
9119.60012867336
 21
2114.802798321276
 31
0.0000000001479286
  0
LINE
  5
2814
330
1F
100
AcDbEntity
  8
SANINDUSA
100
AcDbLine
 10
9119.59885067336
 20
2114.801679374458
 30
0.0000000001479286
 11
9119.59948967336
 21
2114.801679374458
 31
0.0000000001479286
  0
LINE
  5
2815
330
1F
100
AcDbEntity
  8
SANINDUSA
100
AcDbLine
 10
9119.59948967336
 20
2114.801679374458
 30
0.0000000001479286
 11
9119.60012867336
 21
2114.802318374458
 31
0.0000000001479286
  0
LINE
  5
2816
330
1F
100
AcDbEntity
  8
SANINDUSA
100
AcDbLine
 10
9119.59948967336
 20
2114.801679374458
 30
0.0000000001479286
 11
9119.59948967336
 21
2114.802318374458
 31
0.0000000001479286
  0
LINE
  5
2817
330
1F
100
AcDbEntity
  8
SANINDUSA
100
AcDbLine
 10
9119.59948967336
 20
2114.801679374458
 30
0.0000000001479286
 11
9119.59885067336
 21
2114.801040374459
 31
0.0000000001479286
  0
LINE
  5
2818
330
1F
100
AcDbEntity
  8
SANINDUSA
100
AcDbLine
 10
9119.60012867336
 20
2114.802798321276
 30
0.0000000001479286
 11
9119.60012867336
 21
2114.802318374458
 31
0.0000000001479286
  0
LINE
  5
2819
330
1F
100
AcDbEntity
  8
SANINDUSA
100
AcDbLine
 10
9119.59885067336
 20
2114.801040374459
 30
0.0000000001479286
 11
9119.598370726542
 21
2114.801040374459
 31
0.0000000001479286
  0
LINE
  5
281A
330
1F
100
AcDbEntity
  8
SANINDUSA
100
AcDbLine
 10
9119.60012867336
 20
2114.802798321276
 30
0.0000000001479286
 11
9119.60012867336
 21
2114.804649374459
 31
0.0000000001479286
  0
LINE
  5
281B
330
1F
100
AcDbEntity
  8
SANINDUSA
100
AcDbLine
 10
9119.59885067336
 20
2114.802318374458
 30
0.0000000001479286
 11
9119.59948967336
 21
2114.801679374458
 31
0.0000000001479286
  0
LINE
  5
281C
330
1F
100
AcDbEntity
  8
SANINDUSA
100
AcDbLine
 10
9119.59885067336
 20
2114.801040374459
 30
0.0000000001479286
 11
9119.59885067336
 21
2114.802318374458
 31
0.0000000001479286
  0
LINE
  5
281D
330
1F
100
AcDbEntity
  8
SANINDUSA
100
AcDbLine
 10
9119.60012867336
 20
2114.802318374458
 30
0.0000000001479286
 11
9119.59885067336
 21
2114.802318374458
 31
0.0000000001479286
  0
LINE
  5
281E
330
1F
100
AcDbEntity
  8
SANINDUSA
100
AcDbLine
 10
9119.607489673359
 20
2114.812179374458
 30
0.0000000001479286
 11
9119.591489673359
 21
2114.812179374458
 31
0.0000000001479286
  0
CIRCLE
  5
2823
330
1F
100
AcDbEntity
  8
SANINDUSA
100
AcDbCircle
 10
9119.777502541579
 20
2114.765129322165
 30
0.0000000001479286
 40
0.008
  0
ARC
  5
2872
330
1F
100
AcDbEntity
  8
SANINDUSA
100
AcDbCircle
 10
9120.63961169712
 20
2114.787229370649
 30
0.0
 40
0.0009999999999999
100
AcDbArc
 50
0.0
 51
90.0
  0
LINE
  5
2873
330
1F
100
AcDbEntity
  8
SANINDUSA
100
AcDbLine
 10
9120.640611697119
 20
2114.786243584211
 30
0.0
 11
9120.640611697119
 21
2114.787229370649
 31
0.0
  0
LINE
  5
2874
330
1F
100
AcDbEntity
  8
SANINDUSA
100
AcDbLine
 10
9120.63961169712
 20
2114.788229370649
 30
0.0
 11
9120.604588392987
 21
2114.788229370649
 31
0.0
  0
ARC
  5
2875
330
1F
100
AcDbEntity
  8
SANINDUSA
100
AcDbCircle
 10
9120.63961169712
 20
2114.786243584211
 30
0.0
 40
0.0010000000000003
100
AcDbArc
 50
315.0
 51
0.0
  0
ARC
  5
2876
330
1F
100
AcDbEntity
  8
SANINDUSA
100
AcDbCircle
 10
9120.604588392987
 20
2114.787229370649
 30
0.0
 40
0.001
100
AcDbArc
 50
90.0
 51
270.0
  0
LINE
  5
2877
330
1F
100
AcDbEntity
  8
SANINDUSA
100
AcDbLine
 10
9120.639404590338
 20
2114.784622263868
 30
0.0
 11
9120.6403188039
 21
2114.78553647743
 31
0.0
  0
LINE
  5
2878
330
1F
100
AcDbEntity
  8
SANINDUSA
100
AcDbLine
 10
9120.604588392987
 20
2114.786229370649
 30
0.0
 11
9120.636111697118
 21
2114.786229370649
 31
0.0
  0
ARC
  5
2879
330
1F
100
AcDbEntity
  8
SANINDUSA
100
AcDbCircle
 10
9120.640111697118
 20
2114.783915157087
 30
0.0
 40
0.0010000000000003
100
AcDbArc
 50
135.0
 51
180.0
  0
ARC
  5
287A
330
1F
100
AcDbEntity
  8
SANINDUSA
100
AcDbCircle
 10
9120.636111697118
 20
2114.785229370649
 30
0.0
 40
0.001
100
AcDbArc
 50
0.0
 51
90.0
  0
LINE
  5
287B
330
1F
100
AcDbEntity
  8
SANINDUSA
100
AcDbLine
 10
9120.639111697119
 20
2114.780540030821
 30
0.0
 11
9120.639111697119
 21
2114.783915157087
 31
0.0
  0
LINE
  5
287C
330
1F
100
AcDbEntity
  8
SANINDUSA
100
AcDbLine
 10
9120.637111697119
 20
2114.785229370649
 30
0.0
 11
9120.637111697119
 21
2114.767370184372
 31
0.0
  0
ARC
  5
287D
330
1F
100
AcDbEntity
  8
SANINDUSA
100
AcDbCircle
 10
9120.63886169712
 20
2114.780540030821
 30
0.0
 40
0.0002500000000003
100
AcDbArc
 50
315.0
 51
0.0
  0
ARC
  5
287E
330
1F
100
AcDbEntity
  8
SANINDUSA
100
AcDbCircle
 10
9120.636111697118
 20
2114.767370184372
 30
0.0
 40
0.001
100
AcDbArc
 50
267.8505420588376
 51
0.0
  0
LINE
  5
287F
330
1F
100
AcDbEntity
  8
SANINDUSA
100
AcDbLine
 10
9120.638558143729
 20
2114.77988292404
 30
0.0
 11
9120.639038473816
 21
2114.780363254125
 31
0.0
  0
ARC
  5
2880
330
1F
100
AcDbEntity
  8
SANINDUSA
100
AcDbCircle
 10
9120.639701805558
 20
2114.863022930294
 30
0.0
 40
0.0967200954923435
100
AcDbArc
 50
254.4398303795264
 51
267.8505420588376
  0
ARC
  5
2881
330
1F
100
AcDbEntity
  8
SANINDUSA
100
AcDbCircle
 10
9120.638911697119
 20
2114.779529370649
 30
0.0
 40
0.0005
100
AcDbArc
 50
135.0
 51
225.0
  0
ARC
  5
2882
330
1F
100
AcDbEntity
  8
SANINDUSA
100
AcDbCircle
 10
9120.61389074636
 20
2114.770329370649
 30
0.0
 40
0.0005
100
AcDbArc
 50
90.0
 51
254.4398303795264
  0
LINE
  5
2883
330
1F
100
AcDbEntity
  8
SANINDUSA
100
AcDbLine
 10
9120.639038473816
 20
2114.778695487173
 30
0.0
 11
9120.638558143729
 21
2114.779175817258
 31
0.0
  0
LINE
  5
2884
330
1F
100
AcDbEntity
  8
SANINDUSA
100
AcDbLine
 10
9120.61389074636
 20
2114.770829370649
 30
0.0
 11
9120.626588392985
 21
2114.770829370649
 31
0.0
  0
ARC
  5
2885
330
1F
100
AcDbEntity
  8
SANINDUSA
100
AcDbCircle
 10
9120.63886169712
 20
2114.778518710477
 30
0.0
 40
0.00025
100
AcDbArc
 50
0.0
 51
45.0
  0
ARC
  5
2886
330
1F
100
AcDbEntity
  8
SANINDUSA
100
AcDbCircle
 10
9120.626588392985
 20
2114.771829370649
 30
0.0
 40
0.001
100
AcDbArc
 50
270.0
 51
90.0
  0
LINE
  5
2887
330
1F
100
AcDbEntity
  8
SANINDUSA
100
AcDbLine
 10
9120.639111697119
 20
2114.768329346987
 30
0.0
 11
9120.639111697119
 21
2114.778518710477
 31
0.0
  0
LINE
  5
2888
330
1F
100
AcDbEntity
  8
SANINDUSA
100
AcDbLine
 10
9120.626588392985
 20
2114.772829370648
 30
0.0
 11
9120.604588392987
 21
2114.772829370648
 31
0.0
  0
ARC
  5
2889
330
1F
100
AcDbEntity
  8
SANINDUSA
100
AcDbCircle
 10
9120.640111697118
 20
2114.768329346987
 30
0.0
 40
0.0010000000000003
100
AcDbArc
 50
180.0
 51
225.0893040341459
  0
ARC
  5
288A
330
1F
100
AcDbEntity
  8
SANINDUSA
100
AcDbCircle
 10
9120.604588392987
 20
2114.771829370649
 30
0.0
 40
0.001
100
AcDbArc
 50
90.0
 51
248.9411647773246
  0
LINE
  5
288B
330
1F
100
AcDbEntity
  8
SANINDUSA
100
AcDbLine
 10
9120.640312132438
 20
2114.76671752107
 30
0.0
 11
9120.639405693328
 21
2114.767621138934
 31
0.0
  0
ARC
  5
288C
330
1F
100
AcDbEntity
  8
SANINDUSA
100
AcDbCircle
 10
9120.639701805558
 20
2114.863022930294
 30
0.0
 40
0.0987200954923432
100
AcDbArc
 50
248.9411647773246
 51
269.9477633655066
  0
ARC
  5
288D
330
1F
100
AcDbEntity
  8
SANINDUSA
100
AcDbCircle
 10
9120.639606128648
 20
2114.766009313016
 30
0.0
 40
0.0010000000000003
100
AcDbArc
 50
0.5340991175495649
 51
45.08930403414588
  0
ARC
  5
288E
330
1F
100
AcDbEntity
  8
SANINDUSA
100
AcDbCircle
 10
9120.6396127141
 20
2114.765302875414
 30
0.0
 40
0.001
100
AcDbArc
 50
269.9477633655066
 51
0.5340991175495649
  0
LINE
  5
288F
330
1F
100
AcDbEntity
  8
SANINDUSA
100
AcDbLine
 10
9120.640612670653
 20
2114.765312197067
 30
0.0
 11
9120.640606085201
 21
2114.76601863467
 31
0.0
  0
LINE
  5
2890
330
1F
100
AcDbEntity
  8
SANINDUSA
100
AcDbLine
 10
9120.64296169712
 20
2114.764302875414
 30
0.0
 11
9120.64296169712
 21
2114.788229370649
 31
0.0
  0
LINE
  5
2891
330
1F
100
AcDbEntity
  8
SANINDUSA
100
AcDbLine
 10
9120.64296169712
 20
2114.764302875414
 30
0.0
 11
9120.641962816208
 21
2114.764302875414
 31
0.0
  0
LINE
  5
2892
330
1F
100
AcDbEntity
  8
SANINDUSA
100
AcDbLine
 10
9120.641961697121
 20
2114.788229370649
 30
0.0
 11
9120.64296169712
 21
2114.788229370649
 31
0.0
  0
ARC
  5
2893
330
1F
100
AcDbEntity
  8
SANINDUSA
100
AcDbCircle
 10
9120.641962816208
 20
2114.765302875414
 30
0.0
 40
0.0009999999999999
100
AcDbArc
 50
180.5340991175495
 51
270.0
  0
ARC
  5
2894
330
1F
100
AcDbEntity
  8
SANINDUSA
100
AcDbCircle
 10
9120.641961697121
 20
2114.787229370649
 30
0.0
 40
0.0009999999999999
100
AcDbArc
 50
90.0
 51
180.0
  0
LINE
  5
2895
330
1F
100
AcDbEntity
  8
SANINDUSA
100
AcDbLine
 10
9120.640962859654
 20
2114.765293553761
 30
0.0
 11
9120.640956069994
 21
2114.766021897248
 31
0.0
  0
LINE
  5
2896
330
1F
100
AcDbEntity
  8
SANINDUSA
100
AcDbLine
 10
9120.64096169712
 20
2114.786243584211
 30
0.0
 11
9120.64096169712
 21
2114.787229370649
 31
0.0
  0
ARC
  5
2897
330
1F
100
AcDbEntity
  8
SANINDUSA
100
AcDbCircle
 10
9120.639606128648
 20
2114.766009313016
 30
0.0
 40
0.00135
100
AcDbArc
 50
0.5340991175495649
 51
45.08930403414588
  0
ARC
  5
2898
330
1F
100
AcDbEntity
  8
SANINDUSA
100
AcDbCircle
 10
9120.63961169712
 20
2114.786243584211
 30
0.0
 40
0.0013499999999998
100
AcDbArc
 50
315.0
 51
0.0
  0
LINE
  5
2899
330
1F
100
AcDbEntity
  8
SANINDUSA
100
AcDbLine
 10
9120.640559233764
 20
2114.766965393888
 30
0.0
 11
9120.639652794656
 21
2114.767869011752
 31
0.0
  0
LINE
  5
289A
330
1F
100
AcDbEntity
  8
SANINDUSA
100
AcDbLine
 10
9120.639652077711
 20
2114.784374776494
 30
0.0
 11
9120.640566291273
 21
2114.785288990057
 31
0.0
  0
ARC
  5
289B
330
1F
100
AcDbEntity
  8
SANINDUSA
100
AcDbCircle
 10
9120.640111697118
 20
2114.768329346987
 30
0.0
 40
0.0006500000000003
100
AcDbArc
 50
180.0
 51
225.0893040341459
  0
ARC
  5
289C
330
1F
100
AcDbEntity
  8
SANINDUSA
100
AcDbCircle
 10
9120.640111697118
 20
2114.783915157087
 30
0.0
 40
0.0006500000000003
100
AcDbArc
 50
135.0
 51
180.0
  0
LINE
  5
289D
330
1F
100
AcDbEntity
  8
SANINDUSA
100
AcDbLine
 10
9120.63946169712
 20
2114.768329346987
 30
0.0
 11
9120.63946169712
 21
2114.783915157087
 31
0.0
  0
ARC
  5
289E
330
1F
100
AcDbEntity
  8
SANINDUSA
100
AcDbCircle
 10
9120.596603430676
 20
2114.786929370648
 30
0.0000000001555553
 40
0.0002999999999992
100
AcDbArc
 50
5.739170491871309
 51
90.0
  0
ARC
  5
289F
330
1F
100
AcDbEntity
  8
SANINDUSA
100
AcDbCircle
 10
9120.596603430676
 20
2114.786929370648
 30
0.0000000001555553
 40
0.0002999999999993
100
AcDbArc
 50
5.739170491871309
 51
90.0
  0
ARC
  5
28A0
330
1F
100
AcDbEntity
  8
SANINDUSA
100
AcDbCircle
 10
9120.599588392986
 20
2114.787229370649
 30
0.0000000001555553
 40
0.0027000000000004
100
AcDbArc
 50
185.7391704918713
 51
270.0
  0
LINE
  5
28A1
330
1F
100
AcDbEntity
  8
SANINDUSA
100
AcDbLine
 10
9120.599588392986
 20
2114.784529370649
 30
0.0000000001555553
 11
9120.630311697119
 21
2114.784529370649
 31
0.0000000001555553
  0
ARC
  5
28A2
330
1F
100
AcDbEntity
  8
SANINDUSA
100
AcDbCircle
 10
9120.630311697119
 20
2114.784229370648
 30
0.0000000001555553
 40
0.0003000000000006
100
AcDbArc
 50
0.0
 51
90.0
  0
LINE
  5
28A3
330
1F
100
AcDbEntity
  8
SANINDUSA
100
AcDbLine
 10
9120.630611697119
 20
2114.784229370648
 30
0.0000000001555553
 11
9120.630611697119
 21
2114.774829370649
 31
0.0000000001555553
  0
ARC
  5
28A4
330
1F
100
AcDbEntity
  8
SANINDUSA
100
AcDbCircle
 10
9120.630311697119
 20
2114.774829370649
 30
0.0000000001555553
 40
0.0003000000000002
100
AcDbArc
 50
270.0
 51
0.0
  0
LINE
  5
28A5
330
1F
100
AcDbEntity
  8
SANINDUSA
100
AcDbLine
 10
9120.630311697119
 20
2114.774529370649
 30
0.0000000001555553
 11
9120.597255236582
 21
2114.774529370649
 31
0.0000000001555553
  0
ARC
  5
28A6
330
1F
100
AcDbEntity
  8
SANINDUSA
100
AcDbCircle
 10
9120.597255236582
 20
2114.775029370649
 30
0.0000000001555553
 40
0.0005000000000009
100
AcDbArc
 50
224.9999999631525
 51
270.0
  0
LINE
  5
28A7
330
1F
100
AcDbEntity
  8
SANINDUSA
100
AcDbLine
 10
9120.596901683191
 20
2114.774675817258
 30
0.0000000001555553
 11
9120.594135310337
 21
2114.777442190119
 31
0.0000000001555553
  0
ARC
  5
28A8
330
1F
100
AcDbEntity
  8
SANINDUSA
100
AcDbCircle
 10
9120.594488863726
 20
2114.777795743508
 30
0.0000000001555553
 40
0.0004999999977743
100
AcDbArc
 50
135.0000004421697
 51
224.9999998710338
  0
LINE
  5
28A9
330
1F
100
AcDbEntity
  8
SANINDUSA
100
AcDbLine
 10
9120.594135310335
 20
2114.778149296894
 30
0.0000000001555553
 11
9120.595549523891
 21
2114.779563510476
 31
0.0000000001555553
  0
ARC
  5
28AA
330
1F
100
AcDbEntity
  8
SANINDUSA
100
AcDbCircle
 10
9120.594488863719
 20
2114.780624170649
 30
0.0000000001555553
 40
0.0014999999999996
100
AcDbArc
 50
314.9999999815762
 51
45.0
  0
LINE
  5
28AB
330
1F
100
AcDbEntity
  8
SANINDUSA
100
AcDbLine
 10
9120.595549523891
 20
2114.78168483082
 30
0.0000000001555553
 11
9120.594562890676
 21
2114.782671464023
 31
0.0000000001555553
  0
ARC
  5
28AC
330
1F
100
AcDbEntity
  8
SANINDUSA
100
AcDbCircle
 10
9120.594209337285
 20
2114.782317910632
 30
0.0000000001555553
 40
0.0005000000000001
100
AcDbArc
 50
45.0
 51
225.0
  0
LINE
  5
28AD
330
1F
100
AcDbEntity
  8
SANINDUSA
100
AcDbLine
 10
9120.593855783894
 20
2114.781964357241
 30
0.0000000001555553
 11
9120.59484241711
 21
2114.780977724027
 31
0.0000000001555553
  0
ARC
  5
28AE
330
1F
100
AcDbEntity
  8
SANINDUSA
100
AcDbCircle
 10
9120.594488863719
 20
2114.780624170636
 30
0.0000000001555553
 40
0.0004999999999988
100
AcDbArc
 50
314.9999999815762
 51
45.0
  0
LINE
  5
28AF
330
1F
100
AcDbEntity
  8
SANINDUSA
100
AcDbLine
 10
9120.59484241711
 20
2114.780270617245
 30
0.0000000001555553
 11
9120.594206021007
 21
2114.779634221142
 31
0.0000000001555553
  0
ARC
  5
28B0
330
1F
100
AcDbEntity
  8
SANINDUSA
100
AcDbCircle
 10
9120.593852467616
 20
2114.779987774533
 30
0.0000000001555553
 40
0.0005000000000239
100
AcDbArc
 50
225.0
 51
314.9999999815762
  0
LINE
  5
28B1
330
1F
100
AcDbEntity
  8
SANINDUSA
100
AcDbLine
 10
9120.593498914224
 20
2114.779634221142
 30
0.0000000001555553
 11
9120.59321607151
 21
2114.779917063857
 31
0.0000000001555553
  0
ARC
  5
28B2
330
1F
100
AcDbEntity
  8
SANINDUSA
100
AcDbCircle
 10
9120.593074650155
 20
2114.779775642501
 30
0.0000000001555553
 40
0.0002000000000003
100
AcDbArc
 50
45.0
 51
135.0
  0
LINE
  5
28B3
330
1F
100
AcDbEntity
  8
SANINDUSA
100
AcDbLine
 10
9120.592933228797
 20
2114.779917063857
 30
0.0000000001555553
 11
9120.59250896473
 21
2114.779492799788
 31
0.0000000001555553
  0
ARC
  5
28B4
330
1F
100
AcDbEntity
  8
SANINDUSA
100
AcDbCircle
 10
9120.592155411339
 20
2114.779846353179
 30
0.0000000001555553
 40
0.0005000000000001
100
AcDbArc
 50
225.0
 51
315.0
  0
LINE
  5
28B5
330
1F
100
AcDbEntity
  8
SANINDUSA
100
AcDbLine
 10
9120.591801857948
 20
2114.779492799788
 30
0.0000000001555553
 11
9120.588690588112
 21
2114.782604069626
 31
0.0000000001555553
  0
ARC
  5
28B6
330
1F
100
AcDbEntity
  8
SANINDUSA
100
AcDbCircle
 10
9120.589044141501
 20
2114.782957623016
 30
0.0000000001555553
 40
0.0004999999999994
100
AcDbArc
 50
135.0
 51
225.0
  0
LINE
  5
28B7
330
1F
100
AcDbEntity
  8
SANINDUSA
100
AcDbLine
 10
9120.588690588112
 20
2114.783311176407
 30
0.0000000001555553
 11
9120.589114852178
 21
2114.783735440474
 31
0.0000000001555553
  0
ARC
  5
28B8
330
1F
100
AcDbEntity
  8
SANINDUSA
100
AcDbCircle
 10
9120.588973430825
 20
2114.78387686183
 30
0.0000000001555553
 40
0.0002000000000003
100
AcDbArc
 50
315.0
 51
45.00000012896618
  0
LINE
  5
28B9
330
1F
100
AcDbEntity
  8
SANINDUSA
100
AcDbLine
 10
9120.589114852178
 20
2114.784018283186
 30
0.0000000001555553
 11
9120.588832009467
 21
2114.784301125899
 31
0.0000000001555553
  0
ARC
  5
28BA
330
1F
100
AcDbEntity
  8
SANINDUSA
100
AcDbCircle
 10
9120.589185562858
 20
2114.78465467929
 30
0.0000000001555553
 40
0.0005000000000001
100
AcDbArc
 50
135.0000001842374
 51
225.0
  0
LINE
  5
28BB
330
1F
100
AcDbEntity
  8
SANINDUSA
100
AcDbLine
 10
9120.588832009465
 20
2114.785008232679
 30
0.0000000001555553
 11
9120.589468405567
 21
2114.785644628785
 31
0.0000000001555553
  0
ARC
  5
28BC
330
1F
100
AcDbEntity
  8
SANINDUSA
100
AcDbCircle
 10
9120.589821958956
 20
2114.785291075394
 30
0.0000000001555553
 40
0.0004999999999994
100
AcDbArc
 50
45.0
 51
135.0
  0
LINE
  5
28BD
330
1F
100
AcDbEntity
  8
SANINDUSA
100
AcDbLine
 10
9120.590175512345
 20
2114.785644628785
 30
0.0000000001555553
 11
9120.591161722007
 21
2114.784658419125
 31
0.0000000001555553
  0
ARC
  5
28BE
330
1F
100
AcDbEntity
  8
SANINDUSA
100
AcDbCircle
 10
9120.591515275398
 20
2114.785011972515
 30
0.0000000001555553
 40
0.0004999999999994
100
AcDbArc
 50
225.0
 51
45.0
  0
LINE
  5
28BF
330
1F
100
AcDbEntity
  8
SANINDUSA
100
AcDbLine
 10
9120.591868828787
 20
2114.785365525906
 30
0.0000000001555553
 11
9120.590858537436
 21
2114.786375817258
 31
0.0000000001555553
  0
ARC
  5
28C0
330
1F
100
AcDbEntity
  8
SANINDUSA
100
AcDbCircle
 10
9120.591212090827
 20
2114.786729370649
 30
0.0000000001555553
 40
0.0004999999999994
100
AcDbArc
 50
90.0
 51
225.0
  0
LINE
  5
28C1
330
1F
100
AcDbEntity
  8
SANINDUSA
100
AcDbLine
 10
9120.591212090827
 20
2114.787229370649
 30
0.0000000001555553
 11
9120.596603430676
 21
2114.787229370649
 31
0.0000000001555553
  0
ARC
  5
28C2
330
1F
100
AcDbEntity
  8
SANINDUSA
100
AcDbCircle
 10
9120.597462343363
 20
2114.775529370649
 30
0.0000000001555553
 40
0.0019999999999982
100
AcDbArc
 50
224.9999999631525
 51
270.0
  0
LINE
  5
28C3
330
1F
100
AcDbEntity
  8
SANINDUSA
100
AcDbLine
 10
9120.596048129801
 20
2114.774115157088
 30
0.0000000001555553
 11
9120.587700638616
 21
2114.782462648272
 31
0.0000000001555553
  0
ARC
  5
28C4
330
1F
100
AcDbEntity
  8
SANINDUSA
100
AcDbCircle
 10
9120.589114852178
 20
2114.783876861833
 30
0.0000000001555553
 40
0.0020000000000003
100
AcDbArc
 50
134.9999995946777
 51
224.9999999631525
  0
LINE
  5
28C5
330
1F
100
AcDbEntity
  8
SANINDUSA
100
AcDbLine
 10
9120.587700638628
 20
2114.785291075405
 30
0.0000000001555553
 11
9120.59005314745
 21
2114.787643584215
 31
0.0000000001555553
  0
ARC
  5
28C6
330
1F
100
AcDbEntity
  8
SANINDUSA
100
AcDbCircle
 10
9120.591467361009
 20
2114.786229370649
 30
0.0000000001555553
 40
0.002000000000001
100
AcDbArc
 50
90.0
 51
134.9999998341863
  0
LINE
  5
28C7
330
1F
100
AcDbEntity
  8
SANINDUSA
100
AcDbLine
 10
9120.591467361009
 20
2114.788229370649
 30
0.0000000001555553
 11
9120.596888392986
 21
2114.788229370649
 31
0.0000000001555553
  0
ARC
  5
28C8
330
1F
100
AcDbEntity
  8
SANINDUSA
100
AcDbCircle
 10
9120.596888392986
 20
2114.787229370649
 30
0.0000000001555553
 40
0.001
100
AcDbArc
 50
0.0
 51
90.0
  0
ARC
  5
28C9
330
1F
100
AcDbEntity
  8
SANINDUSA
100
AcDbCircle
 10
9120.599588392989
 20
2114.787229370649
 30
0.0000000001555553
 40
0.0016999999999989
100
AcDbArc
 50
180.0
 51
270.0
  0
LINE
  5
28CA
330
1F
100
AcDbEntity
  8
SANINDUSA
100
AcDbLine
 10
9120.599588392989
 20
2114.785529370649
 30
0.0000000001555553
 11
9120.630311697119
 21
2114.785529370649
 31
0.0000000001555553
  0
ARC
  5
28CB
330
1F
100
AcDbEntity
  8
SANINDUSA
100
AcDbCircle
 10
9120.630311697119
 20
2114.784229370648
 30
0.0000000001555553
 40
0.0013000000000002
100
AcDbArc
 50
0.0
 51
90.0
  0
LINE
  5
28CC
330
1F
100
AcDbEntity
  8
SANINDUSA
100
AcDbLine
 10
9120.631611697119
 20
2114.784229370648
 30
0.0000000001555553
 11
9120.631611697119
 21
2114.774829370649
 31
0.0000000001555553
  0
ARC
  5
28CD
330
1F
100
AcDbEntity
  8
SANINDUSA
100
AcDbCircle
 10
9120.630311697119
 20
2114.774829370649
 30
0.0000000001555553
 40
0.0013000000000002
100
AcDbArc
 50
270.0
 51
0.0
  0
LINE
  5
28CE
330
1F
100
AcDbEntity
  8
SANINDUSA
100
AcDbLine
 10
9120.630311697119
 20
2114.773529370649
 30
0.0000000001555553
 11
9120.597462343363
 21
2114.773529370649
 31
0.0000000001555553
  0
INSERT
  5
28CF
330
1F
100
AcDbEntity
  8
SANINDUSA
100
AcDbBlockReference
  2
guarnizione
 10
9120.57900254158
 20
2114.779529374459
 30
0.0000000001555553
 41
-0.001
 42
0.001
 43
0.001
  0
LINE
  5
28D0
330
1F
100
AcDbEntity
  8
SANINDUSA
100
AcDbLine
 10
9120.589081634781
 20
2114.784833593926
 30
0.0000000001555553
 11
9120.589788741561
 21
2114.785540700707
 31
0.0000000001555553
  0
LINE
  5
28D1
330
1F
100
AcDbEntity
  8
SANINDUSA
100
AcDbLine
 10
9120.589788741561
 20
2114.785540700707
 30
0.0000000001555553
 11
9120.59473848903
 21
2114.780590953239
 31
0.0000000001555553
  0
LINE
  5
28D2
330
1F
100
AcDbEntity
  8
SANINDUSA
100
AcDbLine
 10
9120.589788741561
 20
2114.784126487144
 30
0.0000000001555553
 11
9120.589081634781
 21
2114.784833593926
 31
0.0000000001555553
  0
LINE
  5
28D3
330
1F
100
AcDbEntity
  8
SANINDUSA
100
AcDbLine
 10
9120.59473848903
 20
2114.780590953239
 30
0.0000000001555553
 11
9120.594031382248
 21
2114.779883846457
 31
0.0000000001555553
  0
LINE
  5
28D4
330
1F
100
AcDbEntity
  8
SANINDUSA
100
AcDbLine
 10
9120.58872808139
 20
2114.783065826973
 30
0.0000000001555553
 11
9120.589788741561
 21
2114.784126487144
 31
0.0000000001555553
  0
LINE
  5
28D5
330
1F
100
AcDbEntity
  8
SANINDUSA
100
AcDbLine
 10
9120.594031382248
 20
2114.779883846457
 30
0.0000000001555553
 11
9120.593324275466
 21
2114.780590953239
 31
0.0000000001555553
  0
LINE
  5
28D6
330
1F
100
AcDbEntity
  8
SANINDUSA
100
AcDbLine
 10
9120.592263615296
 20
2114.779530293067
 30
0.0000000001555553
 11
9120.58872808139
 21
2114.783065826973
 31
0.0000000001555553
  0
LINE
  5
28D7
330
1F
100
AcDbEntity
  8
SANINDUSA
100
AcDbLine
 10
9120.593324275466
 20
2114.780590953239
 30
0.0000000001555553
 11
9120.592263615296
 21
2114.779530293067
 31
0.0000000001555553
  0
HATCH
  5
28D8
330
1F
100
AcDbEntity
  8
SANINDUSA
100
AcDbHatch
 10
0.0
 20
0.0
 30
0.0000000001555553
210
0.0
220
0.0
230
1.0
  2
ANSI31
 70
     0
 71
     0
 91
        1
 92
        1
 93
        8
 72
     1
 10
9120.589081634781
 20
2114.784833593926
 11
9120.589788741561
 21
2114.785540700707
 72
     1
 10
9120.589788741561
 20
2114.785540700707
 11
9120.59473848903
 21
2114.780590953239
 72
     1
 10
9120.59473848903
 20
2114.780590953239
 11
9120.594031382248
 21
2114.779883846457
 72
     1
 10
9120.594031382248
 20
2114.779883846457
 11
9120.593324275466
 21
2114.780590953239
 72
     1
 10
9120.593324275466
 20
2114.780590953239
 11
9120.592263615296
 21
2114.779530293067
 72
     1
 10
9120.592263615296
 20
2114.779530293067
 11
9120.58872808139
 21
2114.783065826973
 72
     1
 10
9120.58872808139
 20
2114.783065826973
 11
9120.589788741561
 21
2114.784126487144
 72
     1
 10
9120.589788741561
 20
2114.784126487144
 11
9120.589081634781
 21
2114.784833593926
 97
        0
 75
     0
 76
     1
 52
-0.0000000000000127
 41
0.00025
 77
     0
 78
     1
 53
180.0
 43
9120.594727158971
 44
2114.785529370649
 45
0.0000000000000002
 46
0.00079375
 79
     0
 98
        1
 10
9120.594727158971
 20
2114.785529370649
  0
LINE
  5
28D9
330
1F
100
AcDbEntity
  8
SANINDUSA
100
AcDbLine
 10
9120.57900254158
 20
2114.782529374458
 30
0.0000000001557791
 11
9119.779002541578
 21
2114.782529374458
 31
0.0000000001557791
  0
LINE
  5
28DA
330
1F
100
AcDbEntity
  8
SANINDUSA
100
AcDbLine
 10
9120.57900254158
 20
2114.776529374458
 30
0.0000000001553315
 11
9119.779002541578
 21
2114.776529374458
 31
0.0000000001553315
  0
LINE
  5
28DB
330
1F
100
AcDbEntity
  8
SANINDUSA
100
AcDbLine
 10
9119.087338520881
 20
2114.782529378268
 30
0.0000000001479285
 11
9119.776338520878
 21
2114.782529378268
 31
0.0000000001479285
  0
LINE
  5
28DC
330
1F
100
AcDbEntity
  8
SANINDUSA
100
AcDbLine
 10
9119.087338520881
 20
2114.776529378268
 30
0.0000000001479285
 11
9119.776338520878
 21
2114.776529378268
 31
0.0000000001479285
  0
LINE
  5
28DD
330
1F
100
AcDbEntity
  8
SANINDUSA
100
AcDbLine
 10
9119.779002541578
 20
2114.776529378268
 30
0.0000000001479285
 11
9119.779002541578
 21
2114.782529378268
 31
0.0000000001479285
  0
ARC
  5
29DB
330
1F
100
AcDbEntity
  8
SANINDUSA
100
AcDbCircle
 10
9121.560869812212
 20
2115.614384428625
 30
-0.0000000017937957
 40
0.001
100
AcDbArc
 50
90.0
 51
180.0
  0
LINE
  5
29DC
330
1F
100
AcDbEntity
  8
SANINDUSA
100
AcDbLine
 10
9121.635869812211
 20
2115.615384428625
 30
-0.0000000017937957
 11
9121.694869812211
 21
2115.615384428625
 31
-0.0000000017937957
  0
ARC
  5
29DD
330
1F
100
AcDbEntity
  8
SANINDUSA
100
AcDbCircle
 10
9121.694869812211
 20
2115.614384428625
 30
-0.0000000017937957
 40
0.001
100
AcDbArc
 50
0.0
 51
90.0
  0
ARC
  5
29DE
330
1F
100
AcDbEntity
  8
SANINDUSA
100
AcDbCircle
 10
9121.634869812211
 20
2115.620884428625
 30
-0.0000000017937957
 40
0.001
100
AcDbArc
 50
0.0
 51
90.0
  0
LINE
  5
29DF
330
1F
100
AcDbEntity
  8
SANINDUSA
100
AcDbLine
 10
9121.635869812211
 20
2115.620884428625
 30
-0.0000000017937957
 11
9121.635869812211
 21
2115.615384428625
 31
-0.0000000017937957
  0
LINE
  5
29E0
330
1F
100
AcDbEntity
  8
SANINDUSA
100
AcDbLine
 10
9121.635369812212
 20
2115.599884428625
 30
-0.0000000017937957
 11
9121.635369812212
 21
2115.595884428625
 31
-0.0000000017937957
  0
LINE
  5
29E1
330
1F
100
AcDbEntity
  8
SANINDUSA
100
AcDbLine
 10
9121.635869812211
 20
2115.615384428625
 30
-0.0000000017937957
 11
9121.635869812211
 21
2115.599884428625
 31
-0.0000000017937957
  0
ARC
  5
29E2
330
1F
100
AcDbEntity
  8
SANINDUSA
100
AcDbCircle
 10
9121.620869812211
 20
2115.620884428625
 30
-0.0000000017937957
 40
0.001
100
AcDbArc
 50
90.0
 51
180.0
  0
LINE
  5
29E3
330
1F
100
AcDbEntity
  8
SANINDUSA
100
AcDbLine
 10
9121.620869812211
 20
2115.621884428625
 30
-0.0000000017937957
 11
9121.634869812211
 21
2115.621884428625
 31
-0.0000000017937957
  0
LINE
  5
29E4
330
1F
100
AcDbEntity
  8
SANINDUSA
100
AcDbLine
 10
9121.620369812211
 20
2115.599884428625
 30
-0.0000000017937957
 11
9121.620369812211
 21
2115.595884428625
 31
-0.0000000017937957
  0
LINE
  5
29E5
330
1F
100
AcDbEntity
  8
SANINDUSA
100
AcDbLine
 10
9121.619869812212
 20
2115.595884428625
 30
-0.0000000017937957
 11
9121.618980923322
 21
2115.595884428625
 31
-0.0000000017937957
  0
LINE
  5
29E6
330
1F
100
AcDbEntity
  8
SANINDUSA
100
AcDbLine
 10
9121.6367587011
 20
2115.599884428625
 30
-0.0000000017937957
 11
9121.619869812212
 21
2115.599884428625
 31
-0.0000000017937957
  0
LINE
  5
29E7
330
1F
100
AcDbEntity
  8
SANINDUSA
100
AcDbLine
 10
9121.619869812212
 20
2115.595884428625
 30
-0.0000000017937957
 11
9121.635869812211
 21
2115.595884428625
 31
-0.0000000017937957
  0
LINE
  5
29E8
330
1F
100
AcDbEntity
  8
SANINDUSA
100
AcDbLine
 10
9121.619869812212
 20
2115.599884428625
 30
-0.0000000017937957
 11
9121.619869812212
 21
2115.620884428625
 31
-0.0000000017937957
  0
LINE
  5
29E9
330
1F
100
AcDbEntity
  8
SANINDUSA
100
AcDbLine
 10
9121.618980923322
 20
2115.595884428625
 30
-0.0000000017937957
 11
9121.618980923322
 21
2115.615384428625
 31
-0.0000000017937957
  0
LINE
  5
29EA
330
1F
100
AcDbEntity
  8
SANINDUSA
100
AcDbLine
 10
9121.618980923322
 20
2115.615384428625
 30
-0.0000000017937957
 11
9121.560869812212
 21
2115.615384428625
 31
-0.0000000017937957
  0
ARC
  5
29EB
330
1F
100
AcDbEntity
  8
SANINDUSA
100
AcDbCircle
 10
9121.560869812212
 20
2115.581384428625
 30
-0.0000000017937957
 40
0.001
100
AcDbArc
 50
180.0
 51
270.0
  0
ARC
  5
29EC
330
1F
100
AcDbEntity
  8
SANINDUSA
100
AcDbCircle
 10
9121.634869812211
 20
2115.574884428625
 30
-0.0000000017937957
 40
0.001
100
AcDbArc
 50
270.0
 51
0.0
  0
ARC
  5
29ED
330
1F
100
AcDbEntity
  8
SANINDUSA
100
AcDbCircle
 10
9121.620869812211
 20
2115.574884428625
 30
-0.0000000017937957
 40
0.001
100
AcDbArc
 50
180.0
 51
270.0
  0
LINE
  5
29EE
330
1F
100
AcDbEntity
  8
SANINDUSA
100
AcDbLine
 10
9121.634869812211
 20
2115.573884428625
 30
-0.0000000017937957
 11
9121.620869812211
 21
2115.573884428625
 31
-0.0000000017937957
  0
LINE
  5
29EF
330
1F
100
AcDbEntity
  8
SANINDUSA
100
AcDbLine
 10
9121.694869812211
 20
2115.580384428625
 30
-0.0000000017937957
 11
9121.6367587011
 21
2115.580384428625
 31
-0.0000000017937957
  0
ARC
  5
29F0
330
1F
100
AcDbEntity
  8
SANINDUSA
100
AcDbCircle
 10
9121.694869812211
 20
2115.581384428625
 30
-0.0000000017937957
 40
0.001
100
AcDbArc
 50
270.0
 51
0.0
  0
LINE
  5
29F1
330
1F
100
AcDbEntity
  8
SANINDUSA
100
AcDbLine
 10
9121.560869812212
 20
2115.580384428625
 30
-0.0000000017937957
 11
9121.619869812212
 21
2115.580384428625
 31
-0.0000000017937957
  0
LINE
  5
29F2
330
1F
100
AcDbEntity
  8
SANINDUSA
100
AcDbLine
 10
9121.635869812211
 20
2115.595884428625
 30
-0.0000000017937957
 11
9121.635869812211
 21
2115.574884428625
 31
-0.0000000017937957
  0
LINE
  5
29F3
330
1F
100
AcDbEntity
  8
SANINDUSA
100
AcDbLine
 10
9121.619869812212
 20
2115.574884428625
 30
-0.0000000017937957
 11
9121.619869812212
 21
2115.595884428625
 31
-0.0000000017937957
  0
LINE
  5
29F4
330
1F
100
AcDbEntity
  8
SANINDUSA
100
AcDbLine
 10
9121.695869812212
 20
2115.614384428625
 30
-0.0000000017937957
 11
9121.695869812212
 21
2115.581384428625
 31
-0.0000000017937957
  0
LINE
  5
29F5
330
1F
100
AcDbEntity
  8
SANINDUSA
100
AcDbLine
 10
9121.6367587011
 20
2115.580384428625
 30
-0.0000000017937957
 11
9121.6367587011
 21
2115.599884428625
 31
-0.0000000017937957
  0
LINE
  5
29F6
330
1F
100
AcDbEntity
  8
SANINDUSA
100
AcDbLine
 10
9121.559869812212
 20
2115.614384428625
 30
-0.0000000017937957
 11
9121.559869812212
 21
2115.581384428625
 31
-0.0000000017937957
  0
ARC
  5
29F8
330
1F
100
AcDbEntity
  8
SANINDUSA
100
AcDbCircle
 10
9121.560869812212
 20
2114.354384428635
 30
-0.0000000017937957
 40
0.001
100
AcDbArc
 50
90.0
 51
180.0
  0
LINE
  5
29F9
330
1F
100
AcDbEntity
  8
SANINDUSA
100
AcDbLine
 10
9121.559869812212
 20
2114.354384428635
 30
-0.0000000017937957
 11
9121.559869812212
 21
2114.321384428635
 31
-0.0000000017937957
  0
ARC
  5
29FA
330
1F
100
AcDbEntity
  8
SANINDUSA
100
AcDbCircle
 10
9121.560869812212
 20
2114.321384428635
 30
-0.0000000017937957
 40
0.001
100
AcDbArc
 50
180.0
 51
270.0
  0
ARC
  5
29FB
330
1F
100
AcDbEntity
  8
SANINDUSA
100
AcDbCircle
 10
9121.634869812211
 20
2114.360884428634
 30
-0.0000000017937957
 40
0.001
100
AcDbArc
 50
0.0
 51
90.0
  0
ARC
  5
29FC
330
1F
100
AcDbEntity
  8
SANINDUSA
100
AcDbCircle
 10
9121.620869812211
 20
2114.360884428634
 30
-0.0000000017937957
 40
0.001
100
AcDbArc
 50
90.0
 51
180.0
  0
LINE
  5
29FD
330
1F
100
AcDbEntity
  8
SANINDUSA
100
AcDbLine
 10
9121.635869812211
 20
2114.355384428635
 30
-0.0000000017937957
 11
9121.694869812211
 21
2114.355384428635
 31
-0.0000000017937957
  0
LINE
  5
29FE
330
1F
100
AcDbEntity
  8
SANINDUSA
100
AcDbLine
 10
9121.694869812211
 20
2114.320384428634
 30
-0.0000000017937957
 11
9121.6367587011
 21
2114.320384428634
 31
-0.0000000017937957
  0
ARC
  5
29FF
330
1F
100
AcDbEntity
  8
SANINDUSA
100
AcDbCircle
 10
9121.694869812211
 20
2114.354384428635
 30
-0.0000000017937957
 40
0.001
100
AcDbArc
 50
0.0
 51
90.0
  0
ARC
  5
2A00
330
1F
100
AcDbEntity
  8
SANINDUSA
100
AcDbCircle
 10
9121.694869812211
 20
2114.321384428635
 30
-0.0000000017937957
 40
0.001
100
AcDbArc
 50
270.0
 51
0.0
  0
LINE
  5
2A01
330
1F
100
AcDbEntity
  8
SANINDUSA
100
AcDbLine
 10
9121.695869812212
 20
2114.354384428635
 30
-0.0000000017937957
 11
9121.695869812212
 21
2114.321384428635
 31
-0.0000000017937957
  0
LINE
  5
2A02
330
1F
100
AcDbEntity
  8
SANINDUSA
100
AcDbLine
 10
9121.635869812211
 20
2114.360884428634
 30
-0.0000000017937957
 11
9121.635869812211
 21
2114.355384428635
 31
-0.0000000017937957
  0
LINE
  5
2A03
330
1F
100
AcDbEntity
  8
SANINDUSA
100
AcDbLine
 10
9121.635869812211
 20
2114.335884428635
 30
-0.0000000017937957
 11
9121.635869812211
 21
2114.314884428635
 31
-0.0000000017937957
  0
LINE
  5
2A04
330
1F
100
AcDbEntity
  8
SANINDUSA
100
AcDbLine
 10
9121.6367587011
 20
2114.320384428634
 30
-0.0000000017937957
 11
9121.6367587011
 21
2114.339884428635
 31
-0.0000000017937957
  0
ARC
  5
2A05
330
1F
100
AcDbEntity
  8
SANINDUSA
100
AcDbCircle
 10
9121.634869812211
 20
2114.314884428635
 30
-0.0000000017937957
 40
0.001
100
AcDbArc
 50
270.0
 51
0.0
  0
LINE
  5
2A06
330
1F
100
AcDbEntity
  8
SANINDUSA
100
AcDbLine
 10
9121.635369812212
 20
2114.339884428635
 30
-0.0000000017937957
 11
9121.635369812212
 21
2114.335884428635
 31
-0.0000000017937957
  0
LINE
  5
2A07
330
1F
100
AcDbEntity
  8
SANINDUSA
100
AcDbLine
 10
9121.635869812211
 20
2114.355384428635
 30
-0.0000000017937957
 11
9121.635869812211
 21
2114.339884428635
 31
-0.0000000017937957
  0
LINE
  5
2A08
330
1F
100
AcDbEntity
  8
SANINDUSA
100
AcDbLine
 10
9121.620869812211
 20
2114.361884428635
 30
-0.0000000017937957
 11
9121.634869812211
 21
2114.361884428635
 31
-0.0000000017937957
  0
LINE
  5
2A09
330
1F
100
AcDbEntity
  8
SANINDUSA
100
AcDbLine
 10
9121.619869812212
 20
2114.314884428635
 30
-0.0000000017937957
 11
9121.619869812212
 21
2114.335884428635
 31
-0.0000000017937957
  0
ARC
  5
2A0A
330
1F
100
AcDbEntity
  8
SANINDUSA
100
AcDbCircle
 10
9121.620869812211
 20
2114.314884428635
 30
-0.0000000017937957
 40
0.001
100
AcDbArc
 50
180.0
 51
270.0
  0
LINE
  5
2A0B
330
1F
100
AcDbEntity
  8
SANINDUSA
100
AcDbLine
 10
9121.620369812211
 20
2114.339884428635
 30
-0.0000000017937957
 11
9121.620369812211
 21
2114.335884428635
 31
-0.0000000017937957
  0
LINE
  5
2A0C
330
1F
100
AcDbEntity
  8
SANINDUSA
100
AcDbLine
 10
9121.619869812212
 20
2114.335884428635
 30
-0.0000000017937957
 11
9121.618980923322
 21
2114.335884428635
 31
-0.0000000017937957
  0
LINE
  5
2A0D
330
1F
100
AcDbEntity
  8
SANINDUSA
100
AcDbLine
 10
9121.634869812211
 20
2114.313884428634
 30
-0.0000000017937957
 11
9121.620869812211
 21
2114.313884428634
 31
-0.0000000017937957
  0
LINE
  5
2A0E
330
1F
100
AcDbEntity
  8
SANINDUSA
100
AcDbLine
 10
9121.6367587011
 20
2114.339884428635
 30
-0.0000000017937957
 11
9121.619869812212
 21
2114.339884428635
 31
-0.0000000017937957
  0
LINE
  5
2A0F
330
1F
100
AcDbEntity
  8
SANINDUSA
100
AcDbLine
 10
9121.619869812212
 20
2114.335884428635
 30
-0.0000000017937957
 11
9121.635869812211
 21
2114.335884428635
 31
-0.0000000017937957
  0
LINE
  5
2A10
330
1F
100
AcDbEntity
  8
SANINDUSA
100
AcDbLine
 10
9121.619869812212
 20
2114.339884428635
 30
-0.0000000017937957
 11
9121.619869812212
 21
2114.360884428634
 31
-0.0000000017937957
  0
LINE
  5
2A11
330
1F
100
AcDbEntity
  8
SANINDUSA
100
AcDbLine
 10
9121.618980923322
 20
2114.335884428635
 30
-0.0000000017937957
 11
9121.618980923322
 21
2114.355384428635
 31
-0.0000000017937957
  0
LINE
  5
2A12
330
1F
100
AcDbEntity
  8
SANINDUSA
100
AcDbLine
 10
9121.618980923322
 20
2114.355384428635
 30
-0.0000000017937957
 11
9121.560869812212
 21
2114.355384428635
 31
-0.0000000017937957
  0
LINE
  5
2A13
330
1F
100
AcDbEntity
  8
SANINDUSA
100
AcDbLine
 10
9121.560869812212
 20
2114.320384428634
 30
-0.0000000017937957
 11
9121.619869812212
 21
2114.320384428634
 31
-0.0000000017937957
  0
LINE
  5
2A19
330
1F
100
AcDbEntity
  8
SANINDUSA
  6
Continuous
100
AcDbLine
 10
9121.629369812211
 20
2115.892884428635
 30
0.0
 11
9122.493810676825
 21
2115.892884428635
 31
0.0
  0
LINE
  5
2A1A
330
1F
100
AcDbEntity
  8
SANINDUSA
100
AcDbLine
 10
9121.629369812211
 20
2114.052884428635
 30
0.0
 11
9122.453774034998
 21
2114.052884428635
 31
0.0
  0
LINE
  5
2A1C
330
1F
100
AcDbEntity
  8
SANINDUSA
  6
Continuous
100
AcDbLine
 10
9120.893487024085
 20
2114.042884428635
 30
0.0
 11
9122.493810676825
 21
2114.042884428635
 31
0.0
  0
LINE
  5
2A1D
330
1F
100
AcDbEntity
  8
SANINDUSA
100
AcDbLine
 10
9122.443523068543
 20
2114.052884428635
 30
0.0
 11
9122.443523068543
 21
2115.892884428635
 31
0.0
  0
LINE
  5
2A1E
330
1F
100
AcDbEntity
  8
SANINDUSA
100
AcDbLine
 10
9122.475510676824
 20
2114.052884428635
 30
0.0
 11
9122.475510676824
 21
2115.892884428635
 31
0.0
  0
LINE
  5
2A1F
330
1F
100
AcDbEntity
  8
SANINDUSA
100
AcDbLine
 10
9122.481510676824
 20
2114.052884428635
 30
0.0
 11
9122.481510676824
 21
2115.892884428635
 31
0.0
  0
LINE
  5
2A20
330
1F
100
AcDbEntity
  8
SANINDUSA
100
AcDbLine
 10
9122.493810676825
 20
2114.042884428635
 30
0.0
 11
9122.493810676825
 21
2115.892884428635
 31
0.0
  0
LINE
  5
2A21
330
1F
100
AcDbEntity
  8
SANINDUSA
100
AcDbLine
 10
9122.454109010467
 20
2114.042884428635
 30
0.0
 11
9122.454109010467
 21
2115.892884428635
 31
0.0
  0
LINE
  5
2A26
330
1F
100
AcDbEntity
  8
SANINDUSA
100
AcDbLine
 10
9122.475510676824
 20
2114.052884428635
 30
0.0
 11
9122.481510676824
 21
2114.052884428635
 31
0.0
  0
LINE
  5
2A28
330
1F
100
AcDbEntity
  8
SANINDUSA
  6
Continuous
100
AcDbLine
 10
9121.629369812211
 20
2114.361884428635
 30
0.0
 11
9121.629369812211
 21
2115.573884428625
 31
0.0
  0
LINE
  5
2A29
330
1F
100
AcDbEntity
  8
SANINDUSA
  6
Continuous
100
AcDbLine
 10
9121.626369812211
 20
2114.361884428635
 30
0.0
 11
9121.626369812211
 21
2115.573884428625
 31
0.0
  0
LINE
  5
2A2A
330
1F
100
AcDbEntity
  8
SANINDUSA
  6
Continuous
100
AcDbLine
 10
9120.948337024083
 20
2114.042884428635
 30
0.0
 11
9120.948337024083
 21
2115.892884428635
 31
0.0
  0
LINE
  5
2A2B
330
1F
100
AcDbEntity
  8
SANINDUSA
  6
Continuous
100
AcDbLine
 10
9120.893487024085
 20
2114.042884428635
 30
0.0
 11
9120.893487024085
 21
2115.892884428635
 31
0.0
  0
LINE
  5
2A30
330
1F
100
AcDbEntity
  8
SANINDUSA
  6
Continuous
100
AcDbLine
 10
9121.626369812211
 20
2114.042884428635
 30
0.0
 11
9121.626369812211
 21
2114.313884428634
 31
0.0
  0
LINE
  5
2A31
330
1F
100
AcDbEntity
  8
SANINDUSA
  6
Continuous
100
AcDbLine
 10
9121.629369812211
 20
2114.052884428635
 30
0.0
 11
9121.629369812211
 21
2114.313884428634
 31
0.0
  0
LINE
  5
2A33
330
1F
100
AcDbEntity
  8
SANINDUSA
  6
Continuous
100
AcDbLine
 10
9120.893487024085
 20
2115.892884428635
 30
0.0
 11
9121.626369812211
 21
2115.892884428635
 31
0.0
  0
LINE
  5
2A34
330
1F
100
AcDbEntity
  8
SANINDUSA
  6
Continuous
100
AcDbLine
 10
9121.626369812211
 20
2115.621884428625
 30
0.0
 11
9121.626369812211
 21
2115.892884428635
 31
0.0
  0
LINE
  5
2A35
330
1F
100
AcDbEntity
  8
SANINDUSA
  6
Continuous
100
AcDbLine
 10
9121.629369812211
 20
2115.621884428625
 30
0.0
 11
9121.629369812211
 21
2115.892884428635
 31
0.0
  0
LINE
  5
2A36
330
1F
100
AcDbEntity
  8
SANINDUSA
100
AcDbLine
 10
9122.49147999179
 20
2115.892884428635
 30
0.0
 11
9122.49147999179
 21
2114.042884428635
 31
0.0
  0
LINE
  5
2A37
330
1F
100
AcDbEntity
  8
SANINDUSA
100
AcDbLine
 10
9122.417523068543
 20
2115.892884428635
 30
0.0000000001555553
 11
9122.417523068543
 21
2114.052884428635
 31
0.0000000001555553
  0
ENDSEC
  0
SECTION
  2
OBJECTS
  0
DICTIONARY
  5
C
330
0
100
AcDbDictionary
281
     1
  3
ACAD_2007HEADERVARS_RT
350
2CDD
  3
ACAD_COLOR
350
EE6
  3
ACAD_GROUP
350
D
  3
ACAD_LAYOUT
350
1A
  3
ACAD_MATERIAL
350
EE5
  3
ACAD_MLEADERSTYLE
350
2C22
  3
ACAD_MLINESTYLE
350
17
  3
ACAD_PLOTSETTINGS
350
19
  3
ACAD_PLOTSTYLENAME
350
E
  3
ACAD_SCALELIST
350
2C10
  3
ACAD_TABLESTYLE
350
EE7
  3
ACAD_VISUALSTYLE
350
2BFC
  3
ACDB_RECOMPOSE_DATA
350
2CDB
  3
AcDbVariableDictionary
350
3D
  3
ASE_INDEX_DICTIONARY
350
E77
  3
DWGPROPS
350
2CDC
  0
DICTIONARY
  5
1051
330
2
100
AcDbDictionary
280
     1
281
     1
  3
ACAD_LAYERFILTERS
360
1057
  3
ACLYDICTIONARY
360
1056
  0
DICTIONARY
  5
2C74
330
10
100
AcDbDictionary
280
     1
281
     1
  3
ADSK_XREC_LAYER_RECONCILED
360
2C75
  0
DICTIONARY
  5
2C76
330
2F
100
AcDbDictionary
280
     1
281
     1
  3
ADSK_XREC_LAYER_RECONCILED
360
2C77
  0
DICTIONARY
  5
2C78
330
30
100
AcDbDictionary
280
     1
281
     1
  3
ADSK_XREC_LAYER_RECONCILED
360
2C79
  0
DICTIONARY
  5
2C7A
330
31
100
AcDbDictionary
280
     1
281
     1
  3
ADSK_XREC_LAYER_RECONCILED
360
2C7B
  0
DICTIONARY
  5
2C7C
330
32
100
AcDbDictionary
280
     1
281
     1
  3
ADSK_XREC_LAYER_RECONCILED
360
2C7D
  0
DICTIONARY
  5
2C7E
330
33
100
AcDbDictionary
280
     1
281
     1
  3
ADSK_XREC_LAYER_RECONCILED
360
2C7F
  0
DICTIONARY
  5
2C80
330
34
100
AcDbDictionary
280
     1
281
     1
  3
ADSK_XREC_LAYER_RECONCILED
360
2C81
  0
DICTIONARY
  5
2C82
330
35
100
AcDbDictionary
280
     1
281
     1
  3
ADSK_XREC_LAYER_RECONCILED
360
2C83
  0
DICTIONARY
  5
2C84
330
36
100
AcDbDictionary
280
     1
281
     1
  3
ADSK_XREC_LAYER_RECONCILED
360
2C85
  0
DICTIONARY
  5
2C86
330
37
100
AcDbDictionary
280
     1
281
     1
  3
ADSK_XREC_LAYER_RECONCILED
360
2C87
  0
DICTIONARY
  5
2C88
330
5D6
100
AcDbDictionary
280
     1
281
     1
  3
ADSK_XREC_LAYER_RECONCILED
360
2C89
  0
DICTIONARY
  5
2C8A
330
8AF
100
AcDbDictionary
280
     1
281
     1
  3
ADSK_XREC_LAYER_RECONCILED
360
2C8B
  0
DICTIONARY
  5
2C8C
330
8F8
100
AcDbDictionary
280
     1
281
     1
  3
ADSK_XREC_LAYER_RECONCILED
360
2C8D
  0
DICTIONARY
  5
2C8E
330
91D
100
AcDbDictionary
280
     1
281
     1
  3
ADSK_XREC_LAYER_RECONCILED
360
2C8F
  0
DICTIONARY
  5
2C90
330
C7B
100
AcDbDictionary
280
     1
281
     1
  3
ADSK_XREC_LAYER_RECONCILED
360
2C91
  0
DICTIONARY
  5
2C92
330
10DD
100
AcDbDictionary
280
     1
281
     1
  3
ADSK_XREC_LAYER_RECONCILED
360
2C93
  0
DICTIONARY
  5
223C
330
1F
100
AcDbDictionary
280
     1
281
     1
  3
ACAD_SORTENTS
360
223D
  0
DICTIONARY
  5
2CE6
330
2B13
100
AcDbDictionary
280
     1
281
     1
  3
ACAD_MTEXT_RT
360
2CE7
  0
DICTIONARY
  5
2CDD
102
{ACAD_REACTORS
330
C
102
}
330
C
100
AcDbDictionary
281
     1
  3
DIMJOGANG
350
2CDE
  0
DICTIONARY
  5
EE6
102
{ACAD_REACTORS
330
C
102
}
330
C
100
AcDbDictionary
281
     1
  0
DICTIONARY
  5
D
102
{ACAD_REACTORS
330
C
102
}
330
C
100
AcDbDictionary
281
     1
  0
DICTIONARY
  5
1A
102
{ACAD_REACTORS
330
C
102
}
330
C
100
AcDbDictionary
281
     1
  3
Layout1
350
1E
  3
Layout2
350
26
  3
Model
350
22
  0
DICTIONARY
  5
EE5
102
{ACAD_REACTORS
330
C
102
}
330
C
100
AcDbDictionary
281
     1
  3
ByBlock
350
2BEC
  3
ByLayer
350
2BE4
  3
Global
350
2BF4
  0
DICTIONARY
  5
2C22
102
{ACAD_REACTORS
330
C
102
}
330
C
100
AcDbDictionary
281
     1
  3
Standard
350
2C23
  0
DICTIONARY
  5
17
102
{ACAD_REACTORS
330
C
102
}
330
C
100
AcDbDictionary
281
     1
  3
Standard
350
18
  0
DICTIONARY
  5
19
102
{ACAD_REACTORS
330
C
102
}
330
C
100
AcDbDictionary
281
     1
  0
ACDBDICTIONARYWDFLT
  5
E
102
{ACAD_REACTORS
330
C
102
}
330
C
100
AcDbDictionary
281
     1
  3
Normal
350
F
100
AcDbDictionaryWithDefault
340
F
  0
DICTIONARY
  5
2C10
102
{ACAD_REACTORS
330
C
102
}
330
C
100
AcDbDictionary
281
     1
  3
A0
350
2C11
  3
A1
350
2C12
  3
A2
350
2C13
  3
A3
350
2C14
  3
A4
350
2C15
  3
A5
350
2C16
  3
A6
350
2C17
  3
A7
350
2C18
  3
A8
350
2C19
  3
A9
350
2C1A
  3
B0
350
2C1B
  3
B1
350
2C1C
  3
B2
350
2C1D
  3
B3
350
2C1E
  3
B4
350
2C1F
  3
B5
350
2C20
  3
B6
350
2C21
  0
DICTIONARY
  5
EE7
102
{ACAD_REACTORS
330
C
102
}
330
C
100
AcDbDictionary
281
     1
  3
Standard
350
EE8
  0
DICTIONARY
  5
2BFC
102
{ACAD_REACTORS
330
C
102
}
330
C
100
AcDbDictionary
281
     1
  3
2dWireframe
350
2C02
  3
3D Hidden
350
2C04
  3
3dWireframe
350
2C03
  3
Basic
350
2C01
  3
Brighten
350
2C08
  3
ColorChange
350
2C0C
  3
Conceptual
350
2C05
  3
Dim
350
2C07
  3
EdgeColorOff
350
2C0F
  3
Facepattern
350
2C0B
  3
Flat
350
2BFD
  3
FlatWithEdges
350
2BFE
  3
Gouraud
350
2BFF
  3
GouraudWithEdges
350
2C00
  3
JitterOff
350
2C0D
  3
Linepattern
350
2C0A
  3
OverhangOff
350
2C0E
  3
Realistic
350
2C06
  3
Thicken
350
2C09
  0
XRECORD
  5
2CDB
102
{ACAD_REACTORS
330
C
102
}
330
C
100
AcDbXrecord
280
     1
 90
        1
330
EE8
  0
DICTIONARY
  5
3D
102
{ACAD_REACTORS
330
C
102
}
330
C
100
AcDbDictionary
281
     1
  3
CANNOSCALE
350
2CD5
  3
CMLEADERSTYLE
350
2CD4
  3
CTABLESTYLE
350
1049
  3
DIMASSOC
350
3F
  3
HIDETEXT
350
3E
  3
INDEXCTL
350
2CD7
  3
PROJECTNAME
350
22E1
  3
SORTENTS
350
2CD6
  3
XCLIPFRAME
350
2CD8
  0
DICTIONARY
  5
E77
102
{ACAD_REACTORS
330
C
102
}
330
C
100
AcDbDictionary
281
     1
  3
ASEBlockHierarchyIndexRecord
350
E78
1001
DCO15
1040
1552647238.734
  0
XRECORD
  5
2CDC
102
{ACAD_REACTORS
330
C
102
}
330
C
100
AcDbXrecord
280
     1
  1
DWGPROPS COOKIE
  2

  3

  4

  6

  7

  8
Julio
  9

300
=
301
=
302
=
303
=
304
=
305
=
306
=
307
=
308
=
309
=
 40
0.0212793055555556
 41
2454138.513543831
 42
2455824.658116493
  1

 90
        0
  0
DICTIONARY
  5
1057
102
{ACAD_REACTORS
330
1051
102
}
330
1051
100
AcDbDictionary
281
     1
  0
DICTIONARY
  5
1056
102
{ACAD_REACTORS
330
1051
102
}
330
1051
100
AcDbDictionary
281
     1
1001
ACAD
1000
<All
  0
XRECORD
  5
2C75
102
{ACAD_REACTORS
330
2C74
102
}
330
2C74
100
AcDbXrecord
280
     1
290
     1
  0
XRECORD
  5
2C77
102
{ACAD_REACTORS
330
2C76
102
}
330
2C76
100
AcDbXrecord
280
     1
290
     1
  0
XRECORD
  5
2C79
102
{ACAD_REACTORS
330
2C78
102
}
330
2C78
100
AcDbXrecord
280
     1
290
     1
  0
XRECORD
  5
2C7B
102
{ACAD_REACTORS
330
2C7A
102
}
330
2C7A
100
AcDbXrecord
280
     1
290
     1
  0
XRECORD
  5
2C7D
102
{ACAD_REACTORS
330
2C7C
102
}
330
2C7C
100
AcDbXrecord
280
     1
290
     1
  0
XRECORD
  5
2C7F
102
{ACAD_REACTORS
330
2C7E
102
}
330
2C7E
100
AcDbXrecord
280
     1
290
     1
  0
XRECORD
  5
2C81
102
{ACAD_REACTORS
330
2C80
102
}
330
2C80
100
AcDbXrecord
280
     1
290
     1
  0
XRECORD
  5
2C83
102
{ACAD_REACTORS
330
2C82
102
}
330
2C82
100
AcDbXrecord
280
     1
290
     1
  0
XRECORD
  5
2C85
102
{ACAD_REACTORS
330
2C84
102
}
330
2C84
100
AcDbXrecord
280
     1
290
     1
  0
XRECORD
  5
2C87
102
{ACAD_REACTORS
330
2C86
102
}
330
2C86
100
AcDbXrecord
280
     1
290
     1
  0
XRECORD
  5
2C89
102
{ACAD_REACTORS
330
2C88
102
}
330
2C88
100
AcDbXrecord
280
     1
290
     1
  0
XRECORD
  5
2C8B
102
{ACAD_REACTORS
330
2C8A
102
}
330
2C8A
100
AcDbXrecord
280
     1
290
     1
  0
XRECORD
  5
2C8D
102
{ACAD_REACTORS
330
2C8C
102
}
330
2C8C
100
AcDbXrecord
280
     1
290
     1
  0
XRECORD
  5
2C8F
102
{ACAD_REACTORS
330
2C8E
102
}
330
2C8E
100
AcDbXrecord
280
     1
290
     1
  0
XRECORD
  5
2C91
102
{ACAD_REACTORS
330
2C90
102
}
330
2C90
100
AcDbXrecord
280
     1
290
     1
  0
XRECORD
  5
2C93
102
{ACAD_REACTORS
330
2C92
102
}
330
2C92
100
AcDbXrecord
280
     1
290
     1
  0
SORTENTSTABLE
  5
223D
102
{ACAD_REACTORS
330
223C
102
}
330
223C
100
AcDbSortentsTable
330
1F
  0
XRECORD
  5
2CE7
102
{ACAD_REACTORS
330
2CE6
102
}
330
2CE6
100
AcDbXrecord
280
     1
 40
3752.0
  1
90,0°
  0
XRECORD
  5
2CDE
102
{ACAD_REACTORS
330
2CDD
102
}
330
2CDD
100
AcDbXrecord
280
     1
 40
1.570796326794896
  0
LAYOUT
  5
1E
102
{ACAD_XDICTIONARY
360
2CDF
102
}
102
{ACAD_REACTORS
330
1A
102
}
330
1A
100
AcDbPlotSettings
  1

  2
Ploter HP500
  4

  6

 40
0.0
 41
0.0
 42
0.0
 43
0.0
 44
0.0
 45
0.0
 46
0.0
 47
0.0
 48
0.0
 49
0.0
140
0.0
141
0.0
142
1.0
143
1.0
 70
   688
 72
     0
 73
     0
 74
     5
  7
sanindusa.ctb
 75
    16
147
1.0
148
0.0
149
0.0
100
AcDbLayout
  1
Layout1
 70
     1
 71
     1
 10
0.0
 20
0.0
 11
420.0
 21
297.0
 12
0.0
 22
0.0
 32
0.0
 14
1.000000000000000E+20
 24
1.000000000000000E+20
 34
1.000000000000000E+20
 15
-1.000000000000000E+20
 25
-1.000000000000000E+20
 35
-1.000000000000000E+20
146
0.0
 13
0.0
 23
0.0
 33
0.0
 16
1.0
 26
0.0
 36
0.0
 17
0.0
 27
1.0
 37
0.0
 76
     0
330
1B
  0
LAYOUT
  5
26
102
{ACAD_XDICTIONARY
360
2CE3
102
}
102
{ACAD_REACTORS
330
1A
102
}
330
1A
100
AcDbPlotSettings
  1

  2
Ploter HP500
  4

  6

 40
0.0
 41
0.0
 42
0.0
 43
0.0
 44
0.0
 45
0.0
 46
0.0
 47
0.0
 48
0.0
 49
0.0
140
0.0
141
0.0
142
1.0
143
1.0
 70
   688
 72
     0
 73
     0
 74
     5
  7
sanindusa.ctb
 75
    16
147
1.0
148
0.0
149
0.0
100
AcDbLayout
  1
Layout2
 70
     1
 71
     2
 10
0.0
 20
0.0
 11
12.0
 21
9.0
 12
0.0
 22
0.0
 32
0.0
 14
0.0
 24
0.0
 34
0.0
 15
0.0
 25
0.0
 35
0.0
146
0.0
 13
0.0
 23
0.0
 33
0.0
 16
1.0
 26
0.0
 36
0.0
 17
0.0
 27
1.0
 37
0.0
 76
     0
330
23
  0
LAYOUT
  5
22
102
{ACAD_XDICTIONARY
360
2CE1
102
}
102
{ACAD_REACTORS
330
1A
102
}
330
1A
100
AcDbPlotSettings
  1

  2
Ploter HP500
  4
User268
  6

 40
4.995333194732666
 41
16.97565841674804
 42
4.995330810546875
 43
16.97567749023437
 44
209.9733276367187
 45
296.9259948730469
 46
0.0
 47
0.0
 48
0.0
 49
0.0
140
0.0
141
0.0
142
1.0
143
1.0
 70
 11952
 72
     1
 73
     1
 74
     0
  7
sanindusa.ctb
 75
     0
147
1.0
148
-427.5957866592534
149
7.362384574453926
100
AcDbLayout
  1
Model
 70
     1
 71
     0
 10
0.0
 20
0.0
 11
12.0
 21
9.0
 12
0.0
 22
0.0
 32
0.0
 14
0.0
 24
0.0
 34
0.0
 15
0.0
 25
0.0
 35
0.0
146
0.0
 13
0.0
 23
0.0
 33
0.0
 16
1.0
 26
0.0
 36
0.0
 17
0.0
 27
1.0
 37
0.0
 76
     0
330
1F
331
2BDB
  0
MATERIAL
  5
2BEC
102
{ACAD_XDICTIONARY
360
2BED
102
}
102
{ACAD_REACTORS
330
EE5
102
}
330
EE5
100
AcDbMaterial
  1
ByBlock
 72
     0
 43
0.0008202099737533
 43
0.0
 43
0.0
 43
0.0
 43
0.0
 43
0.0008202099737533
 43
0.0
 43
0.0
 43
0.0
 43
0.0
 43
1.0
 43
0.0
 43
0.0
 43
0.0
 43
0.0
 43
1.0
 77
     0
 47
0.0008202099737533
 47
0.0
 47
0.0
 47
0.0
 47
0.0
 47
0.0008202099737533
 47
0.0
 47
0.0
 47
0.0
 47
0.0
 47
1.0
 47
0.0
 47
0.0
 47
0.0
 47
0.0
 47
1.0
171
     0
 49
0.0008202099737533
 49
0.0
 49
0.0
 49
0.0
 49
0.0
 49
0.0008202099737533
 49
0.0
 49
0.0
 49
0.0
 49
0.0
 49
1.0
 49
0.0
 49
0.0
 49
0.0
 49
0.0
 49
1.0
175
     0
142
0.0008202099737533
142
0.0
142
0.0
142
0.0
142
0.0
142
0.0008202099737533
142
0.0
142
0.0
142
0.0
142
0.0
142
1.0
142
0.0
142
0.0
142
0.0
142
0.0
142
1.0
179
     0
144
0.0008202099737533
144
0.0
144
0.0
144
0.0
144
0.0
144
0.0008202099737533
144
0.0
144
0.0
144
0.0
144
0.0
144
1.0
144
0.0
144
0.0
144
0.0
144
0.0
144
1.0
147
0.0008202099737533
147
0.0
147
0.0
147
0.0
147
0.0
147
0.0008202099737533
147
0.0
147
0.0
147
0.0
147
0.0
147
1.0
147
0.0
147
0.0
147
0.0
147
0.0
147
1.0
  0
MATERIAL
  5
2BE4
102
{ACAD_XDICTIONARY
360
2BE5
102
}
102
{ACAD_REACTORS
330
EE5
102
}
330
EE5
100
AcDbMaterial
  1
ByLayer
 72
     0
 43
0.0008202099737533
 43
0.0
 43
0.0
 43
0.0
 43
0.0
 43
0.0008202099737533
 43
0.0
 43
0.0
 43
0.0
 43
0.0
 43
1.0
 43
0.0
 43
0.0
 43
0.0
 43
0.0
 43
1.0
 77
     0
 47
0.0008202099737533
 47
0.0
 47
0.0
 47
0.0
 47
0.0
 47
0.0008202099737533
 47
0.0
 47
0.0
 47
0.0
 47
0.0
 47
1.0
 47
0.0
 47
0.0
 47
0.0
 47
0.0
 47
1.0
171
     0
 49
0.0008202099737533
 49
0.0
 49
0.0
 49
0.0
 49
0.0
 49
0.0008202099737533
 49
0.0
 49
0.0
 49
0.0
 49
0.0
 49
1.0
 49
0.0
 49
0.0
 49
0.0
 49
0.0
 49
1.0
175
     0
142
0.0008202099737533
142
0.0
142
0.0
142
0.0
142
0.0
142
0.0008202099737533
142
0.0
142
0.0
142
0.0
142
0.0
142
1.0
142
0.0
142
0.0
142
0.0
142
0.0
142
1.0
179
     0
144
0.0008202099737533
144
0.0
144
0.0
144
0.0
144
0.0
144
0.0008202099737533
144
0.0
144
0.0
144
0.0
144
0.0
144
1.0
144
0.0
144
0.0
144
0.0
144
0.0
144
1.0
147
0.0008202099737533
147
0.0
147
0.0
147
0.0
147
0.0
147
0.0008202099737533
147
0.0
147
0.0
147
0.0
147
0.0
147
1.0
147
0.0
147
0.0
147
0.0
147
0.0
147
1.0
  0
MATERIAL
  5
2BF4
102
{ACAD_XDICTIONARY
360
2BF5
102
}
102
{ACAD_REACTORS
330
EE5
102
}
330
EE5
100
AcDbMaterial
  1
Global
 72
     0
 43
0.0008202099737533
 43
0.0
 43
0.0
 43
0.0
 43
0.0
 43
0.0008202099737533
 43
0.0
 43
0.0
 43
0.0
 43
0.0
 43
1.0
 43
0.0
 43
0.0
 43
0.0
 43
0.0
 43
1.0
 77
     0
 47
0.0008202099737533
 47
0.0
 47
0.0
 47
0.0
 47
0.0
 47
0.0008202099737533
 47
0.0
 47
0.0
 47
0.0
 47
0.0
 47
1.0
 47
0.0
 47
0.0
 47
0.0
 47
0.0
 47
1.0
171
     0
 49
0.0008202099737533
 49
0.0
 49
0.0
 49
0.0
 49
0.0
 49
0.0008202099737533
 49
0.0
 49
0.0
 49
0.0
 49
0.0
 49
1.0
 49
0.0
 49
0.0
 49
0.0
 49
0.0
 49
1.0
175
     0
142
0.0008202099737533
142
0.0
142
0.0
142
0.0
142
0.0
142
0.0008202099737533
142
0.0
142
0.0
142
0.0
142
0.0
142
1.0
142
0.0
142
0.0
142
0.0
142
0.0
142
1.0
179
     0
144
0.0008202099737533
144
0.0
144
0.0
144
0.0
144
0.0
144
0.0008202099737533
144
0.0
144
0.0
144
0.0
144
0.0
144
1.0
144
0.0
144
0.0
144
0.0
144
0.0
144
1.0
147
0.0008202099737533
147
0.0
147
0.0
147
0.0
147
0.0
147
0.0008202099737533
147
0.0
147
0.0
147
0.0
147
0.0
147
1.0
147
0.0
147
0.0
147
0.0
147
0.0
147
1.0
  0
MLEADERSTYLE
  5
2C23
102
{ACAD_REACTORS
330
2C22
102
}
330
2C22
100
AcDbMLeaderStyle
170
     2
171
     1
172
     0
 90
        2
 40
0.0
 41
0.0
173
     1
 91
-1056964608
340
14
 92
       -2
290
     1
 42
2.0
291
     1
 43
0.36
  3
Standard
 44
4.0
300

342
11
174
     1
178
     6
175
     1
176
     0
 93
-1056964608
 45
4.0
292
     0
297
     0
 46
4.0
 94
-1056964608
 47
1.0
 49
1.0
140
1.0
293
     1
141
0.0
294
     1
177
     0
142
1.0
295
     0
296
     0
143
0.125
1001
ACAD_MLEADERVER
1070
     2
  0
MLINESTYLE
  5
18
102
{ACAD_REACTORS
330
17
102
}
330
17
100
AcDbMlineStyle
  2
STANDARD
 70
     0
  3

 62
   256
 51
90.0
 52
90.0
 71
     2
 49
0.5
 62
   256
  6
BYLAYER
 49
-0.5
 62
   256
  6
BYLAYER
  0
ACDBPLACEHOLDER
  5
F
102
{ACAD_REACTORS
330
E
102
}
330
E
  0
SCALE
  5
2C11
102
{ACAD_REACTORS
330
2C10
102
}
330
2C10
100
AcDbScale
 70
     0
300
1:1
140
1.0
141
1.0
290
     1
  0
SCALE
  5
2C12
102
{ACAD_REACTORS
330
2C10
102
}
330
2C10
100
AcDbScale
 70
     0
300
1:2
140
1.0
141
2.0
290
     0
  0
SCALE
  5
2C13
102
{ACAD_REACTORS
330
2C10
102
}
330
2C10
100
AcDbScale
 70
     0
300
1:4
140
1.0
141
4.0
290
     0
  0
SCALE
  5
2C14
102
{ACAD_REACTORS
330
2C10
102
}
330
2C10
100
AcDbScale
 70
     0
300
1:5
140
1.0
141
5.0
290
     0
  0
SCALE
  5
2C15
102
{ACAD_REACTORS
330
2C10
102
}
330
2C10
100
AcDbScale
 70
     0
300
1:8
140
1.0
141
8.0
290
     0
  0
SCALE
  5
2C16
102
{ACAD_REACTORS
330
2C10
102
}
330
2C10
100
AcDbScale
 70
     0
300
1:10
140
1.0
141
10.0
290
     0
  0
SCALE
  5
2C17
102
{ACAD_REACTORS
330
2C10
102
}
330
2C10
100
AcDbScale
 70
     0
300
1:16
140
1.0
141
16.0
290
     0
  0
SCALE
  5
2C18
102
{ACAD_REACTORS
330
2C10
102
}
330
2C10
100
AcDbScale
 70
     0
300
1:20
140
1.0
141
20.0
290
     0
  0
SCALE
  5
2C19
102
{ACAD_REACTORS
330
2C10
102
}
330
2C10
100
AcDbScale
 70
     0
300
1:30
140
1.0
141
30.0
290
     0
  0
SCALE
  5
2C1A
102
{ACAD_REACTORS
330
2C10
102
}
330
2C10
100
AcDbScale
 70
     0
300
1:40
140
1.0
141
40.0
290
     0
  0
SCALE
  5
2C1B
102
{ACAD_REACTORS
330
2C10
102
}
330
2C10
100
AcDbScale
 70
     0
300
1:50
140
1.0
141
50.0
290
     0
  0
SCALE
  5
2C1C
102
{ACAD_REACTORS
330
2C10
102
}
330
2C10
100
AcDbScale
 70
     0
300
1:100
140
1.0
141
100.0
290
     0
  0
SCALE
  5
2C1D
102
{ACAD_REACTORS
330
2C10
102
}
330
2C10
100
AcDbScale
 70
     0
300
2:1
140
2.0
141
1.0
290
     0
  0
SCALE
  5
2C1E
102
{ACAD_REACTORS
330
2C10
102
}
330
2C10
100
AcDbScale
 70
     0
300
4:1
140
4.0
141
1.0
290
     0
  0
SCALE
  5
2C1F
102
{ACAD_REACTORS
330
2C10
102
}
330
2C10
100
AcDbScale
 70
     0
300
8:1
140
8.0
141
1.0
290
     0
  0
SCALE
  5
2C20
102
{ACAD_REACTORS
330
2C10
102
}
330
2C10
100
AcDbScale
 70
     0
300
10:1
140
10.0
141
1.0
290
     0
  0
SCALE
  5
2C21
102
{ACAD_REACTORS
330
2C10
102
}
330
2C10
100
AcDbScale
 70
     0
300
100:1
140
100.0
141
1.0
290
     0
  0
TABLESTYLE
  5
EE8
102
{ACAD_XDICTIONARY
360
2CD9
102
}
102
{ACAD_REACTORS
330
EE7
102
}
330
EE7
100
AcDbTableStyle
  3
Standard
 70
     0
 71
     0
 40
1.5
 41
1.5
280
     0
281
     0
  7
Standard
140
4.5
170
     2
 62
     0
 63
     7
283
     0
274
    -2
284
     1
 64
     0
275
    -2
285
     1
 65
     0
276
    -2
286
     1
 66
     0
277
    -2
287
     1
 67
     0
278
    -2
288
     1
 68
     0
279
    -2
289
     1
 69
     0
  7
Standard
140
6.0
170
     5
 62
     0
 63
     7
283
     0
274
    -2
284
     1
 64
     0
275
    -2
285
     1
 65
     0
276
    -2
286
     1
 66
     0
277
    -2
287
     1
 67
     0
278
    -2
288
     1
 68
     0
279
    -2
289
     1
 69
     0
  7
Standard
140
4.5
170
     5
 62
     0
 63
     7
283
     0
274
    -2
284
     1
 64
     0
275
    -2
285
     1
 65
     0
276
    -2
286
     1
 66
     0
277
    -2
287
     1
 67
     0
278
    -2
288
     1
 68
     0
279
    -2
289
     1
 69
     0
  0
VISUALSTYLE
  5
2C02
102
{ACAD_XDICTIONARY
360
2CF5
102
}
102
{ACAD_REACTORS
330
2BFC
102
}
330
2BFC
100
AcDbVisualStyle
  2
2dWireframe
 70
     4
 71
     0
 72
     2
 73
     0
 90
        0
 40
-0.6
 41
-30.0
 62
     5
 63
     7
 74
     1
 91
        4
 64
     7
 65
   257
 75
     1
175
     1
 42
1.0
 92
        0
 66
   257
 43
1.0
 76
     1
 77
     6
 78
     2
 67
     7
 79
     5
170
     0
171
     0
290
     0
174
     0
 93
        1
 44
0.0
173
     0
291
     0
 45
0.0
1001
ACAD
1000
AcDbSavedByObjectVersion
1070
     0
  0
VISUALSTYLE
  5
2C04
102
{ACAD_XDICTIONARY
360
2CF9
102
}
102
{ACAD_REACTORS
330
2BFC
102
}
330
2BFC
100
AcDbVisualStyle
  2
3D Hidden
 70
     6
 71
     1
 72
     2
 73
     2
 90
        0
 40
-0.6
 41
-30.0
 62
     5
 63
     7
 74
     2
 91
        2
 64
     7
 65
   257
 75
     2
175
     1
 42
179.0
 92
        0
 66
   257
 43
1.0
 76
     1
 77
     6
 78
     2
 67
     7
 79
     3
170
     0
171
     0
290
     0
174
     0
 93
        1
 44
0.0
173
     0
291
     0
 45
0.0
1001
ACAD
1000
AcDbSavedByObjectVersion
1070
     0
  0
VISUALSTYLE
  5
2C03
102
{ACAD_XDICTIONARY
360
2CF7
102
}
102
{ACAD_REACTORS
330
2BFC
102
}
330
2BFC
100
AcDbVisualStyle
  2
3dWireframe
 70
     5
 71
     0
 72
     2
 73
     0
 90
        0
 40
-0.6
 41
-30.0
 62
     5
 63
     7
 74
     1
 91
        4
 64
     7
 65
   257
 75
     1
175
     1
 42
1.0
 92
        0
 66
   257
 43
1.0
 76
     1
 77
     6
 78
     2
 67
     7
 79
     5
170
     0
171
     0
290
     0
174
     0
 93
        1
 44
0.0
173
     0
291
     0
 45
0.0
1001
ACAD
1000
AcDbSavedByObjectVersion
1070
     0
  0
VISUALSTYLE
  5
2C01
102
{ACAD_XDICTIONARY
360
2CF3
102
}
102
{ACAD_REACTORS
330
2BFC
102
}
330
2BFC
100
AcDbVisualStyle
  2
Basic
 70
     7
 71
     1
 72
     0
 73
     1
 90
        0
 40
-0.6
 41
-30.0
 62
     5
 63
     7
 74
     0
 91
        4
 64
     7
 65
   257
 75
     1
175
     1
 42
1.0
 92
        8
 66
     7
 43
1.0
 76
     1
 77
     6
 78
     2
 67
     7
 79
     5
170
     0
171
     0
290
     0
174
     0
 93
        1
 44
0.0
173
     0
291
     1
 45
0.0
1001
ACAD
1000
AcDbSavedByObjectVersion
1070
     0
  0
VISUALSTYLE
  5
2C08
102
{ACAD_XDICTIONARY
360
2D01
102
}
102
{ACAD_REACTORS
330
2BFC
102
}
330
2BFC
100
AcDbVisualStyle
  2
Brighten
 70
    12
 71
     2
 72
     2
 73
     0
 90
        0
 40
-0.6
 41
-30.0
 62
     5
 63
     7
 74
     1
 91
        4
 64
     7
 65
   257
 75
     1
175
     1
 42
1.0
 92
        8
 66
     7
 43
1.0
 76
     1
 77
     6
 78
     2
 67
     7
 79
     5
170
     0
171
     0
290
     0
174
     0
 93
        1
 44
50.0
173
     0
291
     1
 45
0.0
1001
ACAD
1000
AcDbSavedByObjectVersion
1070
     0
  0
VISUALSTYLE
  5
2C0C
102
{ACAD_XDICTIONARY
360
2D09
102
}
102
{ACAD_REACTORS
330
2BFC
102
}
330
2BFC
100
AcDbVisualStyle
  2
ColorChange
 70
    16
 71
     2
 72
     2
 73
     3
 90
        0
 40
-0.6
 41
-30.0
 62
     5
 63
     8
 74
     1
 91
        4
 64
     7
 65
   257
 75
     1
175
     1
 42
1.0
 92
        8
 66
     8
 43
1.0
 76
     1
 77
     6
 78
     2
 67
     7
 79
     5
170
     0
171
     0
290
     0
174
     0
 93
        1
 44
0.0
173
     0
291
     1
 45
0.0
1001
ACAD
1000
AcDbSavedByObjectVersion
1070
     0
  0
VISUALSTYLE
  5
2C05
102
{ACAD_XDICTIONARY
360
2CFB
102
}
102
{ACAD_REACTORS
330
2BFC
102
}
330
2BFC
100
AcDbVisualStyle
  2
Conceptual
 70
     9
 71
     3
 72
     2
 73
     0
 90
        0
 40
-0.6
 41
-30.0
 62
     5
 63
     7
 74
     2
 91
        2
 64
     7
 65
   257
 75
     1
175
     1
 42
179.0
 92
        8
 66
     7
 43
1.0
 76
     1
 77
     6
 78
     2
 67
     7
 79
     3
170
     0
171
     0
290
     0
174
     0
 93
        1
 44
0.0
173
     0
291
     0
 45
0.0
1001
ACAD
1000
AcDbSavedByObjectVersion
1070
     0
  0
VISUALSTYLE
  5
2C07
102
{ACAD_XDICTIONARY
360
2CFF
102
}
102
{ACAD_REACTORS
330
2BFC
102
}
330
2BFC
100
AcDbVisualStyle
  2
Dim
 70
    11
 71
     2
 72
     2
 73
     0
 90
        0
 40
-0.6
 41
-30.0
 62
     5
 63
     7
 74
     1
 91
        4
 64
     7
 65
   257
 75
     1
175
     1
 42
1.0
 92
        8
 66
     7
 43
1.0
 76
     1
 77
     6
 78
     2
 67
     7
 79
     5
170
     0
171
     0
290
     0
174
     0
 93
        1
 44
-50.0
173
     0
291
     1
 45
0.0
1001
ACAD
1000
AcDbSavedByObjectVersion
1070
     0
  0
VISUALSTYLE
  5
2C0F
102
{ACAD_XDICTIONARY
360
2D0F
102
}
102
{ACAD_REACTORS
330
2BFC
102
}
330
2BFC
100
AcDbVisualStyle
  2
EdgeColorOff
 70
    22
 71
     2
 72
     2
 73
     0
 90
        0
 40
-0.6
 41
-30.0
 62
     5
 63
     7
 74
     1
 91
        4
 64
     7
 65
   257
 75
     1
175
     1
 42
1.0
 92
        8
 66
     7
 43
1.0
 76
     1
 77
     6
 78
     2
 67
     7
 79
     5
170
     0
171
     0
290
     0
174
     0
 93
        1
 44
0.0
173
     0
291
     1
 45
0.0
1001
ACAD
1000
AcDbSavedByObjectVersion
1070
     0
  0
VISUALSTYLE
  5
2C0B
102
{ACAD_XDICTIONARY
360
2D07
102
}
102
{ACAD_REACTORS
330
2BFC
102
}
330
2BFC
100
AcDbVisualStyle
  2
Facepattern
 70
    15
 71
     2
 72
     2
 73
     0
 90
        0
 40
-0.6
 41
-30.0
 62
     5
 63
     7
 74
     1
 91
        4
 64
     7
 65
   257
 75
     1
175
     1
 42
1.0
 92
        8
 66
     7
 43
1.0
 76
     1
 77
     6
 78
     2
 67
     7
 79
     5
170
     0
171
     0
290
     0
174
     0
 93
        1
 44
0.0
173
     0
291
     1
 45
0.0
1001
ACAD
1000
AcDbSavedByObjectVersion
1070
     0
  0
VISUALSTYLE
  5
2BFD
102
{ACAD_XDICTIONARY
360
2CEB
102
}
102
{ACAD_REACTORS
330
2BFC
102
}
330
2BFC
100
AcDbVisualStyle
  2
Flat
 70
     0
 71
     2
 72
     1
 73
     1
 90
        2
 40
-0.6
 41
30.0
 62
     5
 63
     7
 74
     0
 91
        4
 64
     7
 65
   257
 75
     1
175
     1
 42
1.0
 92
        8
 66
     7
 43
1.0
 76
     1
 77
     6
 78
     2
 67
     7
 79
     5
170
     0
171
     0
290
     0
174
     0
 93
       13
 44
0.0
173
     0
291
     1
 45
0.0
1001
ACAD
1000
AcDbSavedByObjectVersion
1070
     0
  0
VISUALSTYLE
  5
2BFE
102
{ACAD_XDICTIONARY
360
2CED
102
}
102
{ACAD_REACTORS
330
2BFC
102
}
330
2BFC
100
AcDbVisualStyle
  2
FlatWithEdges
 70
     1
 71
     2
 72
     1
 73
     1
 90
        2
 40
-0.6
 41
30.0
 62
     5
 63
     7
 74
     1
 91
        4
 64
     7
 65
   257
 75
     1
175
     1
 42
1.0
 92
        0
 66
   257
 43
1.0
 76
     1
 77
     6
 78
     2
 67
     7
 79
     5
170
     0
171
     0
290
     0
174
     0
 93
       13
 44
0.0
173
     0
291
     1
 45
0.0
1001
ACAD
1000
AcDbSavedByObjectVersion
1070
     0
  0
VISUALSTYLE
  5
2BFF
102
{ACAD_XDICTIONARY
360
2CEF
102
}
102
{ACAD_REACTORS
330
2BFC
102
}
330
2BFC
100
AcDbVisualStyle
  2
Gouraud
 70
     2
 71
     2
 72
     2
 73
     1
 90
        2
 40
-0.6
 41
30.0
 62
     5
 63
     7
 74
     0
 91
        4
 64
     7
 65
   257
 75
     1
175
     1
 42
1.0
 92
        0
 66
     7
 43
1.0
 76
     1
 77
     6
 78
     2
 67
     7
 79
     5
170
     0
171
     0
290
     0
174
     0
 93
       13
 44
0.0
173
     0
291
     1
 45
0.0
1001
ACAD
1000
AcDbSavedByObjectVersion
1070
     0
  0
VISUALSTYLE
  5
2C00
102
{ACAD_XDICTIONARY
360
2CF1
102
}
102
{ACAD_REACTORS
330
2BFC
102
}
330
2BFC
100
AcDbVisualStyle
  2
GouraudWithEdges
 70
     3
 71
     2
 72
     2
 73
     1
 90
        2
 40
-0.6
 41
30.0
 62
     5
 63
     7
 74
     1
 91
        4
 64
     7
 65
   257
 75
     1
175
     1
 42
1.0
 92
        0
 66
   257
 43
1.0
 76
     1
 77
     6
 78
     2
 67
     7
 79
     5
170
     0
171
     0
290
     0
174
     0
 93
       13
 44
0.0
173
     0
291
     1
 45
0.0
1001
ACAD
1000
AcDbSavedByObjectVersion
1070
     0
  0
VISUALSTYLE
  5
2C0D
102
{ACAD_XDICTIONARY
360
2D0B
102
}
102
{ACAD_REACTORS
330
2BFC
102
}
330
2BFC
100
AcDbVisualStyle
  2
JitterOff
 70
    20
 71
     2
 72
     2
 73
     0
 90
        0
 40
-0.6
 41
-30.0
 62
     5
 63
     7
 74
     1
 91
        4
 64
     7
 65
   257
 75
     1
175
     1
 42
1.0
 92
       10
 66
     7
 43
1.0
 76
     1
 77
     6
 78
     2
 67
     7
 79
     5
170
     0
171
     0
290
     0
174
     0
 93
        1
 44
0.0
173
     0
291
     1
 45
0.0
1001
ACAD
1000
AcDbSavedByObjectVersion
1070
     0
  0
VISUALSTYLE
  5
2C0A
102
{ACAD_XDICTIONARY
360
2D05
102
}
102
{ACAD_REACTORS
330
2BFC
102
}
330
2BFC
100
AcDbVisualStyle
  2
Linepattern
 70
    14
 71
     2
 72
     2
 73
     0
 90
        0
 40
-0.6
 41
-30.0
 62
     5
 63
     7
 74
     1
 91
        4
 64
     7
 65
   257
 75
     7
175
     7
 42
1.0
 92
        8
 66
     7
 43
1.0
 76
     1
 77
     6
 78
     2
 67
     7
 79
     5
170
     0
171
     0
290
     0
174
     0
 93
        1
 44
0.0
173
     0
291
     1
 45
0.0
1001
ACAD
1000
AcDbSavedByObjectVersion
1070
     0
  0
VISUALSTYLE
  5
2C0E
102
{ACAD_XDICTIONARY
360
2D0D
102
}
102
{ACAD_REACTORS
330
2BFC
102
}
330
2BFC
100
AcDbVisualStyle
  2
OverhangOff
 70
    21
 71
     2
 72
     2
 73
     0
 90
        0
 40
-0.6
 41
-30.0
 62
     5
 63
     7
 74
     1
 91
        4
 64
     7
 65
   257
 75
     1
175
     1
 42
1.0
 92
        9
 66
     7
 43
1.0
 76
     1
 77
     6
 78
     2
 67
     7
 79
     5
170
     0
171
     0
290
     0
174
     0
 93
        1
 44
0.0
173
     0
291
     1
 45
0.0
1001
ACAD
1000
AcDbSavedByObjectVersion
1070
     0
  0
VISUALSTYLE
  5
2C06
102
{ACAD_XDICTIONARY
360
2CFD
102
}
102
{ACAD_REACTORS
330
2BFC
102
}
330
2BFC
100
AcDbVisualStyle
  2
Realistic
 70
     8
 71
     2
 72
     2
 73
     0
 90
        0
 40
-0.6
 41
-30.0
 62
     5
 63
     7
 74
     1
 91
        0
 64
     7
 65
   257
 75
     1
175
     1
 42
1.0
 92
        8
 66
     8
 43
1.0
 76
     1
 77
     6
 78
     2
 67
     7
 79
     5
170
     0
171
     0
290
     0
174
     0
 93
       13
 44
0.0
173
     0
291
     0
 45
0.0
1001
ACAD
1000
AcDbSavedByObjectVersion
1070
     0
  0
VISUALSTYLE
  5
2C09
102
{ACAD_XDICTIONARY
360
2D03
102
}
102
{ACAD_REACTORS
330
2BFC
102
}
330
2BFC
100
AcDbVisualStyle
  2
Thicken
 70
    13
 71
     2
 72
     2
 73
     0
 90
        0
 40
-0.6
 41
-30.0
 62
     5
 63
     7
 74
     1
 91
        4
 64
     7
 65
   257
 75
     1
175
     1
 42
1.0
 92
       12
 66
     7
 43
1.0
 76
     1
 77
     6
 78
     2
 67
     7
 79
     5
170
     0
171
     0
290
     0
174
     0
 93
        1
 44
0.0
173
     0
291
     1
 45
0.0
1001
ACAD
1000
AcDbSavedByObjectVersion
1070
     0
  0
DICTIONARYVAR
  5
2CD5
102
{ACAD_REACTORS
330
3D
102
}
330
3D
100
DictionaryVariables
280
     0
  1
1:1
  0
DICTIONARYVAR
  5
2CD4
102
{ACAD_REACTORS
330
3D
102
}
330
3D
100
DictionaryVariables
280
     0
  1
STANDARD
  0
DICTIONARYVAR
  5
1049
102
{ACAD_REACTORS
330
3D
102
}
330
3D
100
DictionaryVariables
280
     0
  1
STANDARD
  0
DICTIONARYVAR
  5
3F
102
{ACAD_REACTORS
330
3D
102
}
330
3D
100
DictionaryVariables
280
     0
  1
2
  0
DICTIONARYVAR
  5
3E
102
{ACAD_REACTORS
330
3D
102
}
330
3D
100
DictionaryVariables
280
     0
  1
1
  0
DICTIONARYVAR
  5
2CD7
102
{ACAD_REACTORS
330
3D
102
}
330
3D
100
DictionaryVariables
280
     0
  1
0
  0
DICTIONARYVAR
  5
22E1
102
{ACAD_REACTORS
330
3D
102
}
330
3D
100
DictionaryVariables
280
     0
  1

  0
DICTIONARYVAR
  5
2CD6
102
{ACAD_REACTORS
330
3D
102
}
330
3D
100
DictionaryVariables
280
     0
  1
127
  0
DICTIONARYVAR
  5
2CD8
102
{ACAD_REACTORS
330
3D
102
}
330
3D
100
DictionaryVariables
280
     0
  1
2
  0
XRECORD
  5
E78
102
{ACAD_REACTORS
330
E77
102
}
330
E77
100
AcDbXrecord
280
     1
330
0
330
0
  0
DICTIONARY
  5
2CDF
330
1E
100
AcDbDictionary
280
     1
281
     1
  3
ACAD_XREC_ROUNDTRIP
360
2CE0
  0
DICTIONARY
  5
2CE3
330
26
100
AcDbDictionary
280
     1
281
     1
  3
ACAD_XREC_ROUNDTRIP
360
2CE4
  0
DICTIONARY
  5
2CE1
330
22
100
AcDbDictionary
280
     1
281
     1
  3
ACAD_XREC_ROUNDTRIP
360
2CE2
  0
DICTIONARY
  5
2BED
330
2BEC
100
AcDbDictionary
280
     1
281
     1
  3
ACAD_XREC_ROUNDTRIP
360
2CE9
  3
BUMPTILE
360
2BEF
  3
DIFFUSETILE
360
2BEE
  3
OPACITYTILE
360
2BF2
  3
REFLECTIONTILE
360
2BF1
  3
REFRACTIONTILE
360
2BF3
  3
SPECULARTILE
360
2BF0
  0
DICTIONARY
  5
2BE5
330
2BE4
100
AcDbDictionary
280
     1
281
     1
  3
ACAD_XREC_ROUNDTRIP
360
2CE8
  3
BUMPTILE
360
2BE7
  3
DIFFUSETILE
360
2BE6
  3
OPACITYTILE
360
2BEA
  3
REFLECTIONTILE
360
2BE9
  3
REFRACTIONTILE
360
2BEB
  3
SPECULARTILE
360
2BE8
  0
DICTIONARY
  5
2BF5
330
2BF4
100
AcDbDictionary
280
     1
281
     1
  3
ACAD_XREC_ROUNDTRIP
360
2CEA
  3
BUMPTILE
360
2BF7
  3
DIFFUSETILE
360
2BF6
  3
OPACITYTILE
360
2BFA
  3
REFLECTIONTILE
360
2BF9
  3
REFRACTIONTILE
360
2BFB
  3
SPECULARTILE
360
2BF8
  0
DICTIONARY
  5
2CD9
330
EE8
100
AcDbDictionary
280
     1
281
     1
  3
ACAD_ROUNDTRIP_2008_TABLESTYLE_CELLSTYLEMAP
360
2CDA
  3
ACAD_XREC_ROUNDTRIP
360
2CE5
  0
DICTIONARY
  5
2CF5
330
2C02
100
AcDbDictionary
280
     1
281
     1
  3
ACAD_XREC_ROUNDTRIP
360
2CF6
  0
DICTIONARY
  5
2CF9
330
2C04
100
AcDbDictionary
280
     1
281
     1
  3
ACAD_XREC_ROUNDTRIP
360
2CFA
  0
DICTIONARY
  5
2CF7
330
2C03
100
AcDbDictionary
280
     1
281
     1
  3
ACAD_XREC_ROUNDTRIP
360
2CF8
  0
DICTIONARY
  5
2CF3
330
2C01
100
AcDbDictionary
280
     1
281
     1
  3
ACAD_XREC_ROUNDTRIP
360
2CF4
  0
DICTIONARY
  5
2D01
330
2C08
100
AcDbDictionary
280
     1
281
     1
  3
ACAD_XREC_ROUNDTRIP
360
2D02
  0
DICTIONARY
  5
2D09
330
2C0C
100
AcDbDictionary
280
     1
281
     1
  3
ACAD_XREC_ROUNDTRIP
360
2D0A
  0
DICTIONARY
  5
2CFB
330
2C05
100
AcDbDictionary
280
     1
281
     1
  3
ACAD_XREC_ROUNDTRIP
360
2CFC
  0
DICTIONARY
  5
2CFF
330
2C07
100
AcDbDictionary
280
     1
281
     1
  3
ACAD_XREC_ROUNDTRIP
360
2D00
  0
DICTIONARY
  5
2D0F
330
2C0F
100
AcDbDictionary
280
     1
281
     1
  3
ACAD_XREC_ROUNDTRIP
360
2D10
  0
DICTIONARY
  5
2D07
330
2C0B
100
AcDbDictionary
280
     1
281
     1
  3
ACAD_XREC_ROUNDTRIP
360
2D08
  0
DICTIONARY
  5
2CEB
330
2BFD
100
AcDbDictionary
280
     1
281
     1
  3
ACAD_XREC_ROUNDTRIP
360
2CEC
  0
DICTIONARY
  5
2CED
330
2BFE
100
AcDbDictionary
280
     1
281
     1
  3
ACAD_XREC_ROUNDTRIP
360
2CEE
  0
DICTIONARY
  5
2CEF
330
2BFF
100
AcDbDictionary
280
     1
281
     1
  3
ACAD_XREC_ROUNDTRIP
360
2CF0
  0
DICTIONARY
  5
2CF1
330
2C00
100
AcDbDictionary
280
     1
281
     1
  3
ACAD_XREC_ROUNDTRIP
360
2CF2
  0
DICTIONARY
  5
2D0B
330
2C0D
100
AcDbDictionary
280
     1
281
     1
  3
ACAD_XREC_ROUNDTRIP
360
2D0C
  0
DICTIONARY
  5
2D05
330
2C0A
100
AcDbDictionary
280
     1
281
     1
  3
ACAD_XREC_ROUNDTRIP
360
2D06
  0
DICTIONARY
  5
2D0D
330
2C0E
100
AcDbDictionary
280
     1
281
     1
  3
ACAD_XREC_ROUNDTRIP
360
2D0E
  0
DICTIONARY
  5
2CFD
330
2C06
100
AcDbDictionary
280
     1
281
     1
  3
ACAD_XREC_ROUNDTRIP
360
2CFE
  0
DICTIONARY
  5
2D03
330
2C09
100
AcDbDictionary
280
     1
281
     1
  3
ACAD_XREC_ROUNDTRIP
360
2D04
  0
XRECORD
  5
2CE0
102
{ACAD_REACTORS
330
2CDF
102
}
330
2CDF
100
AcDbXrecord
280
     1
102
SHADEPLOT
 70
     0
102
SHADEPLOTRESLEVEL
 70
     2
102
SHADEPLOTCUSTOMDPI
 70
   300
  0
XRECORD
  5
2CE4
102
{ACAD_REACTORS
330
2CE3
102
}
330
2CE3
100
AcDbXrecord
280
     1
102
SHADEPLOT
 70
     0
102
SHADEPLOTRESLEVEL
 70
     2
102
SHADEPLOTCUSTOMDPI
 70
   300
  0
XRECORD
  5
2CE2
102
{ACAD_REACTORS
330
2CE1
102
}
330
2CE1
100
AcDbXrecord
280
     1
102
SHADEPLOT
 70
     0
102
SHADEPLOTRESLEVEL
 70
     2
102
SHADEPLOTCUSTOMDPI
 70
   300
  0
XRECORD
  5
2CE9
102
{ACAD_REACTORS
330
2BED
102
}
330
2BED
100
AcDbXrecord
280
     1
102
MATERIAL
148
0.0
149
0.0
149
0.0
 93
        0
 94
      127
282
     0
 72
     0
 77
     0
171
     0
175
     0
179
     0
273
     0
  0
XRECORD
  5
2BEF
102
{ACAD_REACTORS
330
2BED
102
}
330
2BED
100
AcDbXrecord
280
     1
270
     1
271
     1
  0
XRECORD
  5
2BEE
102
{ACAD_REACTORS
330
2BED
102
}
330
2BED
100
AcDbXrecord
280
     1
270
     1
271
     1
  0
XRECORD
  5
2BF2
102
{ACAD_REACTORS
330
2BED
102
}
330
2BED
100
AcDbXrecord
280
     1
270
     1
271
     1
  0
XRECORD
  5
2BF1
102
{ACAD_REACTORS
330
2BED
102
}
330
2BED
100
AcDbXrecord
280
     1
270
     1
271
     1
  0
XRECORD
  5
2BF3
102
{ACAD_REACTORS
330
2BED
102
}
330
2BED
100
AcDbXrecord
280
     1
270
     1
271
     1
  0
XRECORD
  5
2BF0
102
{ACAD_REACTORS
330
2BED
102
}
330
2BED
100
AcDbXrecord
280
     1
270
     1
271
     1
  0
XRECORD
  5
2CE8
102
{ACAD_REACTORS
330
2BE5
102
}
330
2BE5
100
AcDbXrecord
280
     1
102
MATERIAL
148
0.0
149
0.0
149
0.0
 93
        0
 94
      127
282
     0
 72
     0
 77
     0
171
     0
175
     0
179
     0
273
     0
  0
XRECORD
  5
2BE7
102
{ACAD_REACTORS
330
2BE5
102
}
330
2BE5
100
AcDbXrecord
280
     1
270
     1
271
     1
  0
XRECORD
  5
2BE6
102
{ACAD_REACTORS
330
2BE5
102
}
330
2BE5
100
AcDbXrecord
280
     1
270
     1
271
     1
  0
XRECORD
  5
2BEA
102
{ACAD_REACTORS
330
2BE5
102
}
330
2BE5
100
AcDbXrecord
280
     1
270
     1
271
     1
  0
XRECORD
  5
2BE9
102
{ACAD_REACTORS
330
2BE5
102
}
330
2BE5
100
AcDbXrecord
280
     1
270
     1
271
     1
  0
XRECORD
  5
2BEB
102
{ACAD_REACTORS
330
2BE5
102
}
330
2BE5
100
AcDbXrecord
280
     1
270
     1
271
     1
  0
XRECORD
  5
2BE8
102
{ACAD_REACTORS
330
2BE5
102
}
330
2BE5
100
AcDbXrecord
280
     1
270
     1
271
     1
  0
XRECORD
  5
2CEA
102
{ACAD_REACTORS
330
2BF5
102
}
330
2BF5
100
AcDbXrecord
280
     1
102
MATERIAL
148
0.0
149
0.0
149
0.0
 93
        0
 94
      127
282
     0
 72
     0
 77
     0
171
     0
175
     0
179
     0
273
     0
  0
XRECORD
  5
2BF7
102
{ACAD_REACTORS
330
2BF5
102
}
330
2BF5
100
AcDbXrecord
280
     1
270
     1
271
     1
  0
XRECORD
  5
2BF6
102
{ACAD_REACTORS
330
2BF5
102
}
330
2BF5
100
AcDbXrecord
280
     1
270
     1
271
     1
  0
XRECORD
  5
2BFA
102
{ACAD_REACTORS
330
2BF5
102
}
330
2BF5
100
AcDbXrecord
280
     1
270
     1
271
     1
  0
XRECORD
  5
2BF9
102
{ACAD_REACTORS
330
2BF5
102
}
330
2BF5
100
AcDbXrecord
280
     1
270
     1
271
     1
  0
XRECORD
  5
2BFB
102
{ACAD_REACTORS
330
2BF5
102
}
330
2BF5
100
AcDbXrecord
280
     1
270
     1
271
     1
  0
XRECORD
  5
2BF8
102
{ACAD_REACTORS
330
2BF5
102
}
330
2BF5
100
AcDbXrecord
280
     1
270
     1
271
     1
  0
CELLSTYLEMAP
  5
2CDA
102
{ACAD_REACTORS
330
2CD9
102
}
330
2CD9
100
AcDbCellStyleMap
 90
        3
300
CELLSTYLE
  1
TABLEFORMAT_BEGIN
 90
        5
170
     1
 91
        0
 92
    32768
 62
   257
 93
        1
300
CONTENTFORMAT
  1
CONTENTFORMAT_BEGIN
 90
        0
 91
        0
 92
        4
 93
        0
300

 40
0.0
140
1.0
 94
        5
 62
     0
340
11
144
6.0
309
CONTENTFORMAT_END
171
     1
301
MARGIN
  1
CELLMARGIN_BEGIN
 40
1.5
 40
1.5
 40
1.5
 40
1.5
 40
0.18
 40
0.18
309
CELLMARGIN_END
 94
        6
 95
        1
302
GRIDFORMAT
  1
GRIDFORMAT_BEGIN
 90
        0
 91
        1
 62
     0
 92
       -2
340
0
 93
        0
 40
0.045
309
GRIDFORMAT_END
 95
        2
302
GRIDFORMAT
  1
GRIDFORMAT_BEGIN
 90
        0
 91
        1
 62
     0
 92
       -2
340
0
 93
        0
 40
0.045
309
GRIDFORMAT_END
 95
        4
302
GRIDFORMAT
  1
GRIDFORMAT_BEGIN
 90
        0
 91
        1
 62
     0
 92
       -2
340
0
 93
        0
 40
0.045
309
GRIDFORMAT_END
 95
        8
302
GRIDFORMAT
  1
GRIDFORMAT_BEGIN
 90
        0
 91
        1
 62
     0
 92
       -2
340
0
 93
        0
 40
0.045
309
GRIDFORMAT_END
 95
       16
302
GRIDFORMAT
  1
GRIDFORMAT_BEGIN
 90
        0
 91
        1
 62
     0
 92
       -2
340
0
 93
        0
 40
0.045
309
GRIDFORMAT_END
 95
       32
302
GRIDFORMAT
  1
GRIDFORMAT_BEGIN
 90
        0
 91
        1
 62
     0
 92
       -2
340
0
 93
        0
 40
0.045
309
GRIDFORMAT_END
309
TABLEFORMAT_END
  1
CELLSTYLE_BEGIN
 90
        1
 91
        1
300
_TITLE
309
CELLSTYLE_END
300
CELLSTYLE
  1
TABLEFORMAT_BEGIN
 90
        5
170
     1
 91
        0
 92
        0
 62
   257
 93
        1
300
CONTENTFORMAT
  1
CONTENTFORMAT_BEGIN
 90
        0
 91
        0
 92
        4
 93
        0
300

 40
0.0
140
1.0
 94
        5
 62
     0
340
11
144
4.5
309
CONTENTFORMAT_END
171
     1
301
MARGIN
  1
CELLMARGIN_BEGIN
 40
1.5
 40
1.5
 40
1.5
 40
1.5
 40
0.18
 40
0.18
309
CELLMARGIN_END
 94
        6
 95
        1
302
GRIDFORMAT
  1
GRIDFORMAT_BEGIN
 90
        0
 91
        1
 62
     0
 92
       -2
340
0
 93
        0
 40
0.045
309
GRIDFORMAT_END
 95
        2
302
GRIDFORMAT
  1
GRIDFORMAT_BEGIN
 90
        0
 91
        1
 62
     0
 92
       -2
340
0
 93
        0
 40
0.045
309
GRIDFORMAT_END
 95
        4
302
GRIDFORMAT
  1
GRIDFORMAT_BEGIN
 90
        0
 91
        1
 62
     0
 92
       -2
340
0
 93
        0
 40
0.045
309
GRIDFORMAT_END
 95
        8
302
GRIDFORMAT
  1
GRIDFORMAT_BEGIN
 90
        0
 91
        1
 62
     0
 92
       -2
340
0
 93
        0
 40
0.045
309
GRIDFORMAT_END
 95
       16
302
GRIDFORMAT
  1
GRIDFORMAT_BEGIN
 90
        0
 91
        1
 62
     0
 92
       -2
340
0
 93
        0
 40
0.045
309
GRIDFORMAT_END
 95
       32
302
GRIDFORMAT
  1
GRIDFORMAT_BEGIN
 90
        0
 91
        1
 62
     0
 92
       -2
340
0
 93
        0
 40
0.045
309
GRIDFORMAT_END
309
TABLEFORMAT_END
  1
CELLSTYLE_BEGIN
 90
        2
 91
        1
300
_HEADER
309
CELLSTYLE_END
300
CELLSTYLE
  1
TABLEFORMAT_BEGIN
 90
        5
170
     1
 91
        0
 92
        0
 62
   257
 93
        1
300
CONTENTFORMAT
  1
CONTENTFORMAT_BEGIN
 90
        0
 91
        0
 92
        4
 93
        0
300

 40
0.0
140
1.0
 94
        2
 62
     0
340
11
144
4.5
309
CONTENTFORMAT_END
171
     1
301
MARGIN
  1
CELLMARGIN_BEGIN
 40
1.5
 40
1.5
 40
1.5
 40
1.5
 40
0.18
 40
0.18
309
CELLMARGIN_END
 94
        6
 95
        1
302
GRIDFORMAT
  1
GRIDFORMAT_BEGIN
 90
        0
 91
        1
 62
     0
 92
       -2
340
0
 93
        0
 40
0.045
309
GRIDFORMAT_END
 95
        2
302
GRIDFORMAT
  1
GRIDFORMAT_BEGIN
 90
        0
 91
        1
 62
     0
 92
       -2
340
0
 93
        0
 40
0.045
309
GRIDFORMAT_END
 95
        4
302
GRIDFORMAT
  1
GRIDFORMAT_BEGIN
 90
        0
 91
        1
 62
     0
 92
       -2
340
0
 93
        0
 40
0.045
309
GRIDFORMAT_END
 95
        8
302
GRIDFORMAT
  1
GRIDFORMAT_BEGIN
 90
        0
 91
        1
 62
     0
 92
       -2
340
0
 93
        0
 40
0.045
309
GRIDFORMAT_END
 95
       16
302
GRIDFORMAT
  1
GRIDFORMAT_BEGIN
 90
        0
 91
        1
 62
     0
 92
       -2
340
0
 93
        0
 40
0.045
309
GRIDFORMAT_END
 95
       32
302
GRIDFORMAT
  1
GRIDFORMAT_BEGIN
 90
        0
 91
        1
 62
     0
 92
       -2
340
0
 93
        0
 40
0.045
309
GRIDFORMAT_END
309
TABLEFORMAT_END
  1
CELLSTYLE_BEGIN
 90
        3
 91
        2
300
_DATA
309
CELLSTYLE_END
  0
XRECORD
  5
2CE5
102
{ACAD_REACTORS
330
2CD9
102
}
330
2CD9
100
AcDbXrecord
280
     1
102
ACAD_ROUNDTRIP_PRE2007_TABLESTYLE
 90
        4
 91
        0
  1

 92
        4
 93
        0
  2

 94
        4
 95
        0
  3

  0
XRECORD
  5
2CF6
102
{ACAD_REACTORS
330
2CF5
102
}
330
2CF5
100
AcDbXrecord
280
     1
102
RTVSPropertyOp0
 70
     1
102
RTVSPropertyOp1
 70
     1
102
RTVSPropertyOp2
 70
     1
102
RTVSPropertyOp3
 70
     1
102
RTVSPropertyOp4
 70
     1
102
RTVSPropertyOp5
 70
     1
102
RTVSPropertyOp6
 70
     1
102
RTVSPropertyOp7
 70
     1
102
RTVSPropertyOp8
 70
     1
102
RTVSPropertyOp9
 70
     1
102
RTVSPropertyOp10
 70
     1
102
RTVSPropertyOp11
 70
     1
102
RTVSPropertyOp12
 70
     1
102
RTVSPropertyOp13
 70
     1
102
RTVSPropertyOp14
 70
     1
102
RTVSPropertyOp15
 70
     1
102
RTVSPropertyOp16
 70
     1
102
RTVSPropertyOp17
 70
     1
102
RTVSPropertyOp18
 70
     1
102
RTVSPropertyOp19
 70
     1
102
RTVSPropertyOp20
 70
     1
102
RTVSPropertyOp21
 70
     1
102
RTVSPropertyOp22
 70
     1
102
RTVSPropertyOp23
 70
     1
102
RTVSPropertyOp24
 70
     1
102
RTVSPropertyOp25
 70
     1
102
RTVSPropertyOp26
 70
     1
102
RTVSPropertyOp27
 70
     1
  0
XRECORD
  5
2CFA
102
{ACAD_REACTORS
330
2CF9
102
}
330
2CF9
100
AcDbXrecord
280
     1
102
RTVSPropertyOp0
 70
     1
102
RTVSPropertyOp1
 70
     1
102
RTVSPropertyOp2
 70
     1
102
RTVSPropertyOp3
 70
     1
102
RTVSPropertyOp4
 70
     1
102
RTVSPropertyOp5
 70
     1
102
RTVSPropertyOp6
 70
     1
102
RTVSPropertyOp7
 70
     1
102
RTVSPropertyOp8
 70
     1
102
RTVSPropertyOp9
 70
     1
102
RTVSPropertyOp10
 70
     1
102
RTVSPropertyOp11
 70
     1
102
RTVSPropertyOp12
 70
     1
102
RTVSPropertyOp13
 70
     1
102
RTVSPropertyOp14
 70
     1
102
RTVSPropertyOp15
 70
     1
102
RTVSPropertyOp16
 70
     1
102
RTVSPropertyOp17
 70
     1
102
RTVSPropertyOp18
 70
     1
102
RTVSPropertyOp19
 70
     1
102
RTVSPropertyOp20
 70
     1
102
RTVSPropertyOp21
 70
     1
102
RTVSPropertyOp22
 70
     1
102
RTVSPropertyOp23
 70
     1
102
RTVSPropertyOp24
 70
     1
102
RTVSPropertyOp25
 70
     1
102
RTVSPropertyOp26
 70
     1
102
RTVSPropertyOp27
 70
     1
  0
XRECORD
  5
2CF8
102
{ACAD_REACTORS
330
2CF7
102
}
330
2CF7
100
AcDbXrecord
280
     1
102
RTVSPropertyOp0
 70
     1
102
RTVSPropertyOp1
 70
     1
102
RTVSPropertyOp2
 70
     1
102
RTVSPropertyOp3
 70
     1
102
RTVSPropertyOp4
 70
     1
102
RTVSPropertyOp5
 70
     1
102
RTVSPropertyOp6
 70
     1
102
RTVSPropertyOp7
 70
     1
102
RTVSPropertyOp8
 70
     1
102
RTVSPropertyOp9
 70
     1
102
RTVSPropertyOp10
 70
     1
102
RTVSPropertyOp11
 70
     1
102
RTVSPropertyOp12
 70
     1
102
RTVSPropertyOp13
 70
     1
102
RTVSPropertyOp14
 70
     1
102
RTVSPropertyOp15
 70
     1
102
RTVSPropertyOp16
 70
     1
102
RTVSPropertyOp17
 70
     1
102
RTVSPropertyOp18
 70
     1
102
RTVSPropertyOp19
 70
     1
102
RTVSPropertyOp20
 70
     1
102
RTVSPropertyOp21
 70
     1
102
RTVSPropertyOp22
 70
     1
102
RTVSPropertyOp23
 70
     1
102
RTVSPropertyOp24
 70
     1
102
RTVSPropertyOp25
 70
     1
102
RTVSPropertyOp26
 70
     1
102
RTVSPropertyOp27
 70
     1
  0
XRECORD
  5
2CF4
102
{ACAD_REACTORS
330
2CF3
102
}
330
2CF3
100
AcDbXrecord
280
     1
102
RTVSPropertyOp0
 70
     1
102
RTVSPropertyOp1
 70
     1
102
RTVSPropertyOp2
 70
     1
102
RTVSPropertyOp3
 70
     1
102
RTVSPropertyOp4
 70
     1
102
RTVSPropertyOp5
 70
     1
102
RTVSPropertyOp6
 70
     1
102
RTVSPropertyOp7
 70
     1
102
RTVSPropertyOp8
 70
     1
102
RTVSPropertyOp9
 70
     1
102
RTVSPropertyOp10
 70
     1
102
RTVSPropertyOp11
 70
     1
102
RTVSPropertyOp12
 70
     1
102
RTVSPropertyOp13
 70
     1
102
RTVSPropertyOp14
 70
     1
102
RTVSPropertyOp15
 70
     1
102
RTVSPropertyOp16
 70
     1
102
RTVSPropertyOp17
 70
     1
102
RTVSPropertyOp18
 70
     1
102
RTVSPropertyOp19
 70
     1
102
RTVSPropertyOp20
 70
     1
102
RTVSPropertyOp21
 70
     1
102
RTVSPropertyOp22
 70
     1
102
RTVSPropertyOp23
 70
     1
102
RTVSPropertyOp24
 70
     1
102
RTVSPropertyOp25
 70
     1
102
RTVSPropertyOp26
 70
     1
102
RTVSPropertyOp27
 70
     1
  0
XRECORD
  5
2D02
102
{ACAD_REACTORS
330
2D01
102
}
330
2D01
100
AcDbXrecord
280
     1
102
RTVSPropertyOp0
 70
     1
102
RTVSPropertyOp1
 70
     1
102
RTVSPropertyOp2
 70
     1
102
RTVSPropertyOp3
 70
     1
102
RTVSPropertyOp4
 70
     1
102
RTVSPropertyOp5
 70
     1
102
RTVSPropertyOp6
 70
     1
102
RTVSPropertyOp7
 70
     1
102
RTVSPropertyOp8
 70
     1
102
RTVSPropertyOp9
 70
     1
102
RTVSPropertyOp10
 70
     1
102
RTVSPropertyOp11
 70
     1
102
RTVSPropertyOp12
 70
     1
102
RTVSPropertyOp13
 70
     1
102
RTVSPropertyOp14
 70
     1
102
RTVSPropertyOp15
 70
     1
102
RTVSPropertyOp16
 70
     1
102
RTVSPropertyOp17
 70
     1
102
RTVSPropertyOp18
 70
     1
102
RTVSPropertyOp19
 70
     1
102
RTVSPropertyOp20
 70
     1
102
RTVSPropertyOp21
 70
     1
102
RTVSPropertyOp22
 70
     1
102
RTVSPropertyOp23
 70
     1
102
RTVSPropertyOp24
 70
     1
102
RTVSPropertyOp25
 70
     1
102
RTVSPropertyOp26
 70
     1
102
RTVSPropertyOp27
 70
     1
  0
XRECORD
  5
2D0A
102
{ACAD_REACTORS
330
2D09
102
}
330
2D09
100
AcDbXrecord
280
     1
102
RTVSPropertyOp0
 70
     1
102
RTVSPropertyOp1
 70
     1
102
RTVSPropertyOp2
 70
     1
102
RTVSPropertyOp3
 70
     1
102
RTVSPropertyOp4
 70
     1
102
RTVSPropertyOp5
 70
     1
102
RTVSPropertyOp6
 70
     1
102
RTVSPropertyOp7
 70
     1
102
RTVSPropertyOp8
 70
     1
102
RTVSPropertyOp9
 70
     1
102
RTVSPropertyOp10
 70
     1
102
RTVSPropertyOp11
 70
     1
102
RTVSPropertyOp12
 70
     1
102
RTVSPropertyOp13
 70
     1
102
RTVSPropertyOp14
 70
     1
102
RTVSPropertyOp15
 70
     1
102
RTVSPropertyOp16
 70
     1
102
RTVSPropertyOp17
 70
     1
102
RTVSPropertyOp18
 70
     1
102
RTVSPropertyOp19
 70
     1
102
RTVSPropertyOp20
 70
     1
102
RTVSPropertyOp21
 70
     1
102
RTVSPropertyOp22
 70
     1
102
RTVSPropertyOp23
 70
     1
102
RTVSPropertyOp24
 70
     1
102
RTVSPropertyOp25
 70
     1
102
RTVSPropertyOp26
 70
     1
102
RTVSPropertyOp27
 70
     1
  0
XRECORD
  5
2CFC
102
{ACAD_REACTORS
330
2CFB
102
}
330
2CFB
100
AcDbXrecord
280
     1
102
RTVSPropertyOp0
 70
     1
102
RTVSPropertyOp1
 70
     1
102
RTVSPropertyOp2
 70
     1
102
RTVSPropertyOp3
 70
     1
102
RTVSPropertyOp4
 70
     1
102
RTVSPropertyOp5
 70
     1
102
RTVSPropertyOp6
 70
     1
102
RTVSPropertyOp7
 70
     1
102
RTVSPropertyOp8
 70
     1
102
RTVSPropertyOp9
 70
     1
102
RTVSPropertyOp10
 70
     1
102
RTVSPropertyOp11
 70
     1
102
RTVSPropertyOp12
 70
     1
102
RTVSPropertyOp13
 70
     1
102
RTVSPropertyOp14
 70
     1
102
RTVSPropertyOp15
 70
     1
102
RTVSPropertyOp16
 70
     1
102
RTVSPropertyOp17
 70
     1
102
RTVSPropertyOp18
 70
     1
102
RTVSPropertyOp19
 70
     1
102
RTVSPropertyOp20
 70
     1
102
RTVSPropertyOp21
 70
     1
102
RTVSPropertyOp22
 70
     1
102
RTVSPropertyOp23
 70
     1
102
RTVSPropertyOp24
 70
     1
102
RTVSPropertyOp25
 70
     1
102
RTVSPropertyOp26
 70
     1
102
RTVSPropertyOp27
 70
     1
  0
XRECORD
  5
2D00
102
{ACAD_REACTORS
330
2CFF
102
}
330
2CFF
100
AcDbXrecord
280
     1
102
RTVSPropertyOp0
 70
     1
102
RTVSPropertyOp1
 70
     1
102
RTVSPropertyOp2
 70
     1
102
RTVSPropertyOp3
 70
     1
102
RTVSPropertyOp4
 70
     1
102
RTVSPropertyOp5
 70
     1
102
RTVSPropertyOp6
 70
     1
102
RTVSPropertyOp7
 70
     1
102
RTVSPropertyOp8
 70
     1
102
RTVSPropertyOp9
 70
     1
102
RTVSPropertyOp10
 70
     1
102
RTVSPropertyOp11
 70
     1
102
RTVSPropertyOp12
 70
     1
102
RTVSPropertyOp13
 70
     1
102
RTVSPropertyOp14
 70
     1
102
RTVSPropertyOp15
 70
     1
102
RTVSPropertyOp16
 70
     1
102
RTVSPropertyOp17
 70
     1
102
RTVSPropertyOp18
 70
     1
102
RTVSPropertyOp19
 70
     1
102
RTVSPropertyOp20
 70
     1
102
RTVSPropertyOp21
 70
     1
102
RTVSPropertyOp22
 70
     1
102
RTVSPropertyOp23
 70
     1
102
RTVSPropertyOp24
 70
     1
102
RTVSPropertyOp25
 70
     1
102
RTVSPropertyOp26
 70
     1
102
RTVSPropertyOp27
 70
     1
  0
XRECORD
  5
2D10
102
{ACAD_REACTORS
330
2D0F
102
}
330
2D0F
100
AcDbXrecord
280
     1
102
RTVSPropertyOp0
 70
     0
102
RTVSPropertyOp1
 70
     0
102
RTVSPropertyOp2
 70
     0
102
RTVSPropertyOp3
 70
     0
102
RTVSPropertyOp4
 70
     0
102
RTVSPropertyOp5
 70
     0
102
RTVSPropertyOp6
 70
     0
102
RTVSPropertyOp7
 70
     0
102
RTVSPropertyOp8
 70
     0
102
RTVSPropertyOp9
 70
     0
102
RTVSPropertyOp10
 70
     0
102
RTVSPropertyOp11
 70
     0
102
RTVSPropertyOp12
 70
     0
102
RTVSPropertyOp13
 70
     0
102
RTVSPropertyOp14
 70
     2
102
RTVSPropertyOp15
 70
     0
102
RTVSPropertyOp16
 70
     0
102
RTVSPropertyOp17
 70
     0
102
RTVSPropertyOp18
 70
     0
102
RTVSPropertyOp19
 70
     0
102
RTVSPropertyOp20
 70
     0
102
RTVSPropertyOp21
 70
     0
102
RTVSPropertyOp22
 70
     0
102
RTVSPropertyOp23
 70
     0
102
RTVSPropertyOp24
 70
     0
102
RTVSPropertyOp25
 70
     0
102
RTVSPropertyOp26
 70
     0
102
RTVSPropertyOp27
 70
     0
  0
XRECORD
  5
2D08
102
{ACAD_REACTORS
330
2D07
102
}
330
2D07
100
AcDbXrecord
280
     1
102
RTVSPropertyOp0
 70
     1
102
RTVSPropertyOp1
 70
     1
102
RTVSPropertyOp2
 70
     1
102
RTVSPropertyOp3
 70
     1
102
RTVSPropertyOp4
 70
     1
102
RTVSPropertyOp5
 70
     1
102
RTVSPropertyOp6
 70
     1
102
RTVSPropertyOp7
 70
     1
102
RTVSPropertyOp8
 70
     1
102
RTVSPropertyOp9
 70
     1
102
RTVSPropertyOp10
 70
     1
102
RTVSPropertyOp11
 70
     1
102
RTVSPropertyOp12
 70
     1
102
RTVSPropertyOp13
 70
     1
102
RTVSPropertyOp14
 70
     1
102
RTVSPropertyOp15
 70
     1
102
RTVSPropertyOp16
 70
     1
102
RTVSPropertyOp17
 70
     1
102
RTVSPropertyOp18
 70
     1
102
RTVSPropertyOp19
 70
     1
102
RTVSPropertyOp20
 70
     1
102
RTVSPropertyOp21
 70
     1
102
RTVSPropertyOp22
 70
     1
102
RTVSPropertyOp23
 70
     1
102
RTVSPropertyOp24
 70
     1
102
RTVSPropertyOp25
 70
     1
102
RTVSPropertyOp26
 70
     1
102
RTVSPropertyOp27
 70
     1
  0
XRECORD
  5
2CEC
102
{ACAD_REACTORS
330
2CEB
102
}
330
2CEB
100
AcDbXrecord
280
     1
102
RTVSPropertyOp0
 70
     1
102
RTVSPropertyOp1
 70
     1
102
RTVSPropertyOp2
 70
     1
102
RTVSPropertyOp3
 70
     1
102
RTVSPropertyOp4
 70
     1
102
RTVSPropertyOp5
 70
     1
102
RTVSPropertyOp6
 70
     1
102
RTVSPropertyOp7
 70
     1
102
RTVSPropertyOp8
 70
     1
102
RTVSPropertyOp9
 70
     1
102
RTVSPropertyOp10
 70
     1
102
RTVSPropertyOp11
 70
     1
102
RTVSPropertyOp12
 70
     1
102
RTVSPropertyOp13
 70
     1
102
RTVSPropertyOp14
 70
     1
102
RTVSPropertyOp15
 70
     1
102
RTVSPropertyOp16
 70
     1
102
RTVSPropertyOp17
 70
     1
102
RTVSPropertyOp18
 70
     1
102
RTVSPropertyOp19
 70
     1
102
RTVSPropertyOp20
 70
     1
102
RTVSPropertyOp21
 70
     1
102
RTVSPropertyOp22
 70
     1
102
RTVSPropertyOp23
 70
     1
102
RTVSPropertyOp24
 70
     1
102
RTVSPropertyOp25
 70
     1
102
RTVSPropertyOp26
 70
     1
102
RTVSPropertyOp27
 70
     1
  0
XRECORD
  5
2CEE
102
{ACAD_REACTORS
330
2CED
102
}
330
2CED
100
AcDbXrecord
280
     1
102
RTVSPropertyOp0
 70
     1
102
RTVSPropertyOp1
 70
     1
102
RTVSPropertyOp2
 70
     1
102
RTVSPropertyOp3
 70
     1
102
RTVSPropertyOp4
 70
     1
102
RTVSPropertyOp5
 70
     1
102
RTVSPropertyOp6
 70
     1
102
RTVSPropertyOp7
 70
     1
102
RTVSPropertyOp8
 70
     1
102
RTVSPropertyOp9
 70
     1
102
RTVSPropertyOp10
 70
     1
102
RTVSPropertyOp11
 70
     1
102
RTVSPropertyOp12
 70
     1
102
RTVSPropertyOp13
 70
     1
102
RTVSPropertyOp14
 70
     1
102
RTVSPropertyOp15
 70
     1
102
RTVSPropertyOp16
 70
     1
102
RTVSPropertyOp17
 70
     1
102
RTVSPropertyOp18
 70
     1
102
RTVSPropertyOp19
 70
     1
102
RTVSPropertyOp20
 70
     1
102
RTVSPropertyOp21
 70
     1
102
RTVSPropertyOp22
 70
     1
102
RTVSPropertyOp23
 70
     1
102
RTVSPropertyOp24
 70
     1
102
RTVSPropertyOp25
 70
     1
102
RTVSPropertyOp26
 70
     1
102
RTVSPropertyOp27
 70
     1
  0
XRECORD
  5
2CF0
102
{ACAD_REACTORS
330
2CEF
102
}
330
2CEF
100
AcDbXrecord
280
     1
102
RTVSPropertyOp0
 70
     1
102
RTVSPropertyOp1
 70
     1
102
RTVSPropertyOp2
 70
     1
102
RTVSPropertyOp3
 70
     1
102
RTVSPropertyOp4
 70
     1
102
RTVSPropertyOp5
 70
     1
102
RTVSPropertyOp6
 70
     1
102
RTVSPropertyOp7
 70
     1
102
RTVSPropertyOp8
 70
     1
102
RTVSPropertyOp9
 70
     1
102
RTVSPropertyOp10
 70
     1
102
RTVSPropertyOp11
 70
     1
102
RTVSPropertyOp12
 70
     1
102
RTVSPropertyOp13
 70
     1
102
RTVSPropertyOp14
 70
     1
102
RTVSPropertyOp15
 70
     1
102
RTVSPropertyOp16
 70
     1
102
RTVSPropertyOp17
 70
     1
102
RTVSPropertyOp18
 70
     1
102
RTVSPropertyOp19
 70
     1
102
RTVSPropertyOp20
 70
     1
102
RTVSPropertyOp21
 70
     1
102
RTVSPropertyOp22
 70
     1
102
RTVSPropertyOp23
 70
     1
102
RTVSPropertyOp24
 70
     1
102
RTVSPropertyOp25
 70
     1
102
RTVSPropertyOp26
 70
     1
102
RTVSPropertyOp27
 70
     1
  0
XRECORD
  5
2CF2
102
{ACAD_REACTORS
330
2CF1
102
}
330
2CF1
100
AcDbXrecord
280
     1
102
RTVSPropertyOp0
 70
     1
102
RTVSPropertyOp1
 70
     1
102
RTVSPropertyOp2
 70
     1
102
RTVSPropertyOp3
 70
     1
102
RTVSPropertyOp4
 70
     1
102
RTVSPropertyOp5
 70
     1
102
RTVSPropertyOp6
 70
     1
102
RTVSPropertyOp7
 70
     1
102
RTVSPropertyOp8
 70
     1
102
RTVSPropertyOp9
 70
     1
102
RTVSPropertyOp10
 70
     1
102
RTVSPropertyOp11
 70
     1
102
RTVSPropertyOp12
 70
     1
102
RTVSPropertyOp13
 70
     1
102
RTVSPropertyOp14
 70
     1
102
RTVSPropertyOp15
 70
     1
102
RTVSPropertyOp16
 70
     1
102
RTVSPropertyOp17
 70
     1
102
RTVSPropertyOp18
 70
     1
102
RTVSPropertyOp19
 70
     1
102
RTVSPropertyOp20
 70
     1
102
RTVSPropertyOp21
 70
     1
102
RTVSPropertyOp22
 70
     1
102
RTVSPropertyOp23
 70
     1
102
RTVSPropertyOp24
 70
     1
102
RTVSPropertyOp25
 70
     1
102
RTVSPropertyOp26
 70
     1
102
RTVSPropertyOp27
 70
     1
  0
XRECORD
  5
2D0C
102
{ACAD_REACTORS
330
2D0B
102
}
330
2D0B
100
AcDbXrecord
280
     1
102
RTVSPropertyOp0
 70
     0
102
RTVSPropertyOp1
 70
     0
102
RTVSPropertyOp2
 70
     0
102
RTVSPropertyOp3
 70
     0
102
RTVSPropertyOp4
 70
     0
102
RTVSPropertyOp5
 70
     0
102
RTVSPropertyOp6
 70
     0
102
RTVSPropertyOp7
 70
     0
102
RTVSPropertyOp8
 70
     0
102
RTVSPropertyOp9
 70
     0
102
RTVSPropertyOp10
 70
     0
102
RTVSPropertyOp11
 70
     0
102
RTVSPropertyOp12
 70
     0
102
RTVSPropertyOp13
 70
     0
102
RTVSPropertyOp14
 70
     2
102
RTVSPropertyOp15
 70
     0
102
RTVSPropertyOp16
 70
     0
102
RTVSPropertyOp17
 70
     0
102
RTVSPropertyOp18
 70
     0
102
RTVSPropertyOp19
 70
     0
102
RTVSPropertyOp20
 70
     0
102
RTVSPropertyOp21
 70
     0
102
RTVSPropertyOp22
 70
     0
102
RTVSPropertyOp23
 70
     0
102
RTVSPropertyOp24
 70
     0
102
RTVSPropertyOp25
 70
     0
102
RTVSPropertyOp26
 70
     0
102
RTVSPropertyOp27
 70
     0
  0
XRECORD
  5
2D06
102
{ACAD_REACTORS
330
2D05
102
}
330
2D05
100
AcDbXrecord
280
     1
102
RTVSPropertyOp0
 70
     1
102
RTVSPropertyOp1
 70
     1
102
RTVSPropertyOp2
 70
     1
102
RTVSPropertyOp3
 70
     1
102
RTVSPropertyOp4
 70
     1
102
RTVSPropertyOp5
 70
     1
102
RTVSPropertyOp6
 70
     1
102
RTVSPropertyOp7
 70
     1
102
RTVSPropertyOp8
 70
     1
102
RTVSPropertyOp9
 70
     1
102
RTVSPropertyOp10
 70
     1
102
RTVSPropertyOp11
 70
     1
102
RTVSPropertyOp12
 70
     1
102
RTVSPropertyOp13
 70
     1
102
RTVSPropertyOp14
 70
     1
102
RTVSPropertyOp15
 70
     1
102
RTVSPropertyOp16
 70
     1
102
RTVSPropertyOp17
 70
     1
102
RTVSPropertyOp18
 70
     1
102
RTVSPropertyOp19
 70
     1
102
RTVSPropertyOp20
 70
     1
102
RTVSPropertyOp21
 70
     1
102
RTVSPropertyOp22
 70
     1
102
RTVSPropertyOp23
 70
     1
102
RTVSPropertyOp24
 70
     1
102
RTVSPropertyOp25
 70
     1
102
RTVSPropertyOp26
 70
     1
102
RTVSPropertyOp27
 70
     1
  0
XRECORD
  5
2D0E
102
{ACAD_REACTORS
330
2D0D
102
}
330
2D0D
100
AcDbXrecord
280
     1
102
RTVSPropertyOp0
 70
     0
102
RTVSPropertyOp1
 70
     0
102
RTVSPropertyOp2
 70
     0
102
RTVSPropertyOp3
 70
     0
102
RTVSPropertyOp4
 70
     0
102
RTVSPropertyOp5
 70
     0
102
RTVSPropertyOp6
 70
     0
102
RTVSPropertyOp7
 70
     0
102
RTVSPropertyOp8
 70
     0
102
RTVSPropertyOp9
 70
     0
102
RTVSPropertyOp10
 70
     0
102
RTVSPropertyOp11
 70
     0
102
RTVSPropertyOp12
 70
     0
102
RTVSPropertyOp13
 70
     0
102
RTVSPropertyOp14
 70
     2
102
RTVSPropertyOp15
 70
     0
102
RTVSPropertyOp16
 70
     0
102
RTVSPropertyOp17
 70
     0
102
RTVSPropertyOp18
 70
     0
102
RTVSPropertyOp19
 70
     0
102
RTVSPropertyOp20
 70
     0
102
RTVSPropertyOp21
 70
     0
102
RTVSPropertyOp22
 70
     0
102
RTVSPropertyOp23
 70
     0
102
RTVSPropertyOp24
 70
     0
102
RTVSPropertyOp25
 70
     0
102
RTVSPropertyOp26
 70
     0
102
RTVSPropertyOp27
 70
     0
  0
XRECORD
  5
2CFE
102
{ACAD_REACTORS
330
2CFD
102
}
330
2CFD
100
AcDbXrecord
280
     1
102
RTVSPropertyOp0
 70
     1
102
RTVSPropertyOp1
 70
     1
102
RTVSPropertyOp2
 70
     1
102
RTVSPropertyOp3
 70
     1
102
RTVSPropertyOp4
 70
     1
102
RTVSPropertyOp5
 70
     1
102
RTVSPropertyOp6
 70
     1
102
RTVSPropertyOp7
 70
     1
102
RTVSPropertyOp8
 70
     1
102
RTVSPropertyOp9
 70
     1
102
RTVSPropertyOp10
 70
     1
102
RTVSPropertyOp11
 70
     1
102
RTVSPropertyOp12
 70
     1
102
RTVSPropertyOp13
 70
     1
102
RTVSPropertyOp14
 70
     1
102
RTVSPropertyOp15
 70
     1
102
RTVSPropertyOp16
 70
     1
102
RTVSPropertyOp17
 70
     1
102
RTVSPropertyOp18
 70
     1
102
RTVSPropertyOp19
 70
     1
102
RTVSPropertyOp20
 70
     1
102
RTVSPropertyOp21
 70
     1
102
RTVSPropertyOp22
 70
     1
102
RTVSPropertyOp23
 70
     1
102
RTVSPropertyOp24
 70
     1
102
RTVSPropertyOp25
 70
     1
102
RTVSPropertyOp26
 70
     1
102
RTVSPropertyOp27
 70
     1
  0
XRECORD
  5
2D04
102
{ACAD_REACTORS
330
2D03
102
}
330
2D03
100
AcDbXrecord
280
     1
102
RTVSPropertyOp0
 70
     1
102
RTVSPropertyOp1
 70
     1
102
RTVSPropertyOp2
 70
     1
102
RTVSPropertyOp3
 70
     1
102
RTVSPropertyOp4
 70
     1
102
RTVSPropertyOp5
 70
     1
102
RTVSPropertyOp6
 70
     1
102
RTVSPropertyOp7
 70
     1
102
RTVSPropertyOp8
 70
     1
102
RTVSPropertyOp9
 70
     1
102
RTVSPropertyOp10
 70
     1
102
RTVSPropertyOp11
 70
     1
102
RTVSPropertyOp12
 70
     1
102
RTVSPropertyOp13
 70
     1
102
RTVSPropertyOp14
 70
     1
102
RTVSPropertyOp15
 70
     1
102
RTVSPropertyOp16
 70
     1
102
RTVSPropertyOp17
 70
     1
102
RTVSPropertyOp18
 70
     1
102
RTVSPropertyOp19
 70
     1
102
RTVSPropertyOp20
 70
     1
102
RTVSPropertyOp21
 70
     1
102
RTVSPropertyOp22
 70
     1
102
RTVSPropertyOp23
 70
     1
102
RTVSPropertyOp24
 70
     1
102
RTVSPropertyOp25
 70
     1
102
RTVSPropertyOp26
 70
     1
102
RTVSPropertyOp27
 70
     1
  0
ENDSEC
  0
EOF
