  0
SECTION
  2
HEADER
  9
$ACADVER
  1
AC1015
  9
$ACADMAINTVER
 70
    20
  9
$DWGCODEPAGE
  3
ANSI_1252
  9
$INSBASE
 10
0.0
 20
0.0
 30
0.0
  9
$EXTMIN
 10
626.6109787859877
 20
1216.253308129652
 30
-0.0000000017937957
  9
$EXTMAX
 10
628.8475554720228
 20
1218.103308129652
 30
0.0000000002002489
  9
$LIMMIN
 10
0.0
 20
0.0
  9
$LIMMAX
 10
420.0
 20
297.0
  9
$ORTHOMODE
 70
     1
  9
$REGENMODE
 70
     1
  9
$FILLMODE
 70
     1
  9
$QTEXTMODE
 70
     0
  9
$MIRRTEXT
 70
     1
  9
$LTSCALE
 40
1.0
  9
$ATTMODE
 70
     1
  9
$TEXTSIZE
 40
2.5
  9
$TRACEWID
 40
1.0
  9
$TEXTSTYLE
  7
SANINDUSA
  9
$CLAYER
  8
cotas
  9
$CELTYPE
  6
ByLayer
  9
$CECOLOR
 62
   256
  9
$CELTSCALE
 40
1.0
  9
$DISPSILH
 70
     0
  9
$DIMSCALE
 40
1.0
  9
$DIMASZ
 40
2.0
  9
$DIMEXO
 40
1.0
  9
$DIMDLI
 40
1.0
  9
$DIMRND
 40
0.0
  9
$DIMDLE
 40
0.0
  9
$DIMEXE
 40
1.0
  9
$DIMTP
 40
0.0
  9
$DIMTM
 40
0.0
  9
$DIMTXT
 40
2.0
  9
$DIMCEN
 40
0.0
  9
$DIMTSZ
 40
0.0
  9
$DIMTOL
 70
     0
  9
$DIMLIM
 70
     0
  9
$DIMTIH
 70
     0
  9
$DIMTOH
 70
     0
  9
$DIMSE1
 70
     0
  9
$DIMSE2
 70
     0
  9
$DIMTAD
 70
     1
  9
$DIMZIN
 70
     8
  9
$DIMBLK
  1

  9
$DIMASO
 70
     1
  9
$DIMSHO
 70
     1
  9
$DIMPOST
  1

  9
$DIMAPOST
  1

  9
$DIMALT
 70
     0
  9
$DIMALTD
 70
     3
  9
$DIMALTF
 40
0.03937007874016
  9
$DIMLFAC
 40
1.0
  9
$DIMTOFL
 70
     1
  9
$DIMTVP
 40
0.0
  9
$DIMTIX
 70
     0
  9
$DIMSOXD
 70
     0
  9
$DIMSAH
 70
     0
  9
$DIMBLK1
  1

  9
$DIMBLK2
  1

  9
$DIMSTYLE
  2
SANINDUSA
  9
$DIMCLRD
 70
   256
  9
$DIMCLRE
 70
   256
  9
$DIMCLRT
 70
   256
  9
$DIMTFAC
 40
1.0
  9
$DIMGAP
 40
1.0
  9
$DIMJUST
 70
     0
  9
$DIMSD1
 70
     0
  9
$DIMSD2
 70
     0
  9
$DIMTOLJ
 70
     0
  9
$DIMTZIN
 70
     8
  9
$DIMALTZ
 70
     0
  9
$DIMALTTZ
 70
     0
  9
$DIMUPT
 70
     0
  9
$DIMDEC
 70
     1
  9
$DIMTDEC
 70
     1
  9
$DIMALTU
 70
     2
  9
$DIMALTTD
 70
     3
  9
$DIMTXSTY
  7
SANINDUSA
  9
$DIMAUNIT
 70
     0
  9
$DIMADEC
 70
     1
  9
$DIMALTRND
 40
0.0
  9
$DIMAZIN
 70
     0
  9
$DIMDSEP
 70
    44
  9
$DIMATFIT
 70
     3
  9
$DIMFRAC
 70
     0
  9
$DIMLDRBLK
  1

  9
$DIMLUNIT
 70
     2
  9
$DIMLWD
 70
    -1
  9
$DIMLWE
 70
    -1
  9
$DIMTMOVE
 70
     0
  9
$LUNITS
 70
     2
  9
$LUPREC
 70
     4
  9
$SKETCHINC
 40
1.0
  9
$FILLETRAD
 40
0.0
  9
$AUNITS
 70
     0
  9
$AUPREC
 70
     0
  9
$MENU
  1
.
  9
$ELEVATION
 40
0.0
  9
$PELEVATION
 40
0.0
  9
$THICKNESS
 40
0.0
  9
$LIMCHECK
 70
     0
  9
$CHAMFERA
 40
10.0
  9
$CHAMFERB
 40
10.0
  9
$CHAMFERC
 40
20.0
  9
$CHAMFERD
 40
0.0
  9
$SKPOLY
 70
     0
  9
$TDCREATE
 40
2453318.800715417
  9
$TDUCREATE
 40
2453318.759048750
  9
$TDUPDATE
 40
2455824.524319838
  9
$TDUUPDATE
 40
2455824.482653171
  9
$TDINDWG
 40
0.0191087847
  9
$TDUSRTIMER
 40
0.0191087847
  9
$USRTIMER
 70
     1
  9
$ANGBASE
 50
0.0
  9
$ANGDIR
 70
     0
  9
$PDMODE
 70
     0
  9
$PDSIZE
 40
0.0
  9
$PLINEWID
 40
0.0
  9
$SPLFRAME
 70
     0
  9
$SPLINETYPE
 70
     6
  9
$SPLINESEGS
 70
     8
  9
$HANDSEED
  5
1AD2
  9
$SURFTAB1
 70
     6
  9
$SURFTAB2
 70
     6
  9
$SURFTYPE
 70
     6
  9
$SURFU
 70
     6
  9
$SURFV
 70
     6
  9
$UCSBASE
  2

  9
$UCSNAME
  2

  9
$UCSORG
 10
0.0
 20
0.0
 30
0.0
  9
$UCSXDIR
 10
1.0
 20
0.0
 30
0.0
  9
$UCSYDIR
 10
0.0
 20
1.0
 30
0.0
  9
$UCSORTHOREF
  2

  9
$UCSORTHOVIEW
 70
     0
  9
$UCSORGTOP
 10
0.0
 20
0.0
 30
0.0
  9
$UCSORGBOTTOM
 10
0.0
 20
0.0
 30
0.0
  9
$UCSORGLEFT
 10
0.0
 20
0.0
 30
0.0
  9
$UCSORGRIGHT
 10
0.0
 20
0.0
 30
0.0
  9
$UCSORGFRONT
 10
0.0
 20
0.0
 30
0.0
  9
$UCSORGBACK
 10
0.0
 20
0.0
 30
0.0
  9
$PUCSBASE
  2

  9
$PUCSNAME
  2

  9
$PUCSORG
 10
0.0
 20
0.0
 30
0.0
  9
$PUCSXDIR
 10
1.0
 20
0.0
 30
0.0
  9
$PUCSYDIR
 10
0.0
 20
1.0
 30
0.0
  9
$PUCSORTHOREF
  2

  9
$PUCSORTHOVIEW
 70
     0
  9
$PUCSORGTOP
 10
0.0
 20
0.0
 30
0.0
  9
$PUCSORGBOTTOM
 10
0.0
 20
0.0
 30
0.0
  9
$PUCSORGLEFT
 10
0.0
 20
0.0
 30
0.0
  9
$PUCSORGRIGHT
 10
0.0
 20
0.0
 30
0.0
  9
$PUCSORGFRONT
 10
0.0
 20
0.0
 30
0.0
  9
$PUCSORGBACK
 10
0.0
 20
0.0
 30
0.0
  9
$USERI1
 70
     0
  9
$USERI2
 70
     0
  9
$USERI3
 70
     0
  9
$USERI4
 70
     0
  9
$USERI5
 70
     0
  9
$USERR1
 40
0.0
  9
$USERR2
 40
0.0
  9
$USERR3
 40
0.0
  9
$USERR4
 40
0.0
  9
$USERR5
 40
0.0
  9
$WORLDVIEW
 70
     1
  9
$SHADEDGE
 70
     3
  9
$SHADEDIF
 70
    70
  9
$TILEMODE
 70
     1
  9
$MAXACTVP
 70
    64
  9
$PINSBASE
 10
0.0
 20
0.0
 30
0.0
  9
$PLIMCHECK
 70
     0
  9
$PEXTMIN
 10
1.000000000000000E+20
 20
1.000000000000000E+20
 30
1.000000000000000E+20
  9
$PEXTMAX
 10
-1.000000000000000E+20
 20
-1.000000000000000E+20
 30
-1.000000000000000E+20
  9
$PLIMMIN
 10
0.0
 20
0.0
  9
$PLIMMAX
 10
420.0
 20
297.0
  9
$UNITMODE
 70
     0
  9
$VISRETAIN
 70
     1
  9
$PLINEGEN
 70
     0
  9
$PSLTSCALE
 70
     1
  9
$TREEDEPTH
 70
  3020
  9
$CMLSTYLE
  2
Standard
  9
$CMLJUST
 70
     0
  9
$CMLSCALE
 40
20.0
  9
$PROXYGRAPHICS
 70
     1
  9
$MEASUREMENT
 70
     1
  9
$CELWEIGHT
370
    -1
  9
$ENDCAPS
280
     0
  9
$JOINSTYLE
280
     0
  9
$LWDISPLAY
290
     0
  9
$INSUNITS
 70
     4
  9
$HYPERLINKBASE
  1

  9
$STYLESHEET
  1
monochrome.ctb
  9
$XEDIT
290
     1
  9
$CEPSNTYPE
380
     0
  9
$PSTYLEMODE
290
     1
  9
$FINGERPRINTGUID
  2
{B98A73AA-52AA-4C10-B469-C0E7150AC31F}
  9
$VERSIONGUID
  2
{10759CB6-48E5-4F37-A3EE-EF4C250C4189}
  9
$EXTNAMES
290
     1
  9
$PSVPSCALE
 40
0.0
  9
$OLESTARTUP
290
     0
  0
ENDSEC
  0
SECTION
  2
CLASSES
  0
CLASS
  1
ACDBDICTIONARYWDFLT
  2
AcDbDictionaryWithDefault
  3
ObjectDBX Classes
 90
        0
280
     0
281
     0
  0
CLASS
  1
ACDBPLACEHOLDER
  2
AcDbPlaceHolder
  3
ObjectDBX Classes
 90
        0
280
     0
281
     0
  0
CLASS
  1
LAYOUT
  2
AcDbLayout
  3
ObjectDBX Classes
 90
        0
280
     0
281
     0
  0
CLASS
  1
DICTIONARYVAR
  2
AcDbDictionaryVar
  3
ObjectDBX Classes
 90
        0
280
     0
281
     0
  0
CLASS
  1
DIMASSOC
  2
AcDbDimAssoc
  3
"AcDbDimAssoc|Product Desc:     AcDim ARX App For Dimension|Company:          Autodesk, Inc.|WEB Address:      www.autodesk.com"
 90
        0
280
     0
281
     0
  0
CLASS
  1
MATERIAL
  2
AcDbMaterial
  3
ObjectDBX Classes
 90
     1153
280
     0
281
     0
  0
CLASS
  1
VISUALSTYLE
  2
AcDbVisualStyle
  3
ObjectDBX Classes
 90
     4095
280
     0
281
     0
  0
CLASS
  1
TABLESTYLE
  2
AcDbTableStyle
  3
ObjectDBX Classes
 90
     4095
280
     0
281
     0
  0
CLASS
  1
SCALE
  2
AcDbScale
  3
ObjectDBX Classes
 90
     1153
280
     0
281
     0
  0
CLASS
  1
MLEADERSTYLE
  2
AcDbMLeaderStyle
  3
ACDB_MLEADERSTYLE_CLASS
 90
     4095
280
     0
281
     0
  0
CLASS
  1
CELLSTYLEMAP
  2
AcDbCellStyleMap
  3
ObjectDBX Classes
 90
     1152
280
     0
281
     0
  0
ENDSEC
  0
SECTION
  2
TABLES
  0
TABLE
  2
VPORT
  5
8
330
0
100
AcDbSymbolTable
 70
     1
  0
VPORT
  5
19B6
330
8
100
AcDbSymbolTableRecord
100
AcDbViewportTableRecord
  2
*Active
 70
     0
 10
0.0
 20
0.0
 11
1.0
 21
1.0
 12
627.7292671290052
 22
1217.178308129652
 13
0.0
 23
0.0
 14
10.0
 24
10.0
 15
10.0
 25
10.0
 16
0.0
 26
0.0
 36
1.0
 17
0.0
 27
0.0
 37
0.0
 40
1.861562499999763
 41
1.645464025026068
 42
50.0
 43
0.0
 44
0.0
 50
0.0
 51
0.0
 71
     0
 72
   100
 73
     1
 74
     2
 75
     0
 76
     0
 77
     0
 78
     0
281
     0
 65
     1
110
0.0
120
0.0
130
0.0
111
1.0
121
0.0
131
0.0
112
0.0
122
1.0
132
0.0
 79
     0
146
0.0
  0
ENDTAB
  0
TABLE
  2
LTYPE
  5
5
330
0
100
AcDbSymbolTable
 70
     5
  0
LTYPE
  5
14
330
5
100
AcDbSymbolTableRecord
100
AcDbLinetypeTableRecord
  2
ByBlock
 70
     0
  3

 72
    65
 73
     0
 40
0.0
  0
LTYPE
  5
15
330
5
100
AcDbSymbolTableRecord
100
AcDbLinetypeTableRecord
  2
ByLayer
 70
     0
  3

 72
    65
 73
     0
 40
0.0
  0
LTYPE
  5
16
330
5
100
AcDbSymbolTableRecord
100
AcDbLinetypeTableRecord
  2
Continuous
 70
     0
  3
Solid line
 72
    65
 73
     0
 40
0.0
  0
LTYPE
  5
2D
330
5
100
AcDbSymbolTableRecord
100
AcDbLinetypeTableRecord
  2
DASHDOT
 70
     0
  3
Dash dot __ . __ . __ . __ . __ . __ . __ . __
 72
    65
 73
     4
 40
25.4
 49
12.7
 74
     0
 49
-6.349999999999999
 74
     0
 49
0.0
 74
     0
 49
-6.349999999999999
 74
     0
  0
LTYPE
  5
2E
330
5
100
AcDbSymbolTableRecord
100
AcDbLinetypeTableRecord
  2
HIDDEN
 70
     0
  3
Hidden __ __ __ __ __ __ __ __ __ __ __ __ __ _
 72
    65
 73
     2
 40
9.524999999999998
 49
6.349999999999999
 74
     0
 49
-3.174999999999999
 74
     0
  0
LTYPE
  5
C16
330
5
100
AcDbSymbolTableRecord
100
AcDbLinetypeTableRecord
  2
CENTER
 70
     0
  3
____ _ ____ _ ____ _ ____ _ ____ _ ____ _ ____ 
 72
    65
 73
     4
 40
2.0
 49
1.25
 74
     0
 49
-0.25
 74
     0
 49
0.25
 74
     0
 49
-0.25
 74
     0
  0
ENDTAB
  0
TABLE
  2
LAYER
  5
2
330
0
100
AcDbSymbolTable
 70
    17
  0
LAYER
  5
10
102
{ACAD_XDICTIONARY
360
1A3A
102
}
330
2
100
AcDbSymbolTableRecord
100
AcDbLayerTableRecord
  2
0
 70
     0
 62
     7
  6
Continuous
370
    -3
390
F
  0
LAYER
  5
2F
102
{ACAD_XDICTIONARY
360
1A3C
102
}
330
2
100
AcDbSymbolTableRecord
100
AcDbLayerTableRecord
  2
1
 70
     0
 62
     1
  6
Continuous
370
    -3
390
F
  0
LAYER
  5
30
102
{ACAD_XDICTIONARY
360
1A3E
102
}
330
2
100
AcDbSymbolTableRecord
100
AcDbLayerTableRecord
  2
2
 70
     0
 62
     2
  6
Continuous
370
    -3
390
F
  0
LAYER
  5
31
102
{ACAD_XDICTIONARY
360
1A40
102
}
330
2
100
AcDbSymbolTableRecord
100
AcDbLayerTableRecord
  2
3
 70
     0
 62
     3
  6
Continuous
370
    -3
390
F
  0
LAYER
  5
32
102
{ACAD_XDICTIONARY
360
1A42
102
}
330
2
100
AcDbSymbolTableRecord
100
AcDbLayerTableRecord
  2
4
 70
     0
 62
     4
  6
Continuous
370
    -3
390
F
  0
LAYER
  5
33
102
{ACAD_XDICTIONARY
360
1A44
102
}
330
2
100
AcDbSymbolTableRecord
100
AcDbLayerTableRecord
  2
5
 70
     0
 62
     5
  6
Continuous
370
    -3
390
F
  0
LAYER
  5
34
102
{ACAD_XDICTIONARY
360
1A46
102
}
330
2
100
AcDbSymbolTableRecord
100
AcDbLayerTableRecord
  2
6
 70
     0
 62
     6
  6
Continuous
370
    -3
390
F
  0
LAYER
  5
35
102
{ACAD_XDICTIONARY
360
1A48
102
}
330
2
100
AcDbSymbolTableRecord
100
AcDbLayerTableRecord
  2
7
 70
     0
 62
     7
  6
Continuous
370
    -3
390
F
  0
LAYER
  5
36
102
{ACAD_XDICTIONARY
360
1A4A
102
}
330
2
100
AcDbSymbolTableRecord
100
AcDbLayerTableRecord
  2
cen
 70
     0
 62
     7
  6
DASHDOT
370
    -3
390
F
  0
LAYER
  5
37
102
{ACAD_XDICTIONARY
360
1A4C
102
}
330
2
100
AcDbSymbolTableRecord
100
AcDbLayerTableRecord
  2
hid
 70
     0
 62
     7
  6
HIDDEN
370
    -3
390
F
  0
LAYER
  5
5D6
102
{ACAD_XDICTIONARY
360
1A4E
102
}
330
2
100
AcDbSymbolTableRecord
100
AcDbLayerTableRecord
  2
hatch
 70
     0
 62
     9
  6
Continuous
370
    -3
390
F
  0
LAYER
  5
8AF
102
{ACAD_XDICTIONARY
360
1A50
102
}
330
2
100
AcDbSymbolTableRecord
100
AcDbLayerTableRecord
  2
9
 70
     0
 62
     9
  6
Continuous
370
    -3
390
F
  0
LAYER
  5
8F8
102
{ACAD_XDICTIONARY
360
1A52
102
}
330
2
100
AcDbSymbolTableRecord
100
AcDbLayerTableRecord
  2
leg fin
 70
     0
 62
     9
  6
Continuous
370
    -3
390
F
  0
LAYER
  5
91D
102
{ACAD_XDICTIONARY
360
1A54
102
}
330
2
100
AcDbSymbolTableRecord
100
AcDbLayerTableRecord
  2
cotas
 70
     0
 62
     1
  6
Continuous
370
    -3
390
F
  0
LAYER
  5
92F
330
2
100
AcDbSymbolTableRecord
100
AcDbLayerTableRecord
  2
Defpoints
 70
     0
 62
     7
  6
Continuous
290
     0
370
    -3
390
F
  0
LAYER
  5
C17
102
{ACAD_XDICTIONARY
360
1A56
102
}
330
2
100
AcDbSymbolTableRecord
100
AcDbLayerTableRecord
  2
quote
 70
     0
 62
     7
  6
Continuous
370
    18
390
F
  0
LAYER
  5
1A21
102
{ACAD_XDICTIONARY
360
1A58
102
}
330
2
100
AcDbSymbolTableRecord
100
AcDbLayerTableRecord
  2
SANINDUSA
 70
     0
 62
     3
  6
Continuous
370
    -3
390
F
  0
ENDTAB
  0
TABLE
  2
STYLE
  5
3
330
0
100
AcDbSymbolTable
 70
     3
  0
STYLE
  5
11
330
3
100
AcDbSymbolTableRecord
100
AcDbTextStyleTableRecord
  2
Standard
 70
     0
 40
0.0
 41
1.0
 50
0.0
 71
     0
 42
2.5
  3
Avgardn.ttf
  4

1001
ACAD
1000
AvantGarde Bk BT
1071
       34
  0
STYLE
  5
2C
330
3
100
AcDbSymbolTableRecord
100
AcDbTextStyleTableRecord
  2

 70
     1
 40
0.0
 41
1.0
 50
0.0
 71
     0
 42
2.5
  3
ltypeshp.shx
  4

  0
STYLE
  5
91F
330
3
100
AcDbSymbolTableRecord
100
AcDbTextStyleTableRecord
  2
SANINDUSA
 70
     0
 40
0.0
 41
1.0
 50
0.0
 71
     0
 42
2.5
  3
verdana.TTF
  4

1001
ACAD
1000
Verdana
1071
       34
  0
ENDTAB
  0
TABLE
  2
VIEW
  5
6
330
0
100
AcDbSymbolTable
 70
     0
  0
ENDTAB
  0
TABLE
  2
UCS
  5
7
330
0
100
AcDbSymbolTable
 70
     0
  0
ENDTAB
  0
TABLE
  2
APPID
  5
9
330
0
100
AcDbSymbolTable
 70
     7
  0
APPID
  5
12
330
9
100
AcDbSymbolTableRecord
100
AcDbRegAppTableRecord
  2
ACAD
 70
     0
  0
APPID
  5
3A
330
9
100
AcDbSymbolTableRecord
100
AcDbRegAppTableRecord
  2
DCO15
 70
     0
  0
APPID
  5
C19
330
9
100
AcDbSymbolTableRecord
100
AcDbRegAppTableRecord
  2
GENIUS_GENREC_14
 70
     0
  0
APPID
  5
C1A
330
9
100
AcDbSymbolTableRecord
100
AcDbRegAppTableRecord
  2
GENIUS_GENODEF_13
 70
     0
  0
APPID
  5
C1B
330
9
100
AcDbSymbolTableRecord
100
AcDbRegAppTableRecord
  2
GENIUS_GENOBJ-N-REC_13
 70
     0
  0
APPID
  5
1A02
330
9
100
AcDbSymbolTableRecord
100
AcDbRegAppTableRecord
  2
ACAD_EXEMPT_FROM_CAD_STANDARDS
 70
     0
  0
APPID
  5
1AD1
330
9
100
AcDbSymbolTableRecord
100
AcDbRegAppTableRecord
  2
ACAD_MLEADERVER
 70
     0
  0
ENDTAB
  0
TABLE
  2
DIMSTYLE
  5
A
330
0
100
AcDbSymbolTable
 70
     4
100
AcDbDimStyleTable
 71
     1
340
921
  0
DIMSTYLE
105
45
330
A
100
AcDbSymbolTableRecord
100
AcDbDimStyleTableRecord
  2
STANDARD
 70
     0
289
     0
340
11
  0
DIMSTYLE
105
921
330
A
100
AcDbSymbolTableRecord
100
AcDbDimStyleTableRecord
  2
SANINDUSA
 70
     0
 41
2.0
 42
1.0
 43
1.0
 44
1.0
 73
     0
 74
     0
 77
     1
 78
     8
140
2.0
141
0.0
143
0.03937007874016
147
1.0
171
     3
172
     1
176
   256
177
   256
178
   256
179
     1
271
     1
272
     1
274
     3
278
    44
283
     0
284
     8
340
91F
371
    -1
372
    -1
  0
DIMSTYLE
105
C18
330
A
100
AcDbSymbolTableRecord
100
AcDbDimStyleTableRecord
  2
ISO-25
 70
     0
 40
5.0
 41
2.5
 42
0.625
 43
3.75
 44
1.25
 73
     0
 74
     0
 77
     1
 78
     8
140
2.5
141
2.5
143
0.03937007874016
147
0.625
171
     3
172
     1
271
     0
272
     0
274
     3
278
    44
283
     0
284
     8
340
11
  0
ENDTAB
  0
TABLE
  2
BLOCK_RECORD
  5
1
330
0
100
AcDbSymbolTable
 70
    33
  0
BLOCK_RECORD
  5
1F
330
1
100
AcDbSymbolTableRecord
100
AcDbBlockTableRecord
  2
*Model_Space
340
22
  0
BLOCK_RECORD
  5
1B
330
1
100
AcDbSymbolTableRecord
100
AcDbBlockTableRecord
  2
*Paper_Space
340
1E
  0
BLOCK_RECORD
  5
23
330
1
100
AcDbSymbolTableRecord
100
AcDbBlockTableRecord
  2
*Paper_Space0
340
26
  0
BLOCK_RECORD
  5
919
330
1
100
AcDbSymbolTableRecord
100
AcDbBlockTableRecord
  2
_DotSmall
340
0
  0
BLOCK_RECORD
  5
922
330
1
100
AcDbSymbolTableRecord
100
AcDbBlockTableRecord
  2
base para cotas
340
0
310
2800000020000000200000000100080000000000000400000000000000000000000000000000000000000000000080000080000000808000800000008000800080800000C0C0C000C0DCC000F0CAA6000020400000206000002080000020A0000020C0000020E00000400000004020000040400000406000004080000040A0
310
000040C0000040E00000600000006020000060400000606000006080000060A0000060C0000060E00000800000008020000080400000806000008080000080A0000080C0000080E00000A0000000A0200000A0400000A0600000A0800000A0A00000A0C00000A0E00000C0000000C0200000C0400000C0600000C0800000C0
310
A00000C0C00000C0E00000E0000000E0200000E0400000E0600000E0800000E0A00000E0C00000E0E00040000000400020004000400040006000400080004000A0004000C0004000E00040200000402020004020400040206000402080004020A0004020C0004020E000404000004040200040404000404060004040800040
310
40A0004040C0004040E00040600000406020004060400040606000406080004060A0004060C0004060E00040800000408020004080400040806000408080004080A0004080C0004080E00040A0000040A0200040A0400040A0600040A0800040A0A00040A0C00040A0E00040C0000040C0200040C0400040C0600040C08000
310
40C0A00040C0C00040C0E00040E0000040E0200040E0400040E0600040E0800040E0A00040E0C00040E0E00080000000800020008000400080006000800080008000A0008000C0008000E00080200000802020008020400080206000802080008020A0008020C0008020E00080400000804020008040400080406000804080
310
008040A0008040C0008040E00080600000806020008060400080606000806080008060A0008060C0008060E00080800000808020008080400080806000808080008080A0008080C0008080E00080A0000080A0200080A0400080A0600080A0800080A0A00080A0C00080A0E00080C0000080C0200080C0400080C0600080C0
310
800080C0A00080C0C00080C0E00080E0000080E0200080E0400080E0600080E0800080E0A00080E0C00080E0E000C0000000C0002000C0004000C0006000C0008000C000A000C000C000C000E000C0200000C0202000C0204000C0206000C0208000C020A000C020C000C020E000C0400000C0402000C0404000C0406000C0
310
408000C040A000C040C000C040E000C0600000C0602000C0604000C0606000C0608000C060A000C060C000C060E000C0800000C0802000C0804000C0806000C0808000C080A000C080C000C080E000C0A00000C0A02000C0A04000C0A06000C0A08000C0A0A000C0A0C000C0A0E000C0C00000C0C02000C0C04000C0C06000
310
C0C08000C0C0A000F0FBFF00A4A0A000808080000000FF0000FF000000FFFF00FF000000FF00FF00FFFF0000FFFFFF00A4A4A4A4A4A4A4A4A4A4A4A4A4A4A4A4A4A4A4A4A4A4A4A4A4A4A4A4A4A4A4A4A4A4A4A4A4A4A4A4A4A4A4A4A4A4A4A4A4A4A4A4A4A4A4A4A4A4A4A4A4A4A4A4A4A4A4A4A4A4A4A4A4A4A4A4A4A4A4
310
A4A4A4A4A4A4A4A4A4A4A4A4A4A4A4A4A4A4A4A4A4A4A4A4A4A4A4A4A4A4A4A4A4A4A4A4A4A4A4A4A4A4A4A4A4A4A4A4A4A4A4A4A4A4A4A4A4A4A4A4A4A4A4A4A4A4A4A4A4A4A4A4A4A4A4A4A4A4A4A4A4A4A4A4A4A4A4A4A4A4A4A4A4A4A4A4A4A4A4A4A4A4A4A4A4A4A4A4A4A4A4A4A4A4A4A4A4A4A4A4A4A4A4A4A4A4A4
310
A4A4A4A4A4A4A4A4A4A4A4A4A4A4A4A4A4A4A4A4A4A4A4A4A4A4A4A4A4A4A4A4A4A4A4A4A4A4A4A4A4A4A4A4A4A4A4A4A4A4A4A4A4A4A4A4A4A4A4A4A4A4A4A4A4A4A4A4A4A4A4A4A4A4A4A4A4A4A4A4A4A4A4A4A4A4A4A4A4A4A4A4A4A4A4A4A4A4A4A4A4A4A4A4A4A4A4A4A4A4A4A4A4A4A4A4A4A4A4A4A4A4A4A4A4A4A4
310
A4A4A4A4A4A4A4A4A4A4A4A4A4A4A4A4A4A4A4A4A4A4A4A4A4A4A4A4A4A4A4A4A4A4A4A4A4A4A4A4A4A4A4A4A4A4A4A4A4A4A4A4A4A4A4A4A4A4A4A4A4A4A4A4A4A4A4A4A4A4A4A4A4A4A4A4A4A4A4A4A4A4A4A4A4A4A4A4A4A4A4A4A4A4A4A4A4A4A4A4A4A4A4A4A4A4A4A4A4A4A4A4A4A4A4A4F9F9F9F9F9F9F9F9F9F9F9
310
F9F9F9F9F9F9F9F9F9F9F9F9F9F9F9F9F9F9F9A4A4F9F9F9F9F9F9F9F9F9F9F9F9F9F9F9F9F9F9F9F9F9F9F9F9F9F9F9F9F9F9A4A4F9F9F9F9F9F9F9F9F9F9F9F9F9F9F9F9F9F9F9F9F9F9F9F9F9F9F9F9F9F9A4A4F9A4A4A4A4A4A4A4A4A4A4A4A4A4A4A4A4A4A4A4A4A4A4A4A4A4A4A4A4F9A4A4A4A4A4A4A4A4A4A4A4A4
310
A4A4A4A4A4A4A4A4A4A4A4A4A4A4A4A4A4A4A4A4A4A4A4A4A4A4A4A4A4A4A4A4A4A4A4A4A4A4A4A4A4A4A4A4A4A4A4A4A4A4A4A4A4A4A4A4A4A4A4A4A4A4A4A4A4A4A4A4A4A4A4A4A4A4A4A4A4A4A4A4A4A4A4A4A4A4A4A4A4A4A4A4A4A4A4A4A4A4A4A4A4A4A4A4A4A4A4A4A4A4A4A4A4A4A4A4A4A4A4A4A4A4A4A4A4A4A4
310
A4A4A4A4A4A4A4A4A4A4A4A4A4A4A4A4A4A4A4A4A4A4A4A4A4A4A4A4A4A4A4A4A4A4A4A4A4A4A4A4A4A4A4A4A4A4A4A4A4A4A4A4A4A4A4A4A4A4A4A4A4A4A4A4A4A4A4A4A4A4A4A4A4A4A4A4A4A4A4A4A4A4A4A4A4A4A4A4A4A4A4A4A4A4A4A4A4A4A4A4A4A4A4A4A4A4A4A4A4A4A4A4A4A4A4A4A4A4A4A4A4A4A4A4A4A4A4
310
A4A4A4A4A4A4A4A4A4A4A4A4A4A4A4A4A4A4A4A4A4A4A4A4A4A4A4A4A4A4A4A4A4A4A4A4A4A4A4A4A4A4A4A4A4A4A4A4A4A4A4A4A4A4A4A4A4A4A4A4A4A4A4A4A4A4A4A4A4A4A4A4A4A4A4A4A4A4A4A4A4A4A4A4A4A4A4A4A4A4A4A4A4A4A4A4A4A4A4A4A4A4A4A4A4A4A4A4A4A4A4A4A4A4A4A4A4A4A4A4A4A4A4A4A4A4A4
310
A4A4A4A4A4A4A4A4A4A4A4A4A4A4A4A4A4A4A4A4A4A4A4A4A4A4A4A4A4A4A4A4A4A4A4A4A4A4A4A4A4A4A4A4A4A4A4A4A4A4A4A4A4A4A4A4
1001
ACAD
1000
DesignCenter Data
1002
{
1070
     1
1070
     4
1002
}
  0
BLOCK_RECORD
  5
AA8
330
1
100
AcDbSymbolTableRecord
100
AcDbBlockTableRecord
  2
_CLOSED
340
0
  0
BLOCK_RECORD
  5
BA5
330
1
100
AcDbSymbolTableRecord
100
AcDbBlockTableRecord
  2
guarnizione
340
0
  0
BLOCK_RECORD
  5
10F4
330
1
100
AcDbSymbolTableRecord
100
AcDbBlockTableRecord
  2
*D8
340
0
  0
BLOCK_RECORD
  5
1100
330
1
100
AcDbSymbolTableRecord
100
AcDbBlockTableRecord
  2
*D9
340
0
  0
BLOCK_RECORD
  5
1115
330
1
100
AcDbSymbolTableRecord
100
AcDbBlockTableRecord
  2
*D10
340
0
  0
BLOCK_RECORD
  5
1245
330
1
100
AcDbSymbolTableRecord
100
AcDbBlockTableRecord
  2
*D19
340
0
  0
BLOCK_RECORD
  5
1251
330
1
100
AcDbSymbolTableRecord
100
AcDbBlockTableRecord
  2
*D20
340
0
  0
BLOCK_RECORD
  5
125D
330
1
100
AcDbSymbolTableRecord
100
AcDbBlockTableRecord
  2
*D21
340
0
  0
BLOCK_RECORD
  5
126B
330
1
100
AcDbSymbolTableRecord
100
AcDbBlockTableRecord
  2
*D22
340
0
  0
BLOCK_RECORD
  5
1277
330
1
100
AcDbSymbolTableRecord
100
AcDbBlockTableRecord
  2
*D23
340
0
  0
BLOCK_RECORD
  5
1A0A
330
1
100
AcDbSymbolTableRecord
100
AcDbBlockTableRecord
  2
*D31
340
0
  0
BLOCK_RECORD
  5
1A23
330
1
100
AcDbSymbolTableRecord
100
AcDbBlockTableRecord
  2
*D32
340
0
  0
ENDTAB
  0
ENDSEC
  0
SECTION
  2
BLOCKS
  0
BLOCK
  5
20
330
1F
100
AcDbEntity
  8
0
100
AcDbBlockBegin
  2
*Model_Space
 70
     0
 10
0.0
 20
0.0
 30
0.0
  3
*Model_Space
  1

  0
ENDBLK
  5
21
330
1F
100
AcDbEntity
  8
0
100
AcDbBlockEnd
  0
BLOCK
  5
1C
330
1B
100
AcDbEntity
 67
     1
  8
0
100
AcDbBlockBegin
  2
*Paper_Space
 70
     0
 10
0.0
 20
0.0
 30
0.0
  3
*Paper_Space
  1

  0
ENDBLK
  5
1D
330
1B
100
AcDbEntity
 67
     1
  8
0
100
AcDbBlockEnd
  0
BLOCK
  5
24
330
23
100
AcDbEntity
 67
     1
  8
0
100
AcDbBlockBegin
  2
*Paper_Space0
 70
     0
 10
0.0
 20
0.0
 30
0.0
  3
*Paper_Space0
  1

  0
ENDBLK
  5
25
330
23
100
AcDbEntity
 67
     1
  8
0
100
AcDbBlockEnd
  0
BLOCK
  5
91B
330
919
100
AcDbEntity
  8
0
100
AcDbBlockBegin
  2
_DotSmall
 70
     0
 10
0.0
 20
0.0
 30
0.0
  3
_DotSmall
  1

  0
LWPOLYLINE
  5
91A
330
919
100
AcDbEntity
  8
0
  6
ByBlock
 62
     0
100
AcDbPolyline
 90
        2
 70
     1
 43
0.5
 10
-0.0625
 20
0.0
 42
1.0
 10
0.0625
 20
0.0
 42
1.0
  0
ENDBLK
  5
91C
330
919
100
AcDbEntity
  8
0
100
AcDbBlockEnd
  0
BLOCK
  5
92A
330
922
100
AcDbEntity
  8
0
100
AcDbBlockBegin
  2
base para cotas
 70
     0
 10
0.0
 20
0.0
 30
0.0
  3
base para cotas
  1

  0
LINE
  5
B36
330
922
100
AcDbEntity
  8
cotas
100
AcDbLine
 10
0.0
 20
-30.0
 30
0.0
 11
327.1260136525398
 21
-30.0
 31
0.0
  0
LINE
  5
B37
330
922
100
AcDbEntity
  8
cotas
100
AcDbLine
 10
0.0
 20
-25.0
 30
0.0
 11
327.1260136525398
 21
-25.0
 31
0.0
  0
LINE
  5
B38
330
922
100
AcDbEntity
  8
cotas
100
AcDbLine
 10
0.0
 20
-20.0
 30
0.0
 11
327.1260136525398
 21
-20.0
 31
0.0
  0
LINE
  5
B39
330
922
100
AcDbEntity
  8
cotas
100
AcDbLine
 10
0.0
 20
-15.0
 30
0.0
 11
327.1260136525398
 21
-15.0
 31
0.0
  0
LINE
  5
B3A
330
922
100
AcDbEntity
  8
cotas
100
AcDbLine
 10
0.0
 20
-10.0
 30
0.0
 11
327.1260136525398
 21
-10.0
 31
0.0
  0
LINE
  5
B3B
330
922
100
AcDbEntity
  8
cotas
100
AcDbLine
 10
0.0
 20
0.0
 30
0.0
 11
0.0
 21
-30.0
 31
0.0
  0
LINE
  5
B3C
330
922
100
AcDbEntity
  8
cotas
100
AcDbLine
 10
327.1260136525398
 20
-30.0
 30
0.0
 11
327.1260136525398
 21
0.0
 31
0.0
  0
ENDBLK
  5
92B
330
922
100
AcDbEntity
  8
0
100
AcDbBlockEnd
  0
BLOCK
  5
AAD
330
AA8
100
AcDbEntity
  8
0
100
AcDbBlockBegin
  2
_CLOSED
 70
     0
 10
0.0
 20
0.0
 30
0.0
  3
_CLOSED
  1

  0
LINE
  5
AA9
330
AA8
100
AcDbEntity
  8
0
100
AcDbLine
 10
-1.0
 20
0.166667
 30
0.0
 11
0.0
 21
0.0
 31
0.0
  0
LINE
  5
AAA
330
AA8
100
AcDbEntity
  8
0
100
AcDbLine
 10
0.0
 20
0.0
 30
0.0
 11
-1.0
 21
-0.166667
 31
0.0
  0
LINE
  5
AAB
330
AA8
100
AcDbEntity
  8
0
100
AcDbLine
 10
-1.0
 20
0.166667
 30
0.0
 11
-1.0
 21
-0.166667
 31
0.0
  0
LINE
  5
AAC
330
AA8
100
AcDbEntity
  8
0
100
AcDbLine
 10
0.0
 20
0.0
 30
0.0
 11
-1.0
 21
0.0
 31
0.0
  0
ENDBLK
  5
AAE
330
AA8
100
AcDbEntity
  8
0
100
AcDbBlockEnd
  0
BLOCK
  5
BF0
330
BA5
100
AcDbEntity
  8
0
 62
     4
100
AcDbBlockBegin
  2
guarnizione
 70
     0
 10
0.0
 20
0.0
 30
0.0
  3
guarnizione
  1

  0
LINE
  5
BA6
330
BA5
100
AcDbEntity
  8
0
100
AcDbLine
 10
12.0
 20
3.179312414488776
 30
0.0
 11
12.0
 21
2.699999999999818
 31
0.0
  0
LINE
  5
BA7
330
BA5
100
AcDbEntity
  8
0
100
AcDbLine
 10
9.5
 20
3.130475008156281
 30
0.0
 11
9.440776269158959
 21
2.734883615801663
 31
0.0
  0
ARC
  5
BA8
330
BA5
100
AcDbEntity
  8
0
100
AcDbCircle
 10
11.19999999999891
 20
3.179312414488776
 30
0.0
 40
0.8
100
AcDbArc
 50
0.0
 51
81.48552156587461
  0
ARC
  5
BA9
330
BA5
100
AcDbEntity
  8
0
100
AcDbCircle
 10
8.753809903480942
 20
1.523241254200002
 30
0.0
 40
0.1999999999999504
100
AcDbArc
 50
171.485521565823
 51
351.485521565823
  0
LINE
  5
BAA
330
BA5
100
AcDbEntity
  8
0
100
AcDbLine
 10
11.65558220186904
 20
-2.403306455734309
 30
0.0
 11
9.440776269158959
 21
-2.734883615802573
 31
0.0
  0
ARC
  5
BAB
330
BA5
100
AcDbEntity
  8
0
100
AcDbCircle
 10
8.753809903480942
 20
-1.523241254200911
 30
0.0
 40
0.1999999999999504
100
AcDbArc
 50
8.514478434176927
 51
188.5144784341769
  0
LINE
  5
BAC
330
BA5
100
AcDbEntity
  8
0
100
AcDbLine
 10
9.5
 20
-3.130475008157191
 30
0.0
 11
9.440776269158959
 21
-2.734883615802573
 31
0.0
  0
ARC
  5
BAD
330
BA5
100
AcDbEntity
  8
0
100
AcDbCircle
 10
11.69999999999891
 20
-2.699999999999818
 30
0.0
 40
0.3
100
AcDbArc
 50
0.0
 51
98.51447843412536
  0
ARC
  5
BAE
330
BA5
100
AcDbEntity
  8
0
100
AcDbCircle
 10
11.69999999999891
 20
2.699999999999818
 30
0.0
 40
0.3
100
AcDbArc
 50
261.4855215658746
 51
0.0
  0
LINE
  5
BAF
330
BA5
100
AcDbEntity
  8
0
100
AcDbLine
 10
11.65558220186904
 20
2.4033064557334
 30
0.0
 11
9.440776269158959
 21
2.734883615801663
 31
0.0
  0
LINE
  5
BB0
330
BA5
100
AcDbEntity
  8
0
100
AcDbLine
 10
8.807715063378054
 20
3.234116537129011
 30
0.0
 11
8.556014207302723
 21
1.552853119620522
 31
0.0
  0
LINE
  5
BB1
330
BA5
100
AcDbEntity
  8
0
100
AcDbLine
 10
9.203306455732672
 20
3.174892806287971
 30
0.0
 11
8.951605599657341
 21
1.493629388779481
 31
0.0
  0
LINE
  5
BB2
330
BA5
100
AcDbEntity
  8
0
100
AcDbLine
 10
6.681411329471302
 20
3.552444090400967
 30
0.0
 11
6.622187598630262
 21
3.15685269804544
 31
0.0
  0
ARC
  5
BB3
330
BA5
100
AcDbEntity
  8
0
100
AcDbCircle
 10
0.2999999999992724
 20
3.800000000000181
 30
0.0
 40
0.3
100
AcDbArc
 50
81.48552156587461
 51
180.0
  0
ARC
  5
BB4
330
BA5
100
AcDbEntity
  8
0
100
AcDbCircle
 10
1.042400829128382
 20
4.699999999999818
 30
0.0
 40
0.8
100
AcDbArc
 50
81.48552156587461
 51
90.0
  0
LINE
  5
BB5
330
BA5
100
AcDbEntity
  8
0
100
AcDbLine
 10
1.5
 20
3.923692082123125
 30
0.0
 11
0.3444177981309622
 21
4.09669354426569
 31
0.0
  0
LINE
  5
BB6
330
BA5
100
AcDbEntity
  8
0
100
AcDbLine
 10
1.5
 20
3.923692082123125
 30
0.0
 11
1.5
 21
3.099999999999454
 31
0.0
  0
LINE
  5
BB7
330
BA5
100
AcDbEntity
  8
0
100
AcDbLine
 10
1.5
 20
3.099999999999454
 30
0.0
 11
2.699999999998908
 21
3.099999999999454
 31
0.0
  0
LINE
  5
BB8
330
BA5
100
AcDbEntity
  8
0
100
AcDbLine
 10
2.699999999998908
 20
3.744040860223321
 30
0.0
 11
2.699999999998908
 21
3.099999999999454
 31
0.0
  0
LINE
  5
BB9
330
BA5
100
AcDbEntity
  8
0
100
AcDbLine
 10
6.622187598630262
 20
3.15685269804544
 30
0.0
 11
2.699999999998908
 21
3.744040860223321
 31
0.0
  0
LINE
  5
BBA
330
BA5
100
AcDbEntity
  8
0
100
AcDbLine
 10
1.5
 20
-3.100000000000363
 30
0.0
 11
2.699999999998908
 21
-3.100000000000363
 31
0.0
  0
LINE
  5
BBB
330
BA5
100
AcDbEntity
  8
0
100
AcDbLine
 10
11.31844746168099
 20
3.970495199198012
 30
0.0
 11
1.160848290810463
 21
5.491182784709053
 31
0.0
  0
LINE
  5
BBC
330
BA5
100
AcDbEntity
  8
0
100
AcDbLine
 10
9.5
 20
3.130475008156281
 30
0.0
 11
6.681411329471302
 21
3.552444090400967
 31
0.0
  0
ARC
  5
BBD
330
BA5
100
AcDbEntity
  8
0
100
AcDbCircle
 10
11.19999999999891
 20
-3.179312414488776
 30
0.0
 40
0.8
100
AcDbArc
 50
278.5144784341254
 51
0.0
  0
LINE
  5
BBE
330
BA5
100
AcDbEntity
  8
0
100
AcDbLine
 10
6.681411329471302
 20
-3.552444090400967
 30
0.0
 11
6.622187598630262
 21
-3.15685269804635
 31
0.0
  0
ARC
  5
BBF
330
BA5
100
AcDbEntity
  8
0
100
AcDbCircle
 10
0.2999999999992724
 20
-3.800000000000181
 30
0.0
 40
0.3
100
AcDbArc
 50
180.0
 51
278.5144784341254
  0
ARC
  5
BC0
330
BA5
100
AcDbEntity
  8
0
100
AcDbCircle
 10
1.042400829128382
 20
-4.699999999999818
 30
0.0
 40
0.8
100
AcDbArc
 50
270.0
 51
278.5144784341254
  0
LINE
  5
BC1
330
BA5
100
AcDbEntity
  8
0
100
AcDbLine
 10
0.3444177981309622
 20
-4.096693544266599
 30
0.0
 11
1.5
 21
-3.923692082124034
 31
0.0
  0
LINE
  5
BC2
330
BA5
100
AcDbEntity
  8
0
100
AcDbLine
 10
6.622187598630262
 20
-3.15685269804635
 30
0.0
 11
2.699999999998908
 21
-3.744040860224231
 31
0.0
  0
LINE
  5
BC3
330
BA5
100
AcDbEntity
  8
0
100
AcDbLine
 10
1.160848290810463
 20
-5.491182784709963
 30
0.0
 11
11.31844746168099
 21
-3.970495199198921
 31
0.0
  0
LINE
  5
BC4
330
BA5
100
AcDbEntity
  8
0
100
AcDbLine
 10
0.0
 20
3.800000000000181
 30
0.0
 11
0.0
 21
-3.800000000000181
 31
0.0
  0
LINE
  5
BC5
330
BA5
100
AcDbEntity
  8
0
100
AcDbLine
 10
12.0
 20
-2.699999999999818
 30
0.0
 11
12.0
 21
-3.179312414488776
 31
0.0
  0
LINE
  5
BC6
330
BA5
100
AcDbEntity
  8
0
100
AcDbLine
 10
2.699999999998908
 20
-3.100000000000363
 30
0.0
 11
2.699999999998908
 21
-3.744040860224231
 31
0.0
  0
LINE
  5
BC7
330
BA5
100
AcDbEntity
  8
0
100
AcDbLine
 10
1.5
 20
-3.100000000000363
 30
0.0
 11
1.5
 21
-3.923692082124034
 31
0.0
  0
LINE
  5
BC8
330
BA5
100
AcDbEntity
  8
0
100
AcDbLine
 10
9.5
 20
-3.130475008157191
 30
0.0
 11
6.681411329471302
 21
-3.552444090400967
 31
0.0
  0
LINE
  5
BC9
330
BA5
100
AcDbEntity
  8
0
100
AcDbLine
 10
9.203306455732672
 20
-3.174892806287971
 30
0.0
 11
8.951605599657341
 21
-1.493629388780391
 31
0.0
  0
LINE
  5
BCA
330
BA5
100
AcDbEntity
  8
0
100
AcDbLine
 10
8.807715063378054
 20
-3.234116537129011
 30
0.0
 11
8.556014207302723
 21
-1.552853119621431
 31
0.0
  0
LINE
  5
BCB
330
BA5
100
AcDbEntity
  8
0
100
AcDbLine
 10
-1.5
 20
5.5
 30
0.0
 11
-3.757359312881817
 21
5.5
 31
0.0
  0
ARC
  5
BCC
330
BA5
100
AcDbEntity
  8
0
100
AcDbCircle
 10
-2.5
 20
3.5
 30
0.0
 40
1.0
100
AcDbArc
 50
0.0
 51
90.0
  0
ARC
  5
BCD
330
BA5
100
AcDbEntity
  8
0
100
AcDbCircle
 10
-3.769781102879278
 20
4.149978862833449
 30
0.0
 40
0.75
100
AcDbArc
 50
47.16775949949599
 51
90.19499109987526
  0
ARC
  5
BCE
330
BA5
100
AcDbEntity
  8
0
100
AcDbCircle
 10
-2.75
 20
5.25
 30
0.0
 40
0.75
100
AcDbArc
 50
227.167759499496
 51
270.0
  0
LINE
  5
BCF
330
BA5
100
AcDbEntity
  8
0
100
AcDbLine
 10
-2.75
 20
4.5
 30
0.0
 11
-2.5
 21
4.5
 31
0.0
  0
LINE
  5
BD0
330
BA5
100
AcDbEntity
  8
0
100
AcDbLine
 10
-7.415254325502246
 20
3.064644661409147
 30
0.0
 11
-6.868629150101696
 21
3.611269837220788
 31
0.0
  0
ARC
  5
BD1
102
{ACAD_REACTORS
330
BEB
102
}
330
BA5
100
AcDbEntity
  8
0
100
AcDbCircle
 10
-7.980939750059405
 20
2.569669913566031
 30
0.0
 40
0.2
100
AcDbArc
 50
45.0000001037625
 51
135.0000000719631
  0
ARC
  5
BD2
330
BA5
100
AcDbEntity
  8
0
100
AcDbCircle
 10
-3.757359312881817
 20
0.5
 30
0.0
 40
5.0
100
AcDbArc
 50
90.0
 51
135.0
  0
ARC
  5
BD3
330
BA5
100
AcDbEntity
  8
0
100
AcDbCircle
 10
-3.757359312881817
 20
0.5
 30
0.0
 40
4.4
100
AcDbArc
 50
90.19499109987526
 51
135.0
  0
ARC
  5
BD4
330
BA5
100
AcDbEntity
  8
0
100
AcDbCircle
 10
-6.814213563102384
 20
0.9786796633270569
 30
0.0
 40
0.75
100
AcDbArc
 50
314.9999999676111
 51
45.0
  0
ARC
  5
BD5
102
{ACAD_REACTORS
330
BEB
102
}
330
BA5
100
AcDbEntity
  8
0
100
AcDbCircle
 10
-6.814213563102384
 20
0.9786796633270569
 30
0.0
 40
0.5
100
AcDbArc
 50
314.9999999676111
 51
45.0
  0
ARC
  5
BD6
330
BA5
100
AcDbEntity
  8
0
100
AcDbCircle
 10
-7.203122291144609
 20
2.852512627053329
 30
0.0
 40
0.3
100
AcDbArc
 50
135.0
 51
225.0000001112794
  0
LINE
  5
BD7
330
BA5
100
AcDbEntity
  8
0
100
AcDbLine
 10
-8.051650430128574
 20
3.276776694619002
 30
0.0
 11
-6.283883477519339
 21
1.509009749524921
 31
0.0
  0
LINE
  5
BD8
102
{ACAD_REACTORS
330
BEB
102
}
330
BA5
100
AcDbEntity
  8
0
100
AcDbLine
 10
-7.839518394079277
 20
2.711091270059114
 30
0.0
 11
-6.460660172508141
 21
1.33223305392039
 31
0.0
  0
ARC
  5
BD9
330
BA5
100
AcDbEntity
  8
0
100
AcDbCircle
 10
-12.57713383280133
 20
-2.521498914058611
 30
0.0
 40
0.3
100
AcDbArc
 50
45.00000003552097
 51
135.0
  0
ARC
  5
BDA
102
{ACAD_REACTORS
330
BEB
102
}
330
BA5
100
AcDbEntity
  8
0
100
AcDbCircle
 10
-12.29429112059733
 20
-1.743681468243266
 30
0.0
 40
0.2
100
AcDbArc
 50
135.0000000660675
 51
225.0000002990173
  0
LINE
  5
BDB
330
BA5
100
AcDbEntity
  8
0
100
AcDbLine
 10
-12.9899494936617
 20
-2.510050506339212
 30
0.0
 11
-12.78926586715715
 21
-2.309366879702793
 31
0.0
  0
LINE
  5
BDC
330
BA5
100
AcDbEntity
  8
0
100
AcDbLine
 10
-13.41421356237333
 20
-2.085786437626666
 30
0.0
 11
-7.292893218815152
 21
4.035533905932425
 31
0.0
  0
LINE
  5
BDD
102
{ACAD_REACTORS
330
BEB
102
}
330
BA5
100
AcDbEntity
  8
0
100
AcDbLine
 10
-12.43571247699765
 20
-1.602260112168551
 30
0.0
 11
-8.122361106474272
 21
2.711091269625285
 31
0.0
  0
ARC
  5
BDE
330
BA5
100
AcDbEntity
  8
0
100
AcDbCircle
 10
-2.5
 20
-3.5
 30
0.0
 40
1.0
100
AcDbArc
 50
270.0
 51
0.0
  0
ARC
  5
BDF
330
BA5
100
AcDbEntity
  8
0
100
AcDbCircle
 10
-7.519803902720013
 20
-4.150000000000545
 30
0.0
 40
0.75
100
AcDbArc
 50
270.0
 51
312.8334280660476
  0
ARC
  5
BE0
330
BA5
100
AcDbEntity
  8
0
100
AcDbCircle
 10
-6.5
 20
-5.25
 30
0.0
 40
0.75
100
AcDbArc
 50
90.0
 51
132.8334280660476
  0
LINE
  5
BE1
330
BA5
100
AcDbEntity
  8
0
100
AcDbLine
 10
-2.5
 20
-4.5
 30
0.0
 11
-6.5
 21
-4.5
 31
0.0
  0
ARC
  5
BE2
330
BA5
100
AcDbEntity
  8
0
100
AcDbCircle
 10
-10.7033008647486
 20
-2.910407640086305
 30
0.0
 40
0.75
100
AcDbArc
 50
225.0
 51
315.0
  0
ARC
  5
BE3
102
{ACAD_REACTORS
330
BEB
102
}
330
BA5
100
AcDbEntity
  8
0
100
AcDbCircle
 10
-10.7033008647486
 20
-2.910407640086305
 30
0.0
 40
0.5
100
AcDbArc
 50
225.0
 51
315.0
  0
LINE
  5
BE4
330
BA5
100
AcDbEntity
  8
0
100
AcDbLine
 10
-1.5
 20
-5.5
 30
0.0
 11
-12.0
 21
-5.5
 31
0.0
  0
LINE
  5
BE5
330
BA5
100
AcDbEntity
  8
0
100
AcDbLine
 10
-7.519803902720013
 20
-4.900000000000545
 30
0.0
 11
-12.0
 21
-4.900000000000545
 31
0.0
  0
ARC
  5
BE6
330
BA5
100
AcDbEntity
  8
0
100
AcDbCircle
 10
-12.0
 20
-3.5
 30
0.0
 40
2.0
100
AcDbArc
 50
135.0
 51
270.0
  0
LINE
  5
BE7
330
BA5
100
AcDbEntity
  8
0
100
AcDbLine
 10
-10.17297077881812
 20
-3.440737725935832
 30
0.0
 11
-6.283883477372
 21
0.4483495772774404
 31
0.0
  0
ARC
  5
BE8
330
BA5
100
AcDbEntity
  8
0
100
AcDbCircle
 10
-12.0
 20
-3.5
 30
0.0
 40
1.399999999999999
100
AcDbArc
 50
135.0
 51
270.0
  0
LINE
  5
BE9
330
BA5
100
AcDbEntity
  8
0
100
AcDbLine
 10
-13.00139790187859
 20
-1.672970777132832
 30
0.0
 11
-11.23363095093009
 21
-3.440737725682993
 31
0.0
  0
LINE
  5
BEA
330
BA5
100
AcDbEntity
  8
0
100
AcDbLine
 10
-1.5
 20
3.5
 30
0.0
 11
-1.5
 21
-3.5
 31
0.0
  0
HATCH
  5
BEB
330
BA5
100
AcDbEntity
  8
0
100
AcDbHatch
 10
0.0
 20
0.0
 30
0.0
210
0.0
220
0.0
230
1.0
  2
ANSI31
 70
     0
 71
     1
 91
        1
 92
        7
 72
     1
 73
     1
 93
        8
 10
-6.460660173204814
 20
1.332233054616153
 42
0.0
 10
-7.839518394101105
 20
2.711091270081851
 42
0.414213562178905
 10
-8.122361106481548
 20
2.711091269618009
 42
0.0
 10
-12.43571247701766
 20
-1.602260112190379
 42
0.4142135636146872
 10
-12.43571247604996
 20
-1.885102825264766
 42
0.0
 10
-11.05685425338015
 20
-3.263961032639599
 42
0.4142135608152901
 10
-10.34974747407432
 20
-3.263961030598693
 42
0.0
 10
-6.460660172428106
 20
0.625126272813759
 42
0.4142135628833784
 97
        8
330
BD8
330
BD1
330
BDD
330
BDA
330
BED
330
BE3
330
BEC
330
BD5
 75
     0
 76
     1
 52
45.0
 41
0.25
 77
     0
 78
     1
 53
90.0
 43
-276.1145346408611
 44
-395.2719013892401
 45
-0.79375
 46
0.0000000000000002
 79
     0
 47
0.0364805528584695
 98
        1
 10
-7.399477738399582
 20
0.8532363732892918
  0
LINE
  5
BEC
102
{ACAD_REACTORS
330
BEB
102
}
330
BA5
100
AcDbEntity
  8
0
100
AcDbLine
 10
-10.34974747415435
 20
-3.263961030678729
 30
0.0
 11
-6.46066017270823
 21
0.6251262725336347
 31
0.0
  0
LINE
  5
BED
102
{ACAD_REACTORS
330
BEB
102
}
330
BA5
100
AcDbEntity
  8
0
100
AcDbLine
 10
-12.43571247609543
 20
-1.885102825218382
 30
0.0
 11
-11.05685425534102
 21
-3.263961030678729
 31
0.0
  0
LINE
  5
BEE
330
BA5
100
AcDbEntity
  8
0
100
AcDbLine
 10
-1.5
 20
5.5
 30
0.0
 11
1.042400829128382
 21
5.5
 31
0.0
  0
LINE
  5
BEF
330
BA5
100
AcDbEntity
  8
0
100
AcDbLine
 10
-1.5
 20
-5.5
 30
0.0
 11
1.042400829128382
 21
-5.5
 31
0.0
  0
ENDBLK
  5
BF1
330
BA5
100
AcDbEntity
  8
0
 62
     4
100
AcDbBlockEnd
  0
BLOCK
  5
10FE
330
10F4
100
AcDbEntity
  8
0
100
AcDbBlockBegin
  2
*D8
 70
     1
 10
0.0
 20
0.0
 30
0.0
  3
*D8
  1

  0
LINE
  5
199A
330
10F4
100
AcDbEntity
  8
7
100
AcDbLine
 10
487.3208979734377
 20
1220.935468744694
 30
0.0
 11
487.3208979734377
 21
1204.726007965555
 31
0.0
  0
LINE
  5
199B
330
10F4
100
AcDbEntity
  8
7
100
AcDbLine
 10
587.7398195317034
 20
1220.935469014851
 30
0.0
 11
587.7398195317034
 21
1204.726007965555
 31
0.0
  0
LINE
  5
199C
330
10F4
100
AcDbEntity
  8
7
100
AcDbLine
 10
489.3208979734376
 20
1205.726007965555
 30
0.0
 11
585.7398195317033
 21
1205.726007965555
 31
0.0
  0
SOLID
  5
199D
330
10F4
100
AcDbEntity
  8
7
100
AcDbTrace
 10
489.3208979734376
 20
1206.059341298889
 30
0.0
 11
489.3208979734376
 21
1205.392674632222
 31
0.0
 12
487.3208979734377
 22
1205.726007965555
 32
0.0
 13
487.3208979734377
 23
1205.726007965555
 33
0.0
  0
SOLID
  5
199E
330
10F4
100
AcDbEntity
  8
7
100
AcDbTrace
 10
585.7398195317033
 20
1206.059341298889
 30
0.0
 11
585.7398195317033
 21
1205.392674632222
 31
0.0
 12
587.7398195317034
 22
1205.726007965555
 32
0.0
 13
587.7398195317034
 23
1205.726007965555
 33
0.0
  0
MTEXT
  5
199F
330
10F4
100
AcDbEntity
  8
7
100
AcDbMText
 10
537.5303587525705
 20
1207.975168475965
 30
0.0
 40
2.0
 41
0.0
 71
     5
 72
     1
  1
MAX. 1014 mm / MIN. 984 mm
  7
SANINDUSA
 73
     1
 44
1.0
1001
ACAD
1000
MTEXTBEGIN
1070
    73
1070
     1
1070
    44
1040
1.0
1070
    74
1070
     0
1000
MTEXTEND
  0
POINT
  5
19A0
330
10F4
100
AcDbEntity
  8
Defpoints
 62
     0
100
AcDbPoint
 10
487.3208979734377
 20
1221.935468744694
 30
0.0
  0
POINT
  5
19A1
330
10F4
100
AcDbEntity
  8
Defpoints
 62
     0
100
AcDbPoint
 10
587.7398195317034
 20
1221.93546901485
 30
0.0
  0
POINT
  5
19A2
330
10F4
100
AcDbEntity
  8
Defpoints
 62
     0
100
AcDbPoint
 10
587.7398195317034
 20
1205.726007965555
 30
0.0
  0
ENDBLK
  5
10FF
330
10F4
100
AcDbEntity
  8
0
100
AcDbBlockEnd
  0
BLOCK
  5
110A
330
1100
100
AcDbEntity
  8
0
100
AcDbBlockBegin
  2
*D9
 70
     1
 10
0.0
 20
0.0
 30
0.0
  3
*D9
  1

  0
LINE
  5
19AC
330
1100
100
AcDbEntity
  8
7
100
AcDbLine
 10
493.7168139374222
 20
1221.97525812061
 30
0.0
 11
493.7168139374222
 21
1209.726007965555
 31
0.0
  0
LINE
  5
19AD
330
1100
100
AcDbEntity
  8
7
100
AcDbLine
 10
553.7168178583378
 20
1221.97525812061
 30
0.0
 11
553.7168178583378
 21
1209.726007965555
 31
0.0
  0
LINE
  5
19AE
330
1100
100
AcDbEntity
  8
7
100
AcDbLine
 10
495.7168139374222
 20
1210.726007965555
 30
0.0
 11
551.7168178583379
 21
1210.726007965555
 31
0.0
  0
SOLID
  5
19AF
330
1100
100
AcDbEntity
  8
7
100
AcDbTrace
 10
495.7168139374222
 20
1211.059341298889
 30
0.0
 11
495.7168139374222
 21
1210.392674632222
 31
0.0
 12
493.7168139374222
 22
1210.726007965555
 32
0.0
 13
493.7168139374222
 23
1210.726007965555
 33
0.0
  0
SOLID
  5
19B0
330
1100
100
AcDbEntity
  8
7
100
AcDbTrace
 10
551.7168178583379
 20
1211.059341298889
 30
0.0
 11
551.7168178583379
 21
1210.392674632222
 31
0.0
 12
553.7168178583378
 22
1210.726007965555
 32
0.0
 13
553.7168178583378
 23
1210.726007965555
 33
0.0
  0
MTEXT
  5
19B1
330
1100
100
AcDbEntity
  8
7
100
AcDbMText
 10
523.71681589788
 20
1212.766975057563
 30
0.0
 40
2.0
 41
0.0
 71
     5
 72
     1
  1
600
  7
SANINDUSA
 73
     1
 44
1.0
1001
ACAD
1000
MTEXTBEGIN
1070
    73
1070
     1
1070
    44
1040
1.0
1070
    74
1070
     0
1000
MTEXTEND
  0
POINT
  5
19B2
330
1100
100
AcDbEntity
  8
Defpoints
 62
     0
100
AcDbPoint
 10
493.7168139374222
 20
1222.97525812061
 30
0.000000015555529
  0
POINT
  5
19B3
330
1100
100
AcDbEntity
  8
Defpoints
 62
     0
100
AcDbPoint
 10
553.7168178583378
 20
1222.97525812061
 30
0.000000015555529
  0
POINT
  5
19B4
330
1100
100
AcDbEntity
  8
Defpoints
 62
     0
100
AcDbPoint
 10
553.7168178583378
 20
1210.726007965555
 30
0.0
  0
ENDBLK
  5
110B
330
1100
100
AcDbEntity
  8
0
100
AcDbBlockEnd
  0
BLOCK
  5
111F
330
1115
100
AcDbEntity
  8
0
100
AcDbBlockBegin
  2
*D10
 70
     1
 10
0.0
 20
0.0
 30
0.0
  3
*D10
  1

  0
LINE
  5
19A3
330
1115
100
AcDbEntity
  8
7
100
AcDbLine
 10
554.016817858338
 20
1221.97525773965
 30
0.0
 11
554.016817858338
 21
1209.726007965555
 31
0.0
  0
LINE
  5
19A4
330
1115
100
AcDbEntity
  8
7
100
AcDbLine
 10
583.3026171557166
 20
1221.975257739651
 30
0.0
 11
583.3026171557166
 21
1209.726007965555
 31
0.0
  0
LINE
  5
19A5
330
1115
100
AcDbEntity
  8
7
100
AcDbLine
 10
556.016817858338
 20
1210.726007965555
 30
0.0
 11
581.3026171557165
 21
1210.726007965555
 31
0.0
  0
SOLID
  5
19A6
330
1115
100
AcDbEntity
  8
7
100
AcDbTrace
 10
556.016817858338
 20
1211.059341298889
 30
0.0
 11
556.016817858338
 21
1210.392674632222
 31
0.0
 12
554.016817858338
 22
1210.726007965555
 32
0.0
 13
554.016817858338
 23
1210.726007965555
 33
0.0
  0
SOLID
  5
19A7
330
1115
100
AcDbEntity
  8
7
100
AcDbTrace
 10
581.3026171557165
 20
1211.059341298889
 30
0.0
 11
581.3026171557165
 21
1210.392674632222
 31
0.0
 12
583.3026171557166
 22
1210.726007965555
 32
0.0
 13
583.3026171557166
 23
1210.726007965555
 33
0.0
  0
MTEXT
  5
19A8
330
1115
100
AcDbEntity
  8
7
100
AcDbMText
 10
568.6597175070273
 20
1212.995316226133
 30
0.0
 40
2.0
 41
0.0
 71
     5
 72
     1
  1
292,9
  7
SANINDUSA
 73
     1
 44
1.0
1001
ACAD
1000
MTEXTBEGIN
1070
    73
1070
     1
1070
    44
1040
1.0
1070
    74
1070
     0
1000
MTEXTEND
  0
POINT
  5
19A9
330
1115
100
AcDbEntity
  8
Defpoints
 62
     0
100
AcDbPoint
 10
554.016817858338
 20
1222.975257739651
 30
0.0000000157875207
  0
POINT
  5
19AA
330
1115
100
AcDbEntity
  8
Defpoints
 62
     0
100
AcDbPoint
 10
583.3026171557166
 20
1222.975257739651
 30
0.0000000144287892
  0
POINT
  5
19AB
330
1115
100
AcDbEntity
  8
Defpoints
 62
     0
100
AcDbPoint
 10
583.3026171557166
 20
1210.726007965555
 30
0.0
  0
ENDBLK
  5
1120
330
1115
100
AcDbEntity
  8
0
100
AcDbBlockEnd
  0
BLOCK
  5
124F
330
1245
100
AcDbEntity
  8
0
100
AcDbBlockBegin
  2
*D19
 70
     1
 10
0.0
 20
0.0
 30
0.0
  3
*D19
  1

  0
LINE
  5
1582
330
1245
100
AcDbEntity
  8
7
100
AcDbLine
 10
743.3472846297936
 20
1314.178308129651
 30
0.0
 11
743.3322878147103
 21
1314.178308129651
 31
0.0
  0
LINE
  5
1583
330
1245
100
AcDbEntity
  8
7
100
AcDbLine
 10
722.8398038594548
 20
1284.678308128685
 30
0.0
 11
745.3322878147103
 21
1284.678308128685
 31
0.0
  0
LINE
  5
1584
330
1245
100
AcDbEntity
  8
7
100
AcDbLine
 10
744.3322878147102
 20
1312.178308129652
 30
0.0
 11
744.3322878147102
 21
1286.678308128685
 31
0.0
  0
SOLID
  5
1585
330
1245
100
AcDbEntity
  8
7
100
AcDbTrace
 10
743.9989544813769
 20
1312.178308129652
 30
0.0
 11
744.6656211480436
 21
1312.178308129652
 31
0.0
 12
744.3322878147102
 22
1314.178308129651
 32
0.0
 13
744.3322878147102
 23
1314.178308129651
 33
0.0
  0
SOLID
  5
1586
330
1245
100
AcDbEntity
  8
7
100
AcDbTrace
 10
743.9989544813769
 20
1286.678308128685
 30
0.0
 11
744.6656211480436
 21
1286.678308128685
 31
0.0
 12
744.3322878147102
 22
1284.678308128685
 32
0.0
 13
744.3322878147102
 23
1284.678308128685
 33
0.0
  0
MTEXT
  5
1587
330
1245
100
AcDbEntity
  8
7
100
AcDbMText
 10
742.2906491310298
 20
1299.428308129169
 30
0.0
 40
2.0
 41
0.0
 71
     5
 72
     1
  1
295
  7
SANINDUSA
 11
0.0000000000000001
 21
1.0
 31
0.0
 73
     1
 44
1.0
1001
ACAD
1000
MTEXTBEGIN
1070
    73
1070
     1
1070
    44
1040
1.0
1070
    74
1070
     0
1000
MTEXTEND
  0
POINT
  5
1588
330
1245
100
AcDbEntity
  8
Defpoints
 62
     0
100
AcDbPoint
 10
744.3472846297936
 20
1314.178308129651
 30
0.0000001793827793
  0
POINT
  5
1589
330
1245
100
AcDbEntity
  8
Defpoints
 62
     0
100
AcDbPoint
 10
721.8398038594548
 20
1284.678308128685
 30
0.0000000000032074
  0
POINT
  5
158A
330
1245
100
AcDbEntity
  8
Defpoints
 62
     0
100
AcDbPoint
 10
744.3322878147102
 20
1284.678308128685
 30
0.0
  0
ENDBLK
  5
1250
330
1245
100
AcDbEntity
  8
0
100
AcDbBlockEnd
  0
BLOCK
  5
125B
330
1251
100
AcDbEntity
  8
0
100
AcDbBlockBegin
  2
*D20
 70
     1
 10
0.0
 20
0.0
 30
0.0
  3
*D20
  1

  0
LINE
  5
1579
330
1251
100
AcDbEntity
  8
7
100
AcDbLine
 10
689.7786606342103
 20
1158.678308129652
 30
0.0
 11
677.6966591226632
 21
1158.678308129652
 31
0.0
  0
LINE
  5
157A
330
1251
100
AcDbEntity
  8
7
100
AcDbLine
 10
680.466809050833
 20
1130.178308129652
 30
0.0
 11
677.6966591226632
 21
1130.178308129652
 31
0.0
  0
LINE
  5
157B
330
1251
100
AcDbEntity
  8
7
100
AcDbLine
 10
678.6966591226632
 20
1156.678308129652
 30
0.0
 11
678.6966591226632
 21
1132.178308129652
 31
0.0
  0
SOLID
  5
157C
330
1251
100
AcDbEntity
  8
7
100
AcDbTrace
 10
678.3633257893299
 20
1156.678308129652
 30
0.0
 11
679.0299924559966
 21
1156.678308129652
 31
0.0
 12
678.6966591226632
 22
1158.678308129652
 32
0.0
 13
678.6966591226632
 23
1158.678308129652
 33
0.0
  0
SOLID
  5
157D
330
1251
100
AcDbEntity
  8
7
100
AcDbTrace
 10
678.3633257893299
 20
1132.178308129652
 30
0.0
 11
679.0299924559966
 21
1132.178308129652
 31
0.0
 12
678.6966591226632
 22
1130.178308129652
 32
0.0
 13
678.6966591226632
 23
1130.178308129652
 33
0.0
  0
MTEXT
  5
157E
330
1251
100
AcDbEntity
  8
7
100
AcDbMText
 10
676.6509908889493
 20
1144.428308129652
 30
0.0
 40
2.0
 41
0.0
 71
     5
 72
     1
  1
285
  7
SANINDUSA
 11
0.0000000000000001
 21
1.0
 31
0.0
 73
     1
 44
1.0
1001
ACAD
1000
MTEXTBEGIN
1070
    73
1070
     1
1070
    44
1040
1.0
1070
    74
1070
     0
1000
MTEXTEND
  0
POINT
  5
157F
330
1251
100
AcDbEntity
  8
Defpoints
 62
     0
100
AcDbPoint
 10
690.7786606342104
 20
1158.678308129652
 30
-0.0000001793795719
  0
POINT
  5
1580
330
1251
100
AcDbEntity
  8
Defpoints
 62
     0
100
AcDbPoint
 10
681.466809050833
 20
1130.178308129652
 30
-0.0000001793795719
  0
POINT
  5
1581
330
1251
100
AcDbEntity
  8
Defpoints
 62
     0
100
AcDbPoint
 10
678.6966591226632
 20
1130.178308129652
 30
0.0
  0
ENDBLK
  5
125C
330
1251
100
AcDbEntity
  8
0
100
AcDbBlockEnd
  0
BLOCK
  5
1269
330
125D
100
AcDbEntity
  8
0
100
AcDbBlockBegin
  2
*D21
 70
     1
 10
0.0
 20
0.0
 30
0.0
  3
*D21
  1

  0
LINE
  5
156E
330
125D
100
AcDbEntity
  8
7
100
AcDbLine
 10
669.5252122761043
 20
1130.178308129652
 30
0.0
 11
684.6966591226633
 21
1130.178308129652
 31
0.0
  0
LINE
  5
156F
330
125D
100
AcDbEntity
  8
7
100
AcDbLine
 10
666.7463777832295
 20
1129.178308129652
 30
0.0
 11
684.6966591226633
 21
1129.178308129652
 31
0.0
  0
LINE
  5
1570
330
125D
100
AcDbEntity
  8
7
100
AcDbLine
 10
683.6966591226633
 20
1132.178308129652
 30
0.0
 11
683.6966591226633
 21
1134.178308129652
 31
0.0
  0
LINE
  5
1571
330
125D
100
AcDbEntity
  8
7
100
AcDbLine
 10
683.6966591226633
 20
1127.178308129652
 30
0.0
 11
683.6966591226633
 21
1120.235393421794
 31
0.0
  0
LINE
  5
1572
330
125D
100
AcDbEntity
  8
7
100
AcDbLine
 10
683.6966591226633
 20
1130.178308129652
 30
0.0
 11
683.6966591226633
 21
1129.178308129652
 31
0.0
  0
SOLID
  5
1573
330
125D
100
AcDbEntity
  8
7
100
AcDbTrace
 10
683.3633257893299
 20
1132.178308129652
 30
0.0
 11
684.0299924559966
 21
1132.178308129652
 31
0.0
 12
683.6966591226633
 22
1130.178308129652
 32
0.0
 13
683.6966591226633
 23
1130.178308129652
 33
0.0
  0
SOLID
  5
1574
330
125D
100
AcDbEntity
  8
7
100
AcDbTrace
 10
683.3633257893299
 20
1127.178308129652
 30
0.0
 11
684.0299924559966
 21
1127.178308129652
 31
0.0
 12
683.6966591226633
 22
1129.178308129652
 32
0.0
 13
683.6966591226633
 23
1129.178308129652
 33
0.0
  0
MTEXT
  5
1575
330
125D
100
AcDbEntity
  8
7
100
AcDbMText
 10
681.6556920306551
 20
1122.706850775723
 30
0.0
 40
2.0
 41
0.0
 71
     5
 72
     1
  1
10
  7
SANINDUSA
 11
0.0000000000000001
 21
1.0
 31
0.0
 73
     1
 44
1.0
1001
ACAD
1000
MTEXTBEGIN
1070
    73
1070
     1
1070
    44
1040
1.0
1070
    74
1070
     0
1000
MTEXTEND
  0
POINT
  5
1576
330
125D
100
AcDbEntity
  8
Defpoints
 62
     0
100
AcDbPoint
 10
668.5252122761044
 20
1130.178308129652
 30
-0.0000001793795719
  0
POINT
  5
1577
330
125D
100
AcDbEntity
  8
Defpoints
 62
     0
100
AcDbPoint
 10
665.7463777832295
 20
1129.178308129652
 30
0.0
  0
POINT
  5
1578
330
125D
100
AcDbEntity
  8
Defpoints
 62
     0
100
AcDbPoint
 10
683.6966591226633
 20
1129.178308129652
 30
0.0
  0
ENDBLK
  5
126A
330
125D
100
AcDbEntity
  8
0
100
AcDbBlockEnd
  0
BLOCK
  5
1275
330
126B
100
AcDbEntity
  8
0
100
AcDbBlockBegin
  2
*D22
 70
     1
 10
0.0
 20
0.0
 30
0.0
  3
*D22
  1

  0
LINE
  5
158B
330
126B
100
AcDbEntity
  8
7
100
AcDbLine
 10
725.2226938951005
 20
1158.678308129652
 30
0.0
 11
745.3322878147101
 21
1158.678308129652
 31
0.0
  0
LINE
  5
158C
330
126B
100
AcDbEntity
  8
7
100
AcDbLine
 10
740.3322878147101
 20
1129.178308129652
 30
0.0
 11
745.3322878147101
 21
1129.178308129652
 31
0.0
  0
LINE
  5
158D
330
126B
100
AcDbEntity
  8
7
100
AcDbLine
 10
744.3322878147101
 20
1156.678308129652
 30
0.0
 11
744.3322878147101
 21
1131.178308129652
 31
0.0
  0
SOLID
  5
158E
330
126B
100
AcDbEntity
  8
7
100
AcDbTrace
 10
743.9989544813768
 20
1156.678308129652
 30
0.0
 11
744.6656211480435
 21
1156.678308129652
 31
0.0
 12
744.3322878147101
 22
1158.678308129652
 32
0.0
 13
744.3322878147101
 23
1158.678308129652
 33
0.0
  0
SOLID
  5
158F
330
126B
100
AcDbEntity
  8
7
100
AcDbTrace
 10
743.9989544813768
 20
1131.178308129652
 30
0.0
 11
744.6656211480435
 21
1131.178308129652
 31
0.0
 12
744.3322878147101
 22
1129.178308129652
 32
0.0
 13
744.3322878147101
 23
1129.178308129652
 33
0.0
  0
MTEXT
  5
1590
330
126B
100
AcDbEntity
  8
7
100
AcDbMText
 10
742.2906491310298
 20
1143.928308129652
 30
0.0
 40
2.0
 41
0.0
 71
     5
 72
     1
  1
295
  7
SANINDUSA
 11
0.0000000000000001
 21
1.0
 31
0.0
 73
     1
 44
1.0
1001
ACAD
1000
MTEXTBEGIN
1070
    73
1070
     1
1070
    44
1040
1.0
1070
    74
1070
     0
1000
MTEXTEND
  0
POINT
  5
1591
330
126B
100
AcDbEntity
  8
Defpoints
 62
     0
100
AcDbPoint
 10
724.2226938951005
 20
1158.678308129652
 30
-0.0000001793795719
  0
POINT
  5
1592
330
126B
100
AcDbEntity
  8
Defpoints
 62
     0
100
AcDbPoint
 10
739.3322878147102
 20
1129.178308129652
 30
0.0
  0
POINT
  5
1593
330
126B
100
AcDbEntity
  8
Defpoints
 62
     0
100
AcDbPoint
 10
744.3322878147101
 20
1129.178308129652
 30
0.0
  0
ENDBLK
  5
1276
330
126B
100
AcDbEntity
  8
0
100
AcDbBlockEnd
  0
BLOCK
  5
1281
330
1277
100
AcDbEntity
  8
0
100
AcDbBlockBegin
  2
*D23
 70
     1
 10
0.0
 20
0.0
 30
0.0
  3
*D23
  1

  0
LINE
  5
155C
330
1277
100
AcDbEntity
  8
7
100
AcDbLine
 10
634.5472846297939
 20
1314.178308129648
 30
0.0
 11
632.9133662564403
 21
1314.178308129648
 31
0.0
  0
LINE
  5
155D
330
1277
100
AcDbEntity
  8
7
100
AcDbLine
 10
637.9133662564401
 20
1129.178308129652
 30
0.0
 11
632.9133662564402
 21
1129.178308129652
 31
0.0
  0
LINE
  5
155E
330
1277
100
AcDbEntity
  8
7
100
AcDbLine
 10
633.9133662564403
 20
1312.178308129648
 30
0.0
 11
633.9133662564401
 21
1131.178308129652
 31
0.0
  0
SOLID
  5
155F
330
1277
100
AcDbEntity
  8
7
100
AcDbTrace
 10
633.5800329231069
 20
1312.178308129648
 30
0.0
 11
634.2466995897737
 21
1312.178308129648
 31
0.0
 12
633.9133662564403
 22
1314.178308129648
 32
0.0
 13
633.9133662564403
 23
1314.178308129648
 33
0.0
  0
SOLID
  5
1560
330
1277
100
AcDbEntity
  8
7
100
AcDbTrace
 10
633.5800329231068
 20
1131.178308129652
 30
0.0
 11
634.2466995897735
 21
1131.178308129652
 31
0.0
 12
633.9133662564401
 22
1129.178308129652
 32
0.0
 13
633.9133662564401
 23
1129.178308129652
 33
0.0
  0
MTEXT
  5
1561
330
1277
100
AcDbEntity
  8
7
100
AcDbMText
 10
631.8676980227262
 20
1221.67830812965
 30
0.0
 40
2.0
 41
0.0
 71
     5
 72
     1
  1
1850
  7
SANINDUSA
 11
0.0000000000000001
 21
1.0
 31
0.0
 73
     1
 44
1.0
1001
ACAD
1000
MTEXTBEGIN
1070
    73
1070
     1
1070
    44
1040
1.0
1070
    74
1070
     0
1000
MTEXTEND
  0
POINT
  5
1562
330
1277
100
AcDbEntity
  8
Defpoints
 62
     0
100
AcDbPoint
 10
635.5472846297939
 20
1314.178308129648
 30
0.0
  0
POINT
  5
1563
330
1277
100
AcDbEntity
  8
Defpoints
 62
     0
100
AcDbPoint
 10
638.9133662564402
 20
1129.178308129652
 30
0.0
  0
POINT
  5
1564
330
1277
100
AcDbEntity
  8
Defpoints
 62
     0
100
AcDbPoint
 10
633.9133662564401
 20
1129.178308129652
 30
0.0
  0
ENDBLK
  5
1282
330
1277
100
AcDbEntity
  8
0
100
AcDbBlockEnd
  0
BLOCK
  5
1A0B
330
1A0A
100
AcDbEntity
  8
0
100
AcDbBlockBegin
  2
*D31
 70
     1
 10
0.0
 20
0.0
 30
0.0
  3
*D31
  1

  0
LINE
  5
1A17
330
1A0A
100
AcDbEntity
  8
cotas
100
AcDbLine
 10
740.3322878147101
 20
1314.178308129652
 30
0.0
 11
771.0235831893107
 21
1314.178308129652
 31
0.0
  0
LINE
  5
1A18
330
1A0A
100
AcDbEntity
  8
cotas
100
AcDbLine
 10
740.3322878147101
 20
1129.178308129652
 30
0.0
 11
771.0235831893105
 21
1129.178308129652
 31
0.0
  0
LINE
  5
1A19
330
1A0A
100
AcDbEntity
  8
cotas
100
AcDbLine
 10
770.0235831893106
 20
1312.178308129652
 30
0.0
 11
770.0235831893105
 21
1131.178308129652
 31
0.0
  0
SOLID
  5
1A1A
330
1A0A
100
AcDbEntity
  8
cotas
100
AcDbTrace
 10
769.6902498559773
 20
1312.178308129652
 30
0.0
 11
770.356916522644
 21
1312.178308129652
 31
0.0
 12
770.0235831893106
 22
1314.178308129652
 32
0.0
 13
770.0235831893106
 23
1314.178308129652
 33
0.0
  0
SOLID
  5
1A1B
330
1A0A
100
AcDbEntity
  8
cotas
100
AcDbTrace
 10
769.6902498559771
 20
1131.178308129652
 30
0.0
 11
770.3569165226439
 21
1131.178308129652
 31
0.0
 12
770.0235831893105
 22
1129.178308129652
 32
0.0
 13
770.0235831893105
 23
1129.178308129652
 33
0.0
  0
MTEXT
  5
1A1C
330
1A0A
100
AcDbEntity
  8
cotas
100
AcDbMText
 10
767.9779149555965
 20
1221.678308129652
 30
0.0
 40
2.0
 41
0.0
 71
     5
 72
     1
  1
185
  7
SANINDUSA
 11
0.0000000000000001
 21
1.0
 31
0.0
 73
     1
 44
1.0
1001
ACAD
1000
MTEXTBEGIN
1070
    73
1070
     1
1070
    44
1040
1.0
1070
    74
1070
     0
1000
MTEXTEND
  0
POINT
  5
1A1D
330
1A0A
100
AcDbEntity
  8
Defpoints
 62
     0
100
AcDbPoint
 10
739.3322878147102
 20
1314.178308129652
 30
0.0
  0
POINT
  5
1A1E
330
1A0A
100
AcDbEntity
  8
Defpoints
 62
     0
100
AcDbPoint
 10
739.3322878147102
 20
1129.178308129652
 30
0.0
  0
POINT
  5
1A1F
330
1A0A
100
AcDbEntity
  8
Defpoints
 62
     0
100
AcDbPoint
 10
770.0235831893105
 20
1129.178308129652
 30
0.0
  0
ENDBLK
  5
1A0C
330
1A0A
100
AcDbEntity
  8
0
100
AcDbBlockEnd
  0
BLOCK
  5
1A24
330
1A23
100
AcDbEntity
  8
0
100
AcDbBlockBegin
  2
*D32
 70
     1
 10
0.0
 20
0.0
 30
0.0
  3
*D32
  1

  0
LINE
  5
1A30
330
1A23
100
AcDbEntity
  8
cotas
100
AcDbLine
 10
740.3322878147101
 20
1314.178308129652
 30
0.0
 11
760.4452634475948
 21
1314.178308129652
 31
0.0
  0
LINE
  5
1A31
330
1A23
100
AcDbEntity
  8
cotas
100
AcDbLine
 10
740.3322878147101
 20
1129.178308129652
 30
0.0
 11
760.4452634475947
 21
1129.178308129652
 31
0.0
  0
LINE
  5
1A32
330
1A23
100
AcDbEntity
  8
cotas
100
AcDbLine
 10
759.4452634475948
 20
1312.178308129652
 30
0.0
 11
759.4452634475946
 21
1131.178308129652
 31
0.0
  0
SOLID
  5
1A33
330
1A23
100
AcDbEntity
  8
cotas
100
AcDbTrace
 10
759.1119301142614
 20
1312.178308129652
 30
0.0
 11
759.7785967809281
 21
1312.178308129652
 31
0.0
 12
759.4452634475948
 22
1314.178308129652
 32
0.0
 13
759.4452634475948
 23
1314.178308129652
 33
0.0
  0
SOLID
  5
1A34
330
1A23
100
AcDbEntity
  8
cotas
100
AcDbTrace
 10
759.1119301142613
 20
1131.178308129652
 30
0.0
 11
759.778596780928
 21
1131.178308129652
 31
0.0
 12
759.4452634475946
 22
1129.178308129652
 32
0.0
 13
759.4452634475946
 23
1129.178308129652
 33
0.0
  0
MTEXT
  5
1A35
330
1A23
100
AcDbEntity
  8
cotas
100
AcDbMText
 10
757.3995952138807
 20
1221.678308129652
 30
0.0
 40
2.0
 41
0.0
 71
     5
 72
     1
  1
185
  7
SANINDUSA
 11
0.0000000000000001
 21
1.0
 31
0.0
 73
     1
 44
1.0
1001
ACAD
1000
MTEXTBEGIN
1070
    73
1070
     1
1070
    44
1040
1.0
1070
    74
1070
     0
1000
MTEXTEND
  0
POINT
  5
1A36
330
1A23
100
AcDbEntity
  8
Defpoints
 62
     0
100
AcDbPoint
 10
739.3322878147102
 20
1314.178308129652
 30
0.0
  0
POINT
  5
1A37
330
1A23
100
AcDbEntity
  8
Defpoints
 62
     0
100
AcDbPoint
 10
739.3322878147102
 20
1129.178308129652
 30
0.0
  0
POINT
  5
1A38
330
1A23
100
AcDbEntity
  8
Defpoints
 62
     0
100
AcDbPoint
 10
759.4452634475946
 20
1129.178308129652
 30
0.0
  0
ENDBLK
  5
1A25
330
1A23
100
AcDbEntity
  8
0
100
AcDbBlockEnd
  0
ENDSEC
  0
SECTION
  2
ENTITIES
  0
LINE
  5
EA2
330
1F
100
AcDbEntity
  8
SANINDUSA
100
AcDbLine
 10
627.2749379807377
 20
1217.191277629562
 30
0.0000000001555553
 11
626.6749379415285
 21
1217.191277629562
 31
0.0000000001555553
  0
LINE
  5
EA3
330
1F
100
AcDbEntity
  8
SANINDUSA
100
AcDbLine
 10
627.2749379807377
 20
1217.197277629562
 30
0.0000000001555553
 11
626.6749379415285
 21
1217.197277629562
 31
0.0000000001555553
  0
LINE
  5
F2E
330
1F
100
AcDbEntity
  8
SANINDUSA
100
AcDbLine
 10
627.5707959737116
 20
1217.197277625752
 30
-0.000000000061528
 11
627.2779379807377
 21
1217.197277625752
 31
0.0000000002002489
  0
LINE
  5
F30
330
1F
100
AcDbEntity
  8
SANINDUSA
100
AcDbLine
 10
627.4338796318763
 20
1217.230245140173
 30
0.0000000000366369
 11
627.5851679974714
 21
1217.381533505769
 31
0.0000000000366369
  0
LINE
  5
F31
330
1F
100
AcDbEntity
  8
SANINDUSA
100
AcDbLine
 10
627.5952317059704
 20
1217.36896979727
 30
0.0000000000366369
 11
627.4464758259539
 21
1217.220213917254
 31
0.0000000000366369
  0
LINE
  5
F55
330
1F
100
AcDbEntity
  8
SANINDUSA
100
AcDbLine
 10
627.447475825954
 20
1217.205277625752
 30
0.0000000000366369
 11
627.447475825954
 21
1217.215277625752
 31
0.0000000000366369
  0
LINE
  5
F56
330
1F
100
AcDbEntity
  8
SANINDUSA
100
AcDbLine
 10
627.4294758259539
 20
1217.205277625752
 30
0.0000000000366369
 11
627.4294758259539
 21
1217.215277625752
 31
0.0000000000366369
  0
LINE
  5
F57
330
1F
100
AcDbEntity
  8
SANINDUSA
100
AcDbLine
 10
627.4609758259539
 20
1217.205277625752
 30
0.0000000000366369
 11
627.4159758259539
 21
1217.205277625752
 31
0.0000000000366369
  0
LINE
  5
F58
330
1F
100
AcDbEntity
  8
SANINDUSA
100
AcDbLine
 10
627.4609758259539
 20
1217.187277625752
 30
0.0000000000366369
 11
627.4159758259539
 21
1217.187277625752
 31
0.0000000000366369
  0
LINE
  5
F59
330
1F
100
AcDbEntity
  8
SANINDUSA
100
AcDbLine
 10
627.4159758259539
 20
1217.205277625752
 30
0.0000000000366369
 11
627.4159758259539
 21
1217.187277625752
 31
0.0000000000366369
  0
LINE
  5
F5A
330
1F
100
AcDbEntity
  8
SANINDUSA
100
AcDbLine
 10
627.4609758259539
 20
1217.205277625752
 30
0.0000000000366369
 11
627.4609758259539
 21
1217.187277625752
 31
0.0000000000366369
  0
LINE
  5
F5B
330
1F
100
AcDbEntity
  8
SANINDUSA
100
AcDbLine
 10
627.447475825954
 20
1217.215277625752
 30
0.0000000000366369
 11
627.4294758259539
 21
1217.215277625752
 31
0.0000000000366369
  0
CIRCLE
  5
F5C
330
1F
100
AcDbEntity
  8
SANINDUSA
100
AcDbCircle
 10
627.4384758259539
 20
1217.223527625752
 30
0.0000000000366369
 40
0.0050849999999992
  0
LINE
  5
F5D
330
1F
100
AcDbEntity
  8
SANINDUSA
100
AcDbLine
 10
627.444475825954
 20
1217.230277625752
 30
0.0000000000366369
 11
627.4324758259539
 21
1217.230277625752
 31
0.0000000000366369
  0
ARC
  5
F5E
330
1F
100
AcDbEntity
  8
SANINDUSA
100
AcDbCircle
 10
627.4324758259539
 20
1217.228277625752
 30
0.0000000000366369
 40
0.002
100
AcDbArc
 50
90.0
 51
180.0
  0
LINE
  5
F5F
330
1F
100
AcDbEntity
  8
SANINDUSA
100
AcDbLine
 10
627.4304758259539
 20
1217.215277625752
 30
0.0000000000366369
 11
627.4304758259539
 21
1217.228277625752
 31
0.0000000000366369
  0
LINE
  5
F60
330
1F
100
AcDbEntity
  8
SANINDUSA
100
AcDbLine
 10
627.4402435929069
 20
1217.235194887642
 30
0.0000000000366369
 11
627.4353263310173
 21
1217.230277625752
 31
0.0000000000366369
  0
LINE
  5
F61
330
1F
100
AcDbEntity
  8
SANINDUSA
100
AcDbLine
 10
627.4508501946248
 20
1217.224588285924
 30
0.0000000000366369
 11
627.4395364861257
 21
1217.235901994423
 31
0.0000000000366369
  0
LINE
  5
F62
330
1F
100
AcDbEntity
  8
SANINDUSA
100
AcDbLine
 10
627.4464758259539
 20
1217.221628130816
 30
0.0000000000366369
 11
627.4501430878435
 21
1217.225295392705
 31
0.0000000000366369
  0
ARC
  5
F63
330
1F
100
AcDbEntity
  8
SANINDUSA
100
AcDbCircle
 10
627.444475825954
 20
1217.228277625752
 30
0.0000000000366369
 40
0.002
100
AcDbArc
 50
0.0
 51
90.0
  0
LINE
  5
F64
330
1F
100
AcDbEntity
  8
SANINDUSA
100
AcDbLine
 10
627.4464758259539
 20
1217.215277625752
 30
0.0000000000366369
 11
627.4464758259539
 21
1217.228277625752
 31
0.0000000000366369
  0
LINE
  5
F65
330
1F
100
AcDbEntity
  8
SANINDUSA
100
AcDbLine
 10
627.439114825954
 20
1217.226497625752
 30
0.0000000000366369
 11
627.4378368259539
 21
1217.226497625752
 31
0.0000000000366369
  0
LINE
  5
F66
330
1F
100
AcDbEntity
  8
SANINDUSA
100
AcDbLine
 10
627.4395947727711
 20
1217.222888625753
 30
0.0000000000366369
 11
627.439114825954
 21
1217.222888625753
 31
0.0000000000366369
  0
LINE
  5
F67
330
1F
100
AcDbEntity
  8
SANINDUSA
100
AcDbLine
 10
627.439114825954
 20
1217.222888625753
 30
0.0000000000366369
 11
627.439114825954
 21
1217.222408678935
 31
0.0000000000366369
  0
LINE
  5
F68
330
1F
100
AcDbEntity
  8
SANINDUSA
100
AcDbLine
 10
627.4363757188138
 20
1217.225627732893
 30
0.0000000000366369
 11
627.4373568791368
 21
1217.224166625752
 31
0.0000000000366369
  0
LINE
  5
F69
330
1F
100
AcDbEntity
  8
SANINDUSA
100
AcDbLine
 10
627.4363757188138
 20
1217.225627732893
 30
0.0000000000366369
 11
627.4378368259539
 21
1217.224166625752
 31
0.0000000000366369
  0
LINE
  5
F6A
330
1F
100
AcDbEntity
  8
SANINDUSA
100
AcDbLine
 10
627.4373568791368
 20
1217.224166625752
 30
0.0000000000366369
 11
627.4378368259539
 21
1217.224166625752
 31
0.0000000000366369
  0
LINE
  5
F6B
330
1F
100
AcDbEntity
  8
SANINDUSA
100
AcDbLine
 10
627.4378368259539
 20
1217.22464657257
 30
0.0000000000366369
 11
627.4363757188138
 21
1217.225627732893
 31
0.0000000000366369
  0
LINE
  5
F6C
330
1F
100
AcDbEntity
  8
SANINDUSA
100
AcDbLine
 10
627.4378368259539
 20
1217.224166625752
 30
0.0000000000366369
 11
627.4378368259539
 21
1217.22464657257
 31
0.0000000000366369
  0
LINE
  5
F6D
330
1F
100
AcDbEntity
  8
SANINDUSA
100
AcDbLine
 10
627.4378368259539
 20
1217.222408678935
 30
0.0000000000366369
 11
627.4378368259539
 21
1217.222888625753
 31
0.0000000000366369
  0
LINE
  5
F6E
330
1F
100
AcDbEntity
  8
SANINDUSA
100
AcDbLine
 10
627.4378368259539
 20
1217.222888625753
 30
0.0000000000366369
 11
627.4373568791368
 21
1217.222888625753
 31
0.0000000000366369
  0
LINE
  5
F6F
330
1F
100
AcDbEntity
  8
SANINDUSA
100
AcDbLine
 10
627.4405759330941
 20
1217.225627732893
 30
0.0000000000366369
 11
627.439114825954
 21
1217.22464657257
 31
0.0000000000366369
  0
LINE
  5
F70
330
1F
100
AcDbEntity
  8
SANINDUSA
100
AcDbLine
 10
627.4405759330941
 20
1217.225627732893
 30
0.0000000000366369
 11
627.439114825954
 21
1217.224166625752
 31
0.0000000000366369
  0
LINE
  5
F71
330
1F
100
AcDbEntity
  8
SANINDUSA
100
AcDbLine
 10
627.439114825954
 20
1217.22464657257
 30
0.0000000000366369
 11
627.439114825954
 21
1217.224166625752
 31
0.0000000000366369
  0
LINE
  5
F72
330
1F
100
AcDbEntity
  8
SANINDUSA
100
AcDbLine
 10
627.4395947727711
 20
1217.224166625752
 30
0.0000000000366369
 11
627.4405759330941
 21
1217.225627732893
 31
0.0000000000366369
  0
LINE
  5
F73
330
1F
100
AcDbEntity
  8
SANINDUSA
100
AcDbLine
 10
627.439114825954
 20
1217.224166625752
 30
0.0000000000366369
 11
627.4395947727711
 21
1217.224166625752
 31
0.0000000000366369
  0
LINE
  5
F74
330
1F
100
AcDbEntity
  8
SANINDUSA
100
AcDbLine
 10
627.4395947727711
 20
1217.222888625753
 30
0.0000000000366369
 11
627.4414458259538
 21
1217.222888625753
 31
0.0000000000366369
  0
LINE
  5
F75
330
1F
100
AcDbEntity
  8
SANINDUSA
100
AcDbLine
 10
627.4373568791368
 20
1217.224166625752
 30
0.0000000000366369
 11
627.435505825954
 21
1217.224166625752
 31
0.0000000000366369
  0
LINE
  5
F76
330
1F
100
AcDbEntity
  8
SANINDUSA
100
AcDbLine
 10
627.4378368259539
 20
1217.222888625753
 30
0.0000000000366369
 11
627.439114825954
 21
1217.222888625753
 31
0.0000000000366369
  0
LINE
  5
F77
330
1F
100
AcDbEntity
  8
SANINDUSA
100
AcDbLine
 10
627.435505825954
 20
1217.222888625753
 30
0.0000000000366369
 11
627.4373568791368
 21
1217.222888625753
 31
0.0000000000366369
  0
LINE
  5
F78
330
1F
100
AcDbEntity
  8
SANINDUSA
100
AcDbLine
 10
627.439114825954
 20
1217.224166625752
 30
0.0000000000366369
 11
627.4378368259539
 21
1217.224166625752
 31
0.0000000000366369
  0
LINE
  5
F79
330
1F
100
AcDbEntity
  8
SANINDUSA
100
AcDbLine
 10
627.4414458259538
 20
1217.224166625752
 30
0.0000000000366369
 11
627.4395947727711
 21
1217.224166625752
 31
0.0000000000366369
  0
LINE
  5
F7A
330
1F
100
AcDbEntity
  8
SANINDUSA
100
AcDbLine
 10
627.4384758259539
 20
1217.223527625752
 30
0.0000000000366369
 11
627.4378368259539
 21
1217.222888625753
 31
0.0000000000366369
  0
LINE
  5
F7B
330
1F
100
AcDbEntity
  8
SANINDUSA
100
AcDbLine
 10
627.4384758259539
 20
1217.222888625753
 30
0.0000000000366369
 11
627.4384758259539
 21
1217.223527625752
 31
0.0000000000366369
  0
LINE
  5
F7C
330
1F
100
AcDbEntity
  8
SANINDUSA
100
AcDbLine
 10
627.435505825954
 20
1217.224166625752
 30
0.0000000000366369
 11
627.435505825954
 21
1217.222888625753
 31
0.0000000000366369
  0
LINE
  5
F7D
330
1F
100
AcDbEntity
  8
SANINDUSA
100
AcDbLine
 10
627.4378368259539
 20
1217.222888625753
 30
0.0000000000366369
 11
627.4378368259539
 21
1217.224166625752
 31
0.0000000000366369
  0
LINE
  5
F7E
330
1F
100
AcDbEntity
  8
SANINDUSA
100
AcDbLine
 10
627.4378368259539
 20
1217.224166625752
 30
0.0000000000366369
 11
627.4384758259539
 21
1217.223527625752
 31
0.0000000000366369
  0
LINE
  5
F7F
330
1F
100
AcDbEntity
  8
SANINDUSA
100
AcDbLine
 10
627.4384758259539
 20
1217.223527625752
 30
0.0000000000366369
 11
627.4384758259539
 21
1217.224166625752
 31
0.0000000000366369
  0
LINE
  5
F80
330
1F
100
AcDbEntity
  8
SANINDUSA
100
AcDbLine
 10
627.439114825954
 20
1217.222888625753
 30
0.0000000000366369
 11
627.4384758259539
 21
1217.223527625752
 31
0.0000000000366369
  0
LINE
  5
F81
330
1F
100
AcDbEntity
  8
SANINDUSA
100
AcDbLine
 10
627.4384758259539
 20
1217.223527625752
 30
0.0000000000366369
 11
627.439114825954
 21
1217.224166625752
 31
0.0000000000366369
  0
LINE
  5
F82
330
1F
100
AcDbEntity
  8
SANINDUSA
100
AcDbLine
 10
627.4414458259538
 20
1217.222888625753
 30
0.0000000000366369
 11
627.4414458259538
 21
1217.224166625752
 31
0.0000000000366369
  0
LINE
  5
F83
330
1F
100
AcDbEntity
  8
SANINDUSA
100
AcDbLine
 10
627.439114825954
 20
1217.224166625752
 30
0.0000000000366369
 11
627.439114825954
 21
1217.222888625753
 31
0.0000000000366369
  0
LINE
  5
F84
330
1F
100
AcDbEntity
  8
SANINDUSA
100
AcDbLine
 10
627.4384758259539
 20
1217.223527625752
 30
0.0000000000366369
 11
627.439114825954
 21
1217.223527625752
 31
0.0000000000366369
  0
LINE
  5
F85
330
1F
100
AcDbEntity
  8
SANINDUSA
100
AcDbLine
 10
627.4378368259539
 20
1217.223527625752
 30
0.0000000000366369
 11
627.4384758259539
 21
1217.223527625752
 31
0.0000000000366369
  0
LINE
  5
F86
330
1F
100
AcDbEntity
  8
SANINDUSA
100
AcDbLine
 10
627.439114825954
 20
1217.22464657257
 30
0.0000000000366369
 11
627.439114825954
 21
1217.226497625752
 31
0.0000000000366369
  0
LINE
  5
F87
330
1F
100
AcDbEntity
  8
SANINDUSA
100
AcDbLine
 10
627.4378368259539
 20
1217.226497625752
 30
0.0000000000366369
 11
627.4378368259539
 21
1217.22464657257
 31
0.0000000000366369
  0
LINE
  5
F88
330
1F
100
AcDbEntity
  8
SANINDUSA
100
AcDbLine
 10
627.4378368259539
 20
1217.220557625752
 30
0.0000000000366369
 11
627.439114825954
 21
1217.220557625752
 31
0.0000000000366369
  0
LINE
  5
F89
330
1F
100
AcDbEntity
  8
SANINDUSA
100
AcDbLine
 10
627.4405759330941
 20
1217.221427518612
 30
0.0000000000366369
 11
627.4395947727711
 21
1217.222888625753
 31
0.0000000000366369
  0
LINE
  5
F8A
330
1F
100
AcDbEntity
  8
SANINDUSA
100
AcDbLine
 10
627.4405759330941
 20
1217.221427518612
 30
0.0000000000366369
 11
627.439114825954
 21
1217.222888625753
 31
0.0000000000366369
  0
LINE
  5
F8B
330
1F
100
AcDbEntity
  8
SANINDUSA
100
AcDbLine
 10
627.439114825954
 20
1217.222408678935
 30
0.0000000000366369
 11
627.4405759330941
 21
1217.221427518612
 31
0.0000000000366369
  0
LINE
  5
F8C
330
1F
100
AcDbEntity
  8
SANINDUSA
100
AcDbLine
 10
627.4363757188138
 20
1217.221427518612
 30
0.0000000000366369
 11
627.4378368259539
 21
1217.222408678935
 31
0.0000000000366369
  0
LINE
  5
F8D
330
1F
100
AcDbEntity
  8
SANINDUSA
100
AcDbLine
 10
627.4363757188138
 20
1217.221427518612
 30
0.0000000000366369
 11
627.4378368259539
 21
1217.222888625753
 31
0.0000000000366369
  0
LINE
  5
F8E
330
1F
100
AcDbEntity
  8
SANINDUSA
100
AcDbLine
 10
627.4373568791368
 20
1217.222888625753
 30
0.0000000000366369
 11
627.4363757188138
 21
1217.221427518612
 31
0.0000000000366369
  0
LINE
  5
F8F
330
1F
100
AcDbEntity
  8
SANINDUSA
100
AcDbLine
 10
627.4378368259539
 20
1217.222408678935
 30
0.0000000000366369
 11
627.4378368259539
 21
1217.220557625752
 31
0.0000000000366369
  0
LINE
  5
F90
330
1F
100
AcDbEntity
  8
SANINDUSA
100
AcDbLine
 10
627.439114825954
 20
1217.220557625752
 30
0.0000000000366369
 11
627.439114825954
 21
1217.222408678935
 31
0.0000000000366369
  0
LINE
  5
FA9
330
1F
100
AcDbEntity
  8
SANINDUSA
100
AcDbLine
 10
627.5908573372996
 20
1217.364595428599
 30
0.0000000000366369
 11
627.5795436288007
 21
1217.375909137098
 31
0.0000000000366369
  0
LINE
  5
FAB
330
1F
100
AcDbEntity
  8
SANINDUSA
100
AcDbLine
 10
627.5802507355819
 20
1217.375202030317
 30
0.0000000000366369
 11
627.5851679974714
 21
1217.380119292206
 31
0.0000000000366369
  0
LINE
  5
FAC
330
1F
100
AcDbEntity
  8
SANINDUSA
100
AcDbLine
 10
627.5851679974714
 20
1217.38296979727
 30
0.0000000000366369
 11
627.5851679974714
 21
1217.37096979727
 31
0.0000000000366369
  0
CIRCLE
  5
FAD
330
1F
100
AcDbEntity
  8
SANINDUSA
100
AcDbCircle
 10
627.5919179974714
 20
1217.37696979727
 30
0.0000000000366369
 40
0.0050849999999992
  0
LINE
  5
FAE
330
1F
100
AcDbEntity
  8
SANINDUSA
100
AcDbLine
 10
627.5940181046116
 20
1217.37486969013
 30
0.0000000000366369
 11
627.5930369442885
 21
1217.37633079727
 31
0.0000000000366369
  0
LINE
  5
FAF
330
1F
100
AcDbEntity
  8
SANINDUSA
100
AcDbLine
 10
627.5940181046116
 20
1217.37486969013
 30
0.0000000000366369
 11
627.5925569974714
 21
1217.37633079727
 31
0.0000000000366369
  0
LINE
  5
FB0
330
1F
100
AcDbEntity
  8
SANINDUSA
100
AcDbLine
 10
627.5925569974714
 20
1217.37633079727
 30
0.0000000000366369
 11
627.5925569974714
 21
1217.375850850453
 31
0.0000000000366369
  0
LINE
  5
FB1
330
1F
100
AcDbEntity
  8
SANINDUSA
100
AcDbLine
 10
627.5898178903313
 20
1217.37486969013
 30
0.0000000000366369
 11
627.5912789974714
 21
1217.37633079727
 31
0.0000000000366369
  0
LINE
  5
FB2
330
1F
100
AcDbEntity
  8
SANINDUSA
100
AcDbLine
 10
627.5912789974714
 20
1217.375850850453
 30
0.0000000000366369
 11
627.5912789974714
 21
1217.37633079727
 31
0.0000000000366369
  0
LINE
  5
FB3
330
1F
100
AcDbEntity
  8
SANINDUSA
100
AcDbLine
 10
627.5907990506543
 20
1217.37633079727
 30
0.0000000000366369
 11
627.5898178903313
 21
1217.37486969013
 31
0.0000000000366369
  0
LINE
  5
FB4
330
1F
100
AcDbEntity
  8
SANINDUSA
100
AcDbLine
 10
627.6151679974714
 20
1217.36196979727
 30
0.0000000000366369
 11
627.6151679974714
 21
1217.39196979727
 31
0.0000000000366369
  0
LINE
  5
FB5
330
1F
100
AcDbEntity
  8
SANINDUSA
100
AcDbLine
 10
627.6101679974714
 20
1217.38996979727
 30
0.0000000000366369
 11
627.6101679974714
 21
1217.36396979727
 31
0.0000000000366369
  0
LINE
  5
FB6
330
1F
100
AcDbEntity
  8
SANINDUSA
100
AcDbLine
 10
627.6001679974714
 20
1217.38596979727
 30
0.0000000000366369
 11
627.6001679974714
 21
1217.36796979727
 31
0.0000000000366369
  0
LINE
  5
FB7
330
1F
100
AcDbEntity
  8
SANINDUSA
100
AcDbLine
 10
627.6101679974714
 20
1217.36796979727
 30
0.0000000000366369
 11
627.6001679974714
 21
1217.36796979727
 31
0.0000000000366369
  0
LINE
  5
FB8
330
1F
100
AcDbEntity
  8
SANINDUSA
100
AcDbLine
 10
627.6001679974714
 20
1217.36896979727
 30
0.0000000000366369
 11
627.5871679974715
 21
1217.36896979727
 31
0.0000000000366369
  0
LINE
  5
FB9
330
1F
100
AcDbEntity
  8
SANINDUSA
100
AcDbLine
 10
627.5925569974714
 20
1217.375850850453
 30
0.0000000000366369
 11
627.5940181046116
 21
1217.37486969013
 31
0.0000000000366369
  0
LINE
  5
FBA
330
1F
100
AcDbEntity
  8
SANINDUSA
100
AcDbLine
 10
627.5898178903313
 20
1217.37486969013
 30
0.0000000000366369
 11
627.5912789974714
 21
1217.375850850453
 31
0.0000000000366369
  0
LINE
  5
FBB
330
1F
100
AcDbEntity
  8
SANINDUSA
100
AcDbLine
 10
627.5912789974714
 20
1217.375850850453
 30
0.0000000000366369
 11
627.5912789974714
 21
1217.37399979727
 31
0.0000000000366369
  0
LINE
  5
FBC
330
1F
100
AcDbEntity
  8
SANINDUSA
100
AcDbLine
 10
627.5925569974714
 20
1217.37399979727
 30
0.0000000000366369
 11
627.5925569974714
 21
1217.375850850453
 31
0.0000000000366369
  0
LINE
  5
FBD
330
1F
100
AcDbEntity
  8
SANINDUSA
100
AcDbLine
 10
627.5912789974714
 20
1217.37399979727
 30
0.0000000000366369
 11
627.5925569974714
 21
1217.37399979727
 31
0.0000000000366369
  0
LINE
  5
FBE
330
1F
100
AcDbEntity
  8
SANINDUSA
100
AcDbLine
 10
627.5938174924081
 20
1217.36896979727
 30
0.0000000000366369
 11
627.5901502305185
 21
1217.36530253538
 31
0.0000000000366369
  0
ARC
  5
FBF
330
1F
100
AcDbEntity
  8
SANINDUSA
100
AcDbCircle
 10
627.5871679974715
 20
1217.37096979727
 30
0.0000000000366369
 40
0.002
100
AcDbArc
 50
180.0
 51
270.0
  0
LINE
  5
FC0
330
1F
100
AcDbEntity
  8
SANINDUSA
100
AcDbLine
 10
627.6121679974714
 20
1217.36196979727
 30
0.0000000000366369
 11
627.6151679974714
 21
1217.36196979727
 31
0.0000000000366369
  0
ARC
  5
FC1
330
1F
100
AcDbEntity
  8
SANINDUSA
100
AcDbCircle
 10
627.6121679974714
 20
1217.36396979727
 30
0.0000000000366369
 40
0.002
100
AcDbArc
 50
180.0
 51
270.0
  0
LINE
  5
FC2
330
1F
100
AcDbEntity
  8
SANINDUSA
100
AcDbLine
 10
627.6101679974714
 20
1217.38596979727
 30
0.0000000000366369
 11
627.6001679974714
 21
1217.38596979727
 31
0.0000000000366369
  0
LINE
  5
FC3
330
1F
100
AcDbEntity
  8
SANINDUSA
100
AcDbLine
 10
627.5948879974714
 20
1217.37760879727
 30
0.0000000000366369
 11
627.5930369442885
 21
1217.37760879727
 31
0.0000000000366369
  0
LINE
  5
FC4
330
1F
100
AcDbEntity
  8
SANINDUSA
100
AcDbLine
 10
627.5930369442885
 20
1217.37633079727
 30
0.0000000000366369
 11
627.5948879974714
 21
1217.37633079727
 31
0.0000000000366369
  0
LINE
  5
FC5
330
1F
100
AcDbEntity
  8
SANINDUSA
100
AcDbLine
 10
627.6001679974714
 20
1217.38496979727
 30
0.0000000000366369
 11
627.5871679974715
 21
1217.38496979727
 31
0.0000000000366369
  0
LINE
  5
FC6
330
1F
100
AcDbEntity
  8
SANINDUSA
100
AcDbLine
 10
627.5898178903313
 20
1217.37906990441
 30
0.0000000000366369
 11
627.5907990506543
 21
1217.37760879727
 31
0.0000000000366369
  0
LINE
  5
FC7
330
1F
100
AcDbEntity
  8
SANINDUSA
100
AcDbLine
 10
627.5898178903313
 20
1217.37906990441
 30
0.0000000000366369
 11
627.5912789974714
 21
1217.37760879727
 31
0.0000000000366369
  0
LINE
  5
FC8
330
1F
100
AcDbEntity
  8
SANINDUSA
100
AcDbLine
 10
627.5912789974714
 20
1217.37760879727
 30
0.0000000000366369
 11
627.5912789974714
 21
1217.378088744087
 31
0.0000000000366369
  0
LINE
  5
FC9
330
1F
100
AcDbEntity
  8
SANINDUSA
100
AcDbLine
 10
627.5940181046116
 20
1217.37906990441
 30
0.0000000000366369
 11
627.5925569974714
 21
1217.37760879727
 31
0.0000000000366369
  0
LINE
  5
FCA
330
1F
100
AcDbEntity
  8
SANINDUSA
100
AcDbLine
 10
627.5925569974714
 20
1217.378088744087
 30
0.0000000000366369
 11
627.5925569974714
 21
1217.37760879727
 31
0.0000000000366369
  0
LINE
  5
FCB
330
1F
100
AcDbEntity
  8
SANINDUSA
100
AcDbLine
 10
627.5930369442885
 20
1217.37760879727
 30
0.0000000000366369
 11
627.5940181046116
 21
1217.37906990441
 31
0.0000000000366369
  0
LINE
  5
FCC
330
1F
100
AcDbEntity
  8
SANINDUSA
100
AcDbLine
 10
627.5907990506543
 20
1217.37760879727
 30
0.0000000000366369
 11
627.5912789974714
 21
1217.37760879727
 31
0.0000000000366369
  0
LINE
  5
FCD
330
1F
100
AcDbEntity
  8
SANINDUSA
100
AcDbLine
 10
627.5925569974714
 20
1217.37760879727
 30
0.0000000000366369
 11
627.5930369442885
 21
1217.37760879727
 31
0.0000000000366369
  0
LINE
  5
FCE
330
1F
100
AcDbEntity
  8
SANINDUSA
100
AcDbLine
 10
627.5907990506543
 20
1217.37760879727
 30
0.0000000000366369
 11
627.5889479974714
 21
1217.37760879727
 31
0.0000000000366369
  0
LINE
  5
FCF
330
1F
100
AcDbEntity
  8
SANINDUSA
100
AcDbLine
 10
627.5925569974714
 20
1217.37760879727
 30
0.0000000000366369
 11
627.5912789974714
 21
1217.37760879727
 31
0.0000000000366369
  0
LINE
  5
FD0
330
1F
100
AcDbEntity
  8
SANINDUSA
100
AcDbLine
 10
627.5912789974714
 20
1217.37760879727
 30
0.0000000000366369
 11
627.5919179974714
 21
1217.37696979727
 31
0.0000000000366369
  0
LINE
  5
FD1
330
1F
100
AcDbEntity
  8
SANINDUSA
100
AcDbLine
 10
627.5919179974714
 20
1217.37696979727
 30
0.0000000000366369
 11
627.5919179974714
 21
1217.37760879727
 31
0.0000000000366369
  0
LINE
  5
FD2
330
1F
100
AcDbEntity
  8
SANINDUSA
100
AcDbLine
 10
627.5919179974714
 20
1217.37696979727
 30
0.0000000000366369
 11
627.5925569974714
 21
1217.37760879727
 31
0.0000000000366369
  0
LINE
  5
FD3
330
1F
100
AcDbEntity
  8
SANINDUSA
100
AcDbLine
 10
627.5919179974714
 20
1217.37696979727
 30
0.0000000000366369
 11
627.5925569974714
 21
1217.37696979727
 31
0.0000000000366369
  0
LINE
  5
FD4
330
1F
100
AcDbEntity
  8
SANINDUSA
100
AcDbLine
 10
627.5912789974714
 20
1217.37696979727
 30
0.0000000000366369
 11
627.5919179974714
 21
1217.37696979727
 31
0.0000000000366369
  0
LINE
  5
FD5
330
1F
100
AcDbEntity
  8
SANINDUSA
100
AcDbLine
 10
627.5930369442885
 20
1217.37633079727
 30
0.0000000000366369
 11
627.5925569974714
 21
1217.37633079727
 31
0.0000000000366369
  0
LINE
  5
FD6
330
1F
100
AcDbEntity
  8
SANINDUSA
100
AcDbLine
 10
627.5912789974714
 20
1217.37633079727
 30
0.0000000000366369
 11
627.5907990506543
 21
1217.37633079727
 31
0.0000000000366369
  0
LINE
  5
FD7
330
1F
100
AcDbEntity
  8
SANINDUSA
100
AcDbLine
 10
627.5912789974714
 20
1217.37633079727
 30
0.0000000000366369
 11
627.5925569974714
 21
1217.37633079727
 31
0.0000000000366369
  0
LINE
  5
FD8
330
1F
100
AcDbEntity
  8
SANINDUSA
100
AcDbLine
 10
627.5889479974714
 20
1217.37633079727
 30
0.0000000000366369
 11
627.5907990506543
 21
1217.37633079727
 31
0.0000000000366369
  0
LINE
  5
FD9
330
1F
100
AcDbEntity
  8
SANINDUSA
100
AcDbLine
 10
627.5919179974714
 20
1217.37696979727
 30
0.0000000000366369
 11
627.5912789974714
 21
1217.37633079727
 31
0.0000000000366369
  0
LINE
  5
FDA
330
1F
100
AcDbEntity
  8
SANINDUSA
100
AcDbLine
 10
627.5919179974714
 20
1217.37633079727
 30
0.0000000000366369
 11
627.5919179974714
 21
1217.37696979727
 31
0.0000000000366369
  0
LINE
  5
FDB
330
1F
100
AcDbEntity
  8
SANINDUSA
100
AcDbLine
 10
627.5889479974714
 20
1217.37760879727
 30
0.0000000000366369
 11
627.5889479974714
 21
1217.37633079727
 31
0.0000000000366369
  0
LINE
  5
FDC
330
1F
100
AcDbEntity
  8
SANINDUSA
100
AcDbLine
 10
627.5912789974714
 20
1217.37633079727
 30
0.0000000000366369
 11
627.5912789974714
 21
1217.37760879727
 31
0.0000000000366369
  0
LINE
  5
FDD
330
1F
100
AcDbEntity
  8
SANINDUSA
100
AcDbLine
 10
627.5925569974714
 20
1217.37633079727
 30
0.0000000000366369
 11
627.5919179974714
 21
1217.37696979727
 31
0.0000000000366369
  0
LINE
  5
FDE
330
1F
100
AcDbEntity
  8
SANINDUSA
100
AcDbLine
 10
627.5925569974714
 20
1217.37760879727
 30
0.0000000000366369
 11
627.5925569974714
 21
1217.37633079727
 31
0.0000000000366369
  0
ARC
  5
FDF
330
1F
100
AcDbEntity
  8
SANINDUSA
100
AcDbCircle
 10
627.5871679974715
 20
1217.38296979727
 30
0.0000000000366369
 40
0.002
100
AcDbArc
 50
90.0
 51
180.0
  0
LINE
  5
FE0
330
1F
100
AcDbEntity
  8
SANINDUSA
100
AcDbLine
 10
627.5912789974714
 20
1217.378088744087
 30
0.0000000000366369
 11
627.5898178903313
 21
1217.37906990441
 31
0.0000000000366369
  0
LINE
  5
FE1
330
1F
100
AcDbEntity
  8
SANINDUSA
100
AcDbLine
 10
627.5940181046116
 20
1217.37906990441
 30
0.0000000000366369
 11
627.5925569974714
 21
1217.378088744087
 31
0.0000000000366369
  0
LINE
  5
FE2
330
1F
100
AcDbEntity
  8
SANINDUSA
100
AcDbLine
 10
627.5925569974714
 20
1217.378088744087
 30
0.0000000000366369
 11
627.5925569974714
 21
1217.37993979727
 31
0.0000000000366369
  0
LINE
  5
FE3
330
1F
100
AcDbEntity
  8
SANINDUSA
100
AcDbLine
 10
627.5912789974714
 20
1217.37993979727
 30
0.0000000000366369
 11
627.5912789974714
 21
1217.378088744087
 31
0.0000000000366369
  0
LINE
  5
FE4
330
1F
100
AcDbEntity
  8
SANINDUSA
100
AcDbLine
 10
627.5925569974714
 20
1217.37993979727
 30
0.0000000000366369
 11
627.5912789974714
 21
1217.37993979727
 31
0.0000000000366369
  0
LINE
  5
FE5
330
1F
100
AcDbEntity
  8
SANINDUSA
100
AcDbLine
 10
627.5948879974714
 20
1217.37633079727
 30
0.0000000000366369
 11
627.5948879974714
 21
1217.37760879727
 31
0.0000000000366369
  0
LINE
  5
FE6
330
1F
100
AcDbEntity
  8
SANINDUSA
100
AcDbLine
 10
627.6151679974714
 20
1217.39196979727
 30
0.0000000000366369
 11
627.6121679974714
 21
1217.39196979727
 31
0.0000000000366369
  0
ARC
  5
FE7
330
1F
100
AcDbEntity
  8
SANINDUSA
100
AcDbCircle
 10
627.6121679974714
 20
1217.38996979727
 30
0.0000000000366369
 40
0.002
100
AcDbArc
 50
90.0
 51
180.0
  0
LINE
  5
FE8
330
1F
100
AcDbEntity
  8
SANINDUSA
100
AcDbLine
 10
627.5707959737116
 20
1217.191277625752
 30
0.0000000001442879
 11
627.2779379807377
 21
1217.191277625752
 31
0.0000000001578752
  0
LINE
  5
FE9
330
1F
100
AcDbEntity
  8
SANINDUSA
100
AcDbLine
 10
627.2675490918487
 20
1217.179877573459
 30
0.0000000001555554
 11
627.2094379807377
 21
1217.179877573459
 31
0.0000000001555554
  0
LINE
  5
FEA
330
1F
100
AcDbEntity
  8
SANINDUSA
100
AcDbLine
 10
627.2094379807377
 20
1217.203677625752
 30
0.0000000001555554
 11
627.2604379807376
 21
1217.203677625752
 31
0.0000000001555554
  0
LWPOLYLINE
  5
FEB
330
1F
100
AcDbEntity
  8
SANINDUSA
100
AcDbPolyline
 90
        4
 70
     1
 43
0.0
 38
0.0000000001555553
 10
627.2084379807377
 20
1217.198477625752
 10
627.2614379807378
 20
1217.198477625752
 10
627.2614379807378
 20
1217.197477625753
 10
627.2084379807377
 20
1217.197477625753
1001
GENIUS_GENREC_14
1002
{
1000
PYDIR
1011
627.5077202378168
1021
1217.28464993556
1031
0.0000000001555554
1002
}
1002
{
1000
PXDIR
1011
627.5607202378169
1021
1217.28364993556
1031
0.0000000001555554
1002
}
1002
{
1000
PORI
1011
627.5077202378168
1021
1217.28364993556
1031
0.0000000001555554
1002
}
1002
{
1000
PINS
1011
627.5077202378168
1021
1217.28364993556
1031
0.0000000001555554
1002
}
1002
{
1000
PINS2
1011
627.5607202378169
1021
1217.28464993556
1031
0.0000000001555554
1002
}
1002
{
1000
C
1070
     1
1002
}
1001
GENIUS_GENODEF_13
1002
{
1000
HIER
1070
     0
1002
}
1002
{
1000
MANEDIT
1070
     0
1002
}
1002
{
1000
NOSEL
1070
     0
1002
}
1002
{
1000
BEHIND
1070
     0
1002
}
1002
{
1000
REACTOR
1002
}
1001
GENIUS_GENOBJ-N-REC_13
1002
{
1000
OWNER
1000
GEN
1002
}
  0
LINE
  5
FEC
330
1F
100
AcDbEntity
  8
SANINDUSA
100
AcDbLine
 10
627.2614379807378
 20
1217.198677625752
 30
0.0000000001555554
 11
627.2084379807377
 21
1217.198677625752
 31
0.0000000001555554
  0
LWPOLYLINE
  5
FED
330
1F
100
AcDbEntity
  8
SANINDUSA
100
AcDbPolyline
 90
        2
 70
     0
 43
0.0
 38
0.0000000001555553
 10
627.2084379807377
 20
1217.190077625752
 10
627.2614379807378
 20
1217.190077625752
1001
GENIUS_GENREC_14
1002
{
1000
PYDIR
1011
627.5077202378168
1021
1217.28444993556
1031
0.0000000001555554
1002
}
1002
{
1000
PXDIR
1011
627.5607202378169
1021
1217.28344993556
1031
0.0000000001555554
1002
}
1002
{
1000
PORI
1011
627.5077202378168
1021
1217.28344993556
1031
0.0000000001555554
1002
}
1002
{
1000
PINS
1011
627.5077202378168
1021
1217.28344993556
1031
0.0000000001555554
1002
}
1002
{
1000
PINS2
1011
627.5607202378169
1021
1217.28444993556
1031
0.0000000001555554
1002
}
1002
{
1000
C
1070
     1
1002
}
1001
GENIUS_GENODEF_13
1002
{
1000
HIER
1070
     0
1002
}
1002
{
1000
MANEDIT
1070
     0
1002
}
1002
{
1000
NOSEL
1070
     0
1002
}
1002
{
1000
BEHIND
1070
     0
1002
}
1002
{
1000
REACTOR
1002
}
1001
GENIUS_GENOBJ-N-REC_13
1002
{
1000
OWNER
1000
GEN
1002
}
  0
LWPOLYLINE
  5
FEE
330
1F
100
AcDbEntity
  8
SANINDUSA
100
AcDbPolyline
 90
        2
 70
     0
 43
0.0
 38
0.0000000001555553
 10
627.2614379807378
 20
1217.191077625752
 10
627.2084379807377
 20
1217.191077625752
1001
GENIUS_GENREC_14
1002
{
1000
PYDIR
1011
627.5077202378168
1021
1217.28444993556
1031
0.0000000001555554
1002
}
1002
{
1000
PXDIR
1011
627.5607202378169
1021
1217.28344993556
1031
0.0000000001555554
1002
}
1002
{
1000
PORI
1011
627.5077202378168
1021
1217.28344993556
1031
0.0000000001555554
1002
}
1002
{
1000
PINS
1011
627.5077202378168
1021
1217.28344993556
1031
0.0000000001555554
1002
}
1002
{
1000
PINS2
1011
627.5607202378169
1021
1217.28444993556
1031
0.0000000001555554
1002
}
1002
{
1000
C
1070
     1
1002
}
1001
GENIUS_GENODEF_13
1002
{
1000
HIER
1070
     0
1002
}
1002
{
1000
MANEDIT
1070
     0
1002
}
1002
{
1000
NOSEL
1070
     0
1002
}
1002
{
1000
BEHIND
1070
     0
1002
}
1002
{
1000
REACTOR
1002
}
1001
GENIUS_GENOBJ-N-REC_13
1002
{
1000
OWNER
1000
GEN
1002
}
  0
LINE
  5
FEF
330
1F
100
AcDbEntity
  8
SANINDUSA
100
AcDbLine
 10
627.2084379807377
 20
1217.189877625753
 30
0.0000000001555554
 11
627.2614379807378
 21
1217.189877625753
 31
0.0000000001555554
  0
ARC
  5
FF0
330
1F
100
AcDbEntity
  8
SANINDUSA
100
AcDbCircle
 10
627.2094379807377
 20
1217.180877573459
 30
0.0000000001555554
 40
0.001
100
AcDbArc
 50
180.0
 51
270.0
  0
LINE
  5
FF1
330
1F
100
AcDbEntity
  8
SANINDUSA
100
AcDbLine
 10
627.2084379807377
 20
1217.191077625752
 30
0.0000000001555554
 11
627.2084379807377
 21
1217.190077625752
 31
0.0000000001555554
1001
GENIUS_GENREC_14
1002
{
1000
PYDIR
1011
627.2084379807377
1021
1217.191077625752
1031
0.0000000001555554
1002
}
1002
{
1000
PXDIR
1011
627.2614379807378
1021
1217.190077625752
1031
0.0000000001555554
1002
}
1002
{
1000
PORI
1011
627.2084379807377
1021
1217.190077625752
1031
0.0000000001555554
1002
}
1002
{
1000
PINS
1011
627.2084379807377
1021
1217.190077625752
1031
0.0000000001555554
1002
}
1002
{
1000
PINS2
1011
627.2614379807378
1021
1217.191077625752
1031
0.0000000001555554
1002
}
1002
{
1000
C
1070
     1
1002
}
1001
GENIUS_GENODEF_13
1002
{
1000
HIER
1070
     0
1002
}
1002
{
1000
MANEDIT
1070
     0
1002
}
1002
{
1000
NOSEL
1070
     0
1002
}
1002
{
1000
BEHIND
1070
     0
1002
}
1002
{
1000
REACTOR
1002
}
1001
GENIUS_GENOBJ-N-REC_13
1002
{
1000
OWNER
1000
GEN
1002
}
  0
LINE
  5
FF2
330
1F
100
AcDbEntity
  8
SANINDUSA
100
AcDbLine
 10
627.2084379807377
 20
1217.189877625753
 30
0.0000000001555554
 11
627.2084379807377
 21
1217.180877573459
 31
0.0000000001555554
  0
ARC
  5
FF3
330
1F
100
AcDbEntity
  8
SANINDUSA
100
AcDbCircle
 10
627.2094379807377
 20
1217.202677625752
 30
0.0000000001555554
 40
0.001
100
AcDbArc
 50
90.0
 51
180.0
  0
LINE
  5
FF4
330
1F
100
AcDbEntity
  8
SANINDUSA
100
AcDbLine
 10
627.2084379807377
 20
1217.198677625752
 30
0.0000000001555554
 11
627.2084379807377
 21
1217.202677625752
 31
0.0000000001555554
  0
LINE
  5
FF5
330
1F
100
AcDbEntity
  8
SANINDUSA
100
AcDbLine
 10
627.2914379807377
 20
1217.187877573459
 30
0.0000000001555554
 11
627.2764379351415
 21
1217.187877573459
 31
0.0000000001555554
  0
LINE
  5
FF6
330
1F
100
AcDbEntity
  8
SANINDUSA
100
AcDbLine
 10
627.3434379807378
 20
1217.179877573458
 30
0.0000000001555554
 11
627.2844379807377
 21
1217.179877573458
 31
0.0000000001555554
  0
ARC
  5
FF7
330
1F
100
AcDbEntity
  8
SANINDUSA
100
AcDbCircle
 10
627.2604379807376
 20
1217.202677625752
 30
0.0000000001555554
 40
0.001
100
AcDbArc
 50
0.0
 51
90.0
  0
ARC
  5
FF8
330
1F
100
AcDbEntity
  8
SANINDUSA
100
AcDbCircle
 10
627.2769235336992
 20
1217.194277629562
 30
0.0000000001555553
 40
0.0052623076923077
100
AcDbArc
 50
261.4923271275793
 51
98.50767287242067
  0
ARC
  5
FF9
330
1F
100
AcDbEntity
  8
SANINDUSA
100
AcDbCircle
 10
627.2769235336992
 20
1217.194277629562
 30
0.0000000001555553
 40
0.0056623076923077
100
AcDbArc
 50
261.4923271275793
 51
98.50767287242067
  0
LINE
  5
FFA
330
1F
100
AcDbEntity
  8
SANINDUSA
100
AcDbLine
 10
627.2659110317563
 20
1217.191321273367
 30
0.0000000001555553
 11
627.2680397271559
 21
1217.191620441995
 31
0.0000000001555553
  0
ARC
  5
FFB
330
1F
100
AcDbEntity
  8
SANINDUSA
100
AcDbCircle
 10
627.2646734283621
 20
1217.190999548861
 30
0.0000000001555553
 40
0.0006
100
AcDbArc
 50
32.46948079364152
 51
80.65916589921577
  0
LINE
  5
FFC
330
1F
100
AcDbEntity
  8
SANINDUSA
100
AcDbLine
 10
627.2630858413914
 20
1217.191161995231
 30
0.0000000001555553
 11
627.2630858413914
 21
1217.191868750865
 31
0.0000000001555553
  0
LINE
  5
FFD
330
1F
100
AcDbEntity
  8
SANINDUSA
100
AcDbLine
 10
627.2749379807377
 20
1217.190581199112
 30
0.0000000001555553
 11
627.2749379807377
 21
1217.197974060012
 31
0.0000000001555553
  0
LINE
  5
FFE
330
1F
100
AcDbEntity
  8
SANINDUSA
100
AcDbLine
 10
627.2760858413914
 20
1217.188677629562
 30
0.0000000001555553
 11
627.2760858413914
 21
1217.199877629562
 31
0.0000000001555553
  0
LINE
  5
FFF
330
1F
100
AcDbEntity
  8
SANINDUSA
100
AcDbLine
 10
627.2749379807377
 20
1217.197277629562
 30
0.0000000001555553
 11
627.2749379807377
 21
1217.191277629562
 31
0.0000000001555553
  0
ARC
  5
1000
330
1F
100
AcDbEntity
  8
SANINDUSA
100
AcDbCircle
 10
627.2680640824485
 20
1217.191447145083
 30
0.0000000001555553
 40
0.000175
100
AcDbArc
 50
277.9999999981044
 51
97.99999999810438
  0
ARC
  5
1001
330
1F
100
AcDbEntity
  8
SANINDUSA
100
AcDbCircle
 10
627.2725464542585
 20
1217.191027899702
 30
0.0000000001555553
 40
0.00075
100
AcDbArc
 50
350.6591658917312
 51
170.6591658917311
  0
LINE
  5
1002
330
1F
100
AcDbEntity
  8
SANINDUSA
100
AcDbLine
 10
627.2779379807377
 20
1217.197277625752
 30
0.0000000001555554
 11
627.2779379807377
 21
1217.191277625752
 31
0.0000000001555554
1001
GENIUS_GENREC_14
1002
{
1000
PYDIR
1011
627.1249379807377
1021
1217.191077625752
1031
0.0000000001555554
1002
}
1002
{
1000
PXDIR
1011
627.2749379807377
1021
1217.197077625752
1031
0.0000000001555554
1002
}
1002
{
1000
PORI
1011
627.1249379807377
1021
1217.197077625752
1031
0.0000000001555554
1002
}
1002
{
1000
PINS
1011
627.1249379807377
1021
1217.197077625752
1031
0.0000000001555554
1002
}
1002
{
1000
PINS2
1011
627.2749379807377
1021
1217.191277625752
1031
0.0000000001555554
1002
}
1002
{
1000
C
1070
     1
1002
}
1001
GENIUS_GENODEF_13
1002
{
1000
HIER
1070
     0
1002
}
1002
{
1000
MANEDIT
1070
     0
1002
}
1002
{
1000
NOSEL
1070
     0
1002
}
1002
{
1000
BEHIND
1070
     0
1002
}
1002
{
1000
REACTOR
1002
}
1001
GENIUS_GENOBJ-N-REC_13
1002
{
1000
OWNER
1000
GEN
1002
}
  0
CIRCLE
  5
1003
330
1F
100
AcDbEntity
  8
SANINDUSA
100
AcDbCircle
 10
627.2764379807377
 20
1217.179877573459
 30
0.0000000001555554
 40
0.008
  0
LINE
  5
1004
330
1F
100
AcDbEntity
  8
SANINDUSA
100
AcDbLine
 10
627.275092758813
 20
1217.188677629562
 30
0.0000000001555553
 11
627.2635884571305
 21
1217.190569951055
 31
0.0000000001555553
  0
LINE
  5
1005
330
1F
100
AcDbEntity
  8
SANINDUSA
100
AcDbLine
 10
627.2614379807378
 20
1217.187877625752
 30
0.0000000001555554
 11
627.2764379807377
 21
1217.187877573459
 31
0.0000000001555554
  0
ARC
  5
1006
330
1F
100
AcDbEntity
  8
SANINDUSA
100
AcDbCircle
 10
627.2743379807377
 20
1217.190581199112
 30
0.0000000001555553
 40
0.0006
100
AcDbArc
 50
260.6591658992158
 51
0.0
  0
LINE
  5
1007
330
1F
100
AcDbEntity
  8
SANINDUSA
100
AcDbLine
 10
627.2675490918487
 20
1217.179877573459
 30
0.0000000001555554
 11
627.2675490918487
 21
1217.187877625752
 31
0.0000000001555554
  0
LINE
  5
1008
330
1F
100
AcDbEntity
  8
SANINDUSA
100
AcDbLine
 10
627.2680884377412
 20
1217.191273848171
 30
0.0000000001555553
 11
627.2660121093857
 21
1217.190982039251
 31
0.0000000001555553
  0
LINE
  5
1009
330
1F
100
AcDbEntity
  8
SANINDUSA
100
AcDbLine
 10
627.2660121093857
 20
1217.190982039251
 30
0.0000000001555553
 11
627.2683884571303
 21
1217.190591158167
 31
0.0000000001555553
  0
ARC
  5
100A
330
1F
100
AcDbEntity
  8
SANINDUSA
100
AcDbCircle
 10
627.2656858413914
 20
1217.191643769209
 30
0.0000000001555553
 40
0.0006000000000005
100
AcDbArc
 50
212.4694807936415
 51
255.899108194289
  0
ARC
  5
100B
330
1F
100
AcDbEntity
  8
SANINDUSA
100
AcDbCircle
 10
627.2659806183067
 20
1217.190826139333
 30
0.0000000001555553
 40
0.0004999999999883
100
AcDbArc
 50
97.99999999810438
 51
151.8736260358173
  0
ARC
  5
100C
330
1F
100
AcDbEntity
  8
SANINDUSA
100
AcDbCircle
 10
627.2636858413915
 20
1217.191161995231
 30
0.0000000001555553
 40
0.0006
100
AcDbArc
 50
180.0
 51
260.6591658992158
  0
LINE
  5
100D
330
1F
100
AcDbEntity
  8
SANINDUSA
100
AcDbLine
 10
627.2614379807378
 20
1217.189877625753
 30
0.0000000001555554
 11
627.2614379807378
 21
1217.187877625752
 31
0.0000000001555554
  0
LINE
  5
100E
330
1F
100
AcDbEntity
  8
SANINDUSA
100
AcDbLine
 10
627.2614379807378
 20
1217.190077625752
 30
0.0000000001555554
 11
627.2614379807378
 21
1217.191077625752
 31
0.0000000001555554
1001
GENIUS_GENREC_14
1002
{
1000
PYDIR
1011
627.2084379807377
1021
1217.191077625752
1031
0.0000000001555554
1002
}
1002
{
1000
PXDIR
1011
627.2614379807378
1021
1217.190077625752
1031
0.0000000001555554
1002
}
1002
{
1000
PORI
1011
627.2084379807377
1021
1217.190077625752
1031
0.0000000001555554
1002
}
1002
{
1000
PINS
1011
627.2084379807377
1021
1217.190077625752
1031
0.0000000001555554
1002
}
1002
{
1000
PINS2
1011
627.2614379807378
1021
1217.191077625752
1031
0.0000000001555554
1002
}
1002
{
1000
C
1070
     1
1002
}
1001
GENIUS_GENODEF_13
1002
{
1000
HIER
1070
     0
1002
}
1002
{
1000
MANEDIT
1070
     0
1002
}
1002
{
1000
NOSEL
1070
     0
1002
}
1002
{
1000
BEHIND
1070
     0
1002
}
1002
{
1000
REACTOR
1002
}
1001
GENIUS_GENOBJ-N-REC_13
1002
{
1000
OWNER
1000
GEN
1002
}
  0
LINE
  5
100F
330
1F
100
AcDbEntity
  8
SANINDUSA
100
AcDbLine
 10
627.2693359473191
 20
1217.190840682399
 30
0.0000000001555553
 11
627.2711984688184
 21
1217.190534319652
 31
0.0000000001555553
  0
ARC
  5
1010
330
1F
100
AcDbEntity
  8
SANINDUSA
100
AcDbCircle
 10
627.2684858413914
 20
1217.191183202342
 30
0.0000000001555553
 40
0.0006
100
AcDbArc
 50
260.6591658992158
 51
308.8488510033863
  0
ARC
  5
1011
330
1F
100
AcDbEntity
  8
SANINDUSA
100
AcDbCircle
 10
627.2692385630581
 20
1217.190248638224
 30
0.0000000001555553
 40
0.0006000000000005
100
AcDbArc
 50
80.65916589921577
 51
128.8488510033863
  0
ARC
  5
1012
330
1F
100
AcDbEntity
  8
SANINDUSA
100
AcDbCircle
 10
627.2712796223693
 20
1217.191027689798
 30
0.0000000001555553
 40
0.0005
100
AcDbArc
 50
260.6591658992158
 51
350.6591658917312
  0
LINE
  5
1013
330
1F
100
AcDbEntity
  8
SANINDUSA
100
AcDbLine
 10
627.2717729925155
 20
1217.190946536247
 30
0.0000000001555553
 11
627.2718063990391
 21
1217.191149630028
 31
0.0000000001555553
  0
LINE
  5
1014
330
1F
100
AcDbEntity
  8
SANINDUSA
100
AcDbLine
 10
627.2732865094779
 20
1217.190906169375
 30
0.0000000001555553
 11
627.2732459327023
 21
1217.190659484302
 31
0.0000000001555553
  0
LINE
  5
1015
330
1F
100
AcDbEntity
  8
SANINDUSA
100
AcDbLine
 10
627.2736581492977
 20
1217.190084960605
 30
0.0000000001555553
 11
627.2742405964767
 21
1217.189989154937
 31
0.0000000001555553
  0
ARC
  5
1016
330
1F
100
AcDbEntity
  8
SANINDUSA
100
AcDbCircle
 10
627.2737393028486
 20
1217.190578330751
 30
0.0000000001555553
 40
0.0005
100
AcDbArc
 50
170.6591658917311
 51
260.6591658992158
  0
LINE
  5
1017
330
1F
100
AcDbEntity
  8
SANINDUSA
100
AcDbLine
 10
627.2853268696267
 20
1217.179877573458
 30
0.0000000001555554
 11
627.2853268696267
 21
1217.187877573459
 31
0.0000000001555554
  0
LINE
  5
1018
330
1F
100
AcDbEntity
  8
SANINDUSA
100
AcDbLine
 10
627.275092758813
 20
1217.188677629562
 30
0.0000000001555553
 11
627.2760858413914
 21
1217.188677629562
 31
0.0000000001555553
  0
LINE
  5
1019
330
1F
100
AcDbEntity
  8
SANINDUSA
100
AcDbLine
 10
627.2635884571305
 20
1217.197985308069
 30
0.0000000001555553
 11
627.275092758813
 21
1217.199877629562
 31
0.0000000001555553
  0
ARC
  5
101A
330
1F
100
AcDbEntity
  8
SANINDUSA
100
AcDbCircle
 10
627.2743379807377
 20
1217.197974060012
 30
0.0000000001555553
 40
0.0006
100
AcDbArc
 50
0.0
 51
99.34083410078422
  0
LINE
  5
101B
330
1F
100
AcDbEntity
  8
SANINDUSA
100
AcDbLine
 10
627.2680397271559
 20
1217.196934817129
 30
0.0000000001555553
 11
627.2659110317563
 21
1217.197233985757
 31
0.0000000001555553
  0
LINE
  5
101C
330
1F
100
AcDbEntity
  8
SANINDUSA
100
AcDbLine
 10
627.2683884571303
 20
1217.197964100957
 30
0.0000000001555553
 11
627.2660121093857
 21
1217.197573219873
 31
0.0000000001555553
  0
LINE
  5
101D
330
1F
100
AcDbEntity
  8
SANINDUSA
100
AcDbLine
 10
627.2660121093857
 20
1217.197573219873
 30
0.0000000001555553
 11
627.2680884377412
 21
1217.197281410953
 31
0.0000000001555553
  0
ARC
  5
101E
330
1F
100
AcDbEntity
  8
SANINDUSA
100
AcDbCircle
 10
627.2646734283621
 20
1217.197555710264
 30
0.0000000001555553
 40
0.0006
100
AcDbArc
 50
279.3408341007842
 51
327.5305192063584
  0
ARC
  5
101F
330
1F
100
AcDbEntity
  8
SANINDUSA
100
AcDbCircle
 10
627.2659806183067
 20
1217.197729119791
 30
0.0000000001555553
 40
0.0005
100
AcDbArc
 50
208.1263739672534
 51
262.0000000018956
  0
ARC
  5
1020
330
1F
100
AcDbEntity
  8
SANINDUSA
100
AcDbCircle
 10
627.2656858413914
 20
1217.196911489915
 30
0.0000000001555553
 40
0.0005999999999989
100
AcDbArc
 50
104.100891805711
 51
147.5305192063585
  0
LINE
  5
1021
330
1F
100
AcDbEntity
  8
SANINDUSA
100
AcDbLine
 10
627.2630858413914
 20
1217.196686508259
 30
0.0000000001555553
 11
627.2630858413914
 21
1217.197393263893
 31
0.0000000001555553
  0
ARC
  5
1022
330
1F
100
AcDbEntity
  8
SANINDUSA
100
AcDbCircle
 10
627.2636858413915
 20
1217.197393263893
 30
0.0000000001555553
 40
0.0006
100
AcDbArc
 50
99.34083410078422
 51
180.0
  0
LINE
  5
1023
330
1F
100
AcDbEntity
  8
SANINDUSA
100
AcDbLine
 10
627.2614379807378
 20
1217.198677625752
 30
0.0000000001555554
 11
627.2614379807378
 21
1217.202677625752
 31
0.0000000001555554
  0
LINE
  5
1024
330
1F
100
AcDbEntity
  8
SANINDUSA
100
AcDbLine
 10
627.2647708126231
 20
1217.196963666088
 30
0.0000000001555553
 11
627.2630858413914
 21
1217.196686508259
 31
0.0000000001555553
  0
LINE
  5
1025
330
1F
100
AcDbEntity
  8
SANINDUSA
100
AcDbLine
 10
627.2630858413914
 20
1217.191868750865
 30
0.0000000001555553
 11
627.2647708126231
 21
1217.191591593036
 31
0.0000000001555553
  0
ARC
  5
1026
330
1F
100
AcDbEntity
  8
SANINDUSA
100
AcDbCircle
 10
627.2680640824485
 20
1217.197108114041
 30
0.0000000001555553
 40
0.000175
100
AcDbArc
 50
262.0000000018956
 51
82.00000000189561
  0
ARC
  5
1027
330
1F
100
AcDbEntity
  8
SANINDUSA
100
AcDbCircle
 10
627.2725464542585
 20
1217.197527359422
 30
0.0000000001555553
 40
0.00075
100
AcDbArc
 50
179.8634464257924
 51
9.34083410826885
  0
LINE
  5
1028
330
1F
100
AcDbEntity
  8
SANINDUSA
100
AcDbLine
 10
627.2712153042578
 20
1217.198023708703
 30
0.0000000001555553
 11
627.2693359473191
 21
1217.197714576725
 31
0.0000000001555553
  0
ARC
  5
1029
330
1F
100
AcDbEntity
  8
SANINDUSA
100
AcDbCircle
 10
627.2684858413914
 20
1217.197372056781
 30
0.0000000001555553
 40
0.0006
100
AcDbArc
 50
51.15114899661368
 51
99.34083410078422
  0
ARC
  5
102A
330
1F
100
AcDbEntity
  8
SANINDUSA
100
AcDbCircle
 10
627.2692385630581
 20
1217.198306620901
 30
0.0000000001555553
 40
0.0006000000000005
100
AcDbArc
 50
231.1511489966137
 51
279.3408341007842
  0
LINE
  5
102B
330
1F
100
AcDbEntity
  8
SANINDUSA
100
AcDbLine
 10
627.2742405964767
 20
1217.198566104187
 30
0.0000000001555553
 11
627.2736581492977
 21
1217.198470298519
 31
0.0000000001555553
  0
ARC
  5
102C
330
1F
100
AcDbEntity
  8
SANINDUSA
100
AcDbCircle
 10
627.2712964578086
 20
1217.197530338556
 30
0.0000000001555553
 40
0.0005
100
AcDbArc
 50
359.8634464257925
 51
99.34083410078422
  0
LINE
  5
102D
330
1F
100
AcDbEntity
  8
SANINDUSA
100
AcDbLine
 10
627.2732459327023
 20
1217.197895774822
 30
0.0000000001555553
 11
627.2732865094779
 21
1217.197649089749
 31
0.0000000001555553
  0
LINE
  5
102E
330
1F
100
AcDbEntity
  8
SANINDUSA
100
AcDbLine
 10
627.2718063990391
 20
1217.197405629096
 30
0.0000000001555553
 11
627.2717658222638
 21
1217.197652314169
 31
0.0000000001555553
  0
ARC
  5
102F
330
1F
100
AcDbEntity
  8
SANINDUSA
100
AcDbCircle
 10
627.2737393028486
 20
1217.197976928373
 30
0.0000000001555553
 40
0.0005
100
AcDbArc
 50
99.34083410078422
 51
189.3408341082688
  0
LINE
  5
1030
330
1F
100
AcDbEntity
  8
SANINDUSA
100
AcDbLine
 10
627.275092758813
 20
1217.199877629562
 30
0.0000000001555553
 11
627.2760858413914
 21
1217.199877629562
 31
0.0000000001555553
  0
LINE
  5
1031
330
1F
100
AcDbEntity
  8
SANINDUSA
100
AcDbLine
 10
627.3434379807378
 20
1217.203677625752
 30
0.0000000001555554
 11
627.2924379807378
 21
1217.203677625752
 31
0.0000000001555554
  0
LWPOLYLINE
  5
1032
330
1F
100
AcDbEntity
  8
SANINDUSA
100
AcDbPolyline
 90
        2
 70
     0
 43
0.0
 38
0.0000000001555553
 10
627.2914379807377
 20
1217.190977625752
 10
627.3444379807378
 20
1217.190977625752
1001
GENIUS_GENREC_14
1002
{
1000
PYDIR
1011
627.2084379807377
1021
1216.985067678481
1031
0.0000000001555554
1002
}
1002
{
1000
PXDIR
1011
627.2614379807378
1021
1216.984067678481
1031
0.0000000001555554
1002
}
1002
{
1000
PORI
1011
627.2084379807377
1021
1216.984067678481
1031
0.0000000001555554
1002
}
1002
{
1000
PINS
1011
627.2084379807377
1021
1216.984067678481
1031
0.0000000001555554
1002
}
1002
{
1000
PINS2
1011
627.2614379807378
1021
1216.985067678481
1031
0.0000000001555554
1002
}
1002
{
1000
C
1070
     1
1002
}
1001
GENIUS_GENODEF_13
1002
{
1000
HIER
1070
     0
1002
}
1002
{
1000
MANEDIT
1070
     0
1002
}
1002
{
1000
NOSEL
1070
     0
1002
}
1002
{
1000
BEHIND
1070
     0
1002
}
1002
{
1000
REACTOR
1002
}
1001
GENIUS_GENOBJ-N-REC_13
1002
{
1000
OWNER
1000
GEN
1002
}
  0
LWPOLYLINE
  5
1033
330
1F
100
AcDbEntity
  8
SANINDUSA
100
AcDbPolyline
 90
        2
 70
     0
 43
0.0
 38
0.0000000001555553
 10
627.3444379807378
 20
1217.189977625752
 10
627.2914379807377
 20
1217.189977625752
1001
GENIUS_GENREC_14
1002
{
1000
PYDIR
1011
627.2084379807377
1021
1216.985067678481
1031
0.0000000001555554
1002
}
1002
{
1000
PXDIR
1011
627.2614379807378
1021
1216.984067678481
1031
0.0000000001555554
1002
}
1002
{
1000
PORI
1011
627.2084379807377
1021
1216.984067678481
1031
0.0000000001555554
1002
}
1002
{
1000
PINS
1011
627.2084379807377
1021
1216.984067678481
1031
0.0000000001555554
1002
}
1002
{
1000
PINS2
1011
627.2614379807378
1021
1216.985067678481
1031
0.0000000001555554
1002
}
1002
{
1000
C
1070
     1
1002
}
1001
GENIUS_GENODEF_13
1002
{
1000
HIER
1070
     0
1002
}
1002
{
1000
MANEDIT
1070
     0
1002
}
1002
{
1000
NOSEL
1070
     0
1002
}
1002
{
1000
BEHIND
1070
     0
1002
}
1002
{
1000
REACTOR
1002
}
1001
GENIUS_GENOBJ-N-REC_13
1002
{
1000
OWNER
1000
GEN
1002
}
  0
LWPOLYLINE
  5
1034
330
1F
100
AcDbEntity
  8
SANINDUSA
100
AcDbPolyline
 90
        4
 70
     1
 43
0.0
 38
0.0000000001555553
 10
627.3444379807378
 20
1217.198477625752
 10
627.2914379807377
 20
1217.198477625752
 10
627.2914379807377
 20
1217.197477625753
 10
627.3444379807378
 20
1217.197477625753
1001
GENIUS_GENREC_14
1002
{
1000
PYDIR
1011
627.2084379807377
1021
1216.985367678481
1031
0.0000000001555554
1002
}
1002
{
1000
PXDIR
1011
627.2614379807378
1021
1216.984367678481
1031
0.0000000001555554
1002
}
1002
{
1000
PORI
1011
627.2084379807377
1021
1216.984367678481
1031
0.0000000001555554
1002
}
1002
{
1000
PINS
1011
627.2084379807377
1021
1216.984367678481
1031
0.0000000001555554
1002
}
1002
{
1000
PINS2
1011
627.2614379807378
1021
1216.985367678481
1031
0.0000000001555554
1002
}
1002
{
1000
C
1070
     1
1002
}
1001
GENIUS_GENODEF_13
1002
{
1000
HIER
1070
     0
1002
}
1002
{
1000
MANEDIT
1070
     0
1002
}
1002
{
1000
NOSEL
1070
     0
1002
}
1002
{
1000
BEHIND
1070
     0
1002
}
1002
{
1000
REACTOR
1002
}
1001
GENIUS_GENOBJ-N-REC_13
1002
{
1000
OWNER
1000
GEN
1002
}
  0
LINE
  5
1035
330
1F
100
AcDbEntity
  8
SANINDUSA
100
AcDbLine
 10
627.2914379807379
 20
1217.189877573459
 30
0.0000000001555554
 11
627.3444379807378
 21
1217.189877573459
 31
0.0000000001555554
  0
LINE
  5
1036
330
1F
100
AcDbEntity
  8
SANINDUSA
100
AcDbLine
 10
627.2914379807377
 20
1217.198677625752
 30
0.0000000001555554
 11
627.3444379807378
 21
1217.198677625752
 31
0.0000000001555554
  0
LINE
  5
1037
330
1F
100
AcDbEntity
  8
SANINDUSA
100
AcDbLine
 10
627.2914379807377
 20
1217.187877573459
 30
0.0000000001555554
 11
627.2914379807379
 21
1217.189877573459
 31
0.0000000001555554
  0
LINE
  5
1038
330
1F
100
AcDbEntity
  8
SANINDUSA
100
AcDbLine
 10
627.2914379807377
 20
1217.189977625752
 30
0.0000000001555554
 11
627.2914379807377
 21
1217.190977625752
 31
0.0000000001555554
1001
GENIUS_GENREC_14
1002
{
1000
PYDIR
1011
627.2084379807377
1021
1217.190977625752
1031
0.0000000001555554
1002
}
1002
{
1000
PXDIR
1011
627.2614379807378
1021
1217.189977625752
1031
0.0000000001555554
1002
}
1002
{
1000
PORI
1011
627.2084379807377
1021
1217.189977625752
1031
0.0000000001555554
1002
}
1002
{
1000
PINS
1011
627.2084379807377
1021
1217.189977625752
1031
0.0000000001555554
1002
}
1002
{
1000
PINS2
1011
627.2614379807378
1021
1217.190977625752
1031
0.0000000001555554
1002
}
1002
{
1000
C
1070
     1
1002
}
1001
GENIUS_GENODEF_13
1002
{
1000
HIER
1070
     0
1002
}
1002
{
1000
MANEDIT
1070
     0
1002
}
1002
{
1000
NOSEL
1070
     0
1002
}
1002
{
1000
BEHIND
1070
     0
1002
}
1002
{
1000
REACTOR
1002
}
1001
GENIUS_GENOBJ-N-REC_13
1002
{
1000
OWNER
1000
GEN
1002
}
  0
ARC
  5
1039
330
1F
100
AcDbEntity
  8
SANINDUSA
100
AcDbCircle
 10
627.2924379807378
 20
1217.202677625752
 30
0.0000000001555554
 40
0.001
100
AcDbArc
 50
90.0
 51
180.0
  0
LINE
  5
103A
330
1F
100
AcDbEntity
  8
SANINDUSA
100
AcDbLine
 10
627.2914379807377
 20
1217.198677625752
 30
0.0000000001555554
 11
627.2914379807377
 21
1217.202677625752
 31
0.0000000001555554
  0
ARC
  5
103B
330
1F
100
AcDbEntity
  8
SANINDUSA
100
AcDbCircle
 10
627.3434379807378
 20
1217.180877573458
 30
0.0000000001555554
 40
0.001
100
AcDbArc
 50
270.0
 51
0.0
  0
LINE
  5
103C
330
1F
100
AcDbEntity
  8
SANINDUSA
100
AcDbLine
 10
627.3444379807378
 20
1217.189877573459
 30
0.0000000001555554
 11
627.3444379807378
 21
1217.180877573458
 31
0.0000000001555554
  0
LINE
  5
103D
330
1F
100
AcDbEntity
  8
SANINDUSA
100
AcDbLine
 10
627.3444379807378
 20
1217.190977625752
 30
0.0000000001555554
 11
627.3444379807378
 21
1217.189977625752
 31
0.0000000001555554
1001
GENIUS_GENREC_14
1002
{
1000
PYDIR
1011
627.2084379807377
1021
1217.190977625752
1031
0.0000000001555554
1002
}
1002
{
1000
PXDIR
1011
627.2614379807378
1021
1217.189977625752
1031
0.0000000001555554
1002
}
1002
{
1000
PORI
1011
627.2084379807377
1021
1217.189977625752
1031
0.0000000001555554
1002
}
1002
{
1000
PINS
1011
627.2084379807377
1021
1217.189977625752
1031
0.0000000001555554
1002
}
1002
{
1000
PINS2
1011
627.2614379807378
1021
1217.190977625752
1031
0.0000000001555554
1002
}
1002
{
1000
C
1070
     1
1002
}
1001
GENIUS_GENODEF_13
1002
{
1000
HIER
1070
     0
1002
}
1002
{
1000
MANEDIT
1070
     0
1002
}
1002
{
1000
NOSEL
1070
     0
1002
}
1002
{
1000
BEHIND
1070
     0
1002
}
1002
{
1000
REACTOR
1002
}
1001
GENIUS_GENOBJ-N-REC_13
1002
{
1000
OWNER
1000
GEN
1002
}
  0
ARC
  5
103E
330
1F
100
AcDbEntity
  8
SANINDUSA
100
AcDbCircle
 10
627.3434379807378
 20
1217.202677625752
 30
0.0000000001555554
 40
0.001
100
AcDbArc
 50
0.0
 51
90.0
  0
LINE
  5
103F
330
1F
100
AcDbEntity
  8
SANINDUSA
100
AcDbLine
 10
627.3444379807378
 20
1217.198677625752
 30
0.0000000001555554
 11
627.3444379807378
 21
1217.202677625752
 31
0.0000000001555554
  0
LINE
  5
11EA
330
1F
100
AcDbEntity
  8
SANINDUSA
100
AcDbLine
 10
628.5758254552892
 20
1216.530808129652
 30
-0.0000000017937957
 11
628.5168254552891
 21
1216.530808129652
 31
-0.0000000017937957
  0
LINE
  5
11EB
330
1F
100
AcDbEntity
  8
SANINDUSA
100
AcDbLine
 10
628.5177143441781
 20
1216.565808129653
 30
-0.0000000017937957
 11
628.5758254552892
 21
1216.565808129653
 31
-0.0000000017937957
  0
LINE
  5
11ED
330
1F
100
AcDbEntity
  8
SANINDUSA
100
AcDbLine
 10
628.5008254552892
 20
1216.546308129652
 30
-0.0000000017937957
 11
628.5008254552892
 21
1216.525308129652
 31
-0.0000000017937957
  0
LINE
  5
11EE
330
1F
100
AcDbEntity
  8
SANINDUSA
100
AcDbLine
 10
628.4999365664003
 20
1216.530808129652
 30
-0.0000000017937957
 11
628.4999365664003
 21
1216.550308129652
 31
-0.0000000017937957
  0
LINE
  5
11EF
330
1F
100
AcDbEntity
  8
SANINDUSA
100
AcDbLine
 10
628.4408254552893
 20
1216.564808129652
 30
-0.0000000017937957
 11
628.4408254552892
 21
1216.531808129653
 31
-0.0000000017937957
  0
LINE
  5
11F0
330
1F
100
AcDbEntity
  8
SANINDUSA
100
AcDbLine
 10
628.4418254552893
 20
1216.530808129652
 30
-0.0000000017937957
 11
628.4999365664003
 21
1216.530808129652
 31
-0.0000000017937957
  0
ARC
  5
11F1
330
1F
100
AcDbEntity
  8
SANINDUSA
100
AcDbCircle
 10
628.4418254552893
 20
1216.531808129653
 30
-0.0000000017937957
 40
0.001
100
AcDbArc
 50
180.0
 51
270.0
  0
ARC
  5
11F2
330
1F
100
AcDbEntity
  8
SANINDUSA
100
AcDbCircle
 10
628.5018254552891
 20
1216.525308129652
 30
-0.0000000017937957
 40
0.001
100
AcDbArc
 50
180.0
 51
270.0
  0
LINE
  5
11F3
330
1F
100
AcDbEntity
  8
SANINDUSA
100
AcDbLine
 10
628.5008254552892
 20
1216.565808129653
 30
-0.0000000017937957
 11
628.4418254552893
 21
1216.565808129653
 31
-0.0000000017937957
  0
ARC
  5
11F4
330
1F
100
AcDbEntity
  8
SANINDUSA
100
AcDbCircle
 10
628.4418254552893
 20
1216.564808129652
 30
-0.0000000017937957
 40
0.001
100
AcDbArc
 50
90.0
 51
180.0
  0
ARC
  5
11F5
330
1F
100
AcDbEntity
  8
SANINDUSA
100
AcDbCircle
 10
628.5018254552892
 20
1216.571308129652
 30
-0.0000000017937957
 40
0.001
100
AcDbArc
 50
90.0
 51
180.0
  0
LINE
  5
11F6
330
1F
100
AcDbEntity
  8
SANINDUSA
100
AcDbLine
 10
628.5008254552892
 20
1216.565808129653
 30
-0.0000000017937957
 11
628.5008254552892
 21
1216.550308129652
 31
-0.0000000017937957
  0
LINE
  5
11F7
330
1F
100
AcDbEntity
  8
SANINDUSA
100
AcDbLine
 10
628.5008254552892
 20
1216.571308129652
 30
-0.0000000017937957
 11
628.5008254552892
 21
1216.565808129653
 31
-0.0000000017937957
  0
LINE
  5
11F8
330
1F
100
AcDbEntity
  8
SANINDUSA
100
AcDbLine
 10
628.5013254552891
 20
1216.550308129652
 30
-0.0000000017937957
 11
628.5013254552891
 21
1216.546308129652
 31
-0.0000000017937957
  0
LINE
  5
11F9
330
1F
100
AcDbEntity
  8
SANINDUSA
100
AcDbLine
 10
628.5168254552891
 20
1216.525308129652
 30
-0.0000000017937957
 11
628.5168254552891
 21
1216.546308129652
 31
-0.0000000017937957
  0
ARC
  5
11FA
330
1F
100
AcDbEntity
  8
SANINDUSA
100
AcDbCircle
 10
628.5158254552891
 20
1216.525308129652
 30
-0.0000000017937957
 40
0.001
100
AcDbArc
 50
270.0
 51
0.0
  0
LINE
  5
11FB
330
1F
100
AcDbEntity
  8
SANINDUSA
100
AcDbLine
 10
628.5018254552891
 20
1216.524308129652
 30
-0.0000000017937957
 11
628.5158254552891
 21
1216.524308129652
 31
-0.0000000017937957
  0
LINE
  5
11FC
330
1F
100
AcDbEntity
  8
SANINDUSA
100
AcDbLine
 10
628.5168254552892
 20
1216.550308129652
 30
-0.0000000017937957
 11
628.5168254552892
 21
1216.571308129652
 31
-0.0000000017937957
  0
LINE
  5
11FD
330
1F
100
AcDbEntity
  8
SANINDUSA
100
AcDbLine
 10
628.5177143441781
 20
1216.546308129652
 30
-0.0000000017937957
 11
628.5177143441781
 21
1216.565808129653
 31
-0.0000000017937957
  0
LINE
  5
11FE
330
1F
100
AcDbEntity
  8
SANINDUSA
100
AcDbLine
 10
628.5163254552891
 20
1216.550308129652
 30
-0.0000000017937957
 11
628.5163254552891
 21
1216.546308129652
 31
-0.0000000017937957
  0
LINE
  5
11FF
330
1F
100
AcDbEntity
  8
SANINDUSA
100
AcDbLine
 10
628.5168254552891
 20
1216.546308129652
 30
-0.0000000017937957
 11
628.5177143441781
 21
1216.546308129652
 31
-0.0000000017937957
  0
ARC
  5
1200
330
1F
100
AcDbEntity
  8
SANINDUSA
100
AcDbCircle
 10
628.5158254552892
 20
1216.571308129652
 30
-0.0000000017937957
 40
0.001
100
AcDbArc
 50
0.0
 51
90.0
  0
LINE
  5
1201
330
1F
100
AcDbEntity
  8
SANINDUSA
100
AcDbLine
 10
628.4999365664003
 20
1216.550308129652
 30
-0.0000000017937957
 11
628.5168254552892
 21
1216.550308129652
 31
-0.0000000017937957
  0
LINE
  5
1202
330
1F
100
AcDbEntity
  8
SANINDUSA
100
AcDbLine
 10
628.5168254552891
 20
1216.546308129652
 30
-0.0000000017937957
 11
628.5008254552892
 21
1216.546308129652
 31
-0.0000000017937957
  0
LINE
  5
1203
330
1F
100
AcDbEntity
  8
SANINDUSA
100
AcDbLine
 10
628.5158254552892
 20
1216.572308129652
 30
-0.0000000017937957
 11
628.5018254552892
 21
1216.572308129652
 31
-0.0000000017937957
  0
LINE
  5
1204
330
1F
100
AcDbEntity
  8
SANINDUSA
100
AcDbLine
 10
628.5768254552891
 20
1216.564808129652
 30
-0.0000000017937957
 11
628.5768254552891
 21
1216.531808129653
 31
-0.0000000017937957
  0
ARC
  5
1205
330
1F
100
AcDbEntity
  8
SANINDUSA
100
AcDbCircle
 10
628.5758254552892
 20
1216.531808129653
 30
-0.0000000017937957
 40
0.001
100
AcDbArc
 50
270.0
 51
0.0
  0
ARC
  5
1206
330
1F
100
AcDbEntity
  8
SANINDUSA
100
AcDbCircle
 10
628.5758254552892
 20
1216.564808129652
 30
-0.0000000017937957
 40
0.001
100
AcDbArc
 50
0.0
 51
90.0
  0
LINE
  5
1207
330
1F
100
AcDbEntity
  8
SANINDUSA
100
AcDbLine
 10
628.5758254552892
 20
1217.790808129643
 30
-0.0000000017937957
 11
628.5168254552891
 21
1217.790808129643
 31
-0.0000000017937957
  0
LINE
  5
1208
330
1F
100
AcDbEntity
  8
SANINDUSA
100
AcDbLine
 10
628.5177143441781
 20
1217.825808129643
 30
-0.0000000017937957
 11
628.5758254552892
 21
1217.825808129643
 31
-0.0000000017937957
  0
LINE
  5
120A
330
1F
100
AcDbEntity
  8
SANINDUSA
100
AcDbLine
 10
628.5008254552892
 20
1217.806308129643
 30
-0.0000000017937957
 11
628.5008254552892
 21
1217.785308129643
 31
-0.0000000017937957
  0
LINE
  5
120B
330
1F
100
AcDbEntity
  8
SANINDUSA
100
AcDbLine
 10
628.4999365664003
 20
1217.790808129643
 30
-0.0000000017937957
 11
628.4999365664003
 21
1217.810308129643
 31
-0.0000000017937957
  0
LINE
  5
120C
330
1F
100
AcDbEntity
  8
SANINDUSA
100
AcDbLine
 10
628.4408254552893
 20
1217.824808129643
 30
-0.0000000017937957
 11
628.4408254552892
 21
1217.791808129643
 31
-0.0000000017937957
  0
LINE
  5
120D
330
1F
100
AcDbEntity
  8
SANINDUSA
100
AcDbLine
 10
628.4418254552893
 20
1217.790808129643
 30
-0.0000000017937957
 11
628.4999365664003
 21
1217.790808129643
 31
-0.0000000017937957
  0
ARC
  5
120E
330
1F
100
AcDbEntity
  8
SANINDUSA
100
AcDbCircle
 10
628.4418254552893
 20
1217.791808129643
 30
-0.0000000017937957
 40
0.001
100
AcDbArc
 50
180.0
 51
270.0
  0
ARC
  5
120F
330
1F
100
AcDbEntity
  8
SANINDUSA
100
AcDbCircle
 10
628.5018254552891
 20
1217.785308129643
 30
-0.0000000017937957
 40
0.001
100
AcDbArc
 50
180.0
 51
270.0
  0
LINE
  5
1210
330
1F
100
AcDbEntity
  8
SANINDUSA
100
AcDbLine
 10
628.5008254552892
 20
1217.825808129643
 30
-0.0000000017937957
 11
628.4418254552893
 21
1217.825808129643
 31
-0.0000000017937957
  0
ARC
  5
1211
330
1F
100
AcDbEntity
  8
SANINDUSA
100
AcDbCircle
 10
628.4418254552893
 20
1217.824808129643
 30
-0.0000000017937957
 40
0.001
100
AcDbArc
 50
90.0
 51
180.0
  0
ARC
  5
1212
330
1F
100
AcDbEntity
  8
SANINDUSA
100
AcDbCircle
 10
628.5018254552892
 20
1217.831308129643
 30
-0.0000000017937957
 40
0.001
100
AcDbArc
 50
90.0
 51
180.0
  0
LINE
  5
1213
330
1F
100
AcDbEntity
  8
SANINDUSA
100
AcDbLine
 10
628.5008254552892
 20
1217.825808129643
 30
-0.0000000017937957
 11
628.5008254552892
 21
1217.810308129643
 31
-0.0000000017937957
  0
LINE
  5
1214
330
1F
100
AcDbEntity
  8
SANINDUSA
100
AcDbLine
 10
628.5008254552892
 20
1217.831308129643
 30
-0.0000000017937957
 11
628.5008254552892
 21
1217.825808129643
 31
-0.0000000017937957
  0
LINE
  5
1215
330
1F
100
AcDbEntity
  8
SANINDUSA
100
AcDbLine
 10
628.5013254552891
 20
1217.810308129643
 30
-0.0000000017937957
 11
628.5013254552891
 21
1217.806308129643
 31
-0.0000000017937957
  0
LINE
  5
1216
330
1F
100
AcDbEntity
  8
SANINDUSA
100
AcDbLine
 10
628.5168254552891
 20
1217.785308129643
 30
-0.0000000017937957
 11
628.5168254552891
 21
1217.806308129643
 31
-0.0000000017937957
  0
ARC
  5
1217
330
1F
100
AcDbEntity
  8
SANINDUSA
100
AcDbCircle
 10
628.5158254552891
 20
1217.785308129643
 30
-0.0000000017937957
 40
0.001
100
AcDbArc
 50
270.0
 51
0.0
  0
LINE
  5
1218
330
1F
100
AcDbEntity
  8
SANINDUSA
100
AcDbLine
 10
628.5018254552891
 20
1217.784308129643
 30
-0.0000000017937957
 11
628.5158254552891
 21
1217.784308129643
 31
-0.0000000017937957
  0
LINE
  5
1219
330
1F
100
AcDbEntity
  8
SANINDUSA
100
AcDbLine
 10
628.5168254552892
 20
1217.810308129643
 30
-0.0000000017937957
 11
628.5168254552892
 21
1217.831308129643
 31
-0.0000000017937957
  0
LINE
  5
121A
330
1F
100
AcDbEntity
  8
SANINDUSA
100
AcDbLine
 10
628.5177143441781
 20
1217.806308129643
 30
-0.0000000017937957
 11
628.5177143441781
 21
1217.825808129643
 31
-0.0000000017937957
  0
LINE
  5
121B
330
1F
100
AcDbEntity
  8
SANINDUSA
100
AcDbLine
 10
628.5163254552891
 20
1217.810308129643
 30
-0.0000000017937957
 11
628.5163254552891
 21
1217.806308129643
 31
-0.0000000017937957
  0
LINE
  5
121C
330
1F
100
AcDbEntity
  8
SANINDUSA
100
AcDbLine
 10
628.5168254552891
 20
1217.806308129643
 30
-0.0000000017937957
 11
628.5177143441781
 21
1217.806308129643
 31
-0.0000000017937957
  0
ARC
  5
121D
330
1F
100
AcDbEntity
  8
SANINDUSA
100
AcDbCircle
 10
628.5158254552892
 20
1217.831308129643
 30
-0.0000000017937957
 40
0.001
100
AcDbArc
 50
0.0
 51
90.0
  0
LINE
  5
121E
330
1F
100
AcDbEntity
  8
SANINDUSA
100
AcDbLine
 10
628.4999365664003
 20
1217.810308129643
 30
-0.0000000017937957
 11
628.5168254552892
 21
1217.810308129643
 31
-0.0000000017937957
  0
LINE
  5
121F
330
1F
100
AcDbEntity
  8
SANINDUSA
100
AcDbLine
 10
628.5168254552891
 20
1217.806308129643
 30
-0.0000000017937957
 11
628.5008254552892
 21
1217.806308129643
 31
-0.0000000017937957
  0
LINE
  5
1220
330
1F
100
AcDbEntity
  8
SANINDUSA
100
AcDbLine
 10
628.5158254552892
 20
1217.832308129643
 30
-0.0000000017937957
 11
628.5018254552892
 21
1217.832308129643
 31
-0.0000000017937957
  0
LINE
  5
1221
330
1F
100
AcDbEntity
  8
SANINDUSA
100
AcDbLine
 10
628.5768254552891
 20
1217.824808129643
 30
-0.0000000017937957
 11
628.5768254552891
 21
1217.791808129643
 31
-0.0000000017937957
  0
ARC
  5
1222
330
1F
100
AcDbEntity
  8
SANINDUSA
100
AcDbCircle
 10
628.5758254552892
 20
1217.791808129643
 30
-0.0000000017937957
 40
0.001
100
AcDbArc
 50
270.0
 51
0.0
  0
ARC
  5
1223
330
1F
100
AcDbEntity
  8
SANINDUSA
100
AcDbCircle
 10
628.5758254552892
 20
1217.824808129643
 30
-0.0000000017937957
 40
0.001
100
AcDbArc
 50
0.0
 51
90.0
  0
LINE
  5
1224
330
1F
100
AcDbEntity
  8
SANINDUSA
100
AcDbLine
 10
628.5103254552892
 20
1217.832308129643
 30
0.0
 11
628.5103254552892
 21
1218.103308129652
 31
0.0
  0
LINE
  5
1225
330
1F
100
AcDbEntity
  8
SANINDUSA
100
AcDbLine
 10
628.5073254552892
 20
1217.832308129643
 30
0.0
 11
628.5073254552892
 21
1218.103308129652
 31
0.0
  0
LINE
  5
1226
330
1F
100
AcDbEntity
  8
SANINDUSA
100
AcDbLine
 10
627.8900858093368
 20
1216.253308129652
 30
0.0
 11
627.8900858093368
 21
1218.103308129652
 31
0.0
  0
LINE
  5
1227
330
1F
100
AcDbEntity
  8
SANINDUSA
100
AcDbLine
 10
627.8433662564403
 20
1216.253308129652
 30
0.0
 11
627.8433662564403
 21
1218.103308129652
 31
0.0
  0
LINE
  5
1228
330
1F
100
AcDbEntity
  8
SANINDUSA
100
AcDbLine
 10
627.8556662564402
 20
1216.263308129652
 30
0.0
 11
627.8556662564402
 21
1218.103308129652
 31
0.0
  0
LINE
  5
1229
330
1F
100
AcDbEntity
  8
SANINDUSA
100
AcDbLine
 10
627.8616662564402
 20
1216.263308129652
 30
0.0
 11
627.8616662564402
 21
1218.103308129652
 31
0.0
  0
LINE
  5
122A
330
1F
100
AcDbEntity
  8
SANINDUSA
100
AcDbLine
 10
627.8928858093368
 20
1216.263308129652
 30
0.0
 11
627.8928858093368
 21
1218.103308129652
 31
0.0
  0
LINE
  5
122B
330
1F
100
AcDbEntity
  8
SANINDUSA
100
AcDbLine
 10
628.8475554720228
 20
1216.253308129652
 30
0.0
 11
628.8475554720228
 21
1218.103308129652
 31
0.0
  0
LINE
  5
122C
330
1F
100
AcDbEntity
  8
SANINDUSA
100
AcDbLine
 10
628.7927054720229
 20
1216.253308129652
 30
0.0
 11
628.7927054720229
 21
1218.103308129652
 31
0.0
  0
LINE
  5
122F
330
1F
100
AcDbEntity
  8
SANINDUSA
100
AcDbLine
 10
628.5103254552892
 20
1216.572308129652
 30
0.0
 11
628.5103254552892
 21
1217.784308129643
 31
0.0
  0
LINE
  5
1230
330
1F
100
AcDbEntity
  8
SANINDUSA
100
AcDbLine
 10
628.5073254552892
 20
1216.572308129652
 30
0.0
 11
628.5073254552892
 21
1217.784308129643
 31
0.0
  0
LINE
  5
1231
330
1F
100
AcDbEntity
  8
SANINDUSA
100
AcDbLine
 10
628.5073254552892
 20
1216.263308129652
 30
0.0
 11
627.8928858093368
 21
1216.263308129652
 31
0.0
  0
LINE
  5
1235
330
1F
100
AcDbEntity
  8
SANINDUSA
100
AcDbLine
 10
627.8616662564402
 20
1216.263308129652
 30
0.0
 11
627.8556662564402
 21
1216.263308129652
 31
0.0
  0
LINE
  5
1238
330
1F
100
AcDbEntity
  8
SANINDUSA
100
AcDbLine
 10
628.5073254552892
 20
1216.263308129652
 30
0.0
 11
628.5073254552892
 21
1216.524308129652
 31
0.0
  0
LINE
  5
1239
330
1F
100
AcDbEntity
  8
SANINDUSA
100
AcDbLine
 10
628.5103254552892
 20
1216.253308129652
 30
0.0
 11
628.5103254552892
 21
1216.524308129652
 31
0.0
  0
LINE
  5
1240
330
1F
100
AcDbEntity
  8
SANINDUSA
100
AcDbLine
 10
628.5073254552892
 20
1218.103308129652
 30
0.0
 11
627.8433662564403
 21
1218.103308129652
 31
0.0
  0
LINE
  5
1243
330
1F
100
AcDbEntity
  8
SANINDUSA
100
AcDbLine
 10
628.8475554720228
 20
1218.103308129652
 30
0.0
 11
628.4395054401738
 21
1218.103308129652
 31
0.0
  0
LINE
  5
13F6
330
1F
100
AcDbEntity
  8
SANINDUSA
100
AcDbLine
 10
627.9242568060732
 20
1216.253308129652
 30
0.0
 11
627.9242568060732
 21
1218.103308129652
 31
0.0
  0
LINE
  5
13F7
330
1F
100
AcDbEntity
  8
SANINDUSA
100
AcDbLine
 10
627.9270568060732
 20
1216.263308129652
 30
0.0
 11
627.9270568060732
 21
1218.103308129652
 31
0.0
  0
LINE
  5
13F9
330
1F
100
AcDbEntity
  8
SANINDUSA
100
AcDbLine
 10
627.8433662564403
 20
1216.253308129652
 30
0.0
 11
628.8475554720228
 21
1216.253308129652
 31
0.0
  0
ARC
  5
1597
330
1F
100
AcDbEntity
  8
SANINDUSA
100
AcDbCircle
 10
627.6118179974714
 20
1217.201977625752
 30
0.0
 40
0.0009999999999999
100
AcDbArc
 50
0.0
 51
90.0
  0
LINE
  5
1598
330
1F
100
AcDbEntity
  8
SANINDUSA
100
AcDbLine
 10
627.6118179974714
 20
1217.202977625752
 30
0.0
 11
627.5767946933394
 21
1217.202977625752
 31
0.0
  0
LINE
  5
1599
330
1F
100
AcDbEntity
  8
SANINDUSA
100
AcDbLine
 10
627.6128179974714
 20
1217.200991839315
 30
0.0
 11
627.6128179974714
 21
1217.201977625752
 31
0.0
  0
ARC
  5
159A
330
1F
100
AcDbEntity
  8
SANINDUSA
100
AcDbCircle
 10
627.5767946933394
 20
1217.201977625752
 30
0.0
 40
0.001
100
AcDbArc
 50
90.0
 51
270.0
  0
ARC
  5
159B
330
1F
100
AcDbEntity
  8
SANINDUSA
100
AcDbCircle
 10
627.6118179974714
 20
1217.200991839315
 30
0.0
 40
0.0010000000000003
100
AcDbArc
 50
315.0
 51
0.0
  0
LINE
  5
159C
330
1F
100
AcDbEntity
  8
SANINDUSA
100
AcDbLine
 10
627.5767946933394
 20
1217.200977625752
 30
0.0
 11
627.6083179974714
 21
1217.200977625752
 31
0.0
  0
LINE
  5
159D
330
1F
100
AcDbEntity
  8
SANINDUSA
100
AcDbLine
 10
627.6116108906903
 20
1217.199370518971
 30
0.0
 11
627.6125251042526
 21
1217.200284732534
 31
0.0
  0
ARC
  5
159E
330
1F
100
AcDbEntity
  8
SANINDUSA
100
AcDbCircle
 10
627.6083179974714
 20
1217.199977625752
 30
0.0
 40
0.001
100
AcDbArc
 50
0.0
 51
90.0
  0
ARC
  5
159F
330
1F
100
AcDbEntity
  8
SANINDUSA
100
AcDbCircle
 10
627.6123179974714
 20
1217.19866341219
 30
0.0
 40
0.0010000000000003
100
AcDbArc
 50
135.0
 51
180.0
  0
LINE
  5
15A0
330
1F
100
AcDbEntity
  8
SANINDUSA
100
AcDbLine
 10
627.6093179974714
 20
1217.199977625752
 30
0.0
 11
627.6093179974714
 21
1217.182118439475
 31
0.0
  0
LINE
  5
15A1
330
1F
100
AcDbEntity
  8
SANINDUSA
100
AcDbLine
 10
627.6113179974714
 20
1217.195288285924
 30
0.0
 11
627.6113179974714
 21
1217.19866341219
 31
0.0
  0
ARC
  5
15A2
330
1F
100
AcDbEntity
  8
SANINDUSA
100
AcDbCircle
 10
627.6083179974714
 20
1217.182118439475
 30
0.0
 40
0.001
100
AcDbArc
 50
267.8505420653467
 51
0.0
  0
ARC
  5
15A3
330
1F
100
AcDbEntity
  8
SANINDUSA
100
AcDbCircle
 10
627.6110679974713
 20
1217.195288285924
 30
0.0
 40
0.0002500000000003
100
AcDbArc
 50
315.0
 51
0.0
  0
ARC
  5
15A4
330
1F
100
AcDbEntity
  8
SANINDUSA
100
AcDbCircle
 10
627.6119081059094
 20
1217.277771185397
 30
0.0
 40
0.0967200954923435
100
AcDbArc
 50
254.4398303579209
 51
267.8505420653467
  0
LINE
  5
15A5
330
1F
100
AcDbEntity
  8
SANINDUSA
100
AcDbLine
 10
627.6107644440807
 20
1217.194631179143
 30
0.0
 11
627.6112447741667
 21
1217.195111509229
 31
0.0
  0
ARC
  5
15A6
330
1F
100
AcDbEntity
  8
SANINDUSA
100
AcDbCircle
 10
627.5860970467119
 20
1217.185077625752
 30
0.0
 40
0.0005
100
AcDbArc
 50
90.0
 51
254.4398303579209
  0
ARC
  5
15A7
330
1F
100
AcDbEntity
  8
SANINDUSA
100
AcDbCircle
 10
627.6111179974714
 20
1217.194277625752
 30
0.0
 40
0.0005
100
AcDbArc
 50
135.0
 51
225.0
  0
LINE
  5
15A8
330
1F
100
AcDbEntity
  8
SANINDUSA
100
AcDbLine
 10
627.5860970467119
 20
1217.185577625752
 30
0.0
 11
627.5987946933394
 21
1217.185577625752
 31
0.0
  0
LINE
  5
15A9
330
1F
100
AcDbEntity
  8
SANINDUSA
100
AcDbLine
 10
627.6112447741667
 20
1217.193443742276
 30
0.0
 11
627.6107644440807
 21
1217.193924072362
 31
0.0
  0
ARC
  5
15AA
330
1F
100
AcDbEntity
  8
SANINDUSA
100
AcDbCircle
 10
627.5987946933394
 20
1217.186577625752
 30
0.0
 40
0.001
100
AcDbArc
 50
270.0
 51
90.0
  0
ARC
  5
15AB
330
1F
100
AcDbEntity
  8
SANINDUSA
100
AcDbCircle
 10
627.6110679974713
 20
1217.193266965581
 30
0.0
 40
0.00025
100
AcDbArc
 50
0.0
 51
45.0
  0
LINE
  5
15AC
330
1F
100
AcDbEntity
  8
SANINDUSA
100
AcDbLine
 10
627.5987946933394
 20
1217.187577625752
 30
0.0
 11
627.5767946933394
 21
1217.187577625752
 31
0.0
  0
LINE
  5
15AD
330
1F
100
AcDbEntity
  8
SANINDUSA
100
AcDbLine
 10
627.6113179974714
 20
1217.183077602091
 30
0.0
 11
627.6113179974714
 21
1217.193266965581
 31
0.0
  0
ARC
  5
15AE
330
1F
100
AcDbEntity
  8
SANINDUSA
100
AcDbCircle
 10
627.5767946933394
 20
1217.186577625752
 30
0.0
 40
0.001
100
AcDbArc
 50
90.0
 51
248.9411647530097
  0
ARC
  5
15AF
330
1F
100
AcDbEntity
  8
SANINDUSA
100
AcDbCircle
 10
627.6123179974714
 20
1217.183077602091
 30
0.0
 40
0.0010000000000003
100
AcDbArc
 50
180.0
 51
225.0893040480139
  0
ARC
  5
15B0
330
1F
100
AcDbEntity
  8
SANINDUSA
100
AcDbCircle
 10
627.6119081059094
 20
1217.277771185397
 30
0.0
 40
0.0987200954923432
100
AcDbArc
 50
248.9411647530097
 51
269.9477634045774
  0
LINE
  5
15B1
330
1F
100
AcDbEntity
  8
SANINDUSA
100
AcDbLine
 10
627.6125184327914
 20
1217.181465776173
 30
0.0
 11
627.6116119936805
 21
1217.182369394037
 31
0.0
  0
ARC
  5
15B2
330
1F
100
AcDbEntity
  8
SANINDUSA
100
AcDbCircle
 10
627.6118190144527
 20
1217.180051130517
 30
0.0
 40
0.001
100
AcDbArc
 50
269.9477634045774
 51
0.5340991041582639
  0
ARC
  5
15B3
330
1F
100
AcDbEntity
  8
SANINDUSA
100
AcDbCircle
 10
627.6118124290004
 20
1217.18075756812
 30
0.0
 40
0.0010000000000003
100
AcDbArc
 50
0.5340991041582639
 51
45.08930404801392
  0
LINE
  5
15B4
330
1F
100
AcDbEntity
  8
SANINDUSA
100
AcDbLine
 10
627.6128189710052
 20
1217.18006045217
 30
0.0
 11
627.6128123855529
 21
1217.180766889773
 31
0.0
  0
LINE
  5
15B5
330
1F
100
AcDbEntity
  8
SANINDUSA
100
AcDbLine
 10
627.5631927701799
 20
1217.198277625752
 30
0.0
 11
627.5658813833302
 21
1217.198277625752
 31
0.0
  0
ARC
  5
15B6
330
1F
100
AcDbEntity
  8
SANINDUSA
100
AcDbCircle
 10
627.5658813833302
 20
1217.197777625752
 30
0.0
 40
0.0005
100
AcDbArc
 50
19.47122063801706
 51
90.0
  0
ARC
  5
15B7
330
1F
100
AcDbEntity
  8
SANINDUSA
100
AcDbCircle
 10
627.5631927701799
 20
1217.197777625752
 30
0.0
 40
0.0005000000000001
100
AcDbArc
 50
90.0
 51
156.4218215275184
  0
ARC
  5
15B8
330
1F
100
AcDbEntity
  8
SANINDUSA
100
AcDbCircle
 10
627.5672955968925
 20
1217.198277625752
 30
0.0
 40
0.001
100
AcDbArc
 50
199.471220638017
 51
340.5287793619829
  0
ARC
  5
15B9
330
1F
100
AcDbEntity
  8
SANINDUSA
100
AcDbCircle
 10
627.5618179974714
 20
1217.198377625752
 30
0.0
 40
0.0009999999999999
100
AcDbArc
 50
180.0
 51
336.4218215275184
  0
ARC
  5
15BA
330
1F
100
AcDbEntity
  8
SANINDUSA
100
AcDbCircle
 10
627.5687098104549
 20
1217.197777625752
 30
0.0
 40
0.0004999999999999
100
AcDbArc
 50
90.0
 51
160.5287793619829
  0
LINE
  5
15BB
330
1F
100
AcDbEntity
  8
SANINDUSA
100
AcDbLine
 10
627.5608179974714
 20
1217.198377625752
 30
0.0
 11
627.5608179974714
 21
1217.199277625752
 31
0.0
  0
LINE
  5
15BC
330
1F
100
AcDbEntity
  8
SANINDUSA
100
AcDbLine
 10
627.5687098104549
 20
1217.198277625752
 30
0.0
 11
627.5702959737115
 21
1217.198277625752
 31
0.0
  0
ARC
  5
15BD
330
1F
100
AcDbEntity
  8
SANINDUSA
100
AcDbCircle
 10
627.5618179974714
 20
1217.199277625752
 30
0.0
 40
0.0009999999999999
100
AcDbArc
 50
90.0
 51
180.0
  0
ARC
  5
15BE
330
1F
100
AcDbEntity
  8
SANINDUSA
100
AcDbCircle
 10
627.5702959737115
 20
1217.197777625752
 30
0.0
 40
0.0005
100
AcDbArc
 50
0.0
 51
90.0
  0
LINE
  5
15BF
330
1F
100
AcDbEntity
  8
SANINDUSA
100
AcDbLine
 10
627.5618179974714
 20
1217.200277625752
 30
0.0
 11
627.5933179974714
 21
1217.200277625752
 31
0.0
  0
LINE
  5
15C0
330
1F
100
AcDbEntity
  8
SANINDUSA
100
AcDbLine
 10
627.5707959737116
 20
1217.197777625752
 30
0.0
 11
627.5707959737116
 21
1217.190777625752
 31
0.0
  0
ARC
  5
15C1
330
1F
100
AcDbEntity
  8
SANINDUSA
100
AcDbCircle
 10
627.5933179974714
 20
1217.199277625752
 30
0.0
 40
0.001
100
AcDbArc
 50
270.0
 51
90.0
  0
ARC
  5
15C2
330
1F
100
AcDbEntity
  8
SANINDUSA
100
AcDbCircle
 10
627.5702959737115
 20
1217.190777625752
 30
0.0
 40
0.0005
100
AcDbArc
 50
270.0
 51
0.0
  0
LINE
  5
15C3
330
1F
100
AcDbEntity
  8
SANINDUSA
100
AcDbLine
 10
627.5933179974714
 20
1217.198277625752
 30
0.0
 11
627.5732959737115
 21
1217.198277625752
 31
0.0
  0
LINE
  5
15C4
330
1F
100
AcDbEntity
  8
SANINDUSA
100
AcDbLine
 10
627.5702959737115
 20
1217.190277625752
 30
0.0
 11
627.5687098104549
 21
1217.190277625752
 31
0.0
  0
ARC
  5
15C5
330
1F
100
AcDbEntity
  8
SANINDUSA
100
AcDbCircle
 10
627.5732959737115
 20
1217.197777625752
 30
0.0
 40
0.0005000000000001
100
AcDbArc
 50
90.0
 51
180.0
  0
ARC
  5
15C6
330
1F
100
AcDbEntity
  8
SANINDUSA
100
AcDbCircle
 10
627.5687098104549
 20
1217.190777625752
 30
0.0
 40
0.0005
100
AcDbArc
 50
199.471220638017
 51
270.0
  0
LINE
  5
15C7
330
1F
100
AcDbEntity
  8
SANINDUSA
100
AcDbLine
 10
627.5727959737115
 20
1217.197777625752
 30
0.0
 11
627.5727959737115
 21
1217.190777625752
 31
0.0
  0
ARC
  5
15C8
330
1F
100
AcDbEntity
  8
SANINDUSA
100
AcDbCircle
 10
627.5672955968925
 20
1217.190277625752
 30
0.0
 40
0.001
100
AcDbArc
 50
19.47122063801706
 51
160.5287793619829
  0
ARC
  5
15C9
330
1F
100
AcDbEntity
  8
SANINDUSA
100
AcDbCircle
 10
627.5732959737115
 20
1217.190777625752
 30
0.0
 40
0.0005000000000001
100
AcDbArc
 50
180.0
 51
270.0
  0
ARC
  5
15CA
330
1F
100
AcDbEntity
  8
SANINDUSA
100
AcDbCircle
 10
627.5658813833302
 20
1217.190777625752
 30
0.0
 40
0.0005
100
AcDbArc
 50
270.0
 51
340.5287793619829
  0
LINE
  5
15CB
330
1F
100
AcDbEntity
  8
SANINDUSA
100
AcDbLine
 10
627.5732959737115
 20
1217.190277625752
 30
0.0
 11
627.5933179974714
 21
1217.190277625752
 31
0.0
  0
LINE
  5
15CC
330
1F
100
AcDbEntity
  8
SANINDUSA
100
AcDbLine
 10
627.5658813833302
 20
1217.190277625752
 30
0.0
 11
627.5631927701799
 21
1217.190277625752
 31
0.0
  0
ARC
  5
15CD
330
1F
100
AcDbEntity
  8
SANINDUSA
100
AcDbCircle
 10
627.5933179974714
 20
1217.189277625752
 30
0.0
 40
0.001
100
AcDbArc
 50
270.0
 51
90.0
  0
ARC
  5
15CE
330
1F
100
AcDbEntity
  8
SANINDUSA
100
AcDbCircle
 10
627.5631927701799
 20
1217.190777625752
 30
0.0
 40
0.0005000000000001
100
AcDbArc
 50
203.5781784724816
 51
270.0
  0
LINE
  5
15CF
330
1F
100
AcDbEntity
  8
SANINDUSA
100
AcDbLine
 10
627.5933179974714
 20
1217.188277625752
 30
0.0
 11
627.5618179974714
 21
1217.188277625752
 31
0.0
  0
ARC
  5
15D0
330
1F
100
AcDbEntity
  8
SANINDUSA
100
AcDbCircle
 10
627.5618179974714
 20
1217.190177625752
 30
0.0
 40
0.0009999999999999
100
AcDbArc
 50
23.57817847248154
 51
180.0
  0
ARC
  5
15D1
330
1F
100
AcDbEntity
  8
SANINDUSA
100
AcDbCircle
 10
627.5618179974714
 20
1217.189277625752
 30
0.0
 40
0.0010000000000001
100
AcDbArc
 50
180.0
 51
270.0
  0
LINE
  5
15D2
330
1F
100
AcDbEntity
  8
SANINDUSA
100
AcDbLine
 10
627.5608179974714
 20
1217.189277625752
 30
0.0
 11
627.5608179974714
 21
1217.190177625752
 31
0.0
  0
LINE
  5
15D3
330
1F
100
AcDbEntity
  8
SANINDUSA
100
AcDbLine
 10
627.6151679974714
 20
1217.179051130517
 30
0.0
 11
627.6151679974714
 21
1217.202977625752
 31
0.0
  0
LINE
  5
15D4
330
1F
100
AcDbEntity
  8
SANINDUSA
100
AcDbLine
 10
627.6141679974714
 20
1217.202977625752
 30
0.0
 11
627.6151679974714
 21
1217.202977625752
 31
0.0
  0
LINE
  5
15D5
330
1F
100
AcDbEntity
  8
SANINDUSA
100
AcDbLine
 10
627.6151679974714
 20
1217.179051130517
 30
0.0
 11
627.6141691165589
 21
1217.179051130517
 31
0.0
  0
ARC
  5
15D6
330
1F
100
AcDbEntity
  8
SANINDUSA
100
AcDbCircle
 10
627.6141679974714
 20
1217.201977625752
 30
0.0
 40
0.0009999999999999
100
AcDbArc
 50
90.0
 51
180.0
  0
ARC
  5
15D7
330
1F
100
AcDbEntity
  8
SANINDUSA
100
AcDbCircle
 10
627.6141691165589
 20
1217.180051130517
 30
0.0
 40
0.0009999999999999
100
AcDbArc
 50
180.5340991041582
 51
270.0
  0
LINE
  5
15D8
330
1F
100
AcDbEntity
  8
SANINDUSA
100
AcDbLine
 10
627.6131679974715
 20
1217.200991839315
 30
0.0
 11
627.6131679974715
 21
1217.201977625752
 31
0.0
  0
LINE
  5
15D9
330
1F
100
AcDbEntity
  8
SANINDUSA
100
AcDbLine
 10
627.6131691600065
 20
1217.180041808864
 30
0.0
 11
627.6131623703462
 21
1217.180770152351
 31
0.0
  0
ARC
  5
15DA
330
1F
100
AcDbEntity
  8
SANINDUSA
100
AcDbCircle
 10
627.6118179974714
 20
1217.200991839315
 30
0.0
 40
0.0013499999999998
100
AcDbArc
 50
315.0
 51
0.0
  0
ARC
  5
15DB
330
1F
100
AcDbEntity
  8
SANINDUSA
100
AcDbCircle
 10
627.6118124290004
 20
1217.18075756812
 30
0.0
 40
0.00135
100
AcDbArc
 50
0.5340991041582639
 51
45.08930404801392
  0
LINE
  5
15DC
330
1F
100
AcDbEntity
  8
SANINDUSA
100
AcDbLine
 10
627.6118583780636
 20
1217.199123031598
 30
0.0
 11
627.612772591626
 21
1217.20003724516
 31
0.0
  0
LINE
  5
15DD
330
1F
100
AcDbEntity
  8
SANINDUSA
100
AcDbLine
 10
627.6127655341182
 20
1217.181713648992
 30
0.0
 11
627.6118590950074
 21
1217.182617266856
 31
0.0
  0
ARC
  5
15DE
330
1F
100
AcDbEntity
  8
SANINDUSA
100
AcDbCircle
 10
627.6123179974714
 20
1217.19866341219
 30
0.0
 40
0.0006500000000003
100
AcDbArc
 50
135.0
 51
180.0
  0
ARC
  5
15DF
330
1F
100
AcDbEntity
  8
SANINDUSA
100
AcDbCircle
 10
627.6123179974714
 20
1217.183077602091
 30
0.0
 40
0.0006500000000003
100
AcDbArc
 50
180.0
 51
225.0893040480139
  0
LINE
  5
15E0
330
1F
100
AcDbEntity
  8
SANINDUSA
100
AcDbLine
 10
627.6116679974714
 20
1217.183077602091
 30
0.0
 11
627.6116679974714
 21
1217.19866341219
 31
0.0
  0
LINE
  5
15E1
330
1F
100
AcDbEntity
  8
SANINDUSA
100
AcDbLine
 10
626.6869379415286
 20
1217.197456941977
 30
0.0000000001555553
 11
626.6869379415286
 21
1217.196977629562
 31
0.0000000001555553
  0
LINE
  5
15E2
330
1F
100
AcDbEntity
  8
SANINDUSA
100
AcDbLine
 10
626.6844379415285
 20
1217.19740810457
 30
0.0000000001555553
 11
626.6843787177978
 21
1217.197012513178
 31
0.0000000001555553
  0
ARC
  5
15E3
330
1F
100
AcDbEntity
  8
SANINDUSA
100
AcDbCircle
 10
626.6861379415286
 20
1217.197456941977
 30
0.0000000001555553
 40
0.0008
100
AcDbArc
 50
0.0
 51
81.48552156505678
  0
ARC
  5
15E4
330
1F
100
AcDbEntity
  8
SANINDUSA
100
AcDbCircle
 10
626.6836917514321
 20
1217.195800870816
 30
0.0000000001555553
 40
0.0002
100
AcDbArc
 50
171.4855215660212
 51
351.4855215660213
  0
LINE
  5
15E5
330
1F
100
AcDbEntity
  8
SANINDUSA
100
AcDbLine
 10
626.6865935237305
 20
1217.191874323106
 30
0.0000000001555553
 11
626.6843787177978
 21
1217.191542745946
 31
0.0000000001555553
  0
ARC
  5
15E6
330
1F
100
AcDbEntity
  8
SANINDUSA
100
AcDbCircle
 10
626.6836917514321
 20
1217.192754388308
 30
0.0000000001555553
 40
0.0002
100
AcDbArc
 50
8.514478433978798
 51
188.5144784339788
  0
LINE
  5
15E7
330
1F
100
AcDbEntity
  8
SANINDUSA
100
AcDbLine
 10
626.6844379415285
 20
1217.191147154554
 30
0.0000000001555553
 11
626.6843787177978
 21
1217.191542745946
 31
0.0000000001555553
  0
ARC
  5
15E8
330
1F
100
AcDbEntity
  8
SANINDUSA
100
AcDbCircle
 10
626.6866379415286
 20
1217.191577629562
 30
0.0000000001555553
 40
0.0003
100
AcDbArc
 50
0.0
 51
98.51447843494321
  0
ARC
  5
15E9
330
1F
100
AcDbEntity
  8
SANINDUSA
100
AcDbCircle
 10
626.6866379415286
 20
1217.196977629562
 30
0.0000000001555553
 40
0.0003
100
AcDbArc
 50
261.4855215650568
 51
0.0
  0
LINE
  5
15EA
330
1F
100
AcDbEntity
  8
SANINDUSA
100
AcDbLine
 10
626.6865935237305
 20
1217.196680936018
 30
0.0000000001555553
 11
626.6843787177978
 21
1217.197012513178
 31
0.0000000001555553
  0
LINE
  5
15EB
330
1F
100
AcDbEntity
  8
SANINDUSA
100
AcDbLine
 10
626.6837456565919
 20
1217.197511746099
 30
0.0000000001555553
 11
626.6834939557359
 21
1217.195830482681
 31
0.0000000001555553
  0
LINE
  5
15EC
330
1F
100
AcDbEntity
  8
SANINDUSA
100
AcDbLine
 10
626.6841412479843
 20
1217.197452522368
 30
0.0000000001555553
 11
626.6838895471282
 21
1217.195771258951
 31
0.0000000001555553
  0
LINE
  5
15ED
330
1F
100
AcDbEntity
  8
SANINDUSA
100
AcDbLine
 10
626.6816193528581
 20
1217.197830073653
 30
0.0000000001555553
 11
626.6815601291272
 21
1217.19743448226
 31
0.0000000001555553
  0
ARC
  5
15EE
330
1F
100
AcDbEntity
  8
SANINDUSA
100
AcDbCircle
 10
626.6752379415286
 20
1217.198077629562
 30
0.0000000001555553
 40
0.0003
100
AcDbArc
 50
81.48552156505678
 51
180.0
  0
ARC
  5
15EF
330
1F
100
AcDbEntity
  8
SANINDUSA
100
AcDbCircle
 10
626.6759803423577
 20
1217.198977629562
 30
0.0000000001555553
 40
0.0008
100
AcDbArc
 50
81.48552156505678
 51
90.0
  0
LINE
  5
15F0
330
1F
100
AcDbEntity
  8
SANINDUSA
100
AcDbLine
 10
626.6764379415285
 20
1217.198201321644
 30
0.0000000001555553
 11
626.6752823593267
 21
1217.198374323106
 31
0.0000000001555553
  0
LINE
  5
15F1
330
1F
100
AcDbEntity
  8
SANINDUSA
100
AcDbLine
 10
626.6764379415285
 20
1217.198201321644
 30
0.0000000001555553
 11
626.6764379415285
 21
1217.197377629562
 31
0.0000000001555553
  0
LINE
  5
15F2
330
1F
100
AcDbEntity
  8
SANINDUSA
100
AcDbLine
 10
626.6764379415285
 20
1217.197377629562
 30
0.0000000001555553
 11
626.6776379415285
 21
1217.197377629562
 31
0.0000000001555553
  0
LINE
  5
15F3
330
1F
100
AcDbEntity
  8
SANINDUSA
100
AcDbLine
 10
626.6776379415285
 20
1217.198021670422
 30
0.0000000001555553
 11
626.6776379415285
 21
1217.197377629562
 31
0.0000000001555553
  0
LINE
  5
15F4
330
1F
100
AcDbEntity
  8
SANINDUSA
100
AcDbLine
 10
626.6815601291272
 20
1217.19743448226
 30
0.0000000001555553
 11
626.6776379415285
 21
1217.198021670422
 31
0.0000000001555553
  0
LINE
  5
15F5
330
1F
100
AcDbEntity
  8
SANINDUSA
100
AcDbLine
 10
626.6764379415285
 20
1217.191177629562
 30
0.0000000001555553
 11
626.6776379415285
 21
1217.191177629562
 31
0.0000000001555553
  0
LINE
  5
15F6
330
1F
100
AcDbEntity
  8
SANINDUSA
100
AcDbLine
 10
626.6862563889902
 20
1217.198248124761
 30
0.0000000001555553
 11
626.6760987898194
 21
1217.199768812347
 31
0.0000000001555553
  0
LINE
  5
15F7
330
1F
100
AcDbEntity
  8
SANINDUSA
100
AcDbLine
 10
626.6844379415285
 20
1217.19740810457
 30
0.0000000001555553
 11
626.6816193528581
 21
1217.197830073653
 31
0.0000000001555553
  0
ARC
  5
15F8
330
1F
100
AcDbEntity
  8
SANINDUSA
100
AcDbCircle
 10
626.6861379415286
 20
1217.191098317148
 30
0.0000000001555553
 40
0.0008
100
AcDbArc
 50
278.5144784349432
 51
0.0
  0
LINE
  5
15F9
330
1F
100
AcDbEntity
  8
SANINDUSA
100
AcDbLine
 10
626.6816193528581
 20
1217.190725185472
 30
0.0000000001555553
 11
626.6815601291272
 21
1217.191120776864
 31
0.0000000001555553
  0
ARC
  5
15FA
330
1F
100
AcDbEntity
  8
SANINDUSA
100
AcDbCircle
 10
626.6752379415286
 20
1217.190477629562
 30
0.0000000001555553
 40
0.0003
100
AcDbArc
 50
180.0
 51
278.5144784349432
  0
ARC
  5
15FB
330
1F
100
AcDbEntity
  8
SANINDUSA
100
AcDbCircle
 10
626.6759803423577
 20
1217.189577629562
 30
0.0000000001555553
 40
0.0008
100
AcDbArc
 50
270.0
 51
278.5144784349432
  0
LINE
  5
15FC
330
1F
100
AcDbEntity
  8
SANINDUSA
100
AcDbLine
 10
626.6752823593267
 20
1217.190180936018
 30
0.0000000001555553
 11
626.6764379415285
 21
1217.19035393748
 31
0.0000000001555553
  0
LINE
  5
15FD
330
1F
100
AcDbEntity
  8
SANINDUSA
100
AcDbLine
 10
626.6815601291272
 20
1217.191120776864
 30
0.0000000001555553
 11
626.6776379415285
 21
1217.190533588702
 31
0.0000000001555553
  0
LINE
  5
15FE
330
1F
100
AcDbEntity
  8
SANINDUSA
100
AcDbLine
 10
626.6760987898194
 20
1217.188786446777
 30
0.0000000001555553
 11
626.6862563889902
 21
1217.190307134363
 31
0.0000000001555553
  0
LINE
  5
15FF
330
1F
100
AcDbEntity
  8
SANINDUSA
100
AcDbLine
 10
626.6749379415285
 20
1217.198077629562
 30
0.0000000001555553
 11
626.6749379415285
 21
1217.190477629562
 31
0.0000000001555553
  0
LINE
  5
1600
330
1F
100
AcDbEntity
  8
SANINDUSA
100
AcDbLine
 10
626.6869379415286
 20
1217.191577629562
 30
0.0000000001555553
 11
626.6869379415286
 21
1217.191098317148
 31
0.0000000001555553
  0
LINE
  5
1601
330
1F
100
AcDbEntity
  8
SANINDUSA
100
AcDbLine
 10
626.6776379415285
 20
1217.191177629562
 30
0.0000000001555553
 11
626.6776379415285
 21
1217.190533588702
 31
0.0000000001555553
  0
LINE
  5
1602
330
1F
100
AcDbEntity
  8
SANINDUSA
100
AcDbLine
 10
626.6764379415285
 20
1217.191177629562
 30
0.0000000001555553
 11
626.6764379415285
 21
1217.19035393748
 31
0.0000000001555553
  0
LINE
  5
1603
330
1F
100
AcDbEntity
  8
SANINDUSA
100
AcDbLine
 10
626.6844379415285
 20
1217.191147154554
 30
0.0000000001555553
 11
626.6816193528581
 21
1217.190725185472
 31
0.0000000001555553
  0
LINE
  5
1604
330
1F
100
AcDbEntity
  8
SANINDUSA
100
AcDbLine
 10
626.6841412479843
 20
1217.191102736756
 30
0.0000000001555553
 11
626.6838895471282
 21
1217.192784000173
 31
0.0000000001555553
  0
LINE
  5
1605
330
1F
100
AcDbEntity
  8
SANINDUSA
100
AcDbLine
 10
626.6837456565919
 20
1217.191043513025
 30
0.0000000001555553
 11
626.6834939557359
 21
1217.192724776442
 31
0.0000000001555553
  0
LINE
  5
1606
330
1F
100
AcDbEntity
  8
SANINDUSA
100
AcDbLine
 10
626.6734379415286
 20
1217.199777629562
 30
0.0000000001555553
 11
626.6711805822157
 21
1217.199777629562
 31
0.0000000001555553
  0
ARC
  5
1607
330
1F
100
AcDbEntity
  8
SANINDUSA
100
AcDbCircle
 10
626.6724379415286
 20
1217.197777629562
 30
0.0000000001555553
 40
0.001
100
AcDbArc
 50
0.0
 51
90.0
  0
ARC
  5
1608
330
1F
100
AcDbEntity
  8
SANINDUSA
100
AcDbCircle
 10
626.6711681604257
 20
1217.198427608425
 30
0.0000000001555553
 40
0.00075
100
AcDbArc
 50
47.16775949878861
 51
90.19499110086512
  0
ARC
  5
1609
330
1F
100
AcDbEntity
  8
SANINDUSA
100
AcDbCircle
 10
626.6721879415285
 20
1217.199527629562
 30
0.0000000001555553
 40
0.00075
100
AcDbArc
 50
227.1677594987886
 51
270.0
  0
LINE
  5
160A
330
1F
100
AcDbEntity
  8
SANINDUSA
100
AcDbLine
 10
626.6721879415285
 20
1217.198777629562
 30
0.0000000001555553
 11
626.6724379415286
 21
1217.198777629562
 31
0.0000000001555553
  0
LINE
  5
160B
330
1F
100
AcDbEntity
  8
SANINDUSA
100
AcDbLine
 10
626.6675226872031
 20
1217.197342274223
 30
0.0000000001555553
 11
626.6680693123785
 21
1217.197888899399
 31
0.0000000001555553
  0
ARC
  5
160C
330
1F
100
AcDbEntity
  8
SANINDUSA
100
AcDbCircle
 10
626.6669570017785
 20
1217.196847299476
 30
0.0000000001555553
 40
0.0002
100
AcDbArc
 50
45.00000010593651
 51
135.0000000736949
  0
ARC
  5
160D
330
1F
100
AcDbEntity
  8
SANINDUSA
100
AcDbCircle
 10
626.6711805822157
 20
1217.194777629562
 30
0.0000000001555553
 40
0.005
100
AcDbArc
 50
90.0
 51
135.0
  0
ARC
  5
160E
330
1F
100
AcDbEntity
  8
SANINDUSA
100
AcDbCircle
 10
626.6711805822157
 20
1217.194777629562
 30
0.0000000001555553
 40
0.0044
100
AcDbArc
 50
90.19499110086512
 51
135.0
  0
ARC
  5
160F
330
1F
100
AcDbEntity
  8
SANINDUSA
100
AcDbCircle
 10
626.6681237279655
 20
1217.195256309225
 30
0.0000000001555553
 40
0.00075
100
AcDbArc
 50
314.9999999631526
 51
45.0
  0
ARC
  5
1610
330
1F
100
AcDbEntity
  8
SANINDUSA
100
AcDbCircle
 10
626.6681237279655
 20
1217.195256309225
 30
0.0000000001555553
 40
0.0005
100
AcDbArc
 50
314.9999999631526
 51
45.0
  0
ARC
  5
1611
330
1F
100
AcDbEntity
  8
SANINDUSA
100
AcDbCircle
 10
626.6677348192374
 20
1217.197130142189
 30
0.0000000001555553
 40
0.0003
100
AcDbArc
 50
135.0
 51
225.0000001105424
  0
LINE
  5
1612
330
1F
100
AcDbEntity
  8
SANINDUSA
100
AcDbLine
 10
626.6668862910984
 20
1217.197554406257
 30
0.0000000001555553
 11
626.6686540580511
 21
1217.195786639312
 31
0.0000000001555553
  0
LINE
  5
1613
330
1F
100
AcDbEntity
  8
SANINDUSA
100
AcDbLine
 10
626.6670984231345
 20
1217.196988720832
 30
0.0000000001555553
 11
626.6684772813561
 21
1217.195609862616
 31
0.0000000001555553
  0
ARC
  5
1614
330
1F
100
AcDbEntity
  8
SANINDUSA
100
AcDbCircle
 10
626.6623608076957
 20
1217.191756130648
 30
0.0000000001555553
 40
0.0003
100
AcDbArc
 50
45.00000003684748
 51
135.0
  0
ARC
  5
1615
330
1F
100
AcDbEntity
  8
SANINDUSA
100
AcDbCircle
 10
626.6626436504079
 20
1217.192533948094
 30
0.0000000001555553
 40
0.0002
100
AcDbArc
 50
135.000000069089
 51
225.0000002993858
  0
LINE
  5
1616
330
1F
100
AcDbEntity
  8
SANINDUSA
100
AcDbLine
 10
626.6619479920349
 20
1217.191767579056
 30
0.0000000001555553
 11
626.6621486756614
 21
1217.191968262682
 31
0.0000000001555553
  0
LINE
  5
1617
330
1F
100
AcDbEntity
  8
SANINDUSA
100
AcDbLine
 10
626.6615237279662
 20
1217.192191843124
 30
0.0000000001555553
 11
626.6676450483097
 21
1217.198313163468
 31
0.0000000001555553
  0
LINE
  5
1618
330
1F
100
AcDbEntity
  8
SANINDUSA
100
AcDbLine
 10
626.6625022290516
 20
1217.19267536945
 30
0.0000000001555553
 11
626.6668155804222
 21
1217.196988720832
 31
0.0000000001555553
  0
ARC
  5
1619
330
1F
100
AcDbEntity
  8
SANINDUSA
100
AcDbCircle
 10
626.6724379415286
 20
1217.190777629562
 30
0.0000000001555553
 40
0.001
100
AcDbArc
 50
270.0
 51
0.0
  0
ARC
  5
161A
330
1F
100
AcDbEntity
  8
SANINDUSA
100
AcDbCircle
 10
626.6674181376258
 20
1217.190127629562
 30
0.0000000001555553
 40
0.00075
100
AcDbArc
 50
270.0
 51
312.8334280650302
  0
ARC
  5
161B
330
1F
100
AcDbEntity
  8
SANINDUSA
100
AcDbCircle
 10
626.6684379415286
 20
1217.189027629562
 30
0.0000000001555553
 40
0.00075
100
AcDbArc
 50
90.0
 51
132.8334280650302
  0
LINE
  5
161C
330
1F
100
AcDbEntity
  8
SANINDUSA
100
AcDbLine
 10
626.6724379415286
 20
1217.189777629562
 30
0.0000000001555553
 11
626.6684379415286
 21
1217.189777629562
 31
0.0000000001555553
  0
ARC
  5
161D
330
1F
100
AcDbEntity
  8
SANINDUSA
100
AcDbCircle
 10
626.6642346406638
 20
1217.191367221922
 30
0.0000000001555553
 40
0.00075
100
AcDbArc
 50
225.0
 51
315.0
  0
ARC
  5
161E
330
1F
100
AcDbEntity
  8
SANINDUSA
100
AcDbCircle
 10
626.6642346406638
 20
1217.191367221922
 30
0.0000000001555553
 40
0.0005
100
AcDbArc
 50
225.0
 51
315.0
  0
LINE
  5
161F
330
1F
100
AcDbEntity
  8
SANINDUSA
100
AcDbLine
 10
626.6734379415286
 20
1217.188777629562
 30
0.0000000001555553
 11
626.6629379415286
 21
1217.188777629562
 31
0.0000000001555553
  0
LINE
  5
1620
330
1F
100
AcDbEntity
  8
SANINDUSA
100
AcDbLine
 10
626.6674181376258
 20
1217.189377629562
 30
0.0000000001555553
 11
626.6629379415286
 21
1217.189377629562
 31
0.0000000001555553
  0
ARC
  5
1621
330
1F
100
AcDbEntity
  8
SANINDUSA
100
AcDbCircle
 10
626.6629379415286
 20
1217.190777629562
 30
0.0000000001555553
 40
0.002
100
AcDbArc
 50
135.0
 51
270.0
  0
LINE
  5
1622
330
1F
100
AcDbEntity
  8
SANINDUSA
100
AcDbLine
 10
626.6647649707497
 20
1217.190836891836
 30
0.0000000001555553
 11
626.6686540580511
 21
1217.194725979139
 31
0.0000000001555553
  0
ARC
  5
1623
330
1F
100
AcDbEntity
  8
SANINDUSA
100
AcDbCircle
 10
626.6629379415286
 20
1217.190777629562
 30
0.0000000001555553
 40
0.0014
100
AcDbArc
 50
135.0
 51
270.0
  0
LINE
  5
1624
330
1F
100
AcDbEntity
  8
SANINDUSA
100
AcDbLine
 10
626.6619365436266
 20
1217.192604658785
 30
0.0000000001555553
 11
626.6637043105776
 21
1217.190836891836
 31
0.0000000001555553
  0
LINE
  5
1625
330
1F
100
AcDbEntity
  8
SANINDUSA
100
AcDbLine
 10
626.6734379415286
 20
1217.197777629562
 30
0.0000000001555553
 11
626.6734379415286
 21
1217.190777629562
 31
0.0000000001555553
  0
LINE
  5
1627
330
1F
100
AcDbEntity
  8
SANINDUSA
100
AcDbLine
 10
626.6645881940544
 20
1217.191013668531
 30
0.0000000001555553
 11
626.6684772813558
 21
1217.194902755834
 31
0.0000000001555553
  0
LINE
  5
1628
330
1F
100
AcDbEntity
  8
SANINDUSA
100
AcDbLine
 10
626.6625022290525
 20
1217.192392526737
 30
0.0000000001555553
 11
626.6638810872732
 21
1217.191013668531
 31
0.0000000001555553
  0
LINE
  5
1629
330
1F
100
AcDbEntity
  8
SANINDUSA
100
AcDbLine
 10
626.6734379415286
 20
1217.199777629562
 30
0.0000000001555553
 11
626.6759803423577
 21
1217.199777629562
 31
0.0000000001555553
  0
LINE
  5
162A
330
1F
100
AcDbEntity
  8
SANINDUSA
100
AcDbLine
 10
626.6734379415286
 20
1217.188777629562
 30
0.0000000001555553
 11
626.6759803423577
 21
1217.188777629562
 31
0.0000000001555553
  0
LINE
  5
162B
330
1F
100
AcDbEntity
  8
SANINDUSA
100
AcDbLine
 10
626.6631421568876
 20
1217.191752598909
 30
0.0000000001555553
 11
626.6631421568876
 21
1217.193315297288
 31
0.0000000001555553
  0
LINE
  5
162C
330
1F
100
AcDbEntity
  8
SANINDUSA
100
AcDbLine
 10
626.6639359068878
 20
1217.190966275378
 30
0.0000000001555553
 11
626.6639359068878
 21
1217.19410904729
 31
0.0000000001555553
  0
LINE
  5
162D
330
1F
100
AcDbEntity
  8
SANINDUSA
100
AcDbLine
 10
626.6647296568877
 20
1217.191155131365
 30
0.0000000001555553
 11
626.6647296568877
 21
1217.194902797292
 31
0.0000000001555553
  0
LINE
  5
162E
330
1F
100
AcDbEntity
  8
SANINDUSA
100
AcDbLine
 10
626.6655234068877
 20
1217.191948881365
 30
0.0000000001555553
 11
626.6655234068877
 21
1217.195696547294
 31
0.0000000001555553
  0
LINE
  5
162F
330
1F
100
AcDbEntity
  8
SANINDUSA
100
AcDbLine
 10
626.6663171568877
 20
1217.192742631365
 30
0.0000000001555553
 11
626.6663171568877
 21
1217.196490297296
 31
0.0000000001555553
  0
LINE
  5
1630
330
1F
100
AcDbEntity
  8
SANINDUSA
100
AcDbLine
 10
626.6671109068877
 20
1217.193536381366
 30
0.0000000001555553
 11
626.6671109068877
 21
1217.196976237079
 31
0.0000000001555553
  0
LINE
  5
1631
330
1F
100
AcDbEntity
  8
SANINDUSA
100
AcDbLine
 10
626.6679046568876
 20
1217.194330131366
 30
0.0000000001555553
 11
626.6679046568876
 21
1217.196182487082
 31
0.0000000001555553
  0
ARC
  5
1632
330
1F
100
AcDbEntity
  8
SANINDUSA
100
AcDbCircle
 10
626.6564781397431
 20
1217.190277625752
 30
0.0000000001555553
 40
0.0019999999999982
100
AcDbArc
 50
270.0
 51
315.0000000552712
  0
LINE
  5
1633
330
1F
100
AcDbEntity
  8
SANINDUSA
100
AcDbLine
 10
626.6578923533069
 20
1217.188863412191
 30
0.0000000001555553
 11
626.6662398444913
 21
1217.197210903376
 31
0.0000000001555553
  0
ARC
  5
1634
330
1F
100
AcDbEntity
  8
SANINDUSA
100
AcDbCircle
 10
626.6648256309276
 20
1217.198625116937
 30
0.0000000001555553
 40
0.0019999999999997
100
AcDbArc
 50
315.0000000552712
 51
45.00000038229262
  0
LINE
  5
1635
330
1F
100
AcDbEntity
  8
SANINDUSA
100
AcDbLine
 10
626.6662398444805
 20
1217.200039330509
 30
0.0000000001555553
 11
626.6638873356554
 21
1217.202391839319
 31
0.0000000001555553
  0
ARC
  5
1636
330
1F
100
AcDbEntity
  8
SANINDUSA
100
AcDbCircle
 10
626.6624731220973
 20
1217.200977625752
 30
0.0000000001555553
 40
0.0019999999999981
100
AcDbArc
 50
45.00000017963147
 51
90.0
  0
LINE
  5
1637
330
1F
100
AcDbEntity
  8
SANINDUSA
100
AcDbLine
 10
626.6624731220973
 20
1217.202977625752
 30
0.0000000001555553
 11
626.6570520901195
 21
1217.202977625752
 31
0.0000000001555553
  0
ARC
  5
1638
330
1F
100
AcDbEntity
  8
SANINDUSA
100
AcDbCircle
 10
626.6570520901195
 20
1217.201977625752
 30
0.0000000001555553
 40
0.0009999999999991
100
AcDbArc
 50
90.0
 51
180.0
  0
ARC
  5
1639
330
1F
100
AcDbEntity
  8
SANINDUSA
100
AcDbCircle
 10
626.6543520901195
 20
1217.201977625752
 30
0.0000000001555553
 40
0.0016999999999996
100
AcDbArc
 50
270.0
 51
0.0
  0
LINE
  5
163A
330
1F
100
AcDbEntity
  8
SANINDUSA
100
AcDbLine
 10
626.6543520901195
 20
1217.200277625752
 30
0.0000000001555553
 11
626.6236287859877
 21
1217.200277625752
 31
0.0000000001555553
  0
ARC
  5
163B
330
1F
100
AcDbEntity
  8
SANINDUSA
100
AcDbCircle
 10
626.6236287859877
 20
1217.198977625752
 30
0.0000000001555553
 40
0.0012999999999988
100
AcDbArc
 50
90.0
 51
180.0
  0
LINE
  5
163C
330
1F
100
AcDbEntity
  8
SANINDUSA
100
AcDbLine
 10
626.6223287859877
 20
1217.198977625752
 30
0.0000000001555553
 11
626.6223287859877
 21
1217.189577625753
 31
0.0000000001555553
  0
ARC
  5
163D
330
1F
100
AcDbEntity
  8
SANINDUSA
100
AcDbCircle
 10
626.6236287859877
 20
1217.189577625753
 30
0.0000000001555553
 40
0.0013
100
AcDbArc
 50
180.0
 51
270.0
  0
LINE
  5
163E
330
1F
100
AcDbEntity
  8
SANINDUSA
100
AcDbLine
 10
626.6236287859877
 20
1217.188277625752
 30
0.0000000001555553
 11
626.6564781397431
 21
1217.188277625752
 31
0.0000000001555553
  0
ARC
  5
163F
330
1F
100
AcDbEntity
  8
SANINDUSA
100
AcDbCircle
 10
626.657337052431
 20
1217.201677625753
 30
0.0000000001555553
 40
0.0002999999999982
100
AcDbArc
 50
90.0
 51
174.2608295243478
  0
ARC
  5
1640
330
1F
100
AcDbEntity
  8
SANINDUSA
100
AcDbCircle
 10
626.657337052431
 20
1217.201677625753
 30
0.0000000001555553
 40
0.0002999999999975
100
AcDbArc
 50
90.0
 51
174.2608295243478
  0
ARC
  5
1641
330
1F
100
AcDbEntity
  8
SANINDUSA
100
AcDbCircle
 10
626.6543520901198
 20
1217.201977625752
 30
0.0000000001555553
 40
0.0027000000000011
100
AcDbArc
 50
270.0
 51
354.2608295243478
  0
LINE
  5
1642
330
1F
100
AcDbEntity
  8
SANINDUSA
100
AcDbLine
 10
626.6543520901198
 20
1217.199277625752
 30
0.0000000001555553
 11
626.6236287859877
 21
1217.199277625752
 31
0.0000000001555553
  0
ARC
  5
1643
330
1F
100
AcDbEntity
  8
SANINDUSA
100
AcDbCircle
 10
626.6236287859877
 20
1217.198977625752
 30
0.0000000001555553
 40
0.0002999999999997
100
AcDbArc
 50
90.0
 51
180.0
  0
LINE
  5
1644
330
1F
100
AcDbEntity
  8
SANINDUSA
100
AcDbLine
 10
626.6233287859876
 20
1217.198977625752
 30
0.0000000001555553
 11
626.6233287859876
 21
1217.189577625753
 31
0.0000000001555553
  0
ARC
  5
1645
330
1F
100
AcDbEntity
  8
SANINDUSA
100
AcDbCircle
 10
626.6236287859877
 20
1217.189577625753
 30
0.0000000001555553
 40
0.000300000000002
100
AcDbArc
 50
180.0
 51
270.0
  0
LINE
  5
1646
330
1F
100
AcDbEntity
  8
SANINDUSA
100
AcDbLine
 10
626.6236287859877
 20
1217.189277625752
 30
0.0000000001555553
 11
626.6566852465246
 21
1217.189277625752
 31
0.0000000001555553
  0
ARC
  5
1647
330
1F
100
AcDbEntity
  8
SANINDUSA
100
AcDbCircle
 10
626.6566852465246
 20
1217.189777625752
 30
0.0000000001555553
 40
0.0005000000000018
100
AcDbArc
 50
270.0
 51
315.000000069089
  0
LINE
  5
1648
330
1F
100
AcDbEntity
  8
SANINDUSA
100
AcDbLine
 10
626.6570387999157
 20
1217.189424072362
 30
0.0000000001555553
 11
626.6598051727698
 21
1217.192190445223
 31
0.0000000001555553
  0
ARC
  5
1649
330
1F
100
AcDbEntity
  8
SANINDUSA
100
AcDbCircle
 10
626.6594516193801
 20
1217.192543998611
 30
0.0000000001555553
 40
0.0004999999977732
100
AcDbArc
 50
315.0000001105424
 51
44.99999953940649
  0
LINE
  5
164A
330
1F
100
AcDbEntity
  8
SANINDUSA
100
AcDbLine
 10
626.659805172772
 20
1217.192897551997
 30
0.0000000001555553
 11
626.6583909592171
 21
1217.194311765579
 31
0.0000000001555553
  0
ARC
  5
164B
330
1F
100
AcDbEntity
  8
SANINDUSA
100
AcDbCircle
 10
626.6594516193878
 20
1217.195372425752
 30
0.0000000001555553
 40
0.0014999999999982
100
AcDbArc
 50
135.0
 51
225.0000000552712
  0
LINE
  5
164C
330
1F
100
AcDbEntity
  8
SANINDUSA
100
AcDbLine
 10
626.658390959216
 20
1217.196433085924
 30
0.0000000001555553
 11
626.6593775924313
 21
1217.197419719126
 31
0.0000000001555553
  0
ARC
  5
164D
330
1F
100
AcDbEntity
  8
SANINDUSA
100
AcDbCircle
 10
626.659731145822
 20
1217.197066165736
 30
0.0000000001555553
 40
0.0004999999999999
100
AcDbArc
 50
315.0
 51
135.0
  0
LINE
  5
164E
330
1F
100
AcDbEntity
  8
SANINDUSA
100
AcDbLine
 10
626.6600846992125
 20
1217.196712612345
 30
0.0000000001555553
 11
626.6590980659972
 21
1217.19572597913
 31
0.0000000001555553
  0
ARC
  5
164F
330
1F
100
AcDbEntity
  8
SANINDUSA
100
AcDbCircle
 10
626.6594516193878
 20
1217.195372425739
 30
0.0000000001555553
 40
0.0004999999999999
100
AcDbArc
 50
135.0
 51
225.0000000368475
  0
LINE
  5
1650
330
1F
100
AcDbEntity
  8
SANINDUSA
100
AcDbLine
 10
626.6590980659976
 20
1217.195018872348
 30
0.0000000001555553
 11
626.659734462101
 21
1217.194382476246
 31
0.0000000001555553
  0
ARC
  5
1651
330
1F
100
AcDbEntity
  8
SANINDUSA
100
AcDbCircle
 10
626.6600880154915
 20
1217.194736029637
 30
0.0000000001555553
 40
0.000500000000024
100
AcDbArc
 50
225.0000000322415
 51
315.0
  0
LINE
  5
1652
330
1F
100
AcDbEntity
  8
SANINDUSA
100
AcDbLine
 10
626.6604415688821
 20
1217.194382476246
 30
0.0000000001555553
 11
626.6607244115966
 21
1217.194665318961
 31
0.0000000001555553
  0
ARC
  5
1653
330
1F
100
AcDbEntity
  8
SANINDUSA
100
AcDbCircle
 10
626.6608658329528
 20
1217.194523897604
 30
0.0000000001555553
 40
0.0002
100
AcDbArc
 50
45.0
 51
135.0
  0
LINE
  5
1654
330
1F
100
AcDbEntity
  8
SANINDUSA
100
AcDbLine
 10
626.661007254309
 20
1217.194665318961
 30
0.0000000001555553
 11
626.6614315183776
 21
1217.194241054892
 31
0.0000000001555553
  0
ARC
  5
1655
330
1F
100
AcDbEntity
  8
SANINDUSA
100
AcDbCircle
 10
626.6617850717682
 20
1217.194594608283
 30
0.0000000001555553
 40
0.0004999999999999
100
AcDbArc
 50
225.0
 51
315.0
  0
LINE
  5
1656
330
1F
100
AcDbEntity
  8
SANINDUSA
100
AcDbLine
 10
626.6621386251588
 20
1217.194241054892
 30
0.0000000001555553
 11
626.6652498949961
 21
1217.197352324729
 31
0.0000000001555553
  0
ARC
  5
1657
330
1F
100
AcDbEntity
  8
SANINDUSA
100
AcDbCircle
 10
626.6648963416055
 20
1217.19770587812
 30
0.0000000001555553
 40
0.0004999999999999
100
AcDbArc
 50
315.0
 51
45.0
  0
LINE
  5
1658
330
1F
100
AcDbEntity
  8
SANINDUSA
100
AcDbLine
 10
626.6652498949961
 20
1217.198059431511
 30
0.0000000001555553
 11
626.6648256309273
 21
1217.198483695577
 31
0.0000000001555553
  0
ARC
  5
1659
330
1F
100
AcDbEntity
  8
SANINDUSA
100
AcDbCircle
 10
626.6649670522836
 20
1217.198625116934
 30
0.0000000001555553
 40
0.0002000000000008
100
AcDbArc
 50
134.9999998710338
 51
225.0
  0
LINE
  5
165A
330
1F
100
AcDbEntity
  8
SANINDUSA
100
AcDbLine
 10
626.6648256309276
 20
1217.19876653829
 30
0.0000000001555553
 11
626.6651084736398
 21
1217.199049381003
 31
0.0000000001555553
  0
ARC
  5
165B
330
1F
100
AcDbEntity
  8
SANINDUSA
100
AcDbCircle
 10
626.6647549202493
 20
1217.199402934393
 30
0.0000000001555553
 40
0.0005000000000015
100
AcDbArc
 50
315.0
 51
44.99999979273292
  0
LINE
  5
165C
330
1F
100
AcDbEntity
  8
SANINDUSA
100
AcDbLine
 10
626.6651084736411
 20
1217.199756487783
 30
0.0000000001555553
 11
626.6644720775415
 21
1217.200392883888
 31
0.0000000001555553
  0
ARC
  5
165D
330
1F
100
AcDbEntity
  8
SANINDUSA
100
AcDbCircle
 10
626.6641185241509
 20
1217.200039330498
 30
0.0000000001555553
 40
0.0004999999999991
100
AcDbArc
 50
45.0
 51
135.0
  0
LINE
  5
165E
330
1F
100
AcDbEntity
  8
SANINDUSA
100
AcDbLine
 10
626.6637649707603
 20
1217.200392883888
 30
0.0000000001555553
 11
626.6627787611004
 21
1217.199406674228
 31
0.0000000001555553
  0
ARC
  5
165F
330
1F
100
AcDbEntity
  8
SANINDUSA
100
AcDbCircle
 10
626.6624252077098
 20
1217.199760227619
 30
0.0000000001555553
 40
0.0004999999999999
100
AcDbArc
 50
135.0
 51
315.0
  0
LINE
  5
1660
330
1F
100
AcDbEntity
  8
SANINDUSA
100
AcDbLine
 10
626.6620716543192
 20
1217.20011378101
 30
0.0000000001555553
 11
626.6630819456714
 21
1217.201124072362
 31
0.0000000001555553
  0
ARC
  5
1661
330
1F
100
AcDbEntity
  8
SANINDUSA
100
AcDbCircle
 10
626.6627283922807
 20
1217.201477625752
 30
0.0000000001555553
 40
0.0004999999999991
100
AcDbArc
 50
315.0
 51
90.0
  0
LINE
  5
1662
330
1F
100
AcDbEntity
  8
SANINDUSA
100
AcDbLine
 10
626.6627283922807
 20
1217.201977625752
 30
0.0000000001555553
 11
626.657337052431
 21
1217.201977625752
 31
0.0000000001555553
  0
LINE
  5
1663
330
1F
100
AcDbEntity
  8
SANINDUSA
100
AcDbLine
 10
626.6641404114878
 20
1217.200277625752
 30
0.0000000001555553
 11
626.6641630716041
 21
1217.200277625752
 31
0.0000000001555553
  0
LINE
  5
1664
330
1F
100
AcDbEntity
  8
SANINDUSA
100
AcDbLine
 10
626.6633466614877
 20
1217.199483875752
 30
0.0000000001555553
 11
626.6647608750502
 21
1217.199483875752
 31
0.0000000001555553
  0
LINE
  5
1665
330
1F
100
AcDbEntity
  8
SANINDUSA
100
AcDbLine
 10
626.6625529114877
 20
1217.198690125752
 30
0.0000000001555553
 11
626.6643363580417
 21
1217.198690125752
 31
0.0000000001555553
  0
LINE
  5
1666
330
1F
100
AcDbEntity
  8
SANINDUSA
100
AcDbLine
 10
626.6617591614878
 20
1217.197896375753
 30
0.0000000001555553
 11
626.6651301080417
 21
1217.197896375753
 31
0.0000000001555553
  0
LINE
  5
1667
330
1F
100
AcDbEntity
  8
SANINDUSA
100
AcDbLine
 10
626.6609654114878
 20
1217.197102625753
 30
0.0000000001555553
 11
626.6645009453936
 21
1217.197102625753
 31
0.0000000001555553
  0
LINE
  5
1668
330
1F
100
AcDbEntity
  8
SANINDUSA
100
AcDbLine
 10
626.6601716614878
 20
1217.196308875752
 30
0.0000000001555553
 11
626.6637071953937
 21
1217.196308875752
 31
0.0000000001555553
  0
LINE
  5
1669
330
1F
100
AcDbEntity
  8
SANINDUSA
100
AcDbLine
 10
626.6593779114877
 20
1217.195515125752
 30
0.0000000001555553
 11
626.6629134453937
 21
1217.195515125752
 31
0.0000000001555553
  0
LINE
  5
166A
330
1F
100
AcDbEntity
  8
SANINDUSA
100
AcDbLine
 10
626.6598198266674
 20
1217.194721375753
 30
0.0000000001555553
 11
626.6599983750501
 21
1217.194721375753
 31
0.0000000001555553
  0
LINE
  5
166B
330
1F
100
AcDbEntity
  8
SANINDUSA
100
AcDbLine
 10
626.6612340402298
 20
1217.194721375753
 30
0.0000000001555553
 11
626.6621196953937
 21
1217.194721375753
 31
0.0000000001555553
  0
LINE
  5
166C
330
1F
100
AcDbEntity
  8
SANINDUSA
100
AcDbLine
 10
626.664858848327
 20
1217.199581849029
 30
0.0000000001555553
 11
626.6641517415458
 21
1217.200288955811
 31
0.0000000001555553
  0
LINE
  5
166D
330
1F
100
AcDbEntity
  8
SANINDUSA
100
AcDbLine
 10
626.6641517415458
 20
1217.200288955811
 30
0.0000000001555553
 11
626.6592019940776
 21
1217.195339208342
 31
0.0000000001555553
  0
LINE
  5
166E
330
1F
100
AcDbEntity
  8
SANINDUSA
100
AcDbLine
 10
626.6641517415458
 20
1217.198874742248
 30
0.0000000001555553
 11
626.664858848327
 21
1217.199581849029
 31
0.0000000001555553
  0
LINE
  5
166F
330
1F
100
AcDbEntity
  8
SANINDUSA
100
AcDbLine
 10
626.6592019940776
 20
1217.195339208342
 30
0.0000000001555553
 11
626.6599091008588
 21
1217.194632101561
 31
0.0000000001555553
  0
LINE
  5
1670
330
1F
100
AcDbEntity
  8
SANINDUSA
100
AcDbLine
 10
626.6652124017176
 20
1217.197814082076
 30
0.0000000001555553
 11
626.6641517415458
 21
1217.198874742248
 31
0.0000000001555553
  0
LINE
  5
1671
330
1F
100
AcDbEntity
  8
SANINDUSA
100
AcDbLine
 10
626.6599091008588
 20
1217.194632101561
 30
0.0000000001555553
 11
626.66061620764
 21
1217.195339208342
 31
0.0000000001555553
  0
LINE
  5
1672
330
1F
100
AcDbEntity
  8
SANINDUSA
100
AcDbLine
 10
626.6616768678118
 20
1217.19427854817
 30
0.0000000001555553
 11
626.6652124017176
 21
1217.197814082076
 31
0.0000000001555553
  0
LINE
  5
1673
330
1F
100
AcDbEntity
  8
SANINDUSA
100
AcDbLine
 10
626.66061620764
 20
1217.195339208342
 30
0.0000000001555553
 11
626.6616768678118
 21
1217.19427854817
 31
0.0000000001555553
  0
ARC
  5
1674
330
1F
100
AcDbEntity
  8
SANINDUSA
100
AcDbCircle
 10
626.6143287859878
 20
1217.201977625752
 30
0.0
 40
0.0009999999999999
100
AcDbArc
 50
90.0
 51
180.0
  0
LINE
  5
1675
330
1F
100
AcDbEntity
  8
SANINDUSA
100
AcDbLine
 10
626.6133287859877
 20
1217.200991839315
 30
0.0
 11
626.6133287859877
 21
1217.201977625752
 31
0.0
  0
LINE
  5
1676
330
1F
100
AcDbEntity
  8
SANINDUSA
100
AcDbLine
 10
626.6143287859878
 20
1217.202977625752
 30
0.0
 11
626.6493520901198
 21
1217.202977625752
 31
0.0
  0
ARC
  5
1677
330
1F
100
AcDbEntity
  8
SANINDUSA
100
AcDbCircle
 10
626.6143287859878
 20
1217.200991839315
 30
0.0
 40
0.0010000000000003
100
AcDbArc
 50
180.0
 51
225.0
  0
ARC
  5
1678
330
1F
100
AcDbEntity
  8
SANINDUSA
100
AcDbCircle
 10
626.6493520901198
 20
1217.201977625752
 30
0.0
 40
0.001
100
AcDbArc
 50
270.0
 51
90.0
  0
LINE
  5
1679
330
1F
100
AcDbEntity
  8
SANINDUSA
100
AcDbLine
 10
626.6145358927689
 20
1217.199370518971
 30
0.0
 11
626.6136216792066
 21
1217.200284732534
 31
0.0
  0
LINE
  5
167A
330
1F
100
AcDbEntity
  8
SANINDUSA
100
AcDbLine
 10
626.6493520901198
 20
1217.200977625752
 30
0.0
 11
626.6178287859877
 21
1217.200977625752
 31
0.0
  0
ARC
  5
167B
330
1F
100
AcDbEntity
  8
SANINDUSA
100
AcDbCircle
 10
626.6138287859877
 20
1217.19866341219
 30
0.0
 40
0.0010000000000003
100
AcDbArc
 50
0.0
 51
45.0
  0
ARC
  5
167C
330
1F
100
AcDbEntity
  8
SANINDUSA
100
AcDbCircle
 10
626.6178287859877
 20
1217.199977625752
 30
0.0
 40
0.001
100
AcDbArc
 50
90.0
 51
180.0
  0
LINE
  5
167D
330
1F
100
AcDbEntity
  8
SANINDUSA
100
AcDbLine
 10
626.6148287859878
 20
1217.195288285924
 30
0.0
 11
626.6148287859878
 21
1217.19866341219
 31
0.0
  0
LINE
  5
167E
330
1F
100
AcDbEntity
  8
SANINDUSA
100
AcDbLine
 10
626.6168287859877
 20
1217.199977625752
 30
0.0
 11
626.6168287859877
 21
1217.182118439475
 31
0.0
  0
ARC
  5
167F
330
1F
100
AcDbEntity
  8
SANINDUSA
100
AcDbCircle
 10
626.6150787859877
 20
1217.195288285924
 30
0.0
 40
0.0002500000000003
100
AcDbArc
 50
180.0
 51
225.0
  0
ARC
  5
1680
330
1F
100
AcDbEntity
  8
SANINDUSA
100
AcDbCircle
 10
626.6178287859877
 20
1217.182118439475
 30
0.0
 40
0.001
100
AcDbArc
 50
180.0
 51
272.1494579346532
  0
LINE
  5
1681
330
1F
100
AcDbEntity
  8
SANINDUSA
100
AcDbLine
 10
626.6153823393783
 20
1217.194631179143
 30
0.0
 11
626.6149020092925
 21
1217.195111509229
 31
0.0
  0
ARC
  5
1682
330
1F
100
AcDbEntity
  8
SANINDUSA
100
AcDbCircle
 10
626.6142386775499
 20
1217.277771185397
 30
0.0
 40
0.0967200954923435
100
AcDbArc
 50
272.1494579346532
 51
285.5601696420791
  0
ARC
  5
1683
330
1F
100
AcDbEntity
  8
SANINDUSA
100
AcDbCircle
 10
626.6150287859877
 20
1217.194277625752
 30
0.0
 40
0.0005
100
AcDbArc
 50
315.0
 51
45.0
  0
ARC
  5
1684
330
1F
100
AcDbEntity
  8
SANINDUSA
100
AcDbCircle
 10
626.6400497367473
 20
1217.185077625752
 30
0.0
 40
0.0005
100
AcDbArc
 50
285.5601696420791
 51
90.0
  0
LINE
  5
1685
330
1F
100
AcDbEntity
  8
SANINDUSA
100
AcDbLine
 10
626.6149020092925
 20
1217.193443742276
 30
0.0
 11
626.6153823393783
 21
1217.193924072362
 31
0.0
  0
LINE
  5
1686
330
1F
100
AcDbEntity
  8
SANINDUSA
100
AcDbLine
 10
626.6400497367473
 20
1217.185577625752
 30
0.0
 11
626.6273520901197
 21
1217.185577625752
 31
0.0
  0
ARC
  5
1687
330
1F
100
AcDbEntity
  8
SANINDUSA
100
AcDbCircle
 10
626.6150787859877
 20
1217.193266965581
 30
0.0
 40
0.00025
100
AcDbArc
 50
135.0
 51
180.0
  0
ARC
  5
1688
330
1F
100
AcDbEntity
  8
SANINDUSA
100
AcDbCircle
 10
626.6273520901197
 20
1217.186577625752
 30
0.0
 40
0.001
100
AcDbArc
 50
90.0
 51
270.0
  0
LINE
  5
1689
330
1F
100
AcDbEntity
  8
SANINDUSA
100
AcDbLine
 10
626.6148287859878
 20
1217.183077602091
 30
0.0
 11
626.6148287859878
 21
1217.193266965581
 31
0.0
  0
LINE
  5
168A
330
1F
100
AcDbEntity
  8
SANINDUSA
100
AcDbLine
 10
626.6273520901197
 20
1217.187577625752
 30
0.0
 11
626.6493520901198
 21
1217.187577625752
 31
0.0
  0
ARC
  5
168B
330
1F
100
AcDbEntity
  8
SANINDUSA
100
AcDbCircle
 10
626.6138287859877
 20
1217.183077602091
 30
0.0
 40
0.0010000000000003
100
AcDbArc
 50
314.9106959519861
 51
0.0
  0
ARC
  5
168C
330
1F
100
AcDbEntity
  8
SANINDUSA
100
AcDbCircle
 10
626.6493520901198
 20
1217.186577625752
 30
0.0
 40
0.001
100
AcDbArc
 50
291.0588352469903
 51
90.0
  0
LINE
  5
168D
330
1F
100
AcDbEntity
  8
SANINDUSA
100
AcDbLine
 10
626.6136283506678
 20
1217.181465776173
 30
0.0
 11
626.6145347897787
 21
1217.182369394037
 31
0.0
  0
ARC
  5
168E
330
1F
100
AcDbEntity
  8
SANINDUSA
100
AcDbCircle
 10
626.6142386775499
 20
1217.277771185397
 30
0.0
 40
0.0987200954923432
100
AcDbArc
 50
270.0522365954226
 51
291.0588352469903
  0
ARC
  5
168F
330
1F
100
AcDbEntity
  8
SANINDUSA
100
AcDbCircle
 10
626.6143343544587
 20
1217.18075756812
 30
0.0
 40
0.0010000000000003
100
AcDbArc
 50
134.9106959519861
 51
179.4659008958417
  0
ARC
  5
1690
330
1F
100
AcDbEntity
  8
SANINDUSA
100
AcDbCircle
 10
626.6143277690064
 20
1217.180051130517
 30
0.0
 40
0.001
100
AcDbArc
 50
179.4659008958417
 51
270.0522365954226
  0
LINE
  5
1691
330
1F
100
AcDbEntity
  8
SANINDUSA
100
AcDbLine
 10
626.6133278124539
 20
1217.18006045217
 30
0.0
 11
626.6133343979063
 21
1217.180766889773
 31
0.0
  0
LINE
  5
1692
330
1F
100
AcDbEntity
  8
SANINDUSA
100
AcDbLine
 10
626.6109787859877
 20
1217.179051130517
 30
0.0
 11
626.6109787859877
 21
1217.202977625752
 31
0.0
  0
LINE
  5
1693
330
1F
100
AcDbEntity
  8
SANINDUSA
100
AcDbLine
 10
626.6109787859877
 20
1217.179051130517
 30
0.0
 11
626.6119776669001
 21
1217.179051130517
 31
0.0
  0
LINE
  5
1694
330
1F
100
AcDbEntity
  8
SANINDUSA
100
AcDbLine
 10
626.6119787859877
 20
1217.202977625752
 30
0.0
 11
626.6109787859877
 21
1217.202977625752
 31
0.0
  0
ARC
  5
1695
330
1F
100
AcDbEntity
  8
SANINDUSA
100
AcDbCircle
 10
626.6119776669001
 20
1217.180051130517
 30
0.0
 40
0.0009999999999999
100
AcDbArc
 50
270.0
 51
359.4659008958418
  0
ARC
  5
1696
330
1F
100
AcDbEntity
  8
SANINDUSA
100
AcDbCircle
 10
626.6119787859877
 20
1217.201977625752
 30
0.0
 40
0.0009999999999999
100
AcDbArc
 50
0.0
 51
90.0
  0
LINE
  5
1697
330
1F
100
AcDbEntity
  8
SANINDUSA
100
AcDbLine
 10
626.6129776234527
 20
1217.180041808864
 30
0.0
 11
626.6129844131129
 21
1217.180770152351
 31
0.0
  0
LINE
  5
1698
330
1F
100
AcDbEntity
  8
SANINDUSA
100
AcDbLine
 10
626.6129787859878
 20
1217.200991839315
 30
0.0
 11
626.6129787859878
 21
1217.201977625752
 31
0.0
  0
ARC
  5
1699
330
1F
100
AcDbEntity
  8
SANINDUSA
100
AcDbCircle
 10
626.6143343544587
 20
1217.18075756812
 30
0.0
 40
0.00135
100
AcDbArc
 50
134.9106959519861
 51
179.4659008958417
  0
ARC
  5
169A
330
1F
100
AcDbEntity
  8
SANINDUSA
100
AcDbCircle
 10
626.6143287859878
 20
1217.200991839315
 30
0.0
 40
0.0013499999999998
100
AcDbArc
 50
180.0
 51
225.0
  0
LINE
  5
169B
330
1F
100
AcDbEntity
  8
SANINDUSA
100
AcDbLine
 10
626.6133812493409
 20
1217.181713648992
 30
0.0
 11
626.6142876884519
 21
1217.182617266856
 31
0.0
  0
LINE
  5
169C
330
1F
100
AcDbEntity
  8
SANINDUSA
100
AcDbLine
 10
626.6142884053955
 20
1217.199123031598
 30
0.0
 11
626.6133741918331
 21
1217.20003724516
 31
0.0
  0
ARC
  5
169D
330
1F
100
AcDbEntity
  8
SANINDUSA
100
AcDbCircle
 10
626.6138287859877
 20
1217.183077602091
 30
0.0
 40
0.0006500000000003
100
AcDbArc
 50
314.9106959519861
 51
0.0
  0
ARC
  5
169E
330
1F
100
AcDbEntity
  8
SANINDUSA
100
AcDbCircle
 10
626.6138287859877
 20
1217.19866341219
 30
0.0
 40
0.0006500000000003
100
AcDbArc
 50
0.0
 51
45.0
  0
LINE
  5
169F
330
1F
100
AcDbEntity
  8
SANINDUSA
100
AcDbLine
 10
626.6144787859878
 20
1217.183077602091
 30
0.0
 11
626.6144787859878
 21
1217.19866341219
 31
0.0
  0
ENDSEC
  0
SECTION
  2
OBJECTS
  0
DICTIONARY
  5
C
330
0
100
AcDbDictionary
281
     1
  3
ACAD_COLOR
350
19E5
  3
ACAD_GROUP
350
D
  3
ACAD_LAYOUT
350
1A
  3
ACAD_MATERIAL
350
19B8
  3
ACAD_MLEADERSTYLE
350
19FA
  3
ACAD_MLINESTYLE
350
17
  3
ACAD_PLOTSETTINGS
350
19
  3
ACAD_PLOTSTYLENAME
350
E
  3
ACAD_SCALELIST
350
19E8
  3
ACAD_TABLESTYLE
350
19E6
  3
ACAD_VISUALSTYLE
350
19D1
  3
ACDB_RECOMPOSE_DATA
350
1A9F
  3
AcDbVariableDictionary
350
3D
  3
ASE_INDEX_DICTIONARY
350
1594
  3
DWGPROPS
350
1AA0
  0
DICTIONARY
  5
1A3A
330
10
100
AcDbDictionary
280
     1
281
     1
  3
ADSK_XREC_LAYER_RECONCILED
360
1A3B
  0
DICTIONARY
  5
1A3C
330
2F
100
AcDbDictionary
280
     1
281
     1
  3
ADSK_XREC_LAYER_RECONCILED
360
1A3D
  0
DICTIONARY
  5
1A3E
330
30
100
AcDbDictionary
280
     1
281
     1
  3
ADSK_XREC_LAYER_RECONCILED
360
1A3F
  0
DICTIONARY
  5
1A40
330
31
100
AcDbDictionary
280
     1
281
     1
  3
ADSK_XREC_LAYER_RECONCILED
360
1A41
  0
DICTIONARY
  5
1A42
330
32
100
AcDbDictionary
280
     1
281
     1
  3
ADSK_XREC_LAYER_RECONCILED
360
1A43
  0
DICTIONARY
  5
1A44
330
33
100
AcDbDictionary
280
     1
281
     1
  3
ADSK_XREC_LAYER_RECONCILED
360
1A45
  0
DICTIONARY
  5
1A46
330
34
100
AcDbDictionary
280
     1
281
     1
  3
ADSK_XREC_LAYER_RECONCILED
360
1A47
  0
DICTIONARY
  5
1A48
330
35
100
AcDbDictionary
280
     1
281
     1
  3
ADSK_XREC_LAYER_RECONCILED
360
1A49
  0
DICTIONARY
  5
1A4A
330
36
100
AcDbDictionary
280
     1
281
     1
  3
ADSK_XREC_LAYER_RECONCILED
360
1A4B
  0
DICTIONARY
  5
1A4C
330
37
100
AcDbDictionary
280
     1
281
     1
  3
ADSK_XREC_LAYER_RECONCILED
360
1A4D
  0
DICTIONARY
  5
1A4E
330
5D6
100
AcDbDictionary
280
     1
281
     1
  3
ADSK_XREC_LAYER_RECONCILED
360
1A4F
  0
DICTIONARY
  5
1A50
330
8AF
100
AcDbDictionary
280
     1
281
     1
  3
ADSK_XREC_LAYER_RECONCILED
360
1A51
  0
DICTIONARY
  5
1A52
330
8F8
100
AcDbDictionary
280
     1
281
     1
  3
ADSK_XREC_LAYER_RECONCILED
360
1A53
  0
DICTIONARY
  5
1A54
330
91D
100
AcDbDictionary
280
     1
281
     1
  3
ADSK_XREC_LAYER_RECONCILED
360
1A55
  0
DICTIONARY
  5
1A56
330
C17
100
AcDbDictionary
280
     1
281
     1
  3
ADSK_XREC_LAYER_RECONCILED
360
1A57
  0
DICTIONARY
  5
1A58
330
1A21
100
AcDbDictionary
280
     1
281
     1
  3
ADSK_XREC_LAYER_RECONCILED
360
1A59
  0
DICTIONARY
  5
19E5
102
{ACAD_REACTORS
330
C
102
}
330
C
100
AcDbDictionary
281
     1
  0
DICTIONARY
  5
D
102
{ACAD_REACTORS
330
C
102
}
330
C
100
AcDbDictionary
281
     1
  0
DICTIONARY
  5
1A
102
{ACAD_REACTORS
330
C
102
}
330
C
100
AcDbDictionary
281
     1
  3
Layout1
350
1E
  3
Layout2
350
26
  3
Model
350
22
  0
DICTIONARY
  5
19B8
102
{ACAD_REACTORS
330
C
102
}
330
C
100
AcDbDictionary
281
     1
  3
ByBlock
350
19C1
  3
ByLayer
350
19B9
  3
Global
350
19C9
  0
DICTIONARY
  5
19FA
102
{ACAD_REACTORS
330
C
102
}
330
C
100
AcDbDictionary
281
     1
  3
Standard
350
19FB
  0
DICTIONARY
  5
17
102
{ACAD_REACTORS
330
C
102
}
330
C
100
AcDbDictionary
281
     1
  3
Standard
350
18
  0
DICTIONARY
  5
19
102
{ACAD_REACTORS
330
C
102
}
330
C
100
AcDbDictionary
281
     1
  0
ACDBDICTIONARYWDFLT
  5
E
102
{ACAD_REACTORS
330
C
102
}
330
C
100
AcDbDictionary
281
     1
  3
Normal
350
F
100
AcDbDictionaryWithDefault
340
F
  0
DICTIONARY
  5
19E8
102
{ACAD_REACTORS
330
C
102
}
330
C
100
AcDbDictionary
281
     1
  3
A0
350
19E9
  3
A1
350
19EA
  3
A2
350
19EB
  3
A3
350
19EC
  3
A4
350
19ED
  3
A5
350
19EE
  3
A6
350
19EF
  3
A7
350
19F0
  3
A8
350
19F1
  3
A9
350
19F2
  3
B0
350
19F3
  3
B1
350
19F4
  3
B2
350
19F5
  3
B3
350
19F6
  3
B4
350
19F7
  3
B5
350
19F8
  3
B6
350
19F9
  0
DICTIONARY
  5
19E6
102
{ACAD_REACTORS
330
C
102
}
330
C
100
AcDbDictionary
281
     1
  3
Standard
350
19E7
  0
DICTIONARY
  5
19D1
102
{ACAD_REACTORS
330
C
102
}
330
C
100
AcDbDictionary
281
     1
  3
2dWireframe
350
19D7
  3
3D Hidden
350
19D9
  3
3dWireframe
350
19D8
  3
Basic
350
19D6
  3
Brighten
350
19DD
  3
ColorChange
350
19E1
  3
Conceptual
350
19DA
  3
Dim
350
19DC
  3
EdgeColorOff
350
19E4
  3
Facepattern
350
19E0
  3
Flat
350
19D2
  3
FlatWithEdges
350
19D3
  3
Gouraud
350
19D4
  3
GouraudWithEdges
350
19D5
  3
JitterOff
350
19E2
  3
Linepattern
350
19DF
  3
OverhangOff
350
19E3
  3
Realistic
350
19DB
  3
Thicken
350
19DE
  0
XRECORD
  5
1A9F
102
{ACAD_REACTORS
330
C
102
}
330
C
100
AcDbXrecord
280
     1
 90
        1
330
19E7
  0
DICTIONARY
  5
3D
102
{ACAD_REACTORS
330
C
102
}
330
C
100
AcDbDictionary
281
     1
  3
CANNOSCALE
350
1A99
  3
CMLEADERSTYLE
350
1A98
  3
CTABLESTYLE
350
1A97
  3
DIMASSOC
350
3F
  3
HIDETEXT
350
3E
  3
INDEXCTL
350
1A9B
  3
SORTENTS
350
1A9A
  3
XCLIPFRAME
350
1A9C
  0
DICTIONARY
  5
1594
102
{ACAD_REACTORS
330
C
102
}
330
C
100
AcDbDictionary
281
     1
  3
ASEBlockHierarchyIndexRecord
350
1595
1001
DCO15
1040
1513344365.171
  0
XRECORD
  5
1AA0
102
{ACAD_REACTORS
330
C
102
}
330
C
100
AcDbXrecord
280
     1
  1
DWGPROPS COOKIE
  2

  3

  4

  6

  7

  8
Julio
  9

300
=
301
=
302
=
303
=
304
=
305
=
306
=
307
=
308
=
309
=
 40
0.0191086111111111
 41
2453318.800715417
 42
2455824.524319838
  1

 90
        0
  0
XRECORD
  5
1A3B
102
{ACAD_REACTORS
330
1A3A
102
}
330
1A3A
100
AcDbXrecord
280
     1
290
     1
  0
XRECORD
  5
1A3D
102
{ACAD_REACTORS
330
1A3C
102
}
330
1A3C
100
AcDbXrecord
280
     1
290
     1
  0
XRECORD
  5
1A3F
102
{ACAD_REACTORS
330
1A3E
102
}
330
1A3E
100
AcDbXrecord
280
     1
290
     1
  0
XRECORD
  5
1A41
102
{ACAD_REACTORS
330
1A40
102
}
330
1A40
100
AcDbXrecord
280
     1
290
     1
  0
XRECORD
  5
1A43
102
{ACAD_REACTORS
330
1A42
102
}
330
1A42
100
AcDbXrecord
280
     1
290
     1
  0
XRECORD
  5
1A45
102
{ACAD_REACTORS
330
1A44
102
}
330
1A44
100
AcDbXrecord
280
     1
290
     1
  0
XRECORD
  5
1A47
102
{ACAD_REACTORS
330
1A46
102
}
330
1A46
100
AcDbXrecord
280
     1
290
     1
  0
XRECORD
  5
1A49
102
{ACAD_REACTORS
330
1A48
102
}
330
1A48
100
AcDbXrecord
280
     1
290
     1
  0
XRECORD
  5
1A4B
102
{ACAD_REACTORS
330
1A4A
102
}
330
1A4A
100
AcDbXrecord
280
     1
290
     1
  0
XRECORD
  5
1A4D
102
{ACAD_REACTORS
330
1A4C
102
}
330
1A4C
100
AcDbXrecord
280
     1
290
     1
  0
XRECORD
  5
1A4F
102
{ACAD_REACTORS
330
1A4E
102
}
330
1A4E
100
AcDbXrecord
280
     1
290
     1
  0
XRECORD
  5
1A51
102
{ACAD_REACTORS
330
1A50
102
}
330
1A50
100
AcDbXrecord
280
     1
290
     1
  0
XRECORD
  5
1A53
102
{ACAD_REACTORS
330
1A52
102
}
330
1A52
100
AcDbXrecord
280
     1
290
     1
  0
XRECORD
  5
1A55
102
{ACAD_REACTORS
330
1A54
102
}
330
1A54
100
AcDbXrecord
280
     1
290
     1
  0
XRECORD
  5
1A57
102
{ACAD_REACTORS
330
1A56
102
}
330
1A56
100
AcDbXrecord
280
     1
290
     1
  0
XRECORD
  5
1A59
102
{ACAD_REACTORS
330
1A58
102
}
330
1A58
100
AcDbXrecord
280
     1
290
     1
  0
LAYOUT
  5
1E
102
{ACAD_XDICTIONARY
360
1AA1
102
}
102
{ACAD_REACTORS
330
1A
102
}
330
1A
100
AcDbPlotSettings
  1

  2
Ploter HP500
  4

  6

 40
0.0
 41
0.0
 42
0.0
 43
0.0
 44
0.0
 45
0.0
 46
0.0
 47
0.0
 48
0.0
 49
0.0
140
0.0
141
0.0
142
1.0
143
1.0
 70
   688
 72
     0
 73
     0
 74
     5
  7
monochrome.ctb
 75
    16
147
1.0
148
0.0
149
0.0
100
AcDbLayout
  1
Layout1
 70
     1
 71
     1
 10
0.0
 20
0.0
 11
420.0
 21
297.0
 12
0.0
 22
0.0
 32
0.0
 14
1.000000000000000E+20
 24
1.000000000000000E+20
 34
1.000000000000000E+20
 15
-1.000000000000000E+20
 25
-1.000000000000000E+20
 35
-1.000000000000000E+20
146
0.0
 13
0.0
 23
0.0
 33
0.0
 16
1.0
 26
0.0
 36
0.0
 17
0.0
 27
1.0
 37
0.0
 76
     0
330
1B
  0
LAYOUT
  5
26
102
{ACAD_XDICTIONARY
360
1AA5
102
}
102
{ACAD_REACTORS
330
1A
102
}
330
1A
100
AcDbPlotSettings
  1

  2
Ploter HP500
  4

  6

 40
0.0
 41
0.0
 42
0.0
 43
0.0
 44
0.0
 45
0.0
 46
0.0
 47
0.0
 48
0.0
 49
0.0
140
0.0
141
0.0
142
1.0
143
1.0
 70
   688
 72
     0
 73
     0
 74
     5
  7
monochrome.ctb
 75
    16
147
1.0
148
0.0
149
0.0
100
AcDbLayout
  1
Layout2
 70
     1
 71
     2
 10
0.0
 20
0.0
 11
12.0
 21
9.0
 12
0.0
 22
0.0
 32
0.0
 14
0.0
 24
0.0
 34
0.0
 15
0.0
 25
0.0
 35
0.0
146
0.0
 13
0.0
 23
0.0
 33
0.0
 16
1.0
 26
0.0
 36
0.0
 17
0.0
 27
1.0
 37
0.0
 76
     0
330
23
  0
LAYOUT
  5
22
102
{ACAD_XDICTIONARY
360
1AA3
102
}
102
{ACAD_REACTORS
330
1A
102
}
330
1A
100
AcDbPlotSettings
  1

  2
Ploter HP500
  4
User268
  6

 40
4.995333194732666
 41
16.97565841674804
 42
4.995330810546875
 43
16.97567749023437
 44
209.9733276367187
 45
296.9259948730469
 46
0.0
 47
0.0
 48
0.0
 49
0.0
140
0.0
141
0.0
142
1.0
143
1.0
 70
 11952
 72
     1
 73
     1
 74
     0
  7

 75
     0
147
1.0
148
-427.5957866592534
149
7.362384574453926
100
AcDbLayout
  1
Model
 70
     1
 71
     0
 10
0.0
 20
0.0
 11
12.0
 21
9.0
 12
0.0
 22
0.0
 32
0.0
 14
0.0
 24
0.0
 34
0.0
 15
0.0
 25
0.0
 35
0.0
146
0.0
 13
0.0
 23
0.0
 33
0.0
 16
1.0
 26
0.0
 36
0.0
 17
0.0
 27
1.0
 37
0.0
 76
     0
330
1F
331
19B6
  0
MATERIAL
  5
19C1
102
{ACAD_XDICTIONARY
360
19C2
102
}
102
{ACAD_REACTORS
330
19B8
102
}
330
19B8
100
AcDbMaterial
  1
ByBlock
 72
     0
 43
0.0008202099737533
 43
0.0
 43
0.0
 43
0.0
 43
0.0
 43
0.0008202099737533
 43
0.0
 43
0.0
 43
0.0
 43
0.0
 43
1.0
 43
0.0
 43
0.0
 43
0.0
 43
0.0
 43
1.0
 77
     0
 47
0.0008202099737533
 47
0.0
 47
0.0
 47
0.0
 47
0.0
 47
0.0008202099737533
 47
0.0
 47
0.0
 47
0.0
 47
0.0
 47
1.0
 47
0.0
 47
0.0
 47
0.0
 47
0.0
 47
1.0
171
     0
 49
0.0008202099737533
 49
0.0
 49
0.0
 49
0.0
 49
0.0
 49
0.0008202099737533
 49
0.0
 49
0.0
 49
0.0
 49
0.0
 49
1.0
 49
0.0
 49
0.0
 49
0.0
 49
0.0
 49
1.0
175
     0
142
0.0008202099737533
142
0.0
142
0.0
142
0.0
142
0.0
142
0.0008202099737533
142
0.0
142
0.0
142
0.0
142
0.0
142
1.0
142
0.0
142
0.0
142
0.0
142
0.0
142
1.0
179
     0
144
0.0008202099737533
144
0.0
144
0.0
144
0.0
144
0.0
144
0.0008202099737533
144
0.0
144
0.0
144
0.0
144
0.0
144
1.0
144
0.0
144
0.0
144
0.0
144
0.0
144
1.0
147
0.0008202099737533
147
0.0
147
0.0
147
0.0
147
0.0
147
0.0008202099737533
147
0.0
147
0.0
147
0.0
147
0.0
147
1.0
147
0.0
147
0.0
147
0.0
147
0.0
147
1.0
  0
MATERIAL
  5
19B9
102
{ACAD_XDICTIONARY
360
19BA
102
}
102
{ACAD_REACTORS
330
19B8
102
}
330
19B8
100
AcDbMaterial
  1
ByLayer
 72
     0
 43
0.0008202099737533
 43
0.0
 43
0.0
 43
0.0
 43
0.0
 43
0.0008202099737533
 43
0.0
 43
0.0
 43
0.0
 43
0.0
 43
1.0
 43
0.0
 43
0.0
 43
0.0
 43
0.0
 43
1.0
 77
     0
 47
0.0008202099737533
 47
0.0
 47
0.0
 47
0.0
 47
0.0
 47
0.0008202099737533
 47
0.0
 47
0.0
 47
0.0
 47
0.0
 47
1.0
 47
0.0
 47
0.0
 47
0.0
 47
0.0
 47
1.0
171
     0
 49
0.0008202099737533
 49
0.0
 49
0.0
 49
0.0
 49
0.0
 49
0.0008202099737533
 49
0.0
 49
0.0
 49
0.0
 49
0.0
 49
1.0
 49
0.0
 49
0.0
 49
0.0
 49
0.0
 49
1.0
175
     0
142
0.0008202099737533
142
0.0
142
0.0
142
0.0
142
0.0
142
0.0008202099737533
142
0.0
142
0.0
142
0.0
142
0.0
142
1.0
142
0.0
142
0.0
142
0.0
142
0.0
142
1.0
179
     0
144
0.0008202099737533
144
0.0
144
0.0
144
0.0
144
0.0
144
0.0008202099737533
144
0.0
144
0.0
144
0.0
144
0.0
144
1.0
144
0.0
144
0.0
144
0.0
144
0.0
144
1.0
147
0.0008202099737533
147
0.0
147
0.0
147
0.0
147
0.0
147
0.0008202099737533
147
0.0
147
0.0
147
0.0
147
0.0
147
1.0
147
0.0
147
0.0
147
0.0
147
0.0
147
1.0
  0
MATERIAL
  5
19C9
102
{ACAD_XDICTIONARY
360
19CA
102
}
102
{ACAD_REACTORS
330
19B8
102
}
330
19B8
100
AcDbMaterial
  1
Global
 72
     0
 43
0.0008202099737533
 43
0.0
 43
0.0
 43
0.0
 43
0.0
 43
0.0008202099737533
 43
0.0
 43
0.0
 43
0.0
 43
0.0
 43
1.0
 43
0.0
 43
0.0
 43
0.0
 43
0.0
 43
1.0
 77
     0
 47
0.0008202099737533
 47
0.0
 47
0.0
 47
0.0
 47
0.0
 47
0.0008202099737533
 47
0.0
 47
0.0
 47
0.0
 47
0.0
 47
1.0
 47
0.0
 47
0.0
 47
0.0
 47
0.0
 47
1.0
171
     0
 49
0.0008202099737533
 49
0.0
 49
0.0
 49
0.0
 49
0.0
 49
0.0008202099737533
 49
0.0
 49
0.0
 49
0.0
 49
0.0
 49
1.0
 49
0.0
 49
0.0
 49
0.0
 49
0.0
 49
1.0
175
     0
142
0.0008202099737533
142
0.0
142
0.0
142
0.0
142
0.0
142
0.0008202099737533
142
0.0
142
0.0
142
0.0
142
0.0
142
1.0
142
0.0
142
0.0
142
0.0
142
0.0
142
1.0
179
     0
144
0.0008202099737533
144
0.0
144
0.0
144
0.0
144
0.0
144
0.0008202099737533
144
0.0
144
0.0
144
0.0
144
0.0
144
1.0
144
0.0
144
0.0
144
0.0
144
0.0
144
1.0
147
0.0008202099737533
147
0.0
147
0.0
147
0.0
147
0.0
147
0.0008202099737533
147
0.0
147
0.0
147
0.0
147
0.0
147
1.0
147
0.0
147
0.0
147
0.0
147
0.0
147
1.0
  0
MLEADERSTYLE
  5
19FB
102
{ACAD_REACTORS
330
19FA
102
}
330
19FA
100
AcDbMLeaderStyle
170
     2
171
     1
172
     0
 90
        2
 40
0.0
 41
0.0
173
     1
 91
-1056964608
340
14
 92
       -2
290
     1
 42
2.0
291
     1
 43
0.36
  3
Standard
 44
4.0
300

342
11
174
     1
178
     6
175
     1
176
     0
 93
-1056964608
 45
4.0
292
     0
297
     0
 46
4.0
 94
-1056964608
 47
1.0
 49
1.0
140
1.0
293
     1
141
0.0
294
     1
177
     0
142
1.0
295
     0
296
     0
143
0.125
1001
ACAD_MLEADERVER
1070
     2
  0
MLINESTYLE
  5
18
102
{ACAD_REACTORS
330
17
102
}
330
17
100
AcDbMlineStyle
  2
STANDARD
 70
     0
  3

 62
   256
 51
90.0
 52
90.0
 71
     2
 49
0.5
 62
   256
  6
BYLAYER
 49
-0.5
 62
   256
  6
BYLAYER
  0
ACDBPLACEHOLDER
  5
F
102
{ACAD_REACTORS
330
E
102
}
330
E
  0
SCALE
  5
19E9
102
{ACAD_REACTORS
330
19E8
102
}
330
19E8
100
AcDbScale
 70
     0
300
1:1
140
1.0
141
1.0
290
     1
  0
SCALE
  5
19EA
102
{ACAD_REACTORS
330
19E8
102
}
330
19E8
100
AcDbScale
 70
     0
300
1:2
140
1.0
141
2.0
290
     0
  0
SCALE
  5
19EB
102
{ACAD_REACTORS
330
19E8
102
}
330
19E8
100
AcDbScale
 70
     0
300
1:4
140
1.0
141
4.0
290
     0
  0
SCALE
  5
19EC
102
{ACAD_REACTORS
330
19E8
102
}
330
19E8
100
AcDbScale
 70
     0
300
1:5
140
1.0
141
5.0
290
     0
  0
SCALE
  5
19ED
102
{ACAD_REACTORS
330
19E8
102
}
330
19E8
100
AcDbScale
 70
     0
300
1:8
140
1.0
141
8.0
290
     0
  0
SCALE
  5
19EE
102
{ACAD_REACTORS
330
19E8
102
}
330
19E8
100
AcDbScale
 70
     0
300
1:10
140
1.0
141
10.0
290
     0
  0
SCALE
  5
19EF
102
{ACAD_REACTORS
330
19E8
102
}
330
19E8
100
AcDbScale
 70
     0
300
1:16
140
1.0
141
16.0
290
     0
  0
SCALE
  5
19F0
102
{ACAD_REACTORS
330
19E8
102
}
330
19E8
100
AcDbScale
 70
     0
300
1:20
140
1.0
141
20.0
290
     0
  0
SCALE
  5
19F1
102
{ACAD_REACTORS
330
19E8
102
}
330
19E8
100
AcDbScale
 70
     0
300
1:30
140
1.0
141
30.0
290
     0
  0
SCALE
  5
19F2
102
{ACAD_REACTORS
330
19E8
102
}
330
19E8
100
AcDbScale
 70
     0
300
1:40
140
1.0
141
40.0
290
     0
  0
SCALE
  5
19F3
102
{ACAD_REACTORS
330
19E8
102
}
330
19E8
100
AcDbScale
 70
     0
300
1:50
140
1.0
141
50.0
290
     0
  0
SCALE
  5
19F4
102
{ACAD_REACTORS
330
19E8
102
}
330
19E8
100
AcDbScale
 70
     0
300
1:100
140
1.0
141
100.0
290
     0
  0
SCALE
  5
19F5
102
{ACAD_REACTORS
330
19E8
102
}
330
19E8
100
AcDbScale
 70
     0
300
2:1
140
2.0
141
1.0
290
     0
  0
SCALE
  5
19F6
102
{ACAD_REACTORS
330
19E8
102
}
330
19E8
100
AcDbScale
 70
     0
300
4:1
140
4.0
141
1.0
290
     0
  0
SCALE
  5
19F7
102
{ACAD_REACTORS
330
19E8
102
}
330
19E8
100
AcDbScale
 70
     0
300
8:1
140
8.0
141
1.0
290
     0
  0
SCALE
  5
19F8
102
{ACAD_REACTORS
330
19E8
102
}
330
19E8
100
AcDbScale
 70
     0
300
10:1
140
10.0
141
1.0
290
     0
  0
SCALE
  5
19F9
102
{ACAD_REACTORS
330
19E8
102
}
330
19E8
100
AcDbScale
 70
     0
300
100:1
140
100.0
141
1.0
290
     0
  0
TABLESTYLE
  5
19E7
102
{ACAD_XDICTIONARY
360
1A9D
102
}
102
{ACAD_REACTORS
330
19E6
102
}
330
19E6
100
AcDbTableStyle
  3
Standard
 70
     0
 71
     0
 40
1.5
 41
1.5
280
     0
281
     0
  7
Standard
140
4.5
170
     2
 62
     0
 63
     7
283
     0
274
    -2
284
     1
 64
     0
275
    -2
285
     1
 65
     0
276
    -2
286
     1
 66
     0
277
    -2
287
     1
 67
     0
278
    -2
288
     1
 68
     0
279
    -2
289
     1
 69
     0
  7
Standard
140
6.0
170
     5
 62
     0
 63
     7
283
     0
274
    -2
284
     1
 64
     0
275
    -2
285
     1
 65
     0
276
    -2
286
     1
 66
     0
277
    -2
287
     1
 67
     0
278
    -2
288
     1
 68
     0
279
    -2
289
     1
 69
     0
  7
Standard
140
4.5
170
     5
 62
     0
 63
     7
283
     0
274
    -2
284
     1
 64
     0
275
    -2
285
     1
 65
     0
276
    -2
286
     1
 66
     0
277
    -2
287
     1
 67
     0
278
    -2
288
     1
 68
     0
279
    -2
289
     1
 69
     0
  0
VISUALSTYLE
  5
19D7
102
{ACAD_XDICTIONARY
360
1AB4
102
}
102
{ACAD_REACTORS
330
19D1
102
}
330
19D1
100
AcDbVisualStyle
  2
2dWireframe
 70
     4
 71
     0
 72
     2
 73
     0
 90
        0
 40
-0.6
 41
-30.0
 62
     5
 63
     7
 74
     1
 91
        4
 64
     7
 65
   257
 75
     1
175
     1
 42
1.0
 92
        0
 66
   257
 43
1.0
 76
     1
 77
     6
 78
     2
 67
     7
 79
     5
170
     0
171
     0
290
     0
174
     0
 93
        1
 44
0.0
173
     0
291
     0
 45
0.0
1001
ACAD
1000
AcDbSavedByObjectVersion
1070
     0
  0
VISUALSTYLE
  5
19D9
102
{ACAD_XDICTIONARY
360
1AB8
102
}
102
{ACAD_REACTORS
330
19D1
102
}
330
19D1
100
AcDbVisualStyle
  2
3D Hidden
 70
     6
 71
     1
 72
     2
 73
     2
 90
        0
 40
-0.6
 41
-30.0
 62
     5
 63
     7
 74
     2
 91
        2
 64
     7
 65
   257
 75
     2
175
     1
 42
179.0
 92
        0
 66
   257
 43
1.0
 76
     1
 77
     6
 78
     2
 67
     7
 79
     3
170
     0
171
     0
290
     0
174
     0
 93
        1
 44
0.0
173
     0
291
     0
 45
0.0
1001
ACAD
1000
AcDbSavedByObjectVersion
1070
     0
  0
VISUALSTYLE
  5
19D8
102
{ACAD_XDICTIONARY
360
1AB6
102
}
102
{ACAD_REACTORS
330
19D1
102
}
330
19D1
100
AcDbVisualStyle
  2
3dWireframe
 70
     5
 71
     0
 72
     2
 73
     0
 90
        0
 40
-0.6
 41
-30.0
 62
     5
 63
     7
 74
     1
 91
        4
 64
     7
 65
   257
 75
     1
175
     1
 42
1.0
 92
        0
 66
   257
 43
1.0
 76
     1
 77
     6
 78
     2
 67
     7
 79
     5
170
     0
171
     0
290
     0
174
     0
 93
        1
 44
0.0
173
     0
291
     0
 45
0.0
1001
ACAD
1000
AcDbSavedByObjectVersion
1070
     0
  0
VISUALSTYLE
  5
19D6
102
{ACAD_XDICTIONARY
360
1AB2
102
}
102
{ACAD_REACTORS
330
19D1
102
}
330
19D1
100
AcDbVisualStyle
  2
Basic
 70
     7
 71
     1
 72
     0
 73
     1
 90
        0
 40
-0.6
 41
-30.0
 62
     5
 63
     7
 74
     0
 91
        4
 64
     7
 65
   257
 75
     1
175
     1
 42
1.0
 92
        8
 66
     7
 43
1.0
 76
     1
 77
     6
 78
     2
 67
     7
 79
     5
170
     0
171
     0
290
     0
174
     0
 93
        1
 44
0.0
173
     0
291
     1
 45
0.0
1001
ACAD
1000
AcDbSavedByObjectVersion
1070
     0
  0
VISUALSTYLE
  5
19DD
102
{ACAD_XDICTIONARY
360
1AC0
102
}
102
{ACAD_REACTORS
330
19D1
102
}
330
19D1
100
AcDbVisualStyle
  2
Brighten
 70
    12
 71
     2
 72
     2
 73
     0
 90
        0
 40
-0.6
 41
-30.0
 62
     5
 63
     7
 74
     1
 91
        4
 64
     7
 65
   257
 75
     1
175
     1
 42
1.0
 92
        8
 66
     7
 43
1.0
 76
     1
 77
     6
 78
     2
 67
     7
 79
     5
170
     0
171
     0
290
     0
174
     0
 93
        1
 44
50.0
173
     0
291
     1
 45
0.0
1001
ACAD
1000
AcDbSavedByObjectVersion
1070
     0
  0
VISUALSTYLE
  5
19E1
102
{ACAD_XDICTIONARY
360
1AC8
102
}
102
{ACAD_REACTORS
330
19D1
102
}
330
19D1
100
AcDbVisualStyle
  2
ColorChange
 70
    16
 71
     2
 72
     2
 73
     3
 90
        0
 40
-0.6
 41
-30.0
 62
     5
 63
     8
 74
     1
 91
        4
 64
     7
 65
   257
 75
     1
175
     1
 42
1.0
 92
        8
 66
     8
 43
1.0
 76
     1
 77
     6
 78
     2
 67
     7
 79
     5
170
     0
171
     0
290
     0
174
     0
 93
        1
 44
0.0
173
     0
291
     1
 45
0.0
1001
ACAD
1000
AcDbSavedByObjectVersion
1070
     0
  0
VISUALSTYLE
  5
19DA
102
{ACAD_XDICTIONARY
360
1ABA
102
}
102
{ACAD_REACTORS
330
19D1
102
}
330
19D1
100
AcDbVisualStyle
  2
Conceptual
 70
     9
 71
     3
 72
     2
 73
     0
 90
        0
 40
-0.6
 41
-30.0
 62
     5
 63
     7
 74
     2
 91
        2
 64
     7
 65
   257
 75
     1
175
     1
 42
179.0
 92
        8
 66
     7
 43
1.0
 76
     1
 77
     6
 78
     2
 67
     7
 79
     3
170
     0
171
     0
290
     0
174
     0
 93
        1
 44
0.0
173
     0
291
     0
 45
0.0
1001
ACAD
1000
AcDbSavedByObjectVersion
1070
     0
  0
VISUALSTYLE
  5
19DC
102
{ACAD_XDICTIONARY
360
1ABE
102
}
102
{ACAD_REACTORS
330
19D1
102
}
330
19D1
100
AcDbVisualStyle
  2
Dim
 70
    11
 71
     2
 72
     2
 73
     0
 90
        0
 40
-0.6
 41
-30.0
 62
     5
 63
     7
 74
     1
 91
        4
 64
     7
 65
   257
 75
     1
175
     1
 42
1.0
 92
        8
 66
     7
 43
1.0
 76
     1
 77
     6
 78
     2
 67
     7
 79
     5
170
     0
171
     0
290
     0
174
     0
 93
        1
 44
-50.0
173
     0
291
     1
 45
0.0
1001
ACAD
1000
AcDbSavedByObjectVersion
1070
     0
  0
VISUALSTYLE
  5
19E4
102
{ACAD_XDICTIONARY
360
1ACE
102
}
102
{ACAD_REACTORS
330
19D1
102
}
330
19D1
100
AcDbVisualStyle
  2
EdgeColorOff
 70
    22
 71
     2
 72
     2
 73
     0
 90
        0
 40
-0.6
 41
-30.0
 62
     5
 63
     7
 74
     1
 91
        4
 64
     7
 65
   257
 75
     1
175
     1
 42
1.0
 92
        8
 66
     7
 43
1.0
 76
     1
 77
     6
 78
     2
 67
     7
 79
     5
170
     0
171
     0
290
     0
174
     0
 93
        1
 44
0.0
173
     0
291
     1
 45
0.0
1001
ACAD
1000
AcDbSavedByObjectVersion
1070
     0
  0
VISUALSTYLE
  5
19E0
102
{ACAD_XDICTIONARY
360
1AC6
102
}
102
{ACAD_REACTORS
330
19D1
102
}
330
19D1
100
AcDbVisualStyle
  2
Facepattern
 70
    15
 71
     2
 72
     2
 73
     0
 90
        0
 40
-0.6
 41
-30.0
 62
     5
 63
     7
 74
     1
 91
        4
 64
     7
 65
   257
 75
     1
175
     1
 42
1.0
 92
        8
 66
     7
 43
1.0
 76
     1
 77
     6
 78
     2
 67
     7
 79
     5
170
     0
171
     0
290
     0
174
     0
 93
        1
 44
0.0
173
     0
291
     1
 45
0.0
1001
ACAD
1000
AcDbSavedByObjectVersion
1070
     0
  0
VISUALSTYLE
  5
19D2
102
{ACAD_XDICTIONARY
360
1AAA
102
}
102
{ACAD_REACTORS
330
19D1
102
}
330
19D1
100
AcDbVisualStyle
  2
Flat
 70
     0
 71
     2
 72
     1
 73
     1
 90
        2
 40
-0.6
 41
30.0
 62
     5
 63
     7
 74
     0
 91
        4
 64
     7
 65
   257
 75
     1
175
     1
 42
1.0
 92
        8
 66
     7
 43
1.0
 76
     1
 77
     6
 78
     2
 67
     7
 79
     5
170
     0
171
     0
290
     0
174
     0
 93
       13
 44
0.0
173
     0
291
     1
 45
0.0
1001
ACAD
1000
AcDbSavedByObjectVersion
1070
     0
  0
VISUALSTYLE
  5
19D3
102
{ACAD_XDICTIONARY
360
1AAC
102
}
102
{ACAD_REACTORS
330
19D1
102
}
330
19D1
100
AcDbVisualStyle
  2
FlatWithEdges
 70
     1
 71
     2
 72
     1
 73
     1
 90
        2
 40
-0.6
 41
30.0
 62
     5
 63
     7
 74
     1
 91
        4
 64
     7
 65
   257
 75
     1
175
     1
 42
1.0
 92
        0
 66
   257
 43
1.0
 76
     1
 77
     6
 78
     2
 67
     7
 79
     5
170
     0
171
     0
290
     0
174
     0
 93
       13
 44
0.0
173
     0
291
     1
 45
0.0
1001
ACAD
1000
AcDbSavedByObjectVersion
1070
     0
  0
VISUALSTYLE
  5
19D4
102
{ACAD_XDICTIONARY
360
1AAE
102
}
102
{ACAD_REACTORS
330
19D1
102
}
330
19D1
100
AcDbVisualStyle
  2
Gouraud
 70
     2
 71
     2
 72
     2
 73
     1
 90
        2
 40
-0.6
 41
30.0
 62
     5
 63
     7
 74
     0
 91
        4
 64
     7
 65
   257
 75
     1
175
     1
 42
1.0
 92
        0
 66
     7
 43
1.0
 76
     1
 77
     6
 78
     2
 67
     7
 79
     5
170
     0
171
     0
290
     0
174
     0
 93
       13
 44
0.0
173
     0
291
     1
 45
0.0
1001
ACAD
1000
AcDbSavedByObjectVersion
1070
     0
  0
VISUALSTYLE
  5
19D5
102
{ACAD_XDICTIONARY
360
1AB0
102
}
102
{ACAD_REACTORS
330
19D1
102
}
330
19D1
100
AcDbVisualStyle
  2
GouraudWithEdges
 70
     3
 71
     2
 72
     2
 73
     1
 90
        2
 40
-0.6
 41
30.0
 62
     5
 63
     7
 74
     1
 91
        4
 64
     7
 65
   257
 75
     1
175
     1
 42
1.0
 92
        0
 66
   257
 43
1.0
 76
     1
 77
     6
 78
     2
 67
     7
 79
     5
170
     0
171
     0
290
     0
174
     0
 93
       13
 44
0.0
173
     0
291
     1
 45
0.0
1001
ACAD
1000
AcDbSavedByObjectVersion
1070
     0
  0
VISUALSTYLE
  5
19E2
102
{ACAD_XDICTIONARY
360
1ACA
102
}
102
{ACAD_REACTORS
330
19D1
102
}
330
19D1
100
AcDbVisualStyle
  2
JitterOff
 70
    20
 71
     2
 72
     2
 73
     0
 90
        0
 40
-0.6
 41
-30.0
 62
     5
 63
     7
 74
     1
 91
        4
 64
     7
 65
   257
 75
     1
175
     1
 42
1.0
 92
       10
 66
     7
 43
1.0
 76
     1
 77
     6
 78
     2
 67
     7
 79
     5
170
     0
171
     0
290
     0
174
     0
 93
        1
 44
0.0
173
     0
291
     1
 45
0.0
1001
ACAD
1000
AcDbSavedByObjectVersion
1070
     0
  0
VISUALSTYLE
  5
19DF
102
{ACAD_XDICTIONARY
360
1AC4
102
}
102
{ACAD_REACTORS
330
19D1
102
}
330
19D1
100
AcDbVisualStyle
  2
Linepattern
 70
    14
 71
     2
 72
     2
 73
     0
 90
        0
 40
-0.6
 41
-30.0
 62
     5
 63
     7
 74
     1
 91
        4
 64
     7
 65
   257
 75
     7
175
     7
 42
1.0
 92
        8
 66
     7
 43
1.0
 76
     1
 77
     6
 78
     2
 67
     7
 79
     5
170
     0
171
     0
290
     0
174
     0
 93
        1
 44
0.0
173
     0
291
     1
 45
0.0
1001
ACAD
1000
AcDbSavedByObjectVersion
1070
     0
  0
VISUALSTYLE
  5
19E3
102
{ACAD_XDICTIONARY
360
1ACC
102
}
102
{ACAD_REACTORS
330
19D1
102
}
330
19D1
100
AcDbVisualStyle
  2
OverhangOff
 70
    21
 71
     2
 72
     2
 73
     0
 90
        0
 40
-0.6
 41
-30.0
 62
     5
 63
     7
 74
     1
 91
        4
 64
     7
 65
   257
 75
     1
175
     1
 42
1.0
 92
        9
 66
     7
 43
1.0
 76
     1
 77
     6
 78
     2
 67
     7
 79
     5
170
     0
171
     0
290
     0
174
     0
 93
        1
 44
0.0
173
     0
291
     1
 45
0.0
1001
ACAD
1000
AcDbSavedByObjectVersion
1070
     0
  0
VISUALSTYLE
  5
19DB
102
{ACAD_XDICTIONARY
360
1ABC
102
}
102
{ACAD_REACTORS
330
19D1
102
}
330
19D1
100
AcDbVisualStyle
  2
Realistic
 70
     8
 71
     2
 72
     2
 73
     0
 90
        0
 40
-0.6
 41
-30.0
 62
     5
 63
     7
 74
     1
 91
        0
 64
     7
 65
   257
 75
     1
175
     1
 42
1.0
 92
        8
 66
     8
 43
1.0
 76
     1
 77
     6
 78
     2
 67
     7
 79
     5
170
     0
171
     0
290
     0
174
     0
 93
       13
 44
0.0
173
     0
291
     0
 45
0.0
1001
ACAD
1000
AcDbSavedByObjectVersion
1070
     0
  0
VISUALSTYLE
  5
19DE
102
{ACAD_XDICTIONARY
360
1AC2
102
}
102
{ACAD_REACTORS
330
19D1
102
}
330
19D1
100
AcDbVisualStyle
  2
Thicken
 70
    13
 71
     2
 72
     2
 73
     0
 90
        0
 40
-0.6
 41
-30.0
 62
     5
 63
     7
 74
     1
 91
        4
 64
     7
 65
   257
 75
     1
175
     1
 42
1.0
 92
       12
 66
     7
 43
1.0
 76
     1
 77
     6
 78
     2
 67
     7
 79
     5
170
     0
171
     0
290
     0
174
     0
 93
        1
 44
0.0
173
     0
291
     1
 45
0.0
1001
ACAD
1000
AcDbSavedByObjectVersion
1070
     0
  0
DICTIONARYVAR
  5
1A99
102
{ACAD_REACTORS
330
3D
102
}
330
3D
100
DictionaryVariables
280
     0
  1
1:1
  0
DICTIONARYVAR
  5
1A98
102
{ACAD_REACTORS
330
3D
102
}
330
3D
100
DictionaryVariables
280
     0
  1
STANDARD
  0
DICTIONARYVAR
  5
1A97
102
{ACAD_REACTORS
330
3D
102
}
330
3D
100
DictionaryVariables
280
     0
  1
STANDARD
  0
DICTIONARYVAR
  5
3F
102
{ACAD_REACTORS
330
3D
102
}
330
3D
100
DictionaryVariables
280
     0
  1
2
  0
DICTIONARYVAR
  5
3E
102
{ACAD_REACTORS
330
3D
102
}
330
3D
100
DictionaryVariables
280
     0
  1
1
  0
DICTIONARYVAR
  5
1A9B
102
{ACAD_REACTORS
330
3D
102
}
330
3D
100
DictionaryVariables
280
     0
  1
0
  0
DICTIONARYVAR
  5
1A9A
102
{ACAD_REACTORS
330
3D
102
}
330
3D
100
DictionaryVariables
280
     0
  1
127
  0
DICTIONARYVAR
  5
1A9C
102
{ACAD_REACTORS
330
3D
102
}
330
3D
100
DictionaryVariables
280
     0
  1
2
  0
XRECORD
  5
1595
102
{ACAD_REACTORS
330
1594
102
}
330
1594
100
AcDbXrecord
280
     1
330
0
  0
DICTIONARY
  5
1AA1
330
1E
100
AcDbDictionary
280
     1
281
     1
  3
ACAD_XREC_ROUNDTRIP
360
1AA2
  0
DICTIONARY
  5
1AA5
330
26
100
AcDbDictionary
280
     1
281
     1
  3
ACAD_XREC_ROUNDTRIP
360
1AA6
  0
DICTIONARY
  5
1AA3
330
22
100
AcDbDictionary
280
     1
281
     1
  3
ACAD_XREC_ROUNDTRIP
360
1AA4
  0
DICTIONARY
  5
19C2
330
19C1
100
AcDbDictionary
280
     1
281
     1
  3
ACAD_XREC_ROUNDTRIP
360
1AA8
  3
BUMPTILE
360
19C4
  3
DIFFUSETILE
360
19C3
  3
OPACITYTILE
360
19C7
  3
REFLECTIONTILE
360
19C6
  3
REFRACTIONTILE
360
19C8
  3
SPECULARTILE
360
19C5
  0
DICTIONARY
  5
19BA
330
19B9
100
AcDbDictionary
280
     1
281
     1
  3
ACAD_XREC_ROUNDTRIP
360
1AA7
  3
BUMPTILE
360
19BC
  3
DIFFUSETILE
360
19BB
  3
OPACITYTILE
360
19BF
  3
REFLECTIONTILE
360
19BE
  3
REFRACTIONTILE
360
19C0
  3
SPECULARTILE
360
19BD
  0
DICTIONARY
  5
19CA
330
19C9
100
AcDbDictionary
280
     1
281
     1
  3
ACAD_XREC_ROUNDTRIP
360
1AA9
  3
BUMPTILE
360
19CC
  3
DIFFUSETILE
360
19CB
  3
OPACITYTILE
360
19CF
  3
REFLECTIONTILE
360
19CE
  3
REFRACTIONTILE
360
19D0
  3
SPECULARTILE
360
19CD
  0
DICTIONARY
  5
1A9D
330
19E7
100
AcDbDictionary
280
     1
281
     1
  3
ACAD_ROUNDTRIP_2008_TABLESTYLE_CELLSTYLEMAP
360
1A9E
  3
ACAD_XREC_ROUNDTRIP
360
1AD0
  0
DICTIONARY
  5
1AB4
330
19D7
100
AcDbDictionary
280
     1
281
     1
  3
ACAD_XREC_ROUNDTRIP
360
1AB5
  0
DICTIONARY
  5
1AB8
330
19D9
100
AcDbDictionary
280
     1
281
     1
  3
ACAD_XREC_ROUNDTRIP
360
1AB9
  0
DICTIONARY
  5
1AB6
330
19D8
100
AcDbDictionary
280
     1
281
     1
  3
ACAD_XREC_ROUNDTRIP
360
1AB7
  0
DICTIONARY
  5
1AB2
330
19D6
100
AcDbDictionary
280
     1
281
     1
  3
ACAD_XREC_ROUNDTRIP
360
1AB3
  0
DICTIONARY
  5
1AC0
330
19DD
100
AcDbDictionary
280
     1
281
     1
  3
ACAD_XREC_ROUNDTRIP
360
1AC1
  0
DICTIONARY
  5
1AC8
330
19E1
100
AcDbDictionary
280
     1
281
     1
  3
ACAD_XREC_ROUNDTRIP
360
1AC9
  0
DICTIONARY
  5
1ABA
330
19DA
100
AcDbDictionary
280
     1
281
     1
  3
ACAD_XREC_ROUNDTRIP
360
1ABB
  0
DICTIONARY
  5
1ABE
330
19DC
100
AcDbDictionary
280
     1
281
     1
  3
ACAD_XREC_ROUNDTRIP
360
1ABF
  0
DICTIONARY
  5
1ACE
330
19E4
100
AcDbDictionary
280
     1
281
     1
  3
ACAD_XREC_ROUNDTRIP
360
1ACF
  0
DICTIONARY
  5
1AC6
330
19E0
100
AcDbDictionary
280
     1
281
     1
  3
ACAD_XREC_ROUNDTRIP
360
1AC7
  0
DICTIONARY
  5
1AAA
330
19D2
100
AcDbDictionary
280
     1
281
     1
  3
ACAD_XREC_ROUNDTRIP
360
1AAB
  0
DICTIONARY
  5
1AAC
330
19D3
100
AcDbDictionary
280
     1
281
     1
  3
ACAD_XREC_ROUNDTRIP
360
1AAD
  0
DICTIONARY
  5
1AAE
330
19D4
100
AcDbDictionary
280
     1
281
     1
  3
ACAD_XREC_ROUNDTRIP
360
1AAF
  0
DICTIONARY
  5
1AB0
330
19D5
100
AcDbDictionary
280
     1
281
     1
  3
ACAD_XREC_ROUNDTRIP
360
1AB1
  0
DICTIONARY
  5
1ACA
330
19E2
100
AcDbDictionary
280
     1
281
     1
  3
ACAD_XREC_ROUNDTRIP
360
1ACB
  0
DICTIONARY
  5
1AC4
330
19DF
100
AcDbDictionary
280
     1
281
     1
  3
ACAD_XREC_ROUNDTRIP
360
1AC5
  0
DICTIONARY
  5
1ACC
330
19E3
100
AcDbDictionary
280
     1
281
     1
  3
ACAD_XREC_ROUNDTRIP
360
1ACD
  0
DICTIONARY
  5
1ABC
330
19DB
100
AcDbDictionary
280
     1
281
     1
  3
ACAD_XREC_ROUNDTRIP
360
1ABD
  0
DICTIONARY
  5
1AC2
330
19DE
100
AcDbDictionary
280
     1
281
     1
  3
ACAD_XREC_ROUNDTRIP
360
1AC3
  0
XRECORD
  5
1AA2
102
{ACAD_REACTORS
330
1AA1
102
}
330
1AA1
100
AcDbXrecord
280
     1
102
SHADEPLOT
 70
     0
102
SHADEPLOTRESLEVEL
 70
     2
102
SHADEPLOTCUSTOMDPI
 70
   300
  0
XRECORD
  5
1AA6
102
{ACAD_REACTORS
330
1AA5
102
}
330
1AA5
100
AcDbXrecord
280
     1
102
SHADEPLOT
 70
     0
102
SHADEPLOTRESLEVEL
 70
     2
102
SHADEPLOTCUSTOMDPI
 70
   300
  0
XRECORD
  5
1AA4
102
{ACAD_REACTORS
330
1AA3
102
}
330
1AA3
100
AcDbXrecord
280
     1
102
SHADEPLOT
 70
     0
102
SHADEPLOTRESLEVEL
 70
     2
102
SHADEPLOTCUSTOMDPI
 70
   300
  0
XRECORD
  5
1AA8
102
{ACAD_REACTORS
330
19C2
102
}
330
19C2
100
AcDbXrecord
280
     1
102
MATERIAL
148
0.0
149
0.0
149
0.0
 93
        0
 94
      127
282
     0
 72
     0
 77
     0
171
     0
175
     0
179
     0
273
     0
  0
XRECORD
  5
19C4
102
{ACAD_REACTORS
330
19C2
102
}
330
19C2
100
AcDbXrecord
280
     1
270
     1
271
     1
  0
XRECORD
  5
19C3
102
{ACAD_REACTORS
330
19C2
102
}
330
19C2
100
AcDbXrecord
280
     1
270
     1
271
     1
  0
XRECORD
  5
19C7
102
{ACAD_REACTORS
330
19C2
102
}
330
19C2
100
AcDbXrecord
280
     1
270
     1
271
     1
  0
XRECORD
  5
19C6
102
{ACAD_REACTORS
330
19C2
102
}
330
19C2
100
AcDbXrecord
280
     1
270
     1
271
     1
  0
XRECORD
  5
19C8
102
{ACAD_REACTORS
330
19C2
102
}
330
19C2
100
AcDbXrecord
280
     1
270
     1
271
     1
  0
XRECORD
  5
19C5
102
{ACAD_REACTORS
330
19C2
102
}
330
19C2
100
AcDbXrecord
280
     1
270
     1
271
     1
  0
XRECORD
  5
1AA7
102
{ACAD_REACTORS
330
19BA
102
}
330
19BA
100
AcDbXrecord
280
     1
102
MATERIAL
148
0.0
149
0.0
149
0.0
 93
        0
 94
      127
282
     0
 72
     0
 77
     0
171
     0
175
     0
179
     0
273
     0
  0
XRECORD
  5
19BC
102
{ACAD_REACTORS
330
19BA
102
}
330
19BA
100
AcDbXrecord
280
     1
270
     1
271
     1
  0
XRECORD
  5
19BB
102
{ACAD_REACTORS
330
19BA
102
}
330
19BA
100
AcDbXrecord
280
     1
270
     1
271
     1
  0
XRECORD
  5
19BF
102
{ACAD_REACTORS
330
19BA
102
}
330
19BA
100
AcDbXrecord
280
     1
270
     1
271
     1
  0
XRECORD
  5
19BE
102
{ACAD_REACTORS
330
19BA
102
}
330
19BA
100
AcDbXrecord
280
     1
270
     1
271
     1
  0
XRECORD
  5
19C0
102
{ACAD_REACTORS
330
19BA
102
}
330
19BA
100
AcDbXrecord
280
     1
270
     1
271
     1
  0
XRECORD
  5
19BD
102
{ACAD_REACTORS
330
19BA
102
}
330
19BA
100
AcDbXrecord
280
     1
270
     1
271
     1
  0
XRECORD
  5
1AA9
102
{ACAD_REACTORS
330
19CA
102
}
330
19CA
100
AcDbXrecord
280
     1
102
MATERIAL
148
0.0
149
0.0
149
0.0
 93
        0
 94
      127
282
     0
 72
     0
 77
     0
171
     0
175
     0
179
     0
273
     0
  0
XRECORD
  5
19CC
102
{ACAD_REACTORS
330
19CA
102
}
330
19CA
100
AcDbXrecord
280
     1
270
     1
271
     1
  0
XRECORD
  5
19CB
102
{ACAD_REACTORS
330
19CA
102
}
330
19CA
100
AcDbXrecord
280
     1
270
     1
271
     1
  0
XRECORD
  5
19CF
102
{ACAD_REACTORS
330
19CA
102
}
330
19CA
100
AcDbXrecord
280
     1
270
     1
271
     1
  0
XRECORD
  5
19CE
102
{ACAD_REACTORS
330
19CA
102
}
330
19CA
100
AcDbXrecord
280
     1
270
     1
271
     1
  0
XRECORD
  5
19D0
102
{ACAD_REACTORS
330
19CA
102
}
330
19CA
100
AcDbXrecord
280
     1
270
     1
271
     1
  0
XRECORD
  5
19CD
102
{ACAD_REACTORS
330
19CA
102
}
330
19CA
100
AcDbXrecord
280
     1
270
     1
271
     1
  0
CELLSTYLEMAP
  5
1A9E
102
{ACAD_REACTORS
330
1A9D
102
}
330
1A9D
100
AcDbCellStyleMap
 90
        3
300
CELLSTYLE
  1
TABLEFORMAT_BEGIN
 90
        5
170
     1
 91
        0
 92
    32768
 62
   257
 93
        1
300
CONTENTFORMAT
  1
CONTENTFORMAT_BEGIN
 90
        0
 91
        0
 92
      512
 93
        0
300

 40
0.0
140
1.0
 94
        5
 62
     0
340
11
144
6.0
309
CONTENTFORMAT_END
171
     1
301
MARGIN
  1
CELLMARGIN_BEGIN
 40
1.5
 40
1.5
 40
1.5
 40
1.5
 40
4.5
 40
4.5
309
CELLMARGIN_END
 94
        6
 95
        1
302
GRIDFORMAT
  1
GRIDFORMAT_BEGIN
 90
        0
 91
        1
 62
     0
 92
       -2
340
0
 93
        0
 40
1.125
309
GRIDFORMAT_END
 95
        2
302
GRIDFORMAT
  1
GRIDFORMAT_BEGIN
 90
        0
 91
        1
 62
     0
 92
       -2
340
0
 93
        0
 40
1.125
309
GRIDFORMAT_END
 95
        4
302
GRIDFORMAT
  1
GRIDFORMAT_BEGIN
 90
        0
 91
        1
 62
     0
 92
       -2
340
0
 93
        0
 40
1.125
309
GRIDFORMAT_END
 95
        8
302
GRIDFORMAT
  1
GRIDFORMAT_BEGIN
 90
        0
 91
        1
 62
     0
 92
       -2
340
0
 93
        0
 40
1.125
309
GRIDFORMAT_END
 95
       16
302
GRIDFORMAT
  1
GRIDFORMAT_BEGIN
 90
        0
 91
        1
 62
     0
 92
       -2
340
0
 93
        0
 40
1.125
309
GRIDFORMAT_END
 95
       32
302
GRIDFORMAT
  1
GRIDFORMAT_BEGIN
 90
        0
 91
        1
 62
     0
 92
       -2
340
0
 93
        0
 40
1.125
309
GRIDFORMAT_END
309
TABLEFORMAT_END
  1
CELLSTYLE_BEGIN
 90
        1
 91
        1
300
_TITLE
309
CELLSTYLE_END
300
CELLSTYLE
  1
TABLEFORMAT_BEGIN
 90
        5
170
     1
 91
        0
 92
        0
 62
   257
 93
        1
300
CONTENTFORMAT
  1
CONTENTFORMAT_BEGIN
 90
        0
 91
        0
 92
      512
 93
        0
300

 40
0.0
140
1.0
 94
        5
 62
     0
340
11
144
4.5
309
CONTENTFORMAT_END
171
     1
301
MARGIN
  1
CELLMARGIN_BEGIN
 40
1.5
 40
1.5
 40
1.5
 40
1.5
 40
4.5
 40
4.5
309
CELLMARGIN_END
 94
        6
 95
        1
302
GRIDFORMAT
  1
GRIDFORMAT_BEGIN
 90
        0
 91
        1
 62
     0
 92
       -2
340
0
 93
        0
 40
1.125
309
GRIDFORMAT_END
 95
        2
302
GRIDFORMAT
  1
GRIDFORMAT_BEGIN
 90
        0
 91
        1
 62
     0
 92
       -2
340
0
 93
        0
 40
1.125
309
GRIDFORMAT_END
 95
        4
302
GRIDFORMAT
  1
GRIDFORMAT_BEGIN
 90
        0
 91
        1
 62
     0
 92
       -2
340
0
 93
        0
 40
1.125
309
GRIDFORMAT_END
 95
        8
302
GRIDFORMAT
  1
GRIDFORMAT_BEGIN
 90
        0
 91
        1
 62
     0
 92
       -2
340
0
 93
        0
 40
1.125
309
GRIDFORMAT_END
 95
       16
302
GRIDFORMAT
  1
GRIDFORMAT_BEGIN
 90
        0
 91
        1
 62
     0
 92
       -2
340
0
 93
        0
 40
1.125
309
GRIDFORMAT_END
 95
       32
302
GRIDFORMAT
  1
GRIDFORMAT_BEGIN
 90
        0
 91
        1
 62
     0
 92
       -2
340
0
 93
        0
 40
1.125
309
GRIDFORMAT_END
309
TABLEFORMAT_END
  1
CELLSTYLE_BEGIN
 90
        2
 91
        1
300
_HEADER
309
CELLSTYLE_END
300
CELLSTYLE
  1
TABLEFORMAT_BEGIN
 90
        5
170
     1
 91
        0
 92
        0
 62
   257
 93
        1
300
CONTENTFORMAT
  1
CONTENTFORMAT_BEGIN
 90
        0
 91
        0
 92
      512
 93
        0
300

 40
0.0
140
1.0
 94
        2
 62
     0
340
11
144
4.5
309
CONTENTFORMAT_END
171
     1
301
MARGIN
  1
CELLMARGIN_BEGIN
 40
1.5
 40
1.5
 40
1.5
 40
1.5
 40
4.5
 40
4.5
309
CELLMARGIN_END
 94
        6
 95
        1
302
GRIDFORMAT
  1
GRIDFORMAT_BEGIN
 90
        0
 91
        1
 62
     0
 92
       -2
340
0
 93
        0
 40
1.125
309
GRIDFORMAT_END
 95
        2
302
GRIDFORMAT
  1
GRIDFORMAT_BEGIN
 90
        0
 91
        1
 62
     0
 92
       -2
340
0
 93
        0
 40
1.125
309
GRIDFORMAT_END
 95
        4
302
GRIDFORMAT
  1
GRIDFORMAT_BEGIN
 90
        0
 91
        1
 62
     0
 92
       -2
340
0
 93
        0
 40
1.125
309
GRIDFORMAT_END
 95
        8
302
GRIDFORMAT
  1
GRIDFORMAT_BEGIN
 90
        0
 91
        1
 62
     0
 92
       -2
340
0
 93
        0
 40
1.125
309
GRIDFORMAT_END
 95
       16
302
GRIDFORMAT
  1
GRIDFORMAT_BEGIN
 90
        0
 91
        1
 62
     0
 92
       -2
340
0
 93
        0
 40
1.125
309
GRIDFORMAT_END
 95
       32
302
GRIDFORMAT
  1
GRIDFORMAT_BEGIN
 90
        0
 91
        1
 62
     0
 92
       -2
340
0
 93
        0
 40
1.125
309
GRIDFORMAT_END
309
TABLEFORMAT_END
  1
CELLSTYLE_BEGIN
 90
        3
 91
        2
300
_DATA
309
CELLSTYLE_END
  0
XRECORD
  5
1AD0
102
{ACAD_REACTORS
330
1A9D
102
}
330
1A9D
100
AcDbXrecord
280
     1
102
ACAD_ROUNDTRIP_PRE2007_TABLESTYLE
 90
      512
 91
        0
  1

 92
      512
 93
        0
  2

 94
      512
 95
        0
  3

  0
XRECORD
  5
1AB5
102
{ACAD_REACTORS
330
1AB4
102
}
330
1AB4
100
AcDbXrecord
280
     1
102
RTVSPropertyOp0
 70
     1
102
RTVSPropertyOp1
 70
     1
102
RTVSPropertyOp2
 70
     1
102
RTVSPropertyOp3
 70
     1
102
RTVSPropertyOp4
 70
     1
102
RTVSPropertyOp5
 70
     1
102
RTVSPropertyOp6
 70
     1
102
RTVSPropertyOp7
 70
     1
102
RTVSPropertyOp8
 70
     1
102
RTVSPropertyOp9
 70
     1
102
RTVSPropertyOp10
 70
     1
102
RTVSPropertyOp11
 70
     1
102
RTVSPropertyOp12
 70
     1
102
RTVSPropertyOp13
 70
     1
102
RTVSPropertyOp14
 70
     1
102
RTVSPropertyOp15
 70
     1
102
RTVSPropertyOp16
 70
     1
102
RTVSPropertyOp17
 70
     1
102
RTVSPropertyOp18
 70
     1
102
RTVSPropertyOp19
 70
     1
102
RTVSPropertyOp20
 70
     1
102
RTVSPropertyOp21
 70
     1
102
RTVSPropertyOp22
 70
     1
102
RTVSPropertyOp23
 70
     1
102
RTVSPropertyOp24
 70
     1
102
RTVSPropertyOp25
 70
     1
102
RTVSPropertyOp26
 70
     1
102
RTVSPropertyOp27
 70
     1
  0
XRECORD
  5
1AB9
102
{ACAD_REACTORS
330
1AB8
102
}
330
1AB8
100
AcDbXrecord
280
     1
102
RTVSPropertyOp0
 70
     1
102
RTVSPropertyOp1
 70
     1
102
RTVSPropertyOp2
 70
     1
102
RTVSPropertyOp3
 70
     1
102
RTVSPropertyOp4
 70
     1
102
RTVSPropertyOp5
 70
     1
102
RTVSPropertyOp6
 70
     1
102
RTVSPropertyOp7
 70
     1
102
RTVSPropertyOp8
 70
     1
102
RTVSPropertyOp9
 70
     1
102
RTVSPropertyOp10
 70
     1
102
RTVSPropertyOp11
 70
     1
102
RTVSPropertyOp12
 70
     1
102
RTVSPropertyOp13
 70
     1
102
RTVSPropertyOp14
 70
     1
102
RTVSPropertyOp15
 70
     1
102
RTVSPropertyOp16
 70
     1
102
RTVSPropertyOp17
 70
     1
102
RTVSPropertyOp18
 70
     1
102
RTVSPropertyOp19
 70
     1
102
RTVSPropertyOp20
 70
     1
102
RTVSPropertyOp21
 70
     1
102
RTVSPropertyOp22
 70
     1
102
RTVSPropertyOp23
 70
     1
102
RTVSPropertyOp24
 70
     1
102
RTVSPropertyOp25
 70
     1
102
RTVSPropertyOp26
 70
     1
102
RTVSPropertyOp27
 70
     1
  0
XRECORD
  5
1AB7
102
{ACAD_REACTORS
330
1AB6
102
}
330
1AB6
100
AcDbXrecord
280
     1
102
RTVSPropertyOp0
 70
     1
102
RTVSPropertyOp1
 70
     1
102
RTVSPropertyOp2
 70
     1
102
RTVSPropertyOp3
 70
     1
102
RTVSPropertyOp4
 70
     1
102
RTVSPropertyOp5
 70
     1
102
RTVSPropertyOp6
 70
     1
102
RTVSPropertyOp7
 70
     1
102
RTVSPropertyOp8
 70
     1
102
RTVSPropertyOp9
 70
     1
102
RTVSPropertyOp10
 70
     1
102
RTVSPropertyOp11
 70
     1
102
RTVSPropertyOp12
 70
     1
102
RTVSPropertyOp13
 70
     1
102
RTVSPropertyOp14
 70
     1
102
RTVSPropertyOp15
 70
     1
102
RTVSPropertyOp16
 70
     1
102
RTVSPropertyOp17
 70
     1
102
RTVSPropertyOp18
 70
     1
102
RTVSPropertyOp19
 70
     1
102
RTVSPropertyOp20
 70
     1
102
RTVSPropertyOp21
 70
     1
102
RTVSPropertyOp22
 70
     1
102
RTVSPropertyOp23
 70
     1
102
RTVSPropertyOp24
 70
     1
102
RTVSPropertyOp25
 70
     1
102
RTVSPropertyOp26
 70
     1
102
RTVSPropertyOp27
 70
     1
  0
XRECORD
  5
1AB3
102
{ACAD_REACTORS
330
1AB2
102
}
330
1AB2
100
AcDbXrecord
280
     1
102
RTVSPropertyOp0
 70
     1
102
RTVSPropertyOp1
 70
     1
102
RTVSPropertyOp2
 70
     1
102
RTVSPropertyOp3
 70
     1
102
RTVSPropertyOp4
 70
     1
102
RTVSPropertyOp5
 70
     1
102
RTVSPropertyOp6
 70
     1
102
RTVSPropertyOp7
 70
     1
102
RTVSPropertyOp8
 70
     1
102
RTVSPropertyOp9
 70
     1
102
RTVSPropertyOp10
 70
     1
102
RTVSPropertyOp11
 70
     1
102
RTVSPropertyOp12
 70
     1
102
RTVSPropertyOp13
 70
     1
102
RTVSPropertyOp14
 70
     1
102
RTVSPropertyOp15
 70
     1
102
RTVSPropertyOp16
 70
     1
102
RTVSPropertyOp17
 70
     1
102
RTVSPropertyOp18
 70
     1
102
RTVSPropertyOp19
 70
     1
102
RTVSPropertyOp20
 70
     1
102
RTVSPropertyOp21
 70
     1
102
RTVSPropertyOp22
 70
     1
102
RTVSPropertyOp23
 70
     1
102
RTVSPropertyOp24
 70
     1
102
RTVSPropertyOp25
 70
     1
102
RTVSPropertyOp26
 70
     1
102
RTVSPropertyOp27
 70
     1
  0
XRECORD
  5
1AC1
102
{ACAD_REACTORS
330
1AC0
102
}
330
1AC0
100
AcDbXrecord
280
     1
102
RTVSPropertyOp0
 70
     1
102
RTVSPropertyOp1
 70
     1
102
RTVSPropertyOp2
 70
     1
102
RTVSPropertyOp3
 70
     1
102
RTVSPropertyOp4
 70
     1
102
RTVSPropertyOp5
 70
     1
102
RTVSPropertyOp6
 70
     1
102
RTVSPropertyOp7
 70
     1
102
RTVSPropertyOp8
 70
     1
102
RTVSPropertyOp9
 70
     1
102
RTVSPropertyOp10
 70
     1
102
RTVSPropertyOp11
 70
     1
102
RTVSPropertyOp12
 70
     1
102
RTVSPropertyOp13
 70
     1
102
RTVSPropertyOp14
 70
     1
102
RTVSPropertyOp15
 70
     1
102
RTVSPropertyOp16
 70
     1
102
RTVSPropertyOp17
 70
     1
102
RTVSPropertyOp18
 70
     1
102
RTVSPropertyOp19
 70
     1
102
RTVSPropertyOp20
 70
     1
102
RTVSPropertyOp21
 70
     1
102
RTVSPropertyOp22
 70
     1
102
RTVSPropertyOp23
 70
     1
102
RTVSPropertyOp24
 70
     1
102
RTVSPropertyOp25
 70
     1
102
RTVSPropertyOp26
 70
     1
102
RTVSPropertyOp27
 70
     1
  0
XRECORD
  5
1AC9
102
{ACAD_REACTORS
330
1AC8
102
}
330
1AC8
100
AcDbXrecord
280
     1
102
RTVSPropertyOp0
 70
     1
102
RTVSPropertyOp1
 70
     1
102
RTVSPropertyOp2
 70
     1
102
RTVSPropertyOp3
 70
     1
102
RTVSPropertyOp4
 70
     1
102
RTVSPropertyOp5
 70
     1
102
RTVSPropertyOp6
 70
     1
102
RTVSPropertyOp7
 70
     1
102
RTVSPropertyOp8
 70
     1
102
RTVSPropertyOp9
 70
     1
102
RTVSPropertyOp10
 70
     1
102
RTVSPropertyOp11
 70
     1
102
RTVSPropertyOp12
 70
     1
102
RTVSPropertyOp13
 70
     1
102
RTVSPropertyOp14
 70
     1
102
RTVSPropertyOp15
 70
     1
102
RTVSPropertyOp16
 70
     1
102
RTVSPropertyOp17
 70
     1
102
RTVSPropertyOp18
 70
     1
102
RTVSPropertyOp19
 70
     1
102
RTVSPropertyOp20
 70
     1
102
RTVSPropertyOp21
 70
     1
102
RTVSPropertyOp22
 70
     1
102
RTVSPropertyOp23
 70
     1
102
RTVSPropertyOp24
 70
     1
102
RTVSPropertyOp25
 70
     1
102
RTVSPropertyOp26
 70
     1
102
RTVSPropertyOp27
 70
     1
  0
XRECORD
  5
1ABB
102
{ACAD_REACTORS
330
1ABA
102
}
330
1ABA
100
AcDbXrecord
280
     1
102
RTVSPropertyOp0
 70
     1
102
RTVSPropertyOp1
 70
     1
102
RTVSPropertyOp2
 70
     1
102
RTVSPropertyOp3
 70
     1
102
RTVSPropertyOp4
 70
     1
102
RTVSPropertyOp5
 70
     1
102
RTVSPropertyOp6
 70
     1
102
RTVSPropertyOp7
 70
     1
102
RTVSPropertyOp8
 70
     1
102
RTVSPropertyOp9
 70
     1
102
RTVSPropertyOp10
 70
     1
102
RTVSPropertyOp11
 70
     1
102
RTVSPropertyOp12
 70
     1
102
RTVSPropertyOp13
 70
     1
102
RTVSPropertyOp14
 70
     1
102
RTVSPropertyOp15
 70
     1
102
RTVSPropertyOp16
 70
     1
102
RTVSPropertyOp17
 70
     1
102
RTVSPropertyOp18
 70
     1
102
RTVSPropertyOp19
 70
     1
102
RTVSPropertyOp20
 70
     1
102
RTVSPropertyOp21
 70
     1
102
RTVSPropertyOp22
 70
     1
102
RTVSPropertyOp23
 70
     1
102
RTVSPropertyOp24
 70
     1
102
RTVSPropertyOp25
 70
     1
102
RTVSPropertyOp26
 70
     1
102
RTVSPropertyOp27
 70
     1
  0
XRECORD
  5
1ABF
102
{ACAD_REACTORS
330
1ABE
102
}
330
1ABE
100
AcDbXrecord
280
     1
102
RTVSPropertyOp0
 70
     1
102
RTVSPropertyOp1
 70
     1
102
RTVSPropertyOp2
 70
     1
102
RTVSPropertyOp3
 70
     1
102
RTVSPropertyOp4
 70
     1
102
RTVSPropertyOp5
 70
     1
102
RTVSPropertyOp6
 70
     1
102
RTVSPropertyOp7
 70
     1
102
RTVSPropertyOp8
 70
     1
102
RTVSPropertyOp9
 70
     1
102
RTVSPropertyOp10
 70
     1
102
RTVSPropertyOp11
 70
     1
102
RTVSPropertyOp12
 70
     1
102
RTVSPropertyOp13
 70
     1
102
RTVSPropertyOp14
 70
     1
102
RTVSPropertyOp15
 70
     1
102
RTVSPropertyOp16
 70
     1
102
RTVSPropertyOp17
 70
     1
102
RTVSPropertyOp18
 70
     1
102
RTVSPropertyOp19
 70
     1
102
RTVSPropertyOp20
 70
     1
102
RTVSPropertyOp21
 70
     1
102
RTVSPropertyOp22
 70
     1
102
RTVSPropertyOp23
 70
     1
102
RTVSPropertyOp24
 70
     1
102
RTVSPropertyOp25
 70
     1
102
RTVSPropertyOp26
 70
     1
102
RTVSPropertyOp27
 70
     1
  0
XRECORD
  5
1ACF
102
{ACAD_REACTORS
330
1ACE
102
}
330
1ACE
100
AcDbXrecord
280
     1
102
RTVSPropertyOp0
 70
     0
102
RTVSPropertyOp1
 70
     0
102
RTVSPropertyOp2
 70
     0
102
RTVSPropertyOp3
 70
     0
102
RTVSPropertyOp4
 70
     0
102
RTVSPropertyOp5
 70
     0
102
RTVSPropertyOp6
 70
     0
102
RTVSPropertyOp7
 70
     0
102
RTVSPropertyOp8
 70
     0
102
RTVSPropertyOp9
 70
     0
102
RTVSPropertyOp10
 70
     0
102
RTVSPropertyOp11
 70
     0
102
RTVSPropertyOp12
 70
     0
102
RTVSPropertyOp13
 70
     0
102
RTVSPropertyOp14
 70
     2
102
RTVSPropertyOp15
 70
     0
102
RTVSPropertyOp16
 70
     0
102
RTVSPropertyOp17
 70
     0
102
RTVSPropertyOp18
 70
     0
102
RTVSPropertyOp19
 70
     0
102
RTVSPropertyOp20
 70
     0
102
RTVSPropertyOp21
 70
     0
102
RTVSPropertyOp22
 70
     0
102
RTVSPropertyOp23
 70
     0
102
RTVSPropertyOp24
 70
     0
102
RTVSPropertyOp25
 70
     0
102
RTVSPropertyOp26
 70
     0
102
RTVSPropertyOp27
 70
     0
  0
XRECORD
  5
1AC7
102
{ACAD_REACTORS
330
1AC6
102
}
330
1AC6
100
AcDbXrecord
280
     1
102
RTVSPropertyOp0
 70
     1
102
RTVSPropertyOp1
 70
     1
102
RTVSPropertyOp2
 70
     1
102
RTVSPropertyOp3
 70
     1
102
RTVSPropertyOp4
 70
     1
102
RTVSPropertyOp5
 70
     1
102
RTVSPropertyOp6
 70
     1
102
RTVSPropertyOp7
 70
     1
102
RTVSPropertyOp8
 70
     1
102
RTVSPropertyOp9
 70
     1
102
RTVSPropertyOp10
 70
     1
102
RTVSPropertyOp11
 70
     1
102
RTVSPropertyOp12
 70
     1
102
RTVSPropertyOp13
 70
     1
102
RTVSPropertyOp14
 70
     1
102
RTVSPropertyOp15
 70
     1
102
RTVSPropertyOp16
 70
     1
102
RTVSPropertyOp17
 70
     1
102
RTVSPropertyOp18
 70
     1
102
RTVSPropertyOp19
 70
     1
102
RTVSPropertyOp20
 70
     1
102
RTVSPropertyOp21
 70
     1
102
RTVSPropertyOp22
 70
     1
102
RTVSPropertyOp23
 70
     1
102
RTVSPropertyOp24
 70
     1
102
RTVSPropertyOp25
 70
     1
102
RTVSPropertyOp26
 70
     1
102
RTVSPropertyOp27
 70
     1
  0
XRECORD
  5
1AAB
102
{ACAD_REACTORS
330
1AAA
102
}
330
1AAA
100
AcDbXrecord
280
     1
102
RTVSPropertyOp0
 70
     1
102
RTVSPropertyOp1
 70
     1
102
RTVSPropertyOp2
 70
     1
102
RTVSPropertyOp3
 70
     1
102
RTVSPropertyOp4
 70
     1
102
RTVSPropertyOp5
 70
     1
102
RTVSPropertyOp6
 70
     1
102
RTVSPropertyOp7
 70
     1
102
RTVSPropertyOp8
 70
     1
102
RTVSPropertyOp9
 70
     1
102
RTVSPropertyOp10
 70
     1
102
RTVSPropertyOp11
 70
     1
102
RTVSPropertyOp12
 70
     1
102
RTVSPropertyOp13
 70
     1
102
RTVSPropertyOp14
 70
     1
102
RTVSPropertyOp15
 70
     1
102
RTVSPropertyOp16
 70
     1
102
RTVSPropertyOp17
 70
     1
102
RTVSPropertyOp18
 70
     1
102
RTVSPropertyOp19
 70
     1
102
RTVSPropertyOp20
 70
     1
102
RTVSPropertyOp21
 70
     1
102
RTVSPropertyOp22
 70
     1
102
RTVSPropertyOp23
 70
     1
102
RTVSPropertyOp24
 70
     1
102
RTVSPropertyOp25
 70
     1
102
RTVSPropertyOp26
 70
     1
102
RTVSPropertyOp27
 70
     1
  0
XRECORD
  5
1AAD
102
{ACAD_REACTORS
330
1AAC
102
}
330
1AAC
100
AcDbXrecord
280
     1
102
RTVSPropertyOp0
 70
     1
102
RTVSPropertyOp1
 70
     1
102
RTVSPropertyOp2
 70
     1
102
RTVSPropertyOp3
 70
     1
102
RTVSPropertyOp4
 70
     1
102
RTVSPropertyOp5
 70
     1
102
RTVSPropertyOp6
 70
     1
102
RTVSPropertyOp7
 70
     1
102
RTVSPropertyOp8
 70
     1
102
RTVSPropertyOp9
 70
     1
102
RTVSPropertyOp10
 70
     1
102
RTVSPropertyOp11
 70
     1
102
RTVSPropertyOp12
 70
     1
102
RTVSPropertyOp13
 70
     1
102
RTVSPropertyOp14
 70
     1
102
RTVSPropertyOp15
 70
     1
102
RTVSPropertyOp16
 70
     1
102
RTVSPropertyOp17
 70
     1
102
RTVSPropertyOp18
 70
     1
102
RTVSPropertyOp19
 70
     1
102
RTVSPropertyOp20
 70
     1
102
RTVSPropertyOp21
 70
     1
102
RTVSPropertyOp22
 70
     1
102
RTVSPropertyOp23
 70
     1
102
RTVSPropertyOp24
 70
     1
102
RTVSPropertyOp25
 70
     1
102
RTVSPropertyOp26
 70
     1
102
RTVSPropertyOp27
 70
     1
  0
XRECORD
  5
1AAF
102
{ACAD_REACTORS
330
1AAE
102
}
330
1AAE
100
AcDbXrecord
280
     1
102
RTVSPropertyOp0
 70
     1
102
RTVSPropertyOp1
 70
     1
102
RTVSPropertyOp2
 70
     1
102
RTVSPropertyOp3
 70
     1
102
RTVSPropertyOp4
 70
     1
102
RTVSPropertyOp5
 70
     1
102
RTVSPropertyOp6
 70
     1
102
RTVSPropertyOp7
 70
     1
102
RTVSPropertyOp8
 70
     1
102
RTVSPropertyOp9
 70
     1
102
RTVSPropertyOp10
 70
     1
102
RTVSPropertyOp11
 70
     1
102
RTVSPropertyOp12
 70
     1
102
RTVSPropertyOp13
 70
     1
102
RTVSPropertyOp14
 70
     1
102
RTVSPropertyOp15
 70
     1
102
RTVSPropertyOp16
 70
     1
102
RTVSPropertyOp17
 70
     1
102
RTVSPropertyOp18
 70
     1
102
RTVSPropertyOp19
 70
     1
102
RTVSPropertyOp20
 70
     1
102
RTVSPropertyOp21
 70
     1
102
RTVSPropertyOp22
 70
     1
102
RTVSPropertyOp23
 70
     1
102
RTVSPropertyOp24
 70
     1
102
RTVSPropertyOp25
 70
     1
102
RTVSPropertyOp26
 70
     1
102
RTVSPropertyOp27
 70
     1
  0
XRECORD
  5
1AB1
102
{ACAD_REACTORS
330
1AB0
102
}
330
1AB0
100
AcDbXrecord
280
     1
102
RTVSPropertyOp0
 70
     1
102
RTVSPropertyOp1
 70
     1
102
RTVSPropertyOp2
 70
     1
102
RTVSPropertyOp3
 70
     1
102
RTVSPropertyOp4
 70
     1
102
RTVSPropertyOp5
 70
     1
102
RTVSPropertyOp6
 70
     1
102
RTVSPropertyOp7
 70
     1
102
RTVSPropertyOp8
 70
     1
102
RTVSPropertyOp9
 70
     1
102
RTVSPropertyOp10
 70
     1
102
RTVSPropertyOp11
 70
     1
102
RTVSPropertyOp12
 70
     1
102
RTVSPropertyOp13
 70
     1
102
RTVSPropertyOp14
 70
     1
102
RTVSPropertyOp15
 70
     1
102
RTVSPropertyOp16
 70
     1
102
RTVSPropertyOp17
 70
     1
102
RTVSPropertyOp18
 70
     1
102
RTVSPropertyOp19
 70
     1
102
RTVSPropertyOp20
 70
     1
102
RTVSPropertyOp21
 70
     1
102
RTVSPropertyOp22
 70
     1
102
RTVSPropertyOp23
 70
     1
102
RTVSPropertyOp24
 70
     1
102
RTVSPropertyOp25
 70
     1
102
RTVSPropertyOp26
 70
     1
102
RTVSPropertyOp27
 70
     1
  0
XRECORD
  5
1ACB
102
{ACAD_REACTORS
330
1ACA
102
}
330
1ACA
100
AcDbXrecord
280
     1
102
RTVSPropertyOp0
 70
     0
102
RTVSPropertyOp1
 70
     0
102
RTVSPropertyOp2
 70
     0
102
RTVSPropertyOp3
 70
     0
102
RTVSPropertyOp4
 70
     0
102
RTVSPropertyOp5
 70
     0
102
RTVSPropertyOp6
 70
     0
102
RTVSPropertyOp7
 70
     0
102
RTVSPropertyOp8
 70
     0
102
RTVSPropertyOp9
 70
     0
102
RTVSPropertyOp10
 70
     0
102
RTVSPropertyOp11
 70
     0
102
RTVSPropertyOp12
 70
     0
102
RTVSPropertyOp13
 70
     0
102
RTVSPropertyOp14
 70
     2
102
RTVSPropertyOp15
 70
     0
102
RTVSPropertyOp16
 70
     0
102
RTVSPropertyOp17
 70
     0
102
RTVSPropertyOp18
 70
     0
102
RTVSPropertyOp19
 70
     0
102
RTVSPropertyOp20
 70
     0
102
RTVSPropertyOp21
 70
     0
102
RTVSPropertyOp22
 70
     0
102
RTVSPropertyOp23
 70
     0
102
RTVSPropertyOp24
 70
     0
102
RTVSPropertyOp25
 70
     0
102
RTVSPropertyOp26
 70
     0
102
RTVSPropertyOp27
 70
     0
  0
XRECORD
  5
1AC5
102
{ACAD_REACTORS
330
1AC4
102
}
330
1AC4
100
AcDbXrecord
280
     1
102
RTVSPropertyOp0
 70
     1
102
RTVSPropertyOp1
 70
     1
102
RTVSPropertyOp2
 70
     1
102
RTVSPropertyOp3
 70
     1
102
RTVSPropertyOp4
 70
     1
102
RTVSPropertyOp5
 70
     1
102
RTVSPropertyOp6
 70
     1
102
RTVSPropertyOp7
 70
     1
102
RTVSPropertyOp8
 70
     1
102
RTVSPropertyOp9
 70
     1
102
RTVSPropertyOp10
 70
     1
102
RTVSPropertyOp11
 70
     1
102
RTVSPropertyOp12
 70
     1
102
RTVSPropertyOp13
 70
     1
102
RTVSPropertyOp14
 70
     1
102
RTVSPropertyOp15
 70
     1
102
RTVSPropertyOp16
 70
     1
102
RTVSPropertyOp17
 70
     1
102
RTVSPropertyOp18
 70
     1
102
RTVSPropertyOp19
 70
     1
102
RTVSPropertyOp20
 70
     1
102
RTVSPropertyOp21
 70
     1
102
RTVSPropertyOp22
 70
     1
102
RTVSPropertyOp23
 70
     1
102
RTVSPropertyOp24
 70
     1
102
RTVSPropertyOp25
 70
     1
102
RTVSPropertyOp26
 70
     1
102
RTVSPropertyOp27
 70
     1
  0
XRECORD
  5
1ACD
102
{ACAD_REACTORS
330
1ACC
102
}
330
1ACC
100
AcDbXrecord
280
     1
102
RTVSPropertyOp0
 70
     0
102
RTVSPropertyOp1
 70
     0
102
RTVSPropertyOp2
 70
     0
102
RTVSPropertyOp3
 70
     0
102
RTVSPropertyOp4
 70
     0
102
RTVSPropertyOp5
 70
     0
102
RTVSPropertyOp6
 70
     0
102
RTVSPropertyOp7
 70
     0
102
RTVSPropertyOp8
 70
     0
102
RTVSPropertyOp9
 70
     0
102
RTVSPropertyOp10
 70
     0
102
RTVSPropertyOp11
 70
     0
102
RTVSPropertyOp12
 70
     0
102
RTVSPropertyOp13
 70
     0
102
RTVSPropertyOp14
 70
     2
102
RTVSPropertyOp15
 70
     0
102
RTVSPropertyOp16
 70
     0
102
RTVSPropertyOp17
 70
     0
102
RTVSPropertyOp18
 70
     0
102
RTVSPropertyOp19
 70
     0
102
RTVSPropertyOp20
 70
     0
102
RTVSPropertyOp21
 70
     0
102
RTVSPropertyOp22
 70
     0
102
RTVSPropertyOp23
 70
     0
102
RTVSPropertyOp24
 70
     0
102
RTVSPropertyOp25
 70
     0
102
RTVSPropertyOp26
 70
     0
102
RTVSPropertyOp27
 70
     0
  0
XRECORD
  5
1ABD
102
{ACAD_REACTORS
330
1ABC
102
}
330
1ABC
100
AcDbXrecord
280
     1
102
RTVSPropertyOp0
 70
     1
102
RTVSPropertyOp1
 70
     1
102
RTVSPropertyOp2
 70
     1
102
RTVSPropertyOp3
 70
     1
102
RTVSPropertyOp4
 70
     1
102
RTVSPropertyOp5
 70
     1
102
RTVSPropertyOp6
 70
     1
102
RTVSPropertyOp7
 70
     1
102
RTVSPropertyOp8
 70
     1
102
RTVSPropertyOp9
 70
     1
102
RTVSPropertyOp10
 70
     1
102
RTVSPropertyOp11
 70
     1
102
RTVSPropertyOp12
 70
     1
102
RTVSPropertyOp13
 70
     1
102
RTVSPropertyOp14
 70
     1
102
RTVSPropertyOp15
 70
     1
102
RTVSPropertyOp16
 70
     1
102
RTVSPropertyOp17
 70
     1
102
RTVSPropertyOp18
 70
     1
102
RTVSPropertyOp19
 70
     1
102
RTVSPropertyOp20
 70
     1
102
RTVSPropertyOp21
 70
     1
102
RTVSPropertyOp22
 70
     1
102
RTVSPropertyOp23
 70
     1
102
RTVSPropertyOp24
 70
     1
102
RTVSPropertyOp25
 70
     1
102
RTVSPropertyOp26
 70
     1
102
RTVSPropertyOp27
 70
     1
  0
XRECORD
  5
1AC3
102
{ACAD_REACTORS
330
1AC2
102
}
330
1AC2
100
AcDbXrecord
280
     1
102
RTVSPropertyOp0
 70
     1
102
RTVSPropertyOp1
 70
     1
102
RTVSPropertyOp2
 70
     1
102
RTVSPropertyOp3
 70
     1
102
RTVSPropertyOp4
 70
     1
102
RTVSPropertyOp5
 70
     1
102
RTVSPropertyOp6
 70
     1
102
RTVSPropertyOp7
 70
     1
102
RTVSPropertyOp8
 70
     1
102
RTVSPropertyOp9
 70
     1
102
RTVSPropertyOp10
 70
     1
102
RTVSPropertyOp11
 70
     1
102
RTVSPropertyOp12
 70
     1
102
RTVSPropertyOp13
 70
     1
102
RTVSPropertyOp14
 70
     1
102
RTVSPropertyOp15
 70
     1
102
RTVSPropertyOp16
 70
     1
102
RTVSPropertyOp17
 70
     1
102
RTVSPropertyOp18
 70
     1
102
RTVSPropertyOp19
 70
     1
102
RTVSPropertyOp20
 70
     1
102
RTVSPropertyOp21
 70
     1
102
RTVSPropertyOp22
 70
     1
102
RTVSPropertyOp23
 70
     1
102
RTVSPropertyOp24
 70
     1
102
RTVSPropertyOp25
 70
     1
102
RTVSPropertyOp26
 70
     1
102
RTVSPropertyOp27
 70
     1
  0
ENDSEC
  0
EOF
