  0
SECTION
  2
HEADER
  9
$ACADVER
  1
AC1015
  9
$ACADMAINTVER
 70
    20
  9
$DWGCODEPAGE
  3
ANSI_1252
  9
$INSBASE
 10
0.0
 20
0.0
 30
0.0
  9
$EXTMIN
 10
847.4116571814644
 20
667.6563294995039
 30
-0.0000000001555548
  9
$EXTMAX
 10
848.9826501719051
 20
669.5062920723509
 30
0.0000000001555548
  9
$LIMMIN
 10
0.0
 20
0.0
  9
$LIMMAX
 10
420.0
 20
297.0
  9
$ORTHOMODE
 70
     0
  9
$REGENMODE
 70
     1
  9
$FILLMODE
 70
     1
  9
$QTEXTMODE
 70
     0
  9
$MIRRTEXT
 70
     1
  9
$LTSCALE
 40
0.2
  9
$ATTMODE
 70
     1
  9
$TEXTSIZE
 40
2.5
  9
$TRACEWID
 40
1.0
  9
$TEXTSTYLE
  7
SANINDUSA
  9
$CLAYER
  8
cotas
  9
$CELTYPE
  6
ByLayer
  9
$CECOLOR
 62
   256
  9
$CELTSCALE
 40
1.0
  9
$DISPSILH
 70
     0
  9
$DIMSCALE
 40
1.0
  9
$DIMASZ
 40
2.0
  9
$DIMEXO
 40
1.0
  9
$DIMDLI
 40
1.0
  9
$DIMRND
 40
0.0
  9
$DIMDLE
 40
0.0
  9
$DIMEXE
 40
1.0
  9
$DIMTP
 40
0.0
  9
$DIMTM
 40
0.0
  9
$DIMTXT
 40
2.0
  9
$DIMCEN
 40
0.0
  9
$DIMTSZ
 40
0.0
  9
$DIMTOL
 70
     0
  9
$DIMLIM
 70
     0
  9
$DIMTIH
 70
     0
  9
$DIMTOH
 70
     0
  9
$DIMSE1
 70
     0
  9
$DIMSE2
 70
     0
  9
$DIMTAD
 70
     1
  9
$DIMZIN
 70
     8
  9
$DIMBLK
  1

  9
$DIMASO
 70
     1
  9
$DIMSHO
 70
     1
  9
$DIMPOST
  1

  9
$DIMAPOST
  1

  9
$DIMALT
 70
     0
  9
$DIMALTD
 70
     3
  9
$DIMALTF
 40
0.03937007874016
  9
$DIMLFAC
 40
1.0
  9
$DIMTOFL
 70
     1
  9
$DIMTVP
 40
0.0
  9
$DIMTIX
 70
     0
  9
$DIMSOXD
 70
     0
  9
$DIMSAH
 70
     0
  9
$DIMBLK1
  1

  9
$DIMBLK2
  1

  9
$DIMSTYLE
  2
SANINDUSA
  9
$DIMCLRD
 70
   256
  9
$DIMCLRE
 70
   256
  9
$DIMCLRT
 70
   256
  9
$DIMTFAC
 40
1.0
  9
$DIMGAP
 40
1.0
  9
$DIMJUST
 70
     0
  9
$DIMSD1
 70
     0
  9
$DIMSD2
 70
     0
  9
$DIMTOLJ
 70
     0
  9
$DIMTZIN
 70
     8
  9
$DIMALTZ
 70
     0
  9
$DIMALTTZ
 70
     0
  9
$DIMUPT
 70
     0
  9
$DIMDEC
 70
     1
  9
$DIMTDEC
 70
     1
  9
$DIMALTU
 70
     2
  9
$DIMALTTD
 70
     3
  9
$DIMTXSTY
  7
SANINDUSA
  9
$DIMAUNIT
 70
     0
  9
$DIMADEC
 70
     1
  9
$DIMALTRND
 40
0.0
  9
$DIMAZIN
 70
     0
  9
$DIMDSEP
 70
    44
  9
$DIMATFIT
 70
     3
  9
$DIMFRAC
 70
     0
  9
$DIMLDRBLK
  1

  9
$DIMLUNIT
 70
     2
  9
$DIMLWD
 70
    -1
  9
$DIMLWE
 70
    -1
  9
$DIMTMOVE
 70
     0
  9
$LUNITS
 70
     2
  9
$LUPREC
 70
     4
  9
$SKETCHINC
 40
1.0
  9
$FILLETRAD
 40
0.0
  9
$AUNITS
 70
     0
  9
$AUPREC
 70
     0
  9
$MENU
  1
.
  9
$ELEVATION
 40
0.0
  9
$PELEVATION
 40
0.0
  9
$THICKNESS
 40
0.0
  9
$LIMCHECK
 70
     0
  9
$CHAMFERA
 40
10.0
  9
$CHAMFERB
 40
10.0
  9
$CHAMFERC
 40
20.0
  9
$CHAMFERD
 40
0.0
  9
$SKPOLY
 70
     0
  9
$TDCREATE
 40
2453319.701859086
  9
$TDUCREATE
 40
2453319.660192419
  9
$TDUPDATE
 40
2455819.753723774
  9
$TDUUPDATE
 40
2455819.712057107
  9
$TDINDWG
 40
0.0180457870
  9
$TDUSRTIMER
 40
0.0180457870
  9
$USRTIMER
 70
     1
  9
$ANGBASE
 50
0.0
  9
$ANGDIR
 70
     0
  9
$PDMODE
 70
     0
  9
$PDSIZE
 40
0.0
  9
$PLINEWID
 40
0.0
  9
$SPLFRAME
 70
     0
  9
$SPLINETYPE
 70
     6
  9
$SPLINESEGS
 70
     8
  9
$HANDSEED
  5
16FA
  9
$SURFTAB1
 70
     6
  9
$SURFTAB2
 70
     6
  9
$SURFTYPE
 70
     6
  9
$SURFU
 70
     6
  9
$SURFV
 70
     6
  9
$UCSBASE
  2

  9
$UCSNAME
  2

  9
$UCSORG
 10
0.0
 20
0.0
 30
0.0
  9
$UCSXDIR
 10
1.0
 20
0.0
 30
0.0
  9
$UCSYDIR
 10
0.0
 20
1.0
 30
0.0
  9
$UCSORTHOREF
  2

  9
$UCSORTHOVIEW
 70
     0
  9
$UCSORGTOP
 10
0.0
 20
0.0
 30
0.0
  9
$UCSORGBOTTOM
 10
0.0
 20
0.0
 30
0.0
  9
$UCSORGLEFT
 10
0.0
 20
0.0
 30
0.0
  9
$UCSORGRIGHT
 10
0.0
 20
0.0
 30
0.0
  9
$UCSORGFRONT
 10
0.0
 20
0.0
 30
0.0
  9
$UCSORGBACK
 10
0.0
 20
0.0
 30
0.0
  9
$PUCSBASE
  2

  9
$PUCSNAME
  2

  9
$PUCSORG
 10
0.0
 20
0.0
 30
0.0
  9
$PUCSXDIR
 10
1.0
 20
0.0
 30
0.0
  9
$PUCSYDIR
 10
0.0
 20
1.0
 30
0.0
  9
$PUCSORTHOREF
  2

  9
$PUCSORTHOVIEW
 70
     0
  9
$PUCSORGTOP
 10
0.0
 20
0.0
 30
0.0
  9
$PUCSORGBOTTOM
 10
0.0
 20
0.0
 30
0.0
  9
$PUCSORGLEFT
 10
0.0
 20
0.0
 30
0.0
  9
$PUCSORGRIGHT
 10
0.0
 20
0.0
 30
0.0
  9
$PUCSORGFRONT
 10
0.0
 20
0.0
 30
0.0
  9
$PUCSORGBACK
 10
0.0
 20
0.0
 30
0.0
  9
$USERI1
 70
     0
  9
$USERI2
 70
     0
  9
$USERI3
 70
     0
  9
$USERI4
 70
     0
  9
$USERI5
 70
     0
  9
$USERR1
 40
0.0
  9
$USERR2
 40
0.0
  9
$USERR3
 40
0.0
  9
$USERR4
 40
0.0
  9
$USERR5
 40
0.0
  9
$WORLDVIEW
 70
     1
  9
$SHADEDGE
 70
     3
  9
$SHADEDIF
 70
    70
  9
$TILEMODE
 70
     1
  9
$MAXACTVP
 70
    64
  9
$PINSBASE
 10
0.0
 20
0.0
 30
0.0
  9
$PLIMCHECK
 70
     0
  9
$PEXTMIN
 10
1.000000000000000E+20
 20
1.000000000000000E+20
 30
1.000000000000000E+20
  9
$PEXTMAX
 10
-1.000000000000000E+20
 20
-1.000000000000000E+20
 30
-1.000000000000000E+20
  9
$PLIMMIN
 10
0.0
 20
0.0
  9
$PLIMMAX
 10
420.0
 20
297.0
  9
$UNITMODE
 70
     0
  9
$VISRETAIN
 70
     1
  9
$PLINEGEN
 70
     0
  9
$PSLTSCALE
 70
     1
  9
$TREEDEPTH
 70
  3020
  9
$CMLSTYLE
  2
Standard
  9
$CMLJUST
 70
     0
  9
$CMLSCALE
 40
20.0
  9
$PROXYGRAPHICS
 70
     1
  9
$MEASUREMENT
 70
     1
  9
$CELWEIGHT
370
    -1
  9
$ENDCAPS
280
     0
  9
$JOINSTYLE
280
     0
  9
$LWDISPLAY
290
     0
  9
$INSUNITS
 70
     4
  9
$HYPERLINKBASE
  1

  9
$STYLESHEET
  1
monochrome.ctb
  9
$XEDIT
290
     1
  9
$CEPSNTYPE
380
     0
  9
$PSTYLEMODE
290
     1
  9
$FINGERPRINTGUID
  2
{B98A73AA-52AA-4C10-B469-C0E7150AC31F}
  9
$VERSIONGUID
  2
{D25D3ED4-3989-4115-9DD7-ECFEEAE1DA25}
  9
$EXTNAMES
290
     1
  9
$PSVPSCALE
 40
0.0
  9
$OLESTARTUP
290
     0
  0
ENDSEC
  0
SECTION
  2
CLASSES
  0
CLASS
  1
ACDBDICTIONARYWDFLT
  2
AcDbDictionaryWithDefault
  3
ObjectDBX Classes
 90
        0
280
     0
281
     0
  0
CLASS
  1
ACDBPLACEHOLDER
  2
AcDbPlaceHolder
  3
ObjectDBX Classes
 90
        0
280
     0
281
     0
  0
CLASS
  1
LAYOUT
  2
AcDbLayout
  3
ObjectDBX Classes
 90
        0
280
     0
281
     0
  0
CLASS
  1
DICTIONARYVAR
  2
AcDbDictionaryVar
  3
ObjectDBX Classes
 90
        0
280
     0
281
     0
  0
CLASS
  1
DIMASSOC
  2
AcDbDimAssoc
  3
"AcDbDimAssoc|Product Desc:     AcDim ARX App For Dimension|Company:          Autodesk, Inc.|WEB Address:      www.autodesk.com"
 90
        0
280
     0
281
     0
  0
CLASS
  1
MATERIAL
  2
AcDbMaterial
  3
ObjectDBX Classes
 90
     1153
280
     0
281
     0
  0
CLASS
  1
VISUALSTYLE
  2
AcDbVisualStyle
  3
ObjectDBX Classes
 90
     4095
280
     0
281
     0
  0
CLASS
  1
TABLESTYLE
  2
AcDbTableStyle
  3
ObjectDBX Classes
 90
     4095
280
     0
281
     0
  0
CLASS
  1
SCALE
  2
AcDbScale
  3
ObjectDBX Classes
 90
     1153
280
     0
281
     0
  0
CLASS
  1
MLEADERSTYLE
  2
AcDbMLeaderStyle
  3
ACDB_MLEADERSTYLE_CLASS
 90
     4095
280
     0
281
     0
  0
CLASS
  1
CELLSTYLEMAP
  2
AcDbCellStyleMap
  3
ObjectDBX Classes
 90
     1152
280
     0
281
     0
  0
ENDSEC
  0
SECTION
  2
TABLES
  0
TABLE
  2
VPORT
  5
8
330
0
100
AcDbSymbolTable
 70
     1
  0
VPORT
  5
15F6
330
8
100
AcDbSymbolTableRecord
100
AcDbViewportTableRecord
  2
*Active
 70
     0
 10
0.0
 20
0.0
 11
1.0
 21
1.0
 12
848.1971536766847
 22
668.5813107859273
 13
0.0
 23
0.0
 14
10.0
 24
10.0
 15
10.0
 25
10.0
 16
0.0
 26
0.0
 36
1.0
 17
0.0
 27
0.0
 37
0.0
 40
1.861524838927266
 41
1.645464025026068
 42
50.0
 43
0.0
 44
0.0
 50
0.0
 51
0.0
 71
     0
 72
   100
 73
     1
 74
     2
 75
     0
 76
     0
 77
     0
 78
     0
281
     0
 65
     1
110
0.0
120
0.0
130
0.0
111
1.0
121
0.0
131
0.0
112
0.0
122
1.0
132
0.0
 79
     0
146
0.0
  0
ENDTAB
  0
TABLE
  2
LTYPE
  5
5
330
0
100
AcDbSymbolTable
 70
     4
  0
LTYPE
  5
14
330
5
100
AcDbSymbolTableRecord
100
AcDbLinetypeTableRecord
  2
ByBlock
 70
     0
  3

 72
    65
 73
     0
 40
0.0
  0
LTYPE
  5
15
330
5
100
AcDbSymbolTableRecord
100
AcDbLinetypeTableRecord
  2
ByLayer
 70
     0
  3

 72
    65
 73
     0
 40
0.0
  0
LTYPE
  5
16
330
5
100
AcDbSymbolTableRecord
100
AcDbLinetypeTableRecord
  2
Continuous
 70
     0
  3
Solid line
 72
    65
 73
     0
 40
0.0
  0
LTYPE
  5
2D
330
5
100
AcDbSymbolTableRecord
100
AcDbLinetypeTableRecord
  2
DASHDOT
 70
     0
  3
Dash dot __ . __ . __ . __ . __ . __ . __ . __
 72
    65
 73
     4
 40
25.4
 49
12.7
 74
     0
 49
-6.349999999999999
 74
     0
 49
0.0
 74
     0
 49
-6.349999999999999
 74
     0
  0
LTYPE
  5
2E
330
5
100
AcDbSymbolTableRecord
100
AcDbLinetypeTableRecord
  2
HIDDEN
 70
     0
  3
Hidden __ __ __ __ __ __ __ __ __ __ __ __ __ _
 72
    65
 73
     2
 40
9.524999999999998
 49
6.349999999999999
 74
     0
 49
-3.174999999999999
 74
     0
  0
LTYPE
  5
C2E
330
5
100
AcDbSymbolTableRecord
100
AcDbLinetypeTableRecord
  2
CENTER
 70
     0
  3
____ _ ____ _ ____ _ ____ _ ____ _ ____ _ ____ 
 72
    65
 73
     4
 40
2.0
 49
1.25
 74
     0
 49
-0.25
 74
     0
 49
0.25
 74
     0
 49
-0.25
 74
     0
  0
ENDTAB
  0
TABLE
  2
LAYER
  5
2
330
0
100
AcDbSymbolTable
 70
    17
  0
LAYER
  5
10
102
{ACAD_XDICTIONARY
360
1662
102
}
330
2
100
AcDbSymbolTableRecord
100
AcDbLayerTableRecord
  2
0
 70
     0
 62
     7
  6
Continuous
370
    -3
390
F
  0
LAYER
  5
2F
102
{ACAD_XDICTIONARY
360
1664
102
}
330
2
100
AcDbSymbolTableRecord
100
AcDbLayerTableRecord
  2
1
 70
     0
 62
     1
  6
Continuous
370
    -3
390
F
  0
LAYER
  5
30
102
{ACAD_XDICTIONARY
360
1666
102
}
330
2
100
AcDbSymbolTableRecord
100
AcDbLayerTableRecord
  2
2
 70
     0
 62
     2
  6
Continuous
370
    -3
390
F
  0
LAYER
  5
31
102
{ACAD_XDICTIONARY
360
1668
102
}
330
2
100
AcDbSymbolTableRecord
100
AcDbLayerTableRecord
  2
3
 70
     0
 62
     3
  6
Continuous
370
    -3
390
F
  0
LAYER
  5
32
102
{ACAD_XDICTIONARY
360
166A
102
}
330
2
100
AcDbSymbolTableRecord
100
AcDbLayerTableRecord
  2
4
 70
     0
 62
     4
  6
Continuous
370
    -3
390
F
  0
LAYER
  5
33
102
{ACAD_XDICTIONARY
360
166C
102
}
330
2
100
AcDbSymbolTableRecord
100
AcDbLayerTableRecord
  2
5
 70
     0
 62
     5
  6
Continuous
370
    -3
390
F
  0
LAYER
  5
34
102
{ACAD_XDICTIONARY
360
166E
102
}
330
2
100
AcDbSymbolTableRecord
100
AcDbLayerTableRecord
  2
6
 70
     0
 62
     6
  6
Continuous
370
    -3
390
F
  0
LAYER
  5
35
102
{ACAD_XDICTIONARY
360
1670
102
}
330
2
100
AcDbSymbolTableRecord
100
AcDbLayerTableRecord
  2
7
 70
     0
 62
     7
  6
Continuous
370
    -3
390
F
  0
LAYER
  5
36
102
{ACAD_XDICTIONARY
360
1672
102
}
330
2
100
AcDbSymbolTableRecord
100
AcDbLayerTableRecord
  2
cen
 70
     0
 62
     7
  6
DASHDOT
370
    -3
390
F
  0
LAYER
  5
37
102
{ACAD_XDICTIONARY
360
1674
102
}
330
2
100
AcDbSymbolTableRecord
100
AcDbLayerTableRecord
  2
hid
 70
     0
 62
     7
  6
HIDDEN
370
    -3
390
F
  0
LAYER
  5
5D6
102
{ACAD_XDICTIONARY
360
1676
102
}
330
2
100
AcDbSymbolTableRecord
100
AcDbLayerTableRecord
  2
hatch
 70
     0
 62
     9
  6
Continuous
370
    -3
390
F
  0
LAYER
  5
8AF
102
{ACAD_XDICTIONARY
360
1678
102
}
330
2
100
AcDbSymbolTableRecord
100
AcDbLayerTableRecord
  2
9
 70
     0
 62
     9
  6
Continuous
370
    -3
390
F
  0
LAYER
  5
8F8
102
{ACAD_XDICTIONARY
360
167A
102
}
330
2
100
AcDbSymbolTableRecord
100
AcDbLayerTableRecord
  2
leg fin
 70
     0
 62
     9
  6
Continuous
370
    -3
390
F
  0
LAYER
  5
91D
102
{ACAD_XDICTIONARY
360
167C
102
}
330
2
100
AcDbSymbolTableRecord
100
AcDbLayerTableRecord
  2
cotas
 70
     0
 62
     1
  6
Continuous
370
    -3
390
F
  0
LAYER
  5
92F
330
2
100
AcDbSymbolTableRecord
100
AcDbLayerTableRecord
  2
Defpoints
 70
     0
 62
     7
  6
Continuous
290
     0
370
    -3
390
F
  0
LAYER
  5
C2F
102
{ACAD_XDICTIONARY
360
167E
102
}
330
2
100
AcDbSymbolTableRecord
100
AcDbLayerTableRecord
  2
quote
 70
     0
 62
     7
  6
Continuous
370
    18
390
F
  0
LAYER
  5
1661
102
{ACAD_XDICTIONARY
360
1680
102
}
330
2
100
AcDbSymbolTableRecord
100
AcDbLayerTableRecord
  2
SANINDUSA
 70
     0
 62
     3
  6
Continuous
370
    -3
390
F
  0
ENDTAB
  0
TABLE
  2
STYLE
  5
3
330
0
100
AcDbSymbolTable
 70
     3
  0
STYLE
  5
11
330
3
100
AcDbSymbolTableRecord
100
AcDbTextStyleTableRecord
  2
Standard
 70
     0
 40
0.0
 41
1.0
 50
0.0
 71
     0
 42
2.5
  3
Avgardn.ttf
  4

1001
ACAD
1000
AvantGarde Bk BT
1071
       34
  0
STYLE
  5
2C
330
3
100
AcDbSymbolTableRecord
100
AcDbTextStyleTableRecord
  2

 70
     1
 40
0.0
 41
1.0
 50
0.0
 71
     0
 42
2.5
  3
ltypeshp.shx
  4

  0
STYLE
  5
91F
330
3
100
AcDbSymbolTableRecord
100
AcDbTextStyleTableRecord
  2
SANINDUSA
 70
     0
 40
0.0
 41
1.0
 50
0.0
 71
     0
 42
2.5
  3
verdana.TTF
  4

1001
ACAD
1000
Verdana
1071
       34
  0
ENDTAB
  0
TABLE
  2
VIEW
  5
6
330
0
100
AcDbSymbolTable
 70
     0
  0
ENDTAB
  0
TABLE
  2
UCS
  5
7
330
0
100
AcDbSymbolTable
 70
     0
  0
ENDTAB
  0
TABLE
  2
APPID
  5
9
330
0
100
AcDbSymbolTable
 70
     6
  0
APPID
  5
12
330
9
100
AcDbSymbolTableRecord
100
AcDbRegAppTableRecord
  2
ACAD
 70
     0
  0
APPID
  5
3A
330
9
100
AcDbSymbolTableRecord
100
AcDbRegAppTableRecord
  2
DCO15
 70
     0
  0
APPID
  5
C31
330
9
100
AcDbSymbolTableRecord
100
AcDbRegAppTableRecord
  2
GENIUS_GENREC_14
 70
     0
  0
APPID
  5
C32
330
9
100
AcDbSymbolTableRecord
100
AcDbRegAppTableRecord
  2
GENIUS_GENODEF_13
 70
     0
  0
APPID
  5
C33
330
9
100
AcDbSymbolTableRecord
100
AcDbRegAppTableRecord
  2
GENIUS_GENOBJ-N-REC_13
 70
     0
  0
APPID
  5
16F9
330
9
100
AcDbSymbolTableRecord
100
AcDbRegAppTableRecord
  2
ACAD_MLEADERVER
 70
     0
  0
ENDTAB
  0
TABLE
  2
DIMSTYLE
  5
A
330
0
100
AcDbSymbolTable
 70
     3
100
AcDbDimStyleTable
 71
     1
340
921
  0
DIMSTYLE
105
45
330
A
100
AcDbSymbolTableRecord
100
AcDbDimStyleTableRecord
  2
STANDARD
 70
     0
289
     0
340
11
  0
DIMSTYLE
105
921
330
A
100
AcDbSymbolTableRecord
100
AcDbDimStyleTableRecord
  2
SANINDUSA
 70
     0
 41
2.0
 42
1.0
 43
1.0
 44
1.0
 73
     0
 74
     0
 77
     1
 78
     8
140
2.0
141
0.0
143
0.03937007874016
147
1.0
171
     3
172
     1
176
   256
177
   256
178
   256
179
     1
271
     1
272
     1
274
     3
278
    44
283
     0
284
     8
340
91F
371
    -1
372
    -1
  0
DIMSTYLE
105
C30
330
A
100
AcDbSymbolTableRecord
100
AcDbDimStyleTableRecord
  2
ISO-25
 70
     0
 40
5.0
 41
2.5
 42
0.625
 43
3.75
 44
1.25
 73
     0
 74
     0
 77
     1
 78
     8
140
2.5
141
2.5
143
0.03937007874016
147
0.625
171
     3
172
     1
271
     0
272
     0
274
     3
278
    44
283
     0
284
     8
340
11
  0
ENDTAB
  0
TABLE
  2
BLOCK_RECORD
  5
1
330
0
100
AcDbSymbolTable
 70
    18
  0
BLOCK_RECORD
  5
1F
330
1
100
AcDbSymbolTableRecord
100
AcDbBlockTableRecord
  2
*Model_Space
340
22
  0
BLOCK_RECORD
  5
1B
330
1
100
AcDbSymbolTableRecord
100
AcDbBlockTableRecord
  2
*Paper_Space
340
1E
  0
BLOCK_RECORD
  5
23
330
1
100
AcDbSymbolTableRecord
100
AcDbBlockTableRecord
  2
*Paper_Space0
340
26
  0
BLOCK_RECORD
  5
919
330
1
100
AcDbSymbolTableRecord
100
AcDbBlockTableRecord
  2
_DotSmall
340
0
  0
BLOCK_RECORD
  5
922
330
1
100
AcDbSymbolTableRecord
100
AcDbBlockTableRecord
  2
base para cotas
340
0
310
2800000020000000200000000100080000000000000400000000000000000000000000000000000000000000000080000080000000808000800000008000800080800000C0C0C000C0DCC000F0CAA6000020400000206000002080000020A0000020C0000020E00000400000004020000040400000406000004080000040A0
310
000040C0000040E00000600000006020000060400000606000006080000060A0000060C0000060E00000800000008020000080400000806000008080000080A0000080C0000080E00000A0000000A0200000A0400000A0600000A0800000A0A00000A0C00000A0E00000C0000000C0200000C0400000C0600000C0800000C0
310
A00000C0C00000C0E00000E0000000E0200000E0400000E0600000E0800000E0A00000E0C00000E0E00040000000400020004000400040006000400080004000A0004000C0004000E00040200000402020004020400040206000402080004020A0004020C0004020E000404000004040200040404000404060004040800040
310
40A0004040C0004040E00040600000406020004060400040606000406080004060A0004060C0004060E00040800000408020004080400040806000408080004080A0004080C0004080E00040A0000040A0200040A0400040A0600040A0800040A0A00040A0C00040A0E00040C0000040C0200040C0400040C0600040C08000
310
40C0A00040C0C00040C0E00040E0000040E0200040E0400040E0600040E0800040E0A00040E0C00040E0E00080000000800020008000400080006000800080008000A0008000C0008000E00080200000802020008020400080206000802080008020A0008020C0008020E00080400000804020008040400080406000804080
310
008040A0008040C0008040E00080600000806020008060400080606000806080008060A0008060C0008060E00080800000808020008080400080806000808080008080A0008080C0008080E00080A0000080A0200080A0400080A0600080A0800080A0A00080A0C00080A0E00080C0000080C0200080C0400080C0600080C0
310
800080C0A00080C0C00080C0E00080E0000080E0200080E0400080E0600080E0800080E0A00080E0C00080E0E000C0000000C0002000C0004000C0006000C0008000C000A000C000C000C000E000C0200000C0202000C0204000C0206000C0208000C020A000C020C000C020E000C0400000C0402000C0404000C0406000C0
310
408000C040A000C040C000C040E000C0600000C0602000C0604000C0606000C0608000C060A000C060C000C060E000C0800000C0802000C0804000C0806000C0808000C080A000C080C000C080E000C0A00000C0A02000C0A04000C0A06000C0A08000C0A0A000C0A0C000C0A0E000C0C00000C0C02000C0C04000C0C06000
310
C0C08000C0C0A000F0FBFF00A4A0A000808080000000FF0000FF000000FFFF00FF000000FF00FF00FFFF0000FFFFFF00A4A4A4A4A4A4A4A4A4A4A4A4A4A4A4A4A4A4A4A4A4A4A4A4A4A4A4A4A4A4A4A4A4A4A4A4A4A4A4A4A4A4A4A4A4A4A4A4A4A4A4A4A4A4A4A4A4A4A4A4A4A4A4A4A4A4A4A4A4A4A4A4A4A4A4A4A4A4A4
310
A4A4A4A4A4A4A4A4A4A4A4A4A4A4A4A4A4A4A4A4A4A4A4A4A4A4A4A4A4A4A4A4A4A4A4A4A4A4A4A4A4A4A4A4A4A4A4A4A4A4A4A4A4A4A4A4A4A4A4A4A4A4A4A4A4A4A4A4A4A4A4A4A4A4A4A4A4A4A4A4A4A4A4A4A4A4A4A4A4A4A4A4A4A4A4A4A4A4A4A4A4A4A4A4A4A4A4A4A4A4A4A4A4A4A4A4A4A4A4A4A4A4A4A4A4A4A4
310
A4A4A4A4A4A4A4A4A4A4A4A4A4A4A4A4A4A4A4A4A4A4A4A4A4A4A4A4A4A4A4A4A4A4A4A4A4A4A4A4A4A4A4A4A4A4A4A4A4A4A4A4A4A4A4A4A4A4A4A4A4A4A4A4A4A4A4A4A4A4A4A4A4A4A4A4A4A4A4A4A4A4A4A4A4A4A4A4A4A4A4A4A4A4A4A4A4A4A4A4A4A4A4A4A4A4A4A4A4A4A4A4A4A4A4A4A4A4A4A4A4A4A4A4A4A4A4
310
A4A4A4A4A4A4A4A4A4A4A4A4A4A4A4A4A4A4A4A4A4A4A4A4A4A4A4A4A4A4A4A4A4A4A4A4A4A4A4A4A4A4A4A4A4A4A4A4A4A4A4A4A4A4A4A4A4A4A4A4A4A4A4A4A4A4A4A4A4A4A4A4A4A4A4A4A4A4A4A4A4A4A4A4A4A4A4A4A4A4A4A4A4A4A4A4A4A4A4A4A4A4A4A4A4A4A4A4A4A4A4A4A4A4A4A4F9F9F9F9F9F9F9F9F9F9F9
310
F9F9F9F9F9F9F9F9F9F9F9F9F9F9F9F9F9F9F9A4A4F9F9F9F9F9F9F9F9F9F9F9F9F9F9F9F9F9F9F9F9F9F9F9F9F9F9F9F9F9F9A4A4F9F9F9F9F9F9F9F9F9F9F9F9F9F9F9F9F9F9F9F9F9F9F9F9F9F9F9F9F9F9A4A4F9A4A4A4A4A4A4A4A4A4A4A4A4A4A4A4A4A4A4A4A4A4A4A4A4A4A4A4A4F9A4A4A4A4A4A4A4A4A4A4A4A4
310
A4A4A4A4A4A4A4A4A4A4A4A4A4A4A4A4A4A4A4A4A4A4A4A4A4A4A4A4A4A4A4A4A4A4A4A4A4A4A4A4A4A4A4A4A4A4A4A4A4A4A4A4A4A4A4A4A4A4A4A4A4A4A4A4A4A4A4A4A4A4A4A4A4A4A4A4A4A4A4A4A4A4A4A4A4A4A4A4A4A4A4A4A4A4A4A4A4A4A4A4A4A4A4A4A4A4A4A4A4A4A4A4A4A4A4A4A4A4A4A4A4A4A4A4A4A4A4
310
A4A4A4A4A4A4A4A4A4A4A4A4A4A4A4A4A4A4A4A4A4A4A4A4A4A4A4A4A4A4A4A4A4A4A4A4A4A4A4A4A4A4A4A4A4A4A4A4A4A4A4A4A4A4A4A4A4A4A4A4A4A4A4A4A4A4A4A4A4A4A4A4A4A4A4A4A4A4A4A4A4A4A4A4A4A4A4A4A4A4A4A4A4A4A4A4A4A4A4A4A4A4A4A4A4A4A4A4A4A4A4A4A4A4A4A4A4A4A4A4A4A4A4A4A4A4A4
310
A4A4A4A4A4A4A4A4A4A4A4A4A4A4A4A4A4A4A4A4A4A4A4A4A4A4A4A4A4A4A4A4A4A4A4A4A4A4A4A4A4A4A4A4A4A4A4A4A4A4A4A4A4A4A4A4A4A4A4A4A4A4A4A4A4A4A4A4A4A4A4A4A4A4A4A4A4A4A4A4A4A4A4A4A4A4A4A4A4A4A4A4A4A4A4A4A4A4A4A4A4A4A4A4A4A4A4A4A4A4A4A4A4A4A4A4A4A4A4A4A4A4A4A4A4A4A4
310
A4A4A4A4A4A4A4A4A4A4A4A4A4A4A4A4A4A4A4A4A4A4A4A4A4A4A4A4A4A4A4A4A4A4A4A4A4A4A4A4A4A4A4A4A4A4A4A4A4A4A4A4A4A4A4A4
1001
ACAD
1000
DesignCenter Data
1002
{
1070
     1
1070
     4
1002
}
  0
BLOCK_RECORD
  5
AA8
330
1
100
AcDbSymbolTableRecord
100
AcDbBlockTableRecord
  2
_CLOSED
340
0
  0
BLOCK_RECORD
  5
BA5
330
1
100
AcDbSymbolTableRecord
100
AcDbBlockTableRecord
  2
guarnizione
340
0
  0
BLOCK_RECORD
  5
13C6
330
1
100
AcDbSymbolTableRecord
100
AcDbBlockTableRecord
  2
*D11
340
0
  0
BLOCK_RECORD
  5
13F3
330
1
100
AcDbSymbolTableRecord
100
AcDbBlockTableRecord
  2
*D14
340
0
  0
BLOCK_RECORD
  5
1525
330
1
100
AcDbSymbolTableRecord
100
AcDbBlockTableRecord
  2
*D16
340
0
  0
BLOCK_RECORD
  5
164A
330
1
100
AcDbSymbolTableRecord
100
AcDbBlockTableRecord
  2
*D17
340
0
  0
ENDTAB
  0
ENDSEC
  0
SECTION
  2
BLOCKS
  0
BLOCK
  5
20
330
1F
100
AcDbEntity
  8
0
100
AcDbBlockBegin
  2
*Model_Space
 70
     0
 10
0.0
 20
0.0
 30
0.0
  3
*Model_Space
  1

  0
ENDBLK
  5
21
330
1F
100
AcDbEntity
  8
0
100
AcDbBlockEnd
  0
BLOCK
  5
1C
330
1B
100
AcDbEntity
 67
     1
  8
0
100
AcDbBlockBegin
  2
*Paper_Space
 70
     0
 10
0.0
 20
0.0
 30
0.0
  3
*Paper_Space
  1

  0
ENDBLK
  5
1D
330
1B
100
AcDbEntity
 67
     1
  8
0
100
AcDbBlockEnd
  0
BLOCK
  5
24
330
23
100
AcDbEntity
 67
     1
  8
0
100
AcDbBlockBegin
  2
*Paper_Space0
 70
     0
 10
0.0
 20
0.0
 30
0.0
  3
*Paper_Space0
  1

  0
ENDBLK
  5
25
330
23
100
AcDbEntity
 67
     1
  8
0
100
AcDbBlockEnd
  0
BLOCK
  5
91B
330
919
100
AcDbEntity
  8
0
100
AcDbBlockBegin
  2
_DotSmall
 70
     0
 10
0.0
 20
0.0
 30
0.0
  3
_DotSmall
  1

  0
LWPOLYLINE
  5
91A
330
919
100
AcDbEntity
  8
0
  6
ByBlock
 62
     0
100
AcDbPolyline
 90
        2
 70
     1
 43
0.5
 10
-0.0625
 20
0.0
 42
1.0
 10
0.0625
 20
0.0
 42
1.0
  0
ENDBLK
  5
91C
330
919
100
AcDbEntity
  8
0
100
AcDbBlockEnd
  0
BLOCK
  5
92A
330
922
100
AcDbEntity
  8
0
100
AcDbBlockBegin
  2
base para cotas
 70
     0
 10
0.0
 20
0.0
 30
0.0
  3
base para cotas
  1

  0
LINE
  5
B36
330
922
100
AcDbEntity
  8
cotas
100
AcDbLine
 10
0.0
 20
-30.0
 30
0.0
 11
327.1260136525398
 21
-30.0
 31
0.0
  0
LINE
  5
B37
330
922
100
AcDbEntity
  8
cotas
100
AcDbLine
 10
0.0
 20
-25.0
 30
0.0
 11
327.1260136525398
 21
-25.0
 31
0.0
  0
LINE
  5
B38
330
922
100
AcDbEntity
  8
cotas
100
AcDbLine
 10
0.0
 20
-20.0
 30
0.0
 11
327.1260136525398
 21
-20.0
 31
0.0
  0
LINE
  5
B39
330
922
100
AcDbEntity
  8
cotas
100
AcDbLine
 10
0.0
 20
-15.0
 30
0.0
 11
327.1260136525398
 21
-15.0
 31
0.0
  0
LINE
  5
B3A
330
922
100
AcDbEntity
  8
cotas
100
AcDbLine
 10
0.0
 20
-10.0
 30
0.0
 11
327.1260136525398
 21
-10.0
 31
0.0
  0
LINE
  5
B3B
330
922
100
AcDbEntity
  8
cotas
100
AcDbLine
 10
0.0
 20
0.0
 30
0.0
 11
0.0
 21
-30.0
 31
0.0
  0
LINE
  5
B3C
330
922
100
AcDbEntity
  8
cotas
100
AcDbLine
 10
327.1260136525398
 20
-30.0
 30
0.0
 11
327.1260136525398
 21
0.0
 31
0.0
  0
ENDBLK
  5
92B
330
922
100
AcDbEntity
  8
0
100
AcDbBlockEnd
  0
BLOCK
  5
AAD
330
AA8
100
AcDbEntity
  8
0
100
AcDbBlockBegin
  2
_CLOSED
 70
     0
 10
0.0
 20
0.0
 30
0.0
  3
_CLOSED
  1

  0
LINE
  5
AA9
330
AA8
100
AcDbEntity
  8
0
100
AcDbLine
 10
-1.0
 20
0.166667
 30
0.0
 11
0.0
 21
0.0
 31
0.0
  0
LINE
  5
AAA
330
AA8
100
AcDbEntity
  8
0
100
AcDbLine
 10
0.0
 20
0.0
 30
0.0
 11
-1.0
 21
-0.166667
 31
0.0
  0
LINE
  5
AAB
330
AA8
100
AcDbEntity
  8
0
100
AcDbLine
 10
-1.0
 20
0.166667
 30
0.0
 11
-1.0
 21
-0.166667
 31
0.0
  0
LINE
  5
AAC
330
AA8
100
AcDbEntity
  8
0
100
AcDbLine
 10
0.0
 20
0.0
 30
0.0
 11
-1.0
 21
0.0
 31
0.0
  0
ENDBLK
  5
AAE
330
AA8
100
AcDbEntity
  8
0
100
AcDbBlockEnd
  0
BLOCK
  5
BF0
330
BA5
100
AcDbEntity
  8
0
 62
     4
100
AcDbBlockBegin
  2
guarnizione
 70
     0
 10
0.0
 20
0.0
 30
0.0
  3
guarnizione
  1

  0
LINE
  5
BA6
330
BA5
100
AcDbEntity
  8
0
100
AcDbLine
 10
12.0
 20
3.179312414488776
 30
0.0
 11
12.0
 21
2.699999999999818
 31
0.0
  0
LINE
  5
BA7
330
BA5
100
AcDbEntity
  8
0
100
AcDbLine
 10
9.5
 20
3.130475008156281
 30
0.0
 11
9.440776269158959
 21
2.734883615801663
 31
0.0
  0
ARC
  5
BA8
330
BA5
100
AcDbEntity
  8
0
100
AcDbCircle
 10
11.19999999999891
 20
3.179312414488776
 30
0.0
 40
0.8
100
AcDbArc
 50
0.0
 51
81.48552156587461
  0
ARC
  5
BA9
330
BA5
100
AcDbEntity
  8
0
100
AcDbCircle
 10
8.753809903480942
 20
1.523241254200002
 30
0.0
 40
0.1999999999999504
100
AcDbArc
 50
171.485521565823
 51
351.485521565823
  0
LINE
  5
BAA
330
BA5
100
AcDbEntity
  8
0
100
AcDbLine
 10
11.65558220186904
 20
-2.403306455734309
 30
0.0
 11
9.440776269158959
 21
-2.734883615802573
 31
0.0
  0
ARC
  5
BAB
330
BA5
100
AcDbEntity
  8
0
100
AcDbCircle
 10
8.753809903480942
 20
-1.523241254200911
 30
0.0
 40
0.1999999999999504
100
AcDbArc
 50
8.514478434176927
 51
188.5144784341769
  0
LINE
  5
BAC
330
BA5
100
AcDbEntity
  8
0
100
AcDbLine
 10
9.5
 20
-3.130475008157191
 30
0.0
 11
9.440776269158959
 21
-2.734883615802573
 31
0.0
  0
ARC
  5
BAD
330
BA5
100
AcDbEntity
  8
0
100
AcDbCircle
 10
11.69999999999891
 20
-2.699999999999818
 30
0.0
 40
0.3
100
AcDbArc
 50
0.0
 51
98.51447843412536
  0
ARC
  5
BAE
330
BA5
100
AcDbEntity
  8
0
100
AcDbCircle
 10
11.69999999999891
 20
2.699999999999818
 30
0.0
 40
0.3
100
AcDbArc
 50
261.4855215658746
 51
0.0
  0
LINE
  5
BAF
330
BA5
100
AcDbEntity
  8
0
100
AcDbLine
 10
11.65558220186904
 20
2.4033064557334
 30
0.0
 11
9.440776269158959
 21
2.734883615801663
 31
0.0
  0
LINE
  5
BB0
330
BA5
100
AcDbEntity
  8
0
100
AcDbLine
 10
8.807715063378054
 20
3.234116537129011
 30
0.0
 11
8.556014207302723
 21
1.552853119620522
 31
0.0
  0
LINE
  5
BB1
330
BA5
100
AcDbEntity
  8
0
100
AcDbLine
 10
9.203306455732672
 20
3.174892806287971
 30
0.0
 11
8.951605599657341
 21
1.493629388779481
 31
0.0
  0
LINE
  5
BB2
330
BA5
100
AcDbEntity
  8
0
100
AcDbLine
 10
6.681411329471302
 20
3.552444090400967
 30
0.0
 11
6.622187598630262
 21
3.15685269804544
 31
0.0
  0
ARC
  5
BB3
330
BA5
100
AcDbEntity
  8
0
100
AcDbCircle
 10
0.2999999999992724
 20
3.800000000000181
 30
0.0
 40
0.3
100
AcDbArc
 50
81.48552156587461
 51
180.0
  0
ARC
  5
BB4
330
BA5
100
AcDbEntity
  8
0
100
AcDbCircle
 10
1.042400829128382
 20
4.699999999999818
 30
0.0
 40
0.8
100
AcDbArc
 50
81.48552156587461
 51
90.0
  0
LINE
  5
BB5
330
BA5
100
AcDbEntity
  8
0
100
AcDbLine
 10
1.5
 20
3.923692082123125
 30
0.0
 11
0.3444177981309622
 21
4.09669354426569
 31
0.0
  0
LINE
  5
BB6
330
BA5
100
AcDbEntity
  8
0
100
AcDbLine
 10
1.5
 20
3.923692082123125
 30
0.0
 11
1.5
 21
3.099999999999454
 31
0.0
  0
LINE
  5
BB7
330
BA5
100
AcDbEntity
  8
0
100
AcDbLine
 10
1.5
 20
3.099999999999454
 30
0.0
 11
2.699999999998908
 21
3.099999999999454
 31
0.0
  0
LINE
  5
BB8
330
BA5
100
AcDbEntity
  8
0
100
AcDbLine
 10
2.699999999998908
 20
3.744040860223321
 30
0.0
 11
2.699999999998908
 21
3.099999999999454
 31
0.0
  0
LINE
  5
BB9
330
BA5
100
AcDbEntity
  8
0
100
AcDbLine
 10
6.622187598630262
 20
3.15685269804544
 30
0.0
 11
2.699999999998908
 21
3.744040860223321
 31
0.0
  0
LINE
  5
BBA
330
BA5
100
AcDbEntity
  8
0
100
AcDbLine
 10
1.5
 20
-3.100000000000363
 30
0.0
 11
2.699999999998908
 21
-3.100000000000363
 31
0.0
  0
LINE
  5
BBB
330
BA5
100
AcDbEntity
  8
0
100
AcDbLine
 10
11.31844746168099
 20
3.970495199198012
 30
0.0
 11
1.160848290810463
 21
5.491182784709053
 31
0.0
  0
LINE
  5
BBC
330
BA5
100
AcDbEntity
  8
0
100
AcDbLine
 10
9.5
 20
3.130475008156281
 30
0.0
 11
6.681411329471302
 21
3.552444090400967
 31
0.0
  0
ARC
  5
BBD
330
BA5
100
AcDbEntity
  8
0
100
AcDbCircle
 10
11.19999999999891
 20
-3.179312414488776
 30
0.0
 40
0.8
100
AcDbArc
 50
278.5144784341254
 51
0.0
  0
LINE
  5
BBE
330
BA5
100
AcDbEntity
  8
0
100
AcDbLine
 10
6.681411329471302
 20
-3.552444090400967
 30
0.0
 11
6.622187598630262
 21
-3.15685269804635
 31
0.0
  0
ARC
  5
BBF
330
BA5
100
AcDbEntity
  8
0
100
AcDbCircle
 10
0.2999999999992724
 20
-3.800000000000181
 30
0.0
 40
0.3
100
AcDbArc
 50
180.0
 51
278.5144784341254
  0
ARC
  5
BC0
330
BA5
100
AcDbEntity
  8
0
100
AcDbCircle
 10
1.042400829128382
 20
-4.699999999999818
 30
0.0
 40
0.8
100
AcDbArc
 50
270.0
 51
278.5144784341254
  0
LINE
  5
BC1
330
BA5
100
AcDbEntity
  8
0
100
AcDbLine
 10
0.3444177981309622
 20
-4.096693544266599
 30
0.0
 11
1.5
 21
-3.923692082124034
 31
0.0
  0
LINE
  5
BC2
330
BA5
100
AcDbEntity
  8
0
100
AcDbLine
 10
6.622187598630262
 20
-3.15685269804635
 30
0.0
 11
2.699999999998908
 21
-3.744040860224231
 31
0.0
  0
LINE
  5
BC3
330
BA5
100
AcDbEntity
  8
0
100
AcDbLine
 10
1.160848290810463
 20
-5.491182784709963
 30
0.0
 11
11.31844746168099
 21
-3.970495199198921
 31
0.0
  0
LINE
  5
BC4
330
BA5
100
AcDbEntity
  8
0
100
AcDbLine
 10
0.0
 20
3.800000000000181
 30
0.0
 11
0.0
 21
-3.800000000000181
 31
0.0
  0
LINE
  5
BC5
330
BA5
100
AcDbEntity
  8
0
100
AcDbLine
 10
12.0
 20
-2.699999999999818
 30
0.0
 11
12.0
 21
-3.179312414488776
 31
0.0
  0
LINE
  5
BC6
330
BA5
100
AcDbEntity
  8
0
100
AcDbLine
 10
2.699999999998908
 20
-3.100000000000363
 30
0.0
 11
2.699999999998908
 21
-3.744040860224231
 31
0.0
  0
LINE
  5
BC7
330
BA5
100
AcDbEntity
  8
0
100
AcDbLine
 10
1.5
 20
-3.100000000000363
 30
0.0
 11
1.5
 21
-3.923692082124034
 31
0.0
  0
LINE
  5
BC8
330
BA5
100
AcDbEntity
  8
0
100
AcDbLine
 10
9.5
 20
-3.130475008157191
 30
0.0
 11
6.681411329471302
 21
-3.552444090400967
 31
0.0
  0
LINE
  5
BC9
330
BA5
100
AcDbEntity
  8
0
100
AcDbLine
 10
9.203306455732672
 20
-3.174892806287971
 30
0.0
 11
8.951605599657341
 21
-1.493629388780391
 31
0.0
  0
LINE
  5
BCA
330
BA5
100
AcDbEntity
  8
0
100
AcDbLine
 10
8.807715063378054
 20
-3.234116537129011
 30
0.0
 11
8.556014207302723
 21
-1.552853119621431
 31
0.0
  0
LINE
  5
BCB
330
BA5
100
AcDbEntity
  8
0
100
AcDbLine
 10
-1.5
 20
5.5
 30
0.0
 11
-3.757359312881817
 21
5.5
 31
0.0
  0
ARC
  5
BCC
330
BA5
100
AcDbEntity
  8
0
100
AcDbCircle
 10
-2.5
 20
3.5
 30
0.0
 40
1.0
100
AcDbArc
 50
0.0
 51
90.0
  0
ARC
  5
BCD
330
BA5
100
AcDbEntity
  8
0
100
AcDbCircle
 10
-3.769781102879278
 20
4.149978862833449
 30
0.0
 40
0.75
100
AcDbArc
 50
47.16775949949599
 51
90.19499109987526
  0
ARC
  5
BCE
330
BA5
100
AcDbEntity
  8
0
100
AcDbCircle
 10
-2.75
 20
5.25
 30
0.0
 40
0.75
100
AcDbArc
 50
227.167759499496
 51
270.0
  0
LINE
  5
BCF
330
BA5
100
AcDbEntity
  8
0
100
AcDbLine
 10
-2.75
 20
4.5
 30
0.0
 11
-2.5
 21
4.5
 31
0.0
  0
LINE
  5
BD0
330
BA5
100
AcDbEntity
  8
0
100
AcDbLine
 10
-7.415254325502246
 20
3.064644661409147
 30
0.0
 11
-6.868629150101696
 21
3.611269837220788
 31
0.0
  0
ARC
  5
BD1
102
{ACAD_REACTORS
330
BEB
102
}
330
BA5
100
AcDbEntity
  8
0
100
AcDbCircle
 10
-7.980939750059405
 20
2.569669913566031
 30
0.0
 40
0.2
100
AcDbArc
 50
45.0000001037625
 51
135.0000000719631
  0
ARC
  5
BD2
330
BA5
100
AcDbEntity
  8
0
100
AcDbCircle
 10
-3.757359312881817
 20
0.5
 30
0.0
 40
5.0
100
AcDbArc
 50
90.0
 51
135.0
  0
ARC
  5
BD3
330
BA5
100
AcDbEntity
  8
0
100
AcDbCircle
 10
-3.757359312881817
 20
0.5
 30
0.0
 40
4.4
100
AcDbArc
 50
90.19499109987526
 51
135.0
  0
ARC
  5
BD4
330
BA5
100
AcDbEntity
  8
0
100
AcDbCircle
 10
-6.814213563102384
 20
0.9786796633270569
 30
0.0
 40
0.75
100
AcDbArc
 50
314.9999999676111
 51
45.0
  0
ARC
  5
BD5
102
{ACAD_REACTORS
330
BEB
102
}
330
BA5
100
AcDbEntity
  8
0
100
AcDbCircle
 10
-6.814213563102384
 20
0.9786796633270569
 30
0.0
 40
0.5
100
AcDbArc
 50
314.9999999676111
 51
45.0
  0
ARC
  5
BD6
330
BA5
100
AcDbEntity
  8
0
100
AcDbCircle
 10
-7.203122291144609
 20
2.852512627053329
 30
0.0
 40
0.3
100
AcDbArc
 50
135.0
 51
225.0000001112794
  0
LINE
  5
BD7
330
BA5
100
AcDbEntity
  8
0
100
AcDbLine
 10
-8.051650430128574
 20
3.276776694619002
 30
0.0
 11
-6.283883477519339
 21
1.509009749524921
 31
0.0
  0
LINE
  5
BD8
102
{ACAD_REACTORS
330
BEB
102
}
330
BA5
100
AcDbEntity
  8
0
100
AcDbLine
 10
-7.839518394079277
 20
2.711091270059114
 30
0.0
 11
-6.460660172508141
 21
1.33223305392039
 31
0.0
  0
ARC
  5
BD9
330
BA5
100
AcDbEntity
  8
0
100
AcDbCircle
 10
-12.57713383280133
 20
-2.521498914058611
 30
0.0
 40
0.3
100
AcDbArc
 50
45.00000003552097
 51
135.0
  0
ARC
  5
BDA
102
{ACAD_REACTORS
330
BEB
102
}
330
BA5
100
AcDbEntity
  8
0
100
AcDbCircle
 10
-12.29429112059733
 20
-1.743681468243266
 30
0.0
 40
0.2
100
AcDbArc
 50
135.0000000660675
 51
225.0000002990173
  0
LINE
  5
BDB
330
BA5
100
AcDbEntity
  8
0
100
AcDbLine
 10
-12.9899494936617
 20
-2.510050506339212
 30
0.0
 11
-12.78926586715715
 21
-2.309366879702793
 31
0.0
  0
LINE
  5
BDC
330
BA5
100
AcDbEntity
  8
0
100
AcDbLine
 10
-13.41421356237333
 20
-2.085786437626666
 30
0.0
 11
-7.292893218815152
 21
4.035533905932425
 31
0.0
  0
LINE
  5
BDD
102
{ACAD_REACTORS
330
BEB
102
}
330
BA5
100
AcDbEntity
  8
0
100
AcDbLine
 10
-12.43571247699765
 20
-1.602260112168551
 30
0.0
 11
-8.122361106474272
 21
2.711091269625285
 31
0.0
  0
ARC
  5
BDE
330
BA5
100
AcDbEntity
  8
0
100
AcDbCircle
 10
-2.5
 20
-3.5
 30
0.0
 40
1.0
100
AcDbArc
 50
270.0
 51
0.0
  0
ARC
  5
BDF
330
BA5
100
AcDbEntity
  8
0
100
AcDbCircle
 10
-7.519803902720013
 20
-4.150000000000545
 30
0.0
 40
0.75
100
AcDbArc
 50
270.0
 51
312.8334280660476
  0
ARC
  5
BE0
330
BA5
100
AcDbEntity
  8
0
100
AcDbCircle
 10
-6.5
 20
-5.25
 30
0.0
 40
0.75
100
AcDbArc
 50
90.0
 51
132.8334280660476
  0
LINE
  5
BE1
330
BA5
100
AcDbEntity
  8
0
100
AcDbLine
 10
-2.5
 20
-4.5
 30
0.0
 11
-6.5
 21
-4.5
 31
0.0
  0
ARC
  5
BE2
330
BA5
100
AcDbEntity
  8
0
100
AcDbCircle
 10
-10.7033008647486
 20
-2.910407640086305
 30
0.0
 40
0.75
100
AcDbArc
 50
225.0
 51
315.0
  0
ARC
  5
BE3
102
{ACAD_REACTORS
330
BEB
102
}
330
BA5
100
AcDbEntity
  8
0
100
AcDbCircle
 10
-10.7033008647486
 20
-2.910407640086305
 30
0.0
 40
0.5
100
AcDbArc
 50
225.0
 51
315.0
  0
LINE
  5
BE4
330
BA5
100
AcDbEntity
  8
0
100
AcDbLine
 10
-1.5
 20
-5.5
 30
0.0
 11
-12.0
 21
-5.5
 31
0.0
  0
LINE
  5
BE5
330
BA5
100
AcDbEntity
  8
0
100
AcDbLine
 10
-7.519803902720013
 20
-4.900000000000545
 30
0.0
 11
-12.0
 21
-4.900000000000545
 31
0.0
  0
ARC
  5
BE6
330
BA5
100
AcDbEntity
  8
0
100
AcDbCircle
 10
-12.0
 20
-3.5
 30
0.0
 40
2.0
100
AcDbArc
 50
135.0
 51
270.0
  0
LINE
  5
BE7
330
BA5
100
AcDbEntity
  8
0
100
AcDbLine
 10
-10.17297077881812
 20
-3.440737725935832
 30
0.0
 11
-6.283883477372
 21
0.4483495772774404
 31
0.0
  0
ARC
  5
BE8
330
BA5
100
AcDbEntity
  8
0
100
AcDbCircle
 10
-12.0
 20
-3.5
 30
0.0
 40
1.399999999999999
100
AcDbArc
 50
135.0
 51
270.0
  0
LINE
  5
BE9
330
BA5
100
AcDbEntity
  8
0
100
AcDbLine
 10
-13.00139790187859
 20
-1.672970777132832
 30
0.0
 11
-11.23363095093009
 21
-3.440737725682993
 31
0.0
  0
LINE
  5
BEA
330
BA5
100
AcDbEntity
  8
0
100
AcDbLine
 10
-1.5
 20
3.5
 30
0.0
 11
-1.5
 21
-3.5
 31
0.0
  0
HATCH
  5
BEB
330
BA5
100
AcDbEntity
  8
0
100
AcDbHatch
 10
0.0
 20
0.0
 30
0.0
210
0.0
220
0.0
230
1.0
  2
ANSI31
 70
     0
 71
     1
 91
        1
 92
        7
 72
     1
 73
     1
 93
        8
 10
-6.460660173204814
 20
1.332233054616153
 42
0.0
 10
-7.839518394101105
 20
2.711091270081851
 42
0.414213562178905
 10
-8.122361106481548
 20
2.711091269618009
 42
0.0
 10
-12.43571247701766
 20
-1.602260112190379
 42
0.4142135636146872
 10
-12.43571247604996
 20
-1.885102825264766
 42
0.0
 10
-11.05685425338015
 20
-3.263961032639599
 42
0.4142135608152901
 10
-10.34974747407432
 20
-3.263961030598693
 42
0.0
 10
-6.460660172428106
 20
0.625126272813759
 42
0.4142135628833784
 97
        8
330
BD8
330
BD1
330
BDD
330
BDA
330
BED
330
BE3
330
BEC
330
BD5
 75
     0
 76
     1
 52
45.0
 41
0.25
 77
     0
 78
     1
 53
90.0
 43
-276.1145346408611
 44
-395.2719013892401
 45
-0.79375
 46
0.0000000000000002
 79
     0
 47
0.0364805528584695
 98
        1
 10
-7.399477738399582
 20
0.8532363732892918
  0
LINE
  5
BEC
102
{ACAD_REACTORS
330
BEB
102
}
330
BA5
100
AcDbEntity
  8
0
100
AcDbLine
 10
-10.34974747415435
 20
-3.263961030678729
 30
0.0
 11
-6.46066017270823
 21
0.6251262725336347
 31
0.0
  0
LINE
  5
BED
102
{ACAD_REACTORS
330
BEB
102
}
330
BA5
100
AcDbEntity
  8
0
100
AcDbLine
 10
-12.43571247609543
 20
-1.885102825218382
 30
0.0
 11
-11.05685425534102
 21
-3.263961030678729
 31
0.0
  0
LINE
  5
BEE
330
BA5
100
AcDbEntity
  8
0
100
AcDbLine
 10
-1.5
 20
5.5
 30
0.0
 11
1.042400829128382
 21
5.5
 31
0.0
  0
LINE
  5
BEF
330
BA5
100
AcDbEntity
  8
0
100
AcDbLine
 10
-1.5
 20
-5.5
 30
0.0
 11
1.042400829128382
 21
-5.5
 31
0.0
  0
ENDBLK
  5
BF1
330
BA5
100
AcDbEntity
  8
0
 62
     4
100
AcDbBlockEnd
  0
BLOCK
  5
13D0
330
13C6
100
AcDbEntity
  8
0
100
AcDbBlockBegin
  2
*D11
 70
     1
 10
0.0
 20
0.0
 30
0.0
  3
*D11
  1

  0
LINE
  5
14E9
330
13C6
100
AcDbEntity
  8
7
100
AcDbLine
 10
759.3973681319408
 20
730.4511818176644
 30
0.0
 11
759.3973681319408
 21
715.9693205810607
 31
0.0
  0
LINE
  5
14EA
330
13C6
100
AcDbEntity
  8
7
100
AcDbLine
 10
832.5200549572219
 20
732.1417210385243
 30
0.0
 11
832.5200549572219
 21
715.9693205810607
 31
0.0
  0
LINE
  5
14EB
330
13C6
100
AcDbEntity
  8
7
100
AcDbLine
 10
761.3973681319408
 20
716.9693205810607
 30
0.0
 11
830.5200549572219
 21
716.9693205810607
 31
0.0
  0
SOLID
  5
14EC
330
13C6
100
AcDbEntity
  8
7
100
AcDbTrace
 10
761.3973681319408
 20
717.3026539143941
 30
0.0
 11
761.3973681319408
 21
716.6359872477273
 31
0.0
 12
759.3973681319408
 22
716.9693205810607
 32
0.0
 13
759.3973681319408
 23
716.9693205810607
 33
0.0
  0
SOLID
  5
14ED
330
13C6
100
AcDbEntity
  8
7
100
AcDbTrace
 10
830.5200549572219
 20
717.3026539143941
 30
0.0
 11
830.5200549572219
 21
716.6359872477273
 31
0.0
 12
832.5200549572219
 22
716.9693205810607
 32
0.0
 13
832.5200549572219
 23
716.9693205810607
 33
0.0
  0
MTEXT
  5
14EE
330
13C6
100
AcDbEntity
  8
7
100
AcDbMText
 10
795.9587115445814
 20
719.2184810914703
 30
0.0
 40
2.0
 41
0.0
 71
     5
 72
     1
  1
MAX. 731 mm / MIN. 716 mm
  7
SANINDUSA
 73
     1
 44
1.0
1001
ACAD
1000
MTEXTBEGIN
1070
    73
1070
     1
1070
    44
1040
1.0
1070
    74
1070
     0
1000
MTEXTEND
  0
POINT
  5
14EF
330
13C6
100
AcDbEntity
  8
Defpoints
 62
     0
100
AcDbPoint
 10
759.3973681319408
 20
731.4511818176644
 30
0.0
  0
POINT
  5
14F0
330
13C6
100
AcDbEntity
  8
Defpoints
 62
     0
100
AcDbPoint
 10
832.5200549572219
 20
733.1417210385243
 30
0.0000000155554831
  0
POINT
  5
14F1
330
13C6
100
AcDbEntity
  8
Defpoints
 62
     0
100
AcDbPoint
 10
832.5200549572219
 20
716.9693205810607
 30
0.0
  0
ENDBLK
  5
13D1
330
13C6
100
AcDbEntity
  8
0
100
AcDbBlockEnd
  0
BLOCK
  5
13FD
330
13F3
100
AcDbEntity
  8
0
100
AcDbBlockBegin
  2
*D14
 70
     1
 10
0.0
 20
0.0
 30
0.0
  3
*D14
  1

  0
LINE
  5
14F2
330
13F3
100
AcDbEntity
  8
7
100
AcDbLine
 10
763.8345705079318
 20
732.191720657565
 30
0.0
 11
763.8345705079318
 21
720.9693205810607
 31
0.0
  0
LINE
  5
14F3
330
13F3
100
AcDbEntity
  8
7
100
AcDbLine
 10
831.120054957222
 20
732.1917206575652
 30
0.0
 11
831.120054957222
 21
720.9693205810607
 31
0.0
  0
LINE
  5
14F4
330
13F3
100
AcDbEntity
  8
7
100
AcDbLine
 10
765.8345705079319
 20
721.9693205810607
 30
0.0
 11
829.120054957222
 21
721.9693205810607
 31
0.0
  0
SOLID
  5
14F5
330
13F3
100
AcDbEntity
  8
7
100
AcDbTrace
 10
765.8345705079319
 20
722.302653914394
 30
0.0
 11
765.8345705079319
 21
721.6359872477274
 31
0.0
 12
763.8345705079318
 22
721.9693205810607
 32
0.0
 13
763.8345705079318
 23
721.9693205810607
 33
0.0
  0
SOLID
  5
14F6
330
13F3
100
AcDbEntity
  8
7
100
AcDbTrace
 10
829.120054957222
 20
722.302653914394
 30
0.0
 11
829.120054957222
 21
721.6359872477274
 31
0.0
 12
831.120054957222
 22
721.9693205810607
 32
0.0
 13
831.120054957222
 23
721.9693205810607
 33
0.0
  0
MTEXT
  5
14F7
330
13F3
100
AcDbEntity
  8
7
100
AcDbMText
 10
797.4773127325769
 20
724.2386288416382
 30
0.0
 40
2.0
 41
0.0
 71
     5
 72
     1
  1
672,9
  7
SANINDUSA
 73
     1
 44
1.0
1001
ACAD
1000
MTEXTBEGIN
1070
    73
1070
     1
1070
    44
1040
1.0
1070
    74
1070
     0
1000
MTEXTEND
  0
POINT
  5
14F8
330
13F3
100
AcDbEntity
  8
Defpoints
 62
     0
100
AcDbPoint
 10
763.8345705079318
 20
733.191720657565
 30
0.0
  0
POINT
  5
14F9
330
13F3
100
AcDbEntity
  8
Defpoints
 62
     0
100
AcDbPoint
 10
831.120054957222
 20
733.1917206575653
 30
0.0
  0
POINT
  5
14FA
330
13F3
100
AcDbEntity
  8
Defpoints
 62
     0
100
AcDbPoint
 10
831.120054957222
 20
721.9693205810607
 30
0.0
  0
ENDBLK
  5
13FE
330
13F3
100
AcDbEntity
  8
0
100
AcDbBlockEnd
  0
BLOCK
  5
152F
330
1525
100
AcDbEntity
  8
0
100
AcDbBlockBegin
  2
*D16
 70
     1
 10
0.0
 20
0.0
 30
0.0
  3
*D16
  1

  0
LINE
  5
1543
330
1525
100
AcDbEntity
  8
7
100
AcDbLine
 10
895.7669202983323
 20
831.9816976524716
 30
0.0
 11
890.7669202983321
 21
831.9816976524716
 31
0.0
  0
LINE
  5
1544
330
1525
100
AcDbEntity
  8
7
100
AcDbLine
 10
895.766920298332
 20
646.9854403677778
 30
0.0
 11
890.7669202983321
 21
646.9854403677778
 31
0.0
  0
LINE
  5
1545
330
1525
100
AcDbEntity
  8
7
100
AcDbLine
 10
891.766920298332
 20
829.9816976524716
 30
0.0
 11
891.766920298332
 21
648.9854403677777
 31
0.0
  0
SOLID
  5
1546
330
1525
100
AcDbEntity
  8
7
100
AcDbTrace
 10
891.4335869649987
 20
829.9816976524716
 30
0.0
 11
892.1002536316654
 21
829.9816976524716
 31
0.0
 12
891.766920298332
 22
831.9816976524716
 32
0.0
 13
891.766920298332
 23
831.9816976524716
 33
0.0
  0
SOLID
  5
1547
330
1525
100
AcDbEntity
  8
7
100
AcDbTrace
 10
891.4335869649987
 20
648.9854403677777
 30
0.0
 11
892.1002536316654
 21
648.9854403677777
 31
0.0
 12
891.766920298332
 22
646.9854403677778
 32
0.0
 13
891.766920298332
 23
646.9854403677778
 33
0.0
  0
MTEXT
  5
1548
330
1525
100
AcDbEntity
  8
7
100
AcDbMText
 10
889.721252064618
 20
739.4835690101249
 30
0.0
 40
2.0
 41
0.0
 71
     5
 72
     1
  1
1850
  7
SANINDUSA
 11
0.0000000000000001
 21
1.0
 31
0.0
 73
     1
 44
1.0
1001
ACAD
1000
MTEXTBEGIN
1070
    73
1070
     1
1070
    44
1040
1.0
1070
    74
1070
     0
1000
MTEXTEND
  0
POINT
  5
1549
330
1525
100
AcDbEntity
  8
Defpoints
 62
     0
100
AcDbPoint
 10
896.7669202983323
 20
831.9816976524716
 30
0.0
  0
POINT
  5
154A
330
1525
100
AcDbEntity
  8
Defpoints
 62
     0
100
AcDbPoint
 10
896.7669202983319
 20
646.9854403677778
 30
0.0
  0
POINT
  5
154B
330
1525
100
AcDbEntity
  8
Defpoints
 62
     0
100
AcDbPoint
 10
891.766920298332
 20
646.9854403677778
 30
0.0
  0
ENDBLK
  5
1530
330
1525
100
AcDbEntity
  8
0
100
AcDbBlockEnd
  0
BLOCK
  5
164B
330
164A
100
AcDbEntity
  8
0
100
AcDbBlockBegin
  2
*D17
 70
     1
 10
0.0
 20
0.0
 30
0.0
  3
*D17
  1

  0
LINE
  5
1657
330
164A
100
AcDbEntity
  8
cotas
100
AcDbLine
 10
1329.520745159736
 20
1695.859012716924
 30
0.0
 11
1405.70040714434
 21
1695.859012716924
 31
0.0
  0
LINE
  5
1658
330
164A
100
AcDbEntity
  8
cotas
100
AcDbLine
 10
1329.520745159734
 20
-154.10356013002
 30
0.0
 11
1405.70040714434
 21
-154.10356013002
 31
0.0
  0
LINE
  5
1659
330
164A
100
AcDbEntity
  8
cotas
100
AcDbLine
 10
1404.70040714434
 20
1693.859012716924
 30
0.0
 11
1404.70040714434
 21
-152.10356013002
 31
0.0
  0
SOLID
  5
165A
330
164A
100
AcDbEntity
  8
cotas
100
AcDbTrace
 10
1404.367073811007
 20
1693.859012716924
 30
0.0
 11
1405.033740477673
 21
1693.859012716924
 31
0.0
 12
1404.70040714434
 22
1695.859012716924
 32
0.0
 13
1404.70040714434
 23
1695.859012716924
 33
0.0
  0
SOLID
  5
165B
330
164A
100
AcDbEntity
  8
cotas
100
AcDbTrace
 10
1404.367073811006
 20
-152.10356013002
 30
0.0
 11
1405.033740477673
 21
-152.10356013002
 31
0.0
 12
1404.70040714434
 22
-154.10356013002
 32
0.0
 13
1404.70040714434
 23
-154.10356013002
 33
0.0
  0
MTEXT
  5
165C
330
164A
100
AcDbEntity
  8
cotas
100
AcDbMText
 10
1402.654738910626
 20
770.8777262934524
 30
0.0
 40
2.0
 41
0.0
 71
     5
 72
     1
  1
1850
  7
SANINDUSA
 11
0.0000000000000001
 21
1.0
 31
0.0
 73
     1
 44
1.0
1001
ACAD
1000
MTEXTBEGIN
1070
    73
1070
     1
1070
    44
1040
1.0
1070
    74
1070
     0
1000
MTEXTEND
  0
POINT
  5
165D
330
164A
100
AcDbEntity
  8
Defpoints
 62
     0
100
AcDbPoint
 10
1328.520745159736
 20
1695.859012716924
 30
0.0
  0
POINT
  5
165E
330
164A
100
AcDbEntity
  8
Defpoints
 62
     0
100
AcDbPoint
 10
1328.520745159734
 20
-154.10356013002
 30
0.0
  0
POINT
  5
165F
330
164A
100
AcDbEntity
  8
Defpoints
 62
     0
100
AcDbPoint
 10
1404.70040714434
 20
-154.10356013002
 30
0.0
  0
ENDBLK
  5
164C
330
164A
100
AcDbEntity
  8
0
100
AcDbBlockEnd
  0
ENDSEC
  0
SECTION
  2
ENTITIES
  0
LINE
  5
1021
330
1F
100
AcDbEntity
  8
SANINDUSA
100
AcDbLine
 10
848.2957953274121
 20
668.5072619827847
 30
0.0
 11
848.9686501719051
 21
668.5072619827847
 31
0.0
  0
LINE
  5
1022
330
1F
100
AcDbEntity
  8
SANINDUSA
100
AcDbLine
 10
848.2957953274121
 20
668.5132619827847
 30
0.0
 11
848.9686501719051
 21
668.5132619827847
 31
0.0
  0
LINE
  5
1048
330
1F
100
AcDbEntity
  8
SANINDUSA
100
AcDbLine
 10
848.4875731049612
 20
668.5511038658766
 30
0.0
 11
848.2814514782454
 21
668.7572254925925
 31
0.0
  0
LINE
  5
1049
330
1F
100
AcDbEntity
  8
SANINDUSA
100
AcDbLine
 10
848.4967654931166
 20
668.5602962540322
 30
0.0
 11
848.2906438664008
 21
668.766417880748
 31
0.0
  0
LINE
  5
104E
330
1F
100
AcDbEntity
  8
SANINDUSA
100
AcDbLine
 10
848.4933573762086
 20
668.5147619827847
 30
0.0
 11
848.5383573762087
 21
668.5147619827846
 31
0.0
  0
LINE
  5
104F
330
1F
100
AcDbEntity
  8
SANINDUSA
100
AcDbLine
 10
848.4933573762086
 20
668.4967619827847
 30
0.0
 11
848.5383573762087
 21
668.4967619827847
 31
0.0
  0
LINE
  5
1056
330
1F
100
AcDbEntity
  8
SANINDUSA
100
AcDbLine
 10
848.5383573762087
 20
668.5147619827846
 30
0.0
 11
848.5383573762087
 21
668.4967619827847
 31
0.0
  0
LINE
  5
1089
330
1F
100
AcDbEntity
  8
SANINDUSA
100
AcDbLine
 10
848.5248573762087
 20
668.5320119827848
 30
0.0
 11
848.5248573762087
 21
668.5147619827847
 31
0.0
  0
LINE
  5
108A
330
1F
100
AcDbEntity
  8
SANINDUSA
100
AcDbLine
 10
848.5068573762086
 20
668.5320119827848
 30
0.0
 11
848.5068573762086
 21
668.5147619827847
 31
0.0
  0
LINE
  5
108B
330
1F
100
AcDbEntity
  8
SANINDUSA
100
AcDbLine
 10
848.4933573762086
 20
668.5147619827847
 30
0.0
 11
848.4933573762086
 21
668.4967619827847
 31
0.0
  0
LINE
  5
108C
330
1F
100
AcDbEntity
  8
SANINDUSA
100
AcDbLine
 10
848.4865124447894
 20
668.5500432057049
 30
0.0
 11
848.4978261532884
 21
668.561356914204
 31
0.0
  0
LINE
  5
108D
330
1F
100
AcDbEntity
  8
SANINDUSA
100
AcDbLine
 10
848.4865124447894
 20
668.5500432057049
 30
0.0
 11
848.4964119397259
 21
668.5401437107683
 31
0.0
  0
LINE
  5
108E
330
1F
100
AcDbEntity
  8
SANINDUSA
100
AcDbLine
 10
848.5091398617873
 20
668.5500432057049
 30
0.0
 11
848.5185987545108
 21
668.5405843129816
 31
0.0
  0
LINE
  5
108F
330
1F
100
AcDbEntity
  8
SANINDUSA
100
AcDbLine
 10
848.4978261532884
 20
668.5387294972059
 30
0.0
 11
848.5091398617873
 21
668.5500432057049
 31
0.0
  0
LINE
  5
1090
330
1F
100
AcDbEntity
  8
SANINDUSA
100
AcDbLine
 10
848.4964119397259
 20
668.5401437107683
 30
0.0
 11
848.507725648225
 21
668.5514574192673
 31
0.0
  0
LINE
  5
1091
330
1F
100
AcDbEntity
  8
SANINDUSA
100
AcDbLine
 10
848.5073720948344
 20
668.5482754387519
 30
0.0
 11
848.5059578812721
 21
668.5496896523143
 31
0.0
  0
LINE
  5
1092
330
1F
100
AcDbEntity
  8
SANINDUSA
100
AcDbLine
 10
848.5128873762088
 20
668.5320119827848
 30
0.0
 11
848.5146143200932
 21
668.5323513564336
 31
0.0
  0
LINE
  5
1093
330
1F
100
AcDbEntity
  8
SANINDUSA
100
AcDbLine
 10
848.5128873762088
 20
668.5320119827848
 30
0.0
 11
848.5149536937424
 21
668.5320119827848
 31
0.0
  0
LINE
  5
1094
330
1F
100
AcDbEntity
  8
SANINDUSA
100
AcDbLine
 10
848.5146143200932
 20
668.5316726091357
 30
0.0
 11
848.5128873762088
 21
668.5320119827848
 31
0.0
  0
LINE
  5
1095
330
1F
100
AcDbEntity
  8
SANINDUSA
100
AcDbLine
 10
848.5146143200932
 20
668.5323513564336
 30
0.0
 11
848.5133054278353
 21
668.5336602486915
 31
0.0
  0
LINE
  5
1096
330
1F
100
AcDbEntity
  8
SANINDUSA
100
AcDbLine
 10
848.5133054278353
 20
668.5303637168778
 30
0.0
 11
848.5146143200932
 21
668.5316726091357
 31
0.0
  0
LINE
  5
1097
330
1F
100
AcDbEntity
  8
SANINDUSA
100
AcDbLine
 10
848.5142091103018
 20
668.5294600344113
 30
0.0
 11
848.5133054278353
 21
668.5303637168778
 31
0.0
  0
LINE
  5
1098
330
1F
100
AcDbEntity
  8
SANINDUSA
100
AcDbLine
 10
848.5133054278353
 20
668.5336602486915
 30
0.0
 11
848.5142091103018
 21
668.534563931158
 31
0.0
  0
CIRCLE
  5
1099
330
1F
100
AcDbEntity
  8
SANINDUSA
100
AcDbCircle
 10
848.5158573762086
 20
668.5320119827848
 30
0.0
 40
0.005085
  0
ARC
  5
109A
330
1F
100
AcDbEntity
  8
SANINDUSA
100
AcDbCircle
 10
848.5158573762086
 20
668.5320119827848
 30
0.0
 40
0.009
100
AcDbArc
 50
0.0
 51
180.0
  0
LINE
  5
109B
330
1F
100
AcDbEntity
  8
SANINDUSA
100
AcDbLine
 10
848.5158573762086
 20
668.5349819827847
 30
0.0
 11
848.5161967498576
 21
668.5332550389
 31
0.0
  0
LINE
  5
109C
330
1F
100
AcDbEntity
  8
SANINDUSA
100
AcDbLine
 10
848.5158573762086
 20
668.5349819827847
 30
0.0
 11
848.5158573762086
 21
668.532915665251
 31
0.0
  0
LINE
  5
109D
330
1F
100
AcDbEntity
  8
SANINDUSA
100
AcDbLine
 10
848.5155180025596
 20
668.5332550389
 30
0.0
 11
848.5158573762086
 21
668.5349819827847
 31
0.0
  0
LINE
  5
109E
330
1F
100
AcDbEntity
  8
SANINDUSA
100
AcDbLine
 10
848.5158573762086
 20
668.5290419827847
 30
0.0
 11
848.5155180025596
 21
668.5307689266693
 31
0.0
  0
LINE
  5
109F
330
1F
100
AcDbEntity
  8
SANINDUSA
100
AcDbLine
 10
848.5158573762086
 20
668.5290419827847
 30
0.0
 11
848.5158573762086
 21
668.5311083003183
 31
0.0
  0
LINE
  5
10A0
330
1F
100
AcDbEntity
  8
SANINDUSA
100
AcDbLine
 10
848.5155180025596
 20
668.5307689266693
 30
0.0
 11
848.5158573762086
 21
668.5311083003183
 31
0.0
  0
LINE
  5
10A1
330
1F
100
AcDbEntity
  8
SANINDUSA
100
AcDbLine
 10
848.5161967498576
 20
668.5307689266693
 30
0.0
 11
848.5158573762086
 21
668.5290419827847
 31
0.0
  0
LINE
  5
10A2
330
1F
100
AcDbEntity
  8
SANINDUSA
100
AcDbLine
 10
848.5158573762086
 20
668.5311083003183
 30
0.0
 11
848.5161967498576
 21
668.5307689266693
 31
0.0
  0
LINE
  5
10A3
330
1F
100
AcDbEntity
  8
SANINDUSA
100
AcDbLine
 10
848.5161967498576
 20
668.5332550389
 30
0.0
 11
848.5158573762086
 21
668.532915665251
 31
0.0
  0
LINE
  5
10A4
330
1F
100
AcDbEntity
  8
SANINDUSA
100
AcDbLine
 10
848.5158573762086
 20
668.532915665251
 30
0.0
 11
848.5155180025596
 21
668.5332550389
 31
0.0
  0
LINE
  5
10A5
330
1F
100
AcDbEntity
  8
SANINDUSA
100
AcDbLine
 10
848.5188273762087
 20
668.5320119827848
 30
0.0
 11
848.5171004323239
 21
668.5316726091357
 31
0.0
  0
LINE
  5
10A6
330
1F
100
AcDbEntity
  8
SANINDUSA
100
AcDbLine
 10
848.5188273762087
 20
668.5320119827848
 30
0.0
 11
848.5167610586751
 21
668.5320119827848
 31
0.0
  0
LINE
  5
10A7
330
1F
100
AcDbEntity
  8
SANINDUSA
100
AcDbLine
 10
848.5171004323239
 20
668.5316726091357
 30
0.0
 11
848.5167610586751
 21
668.5320119827848
 31
0.0
  0
LINE
  5
10A8
330
1F
100
AcDbEntity
  8
SANINDUSA
100
AcDbLine
 10
848.5171004323239
 20
668.5323513564336
 30
0.0
 11
848.5188273762087
 21
668.5320119827848
 31
0.0
  0
LINE
  5
10A9
330
1F
100
AcDbEntity
  8
SANINDUSA
100
AcDbLine
 10
848.5167610586751
 20
668.5320119827848
 30
0.0
 11
848.5171004323239
 21
668.5323513564336
 31
0.0
  0
LINE
  5
10AA
330
1F
100
AcDbEntity
  8
SANINDUSA
100
AcDbLine
 10
848.5146143200932
 20
668.5323513564336
 30
0.0
 11
848.5149536937424
 21
668.5320119827848
 31
0.0
  0
LINE
  5
10AB
330
1F
100
AcDbEntity
  8
SANINDUSA
100
AcDbLine
 10
848.5149536937424
 20
668.5320119827848
 30
0.0
 11
848.5146143200932
 21
668.5316726091357
 31
0.0
  0
LINE
  5
10AC
330
1F
100
AcDbEntity
  8
SANINDUSA
100
AcDbLine
 10
848.5155180025596
 20
668.5307689266693
 30
0.0
 11
848.5142091103018
 21
668.5294600344113
 31
0.0
  0
LINE
  5
10AD
330
1F
100
AcDbEntity
  8
SANINDUSA
100
AcDbLine
 10
848.5161967498576
 20
668.5332550389
 30
0.0
 11
848.5175056421157
 21
668.534563931158
 31
0.0
  0
LINE
  5
10AE
330
1F
100
AcDbEntity
  8
SANINDUSA
100
AcDbLine
 10
848.5171004323239
 20
668.5316726091357
 30
0.0
 11
848.518409324582
 21
668.5303637168778
 31
0.0
  0
LINE
  5
10AF
330
1F
100
AcDbEntity
  8
SANINDUSA
100
AcDbLine
 10
848.5167610586751
 20
668.5320119827848
 30
0.0
 11
848.5158573762086
 21
668.5311083003183
 31
0.0
  0
LINE
  5
10B0
330
1F
100
AcDbEntity
  8
SANINDUSA
100
AcDbLine
 10
848.518409324582
 20
668.5336602486915
 30
0.0
 11
848.5171004323239
 21
668.5323513564336
 31
0.0
  0
LINE
  5
10B1
330
1F
100
AcDbEntity
  8
SANINDUSA
100
AcDbLine
 10
848.5149536937424
 20
668.5320119827848
 30
0.0
 11
848.5158573762086
 21
668.532915665251
 31
0.0
  0
LINE
  5
10B2
330
1F
100
AcDbEntity
  8
SANINDUSA
100
AcDbLine
 10
848.5158573762086
 20
668.5320119827848
 30
0.0
 11
848.5167610586751
 21
668.5320119827848
 31
0.0
  0
LINE
  5
10B3
330
1F
100
AcDbEntity
  8
SANINDUSA
100
AcDbLine
 10
848.5163092174419
 20
668.5315601415514
 30
0.0
 11
848.5158573762086
 21
668.5320119827848
 31
0.0
  0
LINE
  5
10B4
330
1F
100
AcDbEntity
  8
SANINDUSA
100
AcDbLine
 10
848.5175056421157
 20
668.534563931158
 30
0.0
 11
848.518409324582
 21
668.5336602486915
 31
0.0
  0
LINE
  5
10B5
330
1F
100
AcDbEntity
  8
SANINDUSA
100
AcDbLine
 10
848.5167610586751
 20
668.5320119827848
 30
0.0
 11
848.5158573762086
 21
668.532915665251
 31
0.0
  0
LINE
  5
10B6
330
1F
100
AcDbEntity
  8
SANINDUSA
100
AcDbLine
 10
848.5158573762086
 20
668.532915665251
 30
0.0
 11
848.5158573762086
 21
668.5320119827848
 31
0.0
  0
LINE
  5
10B7
330
1F
100
AcDbEntity
  8
SANINDUSA
100
AcDbLine
 10
848.5158573762086
 20
668.5320119827848
 30
0.0
 11
848.5154055349756
 21
668.5324638240179
 31
0.0
  0
LINE
  5
10B8
330
1F
100
AcDbEntity
  8
SANINDUSA
100
AcDbLine
 10
848.5158573762086
 20
668.5311083003183
 30
0.0
 11
848.5158573762086
 21
668.5320119827848
 31
0.0
  0
LINE
  5
10B9
330
1F
100
AcDbEntity
  8
SANINDUSA
100
AcDbLine
 10
848.5158573762086
 20
668.5320119827848
 30
0.0
 11
848.5149536937424
 21
668.5320119827848
 31
0.0
  0
LINE
  5
10BA
330
1F
100
AcDbEntity
  8
SANINDUSA
100
AcDbLine
 10
848.5149536937424
 20
668.5320119827848
 30
0.0
 11
848.5158573762086
 21
668.5311083003183
 31
0.0
  0
LINE
  5
10BB
330
1F
100
AcDbEntity
  8
SANINDUSA
100
AcDbLine
 10
848.5142091103018
 20
668.534563931158
 30
0.0
 11
848.5155180025596
 21
668.5332550389
 31
0.0
  0
LINE
  5
10BC
330
1F
100
AcDbEntity
  8
SANINDUSA
100
AcDbLine
 10
848.5158573762086
 20
668.5320119827848
 30
0.0
 11
848.5154055349756
 21
668.5315601415514
 31
0.0
  0
LINE
  5
10BD
330
1F
100
AcDbEntity
  8
SANINDUSA
100
AcDbLine
 10
848.5163092174419
 20
668.5324638240179
 30
0.0
 11
848.5158573762086
 21
668.5320119827848
 31
0.0
  0
LINE
  5
10BE
330
1F
100
AcDbEntity
  8
SANINDUSA
100
AcDbLine
 10
848.5175056421157
 20
668.5294600344113
 30
0.0
 11
848.5161967498576
 21
668.5307689266693
 31
0.0
  0
LINE
  5
10BF
330
1F
100
AcDbEntity
  8
SANINDUSA
100
AcDbLine
 10
848.518409324582
 20
668.5303637168778
 30
0.0
 11
848.5175056421157
 21
668.5294600344113
 31
0.0
  0
LINE
  5
10C0
330
1F
100
AcDbEntity
  8
SANINDUSA
100
AcDbLine
 10
848.4978261532884
 20
668.5387294972059
 30
0.0
 11
848.5068573762086
 21
668.5296982742856
 31
0.0
  0
LINE
  5
10C1
330
1F
100
AcDbEntity
  8
SANINDUSA
100
AcDbLine
 10
848.5027759007568
 20
668.5337797497376
 30
0.0
 11
848.5140896092557
 21
668.5450934582367
 31
0.0
  0
LINE
  5
10C2
330
1F
100
AcDbEntity
  8
SANINDUSA
100
AcDbLine
 10
848.4995939202415
 20
668.5404972641589
 30
0.0
 11
848.498179706679
 21
668.5419114777213
 31
0.0
  0
LINE
  5
10C3
330
1F
100
AcDbEntity
  8
SANINDUSA
100
AcDbLine
 10
848.4978261532884
 20
668.561356914204
 30
0.0
 11
848.507725648225
 21
668.5514574192673
 31
0.0
  0
LINE
  5
1139
330
1F
100
AcDbEntity
  8
SANINDUSA
100
AcDbLine
 10
848.2917045265725
 20
668.7674785409198
 30
0.0
 11
848.2867547791043
 21
668.7724282883881
 31
0.0
  0
LINE
  5
113A
330
1F
100
AcDbEntity
  8
SANINDUSA
100
AcDbLine
 10
848.2803908180736
 20
668.7561648324208
 30
0.0
 11
848.2917045265725
 21
668.7674785409198
 31
0.0
  0
ARC
  5
113C
330
1F
100
AcDbEntity
  8
SANINDUSA
100
AcDbCircle
 10
848.2736733036523
 20
668.774196055341
 30
0.0
 40
0.009
100
AcDbArc
 50
270.0
 51
90.0
  0
LINE
  5
113D
330
1F
100
AcDbEntity
  8
SANINDUSA
100
AcDbLine
 10
848.2564233036523
 20
668.787196055341
 30
0.0
 11
848.2564233036523
 21
668.7611960553411
 31
0.0
  0
LINE
  5
113E
330
1F
100
AcDbEntity
  8
SANINDUSA
100
AcDbLine
 10
848.2514233036523
 20
668.7591960553411
 30
0.0
 11
848.2514233036523
 21
668.7891960553411
 31
0.0
  0
LINE
  5
113F
330
1F
100
AcDbEntity
  8
SANINDUSA
100
AcDbLine
 10
848.2736733036523
 20
668.765196055341
 30
0.0
 11
848.2564233036523
 21
668.765196055341
 31
0.0
  0
LINE
  5
1140
330
1F
100
AcDbEntity
  8
SANINDUSA
100
AcDbLine
 10
848.2754410706053
 20
668.7611145798891
 30
0.0
 11
848.2867547791043
 21
668.7724282883881
 31
0.0
  0
LINE
  5
1141
330
1F
100
AcDbEntity
  8
SANINDUSA
100
AcDbLine
 10
848.2803908180736
 20
668.7561648324208
 30
0.0
 11
848.2754410706053
 21
668.7611145798891
 31
0.0
  0
LINE
  5
1142
330
1F
100
AcDbEntity
  8
SANINDUSA
100
AcDbLine
 10
848.2754410706053
 20
668.7611145798891
 30
0.0
 11
848.2713595951533
 21
668.765196055341
 31
0.0
  0
CIRCLE
  5
1143
330
1F
100
AcDbEntity
  8
SANINDUSA
100
AcDbCircle
 10
848.2736733036523
 20
668.774196055341
 30
0.0
 40
0.005085
  0
LINE
  5
1144
330
1F
100
AcDbEntity
  8
SANINDUSA
100
AcDbLine
 10
848.2867547791043
 20
668.7724282883881
 30
0.0
 11
848.2822456338492
 21
668.7769374336432
 31
0.0
  0
LINE
  5
1145
330
1F
100
AcDbEntity
  8
SANINDUSA
100
AcDbLine
 10
848.2743123036524
 20
668.7771660553411
 30
0.0
 11
848.2730343036521
 21
668.7771660553411
 31
0.0
  0
LINE
  5
1146
330
1F
100
AcDbEntity
  8
SANINDUSA
100
AcDbLine
 10
848.2707033036524
 20
668.7748350553411
 30
0.0
 11
848.2707033036524
 21
668.7735570553411
 31
0.0
  0
LINE
  5
1147
330
1F
100
AcDbEntity
  8
SANINDUSA
100
AcDbLine
 10
848.2707033036524
 20
668.7735570553411
 30
0.0
 11
848.2725543568351
 21
668.7735570553411
 31
0.0
  0
LINE
  5
1148
330
1F
100
AcDbEntity
  8
SANINDUSA
100
AcDbLine
 10
848.2736733036523
 20
668.7748350553411
 30
0.0
 11
848.2736733036523
 21
668.774196055341
 31
0.0
  0
LINE
  5
1149
330
1F
100
AcDbEntity
  8
SANINDUSA
100
AcDbLine
 10
848.2766433036523
 20
668.7735570553411
 30
0.0
 11
848.2766433036523
 21
668.7748350553411
 31
0.0
  0
LINE
  5
114A
330
1F
100
AcDbEntity
  8
SANINDUSA
100
AcDbLine
 10
848.2736733036523
 20
668.774196055341
 30
0.0
 11
848.2736733036523
 21
668.7735570553411
 31
0.0
  0
LINE
  5
114B
330
1F
100
AcDbEntity
  8
SANINDUSA
100
AcDbLine
 10
848.2766433036523
 20
668.7748350553411
 30
0.0
 11
848.2747922504694
 21
668.7748350553411
 31
0.0
  0
LINE
  5
114C
330
1F
100
AcDbEntity
  8
SANINDUSA
100
AcDbLine
 10
848.2743123036524
 20
668.7735570553411
 30
0.0
 11
848.2730343036521
 21
668.7735570553411
 31
0.0
  0
LINE
  5
114D
330
1F
100
AcDbEntity
  8
SANINDUSA
100
AcDbLine
 10
848.2730343036521
 20
668.7712260553411
 30
0.0
 11
848.2743123036524
 21
668.7712260553411
 31
0.0
  0
LINE
  5
114E
330
1F
100
AcDbEntity
  8
SANINDUSA
100
AcDbLine
 10
848.2736733036523
 20
668.774196055341
 30
0.0
 11
848.2743123036524
 21
668.7735570553411
 31
0.0
  0
LINE
  5
114F
330
1F
100
AcDbEntity
  8
SANINDUSA
100
AcDbLine
 10
848.2730343036521
 20
668.7735570553411
 30
0.0
 11
848.2736733036523
 21
668.774196055341
 31
0.0
  0
LINE
  5
1150
330
1F
100
AcDbEntity
  8
SANINDUSA
100
AcDbLine
 10
848.2736733036523
 20
668.774196055341
 30
0.0
 11
848.2743123036524
 21
668.774196055341
 31
0.0
  0
LINE
  5
1151
330
1F
100
AcDbEntity
  8
SANINDUSA
100
AcDbLine
 10
848.2743123036524
 20
668.7748350553411
 30
0.0
 11
848.2736733036523
 21
668.774196055341
 31
0.0
  0
LINE
  5
1152
330
1F
100
AcDbEntity
  8
SANINDUSA
100
AcDbLine
 10
848.2730343036521
 20
668.7748350553411
 30
0.0
 11
848.2743123036524
 21
668.7748350553411
 31
0.0
  0
LINE
  5
1153
330
1F
100
AcDbEntity
  8
SANINDUSA
100
AcDbLine
 10
848.2730343036521
 20
668.774196055341
 30
0.0
 11
848.2736733036523
 21
668.774196055341
 31
0.0
  0
LINE
  5
1154
330
1F
100
AcDbEntity
  8
SANINDUSA
100
AcDbLine
 10
848.2736733036523
 20
668.774196055341
 30
0.0
 11
848.2730343036521
 21
668.7748350553411
 31
0.0
  0
LINE
  5
1155
330
1F
100
AcDbEntity
  8
SANINDUSA
100
AcDbLine
 10
848.2743123036524
 20
668.7712260553411
 30
0.0
 11
848.2743123036524
 21
668.773077108524
 31
0.0
  0
LINE
  5
1156
330
1F
100
AcDbEntity
  8
SANINDUSA
100
AcDbLine
 10
848.2743123036524
 20
668.7735570553411
 30
0.0
 11
848.2743123036524
 21
668.7748350553411
 31
0.0
  0
LINE
  5
1157
330
1F
100
AcDbEntity
  8
SANINDUSA
100
AcDbLine
 10
848.2730343036521
 20
668.7748350553411
 30
0.0
 11
848.2730343036521
 21
668.7735570553411
 31
0.0
  0
LINE
  5
1158
330
1F
100
AcDbEntity
  8
SANINDUSA
100
AcDbLine
 10
848.2747922504694
 20
668.7735570553411
 30
0.0
 11
848.2766433036523
 21
668.7735570553411
 31
0.0
  0
LINE
  5
1159
330
1F
100
AcDbEntity
  8
SANINDUSA
100
AcDbLine
 10
848.2725543568351
 20
668.7748350553411
 30
0.0
 11
848.2707033036524
 21
668.7748350553411
 31
0.0
  0
LINE
  5
115A
330
1F
100
AcDbEntity
  8
SANINDUSA
100
AcDbLine
 10
848.2730343036521
 20
668.773077108524
 30
0.0
 11
848.2730343036521
 21
668.7712260553411
 31
0.0
  0
LINE
  5
115B
330
1F
100
AcDbEntity
  8
SANINDUSA
100
AcDbLine
 10
848.2743123036524
 20
668.7735570553411
 30
0.0
 11
848.2743123036524
 21
668.773077108524
 31
0.0
  0
LINE
  5
115C
330
1F
100
AcDbEntity
  8
SANINDUSA
100
AcDbLine
 10
848.2743123036524
 20
668.773077108524
 30
0.0
 11
848.2757734107924
 21
668.7720959482009
 31
0.0
  0
LINE
  5
115D
330
1F
100
AcDbEntity
  8
SANINDUSA
100
AcDbLine
 10
848.2747922504694
 20
668.7735570553411
 30
0.0
 11
848.2743123036524
 21
668.7735570553411
 31
0.0
  0
LINE
  5
115E
330
1F
100
AcDbEntity
  8
SANINDUSA
100
AcDbLine
 10
848.2757734107924
 20
668.7720959482009
 30
0.0
 11
848.2743123036524
 21
668.7735570553411
 31
0.0
  0
LINE
  5
115F
330
1F
100
AcDbEntity
  8
SANINDUSA
100
AcDbLine
 10
848.2757734107924
 20
668.7720959482009
 30
0.0
 11
848.2747922504694
 21
668.7735570553411
 31
0.0
  0
LINE
  5
1160
330
1F
100
AcDbEntity
  8
SANINDUSA
100
AcDbLine
 10
848.2730343036521
 20
668.7748350553411
 30
0.0
 11
848.2730343036521
 21
668.7753150021582
 31
0.0
  0
LINE
  5
1161
330
1F
100
AcDbEntity
  8
SANINDUSA
100
AcDbLine
 10
848.2725543568351
 20
668.7748350553411
 30
0.0
 11
848.2730343036521
 21
668.7748350553411
 31
0.0
  0
LINE
  5
1162
330
1F
100
AcDbEntity
  8
SANINDUSA
100
AcDbLine
 10
848.2743123036524
 20
668.7748350553411
 30
0.0
 11
848.2747922504694
 21
668.7748350553411
 31
0.0
  0
LINE
  5
1163
330
1F
100
AcDbEntity
  8
SANINDUSA
100
AcDbLine
 10
848.2743123036524
 20
668.7753150021582
 30
0.0
 11
848.2743123036524
 21
668.7748350553411
 31
0.0
  0
LINE
  5
1164
330
1F
100
AcDbEntity
  8
SANINDUSA
100
AcDbLine
 10
848.2730343036521
 20
668.7735570553411
 30
0.0
 11
848.2725543568351
 21
668.7735570553411
 31
0.0
  0
LINE
  5
1165
330
1F
100
AcDbEntity
  8
SANINDUSA
100
AcDbLine
 10
848.2725543568351
 20
668.7735570553411
 30
0.0
 11
848.2715731965122
 21
668.7720959482009
 31
0.0
  0
LINE
  5
1166
330
1F
100
AcDbEntity
  8
SANINDUSA
100
AcDbLine
 10
848.2730343036521
 20
668.773077108524
 30
0.0
 11
848.2730343036521
 21
668.7735570553411
 31
0.0
  0
LINE
  5
1167
330
1F
100
AcDbEntity
  8
SANINDUSA
100
AcDbLine
 10
848.2715731965122
 20
668.7720959482009
 30
0.0
 11
848.2730343036521
 21
668.7735570553411
 31
0.0
  0
LINE
  5
1168
330
1F
100
AcDbEntity
  8
SANINDUSA
100
AcDbLine
 10
848.2715731965122
 20
668.7720959482009
 30
0.0
 11
848.2730343036521
 21
668.773077108524
 31
0.0
  0
LINE
  5
1169
330
1F
100
AcDbEntity
  8
SANINDUSA
100
AcDbLine
 10
848.2730343036521
 20
668.7771660553411
 30
0.0
 11
848.2730343036521
 21
668.7753150021582
 31
0.0
  0
LINE
  5
116A
330
1F
100
AcDbEntity
  8
SANINDUSA
100
AcDbLine
 10
848.2743123036524
 20
668.7753150021582
 30
0.0
 11
848.2743123036524
 21
668.7771660553411
 31
0.0
  0
LINE
  5
116B
330
1F
100
AcDbEntity
  8
SANINDUSA
100
AcDbLine
 10
848.2730343036521
 20
668.7753150021582
 30
0.0
 11
848.2715731965122
 21
668.7762961624812
 31
0.0
  0
LINE
  5
116C
330
1F
100
AcDbEntity
  8
SANINDUSA
100
AcDbLine
 10
848.2715731965122
 20
668.7762961624812
 30
0.0
 11
848.2730343036521
 21
668.7748350553411
 31
0.0
  0
LINE
  5
116D
330
1F
100
AcDbEntity
  8
SANINDUSA
100
AcDbLine
 10
848.2715731965122
 20
668.7762961624812
 30
0.0
 11
848.2725543568351
 21
668.7748350553411
 31
0.0
  0
LINE
  5
116E
330
1F
100
AcDbEntity
  8
SANINDUSA
100
AcDbLine
 10
848.2747922504694
 20
668.7748350553411
 30
0.0
 11
848.2757734107924
 21
668.7762961624812
 31
0.0
  0
LINE
  5
116F
330
1F
100
AcDbEntity
  8
SANINDUSA
100
AcDbLine
 10
848.2757734107924
 20
668.7762961624812
 30
0.0
 11
848.2743123036524
 21
668.7748350553411
 31
0.0
  0
LINE
  5
1170
330
1F
100
AcDbEntity
  8
SANINDUSA
100
AcDbLine
 10
848.2757734107924
 20
668.7762961624812
 30
0.0
 11
848.2743123036524
 21
668.7753150021582
 31
0.0
  0
ARC
  5
1171
330
1F
100
AcDbEntity
  8
SANINDUSA
100
AcDbCircle
 10
848.2544233036522
 20
668.7611960553411
 30
0.0
 40
0.002
100
AcDbArc
 50
270.0
 51
0.0
  0
LINE
  5
1172
330
1F
100
AcDbEntity
  8
SANINDUSA
100
AcDbLine
 10
848.2544233036522
 20
668.7591960553411
 30
0.0
 11
848.2514233036523
 21
668.7591960553411
 31
0.0
  0
LINE
  5
1173
330
1F
100
AcDbEntity
  8
SANINDUSA
100
AcDbLine
 10
848.2736733036523
 20
668.7831960553411
 30
0.0
 11
848.2564233036523
 21
668.7831960553411
 31
0.0
  0
LINE
  5
1174
330
1F
100
AcDbEntity
  8
SANINDUSA
100
AcDbLine
 10
848.2514233036523
 20
668.7891960553411
 30
0.0
 11
848.2544233036522
 21
668.7891960553411
 31
0.0
  0
ARC
  5
1175
330
1F
100
AcDbEntity
  8
SANINDUSA
100
AcDbCircle
 10
848.2544233036522
 20
668.7871960553411
 30
0.0
 40
0.002
100
AcDbArc
 50
0.0
 51
90.0
  0
LINE
  5
151B
330
1F
100
AcDbEntity
  8
SANINDUSA
100
AcDbLine
 10
848.0668840497171
 20
667.6563294995039
 30
0.0
 11
848.0668840497171
 21
669.5062920723509
 31
0.0
  0
LINE
  5
151C
330
1F
100
AcDbEntity
  8
SANINDUSA
100
AcDbLine
 10
848.092731808782
 20
667.6563294995039
 30
0.0
 11
848.092731808782
 21
669.5062920723509
 31
0.0
  0
LINE
  5
151D
330
1F
100
AcDbEntity
  8
SANINDUSA
100
AcDbLine
 10
847.4660071814643
 20
667.6563294995039
 30
-0.0000000001555548
 11
847.4660071814643
 21
669.5062920723509
 31
-0.0000000001555548
  0
LINE
  5
151E
330
1F
100
AcDbEntity
  8
SANINDUSA
100
AcDbLine
 10
847.4140062079305
 20
667.6563294995039
 30
-0.0000000001555548
 11
847.4140062079305
 21
669.5062920723509
 31
-0.0000000001555548
  0
LINE
  5
151F
330
1F
100
AcDbEntity
  8
SANINDUSA
100
AcDbLine
 10
847.4510304855963
 20
667.6563294995039
 30
-0.0000000001555548
 11
847.4510304855963
 21
669.5062920723509
 31
-0.0000000001555548
  0
LINE
  5
1520
330
1F
100
AcDbEntity
  8
SANINDUSA
100
AcDbLine
 10
847.4116571814644
 20
667.6563294995039
 30
-0.0000000001555548
 11
847.4116571814644
 21
669.5062920723509
 31
-0.0000000001555548
  0
LINE
  5
1521
330
1F
100
AcDbEntity
  8
SANINDUSA
100
AcDbLine
 10
847.4116571814644
 20
667.6563294995039
 30
-0.0000000001555548
 11
848.092731808782
 21
667.6563294995039
 31
-0.0000000001555548
  0
LINE
  5
1522
330
1F
100
AcDbEntity
  8
SANINDUSA
100
AcDbLine
 10
847.9514389734127
 20
669.5062920723509
 30
-0.0000000001555548
 11
847.4486389734126
 21
669.5062920723509
 31
-0.0000000001555548
  0
LINE
  5
1523
330
1F
100
AcDbEntity
  8
SANINDUSA
100
AcDbLine
 10
847.4486389734126
 20
669.5062920723509
 30
-0.0000000001555548
 11
847.4116571814644
 21
669.5062920723509
 31
-0.0000000001555548
  0
LINE
  5
1524
330
1F
100
AcDbEntity
  8
SANINDUSA
100
AcDbLine
 10
848.092731808782
 20
669.5062920723509
 30
-0.0000000001555548
 11
847.9514389734127
 21
669.5062920723509
 31
-0.0000000001555548
  0
ARC
  5
1562
330
1F
100
AcDbEntity
  8
SANINDUSA
100
AcDbCircle
 10
848.2547733036522
 20
668.5179619827847
 30
0.0
 40
0.0009999999999999
100
AcDbArc
 50
90.0
 51
180.0
  0
LINE
  5
1563
330
1F
100
AcDbEntity
  8
SANINDUSA
100
AcDbLine
 10
848.2537733036522
 20
668.5169761963471
 30
0.0
 11
848.2537733036522
 21
668.5179619827847
 31
0.0
  0
LINE
  5
1564
330
1F
100
AcDbEntity
  8
SANINDUSA
100
AcDbLine
 10
848.2547733036522
 20
668.5189619827847
 30
0.0
 11
848.2897966077842
 21
668.5189619827847
 31
0.0
  0
ARC
  5
1565
330
1F
100
AcDbEntity
  8
SANINDUSA
100
AcDbCircle
 10
848.2547733036522
 20
668.5169761963471
 30
0.0
 40
0.0010000000000003
100
AcDbArc
 50
180.0
 51
225.0
  0
ARC
  5
1566
330
1F
100
AcDbEntity
  8
SANINDUSA
100
AcDbCircle
 10
848.2897966077842
 20
668.5179619827847
 30
0.0
 40
0.001
100
AcDbArc
 50
270.0
 51
90.0
  0
LINE
  5
1567
330
1F
100
AcDbEntity
  8
SANINDUSA
100
AcDbLine
 10
848.2549804104335
 20
668.5153548760034
 30
0.0
 11
848.2540661968711
 21
668.5162690895658
 31
0.0
  0
LINE
  5
1568
330
1F
100
AcDbEntity
  8
SANINDUSA
100
AcDbLine
 10
848.2897966077842
 20
668.5169619827846
 30
0.0
 11
848.2582733036522
 21
668.5169619827846
 31
0.0
  0
ARC
  5
1569
330
1F
100
AcDbEntity
  8
SANINDUSA
100
AcDbCircle
 10
848.2542733036522
 20
668.5146477692223
 30
0.0
 40
0.0010000000000003
100
AcDbArc
 50
0.0
 51
45.0
  0
ARC
  5
156A
330
1F
100
AcDbEntity
  8
SANINDUSA
100
AcDbCircle
 10
848.2582733036522
 20
668.5159619827847
 30
0.0
 40
0.001
100
AcDbArc
 50
90.0
 51
180.0
  0
LINE
  5
156B
330
1F
100
AcDbEntity
  8
SANINDUSA
100
AcDbLine
 10
848.2552733036524
 20
668.5112726429564
 30
0.0
 11
848.2552733036524
 21
668.5146477692223
 31
0.0
  0
LINE
  5
156C
330
1F
100
AcDbEntity
  8
SANINDUSA
100
AcDbLine
 10
848.2572733036523
 20
668.5159619827847
 30
0.0
 11
848.2572733036523
 21
668.4981027965075
 31
0.0
  0
ARC
  5
156D
330
1F
100
AcDbEntity
  8
SANINDUSA
100
AcDbCircle
 10
848.2555233036523
 20
668.5112726429564
 30
0.0
 40
0.0002500000000003
100
AcDbArc
 50
180.0
 51
225.0
  0
ARC
  5
156E
330
1F
100
AcDbEntity
  8
SANINDUSA
100
AcDbCircle
 10
848.2582733036522
 20
668.4981027965075
 30
0.0
 40
0.001
100
AcDbArc
 50
180.0
 51
272.1494579348975
  0
LINE
  5
156F
330
1F
100
AcDbEntity
  8
SANINDUSA
100
AcDbLine
 10
848.2558268570429
 20
668.5106155361752
 30
0.0
 11
848.2553465269571
 21
668.5110958662611
 31
0.0
  0
ARC
  5
1570
330
1F
100
AcDbEntity
  8
SANINDUSA
100
AcDbCircle
 10
848.2546831952143
 20
668.5937555424296
 30
0.0
 40
0.0967200954923435
100
AcDbArc
 50
272.1494579348975
 51
285.5601696438265
  0
ARC
  5
1571
330
1F
100
AcDbEntity
  8
SANINDUSA
100
AcDbCircle
 10
848.2554733036524
 20
668.5102619827847
 30
0.0
 40
0.0005
100
AcDbArc
 50
315.0
 51
45.0
  0
ARC
  5
1572
330
1F
100
AcDbEntity
  8
SANINDUSA
100
AcDbCircle
 10
848.2804942544117
 20
668.5010619827846
 30
0.0
 40
0.0005
100
AcDbArc
 50
285.5601696438265
 51
90.0
  0
LINE
  5
1573
330
1F
100
AcDbEntity
  8
SANINDUSA
100
AcDbLine
 10
848.2553465269571
 20
668.5094280993082
 30
0.0
 11
848.2558268570429
 21
668.5099084293941
 31
0.0
  0
LINE
  5
1574
330
1F
100
AcDbEntity
  8
SANINDUSA
100
AcDbLine
 10
848.2804942544117
 20
668.5015619827846
 30
0.0
 11
848.2677966077844
 21
668.5015619827846
 31
0.0
  0
ARC
  5
1575
330
1F
100
AcDbEntity
  8
SANINDUSA
100
AcDbCircle
 10
848.2555233036523
 20
668.509251322613
 30
0.0
 40
0.00025
100
AcDbArc
 50
135.0
 51
180.0
  0
ARC
  5
1576
330
1F
100
AcDbEntity
  8
SANINDUSA
100
AcDbCircle
 10
848.2677966077844
 20
668.5025619827847
 30
0.0
 40
0.001
100
AcDbArc
 50
90.0
 51
270.0
  0
LINE
  5
1577
330
1F
100
AcDbEntity
  8
SANINDUSA
100
AcDbLine
 10
848.2552733036524
 20
668.4990619591232
 30
0.0
 11
848.2552733036524
 21
668.509251322613
 31
0.0
  0
LINE
  5
1578
330
1F
100
AcDbEntity
  8
SANINDUSA
100
AcDbLine
 10
848.2677966077844
 20
668.5035619827847
 30
0.0
 11
848.2897966077842
 21
668.5035619827847
 31
0.0
  0
ARC
  5
1579
330
1F
100
AcDbEntity
  8
SANINDUSA
100
AcDbCircle
 10
848.2542733036522
 20
668.4990619591232
 30
0.0
 40
0.0010000000000003
100
AcDbArc
 50
314.9106959519861
 51
0.0
  0
ARC
  5
157A
330
1F
100
AcDbEntity
  8
SANINDUSA
100
AcDbCircle
 10
848.2897966077842
 20
668.5025619827847
 30
0.0
 40
0.001
100
AcDbArc
 50
291.0588352493308
 51
90.0
  0
LINE
  5
157B
330
1F
100
AcDbEntity
  8
SANINDUSA
100
AcDbLine
 10
848.2540728683323
 20
668.4974501332057
 30
0.0
 11
848.2549793074433
 21
668.4983537510695
 31
0.0
  0
ARC
  5
157C
330
1F
100
AcDbEntity
  8
SANINDUSA
100
AcDbCircle
 10
848.2546831952143
 20
668.5937555424296
 30
0.0
 40
0.0987200954923432
100
AcDbArc
 50
270.0522365954167
 51
291.0588352493308
  0
ARC
  5
157D
330
1F
100
AcDbEntity
  8
SANINDUSA
100
AcDbCircle
 10
848.2547788721232
 20
668.496741925152
 30
0.0
 40
0.0010000000000003
100
AcDbArc
 50
134.9106959519861
 51
179.4659008893282
  0
ARC
  5
157E
330
1F
100
AcDbEntity
  8
SANINDUSA
100
AcDbCircle
 10
848.2547722866708
 20
668.4960354875498
 30
0.0
 40
0.001
100
AcDbArc
 50
179.4659008893282
 51
270.0522365954167
  0
LINE
  5
157F
330
1F
100
AcDbEntity
  8
SANINDUSA
100
AcDbLine
 10
848.2537723301184
 20
668.4960448092027
 30
0.0
 11
848.2537789155708
 21
668.496751246805
 31
0.0
  0
LINE
  5
1580
330
1F
100
AcDbEntity
  8
SANINDUSA
100
AcDbLine
 10
848.2514233036523
 20
668.4950354875497
 30
0.0
 11
848.2514233036523
 21
668.5189619827847
 31
0.0
  0
LINE
  5
1581
330
1F
100
AcDbEntity
  8
SANINDUSA
100
AcDbLine
 10
848.2514233036523
 20
668.4950354875497
 30
0.0
 11
848.2524221845647
 21
668.4950354875497
 31
0.0
  0
LINE
  5
1582
330
1F
100
AcDbEntity
  8
SANINDUSA
100
AcDbLine
 10
848.2524233036523
 20
668.5189619827847
 30
0.0
 11
848.2514233036523
 21
668.5189619827847
 31
0.0
  0
ARC
  5
1583
330
1F
100
AcDbEntity
  8
SANINDUSA
100
AcDbCircle
 10
848.2524221845647
 20
668.4960354875498
 30
0.0
 40
0.0009999999999999
100
AcDbArc
 50
270.0
 51
359.4659008893282
  0
ARC
  5
1584
330
1F
100
AcDbEntity
  8
SANINDUSA
100
AcDbCircle
 10
848.2524233036523
 20
668.5179619827847
 30
0.0
 40
0.0009999999999999
100
AcDbArc
 50
0.0
 51
90.0
  0
LINE
  5
1585
330
1F
100
AcDbEntity
  8
SANINDUSA
100
AcDbLine
 10
848.2534221411171
 20
668.4960261658967
 30
0.0
 11
848.2534289307775
 21
668.4967545093837
 31
0.0
  0
LINE
  5
1586
330
1F
100
AcDbEntity
  8
SANINDUSA
100
AcDbLine
 10
848.2534233036522
 20
668.5169761963471
 30
0.0
 11
848.2534233036522
 21
668.5179619827847
 31
0.0
  0
ARC
  5
1587
330
1F
100
AcDbEntity
  8
SANINDUSA
100
AcDbCircle
 10
848.2547788721232
 20
668.496741925152
 30
0.0
 40
0.00135
100
AcDbArc
 50
134.9106959519861
 51
179.4659008893282
  0
ARC
  5
1588
330
1F
100
AcDbEntity
  8
SANINDUSA
100
AcDbCircle
 10
848.2547733036522
 20
668.5169761963471
 30
0.0
 40
0.0013499999999998
100
AcDbArc
 50
180.0
 51
225.0
  0
LINE
  5
1589
330
1F
100
AcDbEntity
  8
SANINDUSA
100
AcDbLine
 10
848.2538257670055
 20
668.4976980060244
 30
0.0
 11
848.2547322061163
 21
668.4986016238882
 31
0.0
  0
LINE
  5
158A
330
1F
100
AcDbEntity
  8
SANINDUSA
100
AcDbLine
 10
848.25473292306
 20
668.51510738863
 30
0.0
 11
848.2538187094977
 21
668.5160216021925
 31
0.0
  0
ARC
  5
158B
330
1F
100
AcDbEntity
  8
SANINDUSA
100
AcDbCircle
 10
848.2542733036522
 20
668.4990619591232
 30
0.0
 40
0.0006500000000003
100
AcDbArc
 50
314.9106959519861
 51
0.0
  0
ARC
  5
158C
330
1F
100
AcDbEntity
  8
SANINDUSA
100
AcDbCircle
 10
848.2542733036522
 20
668.5146477692223
 30
0.0
 40
0.0006500000000003
100
AcDbArc
 50
0.0
 51
45.0
  0
LINE
  5
158D
330
1F
100
AcDbEntity
  8
SANINDUSA
100
AcDbLine
 10
848.2549233036522
 20
668.4990619591232
 30
0.0
 11
848.2549233036522
 21
668.5146477692223
 31
0.0
  0
LINE
  5
158E
330
1F
100
AcDbEntity
  8
SANINDUSA
100
AcDbLine
 10
848.3033985309438
 20
668.5142619827846
 30
0.0
 11
848.3007099177935
 21
668.5142619827846
 31
0.0
  0
ARC
  5
158F
330
1F
100
AcDbEntity
  8
SANINDUSA
100
AcDbCircle
 10
848.3033985309438
 20
668.5137619827846
 30
0.0
 40
0.0005000000000001
100
AcDbArc
 50
23.57817847845152
 51
90.0
  0
ARC
  5
1590
330
1F
100
AcDbEntity
  8
SANINDUSA
100
AcDbCircle
 10
848.3007099177935
 20
668.5137619827846
 30
0.0
 40
0.0005
100
AcDbArc
 50
90.0
 51
160.5287793681242
  0
ARC
  5
1591
330
1F
100
AcDbEntity
  8
SANINDUSA
100
AcDbCircle
 10
848.3047733036523
 20
668.5143619827847
 30
0.0
 40
0.0009999999999999
100
AcDbArc
 50
203.5781784784515
 51
0.0
  0
ARC
  5
1592
330
1F
100
AcDbEntity
  8
SANINDUSA
100
AcDbCircle
 10
848.2992957042311
 20
668.5142619827846
 30
0.0
 40
0.001
100
AcDbArc
 50
199.4712206318758
 51
340.5287793681242
  0
LINE
  5
1593
330
1F
100
AcDbEntity
  8
SANINDUSA
100
AcDbLine
 10
848.3057733036524
 20
668.5143619827847
 30
0.0
 11
848.3057733036524
 21
668.5152619827847
 31
0.0
  0
ARC
  5
1594
330
1F
100
AcDbEntity
  8
SANINDUSA
100
AcDbCircle
 10
848.2978814906688
 20
668.5137619827846
 30
0.0
 40
0.0004999999999999
100
AcDbArc
 50
19.47122063187581
 51
90.0
  0
ARC
  5
1595
330
1F
100
AcDbEntity
  8
SANINDUSA
100
AcDbCircle
 10
848.3047733036523
 20
668.5152619827847
 30
0.0
 40
0.0009999999999999
100
AcDbArc
 50
0.0
 51
90.0
  0
LINE
  5
1596
330
1F
100
AcDbEntity
  8
SANINDUSA
100
AcDbLine
 10
848.2978814906688
 20
668.5142619827846
 30
0.0
 11
848.2962953274121
 21
668.5142619827846
 31
0.0
  0
LINE
  5
1597
330
1F
100
AcDbEntity
  8
SANINDUSA
100
AcDbLine
 10
848.3047733036523
 20
668.5162619827847
 30
0.0
 11
848.2732733036524
 21
668.5162619827847
 31
0.0
  0
ARC
  5
1598
330
1F
100
AcDbEntity
  8
SANINDUSA
100
AcDbCircle
 10
848.2962953274121
 20
668.5137619827846
 30
0.0
 40
0.0005
100
AcDbArc
 50
90.0
 51
180.0
  0
ARC
  5
1599
330
1F
100
AcDbEntity
  8
SANINDUSA
100
AcDbCircle
 10
848.2732733036524
 20
668.5152619827847
 30
0.0
 40
0.001
100
AcDbArc
 50
90.0
 51
270.0
  0
LINE
  5
159A
330
1F
100
AcDbEntity
  8
SANINDUSA
100
AcDbLine
 10
848.2957953274121
 20
668.5137619827846
 30
0.0
 11
848.2957953274121
 21
668.5067619827847
 31
0.0
  0
LINE
  5
159B
330
1F
100
AcDbEntity
  8
SANINDUSA
100
AcDbLine
 10
848.2732733036524
 20
668.5142619827846
 30
0.0
 11
848.2932953274122
 21
668.5142619827846
 31
0.0
  0
ARC
  5
159C
330
1F
100
AcDbEntity
  8
SANINDUSA
100
AcDbCircle
 10
848.2962953274121
 20
668.5067619827847
 30
0.0
 40
0.0005
100
AcDbArc
 50
180.0
 51
270.0
  0
ARC
  5
159D
330
1F
100
AcDbEntity
  8
SANINDUSA
100
AcDbCircle
 10
848.2932953274122
 20
668.5137619827846
 30
0.0
 40
0.0005000000000001
100
AcDbArc
 50
0.0
 51
90.0
  0
LINE
  5
159E
330
1F
100
AcDbEntity
  8
SANINDUSA
100
AcDbLine
 10
848.2962953274121
 20
668.5062619827847
 30
0.0
 11
848.2978814906688
 21
668.5062619827847
 31
0.0
  0
LINE
  5
159F
330
1F
100
AcDbEntity
  8
SANINDUSA
100
AcDbLine
 10
848.2937953274122
 20
668.5137619827846
 30
0.0
 11
848.2937953274122
 21
668.5067619827847
 31
0.0
  0
ARC
  5
15A0
330
1F
100
AcDbEntity
  8
SANINDUSA
100
AcDbCircle
 10
848.2978814906688
 20
668.5067619827847
 30
0.0
 40
0.0005
100
AcDbArc
 50
270.0
 51
340.5287793681242
  0
ARC
  5
15A1
330
1F
100
AcDbEntity
  8
SANINDUSA
100
AcDbCircle
 10
848.2932953274122
 20
668.5067619827847
 30
0.0
 40
0.0005000000000001
100
AcDbArc
 50
270.0
 51
0.0
  0
ARC
  5
15A2
330
1F
100
AcDbEntity
  8
SANINDUSA
100
AcDbCircle
 10
848.2992957042311
 20
668.5062619827847
 30
0.0
 40
0.001
100
AcDbArc
 50
19.47122063187581
 51
160.5287793681242
  0
LINE
  5
15A3
330
1F
100
AcDbEntity
  8
SANINDUSA
100
AcDbLine
 10
848.2932953274122
 20
668.5062619827847
 30
0.0
 11
848.2732733036524
 21
668.5062619827847
 31
0.0
  0
ARC
  5
15A4
330
1F
100
AcDbEntity
  8
SANINDUSA
100
AcDbCircle
 10
848.3007099177935
 20
668.5067619827847
 30
0.0
 40
0.0005
100
AcDbArc
 50
199.4712206318758
 51
270.0
  0
ARC
  5
15A5
330
1F
100
AcDbEntity
  8
SANINDUSA
100
AcDbCircle
 10
848.2732733036524
 20
668.5052619827846
 30
0.0
 40
0.001
100
AcDbArc
 50
90.0
 51
270.0
  0
LINE
  5
15A6
330
1F
100
AcDbEntity
  8
SANINDUSA
100
AcDbLine
 10
848.3007099177935
 20
668.5062619827847
 30
0.0
 11
848.3033985309438
 21
668.5062619827847
 31
0.0
  0
LINE
  5
15A7
330
1F
100
AcDbEntity
  8
SANINDUSA
100
AcDbLine
 10
848.2732733036524
 20
668.5042619827846
 30
0.0
 11
848.3047733036523
 21
668.5042619827846
 31
0.0
  0
ARC
  5
15A8
330
1F
100
AcDbEntity
  8
SANINDUSA
100
AcDbCircle
 10
848.3033985309438
 20
668.5067619827847
 30
0.0
 40
0.0005000000000001
100
AcDbArc
 50
270.0
 51
336.4218215215485
  0
ARC
  5
15A9
330
1F
100
AcDbEntity
  8
SANINDUSA
100
AcDbCircle
 10
848.3047733036523
 20
668.5052619827846
 30
0.0
 40
0.0010000000000001
100
AcDbArc
 50
270.0
 51
0.0
  0
ARC
  5
15AA
330
1F
100
AcDbEntity
  8
SANINDUSA
100
AcDbCircle
 10
848.3047733036523
 20
668.5061619827846
 30
0.0
 40
0.0009999999999999
100
AcDbArc
 50
0.0
 51
156.4218215215485
  0
LINE
  5
15AB
330
1F
100
AcDbEntity
  8
SANINDUSA
100
AcDbLine
 10
848.3057733036524
 20
668.5052619827846
 30
0.0
 11
848.3057733036524
 21
668.5061619827846
 31
0.0
  0
LINE
  5
15AC
330
1F
100
AcDbEntity
  8
SANINDUSA
100
AcDbLine
 10
848.9566501719052
 20
668.5134412990088
 30
0.0000000001555548
 11
848.9566501719052
 21
668.5129619865943
 31
0.0000000001555548
  0
LINE
  5
15AD
330
1F
100
AcDbEntity
  8
SANINDUSA
100
AcDbLine
 10
848.9591501719051
 20
668.5133924616025
 30
0.0000000001555548
 11
848.9592093956359
 21
668.5129968702101
 31
0.0000000001555548
  0
ARC
  5
15AE
330
1F
100
AcDbEntity
  8
SANINDUSA
100
AcDbCircle
 10
848.9574501719051
 20
668.5134412990088
 30
0.0000000001555548
 40
0.0008
100
AcDbArc
 50
98.51447843397879
 51
180.0
  0
ARC
  5
15AF
330
1F
100
AcDbEntity
  8
SANINDUSA
100
AcDbCircle
 10
848.9598963620016
 20
668.5117852278485
 30
0.0000000001555548
 40
0.0002
100
AcDbArc
 50
188.5144784339788
 51
8.514478433978798
  0
LINE
  5
15B0
330
1F
100
AcDbEntity
  8
SANINDUSA
100
AcDbLine
 10
848.9569945897033
 20
668.5078586801386
 30
0.0000000001555548
 11
848.9592093956359
 21
668.5075271029785
 31
0.0000000001555548
  0
ARC
  5
15B1
330
1F
100
AcDbEntity
  8
SANINDUSA
100
AcDbCircle
 10
848.9598963620016
 20
668.5087387453401
 30
0.0000000001555548
 40
0.0002
100
AcDbArc
 50
351.4855215660213
 51
171.4855215660212
  0
LINE
  5
15B2
330
1F
100
AcDbEntity
  8
SANINDUSA
100
AcDbLine
 10
848.9591501719051
 20
668.5071315115862
 30
0.0000000001555548
 11
848.9592093956359
 21
668.5075271029785
 31
0.0000000001555548
  0
ARC
  5
15B3
330
1F
100
AcDbEntity
  8
SANINDUSA
100
AcDbCircle
 10
848.9569501719051
 20
668.5075619865942
 30
0.0000000001555548
 40
0.0003
100
AcDbArc
 50
81.4855215660212
 51
180.0
  0
ARC
  5
15B4
330
1F
100
AcDbEntity
  8
SANINDUSA
100
AcDbCircle
 10
848.9569501719051
 20
668.5129619865943
 30
0.0000000001555548
 40
0.0003
100
AcDbArc
 50
180.0
 51
278.5144784339788
  0
LINE
  5
15B5
330
1F
100
AcDbEntity
  8
SANINDUSA
100
AcDbLine
 10
848.9569945897033
 20
668.5126652930501
 30
0.0000000001555548
 11
848.9592093956359
 21
668.5129968702101
 31
0.0000000001555548
  0
LINE
  5
15B6
330
1F
100
AcDbEntity
  8
SANINDUSA
100
AcDbLine
 10
848.9598424568418
 20
668.5134961031313
 30
0.0000000001555548
 11
848.9600941576977
 21
668.5118148397139
 31
0.0000000001555548
  0
LINE
  5
15B7
330
1F
100
AcDbEntity
  8
SANINDUSA
100
AcDbLine
 10
848.9594468654495
 20
668.5134368794006
 30
0.0000000001555548
 11
848.9596985663055
 21
668.511755615983
 31
0.0000000001555548
  0
LINE
  5
15B8
330
1F
100
AcDbEntity
  8
SANINDUSA
100
AcDbLine
 10
848.9619687605756
 20
668.5138144306846
 30
0.0000000001555548
 11
848.9620279843064
 21
668.5134188392923
 31
0.0000000001555548
  0
ARC
  5
15B9
330
1F
100
AcDbEntity
  8
SANINDUSA
100
AcDbCircle
 10
848.9683501719051
 20
668.5140619865942
 30
0.0000000001555548
 40
0.0003
100
AcDbArc
 50
0.0
 51
98.51447843397879
  0
ARC
  5
15BA
330
1F
100
AcDbEntity
  8
SANINDUSA
100
AcDbCircle
 10
848.9676077710759
 20
668.5149619865942
 30
0.0000000001555548
 40
0.0008
100
AcDbArc
 50
90.0
 51
98.51447843397879
  0
LINE
  5
15BB
330
1F
100
AcDbEntity
  8
SANINDUSA
100
AcDbLine
 10
848.9671501719051
 20
668.5141856786763
 30
0.0000000001555548
 11
848.9683057541069
 21
668.5143586801386
 31
0.0000000001555548
  0
LINE
  5
15BC
330
1F
100
AcDbEntity
  8
SANINDUSA
100
AcDbLine
 10
848.9671501719051
 20
668.5141856786763
 30
0.0000000001555548
 11
848.9671501719051
 21
668.5133619865943
 31
0.0000000001555548
  0
LINE
  5
15BD
330
1F
100
AcDbEntity
  8
SANINDUSA
100
AcDbLine
 10
848.9671501719051
 20
668.5133619865943
 30
0.0000000001555548
 11
848.9659501719051
 21
668.5133619865943
 31
0.0000000001555548
  0
LINE
  5
15BE
330
1F
100
AcDbEntity
  8
SANINDUSA
100
AcDbLine
 10
848.9659501719051
 20
668.5140060274545
 30
0.0000000001555548
 11
848.9659501719051
 21
668.5133619865943
 31
0.0000000001555548
  0
LINE
  5
15BF
330
1F
100
AcDbEntity
  8
SANINDUSA
100
AcDbLine
 10
848.9620279843064
 20
668.5134188392923
 30
0.0000000001555548
 11
848.9659501719051
 21
668.5140060274545
 31
0.0000000001555548
  0
LINE
  5
15C0
330
1F
100
AcDbEntity
  8
SANINDUSA
100
AcDbLine
 10
848.9671501719051
 20
668.5071619865943
 30
0.0000000001555548
 11
848.9659501719051
 21
668.5071619865943
 31
0.0000000001555548
  0
LINE
  5
15C1
330
1F
100
AcDbEntity
  8
SANINDUSA
100
AcDbLine
 10
848.9573317244433
 20
668.5142324817934
 30
0.0000000001555548
 11
848.9674893236143
 21
668.5157531693789
 31
0.0000000001555548
  0
LINE
  5
15C2
330
1F
100
AcDbEntity
  8
SANINDUSA
100
AcDbLine
 10
848.9591501719051
 20
668.5133924616025
 30
0.0000000001555548
 11
848.9619687605756
 21
668.5138144306846
 31
0.0000000001555548
  0
ARC
  5
15C3
330
1F
100
AcDbEntity
  8
SANINDUSA
100
AcDbCircle
 10
848.9574501719051
 20
668.5070826741799
 30
0.0000000001555548
 40
0.0008
100
AcDbArc
 50
180.0
 51
261.4855215660213
  0
LINE
  5
15C4
330
1F
100
AcDbEntity
  8
SANINDUSA
100
AcDbLine
 10
848.9619687605756
 20
668.5067095425039
 30
0.0000000001555548
 11
848.9620279843064
 21
668.5071051338963
 31
0.0000000001555548
  0
ARC
  5
15C5
330
1F
100
AcDbEntity
  8
SANINDUSA
100
AcDbCircle
 10
848.9683501719051
 20
668.5064619865943
 30
0.0000000001555548
 40
0.0003
100
AcDbArc
 50
261.4855215660213
 51
0.0
  0
ARC
  5
15C6
330
1F
100
AcDbEntity
  8
SANINDUSA
100
AcDbCircle
 10
848.9676077710759
 20
668.5055619865943
 30
0.0000000001555548
 40
0.0008
100
AcDbArc
 50
261.4855215660213
 51
270.0
  0
LINE
  5
15C7
330
1F
100
AcDbEntity
  8
SANINDUSA
100
AcDbLine
 10
848.9683057541069
 20
668.50616529305
 30
0.0000000001555548
 11
848.9671501719051
 21
668.5063382945121
 31
0.0000000001555548
  0
LINE
  5
15C8
330
1F
100
AcDbEntity
  8
SANINDUSA
100
AcDbLine
 10
848.9620279843064
 20
668.5071051338963
 30
0.0000000001555548
 11
848.9659501719051
 21
668.5065179457341
 31
0.0000000001555548
  0
LINE
  5
15C9
330
1F
100
AcDbEntity
  8
SANINDUSA
100
AcDbLine
 10
848.9674893236143
 20
668.5047708038096
 30
0.0000000001555548
 11
848.9573317244433
 21
668.5062914913951
 31
0.0000000001555548
  0
LINE
  5
15CA
330
1F
100
AcDbEntity
  8
SANINDUSA
100
AcDbLine
 10
848.9686501719051
 20
668.5140619865942
 30
0.0000000001555548
 11
848.9686501719051
 21
668.5064619865943
 31
0.0000000001555548
  0
LINE
  5
15CB
330
1F
100
AcDbEntity
  8
SANINDUSA
100
AcDbLine
 10
848.9566501719052
 20
668.5075619865942
 30
0.0000000001555548
 11
848.9566501719052
 21
668.5070826741799
 31
0.0000000001555548
  0
LINE
  5
15CC
330
1F
100
AcDbEntity
  8
SANINDUSA
100
AcDbLine
 10
848.9659501719051
 20
668.5071619865943
 30
0.0000000001555548
 11
848.9659501719051
 21
668.5065179457341
 31
0.0000000001555548
  0
LINE
  5
15CD
330
1F
100
AcDbEntity
  8
SANINDUSA
100
AcDbLine
 10
848.9671501719051
 20
668.5071619865943
 30
0.0000000001555548
 11
848.9671501719051
 21
668.5063382945121
 31
0.0000000001555548
  0
LINE
  5
15CE
330
1F
100
AcDbEntity
  8
SANINDUSA
100
AcDbLine
 10
848.9591501719051
 20
668.5071315115862
 30
0.0000000001555548
 11
848.9619687605756
 21
668.5067095425039
 31
0.0000000001555548
  0
LINE
  5
15CF
330
1F
100
AcDbEntity
  8
SANINDUSA
100
AcDbLine
 10
848.9594468654495
 20
668.5070870937879
 30
0.0000000001555548
 11
848.9596985663055
 21
668.5087683572056
 31
0.0000000001555548
  0
LINE
  5
15D0
330
1F
100
AcDbEntity
  8
SANINDUSA
100
AcDbLine
 10
848.9598424568418
 20
668.5070278700571
 30
0.0000000001555548
 11
848.9600941576977
 21
668.5087091334747
 31
0.0000000001555548
  0
LINE
  5
15D1
330
1F
100
AcDbEntity
  8
SANINDUSA
100
AcDbLine
 10
848.9701501719052
 20
668.5157619865942
 30
0.0000000001555548
 11
848.972407531218
 21
668.5157619865942
 31
0.0000000001555548
  0
ARC
  5
15D2
330
1F
100
AcDbEntity
  8
SANINDUSA
100
AcDbCircle
 10
848.9711501719051
 20
668.5137619865943
 30
0.0000000001555548
 40
0.001
100
AcDbArc
 50
90.0
 51
180.0
  0
ARC
  5
15D3
330
1F
100
AcDbEntity
  8
SANINDUSA
100
AcDbCircle
 10
848.972419953008
 20
668.5144119654571
 30
0.0000000001555548
 40
0.00075
100
AcDbArc
 50
89.80500889913486
 51
132.8322405012114
  0
ARC
  5
15D4
330
1F
100
AcDbEntity
  8
SANINDUSA
100
AcDbCircle
 10
848.971400171905
 20
668.5155119865943
 30
0.0000000001555548
 40
0.00075
100
AcDbArc
 50
270.0
 51
312.8322405012114
  0
LINE
  5
15D5
330
1F
100
AcDbEntity
  8
SANINDUSA
100
AcDbLine
 10
848.971400171905
 20
668.5147619865943
 30
0.0000000001555548
 11
848.9711501719051
 21
668.5147619865943
 31
0.0000000001555548
  0
LINE
  5
15D6
330
1F
100
AcDbEntity
  8
SANINDUSA
100
AcDbLine
 10
848.9760654262306
 20
668.5133266312557
 30
0.0000000001555548
 11
848.9755188010553
 21
668.5138732564316
 31
0.0000000001555548
  0
ARC
  5
15D7
330
1F
100
AcDbEntity
  8
SANINDUSA
100
AcDbCircle
 10
848.976631111655
 20
668.5128316565078
 30
0.0000000001555548
 40
0.0002
100
AcDbArc
 50
44.99999992630503
 51
134.9999998986694
  0
ARC
  5
15D8
330
1F
100
AcDbEntity
  8
SANINDUSA
100
AcDbCircle
 10
848.972407531218
 20
668.5107619865942
 30
0.0000000001555548
 40
0.005
100
AcDbArc
 50
45.0
 51
90.0
  0
ARC
  5
15D9
330
1F
100
AcDbEntity
  8
SANINDUSA
100
AcDbCircle
 10
848.972407531218
 20
668.5107619865942
 30
0.0000000001555548
 40
0.0044
100
AcDbArc
 50
45.0
 51
89.80500889913486
  0
ARC
  5
15DA
330
1F
100
AcDbEntity
  8
SANINDUSA
100
AcDbCircle
 10
848.9754643854681
 20
668.5112406662576
 30
0.0000000001555548
 40
0.00075
100
AcDbArc
 50
135.0
 51
225.0000000322415
  0
ARC
  5
15DB
330
1F
100
AcDbEntity
  8
SANINDUSA
100
AcDbCircle
 10
848.9754643854681
 20
668.5112406662576
 30
0.0000000001555548
 40
0.0005
100
AcDbArc
 50
135.0
 51
225.0000000322415
  0
ARC
  5
15DC
330
1F
100
AcDbEntity
  8
SANINDUSA
100
AcDbCircle
 10
848.9758532941962
 20
668.5131144992213
 30
0.0000000001555548
 40
0.0003
100
AcDbArc
 50
314.9999998894576
 51
45.0
  0
LINE
  5
15DD
330
1F
100
AcDbEntity
  8
SANINDUSA
100
AcDbLine
 10
848.9767018223352
 20
668.5135387632889
 30
0.0000000001555548
 11
848.9749340553826
 21
668.5117709963438
 31
0.0000000001555548
  0
LINE
  5
15DE
330
1F
100
AcDbEntity
  8
SANINDUSA
100
AcDbLine
 10
848.9764896902991
 20
668.5129730778643
 30
0.0000000001555548
 11
848.9751108320776
 21
668.5115942196482
 31
0.0000000001555548
  0
ARC
  5
15DF
330
1F
100
AcDbEntity
  8
SANINDUSA
100
AcDbCircle
 10
848.9812273057378
 20
668.5077404876802
 30
0.0000000001555548
 40
0.0003
100
AcDbArc
 50
45.0
 51
134.9999999631525
  0
ARC
  5
15E0
330
1F
100
AcDbEntity
  8
SANINDUSA
100
AcDbCircle
 10
848.9809444630257
 20
668.508518305126
 30
0.0000000001555548
 40
0.0002
100
AcDbArc
 50
314.9999997006142
 51
44.9999999355169
  0
LINE
  5
15E1
330
1F
100
AcDbEntity
  8
SANINDUSA
100
AcDbLine
 10
848.9816401213987
 20
668.507751936088
 30
0.0000000001555548
 11
848.9814394377722
 21
668.5079526197146
 31
0.0000000001555548
  0
LINE
  5
15E2
330
1F
100
AcDbEntity
  8
SANINDUSA
100
AcDbLine
 10
848.9820643854676
 20
668.5081762001566
 30
0.0000000001555548
 11
848.975943065124
 21
668.5142975205002
 31
0.0000000001555548
  0
LINE
  5
15E3
330
1F
100
AcDbEntity
  8
SANINDUSA
100
AcDbLine
 10
848.9810858843821
 20
668.5086597264821
 30
0.0000000001555548
 11
848.9767725330116
 21
668.5129730778639
 31
0.0000000001555548
  0
ARC
  5
15E4
330
1F
100
AcDbEntity
  8
SANINDUSA
100
AcDbCircle
 10
848.9711501719051
 20
668.5067619865942
 30
0.0000000001555548
 40
0.001
100
AcDbArc
 50
180.0
 51
270.0
  0
ARC
  5
15E5
330
1F
100
AcDbEntity
  8
SANINDUSA
100
AcDbCircle
 10
848.9761699758078
 20
668.5061119865943
 30
0.0000000001555548
 40
0.00075
100
AcDbArc
 50
227.1665719349698
 51
270.0
  0
ARC
  5
15E6
330
1F
100
AcDbEntity
  8
SANINDUSA
100
AcDbCircle
 10
848.9751501719052
 20
668.5050119865942
 30
0.0000000001555548
 40
0.00075
100
AcDbArc
 50
47.16657193496977
 51
90.0
  0
LINE
  5
15E7
330
1F
100
AcDbEntity
  8
SANINDUSA
100
AcDbLine
 10
848.9711501719051
 20
668.5057619865943
 30
0.0000000001555548
 11
848.9751501719052
 21
668.5057619865943
 31
0.0000000001555548
  0
ARC
  5
15E8
330
1F
100
AcDbEntity
  8
SANINDUSA
100
AcDbCircle
 10
848.9793534727699
 20
668.5073515789541
 30
0.0000000001555548
 40
0.00075
100
AcDbArc
 50
225.0
 51
315.0
  0
ARC
  5
15E9
330
1F
100
AcDbEntity
  8
SANINDUSA
100
AcDbCircle
 10
848.9793534727699
 20
668.5073515789541
 30
0.0000000001555548
 40
0.0005
100
AcDbArc
 50
225.0
 51
315.0
  0
LINE
  5
15EA
330
1F
100
AcDbEntity
  8
SANINDUSA
100
AcDbLine
 10
848.9701501719052
 20
668.5047619865943
 30
0.0000000001555548
 11
848.9806501719051
 21
668.5047619865943
 31
0.0000000001555548
  0
LINE
  5
15EB
330
1F
100
AcDbEntity
  8
SANINDUSA
100
AcDbLine
 10
848.9761699758078
 20
668.5053619865942
 30
0.0000000001555548
 11
848.9806501719051
 21
668.5053619865942
 31
0.0000000001555548
  0
ARC
  5
15EC
330
1F
100
AcDbEntity
  8
SANINDUSA
100
AcDbCircle
 10
848.9806501719051
 20
668.5067619865942
 30
0.0000000001555548
 40
0.002
100
AcDbArc
 50
270.0
 51
45.0
  0
LINE
  5
15ED
330
1F
100
AcDbEntity
  8
SANINDUSA
100
AcDbLine
 10
848.9788231426839
 20
668.5068212488683
 30
0.0000000001555548
 11
848.9749340553824
 21
668.5107103361715
 31
0.0000000001555548
  0
ARC
  5
15EE
330
1F
100
AcDbEntity
  8
SANINDUSA
100
AcDbCircle
 10
848.9806501719051
 20
668.5067619865942
 30
0.0000000001555548
 40
0.0014
100
AcDbArc
 50
270.0
 51
45.0
  0
LINE
  5
15EF
330
1F
100
AcDbEntity
  8
SANINDUSA
100
AcDbLine
 10
848.981651569807
 20
668.5085890158172
 30
0.0000000001555548
 11
848.979883802856
 21
668.5068212488686
 31
0.0000000001555548
  0
LINE
  5
15F0
330
1F
100
AcDbEntity
  8
SANINDUSA
100
AcDbLine
 10
848.9701501719052
 20
668.5137619865943
 30
0.0000000001555548
 11
848.9701501719052
 21
668.5067619865942
 31
0.0000000001555548
  0
HATCH
  5
15F1
330
1F
100
AcDbEntity
  8
SANINDUSA
100
AcDbHatch
 10
0.0
 20
0.0
 30
0.0000000001555548
210
0.0
220
0.0
230
1.0
  2
ANSI31
 70
     0
 71
     0
 91
        1
 92
        5
 93
        8
 72
     1
 10
848.9751108320783
 20
668.5115942196489
 11
848.9764896902991
 21
668.5129730778644
 72
     3
 10
848.976631111655
 20
668.5128316565078
 11
-0.0001414213562373
 21
0.0001414213562373
 40
0.9999999999999998
 50
0.0000001128454122
 51
90.0000000750767
 73
     0
 72
     1
 10
848.9767725330116
 20
668.5129730778639
 11
848.9810858843821
 21
668.508659726482
 72
     3
 10
848.9809444630257
 20
668.508518305126
 11
-0.0001414213562379
 21
0.0001414213562379
 40
0.9999999999959808
 50
90.00000007461613
 51
180.0000003175792
 73
     0
 72
     1
 10
848.9810858843812
 20
668.508376883769
 11
848.9797070261584
 21
668.5069980255616
 72
     3
 10
848.9793534727699
 20
668.5073515789541
 11
-0.0003535533905932
 21
0.0003535533905932
 40
0.9999999999999996
 50
180.0000003177174
 51
270.0000000129887
 73
     0
 72
     1
 10
848.9789999193792
 20
668.5069980255637
 11
848.9751108320776
 21
668.5108871128671
 72
     3
 10
848.9754643854681
 20
668.5112406662576
 11
-0.0003535533905932
 21
0.0003535533905932
 40
0.9999999999983922
 50
270.0000000130808
 51
360.0000001128454
 73
     0
 97
        0
 75
     0
 76
     1
 52
45.0
 41
0.0025
 77
     0
 78
     1
 53
90.0
 43
849.2447647065459
 44
668.114990085205
 45
0.00079375
 46
0.0
 79
     0
 47
0.0364805528584695
 98
        1
 10
840.5834548449488
 20
661.1838771399419
  0
LINE
  5
15F2
330
1F
100
AcDbEntity
  8
SANINDUSA
100
AcDbLine
 10
848.9789999193792
 20
668.5069980255636
 30
0.0000000001555548
 11
848.9751108320778
 21
668.5108871128668
 31
0.0000000001555548
  0
LINE
  5
15F3
330
1F
100
AcDbEntity
  8
SANINDUSA
100
AcDbLine
 10
848.9810858843812
 20
668.508376883769
 30
0.0000000001555548
 11
848.9797070261603
 21
668.5069980255636
 31
0.0000000001555548
  0
LINE
  5
15F4
330
1F
100
AcDbEntity
  8
SANINDUSA
100
AcDbLine
 10
848.9701501719052
 20
668.5157619865942
 30
0.0000000001555548
 11
848.9676077710759
 21
668.5157619865942
 31
0.0000000001555548
  0
LINE
  5
15F5
330
1F
100
AcDbEntity
  8
SANINDUSA
100
AcDbLine
 10
848.9701501719052
 20
668.5047619865943
 30
0.0000000001555548
 11
848.9676077710759
 21
668.5047619865943
 31
0.0000000001555548
  0
ENDSEC
  0
SECTION
  2
OBJECTS
  0
DICTIONARY
  5
C
330
0
100
AcDbDictionary
281
     1
  3
ACAD_COLOR
350
1625
  3
ACAD_GROUP
350
D
  3
ACAD_LAYOUT
350
1A
  3
ACAD_MATERIAL
350
15F8
  3
ACAD_MLEADERSTYLE
350
163A
  3
ACAD_MLINESTYLE
350
17
  3
ACAD_PLOTSETTINGS
350
19
  3
ACAD_PLOTSTYLENAME
350
E
  3
ACAD_SCALELIST
350
1628
  3
ACAD_TABLESTYLE
350
1626
  3
ACAD_VISUALSTYLE
350
1611
  3
ACDB_RECOMPOSE_DATA
350
16C7
  3
AcDbVariableDictionary
350
3D
  3
ASE_INDEX_DICTIONARY
350
155F
  3
DWGPROPS
350
16C8
  0
DICTIONARY
  5
1662
330
10
100
AcDbDictionary
280
     1
281
     1
  3
ADSK_XREC_LAYER_RECONCILED
360
1663
  0
DICTIONARY
  5
1664
330
2F
100
AcDbDictionary
280
     1
281
     1
  3
ADSK_XREC_LAYER_RECONCILED
360
1665
  0
DICTIONARY
  5
1666
330
30
100
AcDbDictionary
280
     1
281
     1
  3
ADSK_XREC_LAYER_RECONCILED
360
1667
  0
DICTIONARY
  5
1668
330
31
100
AcDbDictionary
280
     1
281
     1
  3
ADSK_XREC_LAYER_RECONCILED
360
1669
  0
DICTIONARY
  5
166A
330
32
100
AcDbDictionary
280
     1
281
     1
  3
ADSK_XREC_LAYER_RECONCILED
360
166B
  0
DICTIONARY
  5
166C
330
33
100
AcDbDictionary
280
     1
281
     1
  3
ADSK_XREC_LAYER_RECONCILED
360
166D
  0
DICTIONARY
  5
166E
330
34
100
AcDbDictionary
280
     1
281
     1
  3
ADSK_XREC_LAYER_RECONCILED
360
166F
  0
DICTIONARY
  5
1670
330
35
100
AcDbDictionary
280
     1
281
     1
  3
ADSK_XREC_LAYER_RECONCILED
360
1671
  0
DICTIONARY
  5
1672
330
36
100
AcDbDictionary
280
     1
281
     1
  3
ADSK_XREC_LAYER_RECONCILED
360
1673
  0
DICTIONARY
  5
1674
330
37
100
AcDbDictionary
280
     1
281
     1
  3
ADSK_XREC_LAYER_RECONCILED
360
1675
  0
DICTIONARY
  5
1676
330
5D6
100
AcDbDictionary
280
     1
281
     1
  3
ADSK_XREC_LAYER_RECONCILED
360
1677
  0
DICTIONARY
  5
1678
330
8AF
100
AcDbDictionary
280
     1
281
     1
  3
ADSK_XREC_LAYER_RECONCILED
360
1679
  0
DICTIONARY
  5
167A
330
8F8
100
AcDbDictionary
280
     1
281
     1
  3
ADSK_XREC_LAYER_RECONCILED
360
167B
  0
DICTIONARY
  5
167C
330
91D
100
AcDbDictionary
280
     1
281
     1
  3
ADSK_XREC_LAYER_RECONCILED
360
167D
  0
DICTIONARY
  5
167E
330
C2F
100
AcDbDictionary
280
     1
281
     1
  3
ADSK_XREC_LAYER_RECONCILED
360
167F
  0
DICTIONARY
  5
1680
330
1661
100
AcDbDictionary
280
     1
281
     1
  3
ADSK_XREC_LAYER_RECONCILED
360
1681
  0
DICTIONARY
  5
1625
102
{ACAD_REACTORS
330
C
102
}
330
C
100
AcDbDictionary
281
     1
  0
DICTIONARY
  5
D
102
{ACAD_REACTORS
330
C
102
}
330
C
100
AcDbDictionary
281
     1
  0
DICTIONARY
  5
1A
102
{ACAD_REACTORS
330
C
102
}
330
C
100
AcDbDictionary
281
     1
  3
Layout1
350
1E
  3
Layout2
350
26
  3
Model
350
22
  0
DICTIONARY
  5
15F8
102
{ACAD_REACTORS
330
C
102
}
330
C
100
AcDbDictionary
281
     1
  3
ByBlock
350
1601
  3
ByLayer
350
15F9
  3
Global
350
1609
  0
DICTIONARY
  5
163A
102
{ACAD_REACTORS
330
C
102
}
330
C
100
AcDbDictionary
281
     1
  3
Standard
350
163B
  0
DICTIONARY
  5
17
102
{ACAD_REACTORS
330
C
102
}
330
C
100
AcDbDictionary
281
     1
  3
Standard
350
18
  0
DICTIONARY
  5
19
102
{ACAD_REACTORS
330
C
102
}
330
C
100
AcDbDictionary
281
     1
  0
ACDBDICTIONARYWDFLT
  5
E
102
{ACAD_REACTORS
330
C
102
}
330
C
100
AcDbDictionary
281
     1
  3
Normal
350
F
100
AcDbDictionaryWithDefault
340
F
  0
DICTIONARY
  5
1628
102
{ACAD_REACTORS
330
C
102
}
330
C
100
AcDbDictionary
281
     1
  3
A0
350
1629
  3
A1
350
162A
  3
A2
350
162B
  3
A3
350
162C
  3
A4
350
162D
  3
A5
350
162E
  3
A6
350
162F
  3
A7
350
1630
  3
A8
350
1631
  3
A9
350
1632
  3
B0
350
1633
  3
B1
350
1634
  3
B2
350
1635
  3
B3
350
1636
  3
B4
350
1637
  3
B5
350
1638
  3
B6
350
1639
  0
DICTIONARY
  5
1626
102
{ACAD_REACTORS
330
C
102
}
330
C
100
AcDbDictionary
281
     1
  3
Standard
350
1627
  0
DICTIONARY
  5
1611
102
{ACAD_REACTORS
330
C
102
}
330
C
100
AcDbDictionary
281
     1
  3
2dWireframe
350
1617
  3
3D Hidden
350
1619
  3
3dWireframe
350
1618
  3
Basic
350
1616
  3
Brighten
350
161D
  3
ColorChange
350
1621
  3
Conceptual
350
161A
  3
Dim
350
161C
  3
EdgeColorOff
350
1624
  3
Facepattern
350
1620
  3
Flat
350
1612
  3
FlatWithEdges
350
1613
  3
Gouraud
350
1614
  3
GouraudWithEdges
350
1615
  3
JitterOff
350
1622
  3
Linepattern
350
161F
  3
OverhangOff
350
1623
  3
Realistic
350
161B
  3
Thicken
350
161E
  0
XRECORD
  5
16C7
102
{ACAD_REACTORS
330
C
102
}
330
C
100
AcDbXrecord
280
     1
 90
        1
330
1627
  0
DICTIONARY
  5
3D
102
{ACAD_REACTORS
330
C
102
}
330
C
100
AcDbDictionary
281
     1
  3
CANNOSCALE
350
16C1
  3
CMLEADERSTYLE
350
16C0
  3
CTABLESTYLE
350
16BF
  3
DIMASSOC
350
3F
  3
HIDETEXT
350
3E
  3
INDEXCTL
350
16C3
  3
SORTENTS
350
16C2
  3
XCLIPFRAME
350
16C4
  0
DICTIONARY
  5
155F
102
{ACAD_REACTORS
330
C
102
}
330
C
100
AcDbDictionary
281
     1
  3
ASEBlockHierarchyIndexRecord
350
1560
1001
DCO15
1040
1513421807.687
  0
XRECORD
  5
16C8
102
{ACAD_REACTORS
330
C
102
}
330
C
100
AcDbXrecord
280
     1
  1
DWGPROPS COOKIE
  2

  3

  4

  6

  7

  8
Julio
  9

300
=
301
=
302
=
303
=
304
=
305
=
306
=
307
=
308
=
309
=
 40
0.0180454282407408
 41
2453319.701859086
 42
2455819.753723774
  1

 90
        0
  0
XRECORD
  5
1663
102
{ACAD_REACTORS
330
1662
102
}
330
1662
100
AcDbXrecord
280
     1
290
     1
  0
XRECORD
  5
1665
102
{ACAD_REACTORS
330
1664
102
}
330
1664
100
AcDbXrecord
280
     1
290
     1
  0
XRECORD
  5
1667
102
{ACAD_REACTORS
330
1666
102
}
330
1666
100
AcDbXrecord
280
     1
290
     1
  0
XRECORD
  5
1669
102
{ACAD_REACTORS
330
1668
102
}
330
1668
100
AcDbXrecord
280
     1
290
     1
  0
XRECORD
  5
166B
102
{ACAD_REACTORS
330
166A
102
}
330
166A
100
AcDbXrecord
280
     1
290
     1
  0
XRECORD
  5
166D
102
{ACAD_REACTORS
330
166C
102
}
330
166C
100
AcDbXrecord
280
     1
290
     1
  0
XRECORD
  5
166F
102
{ACAD_REACTORS
330
166E
102
}
330
166E
100
AcDbXrecord
280
     1
290
     1
  0
XRECORD
  5
1671
102
{ACAD_REACTORS
330
1670
102
}
330
1670
100
AcDbXrecord
280
     1
290
     1
  0
XRECORD
  5
1673
102
{ACAD_REACTORS
330
1672
102
}
330
1672
100
AcDbXrecord
280
     1
290
     1
  0
XRECORD
  5
1675
102
{ACAD_REACTORS
330
1674
102
}
330
1674
100
AcDbXrecord
280
     1
290
     1
  0
XRECORD
  5
1677
102
{ACAD_REACTORS
330
1676
102
}
330
1676
100
AcDbXrecord
280
     1
290
     1
  0
XRECORD
  5
1679
102
{ACAD_REACTORS
330
1678
102
}
330
1678
100
AcDbXrecord
280
     1
290
     1
  0
XRECORD
  5
167B
102
{ACAD_REACTORS
330
167A
102
}
330
167A
100
AcDbXrecord
280
     1
290
     1
  0
XRECORD
  5
167D
102
{ACAD_REACTORS
330
167C
102
}
330
167C
100
AcDbXrecord
280
     1
290
     1
  0
XRECORD
  5
167F
102
{ACAD_REACTORS
330
167E
102
}
330
167E
100
AcDbXrecord
280
     1
290
     1
  0
XRECORD
  5
1681
102
{ACAD_REACTORS
330
1680
102
}
330
1680
100
AcDbXrecord
280
     1
290
     1
  0
LAYOUT
  5
1E
102
{ACAD_XDICTIONARY
360
16C9
102
}
102
{ACAD_REACTORS
330
1A
102
}
330
1A
100
AcDbPlotSettings
  1

  2
Ploter HP500
  4

  6

 40
0.0
 41
0.0
 42
0.0
 43
0.0
 44
0.0
 45
0.0
 46
0.0
 47
0.0
 48
0.0
 49
0.0
140
0.0
141
0.0
142
1.0
143
1.0
 70
   688
 72
     0
 73
     0
 74
     5
  7
monochrome.ctb
 75
    16
147
1.0
148
0.0
149
0.0
100
AcDbLayout
  1
Layout1
 70
     1
 71
     1
 10
0.0
 20
0.0
 11
420.0
 21
297.0
 12
0.0
 22
0.0
 32
0.0
 14
1.000000000000000E+20
 24
1.000000000000000E+20
 34
1.000000000000000E+20
 15
-1.000000000000000E+20
 25
-1.000000000000000E+20
 35
-1.000000000000000E+20
146
0.0
 13
0.0
 23
0.0
 33
0.0
 16
1.0
 26
0.0
 36
0.0
 17
0.0
 27
1.0
 37
0.0
 76
     0
330
1B
  0
LAYOUT
  5
26
102
{ACAD_XDICTIONARY
360
16CD
102
}
102
{ACAD_REACTORS
330
1A
102
}
330
1A
100
AcDbPlotSettings
  1

  2
Ploter HP500
  4

  6

 40
0.0
 41
0.0
 42
0.0
 43
0.0
 44
0.0
 45
0.0
 46
0.0
 47
0.0
 48
0.0
 49
0.0
140
0.0
141
0.0
142
1.0
143
1.0
 70
   688
 72
     0
 73
     0
 74
     5
  7
monochrome.ctb
 75
    16
147
1.0
148
0.0
149
0.0
100
AcDbLayout
  1
Layout2
 70
     1
 71
     2
 10
0.0
 20
0.0
 11
12.0
 21
9.0
 12
0.0
 22
0.0
 32
0.0
 14
0.0
 24
0.0
 34
0.0
 15
0.0
 25
0.0
 35
0.0
146
0.0
 13
0.0
 23
0.0
 33
0.0
 16
1.0
 26
0.0
 36
0.0
 17
0.0
 27
1.0
 37
0.0
 76
     0
330
23
  0
LAYOUT
  5
22
102
{ACAD_XDICTIONARY
360
16CB
102
}
102
{ACAD_REACTORS
330
1A
102
}
330
1A
100
AcDbPlotSettings
  1

  2
Ploter HP500
  4
User268
  6

 40
4.995333194732666
 41
16.97565841674804
 42
4.995330810546875
 43
16.97567749023437
 44
209.9733276367187
 45
296.9259948730469
 46
0.0
 47
0.0
 48
0.0
 49
0.0
140
0.0
141
0.0
142
1.0
143
1.0
 70
 11952
 72
     1
 73
     1
 74
     0
  7

 75
     0
147
1.0
148
-427.5957866592534
149
7.362384574453926
100
AcDbLayout
  1
Model
 70
     1
 71
     0
 10
0.0
 20
0.0
 11
12.0
 21
9.0
 12
0.0
 22
0.0
 32
0.0
 14
0.0
 24
0.0
 34
0.0
 15
0.0
 25
0.0
 35
0.0
146
0.0
 13
0.0
 23
0.0
 33
0.0
 16
1.0
 26
0.0
 36
0.0
 17
0.0
 27
1.0
 37
0.0
 76
     0
330
1F
331
15F6
  0
MATERIAL
  5
1601
102
{ACAD_XDICTIONARY
360
1602
102
}
102
{ACAD_REACTORS
330
15F8
102
}
330
15F8
100
AcDbMaterial
  1
ByBlock
 72
     0
 43
0.0008202099737533
 43
0.0
 43
0.0
 43
0.0
 43
0.0
 43
0.0008202099737533
 43
0.0
 43
0.0
 43
0.0
 43
0.0
 43
1.0
 43
0.0
 43
0.0
 43
0.0
 43
0.0
 43
1.0
 77
     0
 47
0.0008202099737533
 47
0.0
 47
0.0
 47
0.0
 47
0.0
 47
0.0008202099737533
 47
0.0
 47
0.0
 47
0.0
 47
0.0
 47
1.0
 47
0.0
 47
0.0
 47
0.0
 47
0.0
 47
1.0
171
     0
 49
0.0008202099737533
 49
0.0
 49
0.0
 49
0.0
 49
0.0
 49
0.0008202099737533
 49
0.0
 49
0.0
 49
0.0
 49
0.0
 49
1.0
 49
0.0
 49
0.0
 49
0.0
 49
0.0
 49
1.0
175
     0
142
0.0008202099737533
142
0.0
142
0.0
142
0.0
142
0.0
142
0.0008202099737533
142
0.0
142
0.0
142
0.0
142
0.0
142
1.0
142
0.0
142
0.0
142
0.0
142
0.0
142
1.0
179
     0
144
0.0008202099737533
144
0.0
144
0.0
144
0.0
144
0.0
144
0.0008202099737533
144
0.0
144
0.0
144
0.0
144
0.0
144
1.0
144
0.0
144
0.0
144
0.0
144
0.0
144
1.0
147
0.0008202099737533
147
0.0
147
0.0
147
0.0
147
0.0
147
0.0008202099737533
147
0.0
147
0.0
147
0.0
147
0.0
147
1.0
147
0.0
147
0.0
147
0.0
147
0.0
147
1.0
  0
MATERIAL
  5
15F9
102
{ACAD_XDICTIONARY
360
15FA
102
}
102
{ACAD_REACTORS
330
15F8
102
}
330
15F8
100
AcDbMaterial
  1
ByLayer
 72
     0
 43
0.0008202099737533
 43
0.0
 43
0.0
 43
0.0
 43
0.0
 43
0.0008202099737533
 43
0.0
 43
0.0
 43
0.0
 43
0.0
 43
1.0
 43
0.0
 43
0.0
 43
0.0
 43
0.0
 43
1.0
 77
     0
 47
0.0008202099737533
 47
0.0
 47
0.0
 47
0.0
 47
0.0
 47
0.0008202099737533
 47
0.0
 47
0.0
 47
0.0
 47
0.0
 47
1.0
 47
0.0
 47
0.0
 47
0.0
 47
0.0
 47
1.0
171
     0
 49
0.0008202099737533
 49
0.0
 49
0.0
 49
0.0
 49
0.0
 49
0.0008202099737533
 49
0.0
 49
0.0
 49
0.0
 49
0.0
 49
1.0
 49
0.0
 49
0.0
 49
0.0
 49
0.0
 49
1.0
175
     0
142
0.0008202099737533
142
0.0
142
0.0
142
0.0
142
0.0
142
0.0008202099737533
142
0.0
142
0.0
142
0.0
142
0.0
142
1.0
142
0.0
142
0.0
142
0.0
142
0.0
142
1.0
179
     0
144
0.0008202099737533
144
0.0
144
0.0
144
0.0
144
0.0
144
0.0008202099737533
144
0.0
144
0.0
144
0.0
144
0.0
144
1.0
144
0.0
144
0.0
144
0.0
144
0.0
144
1.0
147
0.0008202099737533
147
0.0
147
0.0
147
0.0
147
0.0
147
0.0008202099737533
147
0.0
147
0.0
147
0.0
147
0.0
147
1.0
147
0.0
147
0.0
147
0.0
147
0.0
147
1.0
  0
MATERIAL
  5
1609
102
{ACAD_XDICTIONARY
360
160A
102
}
102
{ACAD_REACTORS
330
15F8
102
}
330
15F8
100
AcDbMaterial
  1
Global
 72
     0
 43
0.0008202099737533
 43
0.0
 43
0.0
 43
0.0
 43
0.0
 43
0.0008202099737533
 43
0.0
 43
0.0
 43
0.0
 43
0.0
 43
1.0
 43
0.0
 43
0.0
 43
0.0
 43
0.0
 43
1.0
 77
     0
 47
0.0008202099737533
 47
0.0
 47
0.0
 47
0.0
 47
0.0
 47
0.0008202099737533
 47
0.0
 47
0.0
 47
0.0
 47
0.0
 47
1.0
 47
0.0
 47
0.0
 47
0.0
 47
0.0
 47
1.0
171
     0
 49
0.0008202099737533
 49
0.0
 49
0.0
 49
0.0
 49
0.0
 49
0.0008202099737533
 49
0.0
 49
0.0
 49
0.0
 49
0.0
 49
1.0
 49
0.0
 49
0.0
 49
0.0
 49
0.0
 49
1.0
175
     0
142
0.0008202099737533
142
0.0
142
0.0
142
0.0
142
0.0
142
0.0008202099737533
142
0.0
142
0.0
142
0.0
142
0.0
142
1.0
142
0.0
142
0.0
142
0.0
142
0.0
142
1.0
179
     0
144
0.0008202099737533
144
0.0
144
0.0
144
0.0
144
0.0
144
0.0008202099737533
144
0.0
144
0.0
144
0.0
144
0.0
144
1.0
144
0.0
144
0.0
144
0.0
144
0.0
144
1.0
147
0.0008202099737533
147
0.0
147
0.0
147
0.0
147
0.0
147
0.0008202099737533
147
0.0
147
0.0
147
0.0
147
0.0
147
1.0
147
0.0
147
0.0
147
0.0
147
0.0
147
1.0
  0
MLEADERSTYLE
  5
163B
102
{ACAD_REACTORS
330
163A
102
}
330
163A
100
AcDbMLeaderStyle
170
     2
171
     1
172
     0
 90
        2
 40
0.0
 41
0.0
173
     1
 91
-1056964608
340
14
 92
       -2
290
     1
 42
2.0
291
     1
 43
0.36
  3
Standard
 44
4.0
300

342
11
174
     1
178
     6
175
     1
176
     0
 93
-1056964608
 45
4.0
292
     0
297
     0
 46
4.0
 94
-1056964608
 47
1.0
 49
1.0
140
1.0
293
     1
141
0.0
294
     1
177
     0
142
1.0
295
     0
296
     0
143
0.125
1001
ACAD_MLEADERVER
1070
     2
  0
MLINESTYLE
  5
18
102
{ACAD_REACTORS
330
17
102
}
330
17
100
AcDbMlineStyle
  2
STANDARD
 70
     0
  3

 62
   256
 51
90.0
 52
90.0
 71
     2
 49
0.5
 62
   256
  6
BYLAYER
 49
-0.5
 62
   256
  6
BYLAYER
  0
ACDBPLACEHOLDER
  5
F
102
{ACAD_REACTORS
330
E
102
}
330
E
  0
SCALE
  5
1629
102
{ACAD_REACTORS
330
1628
102
}
330
1628
100
AcDbScale
 70
     0
300
1:1
140
1.0
141
1.0
290
     1
  0
SCALE
  5
162A
102
{ACAD_REACTORS
330
1628
102
}
330
1628
100
AcDbScale
 70
     0
300
1:2
140
1.0
141
2.0
290
     0
  0
SCALE
  5
162B
102
{ACAD_REACTORS
330
1628
102
}
330
1628
100
AcDbScale
 70
     0
300
1:4
140
1.0
141
4.0
290
     0
  0
SCALE
  5
162C
102
{ACAD_REACTORS
330
1628
102
}
330
1628
100
AcDbScale
 70
     0
300
1:5
140
1.0
141
5.0
290
     0
  0
SCALE
  5
162D
102
{ACAD_REACTORS
330
1628
102
}
330
1628
100
AcDbScale
 70
     0
300
1:8
140
1.0
141
8.0
290
     0
  0
SCALE
  5
162E
102
{ACAD_REACTORS
330
1628
102
}
330
1628
100
AcDbScale
 70
     0
300
1:10
140
1.0
141
10.0
290
     0
  0
SCALE
  5
162F
102
{ACAD_REACTORS
330
1628
102
}
330
1628
100
AcDbScale
 70
     0
300
1:16
140
1.0
141
16.0
290
     0
  0
SCALE
  5
1630
102
{ACAD_REACTORS
330
1628
102
}
330
1628
100
AcDbScale
 70
     0
300
1:20
140
1.0
141
20.0
290
     0
  0
SCALE
  5
1631
102
{ACAD_REACTORS
330
1628
102
}
330
1628
100
AcDbScale
 70
     0
300
1:30
140
1.0
141
30.0
290
     0
  0
SCALE
  5
1632
102
{ACAD_REACTORS
330
1628
102
}
330
1628
100
AcDbScale
 70
     0
300
1:40
140
1.0
141
40.0
290
     0
  0
SCALE
  5
1633
102
{ACAD_REACTORS
330
1628
102
}
330
1628
100
AcDbScale
 70
     0
300
1:50
140
1.0
141
50.0
290
     0
  0
SCALE
  5
1634
102
{ACAD_REACTORS
330
1628
102
}
330
1628
100
AcDbScale
 70
     0
300
1:100
140
1.0
141
100.0
290
     0
  0
SCALE
  5
1635
102
{ACAD_REACTORS
330
1628
102
}
330
1628
100
AcDbScale
 70
     0
300
2:1
140
2.0
141
1.0
290
     0
  0
SCALE
  5
1636
102
{ACAD_REACTORS
330
1628
102
}
330
1628
100
AcDbScale
 70
     0
300
4:1
140
4.0
141
1.0
290
     0
  0
SCALE
  5
1637
102
{ACAD_REACTORS
330
1628
102
}
330
1628
100
AcDbScale
 70
     0
300
8:1
140
8.0
141
1.0
290
     0
  0
SCALE
  5
1638
102
{ACAD_REACTORS
330
1628
102
}
330
1628
100
AcDbScale
 70
     0
300
10:1
140
10.0
141
1.0
290
     0
  0
SCALE
  5
1639
102
{ACAD_REACTORS
330
1628
102
}
330
1628
100
AcDbScale
 70
     0
300
100:1
140
100.0
141
1.0
290
     0
  0
TABLESTYLE
  5
1627
102
{ACAD_XDICTIONARY
360
16C5
102
}
102
{ACAD_REACTORS
330
1626
102
}
330
1626
100
AcDbTableStyle
  3
Standard
 70
     0
 71
     0
 40
1.5
 41
1.5
280
     0
281
     0
  7
Standard
140
4.5
170
     2
 62
     0
 63
     7
283
     0
274
    -2
284
     1
 64
     0
275
    -2
285
     1
 65
     0
276
    -2
286
     1
 66
     0
277
    -2
287
     1
 67
     0
278
    -2
288
     1
 68
     0
279
    -2
289
     1
 69
     0
  7
Standard
140
6.0
170
     5
 62
     0
 63
     7
283
     0
274
    -2
284
     1
 64
     0
275
    -2
285
     1
 65
     0
276
    -2
286
     1
 66
     0
277
    -2
287
     1
 67
     0
278
    -2
288
     1
 68
     0
279
    -2
289
     1
 69
     0
  7
Standard
140
4.5
170
     5
 62
     0
 63
     7
283
     0
274
    -2
284
     1
 64
     0
275
    -2
285
     1
 65
     0
276
    -2
286
     1
 66
     0
277
    -2
287
     1
 67
     0
278
    -2
288
     1
 68
     0
279
    -2
289
     1
 69
     0
  0
VISUALSTYLE
  5
1617
102
{ACAD_XDICTIONARY
360
16DC
102
}
102
{ACAD_REACTORS
330
1611
102
}
330
1611
100
AcDbVisualStyle
  2
2dWireframe
 70
     4
 71
     0
 72
     2
 73
     0
 90
        0
 40
-0.6
 41
-30.0
 62
     5
 63
     7
 74
     1
 91
        4
 64
     7
 65
   257
 75
     1
175
     1
 42
1.0
 92
        0
 66
   257
 43
1.0
 76
     1
 77
     6
 78
     2
 67
     7
 79
     5
170
     0
171
     0
290
     0
174
     0
 93
        1
 44
0.0
173
     0
291
     0
 45
0.0
1001
ACAD
1000
AcDbSavedByObjectVersion
1070
     0
  0
VISUALSTYLE
  5
1619
102
{ACAD_XDICTIONARY
360
16E0
102
}
102
{ACAD_REACTORS
330
1611
102
}
330
1611
100
AcDbVisualStyle
  2
3D Hidden
 70
     6
 71
     1
 72
     2
 73
     2
 90
        0
 40
-0.6
 41
-30.0
 62
     5
 63
     7
 74
     2
 91
        2
 64
     7
 65
   257
 75
     2
175
     1
 42
179.0
 92
        0
 66
   257
 43
1.0
 76
     1
 77
     6
 78
     2
 67
     7
 79
     3
170
     0
171
     0
290
     0
174
     0
 93
        1
 44
0.0
173
     0
291
     0
 45
0.0
1001
ACAD
1000
AcDbSavedByObjectVersion
1070
     0
  0
VISUALSTYLE
  5
1618
102
{ACAD_XDICTIONARY
360
16DE
102
}
102
{ACAD_REACTORS
330
1611
102
}
330
1611
100
AcDbVisualStyle
  2
3dWireframe
 70
     5
 71
     0
 72
     2
 73
     0
 90
        0
 40
-0.6
 41
-30.0
 62
     5
 63
     7
 74
     1
 91
        4
 64
     7
 65
   257
 75
     1
175
     1
 42
1.0
 92
        0
 66
   257
 43
1.0
 76
     1
 77
     6
 78
     2
 67
     7
 79
     5
170
     0
171
     0
290
     0
174
     0
 93
        1
 44
0.0
173
     0
291
     0
 45
0.0
1001
ACAD
1000
AcDbSavedByObjectVersion
1070
     0
  0
VISUALSTYLE
  5
1616
102
{ACAD_XDICTIONARY
360
16DA
102
}
102
{ACAD_REACTORS
330
1611
102
}
330
1611
100
AcDbVisualStyle
  2
Basic
 70
     7
 71
     1
 72
     0
 73
     1
 90
        0
 40
-0.6
 41
-30.0
 62
     5
 63
     7
 74
     0
 91
        4
 64
     7
 65
   257
 75
     1
175
     1
 42
1.0
 92
        8
 66
     7
 43
1.0
 76
     1
 77
     6
 78
     2
 67
     7
 79
     5
170
     0
171
     0
290
     0
174
     0
 93
        1
 44
0.0
173
     0
291
     1
 45
0.0
1001
ACAD
1000
AcDbSavedByObjectVersion
1070
     0
  0
VISUALSTYLE
  5
161D
102
{ACAD_XDICTIONARY
360
16E8
102
}
102
{ACAD_REACTORS
330
1611
102
}
330
1611
100
AcDbVisualStyle
  2
Brighten
 70
    12
 71
     2
 72
     2
 73
     0
 90
        0
 40
-0.6
 41
-30.0
 62
     5
 63
     7
 74
     1
 91
        4
 64
     7
 65
   257
 75
     1
175
     1
 42
1.0
 92
        8
 66
     7
 43
1.0
 76
     1
 77
     6
 78
     2
 67
     7
 79
     5
170
     0
171
     0
290
     0
174
     0
 93
        1
 44
50.0
173
     0
291
     1
 45
0.0
1001
ACAD
1000
AcDbSavedByObjectVersion
1070
     0
  0
VISUALSTYLE
  5
1621
102
{ACAD_XDICTIONARY
360
16F0
102
}
102
{ACAD_REACTORS
330
1611
102
}
330
1611
100
AcDbVisualStyle
  2
ColorChange
 70
    16
 71
     2
 72
     2
 73
     3
 90
        0
 40
-0.6
 41
-30.0
 62
     5
 63
     8
 74
     1
 91
        4
 64
     7
 65
   257
 75
     1
175
     1
 42
1.0
 92
        8
 66
     8
 43
1.0
 76
     1
 77
     6
 78
     2
 67
     7
 79
     5
170
     0
171
     0
290
     0
174
     0
 93
        1
 44
0.0
173
     0
291
     1
 45
0.0
1001
ACAD
1000
AcDbSavedByObjectVersion
1070
     0
  0
VISUALSTYLE
  5
161A
102
{ACAD_XDICTIONARY
360
16E2
102
}
102
{ACAD_REACTORS
330
1611
102
}
330
1611
100
AcDbVisualStyle
  2
Conceptual
 70
     9
 71
     3
 72
     2
 73
     0
 90
        0
 40
-0.6
 41
-30.0
 62
     5
 63
     7
 74
     2
 91
        2
 64
     7
 65
   257
 75
     1
175
     1
 42
179.0
 92
        8
 66
     7
 43
1.0
 76
     1
 77
     6
 78
     2
 67
     7
 79
     3
170
     0
171
     0
290
     0
174
     0
 93
        1
 44
0.0
173
     0
291
     0
 45
0.0
1001
ACAD
1000
AcDbSavedByObjectVersion
1070
     0
  0
VISUALSTYLE
  5
161C
102
{ACAD_XDICTIONARY
360
16E6
102
}
102
{ACAD_REACTORS
330
1611
102
}
330
1611
100
AcDbVisualStyle
  2
Dim
 70
    11
 71
     2
 72
     2
 73
     0
 90
        0
 40
-0.6
 41
-30.0
 62
     5
 63
     7
 74
     1
 91
        4
 64
     7
 65
   257
 75
     1
175
     1
 42
1.0
 92
        8
 66
     7
 43
1.0
 76
     1
 77
     6
 78
     2
 67
     7
 79
     5
170
     0
171
     0
290
     0
174
     0
 93
        1
 44
-50.0
173
     0
291
     1
 45
0.0
1001
ACAD
1000
AcDbSavedByObjectVersion
1070
     0
  0
VISUALSTYLE
  5
1624
102
{ACAD_XDICTIONARY
360
16F6
102
}
102
{ACAD_REACTORS
330
1611
102
}
330
1611
100
AcDbVisualStyle
  2
EdgeColorOff
 70
    22
 71
     2
 72
     2
 73
     0
 90
        0
 40
-0.6
 41
-30.0
 62
     5
 63
     7
 74
     1
 91
        4
 64
     7
 65
   257
 75
     1
175
     1
 42
1.0
 92
        8
 66
     7
 43
1.0
 76
     1
 77
     6
 78
     2
 67
     7
 79
     5
170
     0
171
     0
290
     0
174
     0
 93
        1
 44
0.0
173
     0
291
     1
 45
0.0
1001
ACAD
1000
AcDbSavedByObjectVersion
1070
     0
  0
VISUALSTYLE
  5
1620
102
{ACAD_XDICTIONARY
360
16EE
102
}
102
{ACAD_REACTORS
330
1611
102
}
330
1611
100
AcDbVisualStyle
  2
Facepattern
 70
    15
 71
     2
 72
     2
 73
     0
 90
        0
 40
-0.6
 41
-30.0
 62
     5
 63
     7
 74
     1
 91
        4
 64
     7
 65
   257
 75
     1
175
     1
 42
1.0
 92
        8
 66
     7
 43
1.0
 76
     1
 77
     6
 78
     2
 67
     7
 79
     5
170
     0
171
     0
290
     0
174
     0
 93
        1
 44
0.0
173
     0
291
     1
 45
0.0
1001
ACAD
1000
AcDbSavedByObjectVersion
1070
     0
  0
VISUALSTYLE
  5
1612
102
{ACAD_XDICTIONARY
360
16D2
102
}
102
{ACAD_REACTORS
330
1611
102
}
330
1611
100
AcDbVisualStyle
  2
Flat
 70
     0
 71
     2
 72
     1
 73
     1
 90
        2
 40
-0.6
 41
30.0
 62
     5
 63
     7
 74
     0
 91
        4
 64
     7
 65
   257
 75
     1
175
     1
 42
1.0
 92
        8
 66
     7
 43
1.0
 76
     1
 77
     6
 78
     2
 67
     7
 79
     5
170
     0
171
     0
290
     0
174
     0
 93
       13
 44
0.0
173
     0
291
     1
 45
0.0
1001
ACAD
1000
AcDbSavedByObjectVersion
1070
     0
  0
VISUALSTYLE
  5
1613
102
{ACAD_XDICTIONARY
360
16D4
102
}
102
{ACAD_REACTORS
330
1611
102
}
330
1611
100
AcDbVisualStyle
  2
FlatWithEdges
 70
     1
 71
     2
 72
     1
 73
     1
 90
        2
 40
-0.6
 41
30.0
 62
     5
 63
     7
 74
     1
 91
        4
 64
     7
 65
   257
 75
     1
175
     1
 42
1.0
 92
        0
 66
   257
 43
1.0
 76
     1
 77
     6
 78
     2
 67
     7
 79
     5
170
     0
171
     0
290
     0
174
     0
 93
       13
 44
0.0
173
     0
291
     1
 45
0.0
1001
ACAD
1000
AcDbSavedByObjectVersion
1070
     0
  0
VISUALSTYLE
  5
1614
102
{ACAD_XDICTIONARY
360
16D6
102
}
102
{ACAD_REACTORS
330
1611
102
}
330
1611
100
AcDbVisualStyle
  2
Gouraud
 70
     2
 71
     2
 72
     2
 73
     1
 90
        2
 40
-0.6
 41
30.0
 62
     5
 63
     7
 74
     0
 91
        4
 64
     7
 65
   257
 75
     1
175
     1
 42
1.0
 92
        0
 66
     7
 43
1.0
 76
     1
 77
     6
 78
     2
 67
     7
 79
     5
170
     0
171
     0
290
     0
174
     0
 93
       13
 44
0.0
173
     0
291
     1
 45
0.0
1001
ACAD
1000
AcDbSavedByObjectVersion
1070
     0
  0
VISUALSTYLE
  5
1615
102
{ACAD_XDICTIONARY
360
16D8
102
}
102
{ACAD_REACTORS
330
1611
102
}
330
1611
100
AcDbVisualStyle
  2
GouraudWithEdges
 70
     3
 71
     2
 72
     2
 73
     1
 90
        2
 40
-0.6
 41
30.0
 62
     5
 63
     7
 74
     1
 91
        4
 64
     7
 65
   257
 75
     1
175
     1
 42
1.0
 92
        0
 66
   257
 43
1.0
 76
     1
 77
     6
 78
     2
 67
     7
 79
     5
170
     0
171
     0
290
     0
174
     0
 93
       13
 44
0.0
173
     0
291
     1
 45
0.0
1001
ACAD
1000
AcDbSavedByObjectVersion
1070
     0
  0
VISUALSTYLE
  5
1622
102
{ACAD_XDICTIONARY
360
16F2
102
}
102
{ACAD_REACTORS
330
1611
102
}
330
1611
100
AcDbVisualStyle
  2
JitterOff
 70
    20
 71
     2
 72
     2
 73
     0
 90
        0
 40
-0.6
 41
-30.0
 62
     5
 63
     7
 74
     1
 91
        4
 64
     7
 65
   257
 75
     1
175
     1
 42
1.0
 92
       10
 66
     7
 43
1.0
 76
     1
 77
     6
 78
     2
 67
     7
 79
     5
170
     0
171
     0
290
     0
174
     0
 93
        1
 44
0.0
173
     0
291
     1
 45
0.0
1001
ACAD
1000
AcDbSavedByObjectVersion
1070
     0
  0
VISUALSTYLE
  5
161F
102
{ACAD_XDICTIONARY
360
16EC
102
}
102
{ACAD_REACTORS
330
1611
102
}
330
1611
100
AcDbVisualStyle
  2
Linepattern
 70
    14
 71
     2
 72
     2
 73
     0
 90
        0
 40
-0.6
 41
-30.0
 62
     5
 63
     7
 74
     1
 91
        4
 64
     7
 65
   257
 75
     7
175
     7
 42
1.0
 92
        8
 66
     7
 43
1.0
 76
     1
 77
     6
 78
     2
 67
     7
 79
     5
170
     0
171
     0
290
     0
174
     0
 93
        1
 44
0.0
173
     0
291
     1
 45
0.0
1001
ACAD
1000
AcDbSavedByObjectVersion
1070
     0
  0
VISUALSTYLE
  5
1623
102
{ACAD_XDICTIONARY
360
16F4
102
}
102
{ACAD_REACTORS
330
1611
102
}
330
1611
100
AcDbVisualStyle
  2
OverhangOff
 70
    21
 71
     2
 72
     2
 73
     0
 90
        0
 40
-0.6
 41
-30.0
 62
     5
 63
     7
 74
     1
 91
        4
 64
     7
 65
   257
 75
     1
175
     1
 42
1.0
 92
        9
 66
     7
 43
1.0
 76
     1
 77
     6
 78
     2
 67
     7
 79
     5
170
     0
171
     0
290
     0
174
     0
 93
        1
 44
0.0
173
     0
291
     1
 45
0.0
1001
ACAD
1000
AcDbSavedByObjectVersion
1070
     0
  0
VISUALSTYLE
  5
161B
102
{ACAD_XDICTIONARY
360
16E4
102
}
102
{ACAD_REACTORS
330
1611
102
}
330
1611
100
AcDbVisualStyle
  2
Realistic
 70
     8
 71
     2
 72
     2
 73
     0
 90
        0
 40
-0.6
 41
-30.0
 62
     5
 63
     7
 74
     1
 91
        0
 64
     7
 65
   257
 75
     1
175
     1
 42
1.0
 92
        8
 66
     8
 43
1.0
 76
     1
 77
     6
 78
     2
 67
     7
 79
     5
170
     0
171
     0
290
     0
174
     0
 93
       13
 44
0.0
173
     0
291
     0
 45
0.0
1001
ACAD
1000
AcDbSavedByObjectVersion
1070
     0
  0
VISUALSTYLE
  5
161E
102
{ACAD_XDICTIONARY
360
16EA
102
}
102
{ACAD_REACTORS
330
1611
102
}
330
1611
100
AcDbVisualStyle
  2
Thicken
 70
    13
 71
     2
 72
     2
 73
     0
 90
        0
 40
-0.6
 41
-30.0
 62
     5
 63
     7
 74
     1
 91
        4
 64
     7
 65
   257
 75
     1
175
     1
 42
1.0
 92
       12
 66
     7
 43
1.0
 76
     1
 77
     6
 78
     2
 67
     7
 79
     5
170
     0
171
     0
290
     0
174
     0
 93
        1
 44
0.0
173
     0
291
     1
 45
0.0
1001
ACAD
1000
AcDbSavedByObjectVersion
1070
     0
  0
DICTIONARYVAR
  5
16C1
102
{ACAD_REACTORS
330
3D
102
}
330
3D
100
DictionaryVariables
280
     0
  1
1:1
  0
DICTIONARYVAR
  5
16C0
102
{ACAD_REACTORS
330
3D
102
}
330
3D
100
DictionaryVariables
280
     0
  1
STANDARD
  0
DICTIONARYVAR
  5
16BF
102
{ACAD_REACTORS
330
3D
102
}
330
3D
100
DictionaryVariables
280
     0
  1
STANDARD
  0
DICTIONARYVAR
  5
3F
102
{ACAD_REACTORS
330
3D
102
}
330
3D
100
DictionaryVariables
280
     0
  1
2
  0
DICTIONARYVAR
  5
3E
102
{ACAD_REACTORS
330
3D
102
}
330
3D
100
DictionaryVariables
280
     0
  1
1
  0
DICTIONARYVAR
  5
16C3
102
{ACAD_REACTORS
330
3D
102
}
330
3D
100
DictionaryVariables
280
     0
  1
0
  0
DICTIONARYVAR
  5
16C2
102
{ACAD_REACTORS
330
3D
102
}
330
3D
100
DictionaryVariables
280
     0
  1
127
  0
DICTIONARYVAR
  5
16C4
102
{ACAD_REACTORS
330
3D
102
}
330
3D
100
DictionaryVariables
280
     0
  1
2
  0
XRECORD
  5
1560
102
{ACAD_REACTORS
330
155F
102
}
330
155F
100
AcDbXrecord
280
     1
330
0
  0
DICTIONARY
  5
16C9
330
1E
100
AcDbDictionary
280
     1
281
     1
  3
ACAD_XREC_ROUNDTRIP
360
16CA
  0
DICTIONARY
  5
16CD
330
26
100
AcDbDictionary
280
     1
281
     1
  3
ACAD_XREC_ROUNDTRIP
360
16CE
  0
DICTIONARY
  5
16CB
330
22
100
AcDbDictionary
280
     1
281
     1
  3
ACAD_XREC_ROUNDTRIP
360
16CC
  0
DICTIONARY
  5
1602
330
1601
100
AcDbDictionary
280
     1
281
     1
  3
ACAD_XREC_ROUNDTRIP
360
16D0
  3
BUMPTILE
360
1604
  3
DIFFUSETILE
360
1603
  3
OPACITYTILE
360
1607
  3
REFLECTIONTILE
360
1606
  3
REFRACTIONTILE
360
1608
  3
SPECULARTILE
360
1605
  0
DICTIONARY
  5
15FA
330
15F9
100
AcDbDictionary
280
     1
281
     1
  3
ACAD_XREC_ROUNDTRIP
360
16CF
  3
BUMPTILE
360
15FC
  3
DIFFUSETILE
360
15FB
  3
OPACITYTILE
360
15FF
  3
REFLECTIONTILE
360
15FE
  3
REFRACTIONTILE
360
1600
  3
SPECULARTILE
360
15FD
  0
DICTIONARY
  5
160A
330
1609
100
AcDbDictionary
280
     1
281
     1
  3
ACAD_XREC_ROUNDTRIP
360
16D1
  3
BUMPTILE
360
160C
  3
DIFFUSETILE
360
160B
  3
OPACITYTILE
360
160F
  3
REFLECTIONTILE
360
160E
  3
REFRACTIONTILE
360
1610
  3
SPECULARTILE
360
160D
  0
DICTIONARY
  5
16C5
330
1627
100
AcDbDictionary
280
     1
281
     1
  3
ACAD_ROUNDTRIP_2008_TABLESTYLE_CELLSTYLEMAP
360
16C6
  3
ACAD_XREC_ROUNDTRIP
360
16F8
  0
DICTIONARY
  5
16DC
330
1617
100
AcDbDictionary
280
     1
281
     1
  3
ACAD_XREC_ROUNDTRIP
360
16DD
  0
DICTIONARY
  5
16E0
330
1619
100
AcDbDictionary
280
     1
281
     1
  3
ACAD_XREC_ROUNDTRIP
360
16E1
  0
DICTIONARY
  5
16DE
330
1618
100
AcDbDictionary
280
     1
281
     1
  3
ACAD_XREC_ROUNDTRIP
360
16DF
  0
DICTIONARY
  5
16DA
330
1616
100
AcDbDictionary
280
     1
281
     1
  3
ACAD_XREC_ROUNDTRIP
360
16DB
  0
DICTIONARY
  5
16E8
330
161D
100
AcDbDictionary
280
     1
281
     1
  3
ACAD_XREC_ROUNDTRIP
360
16E9
  0
DICTIONARY
  5
16F0
330
1621
100
AcDbDictionary
280
     1
281
     1
  3
ACAD_XREC_ROUNDTRIP
360
16F1
  0
DICTIONARY
  5
16E2
330
161A
100
AcDbDictionary
280
     1
281
     1
  3
ACAD_XREC_ROUNDTRIP
360
16E3
  0
DICTIONARY
  5
16E6
330
161C
100
AcDbDictionary
280
     1
281
     1
  3
ACAD_XREC_ROUNDTRIP
360
16E7
  0
DICTIONARY
  5
16F6
330
1624
100
AcDbDictionary
280
     1
281
     1
  3
ACAD_XREC_ROUNDTRIP
360
16F7
  0
DICTIONARY
  5
16EE
330
1620
100
AcDbDictionary
280
     1
281
     1
  3
ACAD_XREC_ROUNDTRIP
360
16EF
  0
DICTIONARY
  5
16D2
330
1612
100
AcDbDictionary
280
     1
281
     1
  3
ACAD_XREC_ROUNDTRIP
360
16D3
  0
DICTIONARY
  5
16D4
330
1613
100
AcDbDictionary
280
     1
281
     1
  3
ACAD_XREC_ROUNDTRIP
360
16D5
  0
DICTIONARY
  5
16D6
330
1614
100
AcDbDictionary
280
     1
281
     1
  3
ACAD_XREC_ROUNDTRIP
360
16D7
  0
DICTIONARY
  5
16D8
330
1615
100
AcDbDictionary
280
     1
281
     1
  3
ACAD_XREC_ROUNDTRIP
360
16D9
  0
DICTIONARY
  5
16F2
330
1622
100
AcDbDictionary
280
     1
281
     1
  3
ACAD_XREC_ROUNDTRIP
360
16F3
  0
DICTIONARY
  5
16EC
330
161F
100
AcDbDictionary
280
     1
281
     1
  3
ACAD_XREC_ROUNDTRIP
360
16ED
  0
DICTIONARY
  5
16F4
330
1623
100
AcDbDictionary
280
     1
281
     1
  3
ACAD_XREC_ROUNDTRIP
360
16F5
  0
DICTIONARY
  5
16E4
330
161B
100
AcDbDictionary
280
     1
281
     1
  3
ACAD_XREC_ROUNDTRIP
360
16E5
  0
DICTIONARY
  5
16EA
330
161E
100
AcDbDictionary
280
     1
281
     1
  3
ACAD_XREC_ROUNDTRIP
360
16EB
  0
XRECORD
  5
16CA
102
{ACAD_REACTORS
330
16C9
102
}
330
16C9
100
AcDbXrecord
280
     1
102
SHADEPLOT
 70
     0
102
SHADEPLOTRESLEVEL
 70
     2
102
SHADEPLOTCUSTOMDPI
 70
   300
  0
XRECORD
  5
16CE
102
{ACAD_REACTORS
330
16CD
102
}
330
16CD
100
AcDbXrecord
280
     1
102
SHADEPLOT
 70
     0
102
SHADEPLOTRESLEVEL
 70
     2
102
SHADEPLOTCUSTOMDPI
 70
   300
  0
XRECORD
  5
16CC
102
{ACAD_REACTORS
330
16CB
102
}
330
16CB
100
AcDbXrecord
280
     1
102
SHADEPLOT
 70
     0
102
SHADEPLOTRESLEVEL
 70
     2
102
SHADEPLOTCUSTOMDPI
 70
   300
  0
XRECORD
  5
16D0
102
{ACAD_REACTORS
330
1602
102
}
330
1602
100
AcDbXrecord
280
     1
102
MATERIAL
148
0.0
149
0.0
149
0.0
 93
        0
 94
      127
282
     0
 72
     0
 77
     0
171
     0
175
     0
179
     0
273
     0
  0
XRECORD
  5
1604
102
{ACAD_REACTORS
330
1602
102
}
330
1602
100
AcDbXrecord
280
     1
270
     1
271
     1
  0
XRECORD
  5
1603
102
{ACAD_REACTORS
330
1602
102
}
330
1602
100
AcDbXrecord
280
     1
270
     1
271
     1
  0
XRECORD
  5
1607
102
{ACAD_REACTORS
330
1602
102
}
330
1602
100
AcDbXrecord
280
     1
270
     1
271
     1
  0
XRECORD
  5
1606
102
{ACAD_REACTORS
330
1602
102
}
330
1602
100
AcDbXrecord
280
     1
270
     1
271
     1
  0
XRECORD
  5
1608
102
{ACAD_REACTORS
330
1602
102
}
330
1602
100
AcDbXrecord
280
     1
270
     1
271
     1
  0
XRECORD
  5
1605
102
{ACAD_REACTORS
330
1602
102
}
330
1602
100
AcDbXrecord
280
     1
270
     1
271
     1
  0
XRECORD
  5
16CF
102
{ACAD_REACTORS
330
15FA
102
}
330
15FA
100
AcDbXrecord
280
     1
102
MATERIAL
148
0.0
149
0.0
149
0.0
 93
        0
 94
      127
282
     0
 72
     0
 77
     0
171
     0
175
     0
179
     0
273
     0
  0
XRECORD
  5
15FC
102
{ACAD_REACTORS
330
15FA
102
}
330
15FA
100
AcDbXrecord
280
     1
270
     1
271
     1
  0
XRECORD
  5
15FB
102
{ACAD_REACTORS
330
15FA
102
}
330
15FA
100
AcDbXrecord
280
     1
270
     1
271
     1
  0
XRECORD
  5
15FF
102
{ACAD_REACTORS
330
15FA
102
}
330
15FA
100
AcDbXrecord
280
     1
270
     1
271
     1
  0
XRECORD
  5
15FE
102
{ACAD_REACTORS
330
15FA
102
}
330
15FA
100
AcDbXrecord
280
     1
270
     1
271
     1
  0
XRECORD
  5
1600
102
{ACAD_REACTORS
330
15FA
102
}
330
15FA
100
AcDbXrecord
280
     1
270
     1
271
     1
  0
XRECORD
  5
15FD
102
{ACAD_REACTORS
330
15FA
102
}
330
15FA
100
AcDbXrecord
280
     1
270
     1
271
     1
  0
XRECORD
  5
16D1
102
{ACAD_REACTORS
330
160A
102
}
330
160A
100
AcDbXrecord
280
     1
102
MATERIAL
148
0.0
149
0.0
149
0.0
 93
        0
 94
      127
282
     0
 72
     0
 77
     0
171
     0
175
     0
179
     0
273
     0
  0
XRECORD
  5
160C
102
{ACAD_REACTORS
330
160A
102
}
330
160A
100
AcDbXrecord
280
     1
270
     1
271
     1
  0
XRECORD
  5
160B
102
{ACAD_REACTORS
330
160A
102
}
330
160A
100
AcDbXrecord
280
     1
270
     1
271
     1
  0
XRECORD
  5
160F
102
{ACAD_REACTORS
330
160A
102
}
330
160A
100
AcDbXrecord
280
     1
270
     1
271
     1
  0
XRECORD
  5
160E
102
{ACAD_REACTORS
330
160A
102
}
330
160A
100
AcDbXrecord
280
     1
270
     1
271
     1
  0
XRECORD
  5
1610
102
{ACAD_REACTORS
330
160A
102
}
330
160A
100
AcDbXrecord
280
     1
270
     1
271
     1
  0
XRECORD
  5
160D
102
{ACAD_REACTORS
330
160A
102
}
330
160A
100
AcDbXrecord
280
     1
270
     1
271
     1
  0
CELLSTYLEMAP
  5
16C6
102
{ACAD_REACTORS
330
16C5
102
}
330
16C5
100
AcDbCellStyleMap
 90
        3
300
CELLSTYLE
  1
TABLEFORMAT_BEGIN
 90
        5
170
     1
 91
        0
 92
    32768
 62
   257
 93
        1
300
CONTENTFORMAT
  1
CONTENTFORMAT_BEGIN
 90
        0
 91
        0
 92
      512
 93
        0
300

 40
0.0
140
1.0
 94
        5
 62
     0
340
11
144
6.0
309
CONTENTFORMAT_END
171
     1
301
MARGIN
  1
CELLMARGIN_BEGIN
 40
1.5
 40
1.5
 40
1.5
 40
1.5
 40
4.5
 40
4.5
309
CELLMARGIN_END
 94
        6
 95
        1
302
GRIDFORMAT
  1
GRIDFORMAT_BEGIN
 90
        0
 91
        1
 62
     0
 92
       -2
340
0
 93
        0
 40
1.125
309
GRIDFORMAT_END
 95
        2
302
GRIDFORMAT
  1
GRIDFORMAT_BEGIN
 90
        0
 91
        1
 62
     0
 92
       -2
340
0
 93
        0
 40
1.125
309
GRIDFORMAT_END
 95
        4
302
GRIDFORMAT
  1
GRIDFORMAT_BEGIN
 90
        0
 91
        1
 62
     0
 92
       -2
340
0
 93
        0
 40
1.125
309
GRIDFORMAT_END
 95
        8
302
GRIDFORMAT
  1
GRIDFORMAT_BEGIN
 90
        0
 91
        1
 62
     0
 92
       -2
340
0
 93
        0
 40
1.125
309
GRIDFORMAT_END
 95
       16
302
GRIDFORMAT
  1
GRIDFORMAT_BEGIN
 90
        0
 91
        1
 62
     0
 92
       -2
340
0
 93
        0
 40
1.125
309
GRIDFORMAT_END
 95
       32
302
GRIDFORMAT
  1
GRIDFORMAT_BEGIN
 90
        0
 91
        1
 62
     0
 92
       -2
340
0
 93
        0
 40
1.125
309
GRIDFORMAT_END
309
TABLEFORMAT_END
  1
CELLSTYLE_BEGIN
 90
        1
 91
        1
300
_TITLE
309
CELLSTYLE_END
300
CELLSTYLE
  1
TABLEFORMAT_BEGIN
 90
        5
170
     1
 91
        0
 92
        0
 62
   257
 93
        1
300
CONTENTFORMAT
  1
CONTENTFORMAT_BEGIN
 90
        0
 91
        0
 92
      512
 93
        0
300

 40
0.0
140
1.0
 94
        5
 62
     0
340
11
144
4.5
309
CONTENTFORMAT_END
171
     1
301
MARGIN
  1
CELLMARGIN_BEGIN
 40
1.5
 40
1.5
 40
1.5
 40
1.5
 40
4.5
 40
4.5
309
CELLMARGIN_END
 94
        6
 95
        1
302
GRIDFORMAT
  1
GRIDFORMAT_BEGIN
 90
        0
 91
        1
 62
     0
 92
       -2
340
0
 93
        0
 40
1.125
309
GRIDFORMAT_END
 95
        2
302
GRIDFORMAT
  1
GRIDFORMAT_BEGIN
 90
        0
 91
        1
 62
     0
 92
       -2
340
0
 93
        0
 40
1.125
309
GRIDFORMAT_END
 95
        4
302
GRIDFORMAT
  1
GRIDFORMAT_BEGIN
 90
        0
 91
        1
 62
     0
 92
       -2
340
0
 93
        0
 40
1.125
309
GRIDFORMAT_END
 95
        8
302
GRIDFORMAT
  1
GRIDFORMAT_BEGIN
 90
        0
 91
        1
 62
     0
 92
       -2
340
0
 93
        0
 40
1.125
309
GRIDFORMAT_END
 95
       16
302
GRIDFORMAT
  1
GRIDFORMAT_BEGIN
 90
        0
 91
        1
 62
     0
 92
       -2
340
0
 93
        0
 40
1.125
309
GRIDFORMAT_END
 95
       32
302
GRIDFORMAT
  1
GRIDFORMAT_BEGIN
 90
        0
 91
        1
 62
     0
 92
       -2
340
0
 93
        0
 40
1.125
309
GRIDFORMAT_END
309
TABLEFORMAT_END
  1
CELLSTYLE_BEGIN
 90
        2
 91
        1
300
_HEADER
309
CELLSTYLE_END
300
CELLSTYLE
  1
TABLEFORMAT_BEGIN
 90
        5
170
     1
 91
        0
 92
        0
 62
   257
 93
        1
300
CONTENTFORMAT
  1
CONTENTFORMAT_BEGIN
 90
        0
 91
        0
 92
      512
 93
        0
300

 40
0.0
140
1.0
 94
        2
 62
     0
340
11
144
4.5
309
CONTENTFORMAT_END
171
     1
301
MARGIN
  1
CELLMARGIN_BEGIN
 40
1.5
 40
1.5
 40
1.5
 40
1.5
 40
4.5
 40
4.5
309
CELLMARGIN_END
 94
        6
 95
        1
302
GRIDFORMAT
  1
GRIDFORMAT_BEGIN
 90
        0
 91
        1
 62
     0
 92
       -2
340
0
 93
        0
 40
1.125
309
GRIDFORMAT_END
 95
        2
302
GRIDFORMAT
  1
GRIDFORMAT_BEGIN
 90
        0
 91
        1
 62
     0
 92
       -2
340
0
 93
        0
 40
1.125
309
GRIDFORMAT_END
 95
        4
302
GRIDFORMAT
  1
GRIDFORMAT_BEGIN
 90
        0
 91
        1
 62
     0
 92
       -2
340
0
 93
        0
 40
1.125
309
GRIDFORMAT_END
 95
        8
302
GRIDFORMAT
  1
GRIDFORMAT_BEGIN
 90
        0
 91
        1
 62
     0
 92
       -2
340
0
 93
        0
 40
1.125
309
GRIDFORMAT_END
 95
       16
302
GRIDFORMAT
  1
GRIDFORMAT_BEGIN
 90
        0
 91
        1
 62
     0
 92
       -2
340
0
 93
        0
 40
1.125
309
GRIDFORMAT_END
 95
       32
302
GRIDFORMAT
  1
GRIDFORMAT_BEGIN
 90
        0
 91
        1
 62
     0
 92
       -2
340
0
 93
        0
 40
1.125
309
GRIDFORMAT_END
309
TABLEFORMAT_END
  1
CELLSTYLE_BEGIN
 90
        3
 91
        2
300
_DATA
309
CELLSTYLE_END
  0
XRECORD
  5
16F8
102
{ACAD_REACTORS
330
16C5
102
}
330
16C5
100
AcDbXrecord
280
     1
102
ACAD_ROUNDTRIP_PRE2007_TABLESTYLE
 90
      512
 91
        0
  1

 92
      512
 93
        0
  2

 94
      512
 95
        0
  3

  0
XRECORD
  5
16DD
102
{ACAD_REACTORS
330
16DC
102
}
330
16DC
100
AcDbXrecord
280
     1
102
RTVSPropertyOp0
 70
     1
102
RTVSPropertyOp1
 70
     1
102
RTVSPropertyOp2
 70
     1
102
RTVSPropertyOp3
 70
     1
102
RTVSPropertyOp4
 70
     1
102
RTVSPropertyOp5
 70
     1
102
RTVSPropertyOp6
 70
     1
102
RTVSPropertyOp7
 70
     1
102
RTVSPropertyOp8
 70
     1
102
RTVSPropertyOp9
 70
     1
102
RTVSPropertyOp10
 70
     1
102
RTVSPropertyOp11
 70
     1
102
RTVSPropertyOp12
 70
     1
102
RTVSPropertyOp13
 70
     1
102
RTVSPropertyOp14
 70
     1
102
RTVSPropertyOp15
 70
     1
102
RTVSPropertyOp16
 70
     1
102
RTVSPropertyOp17
 70
     1
102
RTVSPropertyOp18
 70
     1
102
RTVSPropertyOp19
 70
     1
102
RTVSPropertyOp20
 70
     1
102
RTVSPropertyOp21
 70
     1
102
RTVSPropertyOp22
 70
     1
102
RTVSPropertyOp23
 70
     1
102
RTVSPropertyOp24
 70
     1
102
RTVSPropertyOp25
 70
     1
102
RTVSPropertyOp26
 70
     1
102
RTVSPropertyOp27
 70
     1
  0
XRECORD
  5
16E1
102
{ACAD_REACTORS
330
16E0
102
}
330
16E0
100
AcDbXrecord
280
     1
102
RTVSPropertyOp0
 70
     1
102
RTVSPropertyOp1
 70
     1
102
RTVSPropertyOp2
 70
     1
102
RTVSPropertyOp3
 70
     1
102
RTVSPropertyOp4
 70
     1
102
RTVSPropertyOp5
 70
     1
102
RTVSPropertyOp6
 70
     1
102
RTVSPropertyOp7
 70
     1
102
RTVSPropertyOp8
 70
     1
102
RTVSPropertyOp9
 70
     1
102
RTVSPropertyOp10
 70
     1
102
RTVSPropertyOp11
 70
     1
102
RTVSPropertyOp12
 70
     1
102
RTVSPropertyOp13
 70
     1
102
RTVSPropertyOp14
 70
     1
102
RTVSPropertyOp15
 70
     1
102
RTVSPropertyOp16
 70
     1
102
RTVSPropertyOp17
 70
     1
102
RTVSPropertyOp18
 70
     1
102
RTVSPropertyOp19
 70
     1
102
RTVSPropertyOp20
 70
     1
102
RTVSPropertyOp21
 70
     1
102
RTVSPropertyOp22
 70
     1
102
RTVSPropertyOp23
 70
     1
102
RTVSPropertyOp24
 70
     1
102
RTVSPropertyOp25
 70
     1
102
RTVSPropertyOp26
 70
     1
102
RTVSPropertyOp27
 70
     1
  0
XRECORD
  5
16DF
102
{ACAD_REACTORS
330
16DE
102
}
330
16DE
100
AcDbXrecord
280
     1
102
RTVSPropertyOp0
 70
     1
102
RTVSPropertyOp1
 70
     1
102
RTVSPropertyOp2
 70
     1
102
RTVSPropertyOp3
 70
     1
102
RTVSPropertyOp4
 70
     1
102
RTVSPropertyOp5
 70
     1
102
RTVSPropertyOp6
 70
     1
102
RTVSPropertyOp7
 70
     1
102
RTVSPropertyOp8
 70
     1
102
RTVSPropertyOp9
 70
     1
102
RTVSPropertyOp10
 70
     1
102
RTVSPropertyOp11
 70
     1
102
RTVSPropertyOp12
 70
     1
102
RTVSPropertyOp13
 70
     1
102
RTVSPropertyOp14
 70
     1
102
RTVSPropertyOp15
 70
     1
102
RTVSPropertyOp16
 70
     1
102
RTVSPropertyOp17
 70
     1
102
RTVSPropertyOp18
 70
     1
102
RTVSPropertyOp19
 70
     1
102
RTVSPropertyOp20
 70
     1
102
RTVSPropertyOp21
 70
     1
102
RTVSPropertyOp22
 70
     1
102
RTVSPropertyOp23
 70
     1
102
RTVSPropertyOp24
 70
     1
102
RTVSPropertyOp25
 70
     1
102
RTVSPropertyOp26
 70
     1
102
RTVSPropertyOp27
 70
     1
  0
XRECORD
  5
16DB
102
{ACAD_REACTORS
330
16DA
102
}
330
16DA
100
AcDbXrecord
280
     1
102
RTVSPropertyOp0
 70
     1
102
RTVSPropertyOp1
 70
     1
102
RTVSPropertyOp2
 70
     1
102
RTVSPropertyOp3
 70
     1
102
RTVSPropertyOp4
 70
     1
102
RTVSPropertyOp5
 70
     1
102
RTVSPropertyOp6
 70
     1
102
RTVSPropertyOp7
 70
     1
102
RTVSPropertyOp8
 70
     1
102
RTVSPropertyOp9
 70
     1
102
RTVSPropertyOp10
 70
     1
102
RTVSPropertyOp11
 70
     1
102
RTVSPropertyOp12
 70
     1
102
RTVSPropertyOp13
 70
     1
102
RTVSPropertyOp14
 70
     1
102
RTVSPropertyOp15
 70
     1
102
RTVSPropertyOp16
 70
     1
102
RTVSPropertyOp17
 70
     1
102
RTVSPropertyOp18
 70
     1
102
RTVSPropertyOp19
 70
     1
102
RTVSPropertyOp20
 70
     1
102
RTVSPropertyOp21
 70
     1
102
RTVSPropertyOp22
 70
     1
102
RTVSPropertyOp23
 70
     1
102
RTVSPropertyOp24
 70
     1
102
RTVSPropertyOp25
 70
     1
102
RTVSPropertyOp26
 70
     1
102
RTVSPropertyOp27
 70
     1
  0
XRECORD
  5
16E9
102
{ACAD_REACTORS
330
16E8
102
}
330
16E8
100
AcDbXrecord
280
     1
102
RTVSPropertyOp0
 70
     1
102
RTVSPropertyOp1
 70
     1
102
RTVSPropertyOp2
 70
     1
102
RTVSPropertyOp3
 70
     1
102
RTVSPropertyOp4
 70
     1
102
RTVSPropertyOp5
 70
     1
102
RTVSPropertyOp6
 70
     1
102
RTVSPropertyOp7
 70
     1
102
RTVSPropertyOp8
 70
     1
102
RTVSPropertyOp9
 70
     1
102
RTVSPropertyOp10
 70
     1
102
RTVSPropertyOp11
 70
     1
102
RTVSPropertyOp12
 70
     1
102
RTVSPropertyOp13
 70
     1
102
RTVSPropertyOp14
 70
     1
102
RTVSPropertyOp15
 70
     1
102
RTVSPropertyOp16
 70
     1
102
RTVSPropertyOp17
 70
     1
102
RTVSPropertyOp18
 70
     1
102
RTVSPropertyOp19
 70
     1
102
RTVSPropertyOp20
 70
     1
102
RTVSPropertyOp21
 70
     1
102
RTVSPropertyOp22
 70
     1
102
RTVSPropertyOp23
 70
     1
102
RTVSPropertyOp24
 70
     1
102
RTVSPropertyOp25
 70
     1
102
RTVSPropertyOp26
 70
     1
102
RTVSPropertyOp27
 70
     1
  0
XRECORD
  5
16F1
102
{ACAD_REACTORS
330
16F0
102
}
330
16F0
100
AcDbXrecord
280
     1
102
RTVSPropertyOp0
 70
     1
102
RTVSPropertyOp1
 70
     1
102
RTVSPropertyOp2
 70
     1
102
RTVSPropertyOp3
 70
     1
102
RTVSPropertyOp4
 70
     1
102
RTVSPropertyOp5
 70
     1
102
RTVSPropertyOp6
 70
     1
102
RTVSPropertyOp7
 70
     1
102
RTVSPropertyOp8
 70
     1
102
RTVSPropertyOp9
 70
     1
102
RTVSPropertyOp10
 70
     1
102
RTVSPropertyOp11
 70
     1
102
RTVSPropertyOp12
 70
     1
102
RTVSPropertyOp13
 70
     1
102
RTVSPropertyOp14
 70
     1
102
RTVSPropertyOp15
 70
     1
102
RTVSPropertyOp16
 70
     1
102
RTVSPropertyOp17
 70
     1
102
RTVSPropertyOp18
 70
     1
102
RTVSPropertyOp19
 70
     1
102
RTVSPropertyOp20
 70
     1
102
RTVSPropertyOp21
 70
     1
102
RTVSPropertyOp22
 70
     1
102
RTVSPropertyOp23
 70
     1
102
RTVSPropertyOp24
 70
     1
102
RTVSPropertyOp25
 70
     1
102
RTVSPropertyOp26
 70
     1
102
RTVSPropertyOp27
 70
     1
  0
XRECORD
  5
16E3
102
{ACAD_REACTORS
330
16E2
102
}
330
16E2
100
AcDbXrecord
280
     1
102
RTVSPropertyOp0
 70
     1
102
RTVSPropertyOp1
 70
     1
102
RTVSPropertyOp2
 70
     1
102
RTVSPropertyOp3
 70
     1
102
RTVSPropertyOp4
 70
     1
102
RTVSPropertyOp5
 70
     1
102
RTVSPropertyOp6
 70
     1
102
RTVSPropertyOp7
 70
     1
102
RTVSPropertyOp8
 70
     1
102
RTVSPropertyOp9
 70
     1
102
RTVSPropertyOp10
 70
     1
102
RTVSPropertyOp11
 70
     1
102
RTVSPropertyOp12
 70
     1
102
RTVSPropertyOp13
 70
     1
102
RTVSPropertyOp14
 70
     1
102
RTVSPropertyOp15
 70
     1
102
RTVSPropertyOp16
 70
     1
102
RTVSPropertyOp17
 70
     1
102
RTVSPropertyOp18
 70
     1
102
RTVSPropertyOp19
 70
     1
102
RTVSPropertyOp20
 70
     1
102
RTVSPropertyOp21
 70
     1
102
RTVSPropertyOp22
 70
     1
102
RTVSPropertyOp23
 70
     1
102
RTVSPropertyOp24
 70
     1
102
RTVSPropertyOp25
 70
     1
102
RTVSPropertyOp26
 70
     1
102
RTVSPropertyOp27
 70
     1
  0
XRECORD
  5
16E7
102
{ACAD_REACTORS
330
16E6
102
}
330
16E6
100
AcDbXrecord
280
     1
102
RTVSPropertyOp0
 70
     1
102
RTVSPropertyOp1
 70
     1
102
RTVSPropertyOp2
 70
     1
102
RTVSPropertyOp3
 70
     1
102
RTVSPropertyOp4
 70
     1
102
RTVSPropertyOp5
 70
     1
102
RTVSPropertyOp6
 70
     1
102
RTVSPropertyOp7
 70
     1
102
RTVSPropertyOp8
 70
     1
102
RTVSPropertyOp9
 70
     1
102
RTVSPropertyOp10
 70
     1
102
RTVSPropertyOp11
 70
     1
102
RTVSPropertyOp12
 70
     1
102
RTVSPropertyOp13
 70
     1
102
RTVSPropertyOp14
 70
     1
102
RTVSPropertyOp15
 70
     1
102
RTVSPropertyOp16
 70
     1
102
RTVSPropertyOp17
 70
     1
102
RTVSPropertyOp18
 70
     1
102
RTVSPropertyOp19
 70
     1
102
RTVSPropertyOp20
 70
     1
102
RTVSPropertyOp21
 70
     1
102
RTVSPropertyOp22
 70
     1
102
RTVSPropertyOp23
 70
     1
102
RTVSPropertyOp24
 70
     1
102
RTVSPropertyOp25
 70
     1
102
RTVSPropertyOp26
 70
     1
102
RTVSPropertyOp27
 70
     1
  0
XRECORD
  5
16F7
102
{ACAD_REACTORS
330
16F6
102
}
330
16F6
100
AcDbXrecord
280
     1
102
RTVSPropertyOp0
 70
     0
102
RTVSPropertyOp1
 70
     0
102
RTVSPropertyOp2
 70
     0
102
RTVSPropertyOp3
 70
     0
102
RTVSPropertyOp4
 70
     0
102
RTVSPropertyOp5
 70
     0
102
RTVSPropertyOp6
 70
     0
102
RTVSPropertyOp7
 70
     0
102
RTVSPropertyOp8
 70
     0
102
RTVSPropertyOp9
 70
     0
102
RTVSPropertyOp10
 70
     0
102
RTVSPropertyOp11
 70
     0
102
RTVSPropertyOp12
 70
     0
102
RTVSPropertyOp13
 70
     0
102
RTVSPropertyOp14
 70
     2
102
RTVSPropertyOp15
 70
     0
102
RTVSPropertyOp16
 70
     0
102
RTVSPropertyOp17
 70
     0
102
RTVSPropertyOp18
 70
     0
102
RTVSPropertyOp19
 70
     0
102
RTVSPropertyOp20
 70
     0
102
RTVSPropertyOp21
 70
     0
102
RTVSPropertyOp22
 70
     0
102
RTVSPropertyOp23
 70
     0
102
RTVSPropertyOp24
 70
     0
102
RTVSPropertyOp25
 70
     0
102
RTVSPropertyOp26
 70
     0
102
RTVSPropertyOp27
 70
     0
  0
XRECORD
  5
16EF
102
{ACAD_REACTORS
330
16EE
102
}
330
16EE
100
AcDbXrecord
280
     1
102
RTVSPropertyOp0
 70
     1
102
RTVSPropertyOp1
 70
     1
102
RTVSPropertyOp2
 70
     1
102
RTVSPropertyOp3
 70
     1
102
RTVSPropertyOp4
 70
     1
102
RTVSPropertyOp5
 70
     1
102
RTVSPropertyOp6
 70
     1
102
RTVSPropertyOp7
 70
     1
102
RTVSPropertyOp8
 70
     1
102
RTVSPropertyOp9
 70
     1
102
RTVSPropertyOp10
 70
     1
102
RTVSPropertyOp11
 70
     1
102
RTVSPropertyOp12
 70
     1
102
RTVSPropertyOp13
 70
     1
102
RTVSPropertyOp14
 70
     1
102
RTVSPropertyOp15
 70
     1
102
RTVSPropertyOp16
 70
     1
102
RTVSPropertyOp17
 70
     1
102
RTVSPropertyOp18
 70
     1
102
RTVSPropertyOp19
 70
     1
102
RTVSPropertyOp20
 70
     1
102
RTVSPropertyOp21
 70
     1
102
RTVSPropertyOp22
 70
     1
102
RTVSPropertyOp23
 70
     1
102
RTVSPropertyOp24
 70
     1
102
RTVSPropertyOp25
 70
     1
102
RTVSPropertyOp26
 70
     1
102
RTVSPropertyOp27
 70
     1
  0
XRECORD
  5
16D3
102
{ACAD_REACTORS
330
16D2
102
}
330
16D2
100
AcDbXrecord
280
     1
102
RTVSPropertyOp0
 70
     1
102
RTVSPropertyOp1
 70
     1
102
RTVSPropertyOp2
 70
     1
102
RTVSPropertyOp3
 70
     1
102
RTVSPropertyOp4
 70
     1
102
RTVSPropertyOp5
 70
     1
102
RTVSPropertyOp6
 70
     1
102
RTVSPropertyOp7
 70
     1
102
RTVSPropertyOp8
 70
     1
102
RTVSPropertyOp9
 70
     1
102
RTVSPropertyOp10
 70
     1
102
RTVSPropertyOp11
 70
     1
102
RTVSPropertyOp12
 70
     1
102
RTVSPropertyOp13
 70
     1
102
RTVSPropertyOp14
 70
     1
102
RTVSPropertyOp15
 70
     1
102
RTVSPropertyOp16
 70
     1
102
RTVSPropertyOp17
 70
     1
102
RTVSPropertyOp18
 70
     1
102
RTVSPropertyOp19
 70
     1
102
RTVSPropertyOp20
 70
     1
102
RTVSPropertyOp21
 70
     1
102
RTVSPropertyOp22
 70
     1
102
RTVSPropertyOp23
 70
     1
102
RTVSPropertyOp24
 70
     1
102
RTVSPropertyOp25
 70
     1
102
RTVSPropertyOp26
 70
     1
102
RTVSPropertyOp27
 70
     1
  0
XRECORD
  5
16D5
102
{ACAD_REACTORS
330
16D4
102
}
330
16D4
100
AcDbXrecord
280
     1
102
RTVSPropertyOp0
 70
     1
102
RTVSPropertyOp1
 70
     1
102
RTVSPropertyOp2
 70
     1
102
RTVSPropertyOp3
 70
     1
102
RTVSPropertyOp4
 70
     1
102
RTVSPropertyOp5
 70
     1
102
RTVSPropertyOp6
 70
     1
102
RTVSPropertyOp7
 70
     1
102
RTVSPropertyOp8
 70
     1
102
RTVSPropertyOp9
 70
     1
102
RTVSPropertyOp10
 70
     1
102
RTVSPropertyOp11
 70
     1
102
RTVSPropertyOp12
 70
     1
102
RTVSPropertyOp13
 70
     1
102
RTVSPropertyOp14
 70
     1
102
RTVSPropertyOp15
 70
     1
102
RTVSPropertyOp16
 70
     1
102
RTVSPropertyOp17
 70
     1
102
RTVSPropertyOp18
 70
     1
102
RTVSPropertyOp19
 70
     1
102
RTVSPropertyOp20
 70
     1
102
RTVSPropertyOp21
 70
     1
102
RTVSPropertyOp22
 70
     1
102
RTVSPropertyOp23
 70
     1
102
RTVSPropertyOp24
 70
     1
102
RTVSPropertyOp25
 70
     1
102
RTVSPropertyOp26
 70
     1
102
RTVSPropertyOp27
 70
     1
  0
XRECORD
  5
16D7
102
{ACAD_REACTORS
330
16D6
102
}
330
16D6
100
AcDbXrecord
280
     1
102
RTVSPropertyOp0
 70
     1
102
RTVSPropertyOp1
 70
     1
102
RTVSPropertyOp2
 70
     1
102
RTVSPropertyOp3
 70
     1
102
RTVSPropertyOp4
 70
     1
102
RTVSPropertyOp5
 70
     1
102
RTVSPropertyOp6
 70
     1
102
RTVSPropertyOp7
 70
     1
102
RTVSPropertyOp8
 70
     1
102
RTVSPropertyOp9
 70
     1
102
RTVSPropertyOp10
 70
     1
102
RTVSPropertyOp11
 70
     1
102
RTVSPropertyOp12
 70
     1
102
RTVSPropertyOp13
 70
     1
102
RTVSPropertyOp14
 70
     1
102
RTVSPropertyOp15
 70
     1
102
RTVSPropertyOp16
 70
     1
102
RTVSPropertyOp17
 70
     1
102
RTVSPropertyOp18
 70
     1
102
RTVSPropertyOp19
 70
     1
102
RTVSPropertyOp20
 70
     1
102
RTVSPropertyOp21
 70
     1
102
RTVSPropertyOp22
 70
     1
102
RTVSPropertyOp23
 70
     1
102
RTVSPropertyOp24
 70
     1
102
RTVSPropertyOp25
 70
     1
102
RTVSPropertyOp26
 70
     1
102
RTVSPropertyOp27
 70
     1
  0
XRECORD
  5
16D9
102
{ACAD_REACTORS
330
16D8
102
}
330
16D8
100
AcDbXrecord
280
     1
102
RTVSPropertyOp0
 70
     1
102
RTVSPropertyOp1
 70
     1
102
RTVSPropertyOp2
 70
     1
102
RTVSPropertyOp3
 70
     1
102
RTVSPropertyOp4
 70
     1
102
RTVSPropertyOp5
 70
     1
102
RTVSPropertyOp6
 70
     1
102
RTVSPropertyOp7
 70
     1
102
RTVSPropertyOp8
 70
     1
102
RTVSPropertyOp9
 70
     1
102
RTVSPropertyOp10
 70
     1
102
RTVSPropertyOp11
 70
     1
102
RTVSPropertyOp12
 70
     1
102
RTVSPropertyOp13
 70
     1
102
RTVSPropertyOp14
 70
     1
102
RTVSPropertyOp15
 70
     1
102
RTVSPropertyOp16
 70
     1
102
RTVSPropertyOp17
 70
     1
102
RTVSPropertyOp18
 70
     1
102
RTVSPropertyOp19
 70
     1
102
RTVSPropertyOp20
 70
     1
102
RTVSPropertyOp21
 70
     1
102
RTVSPropertyOp22
 70
     1
102
RTVSPropertyOp23
 70
     1
102
RTVSPropertyOp24
 70
     1
102
RTVSPropertyOp25
 70
     1
102
RTVSPropertyOp26
 70
     1
102
RTVSPropertyOp27
 70
     1
  0
XRECORD
  5
16F3
102
{ACAD_REACTORS
330
16F2
102
}
330
16F2
100
AcDbXrecord
280
     1
102
RTVSPropertyOp0
 70
     0
102
RTVSPropertyOp1
 70
     0
102
RTVSPropertyOp2
 70
     0
102
RTVSPropertyOp3
 70
     0
102
RTVSPropertyOp4
 70
     0
102
RTVSPropertyOp5
 70
     0
102
RTVSPropertyOp6
 70
     0
102
RTVSPropertyOp7
 70
     0
102
RTVSPropertyOp8
 70
     0
102
RTVSPropertyOp9
 70
     0
102
RTVSPropertyOp10
 70
     0
102
RTVSPropertyOp11
 70
     0
102
RTVSPropertyOp12
 70
     0
102
RTVSPropertyOp13
 70
     0
102
RTVSPropertyOp14
 70
     2
102
RTVSPropertyOp15
 70
     0
102
RTVSPropertyOp16
 70
     0
102
RTVSPropertyOp17
 70
     0
102
RTVSPropertyOp18
 70
     0
102
RTVSPropertyOp19
 70
     0
102
RTVSPropertyOp20
 70
     0
102
RTVSPropertyOp21
 70
     0
102
RTVSPropertyOp22
 70
     0
102
RTVSPropertyOp23
 70
     0
102
RTVSPropertyOp24
 70
     0
102
RTVSPropertyOp25
 70
     0
102
RTVSPropertyOp26
 70
     0
102
RTVSPropertyOp27
 70
     0
  0
XRECORD
  5
16ED
102
{ACAD_REACTORS
330
16EC
102
}
330
16EC
100
AcDbXrecord
280
     1
102
RTVSPropertyOp0
 70
     1
102
RTVSPropertyOp1
 70
     1
102
RTVSPropertyOp2
 70
     1
102
RTVSPropertyOp3
 70
     1
102
RTVSPropertyOp4
 70
     1
102
RTVSPropertyOp5
 70
     1
102
RTVSPropertyOp6
 70
     1
102
RTVSPropertyOp7
 70
     1
102
RTVSPropertyOp8
 70
     1
102
RTVSPropertyOp9
 70
     1
102
RTVSPropertyOp10
 70
     1
102
RTVSPropertyOp11
 70
     1
102
RTVSPropertyOp12
 70
     1
102
RTVSPropertyOp13
 70
     1
102
RTVSPropertyOp14
 70
     1
102
RTVSPropertyOp15
 70
     1
102
RTVSPropertyOp16
 70
     1
102
RTVSPropertyOp17
 70
     1
102
RTVSPropertyOp18
 70
     1
102
RTVSPropertyOp19
 70
     1
102
RTVSPropertyOp20
 70
     1
102
RTVSPropertyOp21
 70
     1
102
RTVSPropertyOp22
 70
     1
102
RTVSPropertyOp23
 70
     1
102
RTVSPropertyOp24
 70
     1
102
RTVSPropertyOp25
 70
     1
102
RTVSPropertyOp26
 70
     1
102
RTVSPropertyOp27
 70
     1
  0
XRECORD
  5
16F5
102
{ACAD_REACTORS
330
16F4
102
}
330
16F4
100
AcDbXrecord
280
     1
102
RTVSPropertyOp0
 70
     0
102
RTVSPropertyOp1
 70
     0
102
RTVSPropertyOp2
 70
     0
102
RTVSPropertyOp3
 70
     0
102
RTVSPropertyOp4
 70
     0
102
RTVSPropertyOp5
 70
     0
102
RTVSPropertyOp6
 70
     0
102
RTVSPropertyOp7
 70
     0
102
RTVSPropertyOp8
 70
     0
102
RTVSPropertyOp9
 70
     0
102
RTVSPropertyOp10
 70
     0
102
RTVSPropertyOp11
 70
     0
102
RTVSPropertyOp12
 70
     0
102
RTVSPropertyOp13
 70
     0
102
RTVSPropertyOp14
 70
     2
102
RTVSPropertyOp15
 70
     0
102
RTVSPropertyOp16
 70
     0
102
RTVSPropertyOp17
 70
     0
102
RTVSPropertyOp18
 70
     0
102
RTVSPropertyOp19
 70
     0
102
RTVSPropertyOp20
 70
     0
102
RTVSPropertyOp21
 70
     0
102
RTVSPropertyOp22
 70
     0
102
RTVSPropertyOp23
 70
     0
102
RTVSPropertyOp24
 70
     0
102
RTVSPropertyOp25
 70
     0
102
RTVSPropertyOp26
 70
     0
102
RTVSPropertyOp27
 70
     0
  0
XRECORD
  5
16E5
102
{ACAD_REACTORS
330
16E4
102
}
330
16E4
100
AcDbXrecord
280
     1
102
RTVSPropertyOp0
 70
     1
102
RTVSPropertyOp1
 70
     1
102
RTVSPropertyOp2
 70
     1
102
RTVSPropertyOp3
 70
     1
102
RTVSPropertyOp4
 70
     1
102
RTVSPropertyOp5
 70
     1
102
RTVSPropertyOp6
 70
     1
102
RTVSPropertyOp7
 70
     1
102
RTVSPropertyOp8
 70
     1
102
RTVSPropertyOp9
 70
     1
102
RTVSPropertyOp10
 70
     1
102
RTVSPropertyOp11
 70
     1
102
RTVSPropertyOp12
 70
     1
102
RTVSPropertyOp13
 70
     1
102
RTVSPropertyOp14
 70
     1
102
RTVSPropertyOp15
 70
     1
102
RTVSPropertyOp16
 70
     1
102
RTVSPropertyOp17
 70
     1
102
RTVSPropertyOp18
 70
     1
102
RTVSPropertyOp19
 70
     1
102
RTVSPropertyOp20
 70
     1
102
RTVSPropertyOp21
 70
     1
102
RTVSPropertyOp22
 70
     1
102
RTVSPropertyOp23
 70
     1
102
RTVSPropertyOp24
 70
     1
102
RTVSPropertyOp25
 70
     1
102
RTVSPropertyOp26
 70
     1
102
RTVSPropertyOp27
 70
     1
  0
XRECORD
  5
16EB
102
{ACAD_REACTORS
330
16EA
102
}
330
16EA
100
AcDbXrecord
280
     1
102
RTVSPropertyOp0
 70
     1
102
RTVSPropertyOp1
 70
     1
102
RTVSPropertyOp2
 70
     1
102
RTVSPropertyOp3
 70
     1
102
RTVSPropertyOp4
 70
     1
102
RTVSPropertyOp5
 70
     1
102
RTVSPropertyOp6
 70
     1
102
RTVSPropertyOp7
 70
     1
102
RTVSPropertyOp8
 70
     1
102
RTVSPropertyOp9
 70
     1
102
RTVSPropertyOp10
 70
     1
102
RTVSPropertyOp11
 70
     1
102
RTVSPropertyOp12
 70
     1
102
RTVSPropertyOp13
 70
     1
102
RTVSPropertyOp14
 70
     1
102
RTVSPropertyOp15
 70
     1
102
RTVSPropertyOp16
 70
     1
102
RTVSPropertyOp17
 70
     1
102
RTVSPropertyOp18
 70
     1
102
RTVSPropertyOp19
 70
     1
102
RTVSPropertyOp20
 70
     1
102
RTVSPropertyOp21
 70
     1
102
RTVSPropertyOp22
 70
     1
102
RTVSPropertyOp23
 70
     1
102
RTVSPropertyOp24
 70
     1
102
RTVSPropertyOp25
 70
     1
102
RTVSPropertyOp26
 70
     1
102
RTVSPropertyOp27
 70
     1
  0
ENDSEC
  0
EOF
