  0
SECTION
  2
HEADER
  9
$ACADVER
  1
AC1015
  9
$ACADMAINTVER
 70
    20
  9
$DWGCODEPAGE
  3
ANSI_1252
  9
$INSBASE
 10
0.0
 20
0.0
 30
0.0
  9
$EXTMIN
 10
5081.528899917461
 20
1944.804565225053
 30
-0.0000000017937957
  9
$EXTMAX
 10
5084.59825693739
 20
1946.654565225053
 30
0.0000000001555553
  9
$LIMMIN
 10
0.0
 20
0.0
  9
$LIMMAX
 10
420.0
 20
297.0
  9
$ORTHOMODE
 70
     1
  9
$REGENMODE
 70
     1
  9
$FILLMODE
 70
     1
  9
$QTEXTMODE
 70
     0
  9
$MIRRTEXT
 70
     1
  9
$LTSCALE
 40
1.0
  9
$ATTMODE
 70
     1
  9
$TEXTSIZE
 40
2.5
  9
$TRACEWID
 40
1.0
  9
$TEXTSTYLE
  7
SANINDUSA
  9
$CLAYER
  8
7
  9
$CELTYPE
  6
ByLayer
  9
$CECOLOR
 62
   256
  9
$CELTSCALE
 40
1.0
  9
$DISPSILH
 70
     0
  9
$DIMSCALE
 40
10.0
  9
$DIMASZ
 40
2.0
  9
$DIMEXO
 40
1.0
  9
$DIMDLI
 40
1.0
  9
$DIMRND
 40
0.0
  9
$DIMDLE
 40
0.0
  9
$DIMEXE
 40
1.0
  9
$DIMTP
 40
0.0
  9
$DIMTM
 40
0.0
  9
$DIMTXT
 40
2.0
  9
$DIMCEN
 40
0.0
  9
$DIMTSZ
 40
0.0
  9
$DIMTOL
 70
     0
  9
$DIMLIM
 70
     0
  9
$DIMTIH
 70
     0
  9
$DIMTOH
 70
     0
  9
$DIMSE1
 70
     0
  9
$DIMSE2
 70
     0
  9
$DIMTAD
 70
     1
  9
$DIMZIN
 70
     8
  9
$DIMBLK
  1

  9
$DIMASO
 70
     1
  9
$DIMSHO
 70
     1
  9
$DIMPOST
  1

  9
$DIMAPOST
  1

  9
$DIMALT
 70
     0
  9
$DIMALTD
 70
     3
  9
$DIMALTF
 40
0.03937007874016
  9
$DIMLFAC
 40
1.0
  9
$DIMTOFL
 70
     1
  9
$DIMTVP
 40
0.0
  9
$DIMTIX
 70
     0
  9
$DIMSOXD
 70
     0
  9
$DIMSAH
 70
     0
  9
$DIMBLK1
  1

  9
$DIMBLK2
  1

  9
$DIMSTYLE
  2
SANINDUSA
  9
$DIMCLRD
 70
   256
  9
$DIMCLRE
 70
   256
  9
$DIMCLRT
 70
   256
  9
$DIMTFAC
 40
1.0
  9
$DIMGAP
 40
1.0
  9
$DIMJUST
 70
     0
  9
$DIMSD1
 70
     0
  9
$DIMSD2
 70
     0
  9
$DIMTOLJ
 70
     0
  9
$DIMTZIN
 70
     8
  9
$DIMALTZ
 70
     0
  9
$DIMALTTZ
 70
     0
  9
$DIMUPT
 70
     0
  9
$DIMDEC
 70
     1
  9
$DIMTDEC
 70
     1
  9
$DIMALTU
 70
     2
  9
$DIMALTTD
 70
     3
  9
$DIMTXSTY
  7
SANINDUSA
  9
$DIMAUNIT
 70
     0
  9
$DIMADEC
 70
     1
  9
$DIMALTRND
 40
0.0
  9
$DIMAZIN
 70
     0
  9
$DIMDSEP
 70
    44
  9
$DIMATFIT
 70
     3
  9
$DIMFRAC
 70
     0
  9
$DIMLDRBLK
  1

  9
$DIMLUNIT
 70
     2
  9
$DIMLWD
 70
    -1
  9
$DIMLWE
 70
    -1
  9
$DIMTMOVE
 70
     0
  9
$LUNITS
 70
     2
  9
$LUPREC
 70
     4
  9
$SKETCHINC
 40
1.0
  9
$FILLETRAD
 40
0.0
  9
$AUNITS
 70
     0
  9
$AUPREC
 70
     0
  9
$MENU
  1
.
  9
$ELEVATION
 40
0.0
  9
$PELEVATION
 40
0.0
  9
$THICKNESS
 40
0.0
  9
$LIMCHECK
 70
     0
  9
$CHAMFERA
 40
10.0
  9
$CHAMFERB
 40
10.0
  9
$CHAMFERC
 40
20.0
  9
$CHAMFERD
 40
0.0
  9
$SKPOLY
 70
     0
  9
$TDCREATE
 40
2454138.526907905
  9
$TDUCREATE
 40
2454138.485241239
  9
$TDUPDATE
 40
2455818.735262766
  9
$TDUUPDATE
 40
2455818.693596099
  9
$TDINDWG
 40
0.0225535301
  9
$TDUSRTIMER
 40
0.0225535301
  9
$USRTIMER
 70
     1
  9
$ANGBASE
 50
0.0
  9
$ANGDIR
 70
     0
  9
$PDMODE
 70
     0
  9
$PDSIZE
 40
0.0
  9
$PLINEWID
 40
0.0
  9
$SPLFRAME
 70
     0
  9
$SPLINETYPE
 70
     6
  9
$SPLINESEGS
 70
     8
  9
$HANDSEED
  5
24E7
  9
$SURFTAB1
 70
     6
  9
$SURFTAB2
 70
     6
  9
$SURFTYPE
 70
     6
  9
$SURFU
 70
     6
  9
$SURFV
 70
     6
  9
$UCSBASE
  2

  9
$UCSNAME
  2

  9
$UCSORG
 10
0.0
 20
0.0
 30
0.0
  9
$UCSXDIR
 10
1.0
 20
0.0
 30
0.0
  9
$UCSYDIR
 10
0.0
 20
1.0
 30
0.0
  9
$UCSORTHOREF
  2

  9
$UCSORTHOVIEW
 70
     0
  9
$UCSORGTOP
 10
0.0
 20
0.0
 30
0.0
  9
$UCSORGBOTTOM
 10
0.0
 20
0.0
 30
0.0
  9
$UCSORGLEFT
 10
0.0
 20
0.0
 30
0.0
  9
$UCSORGRIGHT
 10
0.0
 20
0.0
 30
0.0
  9
$UCSORGFRONT
 10
0.0
 20
0.0
 30
0.0
  9
$UCSORGBACK
 10
0.0
 20
0.0
 30
0.0
  9
$PUCSBASE
  2

  9
$PUCSNAME
  2

  9
$PUCSORG
 10
0.0
 20
0.0
 30
0.0
  9
$PUCSXDIR
 10
1.0
 20
0.0
 30
0.0
  9
$PUCSYDIR
 10
0.0
 20
1.0
 30
0.0
  9
$PUCSORTHOREF
  2

  9
$PUCSORTHOVIEW
 70
     0
  9
$PUCSORGTOP
 10
0.0
 20
0.0
 30
0.0
  9
$PUCSORGBOTTOM
 10
0.0
 20
0.0
 30
0.0
  9
$PUCSORGLEFT
 10
0.0
 20
0.0
 30
0.0
  9
$PUCSORGRIGHT
 10
0.0
 20
0.0
 30
0.0
  9
$PUCSORGFRONT
 10
0.0
 20
0.0
 30
0.0
  9
$PUCSORGBACK
 10
0.0
 20
0.0
 30
0.0
  9
$USERI1
 70
     0
  9
$USERI2
 70
     0
  9
$USERI3
 70
     0
  9
$USERI4
 70
     0
  9
$USERI5
 70
     0
  9
$USERR1
 40
0.0
  9
$USERR2
 40
0.0
  9
$USERR3
 40
0.0
  9
$USERR4
 40
0.0
  9
$USERR5
 40
0.0
  9
$WORLDVIEW
 70
     1
  9
$SHADEDGE
 70
     3
  9
$SHADEDIF
 70
    70
  9
$TILEMODE
 70
     1
  9
$MAXACTVP
 70
    64
  9
$PINSBASE
 10
0.0
 20
0.0
 30
0.0
  9
$PLIMCHECK
 70
     0
  9
$PEXTMIN
 10
1.000000000000000E+20
 20
1.000000000000000E+20
 30
1.000000000000000E+20
  9
$PEXTMAX
 10
-1.000000000000000E+20
 20
-1.000000000000000E+20
 30
-1.000000000000000E+20
  9
$PLIMMIN
 10
0.0
 20
0.0
  9
$PLIMMAX
 10
420.0
 20
297.0
  9
$UNITMODE
 70
     0
  9
$VISRETAIN
 70
     1
  9
$PLINEGEN
 70
     0
  9
$PSLTSCALE
 70
     1
  9
$TREEDEPTH
 70
  3020
  9
$CMLSTYLE
  2
Standard
  9
$CMLJUST
 70
     0
  9
$CMLSCALE
 40
20.0
  9
$PROXYGRAPHICS
 70
     1
  9
$MEASUREMENT
 70
     1
  9
$CELWEIGHT
370
    -1
  9
$ENDCAPS
280
     0
  9
$JOINSTYLE
280
     0
  9
$LWDISPLAY
290
     0
  9
$INSUNITS
 70
     4
  9
$HYPERLINKBASE
  1

  9
$STYLESHEET
  1
sanindusa.ctb
  9
$XEDIT
290
     1
  9
$CEPSNTYPE
380
     0
  9
$PSTYLEMODE
290
     1
  9
$FINGERPRINTGUID
  2
{D981C2D9-9F7D-455A-A0F0-824D04DFC852}
  9
$VERSIONGUID
  2
{B6EE2F09-4F8D-4F77-B842-2424FBEC3DF3}
  9
$EXTNAMES
290
     1
  9
$PSVPSCALE
 40
0.0
  9
$OLESTARTUP
290
     0
  0
ENDSEC
  0
SECTION
  2
CLASSES
  0
CLASS
  1
ACDBDICTIONARYWDFLT
  2
AcDbDictionaryWithDefault
  3
ObjectDBX Classes
 90
        0
280
     0
281
     0
  0
CLASS
  1
ACDBPLACEHOLDER
  2
AcDbPlaceHolder
  3
ObjectDBX Classes
 90
        0
280
     0
281
     0
  0
CLASS
  1
LAYOUT
  2
AcDbLayout
  3
ObjectDBX Classes
 90
        0
280
     0
281
     0
  0
CLASS
  1
DICTIONARYVAR
  2
AcDbDictionaryVar
  3
ObjectDBX Classes
 90
        0
280
     0
281
     0
  0
CLASS
  1
DIMASSOC
  2
AcDbDimAssoc
  3
"AcDbDimAssoc|Product Desc:     AcDim ARX App For Dimension|Company:          Autodesk, Inc.|WEB Address:      www.autodesk.com"
 90
        0
280
     0
281
     0
  0
CLASS
  1
TABLESTYLE
  2
AcDbTableStyle
  3
ObjectDBX Classes
 90
     4095
280
     0
281
     0
  0
CLASS
  1
SORTENTSTABLE
  2
AcDbSortentsTable
  3
ObjectDBX Classes
 90
        0
280
     0
281
     0
  0
CLASS
  1
MATERIAL
  2
AcDbMaterial
  3
ObjectDBX Classes
 90
     1153
280
     0
281
     0
  0
CLASS
  1
VISUALSTYLE
  2
AcDbVisualStyle
  3
ObjectDBX Classes
 90
     4095
280
     0
281
     0
  0
CLASS
  1
SCALE
  2
AcDbScale
  3
ObjectDBX Classes
 90
     1153
280
     0
281
     0
  0
CLASS
  1
MLEADERSTYLE
  2
AcDbMLeaderStyle
  3
ACDB_MLEADERSTYLE_CLASS
 90
     4095
280
     0
281
     0
  0
CLASS
  1
CELLSTYLEMAP
  2
AcDbCellStyleMap
  3
ObjectDBX Classes
 90
     1152
280
     0
281
     0
  0
ENDSEC
  0
SECTION
  2
TABLES
  0
TABLE
  2
VPORT
  5
8
330
0
100
AcDbSymbolTable
 70
     1
  0
VPORT
  5
2377
330
8
100
AcDbSymbolTableRecord
100
AcDbViewportTableRecord
  2
*Active
 70
     0
 10
0.0
 20
0.0
 11
1.0
 21
1.0
 12
5083.063578427426
 22
1945.729565225052
 13
0.0
 23
0.0
 14
10.0
 24
10.0
 15
10.0
 25
10.0
 16
0.0
 26
0.0
 36
1.0
 17
0.0
 27
0.0
 37
0.0
 40
1.872429524588017
 41
1.645464025026068
 42
50.0
 43
0.0
 44
0.0
 50
0.0
 51
0.0
 71
     0
 72
   100
 73
     1
 74
     2
 75
     0
 76
     0
 77
     0
 78
     0
281
     0
 65
     1
110
0.0
120
0.0
130
0.0
111
1.0
121
0.0
131
0.0
112
0.0
122
1.0
132
0.0
 79
     0
146
0.0
  0
ENDTAB
  0
TABLE
  2
LTYPE
  5
5
330
0
100
AcDbSymbolTable
 70
     6
  0
LTYPE
  5
14
330
5
100
AcDbSymbolTableRecord
100
AcDbLinetypeTableRecord
  2
ByBlock
 70
     0
  3

 72
    65
 73
     0
 40
0.0
  0
LTYPE
  5
15
330
5
100
AcDbSymbolTableRecord
100
AcDbLinetypeTableRecord
  2
ByLayer
 70
     0
  3

 72
    65
 73
     0
 40
0.0
  0
LTYPE
  5
16
330
5
100
AcDbSymbolTableRecord
100
AcDbLinetypeTableRecord
  2
Continuous
 70
     0
  3
Solid line
 72
    65
 73
     0
 40
0.0
  0
LTYPE
  5
2D
330
5
100
AcDbSymbolTableRecord
100
AcDbLinetypeTableRecord
  2
DASHDOT
 70
     0
  3
Dash dot __ . __ . __ . __ . __ . __ . __ . __
 72
    65
 73
     4
 40
25.4
 49
12.7
 74
     0
 49
-6.349999999999999
 74
     0
 49
0.0
 74
     0
 49
-6.349999999999999
 74
     0
  0
LTYPE
  5
2E
330
5
100
AcDbSymbolTableRecord
100
AcDbLinetypeTableRecord
  2
HIDDEN
 70
     0
  3
Hidden __ __ __ __ __ __ __ __ __ __ __ __ __ _
 72
    65
 73
     2
 40
9.524999999999998
 49
6.349999999999999
 74
     0
 49
-3.174999999999999
 74
     0
  0
LTYPE
  5
C75
330
5
100
AcDbSymbolTableRecord
100
AcDbLinetypeTableRecord
  2
AM_ISO02W050
 70
     0
  3
__ __ __ __ __ __ __ __ __ __ __ __ __ __ __
 72
    65
 73
     2
 40
7.5
 49
6.0
 74
     0
 49
-1.5
 74
     0
  0
LTYPE
  5
C76
330
5
100
AcDbSymbolTableRecord
100
AcDbLinetypeTableRecord
  2
AM_ISO08W050
 70
     0
  3
____ . ____ . ____ . ____ . ____ . ____ . ____
 72
    65
 73
     4
 40
18.0
 49
12.0
 74
     0
 49
-1.5
 74
     0
 49
3.0
 74
     0
 49
-1.5
 74
     0
  0
ENDTAB
  0
TABLE
  2
LAYER
  5
2
102
{ACAD_XDICTIONARY
360
1051
102
}
330
0
100
AcDbSymbolTable
 70
    17
  0
LAYER
  5
10
102
{ACAD_XDICTIONARY
360
2410
102
}
330
2
100
AcDbSymbolTableRecord
100
AcDbLayerTableRecord
  2
0
 70
     0
 62
     7
  6
Continuous
370
    -3
390
F
  0
LAYER
  5
2F
102
{ACAD_XDICTIONARY
360
2412
102
}
330
2
100
AcDbSymbolTableRecord
100
AcDbLayerTableRecord
  2
1
 70
     0
 62
     1
  6
Continuous
370
    -3
390
F
  0
LAYER
  5
30
102
{ACAD_XDICTIONARY
360
2414
102
}
330
2
100
AcDbSymbolTableRecord
100
AcDbLayerTableRecord
  2
2
 70
     0
 62
     2
  6
Continuous
370
    -3
390
F
  0
LAYER
  5
31
102
{ACAD_XDICTIONARY
360
2416
102
}
330
2
100
AcDbSymbolTableRecord
100
AcDbLayerTableRecord
  2
3
 70
     0
 62
     3
  6
Continuous
370
    -3
390
F
  0
LAYER
  5
32
102
{ACAD_XDICTIONARY
360
2418
102
}
330
2
100
AcDbSymbolTableRecord
100
AcDbLayerTableRecord
  2
4
 70
     0
 62
     4
  6
Continuous
370
    -3
390
F
  0
LAYER
  5
33
102
{ACAD_XDICTIONARY
360
241A
102
}
330
2
100
AcDbSymbolTableRecord
100
AcDbLayerTableRecord
  2
5
 70
     0
 62
     5
  6
Continuous
370
    -3
390
F
  0
LAYER
  5
34
102
{ACAD_XDICTIONARY
360
241C
102
}
330
2
100
AcDbSymbolTableRecord
100
AcDbLayerTableRecord
  2
6
 70
     0
 62
     6
  6
Continuous
370
    -3
390
F
  0
LAYER
  5
35
102
{ACAD_XDICTIONARY
360
241E
102
}
330
2
100
AcDbSymbolTableRecord
100
AcDbLayerTableRecord
  2
7
 70
     0
 62
     7
  6
Continuous
370
    -3
390
F
  0
LAYER
  5
36
102
{ACAD_XDICTIONARY
360
2420
102
}
330
2
100
AcDbSymbolTableRecord
100
AcDbLayerTableRecord
  2
cen
 70
     0
 62
     7
  6
DASHDOT
370
    -3
390
F
  0
LAYER
  5
37
102
{ACAD_XDICTIONARY
360
2422
102
}
330
2
100
AcDbSymbolTableRecord
100
AcDbLayerTableRecord
  2
hid
 70
     0
 62
     7
  6
HIDDEN
370
    -3
390
F
  0
LAYER
  5
5D6
102
{ACAD_XDICTIONARY
360
2424
102
}
330
2
100
AcDbSymbolTableRecord
100
AcDbLayerTableRecord
  2
hatch
 70
     0
 62
     9
  6
Continuous
370
    -3
390
F
  0
LAYER
  5
8AF
102
{ACAD_XDICTIONARY
360
2426
102
}
330
2
100
AcDbSymbolTableRecord
100
AcDbLayerTableRecord
  2
9
 70
     0
 62
     9
  6
Continuous
370
    -3
390
F
  0
LAYER
  5
8F8
102
{ACAD_XDICTIONARY
360
2428
102
}
330
2
100
AcDbSymbolTableRecord
100
AcDbLayerTableRecord
  2
leg fin
 70
     0
 62
     9
  6
Continuous
370
    -3
390
F
  0
LAYER
  5
91D
102
{ACAD_XDICTIONARY
360
242A
102
}
330
2
100
AcDbSymbolTableRecord
100
AcDbLayerTableRecord
  2
cotas
 70
     0
 62
     1
  6
Continuous
370
    -3
390
F
  0
LAYER
  5
92F
330
2
100
AcDbSymbolTableRecord
100
AcDbLayerTableRecord
  2
Defpoints
 70
     0
 62
     7
  6
Continuous
290
     0
370
    -3
390
F
  0
LAYER
  5
C7B
102
{ACAD_XDICTIONARY
360
242C
102
}
330
2
100
AcDbSymbolTableRecord
100
AcDbLayerTableRecord
  2
SANINDUSA
 70
     0
 62
     3
  6
Continuous
370
    -3
390
F
  0
LAYER
  5
10E9
102
{ACAD_XDICTIONARY
360
242E
102
}
330
2
100
AcDbSymbolTableRecord
100
AcDbLayerTableRecord
  2
quote
 70
     0
 62
   250
  6
Continuous
370
     5
390
F
  0
ENDTAB
  0
TABLE
  2
STYLE
  5
3
330
0
100
AcDbSymbolTable
 70
     4
  0
STYLE
  5
11
330
3
100
AcDbSymbolTableRecord
100
AcDbTextStyleTableRecord
  2
Standard
 70
     0
 40
0.0
 41
1.0
 50
0.0
 71
     0
 42
2.5
  3
Avgardn.ttf
  4

1001
ACAD
1000
AvantGarde Bk BT
1071
       34
  0
STYLE
  5
2C
330
3
100
AcDbSymbolTableRecord
100
AcDbTextStyleTableRecord
  2

 70
     1
 40
0.0
 41
1.0
 50
0.0
 71
     0
 42
2.5
  3
ltypeshp.shx
  4

  0
STYLE
  5
91F
330
3
100
AcDbSymbolTableRecord
100
AcDbTextStyleTableRecord
  2
SANINDUSA
 70
     0
 40
0.0
 41
1.0
 50
0.0
 71
     0
 42
2.5
  3
verdana.TTF
  4

1001
ACAD
1000
Verdana
1071
       34
  0
STYLE
  5
C7C
330
3
100
AcDbSymbolTableRecord
100
AcDbTextStyleTableRecord
  2
futura
 70
     0
 40
0.0
 41
1.0
 50
0.0
 71
     0
 42
2.5
  3
ZURCHN.TTF
  4

1001
ACAD
1000
Zurich BT
1071
       34
  0
ENDTAB
  0
TABLE
  2
VIEW
  5
6
330
0
100
AcDbSymbolTable
 70
     0
  0
ENDTAB
  0
TABLE
  2
UCS
  5
7
330
0
100
AcDbSymbolTable
 70
     0
  0
ENDTAB
  0
TABLE
  2
APPID
  5
9
330
0
100
AcDbSymbolTable
 70
    15
  0
APPID
  5
12
330
9
100
AcDbSymbolTableRecord
100
AcDbRegAppTableRecord
  2
ACAD
 70
     0
  0
APPID
  5
3A
330
9
100
AcDbSymbolTableRecord
100
AcDbRegAppTableRecord
  2
DCO15
 70
     0
  0
APPID
  5
EEE
330
9
100
AcDbSymbolTableRecord
100
AcDbRegAppTableRecord
  2
ACAD_DSTYLE_DIMTEXT_FILL
 70
     0
  0
APPID
  5
EEF
330
9
100
AcDbSymbolTableRecord
100
AcDbRegAppTableRecord
  2
ACAD_DSTYLE_DIMEXT_LENGTH
 70
     0
  0
APPID
  5
EF0
330
9
100
AcDbSymbolTableRecord
100
AcDbRegAppTableRecord
  2
ACAD_DSTYLE_DIMEXT_ENABLED
 70
     0
  0
APPID
  5
EF1
330
9
100
AcDbSymbolTableRecord
100
AcDbRegAppTableRecord
  2
ACAD_DSTYLE_DIM_LINETYPE
 70
     0
  0
APPID
  5
EF2
330
9
100
AcDbSymbolTableRecord
100
AcDbRegAppTableRecord
  2
ACAD_DSTYLE_DIM_EXT1_LINETYPE
 70
     0
  0
APPID
  5
EF3
330
9
100
AcDbSymbolTableRecord
100
AcDbRegAppTableRecord
  2
ACAD_DSTYLE_DIM_EXT2_LINETYPE
 70
     0
  0
APPID
  5
FAF
330
9
100
AcDbSymbolTableRecord
100
AcDbRegAppTableRecord
  2
ACAD_DSTYLE_DIMJOGGED_JOGANGLE_SYMBOL
 70
     0
  0
APPID
  5
1013
330
9
100
AcDbSymbolTableRecord
100
AcDbRegAppTableRecord
  2
ACAD_DSTYLE_DIMARC_LENGTH_SYMBOL
 70
     0
  0
APPID
  5
10EA
330
9
100
AcDbSymbolTableRecord
100
AcDbRegAppTableRecord
  2
GENIUS_GENREC_14
 70
     0
  0
APPID
  5
10EB
330
9
100
AcDbSymbolTableRecord
100
AcDbRegAppTableRecord
  2
GENIUS_GENODEF_13
 70
     0
  0
APPID
  5
10EC
330
9
100
AcDbSymbolTableRecord
100
AcDbRegAppTableRecord
  2
GENIUS_GENOBJ-N-REC_13
 70
     0
  0
APPID
  5
2040
330
9
100
AcDbSymbolTableRecord
100
AcDbRegAppTableRecord
  2
ACAD_EXEMPT_FROM_CAD_STANDARDS
 70
     0
  0
APPID
  5
24E6
330
9
100
AcDbSymbolTableRecord
100
AcDbRegAppTableRecord
  2
ACAD_MLEADERVER
 70
     0
  0
ENDTAB
  0
TABLE
  2
DIMSTYLE
  5
A
330
0
100
AcDbSymbolTable
 70
     4
100
AcDbDimStyleTable
 71
     1
340
921
  0
DIMSTYLE
105
45
330
A
100
AcDbSymbolTableRecord
100
AcDbDimStyleTableRecord
  2
STANDARD
 70
     0
289
     0
340
11
  0
DIMSTYLE
105
921
330
A
100
AcDbSymbolTableRecord
100
AcDbDimStyleTableRecord
  2
SANINDUSA
 70
     0
 40
10.0
 41
2.0
 42
1.0
 43
1.0
 44
1.0
 73
     0
 74
     0
 77
     1
 78
     8
140
2.0
141
0.0
143
0.03937007874016
147
1.0
171
     3
172
     1
176
   256
177
   256
178
   256
179
     1
271
     1
272
     1
274
     3
278
    44
283
     0
284
     8
340
91F
371
    -1
372
    -1
1001
ACAD_DSTYLE_DIMJOGGED_JOGANGLE_SYMBOL
1070
   384
1040
1.570796326794896
  0
DIMSTYLE
105
C7D
330
A
100
AcDbSymbolTableRecord
100
AcDbDimStyleTableRecord
  2
AM_ISO
 70
     0
  4
"
 41
2.5
 42
1.0
 43
10.0
 44
1.0
 47
0.1
 48
0.1
 73
     0
 74
     0
 77
     1
 78
     8
 79
     2
140
3.5
141
0.0
143
0.0393701
146
0.71
147
1.5
172
     1
176
   256
177
   256
178
     2
271
     2
272
     3
274
     4
283
     0
284
     8
340
11
371
    -1
372
    -1
  0
ENDTAB
  0
TABLE
  2
BLOCK_RECORD
  5
1
330
0
100
AcDbSymbolTable
 70
    24
  0
BLOCK_RECORD
  5
1F
102
{ACAD_XDICTIONARY
360
2207
102
}
330
1
100
AcDbSymbolTableRecord
100
AcDbBlockTableRecord
  2
*Model_Space
340
22
  0
BLOCK_RECORD
  5
1B
330
1
100
AcDbSymbolTableRecord
100
AcDbBlockTableRecord
  2
*Paper_Space
340
1E
  0
BLOCK_RECORD
  5
23
330
1
100
AcDbSymbolTableRecord
100
AcDbBlockTableRecord
  2
*Paper_Space0
340
26
  0
BLOCK_RECORD
  5
919
330
1
100
AcDbSymbolTableRecord
100
AcDbBlockTableRecord
  2
_DotSmall
340
0
  0
BLOCK_RECORD
  5
922
330
1
100
AcDbSymbolTableRecord
100
AcDbBlockTableRecord
  2
base para cotas
340
0
310
2800000020000000200000000100080000000000000400000000000000000000000000000000000000000000000080000080000000808000800000008000800080800000C0C0C000C0DCC000F0CAA6000020400000206000002080000020A0000020C0000020E00000400000004020000040400000406000004080000040A0
310
000040C0000040E00000600000006020000060400000606000006080000060A0000060C0000060E00000800000008020000080400000806000008080000080A0000080C0000080E00000A0000000A0200000A0400000A0600000A0800000A0A00000A0C00000A0E00000C0000000C0200000C0400000C0600000C0800000C0
310
A00000C0C00000C0E00000E0000000E0200000E0400000E0600000E0800000E0A00000E0C00000E0E00040000000400020004000400040006000400080004000A0004000C0004000E00040200000402020004020400040206000402080004020A0004020C0004020E000404000004040200040404000404060004040800040
310
40A0004040C0004040E00040600000406020004060400040606000406080004060A0004060C0004060E00040800000408020004080400040806000408080004080A0004080C0004080E00040A0000040A0200040A0400040A0600040A0800040A0A00040A0C00040A0E00040C0000040C0200040C0400040C0600040C08000
310
40C0A00040C0C00040C0E00040E0000040E0200040E0400040E0600040E0800040E0A00040E0C00040E0E00080000000800020008000400080006000800080008000A0008000C0008000E00080200000802020008020400080206000802080008020A0008020C0008020E00080400000804020008040400080406000804080
310
008040A0008040C0008040E00080600000806020008060400080606000806080008060A0008060C0008060E00080800000808020008080400080806000808080008080A0008080C0008080E00080A0000080A0200080A0400080A0600080A0800080A0A00080A0C00080A0E00080C0000080C0200080C0400080C0600080C0
310
800080C0A00080C0C00080C0E00080E0000080E0200080E0400080E0600080E0800080E0A00080E0C00080E0E000C0000000C0002000C0004000C0006000C0008000C000A000C000C000C000E000C0200000C0202000C0204000C0206000C0208000C020A000C020C000C020E000C0400000C0402000C0404000C0406000C0
310
408000C040A000C040C000C040E000C0600000C0602000C0604000C0606000C0608000C060A000C060C000C060E000C0800000C0802000C0804000C0806000C0808000C080A000C080C000C080E000C0A00000C0A02000C0A04000C0A06000C0A08000C0A0A000C0A0C000C0A0E000C0C00000C0C02000C0C04000C0C06000
310
C0C08000C0C0A000F0FBFF00A4A0A000808080000000FF0000FF000000FFFF00FF000000FF00FF00FFFF0000FFFFFF00A4A4A4A4A4A4A4A4A4A4A4A4A4A4A4A4A4A4A4A4A4A4A4A4A4A4A4A4A4A4A4A4A4A4A4A4A4A4A4A4A4A4A4A4A4A4A4A4A4A4A4A4A4A4A4A4A4A4A4A4A4A4A4A4A4A4A4A4A4A4A4A4A4A4A4A4A4A4A4
310
A4A4A4A4A4A4A4A4A4A4A4A4A4A4A4A4A4A4A4A4A4A4A4A4A4A4A4A4A4A4A4A4A4A4A4A4A4A4A4A4A4A4A4A4A4A4A4A4A4A4A4A4A4A4A4A4A4A4A4A4A4A4A4A4A4A4A4A4A4A4A4A4A4A4A4A4A4A4A4A4A4A4A4A4A4A4A4A4A4A4A4A4A4A4A4A4A4A4A4A4A4A4A4A4A4A4A4A4A4A4A4A4A4A4A4A4A4A4A4A4A4A4A4A4A4A4A4
310
A4A4A4A4A4A4A4A4A4A4A4A4A4A4A4A4A4A4A4A4A4A4A4A4A4A4A4A4A4A4A4A4A4A4A4A4A4A4A4A4A4A4A4A4A4A4A4A4A4A4A4A4A4A4A4A4A4A4A4A4A4A4A4A4A4A4A4A4A4A4A4A4A4A4A4A4A4A4A4A4A4A4A4A4A4A4A4A4A4A4A4A4A4A4A4A4A4A4A4A4A4A4A4A4A4A4A4A4A4A4A4A4A4A4A4A4A4A4A4A4A4A4A4A4A4A4A4
310
A4A4A4A4A4A4A4A4A4A4A4A4A4A4A4A4A4A4A4A4A4A4A4A4A4A4A4A4A4A4A4A4A4A4A4A4A4A4A4A4A4A4A4A4A4A4A4A4A4A4A4A4A4A4A4A4A4A4A4A4A4A4A4A4A4A4A4A4A4A4A4A4A4A4A4A4A4A4A4A4A4A4A4A4A4A4A4A4A4A4A4A4A4A4A4A4A4A4A4A4A4A4A4A4A4A4A4A4A4A4A4A4A4A4A4A4F9F9F9F9F9F9F9F9F9F9F9
310
F9F9F9F9F9F9F9F9F9F9F9F9F9F9F9F9F9F9F9A4A4F9F9F9F9F9F9F9F9F9F9F9F9F9F9F9F9F9F9F9F9F9F9F9F9F9F9F9F9F9F9A4A4F9F9F9F9F9F9F9F9F9F9F9F9F9F9F9F9F9F9F9F9F9F9F9F9F9F9F9F9F9F9A4A4F9A4A4A4A4A4A4A4A4A4A4A4A4A4A4A4A4A4A4A4A4A4A4A4A4A4A4A4A4F9A4A4A4A4A4A4A4A4A4A4A4A4
310
A4A4A4A4A4A4A4A4A4A4A4A4A4A4A4A4A4A4A4A4A4A4A4A4A4A4A4A4A4A4A4A4A4A4A4A4A4A4A4A4A4A4A4A4A4A4A4A4A4A4A4A4A4A4A4A4A4A4A4A4A4A4A4A4A4A4A4A4A4A4A4A4A4A4A4A4A4A4A4A4A4A4A4A4A4A4A4A4A4A4A4A4A4A4A4A4A4A4A4A4A4A4A4A4A4A4A4A4A4A4A4A4A4A4A4A4A4A4A4A4A4A4A4A4A4A4A4
310
A4A4A4A4A4A4A4A4A4A4A4A4A4A4A4A4A4A4A4A4A4A4A4A4A4A4A4A4A4A4A4A4A4A4A4A4A4A4A4A4A4A4A4A4A4A4A4A4A4A4A4A4A4A4A4A4A4A4A4A4A4A4A4A4A4A4A4A4A4A4A4A4A4A4A4A4A4A4A4A4A4A4A4A4A4A4A4A4A4A4A4A4A4A4A4A4A4A4A4A4A4A4A4A4A4A4A4A4A4A4A4A4A4A4A4A4A4A4A4A4A4A4A4A4A4A4A4
310
A4A4A4A4A4A4A4A4A4A4A4A4A4A4A4A4A4A4A4A4A4A4A4A4A4A4A4A4A4A4A4A4A4A4A4A4A4A4A4A4A4A4A4A4A4A4A4A4A4A4A4A4A4A4A4A4A4A4A4A4A4A4A4A4A4A4A4A4A4A4A4A4A4A4A4A4A4A4A4A4A4A4A4A4A4A4A4A4A4A4A4A4A4A4A4A4A4A4A4A4A4A4A4A4A4A4A4A4A4A4A4A4A4A4A4A4A4A4A4A4A4A4A4A4A4A4A4
310
A4A4A4A4A4A4A4A4A4A4A4A4A4A4A4A4A4A4A4A4A4A4A4A4A4A4A4A4A4A4A4A4A4A4A4A4A4A4A4A4A4A4A4A4A4A4A4A4A4A4A4A4A4A4A4A4
1001
ACAD
1000
DesignCenter Data
1002
{
1070
     1
1070
     4
1002
}
  0
BLOCK_RECORD
  5
AA8
330
1
100
AcDbSymbolTableRecord
100
AcDbBlockTableRecord
  2
_CLOSED
340
0
  0
BLOCK_RECORD
  5
B79
330
1
100
AcDbSymbolTableRecord
100
AcDbBlockTableRecord
  2
nota revisoes
340
0
1001
ACAD
1000
DesignCenter Data
1002
{
1070
     1
1070
     4
1002
}
  0
BLOCK_RECORD
  5
B8E
330
1
100
AcDbSymbolTableRecord
100
AcDbBlockTableRecord
  2
a3l
340
0
1001
ACAD
1000
DesignCenter Data
1002
{
1070
     1
1070
     4
1002
}
  0
BLOCK_RECORD
  5
B9E
330
1
100
AcDbSymbolTableRecord
100
AcDbBlockTableRecord
  2
legenda desenvolvimento
340
0
1001
ACAD
1000
DesignCenter Data
1002
{
1070
     1
1070
     4
1002
}
  0
BLOCK_RECORD
  5
1060
330
1
100
AcDbSymbolTableRecord
100
AcDbBlockTableRecord
  2
guarnizione
340
0
  0
BLOCK_RECORD
  5
1D9C
330
1
100
AcDbSymbolTableRecord
100
AcDbBlockTableRecord
  2
*D8
340
0
  0
BLOCK_RECORD
  5
1DA8
330
1
100
AcDbSymbolTableRecord
100
AcDbBlockTableRecord
  2
*D9
340
0
  0
BLOCK_RECORD
  5
1DB4
330
1
100
AcDbSymbolTableRecord
100
AcDbBlockTableRecord
  2
*D10
340
0
  0
BLOCK_RECORD
  5
1DC0
330
1
100
AcDbSymbolTableRecord
100
AcDbBlockTableRecord
  2
*D11
340
0
  0
BLOCK_RECORD
  5
1DCC
330
1
100
AcDbSymbolTableRecord
100
AcDbBlockTableRecord
  2
*D12
340
0
  0
BLOCK_RECORD
  5
205A
330
1
100
AcDbSymbolTableRecord
100
AcDbBlockTableRecord
  2
*D13
340
0
  0
BLOCK_RECORD
  5
2172
330
1
100
AcDbSymbolTableRecord
100
AcDbBlockTableRecord
  2
*D14
340
0
  0
BLOCK_RECORD
  5
217E
330
1
100
AcDbSymbolTableRecord
100
AcDbBlockTableRecord
  2
*D15
340
0
  0
BLOCK_RECORD
  5
218C
330
1
100
AcDbSymbolTableRecord
100
AcDbBlockTableRecord
  2
*D16
340
0
  0
BLOCK_RECORD
  5
2198
330
1
100
AcDbSymbolTableRecord
100
AcDbBlockTableRecord
  2
*D17
340
0
  0
BLOCK_RECORD
  5
21A4
330
1
100
AcDbSymbolTableRecord
100
AcDbBlockTableRecord
  2
*D18
340
0
  0
BLOCK_RECORD
  5
2323
330
1
100
AcDbSymbolTableRecord
100
AcDbBlockTableRecord
  2
*D19
340
0
  0
BLOCK_RECORD
  5
2344
330
1
100
AcDbSymbolTableRecord
100
AcDbBlockTableRecord
  2
*D20
340
0
  0
BLOCK_RECORD
  5
23D7
330
1
100
AcDbSymbolTableRecord
100
AcDbBlockTableRecord
  2
*D22
340
0
  0
BLOCK_RECORD
  5
23F5
330
1
100
AcDbSymbolTableRecord
100
AcDbBlockTableRecord
  2
*D23
340
0
  0
ENDTAB
  0
ENDSEC
  0
SECTION
  2
BLOCKS
  0
BLOCK
  5
20
330
1F
100
AcDbEntity
  8
0
100
AcDbBlockBegin
  2
*Model_Space
 70
     0
 10
0.0
 20
0.0
 30
0.0
  3
*Model_Space
  1

  0
ENDBLK
  5
21
330
1F
100
AcDbEntity
  8
0
100
AcDbBlockEnd
  0
BLOCK
  5
1C
330
1B
100
AcDbEntity
 67
     1
  8
0
100
AcDbBlockBegin
  2
*Paper_Space
 70
     0
 10
0.0
 20
0.0
 30
0.0
  3
*Paper_Space
  1

  0
ENDBLK
  5
1D
330
1B
100
AcDbEntity
 67
     1
  8
0
100
AcDbBlockEnd
  0
BLOCK
  5
24
330
23
100
AcDbEntity
 67
     1
  8
0
100
AcDbBlockBegin
  2
*Paper_Space0
 70
     0
 10
0.0
 20
0.0
 30
0.0
  3
*Paper_Space0
  1

  0
ENDBLK
  5
25
330
23
100
AcDbEntity
 67
     1
  8
0
100
AcDbBlockEnd
  0
BLOCK
  5
91B
330
919
100
AcDbEntity
  8
0
100
AcDbBlockBegin
  2
_DotSmall
 70
     0
 10
0.0
 20
0.0
 30
0.0
  3
_DotSmall
  1

  0
LWPOLYLINE
  5
91A
330
919
100
AcDbEntity
  8
0
  6
ByBlock
 62
     0
100
AcDbPolyline
 90
        2
 70
     1
 43
0.5
 10
-0.0625
 20
0.0
 42
1.0
 10
0.0625
 20
0.0
 42
1.0
  0
ENDBLK
  5
91C
330
919
100
AcDbEntity
  8
0
100
AcDbBlockEnd
  0
BLOCK
  5
92A
330
922
100
AcDbEntity
  8
0
100
AcDbBlockBegin
  2
base para cotas
 70
     0
 10
0.0
 20
0.0
 30
0.0
  3
base para cotas
  1

  0
LINE
  5
B36
330
922
100
AcDbEntity
  8
cotas
100
AcDbLine
 10
0.0
 20
-30.0
 30
0.0
 11
327.1260136525398
 21
-30.0
 31
0.0
  0
LINE
  5
B37
330
922
100
AcDbEntity
  8
cotas
100
AcDbLine
 10
0.0
 20
-25.0
 30
0.0
 11
327.1260136525398
 21
-25.0
 31
0.0
  0
LINE
  5
B38
330
922
100
AcDbEntity
  8
cotas
100
AcDbLine
 10
0.0
 20
-20.0
 30
0.0
 11
327.1260136525398
 21
-20.0
 31
0.0
  0
LINE
  5
B39
330
922
100
AcDbEntity
  8
cotas
100
AcDbLine
 10
0.0
 20
-15.0
 30
0.0
 11
327.1260136525398
 21
-15.0
 31
0.0
  0
LINE
  5
B3A
330
922
100
AcDbEntity
  8
cotas
100
AcDbLine
 10
0.0
 20
-10.0
 30
0.0
 11
327.1260136525398
 21
-10.0
 31
0.0
  0
LINE
  5
B3B
330
922
100
AcDbEntity
  8
cotas
100
AcDbLine
 10
0.0
 20
0.0
 30
0.0
 11
0.0
 21
-30.0
 31
0.0
  0
LINE
  5
B3C
330
922
100
AcDbEntity
  8
cotas
100
AcDbLine
 10
327.1260136525398
 20
-30.0
 30
0.0
 11
327.1260136525398
 21
0.0
 31
0.0
  0
ENDBLK
  5
92B
330
922
100
AcDbEntity
  8
0
100
AcDbBlockEnd
  0
BLOCK
  5
AAD
330
AA8
100
AcDbEntity
  8
0
100
AcDbBlockBegin
  2
_CLOSED
 70
     0
 10
0.0
 20
0.0
 30
0.0
  3
_CLOSED
  1

  0
LINE
  5
AA9
330
AA8
100
AcDbEntity
  8
0
100
AcDbLine
 10
-1.0
 20
0.166667
 30
0.0
 11
0.0
 21
0.0
 31
0.0
  0
LINE
  5
AAA
330
AA8
100
AcDbEntity
  8
0
100
AcDbLine
 10
0.0
 20
0.0
 30
0.0
 11
-1.0
 21
-0.166667
 31
0.0
  0
LINE
  5
AAB
330
AA8
100
AcDbEntity
  8
0
100
AcDbLine
 10
-1.0
 20
0.166667
 30
0.0
 11
-1.0
 21
-0.166667
 31
0.0
  0
LINE
  5
AAC
330
AA8
100
AcDbEntity
  8
0
100
AcDbLine
 10
0.0
 20
0.0
 30
0.0
 11
-1.0
 21
0.0
 31
0.0
  0
ENDBLK
  5
AAE
330
AA8
100
AcDbEntity
  8
0
100
AcDbBlockEnd
  0
BLOCK
  5
B7C
330
B79
100
AcDbEntity
  8
0
100
AcDbBlockBegin
  2
nota revisoes
 70
     0
 10
0.0
 20
0.0
 30
0.0
  3
nota revisoes
  1

  0
CIRCLE
  5
B7A
330
B79
100
AcDbEntity
  8
4
100
AcDbCircle
 10
0.0
 20
0.0
 30
0.0
 40
13.69426055101189
  0
TEXT
  5
B7B
330
B79
100
AcDbEntity
  8
4
100
AcDbText
 10
-5.496248358154345
 20
-5.354545554066362
 30
0.0
 40
12.0
  1
1
  7
SANINDUSA
 72
     1
 11
-0.249774214433728
 21
-5.354545554066362
 31
0.0
100
AcDbText
  0
ENDBLK
  5
B7D
330
B79
100
AcDbEntity
  8
0
100
AcDbBlockEnd
  0
BLOCK
  5
B9C
330
B8E
100
AcDbEntity
  8
0
100
AcDbBlockBegin
  2
a3l
 70
     0
 10
0.0
 20
0.0
 30
0.0
  3
a3l
  1

  0
LINE
  5
B8F
330
B8E
100
AcDbEntity
  8
1
100
AcDbLine
 10
-364.2925296599447
 20
-362.1188951399395
 30
0.0
 11
-364.2925296599447
 21
-65.11889513993946
 31
0.0
  0
LINE
  5
B90
330
B8E
100
AcDbEntity
  8
4
100
AcDbLine
 10
-369.2925296599447
 20
-357.1188951399395
 30
0.0
 11
-369.2925296599447
 21
-70.11889513993946
 31
0.0
  0
LINE
  5
B91
330
B8E
100
AcDbEntity
  8
1
100
AcDbLine
 10
-784.2925296599446
 20
-65.11889513993946
 30
0.0
 11
-784.2925296599446
 21
-362.1188951399395
 31
0.0
  0
LINE
  5
B92
330
B8E
100
AcDbEntity
  8
4
100
AcDbLine
 10
-759.2925296599446
 20
-357.1188951399395
 30
0.0
 11
-759.2925296599446
 21
-70.11889513993946
 31
0.0
  0
LINE
  5
B93
330
B8E
100
AcDbEntity
  8
1
100
AcDbLine
 10
-784.2925296599446
 20
-362.1188951399395
 30
0.0
 11
-364.2925296599447
 21
-362.1188951399395
 31
0.0
  0
LINE
  5
B94
330
B8E
100
AcDbEntity
  8
4
100
AcDbLine
 10
-759.2925296599446
 20
-357.1188951399395
 30
0.0
 11
-369.2925296599447
 21
-357.1188951399395
 31
0.0
  0
LINE
  5
B95
330
B8E
100
AcDbEntity
  8
1
100
AcDbLine
 10
-654.2925296599446
 20
-357.1188951399395
 30
0.0
 11
-654.2925296599446
 21
-362.1188951399395
 31
0.0
  0
LINE
  5
B96
330
B8E
100
AcDbEntity
  8
1
100
AcDbLine
 10
-364.2925296599447
 20
-65.11889513993946
 30
0.0
 11
-784.2925296599446
 21
-65.11889513993946
 31
0.0
  0
LINE
  5
B97
330
B8E
100
AcDbEntity
  8
4
100
AcDbLine
 10
-369.2925296599447
 20
-70.11889513993946
 30
0.0
 11
-759.2925296599446
 21
-70.11889513993946
 31
0.0
  0
LINE
  5
B98
330
B8E
100
AcDbEntity
  8
1
100
AcDbLine
 10
-654.2925296599446
 20
-65.11889513993946
 30
0.0
 11
-654.2925296599446
 21
-70.11889513993946
 31
0.0
  0
LINE
  5
B99
330
B8E
100
AcDbEntity
  8
1
100
AcDbLine
 10
-549.2925296599446
 20
-70.11889513993946
 30
0.0
 11
-549.2925296599446
 21
-65.11889513993946
 31
0.0
  0
LINE
  5
B9A
330
B8E
100
AcDbEntity
  8
1
100
AcDbLine
 10
-369.2925296599447
 20
-65.11889513993946
 30
0.0
 11
-364.2925296599447
 21
-65.11889513993946
 31
0.0
  0
LINE
  5
B9B
330
B8E
100
AcDbEntity
  8
1
100
AcDbLine
 10
-549.2925296599446
 20
-357.1188951399395
 30
0.0
 11
-549.2925296599446
 21
-362.1188951399395
 31
0.0
  0
ENDBLK
  5
B9D
330
B8E
100
AcDbEntity
  8
0
100
AcDbBlockEnd
  0
BLOCK
  5
C13
330
B9E
100
AcDbEntity
  8
0
100
AcDbBlockBegin
  2
legenda desenvolvimento
 70
     2
 10
0.0
 20
0.0
 30
0.0
  3
legenda desenvolvimento
  1

  0
ATTDEF
  5
B9F
330
B9E
100
AcDbEntity
  8
1
100
AcDbText
 10
-108.606245802552
 20
55.5
 30
0.0
 40
4.0
  1
XXXXXXXXXXXXXX
 41
0.8
  7
SANINDUSA
 72
     4
 11
-87.5
 21
57.5
 31
0.0
100
AcDbAttributeDefinition
  3
Nome do Produto:
  2
PRODUTO
 70
     0
  0
ATTDEF
  5
BA0
330
B9E
100
AcDbEntity
  8
1
100
AcDbText
 10
-97.9997966101695
 20
41.25
 30
0.0
 40
3.0
  1
XXXXXXXXX
 41
0.8
  7
futura
 72
     4
 11
-87.5
 21
42.75
 31
0.0
100
AcDbAttributeDefinition
  3
Nome da Peça:
  2
PECA
 70
     0
  0
ATTDEF
  5
BA1
330
B9E
100
AcDbEntity
  8
1
100
AcDbText
 10
-133.4422431161853
 20
21.11745296763252
 30
0.0
 40
2.5
  1
X
 41
0.8
  7
SANINDUSA
 72
     4
 11
-132.5
 21
22.36745296763252
 31
0.0
100
AcDbAttributeDefinition
  3
Cod. TESTE:
  2
TESTE
 70
     0
  0
ATTDEF
  5
BA2
330
B9E
100
AcDbEntity
  8
1
100
AcDbText
 10
-124.3844862323707
 20
21.11745296763252
 30
0.0
 40
2.5
  1
XX
 41
0.8
  7
SANINDUSA
 72
     4
 11
-122.5
 21
22.36745296763252
 31
0.0
100
AcDbAttributeDefinition
  3
Cod. Ano:
  2
ANO
 70
     0
  0
ATTDEF
  5
BA3
330
B9E
100
AcDbEntity
  8
1
100
AcDbText
 10
-112.526889953052
 20
21.11745296763252
 30
0.0
 40
2.5
  1
XXX
 41
0.8
  7
SANINDUSA
 72
     4
 11
-109.700160604496
 21
22.36745296763252
 31
0.0
100
AcDbAttributeDefinition
  3
Cod. Sequência:
  2
SEQUENCIA
 70
     0
  0
ATTDEF
  5
BA4
330
B9E
100
AcDbEntity
  8
1
100
AcDbText
 10
-99.35382430979316
 20
21.11745296763252
 30
0.0
 40
2.5
  1
XX
 41
0.8
  7
SANINDUSA
 72
     4
 11
-97.46933807742244
 21
22.36745296763252
 31
0.0
100
AcDbAttributeDefinition
  3
Cod. Tipo:
  2
TIPO
 70
     0
  0
ATTDEF
  5
BA5
330
B9E
100
AcDbEntity
  8
1
100
AcDbText
 10
-87.42035911468438
 20
21.11745296763252
 30
0.0
 40
2.5
  1
XXX
 41
0.8
  7
SANINDUSA
 72
     4
 11
-84.59362976612828
 21
22.36745296763252
 31
0.0
100
AcDbAttributeDefinition
  3
Cod. Produto:
  2
PRODUTO
 70
     0
  0
ATTDEF
  5
BA6
330
B9E
100
AcDbEntity
  8
1
100
AcDbText
 10
-74.62051971917853
 20
21.11745296763252
 30
0.0
 40
2.5
  1
XXX
 41
0.8
  7
SANINDUSA
 72
     4
 11
-71.79379037062244
 21
22.36745296763252
 31
0.0
100
AcDbAttributeDefinition
  3
Cod. Peça:
  2
PECA
 70
     0
  0
ATTDEF
  5
BA7
330
B9E
100
AcDbEntity
  8
1
100
AcDbText
 10
-61.10603446650329
 20
21.11745296763252
 30
0.0
 40
2.5
  1
XX
 41
0.8
  7
SANINDUSA
 72
     4
 11
-59.22154823413257
 21
22.36745296763252
 31
0.0
100
AcDbAttributeDefinition
  3
Cod. Revisão:
  2
REV
 70
     0
  0
ATTDEF
  5
BA8
330
B9E
100
AcDbEntity
  8
1
100
AcDbText
 10
-48.43615325006194
 20
21.11745296763252
 30
0.0
 40
2.5
  1
XX
 41
0.8
  7
SANINDUSA
 72
     4
 11
-46.55166701769121
 21
22.36745296763252
 31
0.0
100
AcDbAttributeDefinition
  3
Cod. Alteração:
  2
ALT
 70
     0
  0
ATTDEF
  5
BA9
330
B9E
100
AcDbEntity
  8
1
100
AcDbText
 10
-35.19086635325722
 20
23.98875083948959
 30
0.0
 40
3.0
  1
1/XXX
 41
0.8
  7
SANINDUSA
 72
     4
 11
-30.0
 21
25.25
 31
0.0
100
AcDbAttributeDefinition
  3
Escala geral:
  2
ESCALA
 70
     0
  0
ATTDEF
  5
BAA
330
B9E
100
AcDbEntity
  8
1
100
AcDbText
 10
-15.65345869711215
 20
23.75
 30
0.0
 40
3.0
  1
XXXXX
 41
0.8
  7
SANINDUSA
 72
     4
 11
-10.0
 21
25.25
 31
0.0
100
AcDbAttributeDefinition
  3
Folha:
  2
FOLHA
 70
     0
  0
ATTDEF
  5
BAB
330
B9E
100
AcDbEntity
  8
1
100
AcDbText
 10
-178.5146998822042
 20
56.9531347542807
 30
0.0
 40
2.0
  1
xx
 41
0.8
  7
SANINDUSA
 72
     4
 11
-177.2123493113513
 21
57.70330265219877
 31
0.0
100
AcDbAttributeDefinition
  3
revisão
  2
REV.
 70
     0
  0
ATTDEF
  5
BAC
330
B9E
100
AcDbEntity
  8
1
100
AcDbText
 10
-172.7849640077129
 20
56.9531347542807
 30
0.0
 40
2.0
  1
xx
 41
0.8
  7
SANINDUSA
 72
     4
 11
-171.48261343686
 21
57.70330265219877
 31
0.0
100
AcDbAttributeDefinition
  3
alteração
  2
ALT.
 70
     0
  0
ATTDEF
  5
BAD
330
B9E
100
AcDbEntity
  8
1
100
AcDbText
 10
-168.007199951307
 20
56.70330265219877
 30
0.0
 40
2.0
  1
xx/xx/xxxx
 41
0.8
  7
SANINDUSA
 11
-168.007199951307
 21
57.70330265219877
 31
0.0
100
AcDbAttributeDefinition
  3
data
  2
DATA
 70
     0
 74
     2
  0
ATTDEF
  5
BAE
330
B9E
100
AcDbEntity
  8
1
100
AcDbText
 10
-168.5396372253371
 20
13.15916722632639
 30
0.0
 40
2.0
  1
XX/XX/XXXX
 41
0.8
  7
SANINDUSA
 72
     4
 11
-161.5099528734231
 21
14.0
 31
0.0
100
AcDbAttributeDefinition
  3
Data projecto
  2
DATA_PROJ
 70
     0
  0
ATTDEF
  5
BAF
330
B9E
100
AcDbEntity
  8
1
100
AcDbText
 10
-150.8658110728766
 20
13.24983210208193
 30
0.0
 40
2.0
  1
xxxxxxxx
 41
0.8
  7
SANINDUSA
 72
     4
 11
-145.6564087894649
 21
14.0
 31
0.0
100
AcDbAttributeDefinition
  3
nome de quem projectou
  2
NOME
 70
     0
  0
ATTDEF
  5
BB0
330
B9E
100
AcDbEntity
  8
1
100
AcDbText
 10
-168.5396372253371
 20
9.159167226326394
 30
0.0
 40
2.0
  1
XX/XX/XXXX
 41
0.8
  7
SANINDUSA
 72
     4
 11
-161.5099528734231
 21
10.0
 31
0.0
100
AcDbAttributeDefinition
  3
Data desenhou
  2
DATA_DES
 70
     0
  0
ATTDEF
  5
BB1
330
B9E
100
AcDbEntity
  8
1
100
AcDbText
 10
-151.516986358303
 20
9.249832102081933
 30
0.0
 40
2.0
  1
xxxxxxxxx
 41
0.8
  7
SANINDUSA
 72
     4
 11
-145.6564087894649
 21
10.0
 31
0.0
100
AcDbAttributeDefinition
  3
nome
  2
NOME
 70
     0
  0
ATTDEF
  5
BB2
330
B9E
100
AcDbEntity
  8
1
100
AcDbText
 10
-127.2924214135946
 20
14.1979876583216
 30
0.0
 40
2.0
  1
Vitreous China
 41
0.8
  7
SANINDUSA
 72
     4
 11
-119.231709526422
 21
15.22216495852308
 31
0.0
100
AcDbAttributeDefinition
  3
Nome do Material:
  2
MATERIAL
 70
     0
  0
ATTDEF
  5
BB3
330
B9E
100
AcDbEntity
  8
1
100
AcDbText
 10
-103.1563452122093
 20
14.38019043949261
 30
0.0
 40
2.0
  1
Branco
 41
0.8
  7
SANINDUSA
 72
     4
 11
-99.33418268702462
 21
15.35937109765245
 31
0.0
100
AcDbAttributeDefinition
  3
cor da peça
  2
COR
 70
     0
  0
ATTDEF
  5
BB4
330
B9E
100
AcDbEntity
  8
1
100
AcDbText
 10
-116.7235057085292
 20
5.975822699798522
 30
0.0
 40
2.0
  1
Vidrado
 41
0.8
  7
SANINDUSA
 72
     4
 11
-112.5
 21
7.0
 31
0.0
100
AcDbAttributeDefinition
  3
Tipo de acabamento:
  2
ACABAMENTO
 70
     0
  0
ATTDEF
  5
BB5
330
B9E
100
AcDbEntity
  8
1
100
AcDbText
 10
-79.18527869967246
 20
16.65066409850533
 30
0.0
 40
2.0
  1
XXXXXXX
 41
0.8
  7
SANINDUSA
 72
     4
 11
-73.90871724903445
 21
17.65066409850533
 31
0.0
100
AcDbAttributeDefinition
  3
Normas
  2
NORMAS
 70
     0
  0
ATTDEF
  5
BB6
330
B9E
100
AcDbEntity
  8
1
100
AcDbText
 10
-30.55312290127603
 20
14.0
 30
0.0
 40
2.0
  1
XXXXXXXXXXXXXX
 41
0.8
  7
SANINDUSA
 72
     4
 11
-20.0
 21
15.0
 31
0.0
100
AcDbAttributeDefinition
  3
Substitui o desenho:
  2
SUBSTITUI
 70
     0
  0
ATTDEF
  5
BB7
330
B9E
100
AcDbEntity
  8
1
100
AcDbText
 10
-31.30691739422431
 20
6.0
 30
0.0
 40
2.0
  1
XXXXXXXXXXXXXXX
 41
0.8
  7
SANINDUSA
 72
     4
 11
-20.0
 21
7.0
 31
0.0
100
AcDbAttributeDefinition
  3
Substituido por:
  2
SUBSTITUIDO
 70
     0
  0
ATTDEF
  5
BB8
330
B9E
100
AcDbEntity
  8
1
100
AcDbText
 10
-110.0220608548302
 20
1.478208457928303
 30
0.0
 40
2.0
  1
XXXXXXXXXXXXXXXXXXXXXXXXXXXXXXXXXX
 41
0.8
  7
SANINDUSA
 11
-110.0220608548302
 21
2.478208457928303
 31
0.0
100
AcDbAttributeDefinition
  3
Localização do desenho:
  2
LOC-DWG
 70
     0
 74
     2
  0
LINE
  5
BB9
330
B9E
100
AcDbEntity
  8
3
100
AcDbLine
 10
-135.0
 20
4.0
 30
0.0
 11
0.0000000000004547
 21
4.0
 31
0.0
  0
LINE
  5
BBA
330
B9E
100
AcDbEntity
  8
3
100
AcDbLine
 10
-90.00000000000046
 20
12.0
 30
0.0
 11
-135.0
 21
12.0
 31
0.0
  0
LINE
  5
BBB
330
B9E
100
AcDbEntity
  8
3
100
AcDbLine
 10
-135.0
 20
32.5
 30
0.0
 11
-40.0
 21
32.5
 31
0.0
  0
TEXT
  5
BBC
330
B9E
100
AcDbEntity
  8
1
100
AcDbText
 10
-134.0
 20
1.25
 30
0.0
 40
2.0
  1
Localização do des.:
 41
0.8
  7
SANINDUSA
 11
-134.0
 21
2.25
 31
0.0
100
AcDbText
 73
     2
  0
LINE
  5
BBD
330
B9E
100
AcDbEntity
  8
3
100
AcDbLine
 10
-180.0
 20
65.0
 30
0.0
 11
0.0
 21
65.0
 31
0.0
  0
LINE
  5
BBE
330
B9E
100
AcDbEntity
  8
leg fin
100
AcDbLine
 10
-40.0
 20
25.05956924886846
 30
0.0
 11
-135.0
 21
25.05956924886846
 31
0.0
  0
LINE
  5
BBF
330
B9E
100
AcDbEntity
  8
leg fin
100
AcDbLine
 10
-40.0
 20
28.5
 30
0.0
 11
-135.0
 21
28.5
 31
0.0
  0
LINE
  5
BC0
330
B9E
100
AcDbEntity
  8
3
100
AcDbLine
 10
-135.0
 20
50.0
 30
0.0
 11
-40.0
 21
50.0
 31
0.0
  0
TEXT
  5
BC1
330
B9E
100
AcDbEntity
  8
1
100
AcDbText
 10
-134.0
 20
29.75
 30
0.0
 40
2.0
  1
Desenho nº:
 41
0.8
  7
SANINDUSA
 11
-134.0
 21
30.75
 31
0.0
100
AcDbText
 73
     2
  0
TEXT
  5
BC2
330
B9E
100
AcDbEntity
  8
1
100
AcDbText
 10
-134.0
 20
9.25
 30
0.0
 40
2.0
  1
Acabamento:
 41
0.8
  7
SANINDUSA
 11
-134.0
 21
10.25
 31
0.0
100
AcDbText
 73
     2
  0
LINE
  5
BC3
330
B9E
100
AcDbEntity
  8
3
100
AcDbLine
 10
-180.0
 20
20.0
 30
0.0
 11
0.0
 21
20.0
 31
0.0
  0
LINE
  5
BC4
330
B9E
100
AcDbEntity
  8
1
100
AcDbLine
 10
-174.5810776056337
 20
55.5
 30
0.0
 11
-174.5810776056337
 21
65.0
 31
0.0
  0
LINE
  5
BC5
330
B9E
100
AcDbEntity
  8
1
100
AcDbLine
 10
-168.9210461879161
 20
55.5
 30
0.0
 11
-168.9210461879161
 21
65.0
 31
0.0
  0
LINE
  5
BC6
330
B9E
100
AcDbEntity
  8
1
100
AcDbLine
 10
-154.0988595589306
 20
55.5
 30
0.0
 11
-154.0988595589306
 21
65.0
 31
0.0
  0
LINE
  5
BC7
330
B9E
100
AcDbEntity
  8
3
100
AcDbLine
 10
-180.0
 20
65.0
 30
0.0
 11
-180.0
 21
0.0
 31
0.0
  0
LINE
  5
BC8
330
B9E
100
AcDbEntity
  8
3
100
AcDbLine
 10
-135.0
 20
0.0
 30
0.0
 11
-135.0
 21
65.0
 31
0.0
  0
TEXT
  5
BC9
330
B9E
100
AcDbEntity
  8
1
100
AcDbText
 10
-179.0
 20
9.75
 30
0.0
 40
1.5
  1
Des.
 41
0.8
  7
SANINDUSA
 11
-179.0
 21
10.5
 31
0.0
100
AcDbText
 73
     2
  0
LINE
  5
BCA
330
B9E
100
AcDbEntity
  8
1
100
AcDbLine
 10
-168.9210461879161
 20
20.0
 30
0.0
 11
-168.9210461879161
 21
0.0
 31
0.0
  0
LINE
  5
BCB
330
B9E
100
AcDbEntity
  8
1
100
AcDbLine
 10
-154.0988595589306
 20
20.0
 30
0.0
 11
-154.0988595589306
 21
0.0
 31
0.0
  0
LINE
  5
BCC
330
B9E
100
AcDbEntity
  8
1
100
AcDbLine
 10
-180.0
 20
4.0
 30
0.0
 11
-135.0
 21
4.0
 31
0.0
  0
LINE
  5
BCD
330
B9E
100
AcDbEntity
  8
1
100
AcDbLine
 10
-180.0
 20
8.0
 30
0.0
 11
-135.0
 21
8.0
 31
0.0
  0
TEXT
  5
BCE
330
B9E
100
AcDbEntity
  8
1
100
AcDbText
 10
-179.0
 20
1.73257823687436
 30
0.0
 40
1.5
  1
Aprov.
 41
0.8
  7
SANINDUSA
 11
-179.0
 21
2.48257823687436
 31
0.0
100
AcDbText
 73
     2
  0
TEXT
  5
BCF
330
B9E
100
AcDbEntity
  8
1
100
AcDbText
 10
-179.0
 20
5.75
 30
0.0
 40
1.5
  1
Ver.
 41
0.8
  7
SANINDUSA
 11
-179.0
 21
6.5
 31
0.0
100
AcDbText
 73
     2
  0
LINE
  5
BD0
330
B9E
100
AcDbEntity
  8
1
100
AcDbLine
 10
-180.0
 20
16.0
 30
0.0
 11
-135.0
 21
16.0
 31
0.0
  0
LINE
  5
BD1
330
B9E
100
AcDbEntity
  8
1
100
AcDbLine
 10
-180.0
 20
12.0
 30
0.0
 11
-135.0
 21
12.0
 31
0.0
  0
TEXT
  5
BD2
330
B9E
100
AcDbEntity
  8
1
100
AcDbText
 10
-179.0
 20
13.75
 30
0.0
 40
1.5
  1
Proj.
 41
0.8
  7
SANINDUSA
 11
-179.0
 21
14.5
 31
0.0
100
AcDbText
 73
     2
  0
TEXT
  5
BD3
330
B9E
100
AcDbEntity
  8
1
100
AcDbText
 10
-167.9210461879161
 20
17.75
 30
0.0
 40
1.5
  1
Data
 41
0.8
  7
SANINDUSA
 11
-167.9210461879161
 21
18.5
 31
0.0
100
AcDbText
 73
     2
  0
TEXT
  5
BD4
330
B9E
100
AcDbEntity
  8
1
100
AcDbText
 10
-153.0988595589306
 20
17.75
 30
0.0
 40
1.5
  1
Nome
 41
0.8
  7
SANINDUSA
 11
-153.0988595589306
 21
18.5
 31
0.0
100
AcDbText
 73
     2
  0
LINE
  5
BD5
330
B9E
100
AcDbEntity
  8
leg fin
100
AcDbLine
 10
-130.0
 20
20.0
 30
0.0
 11
-130.0
 21
28.5
 31
0.0
  0
TEXT
  5
BD6
330
B9E
100
AcDbEntity
  8
1
100
AcDbText
 10
-134.0
 20
17.25
 30
0.0
 40
2.0
  1
Material:
 41
0.8
  7
SANINDUSA
 11
-134.0
 21
18.25
 31
0.0
100
AcDbText
 73
     2
  0
TEXT
  5
BD7
330
B9E
100
AcDbEntity
  8
1
100
AcDbText
 10
-129.0
 20
26.43288406845113
 30
0.0
 40
1.5
  1
Ano:
 41
0.8
  7
SANINDUSA
 11
-129.0
 21
27.18288406845113
 31
0.0
100
AcDbText
 73
     2
  0
LINE
  5
BD8
330
B9E
100
AcDbEntity
  8
1
100
AcDbLine
 10
-180.0
 20
55.5
 30
0.0
 11
-135.0
 21
55.5
 31
0.0
  0
TEXT
  5
BD9
330
B9E
100
AcDbEntity
  8
1
100
AcDbText
 10
-179.0
 20
52.67772246885193
 30
0.0
 40
1.5
  1
descrição
 41
0.8
  7
SANINDUSA
 11
-179.0
 21
53.42772246885193
 31
0.0
100
AcDbText
 73
     2
  0
TEXT
  5
BDA
330
B9E
100
AcDbEntity
  8
1
100
AcDbText
 10
-134.0
 20
47.25
 30
0.0
 40
2.0
  1
Peça:
 41
0.8
  7
SANINDUSA
 11
-134.0
 21
48.25
 31
0.0
100
AcDbText
 73
     2
  0
LINE
  5
BDB
330
B9E
100
AcDbEntity
  8
1
100
AcDbLine
 10
-180.0
 20
59.5
 30
0.0
 11
-135.0
 21
59.5
 31
0.0
  0
TEXT
  5
BDC
330
B9E
100
AcDbEntity
  8
1
100
AcDbText
 10
-173.5810776056337
 20
62.75
 30
0.0
 40
1.5
  1
Alt.
 41
0.8
  7
SANINDUSA
 11
-173.5810776056337
 21
63.5
 31
0.0
100
AcDbText
 73
     2
  0
TEXT
  5
BDD
330
B9E
100
AcDbEntity
  8
1
100
AcDbText
 10
-179.0
 20
62.75
 30
0.0
 40
1.5
  1
Rev.
 41
0.8
  7
SANINDUSA
 11
-179.0
 21
63.5
 31
0.0
100
AcDbText
 73
     2
  0
TEXT
  5
BDE
330
B9E
100
AcDbEntity
  8
1
100
AcDbText
 10
-167.9210461879161
 20
62.75
 30
0.0
 40
1.5
  1
Data
 41
0.8
  7
SANINDUSA
 11
-167.9210461879161
 21
63.5
 31
0.0
100
AcDbText
 73
     2
  0
TEXT
  5
BDF
330
B9E
100
AcDbEntity
  8
1
100
AcDbText
 10
-153.0988595589306
 20
62.75
 30
0.0
 40
1.5
  1
Nome
 41
0.8
  7
SANINDUSA
 11
-153.0988595589306
 21
63.5
 31
0.0
100
AcDbText
 73
     2
  0
TEXT
  5
BE0
330
B9E
100
AcDbEntity
  8
1
100
AcDbText
 10
-134.0
 20
62.25
 30
0.0
 40
2.0
  1
Produto:
 41
0.8
  7
SANINDUSA
 11
-134.0
 21
63.25
 31
0.0
100
AcDbText
 73
     2
  0
LINE
  5
BE1
330
B9E
100
AcDbEntity
  8
3
100
AcDbLine
 10
-40.0
 20
4.0
 30
0.0
 11
-40.0
 21
65.0
 31
0.0
  0
LWPOLYLINE
  5
BE2
102
{ACAD_REACTORS
330
BEC
102
}
330
B9E
100
AcDbEntity
  8
9
100
AcDbPolyline
 90
       12
 70
     1
 43
0.0
 10
-3.038714600644652
 20
58.90010174665076
 10
-5.726962862472191
 20
58.90010174665076
 10
-5.726962862472191
 20
58.5001017466509
 10
-3.038748516195028
 20
58.5001017466509
 42
-0.4142135623731731
 10
-2.638748516194482
 20
58.1001017466508
 10
-2.638748516194482
 20
57.42799728675596
 10
-5.21497371544865
 20
57.42799728675596
 42
0.4142135623731289
 10
-6.014973715448377
 20
56.627997286756
 10
-6.014973715448377
 20
55.92380871629643
 42
0.4142135623731132
 10
-5.21497371544865
 20
55.12380871629648
 10
-2.23871460064447
 20
55.12380871629648
 10
-2.23871460064447
 20
58.10010174665103
 42
0.4142135623730717
  0
LWPOLYLINE
  5
BE3
102
{ACAD_REACTORS
330
BEC
102
}
330
B9E
100
AcDbEntity
  8
9
100
AcDbPolyline
 90
       20
 70
     1
 43
0.0
 10
-10.01531287095122
 20
57.82799728675581
 10
-10.01531287095122
 20
58.10010174665103
 42
-0.4142135623730744
 10
-9.615312870951584
 20
58.5001017466509
 10
-6.92703069357276
 20
58.5001017466509
 10
-6.92703069357276
 20
58.90010174665076
 10
-9.615346786501959
 20
58.90010174665076
 42
0.4142135623730883
 10
-10.41534678650168
 20
58.1001017466508
 10
-10.41534678650168
 20
57.82796337120567
 42
0.4142135623730717
 10
-9.615346786501959
 20
57.02796337120571
 10
-7.423079531965413
 20
57.02796337120571
 42
-0.4142135623730847
 10
-7.023079531965322
 20
56.62796337120562
 10
-7.023079531965322
 20
55.90786840766487
 42
-0.4142135623730744
 10
-7.423079531965413
 20
55.507868407665
 10
-10.41534678650168
 20
55.507868407665
 10
-10.41534678650168
 20
55.12380871629648
 10
-7.445787917283723
 20
55.12380871629648
 42
0.4114777732064574
 10
-6.645822882998345
 20
55.9163291493976
 10
-6.639238813324936
 20
56.62051771985716
 42
0.4169546541682913
 10
-7.439203847610315
 20
57.42799728675596
 10
-9.615312870951584
 20
57.42799728675596
 42
-0.4142135623731576
  0
LWPOLYLINE
  5
BE4
102
{ACAD_REACTORS
330
BEC
102
}
330
B9E
100
AcDbEntity
  8
9
100
AcDbPolyline
 90
       12
 70
     1
 43
0.0
 10
-14.41561811090378
 20
58.90010174665076
 10
-14.79964388672215
 20
58.90010174665076
 10
-14.79964388672215
 20
55.92380871629643
 42
0.4142135623731133
 10
-13.99964388672242
 20
55.12380871629648
 10
-11.8233508563676
 20
55.12380871629648
 42
0.4142135623730872
 10
-11.02335085636741
 20
55.92380871629643
 10
-11.02335085636741
 20
58.90010174665076
 10
-11.42338477191788
 20
58.90010174665076
 10
-11.42338477191788
 20
55.91567577726095
 42
-0.4131711701795318
 10
-11.82196067063523
 20
55.51567831234956
 10
-14.0141940096214
 20
55.50787335710947
 42
-0.4152567234624407
 10
-14.41561811090378
 20
55.90787082202087
  0
LWPOLYLINE
  5
BE5
102
{ACAD_REACTORS
330
BEC
102
}
330
B9E
100
AcDbEntity
  8
9
100
AcDbPolyline
 90
        6
 70
     1
 43
0.0
 10
-15.80771578768872
 20
55.507868407665
 10
-18.39994912667453
 20
55.507868407665
 42
-0.4142135623731731
 10
-18.79994912667462
 20
55.90786840766487
 10
-18.79994912667462
 20
58.10010174665103
 42
-0.4142135623730744
 10
-18.39994912667453
 20
58.5001017466509
 10
-15.80771578768872
 20
58.5001017466509
  0
LWPOLYLINE
  5
BE6
102
{ACAD_REACTORS
330
BEC
102
}
330
B9E
100
AcDbEntity
  8
9
100
AcDbPolyline
 90
        8
 70
     1
 43
0.0
 10
-15.4236900118708
 20
59.87619128370352
 10
-15.80771578768872
 20
59.87619128370352
 10
-15.80771578768872
 20
58.90010174665076
 10
-18.39176256411201
 20
58.90010174665076
 42
0.4131164467977967
 10
-19.19175694739761
 20
58.1030995310698
 10
-19.1999120763262
 20
55.92680650071542
 42
0.4153115297271718
 10
-18.39991769304061
 20
55.12380871629648
 10
-15.4236900118708
 20
55.12380871629648
  0
LWPOLYLINE
  5
BE7
102
{ACAD_REACTORS
330
BEC
102
}
330
B9E
100
AcDbEntity
  8
9
100
AcDbPolyline
 90
       10
 70
     1
 43
0.0
 10
-20.59201288790928
 20
58.90010174665076
 10
-23.56830591826338
 20
58.90010174665076
 10
-23.56830591826338
 20
55.12380871629648
 10
-23.18424622689509
 20
55.12380871629648
 10
-23.18424622689509
 20
58.5001017466509
 10
-20.59204680345965
 20
58.5001017466509
 42
-0.4142135623730898
 10
-20.19204680345956
 20
58.1001017466508
 10
-20.19204680345956
 20
55.12380871629648
 10
-19.79201288790909
 20
55.12380871629648
 10
-19.79201288790909
 20
58.10010174665103
 42
0.4142135623731132
  0
LWPOLYLINE
  5
BE8
102
{ACAD_REACTORS
330
BEC
102
}
330
B9E
100
AcDbEntity
  8
9
100
AcDbPolyline
 90
        4
 70
     1
 43
0.0
 10
-24.19231812786165
 20
58.90010174665076
 10
-24.57637781922995
 20
58.90010174665076
 10
-24.57637781922995
 20
55.12380871629648
 10
-24.19231812786165
 20
55.12380871629648
  0
LWPOLYLINE
  5
BE9
102
{ACAD_REACTORS
330
BEC
102
}
330
B9E
100
AcDbEntity
  8
9
100
AcDbPolyline
 90
       10
 70
     1
 43
0.0
 10
-28.57661522808212
 20
58.5001017466509
 10
-25.98444972019706
 20
58.5001017466509
 42
-0.4142135623731731
 10
-25.58444972019652
 20
58.1001017466508
 10
-25.58444972019652
 20
55.12380871629648
 10
-25.2004239443786
 20
55.12380871629648
 10
-25.2004239443786
 20
58.10010174665103
 42
0.4142135623730717
 10
-26.00042394437833
 20
58.90010174665076
 10
-28.97664914363259
 20
58.90010174665076
 10
-28.97664914363259
 20
55.12380871629648
 10
-28.57661522808212
 20
55.12380871629648
  0
LWPOLYLINE
  5
BEA
102
{ACAD_REACTORS
330
BEC
102
}
330
B9E
100
AcDbEntity
  8
9
100
AcDbPolyline
 90
       12
 70
     1
 43
0.0
 10
-29.58465321349832
 20
58.10010174665103
 42
0.4142135623730716
 10
-30.3846532134985
 20
58.90010174665076
 10
-33.07296930642724
 20
58.90010174665076
 10
-33.07296930642724
 20
58.5001017466509
 10
-30.38468712904842
 20
58.5001017466509
 42
-0.4142135623730067
 10
-29.98468712904878
 20
58.1001017466508
 10
-29.98468712904878
 20
57.42799728675618
 10
-32.56098015940324
 20
57.42799728675596
 42
0.4142135623731289
 10
-33.36098015940343
 20
56.627997286756
 10
-33.36098015940343
 20
55.92380871629643
 42
0.4142135623731132
 10
-32.56098015940324
 20
55.12380871629648
 10
-29.58465321349832
 20
55.12380871629648
  0
LWPOLYLINE
  5
BEB
102
{ACAD_REACTORS
330
BEC
102
}
330
B9E
100
AcDbEntity
  8
9
100
AcDbPolyline
 90
       20
 70
     1
 43
0.0
 10
-34.7850262845518
 20
57.42799728675596
 10
-36.96125148380543
 20
57.42799728675596
 42
-0.4142135623730898
 10
-37.36125148380552
 20
57.82799728675604
 10
-37.36125148380552
 20
58.10010174665103
 42
-0.4142135623730744
 10
-36.96125148380543
 20
58.5001017466509
 10
-34.27303713752781
 20
58.50010174665067
 10
-34.27303713752781
 20
58.90010174665076
 10
-36.96128539935535
 20
58.90010174665076
 42
0.4142135623731289
 10
-37.76128539935553
 20
58.1001017466508
 10
-37.76128539935553
 20
57.82796337120567
 42
0.4142135623730716
 10
-36.9612853993558
 20
57.02796337120571
 10
-34.76901814481926
 20
57.02796337120571
 42
-0.414213562373168
 10
-34.36901814481962
 20
56.62796337120562
 10
-34.36901814481962
 20
55.90786840766487
 42
-0.4142135623730744
 10
-34.76901814481926
 20
55.507868407665
 10
-37.76128539935553
 20
55.507868407665
 10
-37.76128539935553
 20
55.12380871629648
 10
-34.7850262845518
 20
55.12380871629648
 42
0.4142135623731289
 10
-33.98502628455162
 20
55.92380871629643
 10
-33.98502628455162
 20
56.627997286756
 42
0.4142135623731132
  0
HATCH
  5
BEC
330
B9E
100
AcDbEntity
  8
9
100
AcDbHatch
 10
0.0
 20
0.0
 30
0.0
210
0.0
220
0.0
230
1.0
  2
SOLID
 70
     1
 71
     1
 91
       13
 92
        7
 72
     1
 73
     1
 93
       20
 10
-34.36901814481962
 20
55.90786840766487
 42
-0.414213562372991
 10
-34.76901814481926
 20
55.507868407665
 42
0.0
 10
-37.76128539935553
 20
55.507868407665
 42
0.0
 10
-37.76128539935553
 20
55.12380871629648
 42
0.0
 10
-34.7850262845518
 20
55.12380871629648
 42
0.4142135623731705
 10
-33.98502628455162
 20
55.92380871629666
 42
0.0
 10
-33.98502628455162
 20
56.627997286756
 42
0.4142135623731547
 10
-34.7850262845518
 20
57.42799728675596
 42
0.0
 10
-36.96125148380543
 20
57.42799728675596
 42
-0.4142135623730898
 10
-37.36125148380552
 20
57.82799728675604
 42
0.0
 10
-37.36125148380552
 20
58.1001017466508
 42
-0.4142135623731575
 10
-36.96125148380543
 20
58.5001017466509
 42
0.0
 10
-34.27303713752781
 20
58.50010174665067
 42
0.0
 10
-34.27303713752781
 20
58.90010174665076
 42
0.0
 10
-36.96128539935535
 20
58.90010174665076
 42
0.4142135623731705
 10
-37.76128539935553
 20
58.10010174665058
 42
0.0
 10
-37.76128539935553
 20
57.82796337120544
 42
0.4142135623730299
 10
-36.9612853993558
 20
57.02796337120571
 42
0.0
 10
-34.76901814481926
 20
57.02796337120571
 42
-0.4142135623730015
 10
-34.36901814481962
 20
56.62796337120608
 42
0.0
 97
        1
330
BEB
 92
        7
 72
     1
 73
     1
 93
       12
 10
-33.36098015940343
 20
55.92380871629666
 42
0.4142135623731547
 10
-32.56098015940324
 20
55.12380871629648
 42
0.0
 10
-29.58465321349877
 20
55.12380871629648
 42
0.0
 10
-29.58465321349832
 20
58.10010174665058
 42
0.4142135623731964
 10
-30.3846532134985
 20
58.90010174665076
 42
0.0
 10
-33.07296930642724
 20
58.90010174665076
 42
0.0
 10
-33.07296930642724
 20
58.50010174665067
 42
0.0
 10
-30.38468712904887
 20
58.5001017466509
 42
-0.4142135623732564
 10
-29.98468712904878
 20
58.10010174665103
 42
0.0
 10
-29.98468712904923
 20
57.42799728675596
 42
0.0
 10
-32.56098015940324
 20
57.42799728675596
 42
0.4142135623731705
 10
-33.36098015940343
 20
56.627997286756
 42
0.0
 97
        1
330
BEA
 92
       22
 72
     1
 73
     1
 93
        6
 10
-32.97692046803468
 20
56.62796337120562
 42
-0.4142135623731576
 10
-32.57692046803459
 20
57.02796337120571
 42
0.0
 10
-29.98468712904878
 20
57.02796337120571
 42
0.0
 10
-29.98468712904878
 20
55.507868407665
 42
0.0
 10
-32.57692046803459
 20
55.507868407665
 42
-0.4142135623731731
 10
-32.97692046803468
 20
55.90786840766487
 42
0.0
 97
        1
330
C11
 92
        7
 72
     1
 73
     1
 93
       10
 10
-28.57661522808212
 20
58.5001017466509
 42
0.0
 10
-25.98444972019661
 20
58.5001017466509
 42
-0.4142135623730067
 10
-25.58444972019652
 20
58.10010174665058
 42
0.0
 10
-25.58444972019606
 20
55.12380871629648
 42
0.0
 10
-25.20042394437906
 20
55.12380871629648
 42
0.0
 10
-25.2004239443786
 20
58.1001017466508
 42
0.4142135623731134
 10
-26.00042394437833
 20
58.90010174665076
 42
0.0
 10
-28.97664914363259
 20
58.90010174665076
 42
0.0
 10
-28.97664914363259
 20
55.12380871629648
 42
0.0
 10
-28.57661522808212
 20
55.12380871629648
 42
0.0
 97
        1
330
BE9
 92
        7
 72
     0
 73
     1
 93
        4
 10
-24.57637781922995
 20
55.12380871629648
 10
-24.19231812786165
 20
55.12380871629648
 10
-24.19231812786165
 20
58.90010174665076
 10
-24.57637781922995
 20
58.90010174665076
 97
        1
330
BE8
 92
        7
 72
     0
 73
     1
 93
        4
 10
-24.19231812786165
 20
59.87619128370352
 10
-24.5763778192304
 20
59.87619128370352
 10
-24.5763778192304
 20
59.28412752246913
 10
-24.1923181278612
 20
59.28412752246913
 97
        1
330
C12
 92
        7
 72
     1
 73
     1
 93
       10
 10
-23.18424622689509
 20
58.5001017466509
 42
0.0
 10
-20.59204680345965
 20
58.5001017466509
 42
-0.4142135623730898
 10
-20.19204680345956
 20
58.1001017466508
 42
0.0
 10
-20.19204680345956
 20
55.12380871629648
 42
0.0
 10
-19.79201288790909
 20
55.12380871629648
 42
0.0
 10
-19.79201288790909
 20
58.1001017466508
 42
0.4142135623731547
 10
-20.59201288790928
 20
58.90010174665076
 42
0.0
 10
-23.56830591826338
 20
58.90010174665076
 42
0.0
 10
-23.56830591826338
 20
55.12380871629648
 42
0.0
 10
-23.18424622689463
 20
55.12380871629648
 42
0.0
 97
        1
330
BE7
 92
        7
 72
     1
 73
     1
 93
        8
 10
-19.1999120763262
 20
55.92680650071542
 42
0.4153115297271299
 10
-18.39991769304061
 20
55.12380871629648
 42
0.0
 10
-15.4236900118708
 20
55.12380871629648
 42
0.0
 10
-15.4236900118708
 20
59.87619128370352
 42
0.0
 10
-15.80771578768872
 20
59.87619128370352
 42
0.0
 10
-15.80771578768872
 20
58.90010174665076
 42
0.0
 10
-18.39176256411201
 20
58.90010174665076
 42
0.4131164467977965
 10
-19.19175694739761
 20
58.1030995310698
 42
0.0
 97
        1
330
BE6
 92
       22
 72
     1
 73
     1
 93
        6
 10
-18.79994912667462
 20
58.1001017466508
 42
-0.4142135623731575
 10
-18.39994912667453
 20
58.5001017466509
 42
0.0
 10
-15.80771578768872
 20
58.50010174665067
 42
0.0
 10
-15.80771578768827
 20
55.507868407665
 42
0.0
 10
-18.39994912667453
 20
55.507868407665
 42
-0.4142135623731731
 10
-18.79994912667462
 20
55.90786840766487
 42
0.0
 97
        1
330
BE5
 92
        7
 72
     1
 73
     1
 93
       12
 10
-14.79964388672215
 20
55.92380871629621
 42
0.4142135623729885
 10
-13.99964388672242
 20
55.12380871629648
 42
0.0
 10
-11.8233508563676
 20
55.12380871629648
 42
0.4142135623731289
 10
-11.02335085636741
 20
55.92380871629666
 42
0.0
 10
-11.02335085636741
 20
58.90010174665076
 42
0.0
 10
-11.42338477191788
 20
58.90010174665076
 42
0.0
 10
-11.42338477191788
 20
55.91567577726095
 42
-0.4131711701795319
 10
-11.82196067063523
 20
55.51567831234956
 42
0.0
 10
-14.01419400962095
 20
55.50787335710947
 42
-0.4152567234626918
 10
-14.41561811090378
 20
55.90787082202087
 42
0.0
 10
-14.41561811090378
 20
58.90010174665076
 42
0.0
 10
-14.7996438867226
 20
58.90010174665076
 42
0.0
 97
        1
330
BE4
 92
        7
 72
     1
 73
     1
 93
       20
 10
-7.423079531965413
 20
57.02796337120571
 42
-0.414213562373168
 10
-7.023079531965322
 20
56.62796337120562
 42
0.0
 10
-7.023079531965322
 20
55.90786840766487
 42
-0.4142135623731575
 10
-7.423079531965413
 20
55.507868407665
 42
0.0
 10
-10.41534678650168
 20
55.507868407665
 42
0.0
 10
-10.41534678650168
 20
55.12380871629648
 42
0.0
 10
-7.445787917283723
 20
55.12380871629648
 42
0.4114777732065809
 10
-6.645822882998345
 20
55.91632914939783
 42
0.0
 10
-6.639238813324936
 20
56.62051771985716
 42
0.4169546541682913
 10
-7.439203847610315
 20
57.42799728675596
 42
0.0
 10
-9.615312870951584
 20
57.42799728675596
 42
-0.4142135623729911
 10
-10.01531287095122
 20
57.82799728675581
 42
0.0
 10
-10.01531287095122
 20
58.10010174665103
 42
-0.414213562372991
 10
-9.615312870951584
 20
58.5001017466509
 42
0.0
 10
-6.92703069357276
 20
58.50010174665067
 42
0.0
 10
-6.927030693572305
 20
58.90010174665076
 42
0.0
 10
-9.615346786501959
 20
58.90010174665076
 42
0.4142135623730467
 10
-10.41534678650168
 20
58.10010174665103
 42
0.0
 10
-10.41534678650168
 20
57.82796337120544
 42
0.4142135623730301
 10
-9.615346786501959
 20
57.02796337120571
 42
0.0
 97
        1
330
BE3
 92
        7
 72
     1
 73
     1
 93
       12
 10
-5.21497371544865
 20
57.42799728675596
 42
0.4142135623730871
 10
-6.014973715448377
 20
56.627997286756
 42
0.0
 10
-6.014973715448377
 20
55.92380871629621
 42
0.4142135623730715
 10
-5.21497371544865
 20
55.12380871629648
 42
0.0
 10
-2.23871460064447
 20
55.12380871629648
 42
0.0
 10
-2.23871460064447
 20
58.10010174665058
 42
0.414213562373155
 10
-3.038714600644652
 20
58.90010174665076
 42
0.0
 10
-5.726962862471737
 20
58.90010174665076
 42
0.0
 10
-5.726962862472191
 20
58.5001017466509
 42
0.0
 10
-3.038748516194573
 20
58.5001017466509
 42
-0.4142135623730067
 10
-2.638748516194482
 20
58.10010174665058
 42
0.0
 10
-2.638748516194482
 20
57.42799728675596
 42
0.0
 97
        1
330
BE2
 92
       22
 72
     1
 73
     1
 93
        6
 10
-2.638748516194937
 20
57.02796337120571
 42
0.0
 10
-2.638748516194482
 20
55.50786840766477
 42
0.0
 10
-5.21497371544865
 20
55.507868407665
 42
-0.4142135623731731
 10
-5.614973715448741
 20
55.90786840766509
 42
0.0
 10
-5.614973715448741
 20
56.62796337120562
 42
-0.4142135623731576
 10
-5.21497371544865
 20
57.02796337120571
 42
0.0
 97
        1
330
C0D
 75
     0
 76
     1
 47
0.0407044778999864
 98
       13
 10
-34.18710075113677
 20
56.16907953933765
 10
-33.12851374392494
 20
56.49471602641233
 10
-33.12851374392494
 20
56.49471602641233
 10
-28.77202873835904
 20
57.51232930166111
 10
-24.41554807250941
 20
57.91937341678636
 10
-24.41554807250941
 20
59.384734621186
 10
-23.31624584658039
 20
58.3264175319116
 10
-19.04119127844888
 20
57.75655517324913
 10
-19.04119127844888
 20
57.75655517324913
 10
-14.64399105416578
 20
57.43091868617466
 10
-8.048195057457178
 20
57.22739662861204
 10
-4.017427461911665
 20
57.18669281458665
 10
-4.017427461911665
 20
57.18669281458665
  0
TEXT
  5
BED
330
B9E
100
AcDbEntity
  8
leg fin
100
AcDbText
 10
3.391127401597259
 20
2.107634911895729
 30
0.0
 40
1.5
  1
Este desenho é propriedade da Sanindusa, S.A., e não pode ser copiado nem divulgado sem nossa autorização.
 50
90.0
 41
0.8
  7
SANINDUSA
100
AcDbText
  0
LINE
  5
BEE
330
B9E
100
AcDbEntity
  8
3
100
AcDbLine
 10
-90.0
 20
4.0
 30
0.0
 11
-90.0
 21
12.0
 31
0.0
  0
TEXT
  5
BEF
330
B9E
100
AcDbEntity
  8
1
100
AcDbText
 10
-39.0
 20
9.25
 30
0.0
 40
2.0
  1
Substituido por:
 41
0.8
  7
SANINDUSA
 11
-39.0
 21
10.25
 31
0.0
100
AcDbText
 73
     2
  0
POINT
  5
BF0
330
B9E
100
AcDbEntity
  8
SANINDUSA
100
AcDbPoint
 10
0.0
 20
0.0
 30
0.0
  0
TEXT
  5
BF1
330
B9E
100
AcDbEntity
  8
1
100
AcDbText
 10
-89.0
 20
16.74927010445663
 30
0.0
 40
2.0
  1
Normas:
 41
0.8
  7
SANINDUSA
 11
-89.0
 21
17.74927010445663
 31
0.0
100
AcDbText
 73
     2
  0
LINE
  5
BF2
330
B9E
100
AcDbEntity
  8
3
100
AcDbLine
 10
-90.0
 20
12.0
 30
0.0
 11
-90.0
 21
20.0
 31
0.0
  0
LINE
  5
BF3
330
B9E
100
AcDbEntity
  8
3
100
AcDbLine
 10
-110.546019464768
 20
12.0
 30
0.0
 11
-110.546019464768
 21
20.0
 31
0.0
  0
TEXT
  5
BF4
330
B9E
100
AcDbEntity
  8
1
100
AcDbText
 10
-109.6177520618648
 20
17.25
 30
0.0
 40
2.0
  1
Cor:
 41
0.8
  7
SANINDUSA
 11
-109.6177520618648
 21
18.25
 31
0.0
100
AcDbText
 73
     2
  0
LINE
  5
BF5
330
B9E
100
AcDbEntity
  8
leg fin
100
AcDbLine
 10
-91.42857142857156
 20
20.0
 30
0.0
 11
-91.42857142857156
 21
28.5
 31
0.0
  0
LINE
  5
BF6
330
B9E
100
AcDbEntity
  8
leg fin
100
AcDbLine
 10
-104.2857142857142
 20
20.0
 30
0.0
 11
-104.2857142857142
 21
28.5
 31
0.0
  0
LINE
  5
BF7
330
B9E
100
AcDbEntity
  8
leg fin
100
AcDbLine
 10
-117.1428571428573
 20
20.0
 30
0.0
 11
-117.1428571428573
 21
28.5
 31
0.0
  0
POINT
  5
BF8
330
B9E
100
AcDbEntity
  8
SANINDUSA
100
AcDbPoint
 10
-117.1428571428573
 20
28.5
 30
0.0
  0
POINT
  5
BF9
330
B9E
100
AcDbEntity
  8
SANINDUSA
100
AcDbPoint
 10
-104.2857142857142
 20
28.5
 30
0.0
  0
POINT
  5
BFA
330
B9E
100
AcDbEntity
  8
SANINDUSA
100
AcDbPoint
 10
-91.42857142857156
 20
28.5
 30
0.0
  0
TEXT
  5
BFB
330
B9E
100
AcDbEntity
  8
1
100
AcDbText
 10
-116.200160604496
 20
26.43288406845113
 30
0.0
 40
1.5
  1
Nº Seq.:
 41
0.8
  7
SANINDUSA
 11
-116.200160604496
 21
27.18288406845113
 31
0.0
100
AcDbText
 73
     2
  0
TEXT
  5
BFC
330
B9E
100
AcDbEntity
  8
1
100
AcDbText
 10
-103.2106584078738
 20
26.43288406845113
 30
0.0
 40
1.5
  1
Tipo:
 41
0.8
  7
SANINDUSA
 11
-103.2106584078738
 21
27.18288406845113
 31
0.0
100
AcDbText
 73
     2
  0
TEXT
  5
BFD
330
B9E
100
AcDbEntity
  8
1
100
AcDbText
 10
-90.22114672289353
 20
26.43288406845113
 30
0.0
 40
1.5
  1
Prod.:
 41
0.8
  7
SANINDUSA
 11
-90.22114672289353
 21
27.18288406845113
 31
0.0
100
AcDbText
 73
     2
  0
TEXT
  5
BFE
330
B9E
100
AcDbEntity
  8
1
100
AcDbText
 10
-64.77320576346574
 20
26.43288406845113
 30
0.0
 40
1.5
  1
Rev.:
 41
0.8
  7
SANINDUSA
 11
-64.77320576346574
 21
27.18288406845113
 31
0.0
100
AcDbText
 73
     2
  0
LINE
  5
BFF
330
B9E
100
AcDbEntity
  8
leg fin
100
AcDbLine
 10
-52.85714285714266
 20
20.0
 30
0.0
 11
-52.85714285714266
 21
28.5
 31
0.0
  0
LINE
  5
C00
330
B9E
100
AcDbEntity
  8
leg fin
100
AcDbLine
 10
-65.71428571428578
 20
20.0
 30
0.0
 11
-65.71428571428578
 21
28.5
 31
0.0
  0
LINE
  5
C01
330
B9E
100
AcDbEntity
  8
leg fin
100
AcDbLine
 10
-78.57142857142844
 20
20.0
 30
0.0
 11
-78.57142857142844
 21
28.5
 31
0.0
  0
POINT
  5
C02
330
B9E
100
AcDbEntity
  8
SANINDUSA
100
AcDbPoint
 10
-78.57142857142844
 20
28.5
 30
0.0
  0
POINT
  5
C03
330
B9E
100
AcDbEntity
  8
SANINDUSA
100
AcDbPoint
 10
-65.71428571428578
 20
28.5
 30
0.0
  0
POINT
  5
C04
330
B9E
100
AcDbEntity
  8
SANINDUSA
100
AcDbPoint
 10
-52.85714285714266
 20
28.5
 30
0.0
  0
TEXT
  5
C05
330
B9E
100
AcDbEntity
  8
1
100
AcDbText
 10
-77.61097961686573
 20
26.43288406845113
 30
0.0
 40
1.5
  1
Peça:
 41
0.8
  7
SANINDUSA
 11
-77.61097961686573
 21
27.18288406845113
 31
0.0
100
AcDbText
 73
     2
  0
TEXT
  5
C06
330
B9E
100
AcDbEntity
  8
1
100
AcDbText
 10
-52.06538060077036
 20
26.43288406845113
 30
0.0
 40
1.5
  1
Alt.:
 41
0.8
  7
SANINDUSA
 11
-52.06538060077036
 21
27.18288406845113
 31
0.0
100
AcDbText
 73
     2
  0
LINE
  5
C07
330
B9E
100
AcDbEntity
  8
3
100
AcDbLine
 10
0.0
 20
12.0
 30
0.0
 11
-40.0
 21
12.0
 31
0.0
  0
LINE
  5
C08
330
B9E
100
AcDbEntity
  8
3
100
AcDbLine
 10
-40.0
 20
32.5
 30
0.0
 11
0.0
 21
32.5
 31
0.0
  0
TEXT
  5
C09
330
B9E
100
AcDbEntity
  8
1
100
AcDbText
 10
-19.0
 20
29.75
 30
0.0
 40
2.0
  1
Folha:
 41
0.8
  7
SANINDUSA
 11
-19.0
 21
30.75
 31
0.0
100
AcDbText
 73
     2
  0
LINE
  5
C0A
330
B9E
100
AcDbEntity
  8
3
100
AcDbLine
 10
-20.0
 20
32.5
 30
0.0
 11
-20.0
 21
20.0
 31
0.0
  0
TEXT
  5
C0B
330
B9E
100
AcDbEntity
  8
1
100
AcDbText
 10
-39.0
 20
29.75
 30
0.0
 40
2.0
  1
Escala:
 41
0.8
  7
SANINDUSA
 11
-39.0
 21
30.75
 31
0.0
100
AcDbText
 73
     2
  0
TEXT
  5
C0C
330
B9E
100
AcDbEntity
  8
1
100
AcDbText
 10
-39.0
 20
17.25
 30
0.0
 40
2.0
  1
Substitui:
 41
0.8
  7
SANINDUSA
 11
-39.0
 21
18.25
 31
0.0
100
AcDbText
 73
     2
  0
LWPOLYLINE
  5
C0D
102
{ACAD_REACTORS
330
BEC
102
}
330
B9E
100
AcDbEntity
  8
9
100
AcDbPolyline
 90
        6
 70
     1
 43
0.0
 10
-2.638748516194482
 20
57.02796337120571
 10
-2.638748516194482
 20
55.50786840766477
 10
-5.21497371544865
 20
55.507868407665
 42
-0.4142135623730898
 10
-5.614973715448741
 20
55.90786840766487
 10
-5.614973715448741
 20
56.62796337120562
 42
-0.4142135623731576
 10
-5.21497371544865
 20
57.02796337120571
  0
LINE
  5
C0E
330
B9E
100
AcDbEntity
  8
3
100
AcDbLine
 10
-40.0
 20
50.0
 30
0.0
 11
0.0
 21
50.0
 31
0.0
  0
ATTDEF
  5
C0F
330
B9E
100
AcDbEntity
  8
1
100
AcDbText
 10
-31.30691739422431
 20
40.25
 30
0.0
 40
2.0
  1
XXXXXXXXXXXXXXX
 41
0.8
  7
SANINDUSA
 72
     4
 11
-20.0
 21
41.25
 31
0.0
100
AcDbAttributeDefinition
  3
Observações:
  2
OBS
 70
     0
  0
TEXT
  5
C10
330
B9E
100
AcDbEntity
  8
1
100
AcDbText
 10
-39.0
 20
47.25
 30
0.0
 40
2.0
  1
Observações:
 41
0.8
  7
SANINDUSA
 11
-39.0
 21
48.25
 31
0.0
100
AcDbText
 73
     2
  0
LWPOLYLINE
  5
C11
102
{ACAD_REACTORS
330
BEC
102
}
330
B9E
100
AcDbEntity
  8
9
100
AcDbPolyline
 90
        6
 70
     1
 43
0.0
 10
-29.98468712904878
 20
57.02796337120571
 10
-29.98468712904878
 20
55.507868407665
 10
-32.57692046803459
 20
55.507868407665
 42
-0.4142135623731731
 10
-32.97692046803468
 20
55.90786840766487
 10
-32.97692046803468
 20
56.62796337120562
 42
-0.4142135623731576
 10
-32.57692046803459
 20
57.02796337120571
  0
LWPOLYLINE
  5
C12
102
{ACAD_REACTORS
330
BEC
102
}
330
B9E
100
AcDbEntity
  8
9
100
AcDbPolyline
 90
        4
 70
     1
 43
0.0
 10
-24.19231812786165
 20
59.87619128370352
 10
-24.57637781922995
 20
59.87619128370352
 10
-24.57637781922995
 20
59.28412752246913
 10
-24.19231812786165
 20
59.28412752246913
  0
ENDBLK
  5
C14
330
B9E
100
AcDbEntity
  8
0
100
AcDbBlockEnd
  0
BLOCK
  5
1061
330
1060
100
AcDbEntity
  8
0
 62
     4
100
AcDbBlockBegin
  2
guarnizione
 70
     0
 10
0.0
 20
0.0
 30
0.0
  3
guarnizione
  1

  0
LINE
  5
1062
330
1060
100
AcDbEntity
  8
0
100
AcDbLine
 10
12.0
 20
3.179312414488776
 30
0.0
 11
12.0
 21
2.699999999999818
 31
0.0
  0
LINE
  5
1063
330
1060
100
AcDbEntity
  8
0
100
AcDbLine
 10
9.5
 20
3.130475008156281
 30
0.0
 11
9.440776269158959
 21
2.734883615801663
 31
0.0
  0
ARC
  5
1064
330
1060
100
AcDbEntity
  8
0
100
AcDbCircle
 10
11.19999999999891
 20
3.179312414488776
 30
0.0
 40
0.8
100
AcDbArc
 50
0.0
 51
81.48552156587461
  0
ARC
  5
1065
330
1060
100
AcDbEntity
  8
0
100
AcDbCircle
 10
8.753809903480942
 20
1.523241254200002
 30
0.0
 40
0.1999999999999504
100
AcDbArc
 50
171.485521565823
 51
351.485521565823
  0
LINE
  5
1066
330
1060
100
AcDbEntity
  8
0
100
AcDbLine
 10
11.65558220186904
 20
-2.403306455734309
 30
0.0
 11
9.440776269158959
 21
-2.734883615802573
 31
0.0
  0
ARC
  5
1067
330
1060
100
AcDbEntity
  8
0
100
AcDbCircle
 10
8.753809903480942
 20
-1.523241254200911
 30
0.0
 40
0.1999999999999504
100
AcDbArc
 50
8.514478434176927
 51
188.5144784341769
  0
LINE
  5
1068
330
1060
100
AcDbEntity
  8
0
100
AcDbLine
 10
9.5
 20
-3.130475008157191
 30
0.0
 11
9.440776269158959
 21
-2.734883615802573
 31
0.0
  0
ARC
  5
1069
330
1060
100
AcDbEntity
  8
0
100
AcDbCircle
 10
11.69999999999891
 20
-2.699999999999818
 30
0.0
 40
0.3
100
AcDbArc
 50
0.0
 51
98.51447843412536
  0
ARC
  5
106A
330
1060
100
AcDbEntity
  8
0
100
AcDbCircle
 10
11.69999999999891
 20
2.699999999999818
 30
0.0
 40
0.3
100
AcDbArc
 50
261.4855215658746
 51
0.0
  0
LINE
  5
106B
330
1060
100
AcDbEntity
  8
0
100
AcDbLine
 10
11.65558220186904
 20
2.4033064557334
 30
0.0
 11
9.440776269158959
 21
2.734883615801663
 31
0.0
  0
LINE
  5
106C
330
1060
100
AcDbEntity
  8
0
100
AcDbLine
 10
8.807715063378054
 20
3.234116537129011
 30
0.0
 11
8.556014207302723
 21
1.552853119620522
 31
0.0
  0
LINE
  5
106D
330
1060
100
AcDbEntity
  8
0
100
AcDbLine
 10
9.203306455732672
 20
3.174892806287971
 30
0.0
 11
8.951605599657341
 21
1.493629388779481
 31
0.0
  0
LINE
  5
106E
330
1060
100
AcDbEntity
  8
0
100
AcDbLine
 10
6.681411329471302
 20
3.552444090400967
 30
0.0
 11
6.622187598630262
 21
3.15685269804544
 31
0.0
  0
ARC
  5
106F
330
1060
100
AcDbEntity
  8
0
100
AcDbCircle
 10
0.2999999999992724
 20
3.800000000000181
 30
0.0
 40
0.3
100
AcDbArc
 50
81.48552156587461
 51
180.0
  0
ARC
  5
1070
330
1060
100
AcDbEntity
  8
0
100
AcDbCircle
 10
1.042400829128382
 20
4.699999999999818
 30
0.0
 40
0.8
100
AcDbArc
 50
81.48552156587461
 51
90.0
  0
LINE
  5
1071
330
1060
100
AcDbEntity
  8
0
100
AcDbLine
 10
1.5
 20
3.923692082123125
 30
0.0
 11
0.3444177981309622
 21
4.09669354426569
 31
0.0
  0
LINE
  5
1072
330
1060
100
AcDbEntity
  8
0
100
AcDbLine
 10
1.5
 20
3.923692082123125
 30
0.0
 11
1.5
 21
3.099999999999454
 31
0.0
  0
LINE
  5
1073
330
1060
100
AcDbEntity
  8
0
100
AcDbLine
 10
1.5
 20
3.099999999999454
 30
0.0
 11
2.699999999998908
 21
3.099999999999454
 31
0.0
  0
LINE
  5
1074
330
1060
100
AcDbEntity
  8
0
100
AcDbLine
 10
2.699999999998908
 20
3.744040860223321
 30
0.0
 11
2.699999999998908
 21
3.099999999999454
 31
0.0
  0
LINE
  5
1075
330
1060
100
AcDbEntity
  8
0
100
AcDbLine
 10
6.622187598630262
 20
3.15685269804544
 30
0.0
 11
2.699999999998908
 21
3.744040860223321
 31
0.0
  0
LINE
  5
1076
330
1060
100
AcDbEntity
  8
0
100
AcDbLine
 10
1.5
 20
-3.100000000000363
 30
0.0
 11
2.699999999998908
 21
-3.100000000000363
 31
0.0
  0
LINE
  5
1077
330
1060
100
AcDbEntity
  8
0
100
AcDbLine
 10
11.31844746168099
 20
3.970495199198012
 30
0.0
 11
1.160848290810463
 21
5.491182784709053
 31
0.0
  0
LINE
  5
1078
330
1060
100
AcDbEntity
  8
0
100
AcDbLine
 10
9.5
 20
3.130475008156281
 30
0.0
 11
6.681411329471302
 21
3.552444090400967
 31
0.0
  0
ARC
  5
1079
330
1060
100
AcDbEntity
  8
0
100
AcDbCircle
 10
11.19999999999891
 20
-3.179312414488776
 30
0.0
 40
0.8
100
AcDbArc
 50
278.5144784341254
 51
0.0
  0
LINE
  5
107A
330
1060
100
AcDbEntity
  8
0
100
AcDbLine
 10
6.681411329471302
 20
-3.552444090400967
 30
0.0
 11
6.622187598630262
 21
-3.15685269804635
 31
0.0
  0
ARC
  5
107B
330
1060
100
AcDbEntity
  8
0
100
AcDbCircle
 10
0.2999999999992724
 20
-3.800000000000181
 30
0.0
 40
0.3
100
AcDbArc
 50
180.0
 51
278.5144784341254
  0
ARC
  5
107C
330
1060
100
AcDbEntity
  8
0
100
AcDbCircle
 10
1.042400829128382
 20
-4.699999999999818
 30
0.0
 40
0.8
100
AcDbArc
 50
270.0
 51
278.5144784341254
  0
LINE
  5
107D
330
1060
100
AcDbEntity
  8
0
100
AcDbLine
 10
0.3444177981309622
 20
-4.096693544266599
 30
0.0
 11
1.5
 21
-3.923692082124034
 31
0.0
  0
LINE
  5
107E
330
1060
100
AcDbEntity
  8
0
100
AcDbLine
 10
6.622187598630262
 20
-3.15685269804635
 30
0.0
 11
2.699999999998908
 21
-3.744040860224231
 31
0.0
  0
LINE
  5
107F
330
1060
100
AcDbEntity
  8
0
100
AcDbLine
 10
1.160848290810463
 20
-5.491182784709963
 30
0.0
 11
11.31844746168099
 21
-3.970495199198921
 31
0.0
  0
LINE
  5
1080
330
1060
100
AcDbEntity
  8
0
100
AcDbLine
 10
0.0
 20
3.800000000000181
 30
0.0
 11
0.0
 21
-3.800000000000181
 31
0.0
  0
LINE
  5
1081
330
1060
100
AcDbEntity
  8
0
100
AcDbLine
 10
12.0
 20
-2.699999999999818
 30
0.0
 11
12.0
 21
-3.179312414488776
 31
0.0
  0
LINE
  5
1082
330
1060
100
AcDbEntity
  8
0
100
AcDbLine
 10
2.699999999998908
 20
-3.100000000000363
 30
0.0
 11
2.699999999998908
 21
-3.744040860224231
 31
0.0
  0
LINE
  5
1083
330
1060
100
AcDbEntity
  8
0
100
AcDbLine
 10
1.5
 20
-3.100000000000363
 30
0.0
 11
1.5
 21
-3.923692082124034
 31
0.0
  0
LINE
  5
1084
330
1060
100
AcDbEntity
  8
0
100
AcDbLine
 10
9.5
 20
-3.130475008157191
 30
0.0
 11
6.681411329471302
 21
-3.552444090400967
 31
0.0
  0
LINE
  5
1085
330
1060
100
AcDbEntity
  8
0
100
AcDbLine
 10
9.203306455732672
 20
-3.174892806287971
 30
0.0
 11
8.951605599657341
 21
-1.493629388780391
 31
0.0
  0
LINE
  5
1086
330
1060
100
AcDbEntity
  8
0
100
AcDbLine
 10
8.807715063378054
 20
-3.234116537129011
 30
0.0
 11
8.556014207302723
 21
-1.552853119621431
 31
0.0
  0
LINE
  5
1087
330
1060
100
AcDbEntity
  8
0
100
AcDbLine
 10
-1.5
 20
5.5
 30
0.0
 11
-3.757359312881817
 21
5.5
 31
0.0
  0
ARC
  5
1088
330
1060
100
AcDbEntity
  8
0
100
AcDbCircle
 10
-2.5
 20
3.5
 30
0.0
 40
1.0
100
AcDbArc
 50
0.0
 51
90.0
  0
ARC
  5
1089
330
1060
100
AcDbEntity
  8
0
100
AcDbCircle
 10
-3.769781102879278
 20
4.149978862833449
 30
0.0
 40
0.75
100
AcDbArc
 50
47.16775949949599
 51
90.19499109987526
  0
ARC
  5
108A
330
1060
100
AcDbEntity
  8
0
100
AcDbCircle
 10
-2.75
 20
5.25
 30
0.0
 40
0.75
100
AcDbArc
 50
227.167759499496
 51
270.0
  0
LINE
  5
108B
330
1060
100
AcDbEntity
  8
0
100
AcDbLine
 10
-2.75
 20
4.5
 30
0.0
 11
-2.5
 21
4.5
 31
0.0
  0
LINE
  5
108C
330
1060
100
AcDbEntity
  8
0
100
AcDbLine
 10
-7.415254325502246
 20
3.064644661409147
 30
0.0
 11
-6.868629150101696
 21
3.611269837220788
 31
0.0
  0
ARC
  5
108D
102
{ACAD_REACTORS
330
10A7
102
}
330
1060
100
AcDbEntity
  8
0
100
AcDbCircle
 10
-7.980939750059405
 20
2.569669913566031
 30
0.0
 40
0.2
100
AcDbArc
 50
45.0000001037625
 51
135.0000000719631
  0
ARC
  5
108E
330
1060
100
AcDbEntity
  8
0
100
AcDbCircle
 10
-3.757359312881817
 20
0.5
 30
0.0
 40
5.0
100
AcDbArc
 50
90.0
 51
135.0
  0
ARC
  5
108F
330
1060
100
AcDbEntity
  8
0
100
AcDbCircle
 10
-3.757359312881817
 20
0.5
 30
0.0
 40
4.4
100
AcDbArc
 50
90.19499109987526
 51
135.0
  0
ARC
  5
1090
330
1060
100
AcDbEntity
  8
0
100
AcDbCircle
 10
-6.814213563102384
 20
0.9786796633270569
 30
0.0
 40
0.75
100
AcDbArc
 50
314.9999999676111
 51
45.0
  0
ARC
  5
1091
102
{ACAD_REACTORS
330
10A7
102
}
330
1060
100
AcDbEntity
  8
0
100
AcDbCircle
 10
-6.814213563102384
 20
0.9786796633270569
 30
0.0
 40
0.5
100
AcDbArc
 50
314.9999999676111
 51
45.0
  0
ARC
  5
1092
330
1060
100
AcDbEntity
  8
0
100
AcDbCircle
 10
-7.203122291144609
 20
2.852512627053329
 30
0.0
 40
0.3
100
AcDbArc
 50
135.0
 51
225.0000001112794
  0
LINE
  5
1093
330
1060
100
AcDbEntity
  8
0
100
AcDbLine
 10
-8.051650430128574
 20
3.276776694619002
 30
0.0
 11
-6.283883477519339
 21
1.509009749524921
 31
0.0
  0
LINE
  5
1094
102
{ACAD_REACTORS
330
10A7
102
}
330
1060
100
AcDbEntity
  8
0
100
AcDbLine
 10
-7.839518394079277
 20
2.711091270059114
 30
0.0
 11
-6.460660172508141
 21
1.33223305392039
 31
0.0
  0
ARC
  5
1095
330
1060
100
AcDbEntity
  8
0
100
AcDbCircle
 10
-12.57713383280133
 20
-2.521498914058611
 30
0.0
 40
0.3
100
AcDbArc
 50
45.00000003552097
 51
135.0
  0
ARC
  5
1096
102
{ACAD_REACTORS
330
10A7
102
}
330
1060
100
AcDbEntity
  8
0
100
AcDbCircle
 10
-12.29429112059733
 20
-1.743681468243266
 30
0.0
 40
0.2
100
AcDbArc
 50
135.0000000660675
 51
225.0000002990173
  0
LINE
  5
1097
330
1060
100
AcDbEntity
  8
0
100
AcDbLine
 10
-12.9899494936617
 20
-2.510050506339212
 30
0.0
 11
-12.78926586715715
 21
-2.309366879702793
 31
0.0
  0
LINE
  5
1098
330
1060
100
AcDbEntity
  8
0
100
AcDbLine
 10
-13.41421356237333
 20
-2.085786437626666
 30
0.0
 11
-7.292893218815152
 21
4.035533905932425
 31
0.0
  0
LINE
  5
1099
102
{ACAD_REACTORS
330
10A7
102
}
330
1060
100
AcDbEntity
  8
0
100
AcDbLine
 10
-12.43571247699765
 20
-1.602260112168551
 30
0.0
 11
-8.122361106474272
 21
2.711091269625285
 31
0.0
  0
ARC
  5
109A
330
1060
100
AcDbEntity
  8
0
100
AcDbCircle
 10
-2.5
 20
-3.5
 30
0.0
 40
1.0
100
AcDbArc
 50
270.0
 51
0.0
  0
ARC
  5
109B
330
1060
100
AcDbEntity
  8
0
100
AcDbCircle
 10
-7.519803902720013
 20
-4.150000000000545
 30
0.0
 40
0.75
100
AcDbArc
 50
270.0
 51
312.8334280660476
  0
ARC
  5
109C
330
1060
100
AcDbEntity
  8
0
100
AcDbCircle
 10
-6.5
 20
-5.25
 30
0.0
 40
0.75
100
AcDbArc
 50
90.0
 51
132.8334280660476
  0
LINE
  5
109D
330
1060
100
AcDbEntity
  8
0
100
AcDbLine
 10
-2.5
 20
-4.5
 30
0.0
 11
-6.5
 21
-4.5
 31
0.0
  0
ARC
  5
109E
330
1060
100
AcDbEntity
  8
0
100
AcDbCircle
 10
-10.7033008647486
 20
-2.910407640086305
 30
0.0
 40
0.75
100
AcDbArc
 50
225.0
 51
315.0
  0
ARC
  5
109F
102
{ACAD_REACTORS
330
10A7
102
}
330
1060
100
AcDbEntity
  8
0
100
AcDbCircle
 10
-10.7033008647486
 20
-2.910407640086305
 30
0.0
 40
0.5
100
AcDbArc
 50
225.0
 51
315.0
  0
LINE
  5
10A0
330
1060
100
AcDbEntity
  8
0
100
AcDbLine
 10
-1.5
 20
-5.5
 30
0.0
 11
-12.0
 21
-5.5
 31
0.0
  0
LINE
  5
10A1
330
1060
100
AcDbEntity
  8
0
100
AcDbLine
 10
-7.519803902720013
 20
-4.900000000000545
 30
0.0
 11
-12.0
 21
-4.900000000000545
 31
0.0
  0
ARC
  5
10A2
330
1060
100
AcDbEntity
  8
0
100
AcDbCircle
 10
-12.0
 20
-3.5
 30
0.0
 40
2.0
100
AcDbArc
 50
135.0
 51
270.0
  0
LINE
  5
10A3
330
1060
100
AcDbEntity
  8
0
100
AcDbLine
 10
-10.17297077881812
 20
-3.440737725935832
 30
0.0
 11
-6.283883477372
 21
0.4483495772774404
 31
0.0
  0
ARC
  5
10A4
330
1060
100
AcDbEntity
  8
0
100
AcDbCircle
 10
-12.0
 20
-3.5
 30
0.0
 40
1.399999999999999
100
AcDbArc
 50
135.0
 51
270.0
  0
LINE
  5
10A5
330
1060
100
AcDbEntity
  8
0
100
AcDbLine
 10
-13.00139790187859
 20
-1.672970777132832
 30
0.0
 11
-11.23363095093009
 21
-3.440737725682993
 31
0.0
  0
LINE
  5
10A6
330
1060
100
AcDbEntity
  8
0
100
AcDbLine
 10
-1.5
 20
3.5
 30
0.0
 11
-1.5
 21
-3.5
 31
0.0
  0
HATCH
  5
10A7
330
1060
100
AcDbEntity
  8
0
100
AcDbHatch
 10
0.0
 20
0.0
 30
0.0
210
0.0
220
0.0
230
1.0
  2
ANSI31
 70
     0
 71
     1
 91
        1
 92
        7
 72
     1
 73
     1
 93
        8
 10
-6.460660173204814
 20
1.332233054616153
 42
0.0
 10
-7.839518394101105
 20
2.711091270081851
 42
0.414213562178905
 10
-8.122361106481548
 20
2.711091269618009
 42
0.0
 10
-12.43571247701766
 20
-1.602260112190379
 42
0.4142135636146872
 10
-12.43571247604996
 20
-1.885102825264766
 42
0.0
 10
-11.05685425338015
 20
-3.263961032639599
 42
0.4142135608152901
 10
-10.34974747407432
 20
-3.263961030598693
 42
0.0
 10
-6.460660172428106
 20
0.625126272813759
 42
0.4142135628833784
 97
        8
330
1094
330
108D
330
1099
330
1096
330
10A9
330
109F
330
10A8
330
1091
 75
     0
 76
     1
 52
45.0
 41
0.25
 77
     0
 78
     1
 53
90.0
 43
-276.1145346408611
 44
-395.2719013892401
 45
-0.79375
 46
0.0000000000000002
 79
     0
 47
0.0364805528584695
 98
        1
 10
-7.399477738399582
 20
0.8532363732892918
  0
LINE
  5
10A8
102
{ACAD_REACTORS
330
10A7
102
}
330
1060
100
AcDbEntity
  8
0
100
AcDbLine
 10
-10.34974747415435
 20
-3.263961030678729
 30
0.0
 11
-6.46066017270823
 21
0.6251262725336347
 31
0.0
  0
LINE
  5
10A9
102
{ACAD_REACTORS
330
10A7
102
}
330
1060
100
AcDbEntity
  8
0
100
AcDbLine
 10
-12.43571247609543
 20
-1.885102825218382
 30
0.0
 11
-11.05685425534102
 21
-3.263961030678729
 31
0.0
  0
LINE
  5
10AA
330
1060
100
AcDbEntity
  8
0
100
AcDbLine
 10
-1.5
 20
5.5
 30
0.0
 11
1.042400829128382
 21
5.5
 31
0.0
  0
LINE
  5
10AB
330
1060
100
AcDbEntity
  8
0
100
AcDbLine
 10
-1.5
 20
-5.5
 30
0.0
 11
1.042400829128382
 21
-5.5
 31
0.0
  0
ENDBLK
  5
10AC
330
1060
100
AcDbEntity
  8
0
 62
     4
100
AcDbBlockEnd
  0
BLOCK
  5
1DA6
330
1D9C
100
AcDbEntity
  8
0
100
AcDbBlockBegin
  2
*D8
 70
     1
 10
0.0
 20
0.0
 30
0.0
  3
*D8
  1

  0
LINE
  5
2024
330
1D9C
100
AcDbEntity
  8
7
100
AcDbLine
 10
4978.668648071419
 20
2780.730074733695
 30
0.0
 11
5108.120067696492
 21
2780.730074733695
 31
0.0
  0
LINE
  5
2025
330
1D9C
100
AcDbEntity
  8
7
100
AcDbLine
 10
4976.136898142322
 20
2080.748174733695
 30
0.0
 11
5108.120067696492
 21
2080.748174733695
 31
0.0
  0
LINE
  5
2026
330
1D9C
100
AcDbEntity
  8
7
100
AcDbLine
 10
5098.120067696491
 20
2760.730074733695
 30
0.0
 11
5098.120067696491
 21
2100.748174733695
 31
0.0
  0
SOLID
  5
2027
330
1D9C
100
AcDbEntity
  8
7
100
AcDbTrace
 10
5094.786734363158
 20
2760.730074733695
 30
0.0
 11
5101.453401029825
 21
2760.730074733695
 31
0.0
 12
5098.120067696491
 22
2780.730074733695
 32
0.0
 13
5098.120067696491
 23
2780.730074733695
 33
0.0
  0
SOLID
  5
2028
330
1D9C
100
AcDbEntity
  8
7
100
AcDbTrace
 10
5094.786734363158
 20
2100.748174733695
 30
0.0
 11
5101.453401029825
 21
2100.748174733695
 31
0.0
 12
5098.120067696491
 22
2080.748174733695
 32
0.0
 13
5098.120067696491
 23
2080.748174733695
 33
0.0
  0
MTEXT
  5
2029
330
1D9C
100
AcDbEntity
  8
7
100
AcDbMText
 10
5077.71039677641
 20
2430.739124733695
 30
0.0
 40
20.0
 41
0.0
 71
     5
 72
     1
  1
700
  7
SANINDUSA
 11
0.0000000000000001
 21
1.0
 31
0.0
 73
     1
 44
1.0
1001
ACAD
1000
MTEXTBEGIN
1070
    73
1070
     1
1070
    44
1040
1.0
1070
    74
1070
     0
1000
MTEXTEND
  0
POINT
  5
202A
330
1D9C
100
AcDbEntity
  8
Defpoints
 62
     0
100
AcDbPoint
 10
4968.66864807142
 20
2780.730074733695
 30
-0.0000000076263427
  0
POINT
  5
202B
330
1D9C
100
AcDbEntity
  8
Defpoints
 62
     0
100
AcDbPoint
 10
4966.136898142322
 20
2080.748174733695
 30
0.0
  0
POINT
  5
202C
330
1D9C
100
AcDbEntity
  8
Defpoints
 62
     0
100
AcDbPoint
 10
5098.120067696491
 20
2080.748174733695
 30
0.0
  0
ENDBLK
  5
1DA7
330
1D9C
100
AcDbEntity
  8
0
100
AcDbBlockEnd
  0
BLOCK
  5
1DB2
330
1DA8
100
AcDbEntity
  8
0
100
AcDbBlockBegin
  2
*D9
 70
     1
 10
0.0
 20
0.0
 30
0.0
  3
*D9
  1

  0
LINE
  5
23CD
330
1DA8
100
AcDbEntity
  8
7
100
AcDbLine
 10
4976.136898142322
 20
2780.730074733695
 30
0.0
 11
4976.136898142322
 21
2849.965129239199
 31
0.0
  0
LINE
  5
23CE
330
1DA8
100
AcDbEntity
  8
7
100
AcDbLine
 10
3576.141698142322
 20
2780.730074733695
 30
0.0
 11
3576.141698142322
 21
2849.965129239199
 31
0.0
  0
LINE
  5
23CF
330
1DA8
100
AcDbEntity
  8
7
100
AcDbLine
 10
4956.136898142322
 20
2839.965129239199
 30
0.0
 11
3596.141698142323
 21
2839.965129239199
 31
0.0
  0
SOLID
  5
23D0
330
1DA8
100
AcDbEntity
  8
7
100
AcDbTrace
 10
4956.136898142322
 20
2843.298462572532
 30
0.0
 11
4956.136898142322
 21
2836.631795905865
 31
0.0
 12
4976.136898142322
 22
2839.965129239199
 32
0.0
 13
4976.136898142322
 23
2839.965129239199
 33
0.0
  0
SOLID
  5
23D1
330
1DA8
100
AcDbEntity
  8
7
100
AcDbTrace
 10
3596.141698142323
 20
2843.298462572532
 30
0.0
 11
3596.141698142323
 21
2836.631795905865
 31
0.0
 12
3576.141698142322
 22
2839.965129239199
 32
0.0
 13
3576.141698142322
 23
2839.965129239199
 33
0.0
  0
MTEXT
  5
23D2
330
1DA8
100
AcDbEntity
  8
7
100
AcDbMText
 10
4276.139298142322
 20
2860.374800159279
 30
0.0
 40
20.0
 41
0.0
 71
     5
 72
     1
  1
1400
  7
SANINDUSA
 73
     1
 44
1.0
1001
ACAD
1000
MTEXTBEGIN
1070
    73
1070
     1
1070
    44
1040
1.0
1070
    74
1070
     0
1000
MTEXTEND
  0
POINT
  5
23D3
330
1DA8
100
AcDbEntity
  8
Defpoints
 62
     0
100
AcDbPoint
 10
4976.136898142322
 20
2770.730074733695
 30
0.0
  0
POINT
  5
23D4
330
1DA8
100
AcDbEntity
  8
Defpoints
 62
     0
100
AcDbPoint
 10
3576.141698142322
 20
2770.730074733696
 30
0.0
  0
POINT
  5
23D5
330
1DA8
100
AcDbEntity
  8
Defpoints
 62
     0
100
AcDbPoint
 10
3576.141698142322
 20
2839.965129239199
 30
0.0
  0
ENDBLK
  5
1DB3
330
1DA8
100
AcDbEntity
  8
0
100
AcDbBlockEnd
  0
BLOCK
  5
1DBE
330
1DB4
100
AcDbEntity
  8
0
100
AcDbBlockBegin
  2
*D10
 70
     1
 10
0.0
 20
0.0
 30
0.0
  3
*D10
  1

  0
LINE
  5
201B
330
1DB4
100
AcDbEntity
  8
7
100
AcDbLine
 10
4966.442152836457
 20
2113.503206480879
 30
0.0
 11
5038.421855450445
 21
2113.503206480879
 31
0.0
  0
LINE
  5
201C
330
1DB4
100
AcDbEntity
  8
7
100
AcDbLine
 10
4966.442152836462
 20
2736.358050973786
 30
0.0
 11
5038.421855450445
 21
2736.358050973786
 31
0.0
  0
LINE
  5
201D
330
1DB4
100
AcDbEntity
  8
7
100
AcDbLine
 10
5028.421855450445
 20
2133.503206480879
 30
0.0
 11
5028.421855450445
 21
2716.358050973787
 31
0.0
  0
SOLID
  5
201E
330
1DB4
100
AcDbEntity
  8
7
100
AcDbTrace
 10
5025.088522117112
 20
2133.503206480879
 30
0.0
 11
5031.755188783778
 21
2133.503206480879
 31
0.0
 12
5028.421855450445
 22
2113.503206480879
 32
0.0
 13
5028.421855450445
 23
2113.503206480879
 33
0.0
  0
SOLID
  5
201F
330
1DB4
100
AcDbEntity
  8
7
100
AcDbTrace
 10
5025.088522117112
 20
2716.358050973787
 30
0.0
 11
5031.755188783778
 21
2716.358050973787
 31
0.0
 12
5028.421855450445
 22
2736.358050973786
 32
0.0
 13
5028.421855450445
 23
2736.358050973786
 33
0.0
  0
MTEXT
  5
2020
330
1DB4
100
AcDbEntity
  8
7
100
AcDbMText
 10
5005.728772844668
 20
2424.930628727333
 30
0.0
 40
20.0
 41
0.0
 71
     5
 72
     1
  1
622,9
  7
SANINDUSA
 11
0.0000000000000001
 21
1.0
 31
0.0
 73
     1
 44
1.0
1001
ACAD
1000
MTEXTBEGIN
1070
    73
1070
     1
1070
    44
1040
1.0
1070
    74
1070
     0
1000
MTEXTEND
  0
POINT
  5
2021
330
1DB4
100
AcDbEntity
  8
Defpoints
 62
     0
100
AcDbPoint
 10
4956.442152836458
 20
2113.503206480879
 30
-0.0000000076263427
  0
POINT
  5
2022
330
1DB4
100
AcDbEntity
  8
Defpoints
 62
     0
100
AcDbPoint
 10
4956.442152836462
 20
2736.358050973786
 30
-0.0000000076263427
  0
POINT
  5
2023
330
1DB4
100
AcDbEntity
  8
Defpoints
 62
     0
100
AcDbPoint
 10
5028.421855450445
 20
2736.358050973786
 30
0.0
  0
ENDBLK
  5
1DBF
330
1DB4
100
AcDbEntity
  8
0
100
AcDbBlockEnd
  0
BLOCK
  5
1DCA
330
1DC0
100
AcDbEntity
  8
0
100
AcDbBlockBegin
  2
*D11
 70
     1
 10
0.0
 20
0.0
 30
0.0
  3
*D11
  1

  0
LINE
  5
2047
330
1DC0
100
AcDbEntity
  8
7
100
AcDbLine
 10
3621.113721902227
 20
2089.174775546535
 30
0.0
 11
3621.113721902227
 21
2020.748174733696
 31
0.0
  0
LINE
  5
2048
330
1DC0
100
AcDbEntity
  8
7
100
AcDbLine
 10
4339.113721902227
 20
2089.174775546533
 30
0.0
 11
4339.113721902227
 21
2020.748174733696
 31
0.0
  0
LINE
  5
2049
330
1DC0
100
AcDbEntity
  8
7
100
AcDbLine
 10
3641.113721902228
 20
2030.748174733696
 30
0.0
 11
4319.113721902226
 21
2030.748174733696
 31
0.0
  0
SOLID
  5
204A
330
1DC0
100
AcDbEntity
  8
7
100
AcDbTrace
 10
3641.113721902228
 20
2034.081508067029
 30
0.0
 11
3641.113721902228
 21
2027.414841400362
 31
0.0
 12
3621.113721902227
 22
2030.748174733696
 32
0.0
 13
3621.113721902227
 23
2030.748174733696
 33
0.0
  0
SOLID
  5
204B
330
1DC0
100
AcDbEntity
  8
7
100
AcDbTrace
 10
4319.113721902226
 20
2034.081508067029
 30
0.0
 11
4319.113721902226
 21
2027.414841400362
 31
0.0
 12
4339.113721902227
 22
2030.748174733696
 32
0.0
 13
4339.113721902227
 23
2030.748174733696
 33
0.0
  0
MTEXT
  5
204C
330
1DC0
100
AcDbEntity
  8
7
100
AcDbMText
 10
3980.113721902227
 20
2051.204857070835
 30
0.0
 40
20.0
 41
0.0
 71
     5
 72
     1
  1
718
  7
SANINDUSA
 73
     1
 44
1.0
1001
ACAD
1000
MTEXTBEGIN
1070
    73
1070
     1
1070
    44
1040
1.0
1070
    74
1070
     0
1000
MTEXTEND
  0
POINT
  5
204D
330
1DC0
100
AcDbEntity
  8
Defpoints
 62
     0
100
AcDbPoint
 10
3621.113721902227
 20
2099.174775546535
 30
0.0000001474809935
  0
POINT
  5
204E
330
1DC0
100
AcDbEntity
  8
Defpoints
 62
     0
100
AcDbPoint
 10
4339.113721902227
 20
2099.174775546534
 30
0.0000001479286265
  0
POINT
  5
204F
330
1DC0
100
AcDbEntity
  8
Defpoints
 62
     0
100
AcDbPoint
 10
4339.113721902227
 20
2030.748174733696
 30
0.0
  0
ENDBLK
  5
1DCB
330
1DC0
100
AcDbEntity
  8
0
100
AcDbBlockEnd
  0
BLOCK
  5
1DD6
330
1DCC
100
AcDbEntity
  8
0
100
AcDbBlockBegin
  2
*D12
 70
     1
 10
0.0
 20
0.0
 30
0.0
  3
*D12
  1

  0
LINE
  5
2050
330
1DCC
100
AcDbEntity
  8
7
100
AcDbLine
 10
4342.113721902228
 20
2089.174779356131
 30
0.0
 11
4342.113721902228
 21
2020.748174733696
 31
0.0
  0
LINE
  5
2051
330
1DCC
100
AcDbEntity
  8
7
100
AcDbLine
 10
4942.113721902227
 20
2089.174779356134
 30
0.0
 11
4942.113721902227
 21
2020.748174733696
 31
0.0
  0
LINE
  5
2052
330
1DCC
100
AcDbEntity
  8
7
100
AcDbLine
 10
4362.113721902227
 20
2030.748174733696
 30
0.0
 11
4922.113721902227
 21
2030.748174733696
 31
0.0
  0
SOLID
  5
2053
330
1DCC
100
AcDbEntity
  8
7
100
AcDbTrace
 10
4362.113721902227
 20
2034.081508067029
 30
0.0
 11
4362.113721902227
 21
2027.414841400362
 31
0.0
 12
4342.113721902228
 22
2030.748174733696
 32
0.0
 13
4342.113721902228
 23
2030.748174733696
 33
0.0
  0
SOLID
  5
2054
330
1DCC
100
AcDbEntity
  8
7
100
AcDbTrace
 10
4922.113721902227
 20
2034.081508067029
 30
0.0
 11
4922.113721902227
 21
2027.414841400362
 31
0.0
 12
4942.113721902227
 22
2030.748174733696
 32
0.0
 13
4942.113721902227
 23
2030.748174733696
 33
0.0
  0
MTEXT
  5
2055
330
1DCC
100
AcDbEntity
  8
7
100
AcDbMText
 10
4642.113721902227
 20
2051.157845653776
 30
0.0
 40
20.0
 41
0.0
 71
     5
 72
     1
  1
600
  7
SANINDUSA
 73
     1
 44
1.0
1001
ACAD
1000
MTEXTBEGIN
1070
    73
1070
     1
1070
    44
1040
1.0
1070
    74
1070
     0
1000
MTEXTEND
  0
POINT
  5
2056
330
1DCC
100
AcDbEntity
  8
Defpoints
 62
     0
100
AcDbPoint
 10
4342.113721902228
 20
2099.17477935613
 30
0.0000001479284879
  0
POINT
  5
2057
330
1DCC
100
AcDbEntity
  8
Defpoints
 62
     0
100
AcDbPoint
 10
4942.113721902227
 20
2099.174779356134
 30
0.0000001479284879
  0
POINT
  5
2058
330
1DCC
100
AcDbEntity
  8
Defpoints
 62
     0
100
AcDbPoint
 10
4942.113721902227
 20
2030.748174733696
 30
0.0
  0
ENDBLK
  5
1DD7
330
1DCC
100
AcDbEntity
  8
0
100
AcDbBlockEnd
  0
BLOCK
  5
2065
330
205A
100
AcDbEntity
  8
0
100
AcDbBlockBegin
  2
*D13
 70
     1
 10
0.0
 20
0.0
 30
0.0
  3
*D13
  1

  0
LINE
  5
2068
330
205A
100
AcDbEntity
  8
7
100
AcDbLine
 10
4952.113721902226
 20
2099.174779356133
 30
0.0
 11
4965.354455032573
 21
2099.174779356133
 31
0.0
  0
ARC
  5
2069
330
205A
100
AcDbEntity
  8
7
100
AcDbCircle
 10
4358.013778005398
 20
2099.174779356131
 30
0.0
 40
597.3406770271748
100
AcDbArc
 50
271.9184515070707
 51
358.0815484929294
  0
SOLID
  5
206A
330
205A
100
AcDbEntity
  8
7
100
AcDbTrace
 10
4378.066778128576
 20
1498.83605343494
 30
0.0
 11
4377.955172357815
 21
1505.501785847539
 31
0.0
 12
4358.013778005397
 22
1501.834102328956
 32
0.0
 13
4358.013778005397
 23
1501.834102328956
 33
0.0
  0
SOLID
  5
206B
330
205A
100
AcDbEntity
  8
7
100
AcDbTrace
 10
4951.68677151399
 20
2079.233385003715
 30
0.0
 11
4958.35250392659
 21
2079.121779232954
 31
0.0
 12
4955.354455032573
 22
2099.174779356133
 32
0.0
 13
4955.354455032573
 23
2099.174779356133
 33
0.0
  0
MTEXT
  5
206C
102
{ACAD_XDICTIONARY
360
24BB
102
}
330
205A
100
AcDbEntity
  8
7
100
AcDbMText
 10
4764.355737683564
 20
1692.832819677966
 30
0.0
 40
20.0
 41
0.0
 71
     5
 72
     1
  1
90,0\U+00B0
  7
SANINDUSA
 11
0.707106781186547
 21
0.7071067811865481
 31
0.0
 73
     1
 44
1.0
1001
ACAD
1000
MTEXTBEGIN
1070
    73
1070
     1
1070
    44
1040
1.0
1070
    74
1070
     0
1000
MTEXTEND
  0
POINT
  5
206D
330
205A
100
AcDbEntity
  8
Defpoints
 62
     0
100
AcDbPoint
 10
4656.684116518986
 20
1581.862578336802
 30
0.0
  0
POINT
  5
206E
330
205A
100
AcDbEntity
  8
Defpoints
 62
     0
100
AcDbPoint
 10
4342.113721902228
 20
2099.174779356131
 30
0.0000001479284879
  0
POINT
  5
206F
330
205A
100
AcDbEntity
  8
Defpoints
 62
     0
100
AcDbPoint
 10
4358.013778005398
 20
2086.274723252957
 30
0.0000001479284879
  0
POINT
  5
2070
330
205A
100
AcDbEntity
  8
Defpoints
 62
     0
100
AcDbPoint
 10
4358.013778005397
 20
1486.274723252957
 30
0.0000001479284879
  0
POINT
  5
2071
330
205A
100
AcDbEntity
  8
Defpoints
 62
     0
100
AcDbPoint
 10
4942.113721902227
 20
2099.174779356133
 30
0.0000001479284879
  0
ENDBLK
  5
2066
330
205A
100
AcDbEntity
  8
0
100
AcDbBlockEnd
  0
BLOCK
  5
217C
330
2172
100
AcDbEntity
  8
0
100
AcDbBlockBegin
  2
*D14
 70
     1
 10
0.0
 20
0.0
 30
0.0
  3
*D14
  1

  0
LINE
  5
21B0
330
2172
100
AcDbEntity
  8
7
100
AcDbLine
 10
6097.49487957313
 20
1359.84996997851
 30
0.0
 11
6210.57652040199
 21
1359.84996997851
 31
0.0
  0
LINE
  5
21B1
330
2172
100
AcDbEntity
  8
7
100
AcDbLine
 10
6182.875021120299
 20
1074.84996997851
 30
0.0
 11
6210.57652040199
 21
1074.84996997851
 31
0.0
  0
LINE
  5
21B2
330
2172
100
AcDbEntity
  8
7
100
AcDbLine
 10
6200.57652040199
 20
1339.84996997851
 30
0.0
 11
6200.57652040199
 21
1094.84996997851
 31
0.0
  0
SOLID
  5
21B3
330
2172
100
AcDbEntity
  8
7
100
AcDbTrace
 10
6197.243187068657
 20
1339.84996997851
 30
0.0
 11
6203.909853735323
 21
1339.84996997851
 31
0.0
 12
6200.57652040199
 22
1359.84996997851
 32
0.0
 13
6200.57652040199
 23
1359.84996997851
 33
0.0
  0
SOLID
  5
21B4
330
2172
100
AcDbEntity
  8
7
100
AcDbTrace
 10
6197.243187068657
 20
1094.84996997851
 30
0.0
 11
6203.909853735323
 21
1094.84996997851
 31
0.0
 12
6200.57652040199
 22
1074.84996997851
 32
0.0
 13
6200.57652040199
 23
1074.84996997851
 33
0.0
  0
MTEXT
  5
21B5
330
2172
100
AcDbEntity
  8
7
100
AcDbMText
 10
6180.119838064851
 20
1217.349969978511
 30
0.0
 40
20.0
 41
0.0
 71
     5
 72
     1
  1
285
  7
SANINDUSA
 11
0.0000000000000001
 21
1.0
 31
0.0
 73
     1
 44
1.0
1001
ACAD
1000
MTEXTBEGIN
1070
    73
1070
     1
1070
    44
1040
1.0
1070
    74
1070
     0
1000
MTEXTEND
  0
POINT
  5
21B6
330
2172
100
AcDbEntity
  8
Defpoints
 62
     0
100
AcDbPoint
 10
6087.49487957313
 20
1359.84996997851
 30
-0.0000017937957191
  0
POINT
  5
21B7
330
2172
100
AcDbEntity
  8
Defpoints
 62
     0
100
AcDbPoint
 10
6172.875021120298
 20
1074.84996997851
 30
-0.0000017937957191
  0
POINT
  5
21B8
330
2172
100
AcDbEntity
  8
Defpoints
 62
     0
100
AcDbPoint
 10
6200.57652040199
 20
1074.84996997851
 30
0.0
  0
ENDBLK
  5
217D
330
2172
100
AcDbEntity
  8
0
100
AcDbBlockEnd
  0
BLOCK
  5
218A
330
217E
100
AcDbEntity
  8
0
100
AcDbBlockBegin
  2
*D15
 70
     1
 10
0.0
 20
0.0
 30
0.0
  3
*D15
  1

  0
LINE
  5
21B9
330
217E
100
AcDbEntity
  8
7
100
AcDbLine
 10
6292.290988867577
 20
1074.84996997851
 30
0.0
 11
6140.576520401989
 21
1074.84996997851
 31
0.0
  0
LINE
  5
21BA
330
217E
100
AcDbEntity
  8
7
100
AcDbLine
 10
6320.079333796324
 20
1064.84996997851
 30
0.0
 11
6140.576520401989
 21
1064.84996997851
 31
0.0
  0
LINE
  5
21BB
330
217E
100
AcDbEntity
  8
7
100
AcDbLine
 10
6150.576520401989
 20
1094.84996997851
 30
0.0
 11
6150.576520401989
 21
1114.84996997851
 31
0.0
  0
LINE
  5
21BC
330
217E
100
AcDbEntity
  8
7
100
AcDbLine
 10
6150.576520401989
 20
1044.84996997851
 30
0.0
 11
6150.576520401989
 21
975.4208228999338
 31
0.0
  0
LINE
  5
21BD
330
217E
100
AcDbEntity
  8
7
100
AcDbLine
 10
6150.576520401989
 20
1074.84996997851
 30
0.0
 11
6150.576520401989
 21
1064.84996997851
 31
0.0
  0
SOLID
  5
21BE
330
217E
100
AcDbEntity
  8
7
100
AcDbTrace
 10
6147.243187068657
 20
1094.84996997851
 30
0.0
 11
6153.909853735322
 21
1094.84996997851
 31
0.0
 12
6150.576520401989
 22
1074.84996997851
 32
0.0
 13
6150.576520401989
 23
1074.84996997851
 33
0.0
  0
SOLID
  5
21BF
330
217E
100
AcDbEntity
  8
7
100
AcDbTrace
 10
6147.243187068657
 20
1044.84996997851
 30
0.0
 11
6153.909853735322
 21
1044.84996997851
 31
0.0
 12
6150.576520401989
 22
1064.84996997851
 32
0.0
 13
6150.576520401989
 23
1064.84996997851
 33
0.0
  0
MTEXT
  5
21C0
330
217E
100
AcDbEntity
  8
7
100
AcDbMText
 10
6130.166849481909
 20
1000.135396439223
 30
0.0
 40
20.0
 41
0.0
 71
     5
 72
     1
  1
10
  7
SANINDUSA
 11
0.0000000000000001
 21
1.0
 31
0.0
 73
     1
 44
1.0
1001
ACAD
1000
MTEXTBEGIN
1070
    73
1070
     1
1070
    44
1040
1.0
1070
    74
1070
     0
1000
MTEXTEND
  0
POINT
  5
21C1
330
217E
100
AcDbEntity
  8
Defpoints
 62
     0
100
AcDbPoint
 10
6302.290988867577
 20
1074.84996997851
 30
-0.0000017937957191
  0
POINT
  5
21C2
330
217E
100
AcDbEntity
  8
Defpoints
 62
     0
100
AcDbPoint
 10
6330.079333796324
 20
1064.84996997851
 30
0.0
  0
POINT
  5
21C3
330
217E
100
AcDbEntity
  8
Defpoints
 62
     0
100
AcDbPoint
 10
6150.576520401989
 20
1064.84996997851
 30
0.0
  0
ENDBLK
  5
218B
330
217E
100
AcDbEntity
  8
0
100
AcDbBlockEnd
  0
BLOCK
  5
2196
330
218C
100
AcDbEntity
  8
0
100
AcDbBlockBegin
  2
*D16
 70
     1
 10
0.0
 20
0.0
 30
0.0
  3
*D16
  1

  0
LINE
  5
21C4
330
218C
100
AcDbEntity
  8
7
100
AcDbLine
 10
5842.743940745601
 20
1359.849969978502
 30
0.0
 11
5185.175065330684
 21
1359.849969978503
 31
0.0
  0
LINE
  5
21C5
330
218C
100
AcDbEntity
  8
7
100
AcDbLine
 10
5235.175065330684
 20
1064.84996997851
 30
0.0
 11
5185.175065330684
 21
1064.84996997851
 31
0.0
  0
LINE
  5
21C6
330
218C
100
AcDbEntity
  8
7
100
AcDbLine
 10
5195.175065330684
 20
1339.849969978503
 30
0.0
 11
5195.175065330684
 21
1084.84996997851
 31
0.0
  0
SOLID
  5
21C7
330
218C
100
AcDbEntity
  8
7
100
AcDbTrace
 10
5191.841731997351
 20
1339.849969978503
 30
0.0
 11
5198.508398664017
 21
1339.849969978503
 31
0.0
 12
5195.175065330684
 22
1359.849969978503
 32
0.0
 13
5195.175065330684
 23
1359.849969978503
 33
0.0
  0
SOLID
  5
21C8
330
218C
100
AcDbEntity
  8
7
100
AcDbTrace
 10
5191.841731997351
 20
1084.84996997851
 30
0.0
 11
5198.508398664017
 21
1084.84996997851
 31
0.0
 12
5195.175065330684
 22
1064.84996997851
 32
0.0
 13
5195.175065330684
 23
1064.84996997851
 33
0.0
  0
MTEXT
  5
21C9
330
218C
100
AcDbEntity
  8
7
100
AcDbMText
 10
5174.758678493881
 20
1212.349969978507
 30
0.0
 40
20.0
 41
0.0
 71
     5
 72
     1
  1
295
  7
SANINDUSA
 11
0.0000000000000001
 21
1.0
 31
0.0
 73
     1
 44
1.0
1001
ACAD
1000
MTEXTBEGIN
1070
    73
1070
     1
1070
    44
1040
1.0
1070
    74
1070
     0
1000
MTEXTEND
  0
POINT
  5
21CA
330
218C
100
AcDbEntity
  8
Defpoints
 62
     0
100
AcDbPoint
 10
5852.743940745601
 20
1359.849969978502
 30
-0.0000017937957191
  0
POINT
  5
21CB
330
218C
100
AcDbEntity
  8
Defpoints
 62
     0
100
AcDbPoint
 10
5245.175065330684
 20
1064.84996997851
 30
0.0
  0
POINT
  5
21CC
330
218C
100
AcDbEntity
  8
Defpoints
 62
     0
100
AcDbPoint
 10
5195.175065330684
 20
1064.84996997851
 30
0.0
  0
ENDBLK
  5
2197
330
218C
100
AcDbEntity
  8
0
100
AcDbBlockEnd
  0
BLOCK
  5
21A2
330
2198
100
AcDbEntity
  8
0
100
AcDbBlockBegin
  2
*D17
 70
     1
 10
0.0
 20
0.0
 30
0.0
  3
*D17
  1

  0
LINE
  5
21CD
330
2198
100
AcDbEntity
  8
7
100
AcDbLine
 10
5235.175065330684
 20
2914.84996997851
 30
0.0
 11
5185.175065330684
 21
2914.84996997851
 31
0.0
  0
LINE
  5
21CE
330
2198
100
AcDbEntity
  8
7
100
AcDbLine
 10
5813.570378265799
 20
2619.84996996884
 30
0.0
 11
5185.175065330684
 21
2619.84996996884
 31
0.0
  0
LINE
  5
21CF
330
2198
100
AcDbEntity
  8
7
100
AcDbLine
 10
5195.175065330684
 20
2894.84996997851
 30
0.0
 11
5195.175065330684
 21
2639.84996996884
 31
0.0
  0
SOLID
  5
21D0
330
2198
100
AcDbEntity
  8
7
100
AcDbTrace
 10
5191.841731997351
 20
2894.84996997851
 30
0.0
 11
5198.508398664017
 21
2894.84996997851
 31
0.0
 12
5195.175065330684
 22
2914.84996997851
 32
0.0
 13
5195.175065330684
 23
2914.84996997851
 33
0.0
  0
SOLID
  5
21D1
330
2198
100
AcDbEntity
  8
7
100
AcDbTrace
 10
5191.841731997351
 20
2639.84996996884
 30
0.0
 11
5198.508398664017
 21
2639.84996996884
 31
0.0
 12
5195.175065330684
 22
2619.84996996884
 32
0.0
 13
5195.175065330684
 23
2619.84996996884
 33
0.0
  0
MTEXT
  5
21D2
330
2198
100
AcDbEntity
  8
7
100
AcDbMText
 10
5174.75867849388
 20
2767.349969973676
 30
0.0
 40
20.0
 41
0.0
 71
     5
 72
     1
  1
295
  7
SANINDUSA
 11
0.0000000000000001
 21
1.0
 31
0.0
 73
     1
 44
1.0
1001
ACAD
1000
MTEXTBEGIN
1070
    73
1070
     1
1070
    44
1040
1.0
1070
    74
1070
     0
1000
MTEXTEND
  0
POINT
  5
21D3
330
2198
100
AcDbEntity
  8
Defpoints
 62
     0
100
AcDbPoint
 10
5245.175065330684
 20
2914.84996997851
 30
0.0000017938277934
  0
POINT
  5
21D4
330
2198
100
AcDbEntity
  8
Defpoints
 62
     0
100
AcDbPoint
 10
5823.570378265799
 20
2619.84996996884
 30
0.0000000000320743
  0
POINT
  5
21D5
330
2198
100
AcDbEntity
  8
Defpoints
 62
     0
100
AcDbPoint
 10
5195.175065330684
 20
2619.84996996884
 30
0.0
  0
ENDBLK
  5
21A3
330
2198
100
AcDbEntity
  8
0
100
AcDbBlockEnd
  0
BLOCK
  5
21AE
330
21A4
100
AcDbEntity
  8
0
100
AcDbBlockBegin
  2
*D18
 70
     1
 10
0.0
 20
0.0
 30
0.0
  3
*D18
  1

  0
LINE
  5
21D6
330
21A4
100
AcDbEntity
  8
7
100
AcDbLine
 10
6645.170265330683
 20
2914.849969978463
 30
0.0
 11
6705.498718070484
 21
2914.849969978463
 31
0.0
  0
LINE
  5
21D7
330
21A4
100
AcDbEntity
  8
7
100
AcDbLine
 10
6651.640121597089
 20
1064.84996997851
 30
0.0
 11
6705.498718070483
 21
1064.84996997851
 31
0.0
  0
LINE
  5
21D8
330
21A4
100
AcDbEntity
  8
7
100
AcDbLine
 10
6695.498718070483
 20
2894.849969978463
 30
0.0
 11
6695.498718070483
 21
1084.84996997851
 31
0.0
  0
SOLID
  5
21D9
330
21A4
100
AcDbEntity
  8
7
100
AcDbTrace
 10
6692.165384737151
 20
2894.849969978463
 30
0.0
 11
6698.832051403816
 21
2894.849969978463
 31
0.0
 12
6695.498718070483
 22
2914.849969978463
 32
0.0
 13
6695.498718070483
 23
2914.849969978463
 33
0.0
  0
SOLID
  5
21DA
330
21A4
100
AcDbEntity
  8
7
100
AcDbTrace
 10
6692.16538473715
 20
1084.84996997851
 30
0.0
 11
6698.832051403816
 21
1084.84996997851
 31
0.0
 12
6695.498718070483
 22
1064.84996997851
 32
0.0
 13
6695.498718070483
 23
1064.84996997851
 33
0.0
  0
MTEXT
  5
21DB
330
21A4
100
AcDbEntity
  8
7
100
AcDbMText
 10
6675.042035733344
 20
1989.849969978487
 30
0.0
 40
20.0
 41
0.0
 71
     5
 72
     1
  1
1850
  7
SANINDUSA
 11
0.0000000000000001
 21
1.0
 31
0.0
 73
     1
 44
1.0
1001
ACAD
1000
MTEXTBEGIN
1070
    73
1070
     1
1070
    44
1040
1.0
1070
    74
1070
     0
1000
MTEXTEND
  0
POINT
  5
21DC
330
21A4
100
AcDbEntity
  8
Defpoints
 62
     0
100
AcDbPoint
 10
6635.170265330684
 20
2914.849969978463
 30
0.0
  0
POINT
  5
21DD
330
21A4
100
AcDbEntity
  8
Defpoints
 62
     0
100
AcDbPoint
 10
6641.640121597089
 20
1064.84996997851
 30
0.0
  0
POINT
  5
21DE
330
21A4
100
AcDbEntity
  8
Defpoints
 62
     0
100
AcDbPoint
 10
6695.498718070483
 20
1064.84996997851
 30
0.0
  0
ENDBLK
  5
21AF
330
21A4
100
AcDbEntity
  8
0
100
AcDbBlockEnd
  0
BLOCK
  5
232D
330
2323
100
AcDbEntity
  8
0
100
AcDbBlockBegin
  2
*D19
 70
     1
 10
0.0
 20
0.0
 30
0.0
  3
*D19
  1

  0
LINE
  5
233A
330
2323
100
AcDbEntity
  8
7
100
AcDbLine
 10
4029.11372190223
 20
2089.074775546539
 30
0.0
 11
3964.081860852827
 21
2089.074775546539
 31
0.0
  0
LINE
  5
233B
330
2323
100
AcDbEntity
  8
7
100
AcDbLine
 10
4036.613721902226
 20
2780.730074733695
 30
0.0
 11
3964.081860852827
 21
2780.730074733695
 31
0.0
  0
LINE
  5
233C
330
2323
100
AcDbEntity
  8
7
100
AcDbLine
 10
3974.081860852827
 20
2109.074775546539
 30
0.0
 11
3974.081860852827
 21
2760.730074733695
 31
0.0
  0
SOLID
  5
233D
330
2323
100
AcDbEntity
  8
7
100
AcDbTrace
 10
3970.748527519493
 20
2109.074775546539
 30
0.0
 11
3977.415194186161
 21
2109.074775546539
 31
0.0
 12
3974.081860852827
 22
2089.074775546539
 32
0.0
 13
3974.081860852827
 23
2089.074775546539
 33
0.0
  0
SOLID
  5
233E
330
2323
100
AcDbEntity
  8
7
100
AcDbTrace
 10
3970.748527519493
 20
2760.730074733695
 30
0.0
 11
3977.415194186161
 21
2760.730074733695
 31
0.0
 12
3974.081860852827
 22
2780.730074733695
 32
0.0
 13
3974.081860852827
 23
2780.730074733695
 33
0.0
  0
MTEXT
  5
233F
330
2323
100
AcDbEntity
  8
7
100
AcDbMText
 10
3953.665474016024
 20
2434.902425140118
 30
0.0
 40
20.0
 41
0.0
 71
     5
 72
     1
  1
420 - 720
  7
SANINDUSA
 11
0.0000000000000001
 21
1.0
 31
0.0
 73
     1
 44
1.0
1001
ACAD
1000
MTEXTBEGIN
1070
    73
1070
     1
1070
    44
1040
1.0
1070
    74
1070
     0
1000
MTEXTEND
  0
POINT
  5
2340
330
2323
100
AcDbEntity
  8
Defpoints
 62
     0
100
AcDbPoint
 10
4039.113721902229
 20
2089.074775546539
 30
0.0000001479286265
  0
POINT
  5
2341
330
2323
100
AcDbEntity
  8
Defpoints
 62
     0
100
AcDbPoint
 10
4046.613721902226
 20
2780.730074733695
 30
0.0
  0
POINT
  5
2342
330
2323
100
AcDbEntity
  8
Defpoints
 62
     0
100
AcDbPoint
 10
3974.081860852827
 20
2780.730074733695
 30
0.0
  0
ENDBLK
  5
232E
330
2323
100
AcDbEntity
  8
0
100
AcDbBlockEnd
  0
BLOCK
  5
234E
330
2344
100
AcDbEntity
  8
0
100
AcDbBlockBegin
  2
*D20
 70
     1
 10
0.0
 20
0.0
 30
0.0
  3
*D20
  1

  0
LINE
  5
236E
330
2344
100
AcDbEntity
  8
7
100
AcDbLine
 10
5245.175065330684
 20
2924.849969978514
 30
0.0
 11
5245.175065330684
 21
2974.849969978503
 31
0.0
  0
LINE
  5
236F
330
2344
100
AcDbEntity
  8
7
100
AcDbLine
 10
6645.498718070483
 20
2924.849969978503
 30
0.0
 11
6645.498718070483
 21
2974.849969978503
 31
0.0
  0
LINE
  5
2370
330
2344
100
AcDbEntity
  8
7
100
AcDbLine
 10
5265.175065330685
 20
2964.849969978502
 30
0.0
 11
6625.498718070483
 21
2964.849969978502
 31
0.0
  0
SOLID
  5
2371
330
2344
100
AcDbEntity
  8
7
100
AcDbTrace
 10
5265.175065330685
 20
2968.183303311836
 30
0.0
 11
5265.175065330685
 21
2961.516636645169
 31
0.0
 12
5245.175065330684
 22
2964.849969978502
 32
0.0
 13
5245.175065330684
 23
2964.849969978502
 33
0.0
  0
SOLID
  5
2372
330
2344
100
AcDbEntity
  8
7
100
AcDbTrace
 10
6625.498718070483
 20
2968.183303311836
 30
0.0
 11
6625.498718070483
 21
2961.516636645169
 31
0.0
 12
6645.498718070483
 22
2964.849969978502
 32
0.0
 13
6645.498718070483
 23
2964.849969978502
 33
0.0
  0
MTEXT
  5
2373
330
2344
100
AcDbEntity
  8
7
100
AcDbMText
 10
5945.336891700584
 20
2985.306652315642
 30
0.0
 40
20.0
 41
0.0
 71
     5
 72
     1
  1
1380 - 1410
  7
SANINDUSA
 73
     1
 44
1.0
1001
ACAD
1000
MTEXTBEGIN
1070
    73
1070
     1
1070
    44
1040
1.0
1070
    74
1070
     0
1000
MTEXTEND
  0
POINT
  5
2374
330
2344
100
AcDbEntity
  8
Defpoints
 62
     0
100
AcDbPoint
 10
5245.175065330684
 20
2914.849969978515
 30
0.0
  0
POINT
  5
2375
330
2344
100
AcDbEntity
  8
Defpoints
 62
     0
100
AcDbPoint
 10
6645.498718070483
 20
2914.849969978503
 30
0.0
  0
POINT
  5
2376
330
2344
100
AcDbEntity
  8
Defpoints
 62
     0
100
AcDbPoint
 10
6645.498718070483
 20
2964.849969978502
 30
0.0
  0
ENDBLK
  5
234F
330
2344
100
AcDbEntity
  8
0
100
AcDbBlockEnd
  0
BLOCK
  5
23D8
330
23D7
100
AcDbEntity
  8
0
100
AcDbBlockBegin
  2
*D22
 70
     1
 10
0.0
 20
0.0
 30
0.0
  3
*D22
  1

  0
LINE
  5
23E4
330
23D7
100
AcDbEntity
  8
7
100
AcDbLine
 10
6655.498718070482
 20
2914.849969978503
 30
0.0
 11
6828.147475787777
 21
2914.849969978503
 31
0.0
  0
LINE
  5
23E5
330
23D7
100
AcDbEntity
  8
7
100
AcDbLine
 10
6655.498718070482
 20
1064.849969978503
 30
0.0
 11
6828.147475787777
 21
1064.849969978502
 31
0.0
  0
LINE
  5
23E6
330
23D7
100
AcDbEntity
  8
7
100
AcDbLine
 10
6818.147475787778
 20
2894.849969978503
 30
0.0
 11
6818.147475787776
 21
1084.849969978502
 31
0.0
  0
SOLID
  5
23E7
330
23D7
100
AcDbEntity
  8
7
100
AcDbTrace
 10
6814.814142454444
 20
2894.849969978503
 30
0.0
 11
6821.480809121111
 21
2894.849969978503
 31
0.0
 12
6818.147475787778
 22
2914.849969978503
 32
0.0
 13
6818.147475787778
 23
2914.849969978503
 33
0.0
  0
SOLID
  5
23E8
330
23D7
100
AcDbEntity
  8
7
100
AcDbTrace
 10
6814.814142454443
 20
1084.849969978502
 30
0.0
 11
6821.480809121109
 21
1084.849969978502
 31
0.0
 12
6818.147475787776
 22
1064.849969978502
 32
0.0
 13
6818.147475787776
 23
1064.849969978502
 33
0.0
  0
MTEXT
  5
23E9
330
23D7
100
AcDbEntity
  8
7
100
AcDbMText
 10
6797.690793450638
 20
1989.849969978503
 30
0.0
 40
20.0
 41
0.0
 71
     5
 72
     1
  1
1850
  7
SANINDUSA
 11
0.0000000000000001
 21
1.0
 31
0.0
 73
     1
 44
1.0
1001
ACAD
1000
MTEXTBEGIN
1070
    73
1070
     1
1070
    44
1040
1.0
1070
    74
1070
     0
1000
MTEXTEND
  0
POINT
  5
23EA
330
23D7
100
AcDbEntity
  8
Defpoints
 62
     0
100
AcDbPoint
 10
6645.498718070483
 20
2914.849969978503
 30
0.0
  0
POINT
  5
23EB
330
23D7
100
AcDbEntity
  8
Defpoints
 62
     0
100
AcDbPoint
 10
6645.498718070483
 20
1064.849969978503
 30
0.0
  0
POINT
  5
23EC
330
23D7
100
AcDbEntity
  8
Defpoints
 62
     0
100
AcDbPoint
 10
6818.147475787776
 20
1064.849969978502
 30
0.0
  0
ENDBLK
  5
23D9
330
23D7
100
AcDbEntity
  8
0
100
AcDbBlockEnd
  0
BLOCK
  5
23F6
330
23F5
100
AcDbEntity
  8
0
100
AcDbBlockBegin
  2
*D23
 70
     1
 10
0.0
 20
0.0
 30
0.0
  3
*D23
  1

  0
LINE
  5
2404
330
23F5
100
AcDbEntity
  8
7
100
AcDbLine
 10
5073.19793328465
 20
1946.654565225053
 30
0.0
 11
5072.991382372909
 21
1946.654565225053
 31
0.0
  0
LINE
  5
2405
330
23F5
100
AcDbEntity
  8
7
100
AcDbLine
 10
5073.19793328465
 20
1944.804565225053
 30
0.0
 11
5072.991382372909
 21
1944.804565225053
 31
0.0
  0
LINE
  5
2406
330
23F5
100
AcDbEntity
  8
7
100
AcDbLine
 10
5082.99138237291
 20
1966.654565225053
 30
0.0
 11
5082.99138237291
 21
1986.654565225053
 31
0.0
  0
LINE
  5
2407
330
23F5
100
AcDbEntity
  8
7
100
AcDbLine
 10
5082.99138237291
 20
1924.804565225053
 30
0.0
 11
5082.99138237291
 21
1845.368702229754
 31
0.0
  0
LINE
  5
2408
330
23F5
100
AcDbEntity
  8
7
100
AcDbLine
 10
5082.99138237291
 20
1946.654565225053
 30
0.0
 11
5082.99138237291
 21
1944.804565225053
 31
0.0
  0
SOLID
  5
2409
330
23F5
100
AcDbEntity
  8
7
100
AcDbTrace
 10
5079.658049039576
 20
1966.654565225053
 30
0.0
 11
5086.324715706243
 21
1966.654565225053
 31
0.0
 12
5082.99138237291
 22
1946.654565225053
 32
0.0
 13
5082.99138237291
 23
1946.654565225053
 33
0.0
  0
SOLID
  5
240A
330
23F5
100
AcDbEntity
  8
7
100
AcDbTrace
 10
5079.658049039576
 20
1924.804565225053
 30
0.0
 11
5086.324715706243
 21
1924.804565225053
 31
0.0
 12
5082.99138237291
 22
1944.804565225053
 32
0.0
 13
5082.99138237291
 23
1944.804565225053
 33
0.0
  0
MTEXT
  5
240B
330
23F5
100
AcDbEntity
  8
7
100
AcDbMText
 10
5060.305015683856
 20
1875.086633727404
 30
0.0
 40
20.0
 41
0.0
 71
     5
 72
     1
  1
1,9
  7
SANINDUSA
 11
0.0000000000000001
 21
1.0
 31
0.0
 73
     1
 44
1.0
1001
ACAD
1000
MTEXTBEGIN
1070
    73
1070
     1
1070
    44
1040
1.0
1070
    74
1070
     0
1000
MTEXTEND
  0
POINT
  5
240C
330
23F5
100
AcDbEntity
  8
Defpoints
 62
     0
100
AcDbPoint
 10
5083.197933284651
 20
1946.654565225053
 30
0.0
  0
POINT
  5
240D
330
23F5
100
AcDbEntity
  8
Defpoints
 62
     0
100
AcDbPoint
 10
5083.197933284651
 20
1944.804565225053
 30
0.0
  0
POINT
  5
240E
330
23F5
100
AcDbEntity
  8
Defpoints
 62
     0
100
AcDbPoint
 10
5082.99138237291
 20
1944.804565225053
 30
0.0
  0
ENDBLK
  5
23F7
330
23F5
100
AcDbEntity
  8
0
100
AcDbBlockEnd
  0
ENDSEC
  0
SECTION
  2
ENTITIES
  0
LINE
  5
1B6E
330
1F
100
AcDbEntity
  8
SANINDUSA
100
AcDbLine
 10
5082.294871941222
 20
1945.54875348534
 30
0.0000000001479285
 11
5082.894871941221
 21
1945.54875348534
 31
0.0000000001479285
  0
LINE
  5
1B6F
330
1F
100
AcDbEntity
  8
SANINDUSA
100
AcDbLine
 10
5082.278371941222
 20
1945.545353429236
 30
0.0000000001479286
 11
5082.293371986818
 21
1945.545353429236
 31
0.0000000001479286
  0
LINE
  5
1B70
330
1F
100
AcDbEntity
  8
SANINDUSA
100
AcDbLine
 10
5082.226371941222
 20
1945.537353429236
 30
0.0000000001479286
 11
5082.285371941221
 21
1945.537353429236
 31
0.0000000001479286
  0
LINE
  5
1B71
330
1F
100
AcDbEntity
  8
SANINDUSA
100
AcDbLine
 10
5082.302260830111
 20
1945.537353429237
 30
0.0000000001479286
 11
5082.302260830111
 21
1945.54535348153
 31
0.0000000001479286
  0
CIRCLE
  5
1B72
330
1F
100
AcDbEntity
  8
SANINDUSA
100
AcDbCircle
 10
5082.293371941222
 20
1945.537353429237
 30
0.0000000001479286
 40
0.008
  0
LINE
  5
1B73
330
1F
100
AcDbEntity
  8
SANINDUSA
100
AcDbLine
 10
5082.284483052333
 20
1945.537353429236
 30
0.0000000001479286
 11
5082.284483052333
 21
1945.545353429236
 31
0.0000000001479286
  0
LINE
  5
1B74
330
1F
100
AcDbEntity
  8
SANINDUSA
100
AcDbLine
 10
5082.361371941221
 20
1945.54735348153
 30
0.0000000001479286
 11
5082.361371941221
 21
1945.538353429236
 31
0.0000000001479286
  0
LINE
  5
1B75
330
1F
100
AcDbEntity
  8
SANINDUSA
100
AcDbLine
 10
5082.302260830111
 20
1945.537353429237
 30
0.0000000001479286
 11
5082.360371941223
 21
1945.537353429237
 31
0.0000000001479286
  0
ARC
  5
1B76
330
1F
100
AcDbEntity
  8
SANINDUSA
100
AcDbCircle
 10
5082.360371941223
 20
1945.538353429236
 30
0.0000000001479286
 40
0.001
100
AcDbArc
 50
270.0
 51
0.0
  0
LINE
  5
1B77
330
1F
100
AcDbEntity
  8
SANINDUSA
100
AcDbLine
 10
5082.361371941221
 20
1945.54735348153
 30
0.0000000001479286
 11
5082.308371941222
 21
1945.54735348153
 31
0.0000000001479286
  0
LWPOLYLINE
  5
1B78
330
1F
100
AcDbEntity
  8
SANINDUSA
100
AcDbPolyline
 90
        2
 70
     0
 43
0.0
 38
0.0000000001479285
 10
5082.308371941222
 20
1945.54855348153
 10
5082.361371941221
 20
1945.54855348153
1001
GENIUS_GENREC_14
1002
{
1000
PYDIR
1011
5082.062089684143
1021
1944.514323625518
1031
0.0000000001479286
1002
}
1002
{
1000
PXDIR
1011
5082.009089684142
1021
1944.515323625518
1031
0.0000000001479286
1002
}
1002
{
1000
PORI
1011
5082.062089684143
1021
1944.515323625518
1031
0.0000000001479286
1002
}
1002
{
1000
PINS
1011
5082.062089684143
1021
1944.515323625518
1031
0.0000000001479286
1002
}
1002
{
1000
PINS2
1011
5082.009089684142
1021
1944.514323625518
1031
0.0000000001479286
1002
}
1002
{
1000
C
1070
     1
1002
}
1001
GENIUS_GENODEF_13
1002
{
1000
HIER
1070
     0
1002
}
1002
{
1000
MANEDIT
1070
     0
1002
}
1002
{
1000
NOSEL
1070
     0
1002
}
1002
{
1000
BEHIND
1070
     0
1002
}
1002
{
1000
REACTOR
1002
}
1001
GENIUS_GENOBJ-N-REC_13
1002
{
1000
OWNER
1000
GEN
1002
}
  0
LWPOLYLINE
  5
1B79
330
1F
100
AcDbEntity
  8
SANINDUSA
100
AcDbPolyline
 90
        2
 70
     0
 43
0.0
 38
0.0000000001479285
 10
5082.361371941221
 20
1945.54755348153
 10
5082.308371941222
 20
1945.54755348153
1001
GENIUS_GENREC_14
1002
{
1000
PYDIR
1011
5082.062089684143
1021
1944.514323625518
1031
0.0000000001479286
1002
}
1002
{
1000
PXDIR
1011
5082.009089684142
1021
1944.515323625518
1031
0.0000000001479286
1002
}
1002
{
1000
PORI
1011
5082.062089684143
1021
1944.515323625518
1031
0.0000000001479286
1002
}
1002
{
1000
PINS
1011
5082.062089684143
1021
1944.515323625518
1031
0.0000000001479286
1002
}
1002
{
1000
PINS2
1011
5082.009089684142
1021
1944.514323625518
1031
0.0000000001479286
1002
}
1002
{
1000
C
1070
     1
1002
}
1001
GENIUS_GENODEF_13
1002
{
1000
HIER
1070
     0
1002
}
1002
{
1000
MANEDIT
1070
     0
1002
}
1002
{
1000
NOSEL
1070
     0
1002
}
1002
{
1000
BEHIND
1070
     0
1002
}
1002
{
1000
REACTOR
1002
}
1001
GENIUS_GENOBJ-N-REC_13
1002
{
1000
OWNER
1000
GEN
1002
}
  0
LINE
  5
1B7A
330
1F
100
AcDbEntity
  8
SANINDUSA
100
AcDbLine
 10
5082.360371941223
 20
1945.56115348153
 30
0.0000000001479286
 11
5082.309371941222
 21
1945.56115348153
 31
0.0000000001479286
  0
LINE
  5
1B7B
330
1F
100
AcDbEntity
  8
SANINDUSA
100
AcDbLine
 10
5082.308371941222
 20
1945.55615348153
 30
0.0000000001479286
 11
5082.361371941221
 21
1945.55615348153
 31
0.0000000001479286
  0
LWPOLYLINE
  5
1B7C
330
1F
100
AcDbEntity
  8
SANINDUSA
100
AcDbPolyline
 90
        4
 70
     1
 43
0.0
 38
0.0000000001479285
 10
5082.361371941221
 20
1945.55595348153
 10
5082.308371941222
 20
1945.55595348153
 10
5082.308371941222
 20
1945.55495348153
 10
5082.361371941221
 20
1945.55495348153
1001
GENIUS_GENREC_14
1002
{
1000
PYDIR
1011
5082.062089684143
1021
1944.514123625518
1031
0.0000000001479286
1002
}
1002
{
1000
PXDIR
1011
5082.009089684142
1021
1944.515123625517
1031
0.0000000001479286
1002
}
1002
{
1000
PORI
1011
5082.062089684143
1021
1944.515123625517
1031
0.0000000001479286
1002
}
1002
{
1000
PINS
1011
5082.062089684143
1021
1944.515123625517
1031
0.0000000001479286
1002
}
1002
{
1000
PINS2
1011
5082.009089684142
1021
1944.514123625518
1031
0.0000000001479286
1002
}
1002
{
1000
C
1070
     1
1002
}
1001
GENIUS_GENODEF_13
1002
{
1000
HIER
1070
     0
1002
}
1002
{
1000
MANEDIT
1070
     0
1002
}
1002
{
1000
NOSEL
1070
     0
1002
}
1002
{
1000
BEHIND
1070
     0
1002
}
1002
{
1000
REACTOR
1002
}
1001
GENIUS_GENOBJ-N-REC_13
1002
{
1000
OWNER
1000
GEN
1002
}
  0
LINE
  5
1B7D
330
1F
100
AcDbEntity
  8
SANINDUSA
100
AcDbLine
 10
5082.361371941221
 20
1945.54855348153
 30
0.0000000001479286
 11
5082.361371941221
 21
1945.54755348153
 31
0.0000000001479286
1001
GENIUS_GENREC_14
1002
{
1000
PYDIR
1011
5082.361371941221
1021
1945.54855348153
1031
0.0000000001479286
1002
}
1002
{
1000
PXDIR
1011
5082.308371941222
1021
1945.54755348153
1031
0.0000000001479286
1002
}
1002
{
1000
PORI
1011
5082.361371941221
1021
1945.54755348153
1031
0.0000000001479286
1002
}
1002
{
1000
PINS
1011
5082.361371941221
1021
1945.54755348153
1031
0.0000000001479286
1002
}
1002
{
1000
PINS2
1011
5082.308371941222
1021
1945.54855348153
1031
0.0000000001479286
1002
}
1002
{
1000
C
1070
     1
1002
}
1001
GENIUS_GENODEF_13
1002
{
1000
HIER
1070
     0
1002
}
1002
{
1000
MANEDIT
1070
     0
1002
}
1002
{
1000
NOSEL
1070
     0
1002
}
1002
{
1000
BEHIND
1070
     0
1002
}
1002
{
1000
REACTOR
1002
}
1001
GENIUS_GENOBJ-N-REC_13
1002
{
1000
OWNER
1000
GEN
1002
}
  0
ARC
  5
1B7E
330
1F
100
AcDbEntity
  8
SANINDUSA
100
AcDbCircle
 10
5082.360371941223
 20
1945.56015348153
 30
0.0000000001479286
 40
0.001
100
AcDbArc
 50
0.0
 51
90.0
  0
LINE
  5
1B7F
330
1F
100
AcDbEntity
  8
SANINDUSA
100
AcDbLine
 10
5082.361371941221
 20
1945.55615348153
 30
0.0000000001479286
 11
5082.361371941221
 21
1945.56015348153
 31
0.0000000001479286
  0
LINE
  5
1B80
330
1F
100
AcDbEntity
  8
SANINDUSA
100
AcDbLine
 10
5082.301721484219
 20
1945.55475726673
 30
0.0000000001479285
 11
5082.303797812574
 21
1945.55504907565
 31
0.0000000001479285
  0
LINE
  5
1B81
330
1F
100
AcDbEntity
  8
SANINDUSA
100
AcDbLine
 10
5082.306724080567
 20
1945.554869119671
 30
0.0000000001479285
 11
5082.306724080567
 21
1945.554162364037
 31
0.0000000001479285
  0
ARC
  5
1B82
330
1F
100
AcDbEntity
  8
SANINDUSA
100
AcDbCircle
 10
5082.303829303652
 20
1945.555204975569
 30
0.0000000001479285
 40
0.0004999999999883
100
AcDbArc
 50
278.0000000110051
 51
331.8736260450295
  0
ARC
  5
1B83
330
1F
100
AcDbEntity
  8
SANINDUSA
100
AcDbCircle
 10
5082.304124080568
 20
1945.554387345692
 30
0.0000000001479285
 40
0.0006000000000005
100
AcDbArc
 50
32.46948080063537
 51
75.89910821324153
  0
ARC
  5
1B84
330
1F
100
AcDbEntity
  8
SANINDUSA
100
AcDbCircle
 10
5082.297263467701
 20
1945.5550032152
 30
0.0000000001479285
 40
0.00075
100
AcDbArc
 50
170.6591658906739
 51
350.6591658906739
  0
LINE
  5
1B85
330
1F
100
AcDbEntity
  8
SANINDUSA
100
AcDbLine
 10
5082.293724080567
 20
1945.557353485339
 30
0.0000000001479285
 11
5082.293724080567
 21
1945.54615348534
 31
0.0000000001479285
  0
LINE
  5
1B86
330
1F
100
AcDbEntity
  8
SANINDUSA
100
AcDbLine
 10
5082.294871941222
 20
1945.55544991579
 30
0.0000000001479285
 11
5082.294871941222
 21
1945.54805705489
 31
0.0000000001479285
  0
ARC
  5
1B87
330
1F
100
AcDbEntity
  8
SANINDUSA
100
AcDbCircle
 10
5082.292886388261
 20
1945.55175348534
 30
0.0000000001479285
 40
0.0056623076923077
100
AcDbArc
 50
81.49232710825302
 51
278.507672891747
  0
ARC
  5
1B88
330
1F
100
AcDbEntity
  8
SANINDUSA
100
AcDbCircle
 10
5082.292886388261
 20
1945.55175348534
 30
0.0000000001479285
 40
0.0052623076923077
100
AcDbArc
 50
81.49232710825302
 51
278.507672891747
  0
LINE
  5
1B89
330
1F
100
AcDbEntity
  8
SANINDUSA
100
AcDbLine
 10
5082.308371941222
 20
1945.54535348153
 30
0.0000000001479286
 11
5082.293371941222
 21
1945.545353429237
 31
0.0000000001479286
  0
LINE
  5
1B8A
330
1F
100
AcDbEntity
  8
SANINDUSA
100
AcDbLine
 10
5082.308371941222
 20
1945.54755348153
 30
0.0000000001479286
 11
5082.308371941222
 21
1945.54855348153
 31
0.0000000001479286
1001
GENIUS_GENREC_14
1002
{
1000
PYDIR
1011
5082.361371941221
1021
1945.54855348153
1031
0.0000000001479286
1002
}
1002
{
1000
PXDIR
1011
5082.308371941222
1021
1945.54755348153
1031
0.0000000001479286
1002
}
1002
{
1000
PORI
1011
5082.361371941221
1021
1945.54755348153
1031
0.0000000001479286
1002
}
1002
{
1000
PINS
1011
5082.361371941221
1021
1945.54755348153
1031
0.0000000001479286
1002
}
1002
{
1000
PINS2
1011
5082.308371941222
1021
1945.54855348153
1031
0.0000000001479286
1002
}
1002
{
1000
C
1070
     1
1002
}
1001
GENIUS_GENODEF_13
1002
{
1000
HIER
1070
     0
1002
}
1002
{
1000
MANEDIT
1070
     0
1002
}
1002
{
1000
NOSEL
1070
     0
1002
}
1002
{
1000
BEHIND
1070
     0
1002
}
1002
{
1000
REACTOR
1002
}
1001
GENIUS_GENOBJ-N-REC_13
1002
{
1000
OWNER
1000
GEN
1002
}
  0
LINE
  5
1B8B
330
1F
100
AcDbEntity
  8
SANINDUSA
100
AcDbLine
 10
5082.308371941222
 20
1945.54735348153
 30
0.0000000001479286
 11
5082.308371941222
 21
1945.54535348153
 31
0.0000000001479286
  0
LINE
  5
1B8C
330
1F
100
AcDbEntity
  8
SANINDUSA
100
AcDbLine
 10
5082.294871941222
 20
1945.55475348534
 30
0.0000000001479285
 11
5082.294871941222
 21
1945.54875348534
 31
0.0000000001479285
  0
LINE
  5
1B8D
330
1F
100
AcDbEntity
  8
SANINDUSA
100
AcDbLine
 10
5082.291871941222
 20
1945.55475348153
 30
0.0000000001479286
 11
5082.291871941222
 21
1945.54875348153
 31
0.0000000001479286
1001
GENIUS_GENREC_14
1002
{
1000
PYDIR
1011
5082.444871941222
1021
1945.54855348153
1031
0.0000000001479286
1002
}
1002
{
1000
PXDIR
1011
5082.294871941222
1021
1945.55455348153
1031
0.0000000001479286
1002
}
1002
{
1000
PORI
1011
5082.444871941222
1021
1945.55455348153
1031
0.0000000001479286
1002
}
1002
{
1000
PINS
1011
5082.444871941222
1021
1945.55455348153
1031
0.0000000001479286
1002
}
1002
{
1000
PINS2
1011
5082.294871941222
1021
1945.54875348153
1031
0.0000000001479286
1002
}
1002
{
1000
C
1070
     1
1002
}
1001
GENIUS_GENODEF_13
1002
{
1000
HIER
1070
     0
1002
}
1002
{
1000
MANEDIT
1070
     0
1002
}
1002
{
1000
NOSEL
1070
     0
1002
}
1002
{
1000
BEHIND
1070
     0
1002
}
1002
{
1000
REACTOR
1002
}
1001
GENIUS_GENOBJ-N-REC_13
1002
{
1000
OWNER
1000
GEN
1002
}
  0
LINE
  5
1B8E
330
1F
100
AcDbEntity
  8
SANINDUSA
100
AcDbLine
 10
5082.306221464829
 20
1945.548045806833
 30
0.0000000001479285
 11
5082.294717163147
 21
1945.54615348534
 31
0.0000000001479285
  0
LINE
  5
1B8F
330
1F
100
AcDbEntity
  8
SANINDUSA
100
AcDbLine
 10
5082.303797812574
 20
1945.548457895029
 30
0.0000000001479285
 11
5082.301721484219
 21
1945.548749703949
 31
0.0000000001479285
  0
LINE
  5
1B90
330
1F
100
AcDbEntity
  8
SANINDUSA
100
AcDbLine
 10
5082.30142146483
 20
1945.548067013945
 30
0.0000000001479285
 11
5082.303797812574
 21
1945.548457895029
 31
0.0000000001479285
  0
LINE
  5
1B91
330
1F
100
AcDbEntity
  8
SANINDUSA
100
AcDbLine
 10
5082.303898890203
 20
1945.554709841535
 30
0.0000000001479285
 11
5082.301770194804
 21
1945.554410672906
 31
0.0000000001479285
  0
LINE
  5
1B92
330
1F
100
AcDbEntity
  8
SANINDUSA
100
AcDbLine
 10
5082.301770194804
 20
1945.549096297773
 30
0.0000000001479285
 11
5082.303898890203
 21
1945.548797129145
 31
0.0000000001479285
  0
LINE
  5
1B93
330
1F
100
AcDbEntity
  8
SANINDUSA
100
AcDbLine
 10
5082.306724080567
 20
1945.554162364037
 30
0.0000000001479285
 11
5082.305039109336
 21
1945.554439521866
 31
0.0000000001479285
  0
ARC
  5
1B94
330
1F
100
AcDbEntity
  8
SANINDUSA
100
AcDbCircle
 10
5082.305136493597
 20
1945.555031566041
 30
0.0000000001479285
 40
0.0006
100
AcDbArc
 50
212.4694808006354
 51
260.6591658799336
  0
ARC
  5
1B95
330
1F
100
AcDbEntity
  8
SANINDUSA
100
AcDbCircle
 10
5082.306124080568
 20
1945.548637851008
 30
0.0000000001479285
 40
0.0006
100
AcDbArc
 50
279.3408341200664
 51
0.0
  0
ARC
  5
1B96
330
1F
100
AcDbEntity
  8
SANINDUSA
100
AcDbCircle
 10
5082.304124080568
 20
1945.549119624987
 30
0.0000000001479285
 40
0.0005999999999989
100
AcDbArc
 50
284.1008917867585
 51
327.5305191993646
  0
LINE
  5
1B97
330
1F
100
AcDbEntity
  8
SANINDUSA
100
AcDbLine
 10
5082.305039109336
 20
1945.549067448814
 30
0.0000000001479285
 11
5082.306724080567
 21
1945.549344606643
 31
0.0000000001479285
  0
LINE
  5
1B98
330
1F
100
AcDbEntity
  8
SANINDUSA
100
AcDbLine
 10
5082.306724080567
 20
1945.549344606643
 30
0.0000000001479285
 11
5082.306724080567
 21
1945.548637851008
 31
0.0000000001479285
  0
ARC
  5
1B99
330
1F
100
AcDbEntity
  8
SANINDUSA
100
AcDbCircle
 10
5082.305136493597
 20
1945.548475404638
 30
0.0000000001479285
 40
0.0006
100
AcDbArc
 50
99.34083412006643
 51
147.5305191993646
  0
ARC
  5
1B9A
330
1F
100
AcDbEntity
  8
SANINDUSA
100
AcDbCircle
 10
5082.303829303652
 20
1945.548301995111
 30
0.0000000001479285
 40
0.0005
100
AcDbArc
 50
28.12637395497053
 51
81.99999998899484
  0
ARC
  5
1B9B
330
1F
100
AcDbEntity
  8
SANINDUSA
100
AcDbCircle
 10
5082.301745839511
 20
1945.554583969818
 30
0.0000000001479285
 40
0.000175
100
AcDbArc
 50
98.00000001100515
 51
278.0000000110051
  0
ARC
  5
1B9C
330
1F
100
AcDbEntity
  8
SANINDUSA
100
AcDbCircle
 10
5082.296070619111
 20
1945.548054186529
 30
0.0000000001479285
 40
0.0005
100
AcDbArc
 50
279.3408341200664
 51
9.340834109326083
  0
ARC
  5
1B9D
330
1F
100
AcDbEntity
  8
SANINDUSA
100
AcDbCircle
 10
5082.300571358902
 20
1945.547724494001
 30
0.0000000001479285
 40
0.0006000000000005
100
AcDbArc
 50
51.15114898646779
 51
99.34083412006643
  0
LINE
  5
1B9E
330
1F
100
AcDbEntity
  8
SANINDUSA
100
AcDbLine
 10
5082.298594617701
 20
1945.548007406199
 30
0.0000000001479285
 11
5082.30047397464
 21
1945.548316538176
 31
0.0000000001479285
  0
LINE
  5
1B9F
330
1F
100
AcDbEntity
  8
SANINDUSA
100
AcDbLine
 10
5082.29800352292
 20
1945.548625485805
 30
0.0000000001479285
 11
5082.298044099696
 21
1945.548378800732
 31
0.0000000001479285
  0
LINE
  5
1BA0
330
1F
100
AcDbEntity
  8
SANINDUSA
100
AcDbLine
 10
5082.296563989257
 20
1945.54813534008
 30
0.0000000001479285
 11
5082.296523412481
 21
1945.548382025153
 31
0.0000000001479285
  0
ARC
  5
1BA1
330
1F
100
AcDbEntity
  8
SANINDUSA
100
AcDbCircle
 10
5082.298513464151
 20
1945.548500776345
 30
0.0000000001479285
 40
0.0005
100
AcDbArc
 50
179.8634464257769
 51
279.3408341200664
  0
ARC
  5
1BA2
330
1F
100
AcDbEntity
  8
SANINDUSA
100
AcDbCircle
 10
5082.297263467701
 20
1945.548503755479
 30
0.0000000001479285
 40
0.00075
100
AcDbArc
 50
359.863446425777
 51
189.3408341093261
  0
ARC
  5
1BA3
330
1F
100
AcDbEntity
  8
SANINDUSA
100
AcDbCircle
 10
5082.301745839511
 20
1945.548923000861
 30
0.0000000001479285
 40
0.000175
100
AcDbArc
 50
81.99999998899484
 51
261.9999999889949
  0
ARC
  5
1BA4
330
1F
100
AcDbEntity
  8
SANINDUSA
100
AcDbCircle
 10
5082.301324080567
 20
1945.54865905812
 30
0.0000000001479285
 40
0.0006
100
AcDbArc
 50
231.1511489864678
 51
279.3408341200664
  0
LINE
  5
1BA5
330
1F
100
AcDbEntity
  8
SANINDUSA
100
AcDbLine
 10
5082.294717163147
 20
1945.54615348534
 30
0.0000000001479285
 11
5082.293724080567
 21
1945.54615348534
 31
0.0000000001479285
  0
LINE
  5
1BA6
330
1F
100
AcDbEntity
  8
SANINDUSA
100
AcDbLine
 10
5082.295569325482
 20
1945.547465010714
 30
0.0000000001479285
 11
5082.296151772662
 21
1945.547560816383
 31
0.0000000001479285
  0
ARC
  5
1BA7
330
1F
100
AcDbEntity
  8
SANINDUSA
100
AcDbCircle
 10
5082.295471941222
 20
1945.54805705489
 30
0.0000000001479285
 40
0.0006
100
AcDbArc
 50
180.0
 51
279.3408341200664
  0
ARC
  5
1BA8
330
1F
100
AcDbEntity
  8
SANINDUSA
100
AcDbCircle
 10
5082.309371941222
 20
1945.56015348153
 30
0.0000000001479286
 40
0.001
100
AcDbArc
 50
90.0
 51
180.0
  0
ARC
  5
1BA9
330
1F
100
AcDbEntity
  8
SANINDUSA
100
AcDbCircle
 10
5082.296070619111
 20
1945.555452784151
 30
0.0000000001479285
 40
0.0005
100
AcDbArc
 50
350.6591658906739
 51
80.65916587993356
  0
LINE
  5
1BAA
330
1F
100
AcDbEntity
  8
SANINDUSA
100
AcDbLine
 10
5082.294717163147
 20
1945.557353485339
 30
0.0000000001479285
 11
5082.293724080567
 21
1945.557353485339
 31
0.0000000001479285
  0
LINE
  5
1BAB
330
1F
100
AcDbEntity
  8
SANINDUSA
100
AcDbLine
 10
5082.296151772662
 20
1945.555946154297
 30
0.0000000001479285
 11
5082.295569325482
 21
1945.556041959965
 31
0.0000000001479285
  0
ARC
  5
1BAC
330
1F
100
AcDbEntity
  8
SANINDUSA
100
AcDbCircle
 10
5082.295471941222
 20
1945.55544991579
 30
0.0000000001479285
 40
0.0006
100
AcDbArc
 50
80.65916587993356
 51
180.0
  0
LINE
  5
1BAD
330
1F
100
AcDbEntity
  8
SANINDUSA
100
AcDbLine
 10
5082.303797812574
 20
1945.55504907565
 30
0.0000000001479285
 11
5082.30142146483
 21
1945.555439956734
 31
0.0000000001479285
  0
ARC
  5
1BAE
330
1F
100
AcDbEntity
  8
SANINDUSA
100
AcDbCircle
 10
5082.306124080568
 20
1945.554869119671
 30
0.0000000001479285
 40
0.0006
100
AcDbArc
 50
0.0
 51
80.65916587993356
  0
LINE
  5
1BAF
330
1F
100
AcDbEntity
  8
SANINDUSA
100
AcDbLine
 10
5082.296523412481
 20
1945.555124945526
 30
0.0000000001479285
 11
5082.296563989257
 21
1945.555371630599
 31
0.0000000001479285
  0
LINE
  5
1BB0
330
1F
100
AcDbEntity
  8
SANINDUSA
100
AcDbLine
 10
5082.298036929444
 20
1945.555084578654
 30
0.0000000001479285
 11
5082.29800352292
 21
1945.554881484874
 31
0.0000000001479285
  0
LINE
  5
1BB1
330
1F
100
AcDbEntity
  8
SANINDUSA
100
AcDbLine
 10
5082.30047397464
 20
1945.555190432503
 30
0.0000000001479285
 11
5082.298611453142
 21
1945.55549679525
 31
0.0000000001479285
  0
ARC
  5
1BB2
330
1F
100
AcDbEntity
  8
SANINDUSA
100
AcDbCircle
 10
5082.300571358902
 20
1945.555782476678
 30
0.0000000001479285
 40
0.0006000000000005
100
AcDbArc
 50
260.6591658799336
 51
308.8488510135322
  0
ARC
  5
1BB3
330
1F
100
AcDbEntity
  8
SANINDUSA
100
AcDbCircle
 10
5082.29853029959
 20
1945.555003425103
 30
0.0000000001479285
 40
0.0005
100
AcDbArc
 50
80.65916587993356
 51
170.6591658906739
  0
ARC
  5
1BB4
330
1F
100
AcDbEntity
  8
SANINDUSA
100
AcDbCircle
 10
5082.301324080567
 20
1945.554847912559
 30
0.0000000001479285
 40
0.0006
100
AcDbArc
 50
80.65916587993356
 51
128.8488510135322
  0
LINE
  5
1BB5
330
1F
100
AcDbEntity
  8
SANINDUSA
100
AcDbLine
 10
5082.294717163147
 20
1945.557353485339
 30
0.0000000001479285
 11
5082.306221464829
 21
1945.555461163846
 31
0.0000000001479285
  0
LINE
  5
1BB6
330
1F
100
AcDbEntity
  8
SANINDUSA
100
AcDbLine
 10
5082.308371941222
 20
1945.55615348153
 30
0.0000000001479286
 11
5082.308371941222
 21
1945.56015348153
 31
0.0000000001479286
  0
LINE
  5
1BB7
330
1F
100
AcDbEntity
  8
SANINDUSA
100
AcDbLine
 10
5082.225371941222
 20
1945.547353429236
 30
0.0000000001479286
 11
5082.225371941222
 21
1945.538353429236
 31
0.0000000001479286
  0
ARC
  5
1BB8
330
1F
100
AcDbEntity
  8
SANINDUSA
100
AcDbCircle
 10
5082.226371941222
 20
1945.538353429236
 30
0.0000000001479286
 40
0.001
100
AcDbArc
 50
180.0
 51
270.0
  0
LINE
  5
1BB9
330
1F
100
AcDbEntity
  8
SANINDUSA
100
AcDbLine
 10
5082.226371941222
 20
1945.56115348153
 30
0.0000000001479286
 11
5082.277371941222
 21
1945.56115348153
 31
0.0000000001479286
  0
LINE
  5
1BBA
330
1F
100
AcDbEntity
  8
SANINDUSA
100
AcDbLine
 10
5082.278371941222
 20
1945.55615348153
 30
0.0000000001479286
 11
5082.225371941222
 21
1945.55615348153
 31
0.0000000001479286
  0
LINE
  5
1BBB
330
1F
100
AcDbEntity
  8
SANINDUSA
100
AcDbLine
 10
5082.278371941222
 20
1945.547353429236
 30
0.0000000001479286
 11
5082.225371941222
 21
1945.547353429236
 31
0.0000000001479286
  0
LWPOLYLINE
  5
1BBC
330
1F
100
AcDbEntity
  8
SANINDUSA
100
AcDbPolyline
 90
        4
 70
     1
 43
0.0
 38
0.0000000001479285
 10
5082.225371941222
 20
1945.55595348153
 10
5082.278371941222
 20
1945.55595348153
 10
5082.278371941222
 20
1945.55495348153
 10
5082.225371941222
 20
1945.55495348153
1001
GENIUS_GENREC_14
1002
{
1000
PYDIR
1011
5082.361371941221
1021
1944.813405882597
1031
0.0000000001479286
1002
}
1002
{
1000
PXDIR
1011
5082.308371941222
1021
1944.814405882597
1031
0.0000000001479286
1002
}
1002
{
1000
PORI
1011
5082.361371941221
1021
1944.814405882597
1031
0.0000000001479286
1002
}
1002
{
1000
PINS
1011
5082.361371941221
1021
1944.814405882597
1031
0.0000000001479286
1002
}
1002
{
1000
PINS2
1011
5082.308371941222
1021
1944.813405882597
1031
0.0000000001479286
1002
}
1002
{
1000
C
1070
     1
1002
}
1001
GENIUS_GENODEF_13
1002
{
1000
HIER
1070
     0
1002
}
1002
{
1000
MANEDIT
1070
     0
1002
}
1002
{
1000
NOSEL
1070
     0
1002
}
1002
{
1000
BEHIND
1070
     0
1002
}
1002
{
1000
REACTOR
1002
}
1001
GENIUS_GENOBJ-N-REC_13
1002
{
1000
OWNER
1000
GEN
1002
}
  0
LWPOLYLINE
  5
1BBD
330
1F
100
AcDbEntity
  8
SANINDUSA
100
AcDbPolyline
 90
        2
 70
     0
 43
0.0
 38
0.0000000001479285
 10
5082.225371941222
 20
1945.54745348153
 10
5082.278371941222
 20
1945.54745348153
1001
GENIUS_GENREC_14
1002
{
1000
PYDIR
1011
5082.361371941221
1021
1944.813705882597
1031
0.0000000001479286
1002
}
1002
{
1000
PXDIR
1011
5082.308371941222
1021
1944.814705882597
1031
0.0000000001479286
1002
}
1002
{
1000
PORI
1011
5082.361371941221
1021
1944.814705882597
1031
0.0000000001479286
1002
}
1002
{
1000
PINS
1011
5082.361371941221
1021
1944.814705882597
1031
0.0000000001479286
1002
}
1002
{
1000
PINS2
1011
5082.308371941222
1021
1944.813705882597
1031
0.0000000001479286
1002
}
1002
{
1000
C
1070
     1
1002
}
1001
GENIUS_GENODEF_13
1002
{
1000
HIER
1070
     0
1002
}
1002
{
1000
MANEDIT
1070
     0
1002
}
1002
{
1000
NOSEL
1070
     0
1002
}
1002
{
1000
BEHIND
1070
     0
1002
}
1002
{
1000
REACTOR
1002
}
1001
GENIUS_GENOBJ-N-REC_13
1002
{
1000
OWNER
1000
GEN
1002
}
  0
LWPOLYLINE
  5
1BBE
330
1F
100
AcDbEntity
  8
SANINDUSA
100
AcDbPolyline
 90
        2
 70
     0
 43
0.0
 38
0.0000000001479285
 10
5082.278371941222
 20
1945.54845348153
 10
5082.225371941222
 20
1945.54845348153
1001
GENIUS_GENREC_14
1002
{
1000
PYDIR
1011
5082.361371941221
1021
1944.813705882597
1031
0.0000000001479286
1002
}
1002
{
1000
PXDIR
1011
5082.308371941222
1021
1944.814705882597
1031
0.0000000001479286
1002
}
1002
{
1000
PORI
1011
5082.361371941221
1021
1944.814705882597
1031
0.0000000001479286
1002
}
1002
{
1000
PINS
1011
5082.361371941221
1021
1944.814705882597
1031
0.0000000001479286
1002
}
1002
{
1000
PINS2
1011
5082.308371941222
1021
1944.813705882597
1031
0.0000000001479286
1002
}
1002
{
1000
C
1070
     1
1002
}
1001
GENIUS_GENODEF_13
1002
{
1000
HIER
1070
     0
1002
}
1002
{
1000
MANEDIT
1070
     0
1002
}
1002
{
1000
NOSEL
1070
     0
1002
}
1002
{
1000
BEHIND
1070
     0
1002
}
1002
{
1000
REACTOR
1002
}
1001
GENIUS_GENOBJ-N-REC_13
1002
{
1000
OWNER
1000
GEN
1002
}
  0
LINE
  5
1BBF
330
1F
100
AcDbEntity
  8
SANINDUSA
100
AcDbLine
 10
5082.278371941222
 20
1945.54745348153
 30
0.0000000001479286
 11
5082.278371941222
 21
1945.54845348153
 31
0.0000000001479286
1001
GENIUS_GENREC_14
1002
{
1000
PYDIR
1011
5082.361371941221
1021
1945.54845348153
1031
0.0000000001479286
1002
}
1002
{
1000
PXDIR
1011
5082.308371941222
1021
1945.54745348153
1031
0.0000000001479286
1002
}
1002
{
1000
PORI
1011
5082.361371941221
1021
1945.54745348153
1031
0.0000000001479286
1002
}
1002
{
1000
PINS
1011
5082.361371941221
1021
1945.54745348153
1031
0.0000000001479286
1002
}
1002
{
1000
PINS2
1011
5082.308371941222
1021
1945.54845348153
1031
0.0000000001479286
1002
}
1002
{
1000
C
1070
     1
1002
}
1001
GENIUS_GENODEF_13
1002
{
1000
HIER
1070
     0
1002
}
1002
{
1000
MANEDIT
1070
     0
1002
}
1002
{
1000
NOSEL
1070
     0
1002
}
1002
{
1000
BEHIND
1070
     0
1002
}
1002
{
1000
REACTOR
1002
}
1001
GENIUS_GENOBJ-N-REC_13
1002
{
1000
OWNER
1000
GEN
1002
}
  0
LINE
  5
1BC0
330
1F
100
AcDbEntity
  8
SANINDUSA
100
AcDbLine
 10
5082.278371941222
 20
1945.545353429236
 30
0.0000000001479286
 11
5082.278371941222
 21
1945.547353429236
 31
0.0000000001479286
  0
ARC
  5
1BC1
330
1F
100
AcDbEntity
  8
SANINDUSA
100
AcDbCircle
 10
5082.277371941222
 20
1945.56015348153
 30
0.0000000001479286
 40
0.001
100
AcDbArc
 50
0.0
 51
90.0
  0
LINE
  5
1BC2
330
1F
100
AcDbEntity
  8
SANINDUSA
100
AcDbLine
 10
5082.278371941222
 20
1945.55615348153
 30
0.0000000001479286
 11
5082.278371941222
 21
1945.56015348153
 31
0.0000000001479286
  0
LINE
  5
1BC3
330
1F
100
AcDbEntity
  8
SANINDUSA
100
AcDbLine
 10
5082.225371941222
 20
1945.54845348153
 30
0.0000000001479286
 11
5082.225371941222
 21
1945.54745348153
 31
0.0000000001479286
1001
GENIUS_GENREC_14
1002
{
1000
PYDIR
1011
5082.361371941221
1021
1945.54845348153
1031
0.0000000001479286
1002
}
1002
{
1000
PXDIR
1011
5082.308371941222
1021
1945.54745348153
1031
0.0000000001479286
1002
}
1002
{
1000
PORI
1011
5082.361371941221
1021
1945.54745348153
1031
0.0000000001479286
1002
}
1002
{
1000
PINS
1011
5082.361371941221
1021
1945.54745348153
1031
0.0000000001479286
1002
}
1002
{
1000
PINS2
1011
5082.308371941222
1021
1945.54845348153
1031
0.0000000001479286
1002
}
1002
{
1000
C
1070
     1
1002
}
1001
GENIUS_GENODEF_13
1002
{
1000
HIER
1070
     0
1002
}
1002
{
1000
MANEDIT
1070
     0
1002
}
1002
{
1000
NOSEL
1070
     0
1002
}
1002
{
1000
BEHIND
1070
     0
1002
}
1002
{
1000
REACTOR
1002
}
1001
GENIUS_GENOBJ-N-REC_13
1002
{
1000
OWNER
1000
GEN
1002
}
  0
ARC
  5
1BC4
330
1F
100
AcDbEntity
  8
SANINDUSA
100
AcDbCircle
 10
5082.226371941222
 20
1945.56015348153
 30
0.0000000001479286
 40
0.001
100
AcDbArc
 50
90.0
 51
180.0
  0
LINE
  5
1BC5
330
1F
100
AcDbEntity
  8
SANINDUSA
100
AcDbLine
 10
5082.225371941222
 20
1945.55615348153
 30
0.0000000001479286
 11
5082.225371941222
 21
1945.56015348153
 31
0.0000000001479286
  0
LINE
  5
1BC7
330
1F
100
AcDbEntity
  8
SANINDUSA
100
AcDbLine
 10
5082.894871941221
 20
1945.55475348534
 30
0.0000000001479285
 11
5082.894871941221
 21
1945.54875348534
 31
0.0000000001479285
  0
LINE
  5
1BC8
330
1F
100
AcDbEntity
  8
SANINDUSA
100
AcDbLine
 10
5081.573871941222
 20
1945.55475348153
 30
0.0000000001479286
 11
5081.573871941222
 21
1945.54875348153
 31
0.000000000147481
  0
LINE
  5
1BC9
330
1F
100
AcDbEntity
  8
SANINDUSA
100
AcDbLine
 10
5081.573871941222
 20
1945.55475348153
 30
0.0000000001479286
 11
5082.291871941222
 21
1945.55475348153
 31
0.0000000001479286
  0
LINE
  5
1BCA
330
1F
100
AcDbEntity
  8
SANINDUSA
100
AcDbLine
 10
5081.573871941222
 20
1945.54875348153
 30
0.000000000147481
 11
5082.291871941222
 21
1945.54875348153
 31
0.0000000001479286
  0
LINE
  5
1BCB
330
1F
100
AcDbEntity
  8
SANINDUSA
100
AcDbLine
 10
5082.294871941222
 20
1945.55475348534
 30
0.0000000001479285
 11
5082.894871941221
 21
1945.55475348534
 31
0.0000000001479285
  0
LINE
  5
1BCF
330
1F
100
AcDbEntity
  8
SANINDUSA
100
AcDbLine
 10
5082.632866299599
 20
1946.208058780717
 30
0.0
 11
5082.632866299599
 21
1946.225308780717
 31
0.0
  0
LINE
  5
1BD0
330
1F
100
AcDbEntity
  8
SANINDUSA
100
AcDbLine
 10
5082.650866299599
 20
1946.208058780717
 30
0.0
 11
5082.650866299599
 21
1946.225308780717
 31
0.0
  0
CIRCLE
  5
1BD1
330
1F
100
AcDbEntity
  8
SANINDUSA
100
AcDbCircle
 10
5082.641866299599
 20
1946.208058780717
 30
0.0
 40
0.005085
  0
LINE
  5
1BD2
330
1F
100
AcDbEntity
  8
SANINDUSA
100
AcDbLine
 10
5082.64858381402
 20
1946.190027557797
 30
0.0
 11
5082.643634066553
 21
1946.194977305265
 31
0.0
  0
LINE
  5
1BD3
330
1F
100
AcDbEntity
  8
SANINDUSA
100
AcDbLine
 10
5082.654947775052
 20
1946.206291013764
 30
0.0
 11
5082.643634066553
 21
1946.194977305265
 31
0.0
  0
ARC
  5
1BD4
330
1F
100
AcDbEntity
  8
SANINDUSA
100
AcDbCircle
 10
5082.641866299599
 20
1946.208058780717
 30
0.0
 40
0.009
100
AcDbArc
 50
180.0
 51
0.0
  0
LINE
  5
1BD5
330
1F
100
AcDbEntity
  8
SANINDUSA
100
AcDbLine
 10
5082.659897522519
 20
1946.201341266296
 30
0.0
 11
5082.64858381402
 21
1946.190027557797
 31
0.0
  0
LINE
  5
1BD6
330
1F
100
AcDbEntity
  8
SANINDUSA
100
AcDbLine
 10
5082.654947775052
 20
1946.206291013764
 30
0.0
 11
5082.650866299599
 21
1946.210372489216
 31
0.0
  0
LINE
  5
1BD7
330
1F
100
AcDbEntity
  8
SANINDUSA
100
AcDbLine
 10
5082.659897522519
 20
1946.201341266296
 30
0.0
 11
5082.654947775052
 21
1946.206291013764
 31
0.0
  0
LINE
  5
1BD8
330
1F
100
AcDbEntity
  8
SANINDUSA
100
AcDbLine
 10
5082.63976619246
 20
1946.205958673577
 30
0.0
 11
5082.640747352782
 21
1946.207419780717
 31
0.0
  0
LINE
  5
1BD9
330
1F
100
AcDbEntity
  8
SANINDUSA
100
AcDbLine
 10
5082.63976619246
 20
1946.205958673577
 30
0.0
 11
5082.6412272996
 21
1946.207419780717
 31
0.0
  0
LINE
  5
1BDA
330
1F
100
AcDbEntity
  8
SANINDUSA
100
AcDbLine
 10
5082.6412272996
 20
1946.2069398339
 30
0.0
 11
5082.63976619246
 21
1946.205958673577
 31
0.0
  0
LINE
  5
1BDB
330
1F
100
AcDbEntity
  8
SANINDUSA
100
AcDbLine
 10
5082.63976619246
 20
1946.210158887857
 30
0.0
 11
5082.6412272996
 21
1946.209177727535
 31
0.0
  0
LINE
  5
1BDC
330
1F
100
AcDbEntity
  8
SANINDUSA
100
AcDbLine
 10
5082.63976619246
 20
1946.210158887857
 30
0.0
 11
5082.6412272996
 21
1946.208697780717
 31
0.0
  0
LINE
  5
1BDD
330
1F
100
AcDbEntity
  8
SANINDUSA
100
AcDbLine
 10
5082.640747352782
 20
1946.208697780717
 30
0.0
 11
5082.63976619246
 21
1946.210158887857
 31
0.0
  0
LINE
  5
1BDE
330
1F
100
AcDbEntity
  8
SANINDUSA
100
AcDbLine
 10
5082.640747352782
 20
1946.207419780717
 30
0.0
 11
5082.6388962996
 21
1946.207419780717
 31
0.0
  0
LINE
  5
1BDF
330
1F
100
AcDbEntity
  8
SANINDUSA
100
AcDbLine
 10
5082.6388962996
 20
1946.208697780717
 30
0.0
 11
5082.640747352782
 21
1946.208697780717
 31
0.0
  0
LINE
  5
1BE0
330
1F
100
AcDbEntity
  8
SANINDUSA
100
AcDbLine
 10
5082.643966406739
 20
1946.210158887857
 30
0.0
 11
5082.642985246417
 21
1946.208697780717
 31
0.0
  0
LINE
  5
1BE1
330
1F
100
AcDbEntity
  8
SANINDUSA
100
AcDbLine
 10
5082.643966406739
 20
1946.210158887857
 30
0.0
 11
5082.642505299599
 21
1946.208697780717
 31
0.0
  0
LINE
  5
1BE2
330
1F
100
AcDbEntity
  8
SANINDUSA
100
AcDbLine
 10
5082.642985246417
 20
1946.208697780717
 30
0.0
 11
5082.642505299599
 21
1946.208697780717
 31
0.0
  0
LINE
  5
1BE3
330
1F
100
AcDbEntity
  8
SANINDUSA
100
AcDbLine
 10
5082.642505299599
 20
1946.209177727535
 30
0.0
 11
5082.643966406739
 21
1946.210158887857
 31
0.0
  0
LINE
  5
1BE4
330
1F
100
AcDbEntity
  8
SANINDUSA
100
AcDbLine
 10
5082.642505299599
 20
1946.208697780717
 30
0.0
 11
5082.642505299599
 21
1946.209177727535
 31
0.0
  0
LINE
  5
1BE5
330
1F
100
AcDbEntity
  8
SANINDUSA
100
AcDbLine
 10
5082.640747352782
 20
1946.207419780717
 30
0.0
 11
5082.6412272996
 21
1946.207419780717
 31
0.0
  0
LINE
  5
1BE6
330
1F
100
AcDbEntity
  8
SANINDUSA
100
AcDbLine
 10
5082.6412272996
 20
1946.207419780717
 30
0.0
 11
5082.6412272996
 21
1946.2069398339
 31
0.0
  0
LINE
  5
1BE7
330
1F
100
AcDbEntity
  8
SANINDUSA
100
AcDbLine
 10
5082.6412272996
 20
1946.209177727535
 30
0.0
 11
5082.6412272996
 21
1946.208697780717
 31
0.0
  0
LINE
  5
1BE8
330
1F
100
AcDbEntity
  8
SANINDUSA
100
AcDbLine
 10
5082.6412272996
 20
1946.208697780717
 30
0.0
 11
5082.640747352782
 21
1946.208697780717
 31
0.0
  0
LINE
  5
1BE9
330
1F
100
AcDbEntity
  8
SANINDUSA
100
AcDbLine
 10
5082.643966406739
 20
1946.205958673577
 30
0.0
 11
5082.642505299599
 21
1946.2069398339
 31
0.0
  0
LINE
  5
1BEA
330
1F
100
AcDbEntity
  8
SANINDUSA
100
AcDbLine
 10
5082.643966406739
 20
1946.205958673577
 30
0.0
 11
5082.642505299599
 21
1946.207419780717
 31
0.0
  0
LINE
  5
1BEB
330
1F
100
AcDbEntity
  8
SANINDUSA
100
AcDbLine
 10
5082.642505299599
 20
1946.2069398339
 30
0.0
 11
5082.642505299599
 21
1946.207419780717
 31
0.0
  0
LINE
  5
1BEC
330
1F
100
AcDbEntity
  8
SANINDUSA
100
AcDbLine
 10
5082.642985246417
 20
1946.207419780717
 30
0.0
 11
5082.643966406739
 21
1946.205958673577
 31
0.0
  0
LINE
  5
1BED
330
1F
100
AcDbEntity
  8
SANINDUSA
100
AcDbLine
 10
5082.642505299599
 20
1946.207419780717
 30
0.0
 11
5082.642985246417
 21
1946.207419780717
 31
0.0
  0
LINE
  5
1BEE
330
1F
100
AcDbEntity
  8
SANINDUSA
100
AcDbLine
 10
5082.642985246417
 20
1946.208697780717
 30
0.0
 11
5082.6448362996
 21
1946.208697780717
 31
0.0
  0
LINE
  5
1BEF
330
1F
100
AcDbEntity
  8
SANINDUSA
100
AcDbLine
 10
5082.6412272996
 20
1946.209177727535
 30
0.0
 11
5082.6412272996
 21
1946.211028780717
 31
0.0
  0
LINE
  5
1BF0
330
1F
100
AcDbEntity
  8
SANINDUSA
100
AcDbLine
 10
5082.642505299599
 20
1946.2069398339
 30
0.0
 11
5082.642505299599
 21
1946.205088780717
 31
0.0
  0
LINE
  5
1BF1
330
1F
100
AcDbEntity
  8
SANINDUSA
100
AcDbLine
 10
5082.6412272996
 20
1946.208697780717
 30
0.0
 11
5082.642505299599
 21
1946.208697780717
 31
0.0
  0
LINE
  5
1BF2
330
1F
100
AcDbEntity
  8
SANINDUSA
100
AcDbLine
 10
5082.642505299599
 20
1946.207419780717
 30
0.0
 11
5082.6412272996
 21
1946.207419780717
 31
0.0
  0
LINE
  5
1BF3
330
1F
100
AcDbEntity
  8
SANINDUSA
100
AcDbLine
 10
5082.6448362996
 20
1946.207419780717
 30
0.0
 11
5082.642985246417
 21
1946.207419780717
 31
0.0
  0
LINE
  5
1BF4
330
1F
100
AcDbEntity
  8
SANINDUSA
100
AcDbLine
 10
5082.641866299599
 20
1946.208058780717
 30
0.0
 11
5082.6412272996
 21
1946.208697780717
 31
0.0
  0
LINE
  5
1BF5
330
1F
100
AcDbEntity
  8
SANINDUSA
100
AcDbLine
 10
5082.641866299599
 20
1946.208697780717
 30
0.0
 11
5082.641866299599
 21
1946.208058780717
 31
0.0
  0
LINE
  5
1BF6
330
1F
100
AcDbEntity
  8
SANINDUSA
100
AcDbLine
 10
5082.6412272996
 20
1946.208697780717
 30
0.0
 11
5082.6412272996
 21
1946.207419780717
 31
0.0
  0
LINE
  5
1BF7
330
1F
100
AcDbEntity
  8
SANINDUSA
100
AcDbLine
 10
5082.6412272996
 20
1946.207419780717
 30
0.0
 11
5082.641866299599
 21
1946.208058780717
 31
0.0
  0
LINE
  5
1BF8
330
1F
100
AcDbEntity
  8
SANINDUSA
100
AcDbLine
 10
5082.641866299599
 20
1946.208058780717
 30
0.0
 11
5082.641866299599
 21
1946.207419780717
 31
0.0
  0
LINE
  5
1BF9
330
1F
100
AcDbEntity
  8
SANINDUSA
100
AcDbLine
 10
5082.642505299599
 20
1946.208697780717
 30
0.0
 11
5082.641866299599
 21
1946.208058780717
 31
0.0
  0
LINE
  5
1BFA
330
1F
100
AcDbEntity
  8
SANINDUSA
100
AcDbLine
 10
5082.641866299599
 20
1946.208058780717
 30
0.0
 11
5082.642505299599
 21
1946.207419780717
 31
0.0
  0
LINE
  5
1BFB
330
1F
100
AcDbEntity
  8
SANINDUSA
100
AcDbLine
 10
5082.6448362996
 20
1946.208697780717
 30
0.0
 11
5082.6448362996
 21
1946.207419780717
 31
0.0
  0
LINE
  5
1BFC
330
1F
100
AcDbEntity
  8
SANINDUSA
100
AcDbLine
 10
5082.642505299599
 20
1946.207419780717
 30
0.0
 11
5082.642505299599
 21
1946.208697780717
 31
0.0
  0
LINE
  5
1BFD
330
1F
100
AcDbEntity
  8
SANINDUSA
100
AcDbLine
 10
5082.6412272996
 20
1946.205088780717
 30
0.0
 11
5082.6412272996
 21
1946.2069398339
 31
0.0
  0
LINE
  5
1BFE
330
1F
100
AcDbEntity
  8
SANINDUSA
100
AcDbLine
 10
5082.641866299599
 20
1946.208058780717
 30
0.0
 11
5082.642505299599
 21
1946.208058780717
 31
0.0
  0
LINE
  5
1BFF
330
1F
100
AcDbEntity
  8
SANINDUSA
100
AcDbLine
 10
5082.642505299599
 20
1946.205088780717
 30
0.0
 11
5082.6412272996
 21
1946.205088780717
 31
0.0
  0
LINE
  5
1C00
330
1F
100
AcDbEntity
  8
SANINDUSA
100
AcDbLine
 10
5082.6412272996
 20
1946.208058780717
 30
0.0
 11
5082.641866299599
 21
1946.208058780717
 31
0.0
  0
LINE
  5
1C01
330
1F
100
AcDbEntity
  8
SANINDUSA
100
AcDbLine
 10
5082.642505299599
 20
1946.211028780717
 30
0.0
 11
5082.642505299599
 21
1946.209177727535
 31
0.0
  0
LINE
  5
1C02
330
1F
100
AcDbEntity
  8
SANINDUSA
100
AcDbLine
 10
5082.6412272996
 20
1946.211028780717
 30
0.0
 11
5082.642505299599
 21
1946.211028780717
 31
0.0
  0
LINE
  5
1C03
330
1F
100
AcDbEntity
  8
SANINDUSA
100
AcDbLine
 10
5082.6388962996
 20
1946.207419780717
 30
0.0
 11
5082.6388962996
 21
1946.208697780717
 31
0.0
  0
LINE
  5
1C04
330
1F
100
AcDbEntity
  8
SANINDUSA
100
AcDbLine
 10
5082.643634066553
 20
1946.194977305265
 30
0.0
 11
5082.639124921297
 21
1946.19948645052
 31
0.0
  0
LINE
  5
1C05
330
1F
100
AcDbEntity
  8
SANINDUSA
100
AcDbLine
 10
5082.6568662996
 20
1946.230308780717
 30
0.0
 11
5082.6268662996
 21
1946.230308780717
 31
0.0
  0
LINE
  5
1C06
330
1F
100
AcDbEntity
  8
SANINDUSA
100
AcDbLine
 10
5082.628866299599
 20
1946.225308780717
 30
0.0
 11
5082.654866299599
 21
1946.225308780717
 31
0.0
  0
LINE
  5
1C07
330
1F
100
AcDbEntity
  8
SANINDUSA
100
AcDbLine
 10
5082.6568662996
 20
1946.227308780717
 30
0.0
 11
5082.6568662996
 21
1946.230308780717
 31
0.0
  0
ARC
  5
1C08
330
1F
100
AcDbEntity
  8
SANINDUSA
100
AcDbCircle
 10
5082.654866299599
 20
1946.227308780717
 30
0.0
 40
0.002
100
AcDbArc
 50
270.0
 51
0.0
  0
ARC
  5
1C09
330
1F
100
AcDbEntity
  8
SANINDUSA
100
AcDbCircle
 10
5082.628866299599
 20
1946.227308780717
 30
0.0
 40
0.002
100
AcDbArc
 50
180.0
 51
270.0
  0
LINE
  5
1C0A
330
1F
100
AcDbEntity
  8
SANINDUSA
100
AcDbLine
 10
5082.6268662996
 20
1946.230308780717
 30
0.0
 11
5082.6268662996
 21
1946.227308780717
 31
0.0
  0
LINE
  5
1C0B
330
1F
100
AcDbEntity
  8
SANINDUSA
100
AcDbLine
 10
5082.855766100909
 20
1945.984966591253
 30
0.0
 11
5082.649644474193
 21
1946.191088217969
 31
0.0
  0
LINE
  5
1C0C
330
1F
100
AcDbEntity
  8
SANINDUSA
100
AcDbLine
 10
5082.864958489063
 20
1945.994158979408
 30
0.0
 11
5082.658836862348
 21
1946.200280606124
 31
0.0
  0
LINE
  5
1C0D
330
1F
100
AcDbEntity
  8
SANINDUSA
100
AcDbLine
 10
5082.88280731604
 20
1945.965535334512
 30
0.0
 11
5082.88314668969
 21
1945.965874708161
 31
0.0
  0
LINE
  5
1C0E
330
1F
100
AcDbEntity
  8
SANINDUSA
100
AcDbLine
 10
5082.881080372157
 20
1945.965874708161
 30
0.0
 11
5082.88280731604
 21
1945.965535334512
 31
0.0
  0
LINE
  5
1C0F
330
1F
100
AcDbEntity
  8
SANINDUSA
100
AcDbLine
 10
5082.866019149236
 20
1945.972592222582
 30
0.0
 11
5082.875478041959
 21
1945.963133329859
 31
0.0
  0
LINE
  5
1C10
330
1F
100
AcDbEntity
  8
SANINDUSA
100
AcDbLine
 10
5082.883598530923
 20
1945.965422866928
 30
0.0
 11
5082.884050372156
 21
1945.965874708161
 31
0.0
  0
LINE
  5
1C11
330
1F
100
AcDbEntity
  8
SANINDUSA
100
AcDbLine
 10
5082.884502213389
 20
1945.965422866928
 30
0.0
 11
5082.884050372156
 21
1945.965874708161
 31
0.0
  0
LINE
  5
1C12
330
1F
100
AcDbEntity
  8
SANINDUSA
100
AcDbLine
 10
5082.884050372156
 20
1945.965874708161
 30
0.0
 11
5082.884050372156
 21
1945.964971025695
 31
0.0
  0
LINE
  5
1C13
330
1F
100
AcDbEntity
  8
SANINDUSA
100
AcDbLine
 10
5082.884050372156
 20
1945.964971025695
 30
0.0
 11
5082.884954054623
 21
1945.965874708161
 31
0.0
  0
LINE
  5
1C14
330
1F
100
AcDbEntity
  8
SANINDUSA
100
AcDbLine
 10
5082.884954054623
 20
1945.965874708161
 30
0.0
 11
5082.885293428271
 21
1945.965535334512
 31
0.0
  0
LINE
  5
1C15
330
1F
100
AcDbEntity
  8
SANINDUSA
100
AcDbLine
 10
5082.885293428271
 20
1945.965535334512
 30
0.0
 11
5082.887020372156
 21
1945.965874708161
 31
0.0
  0
ARC
  5
1C16
330
1F
100
AcDbEntity
  8
SANINDUSA
100
AcDbCircle
 10
5082.884050372156
 20
1945.965874708161
 30
0.0
 40
0.009
100
AcDbArc
 50
90.0
 51
270.0
  0
CIRCLE
  5
1C17
330
1F
100
AcDbEntity
  8
SANINDUSA
100
AcDbCircle
 10
5082.884050372156
 20
1945.965874708161
 30
0.0
 40
0.005085
  0
LINE
  5
1C18
330
1F
100
AcDbEntity
  8
SANINDUSA
100
AcDbLine
 10
5082.884050372156
 20
1945.964971025695
 30
0.0
 11
5082.88314668969
 21
1945.965874708161
 31
0.0
  0
LINE
  5
1C19
330
1F
100
AcDbEntity
  8
SANINDUSA
100
AcDbLine
 10
5082.884050372156
 20
1945.956874708161
 30
0.0
 11
5082.901300372156
 21
1945.956874708161
 31
0.0
  0
LINE
  5
1C1A
330
1F
100
AcDbEntity
  8
SANINDUSA
100
AcDbLine
 10
5082.881498423782
 20
1945.964226442254
 30
0.0
 11
5082.88240210625
 21
1945.963322759787
 31
0.0
  0
LINE
  5
1C1B
330
1F
100
AcDbEntity
  8
SANINDUSA
100
AcDbLine
 10
5082.88280731604
 20
1945.965535334512
 30
0.0
 11
5082.881498423782
 21
1945.964226442254
 31
0.0
  0
LINE
  5
1C1C
330
1F
100
AcDbEntity
  8
SANINDUSA
100
AcDbLine
 10
5082.885698638063
 20
1945.963322759787
 30
0.0
 11
5082.886602320529
 21
1945.964226442254
 31
0.0
  0
LINE
  5
1C1D
330
1F
100
AcDbEntity
  8
SANINDUSA
100
AcDbLine
 10
5082.886602320529
 20
1945.964226442254
 30
0.0
 11
5082.885293428271
 21
1945.965535334512
 31
0.0
  0
LINE
  5
1C1E
330
1F
100
AcDbEntity
  8
SANINDUSA
100
AcDbLine
 10
5082.884389745805
 20
1945.964631652046
 30
0.0
 11
5082.885698638063
 21
1945.963322759787
 31
0.0
  0
LINE
  5
1C1F
330
1F
100
AcDbEntity
  8
SANINDUSA
100
AcDbLine
 10
5082.884050372156
 20
1945.964971025695
 30
0.0
 11
5082.883710998507
 21
1945.964631652046
 31
0.0
  0
LINE
  5
1C20
330
1F
100
AcDbEntity
  8
SANINDUSA
100
AcDbLine
 10
5082.883710998507
 20
1945.964631652046
 30
0.0
 11
5082.884050372156
 21
1945.962904708161
 31
0.0
  0
LINE
  5
1C21
330
1F
100
AcDbEntity
  8
SANINDUSA
100
AcDbLine
 10
5082.884389745805
 20
1945.964631652046
 30
0.0
 11
5082.884050372156
 21
1945.964971025695
 31
0.0
  0
LINE
  5
1C22
330
1F
100
AcDbEntity
  8
SANINDUSA
100
AcDbLine
 10
5082.884050372156
 20
1945.962904708161
 30
0.0
 11
5082.884050372156
 21
1945.964971025695
 31
0.0
  0
LINE
  5
1C23
330
1F
100
AcDbEntity
  8
SANINDUSA
100
AcDbLine
 10
5082.884050372156
 20
1945.962904708161
 30
0.0
 11
5082.884389745805
 21
1945.964631652046
 31
0.0
  0
LINE
  5
1C24
330
1F
100
AcDbEntity
  8
SANINDUSA
100
AcDbLine
 10
5082.88240210625
 20
1945.963322759787
 30
0.0
 11
5082.883710998507
 21
1945.964631652046
 31
0.0
  0
LINE
  5
1C25
330
1F
100
AcDbEntity
  8
SANINDUSA
100
AcDbLine
 10
5082.882282605203
 20
1945.978956183613
 30
0.0
 11
5082.870968896703
 21
1945.967642475114
 31
0.0
  0
LINE
  5
1C26
330
1F
100
AcDbEntity
  8
SANINDUSA
100
AcDbLine
 10
5082.877332857735
 20
1945.983905931081
 30
0.0
 11
5082.886364080655
 21
1945.974874708161
 31
0.0
  0
LINE
  5
1C27
330
1F
100
AcDbEntity
  8
SANINDUSA
100
AcDbLine
 10
5082.884050372156
 20
1945.974874708161
 30
0.0
 11
5082.901300372156
 21
1945.974874708161
 31
0.0
  0
LINE
  5
1C28
330
1F
100
AcDbEntity
  8
SANINDUSA
100
AcDbLine
 10
5082.88240210625
 20
1945.968426656534
 30
0.0
 11
5082.881498423782
 21
1945.967522974068
 31
0.0
  0
LINE
  5
1C29
330
1F
100
AcDbEntity
  8
SANINDUSA
100
AcDbLine
 10
5082.881498423782
 20
1945.967522974068
 30
0.0
 11
5082.88280731604
 21
1945.96621408181
 31
0.0
  0
LINE
  5
1C2A
330
1F
100
AcDbEntity
  8
SANINDUSA
100
AcDbLine
 10
5082.88314668969
 20
1945.965874708161
 30
0.0
 11
5082.88280731604
 21
1945.96621408181
 31
0.0
  0
LINE
  5
1C2B
330
1F
100
AcDbEntity
  8
SANINDUSA
100
AcDbLine
 10
5082.88280731604
 20
1945.96621408181
 30
0.0
 11
5082.881080372157
 21
1945.965874708161
 31
0.0
  0
LINE
  5
1C2C
330
1F
100
AcDbEntity
  8
SANINDUSA
100
AcDbLine
 10
5082.881080372157
 20
1945.965874708161
 30
0.0
 11
5082.88314668969
 21
1945.965874708161
 31
0.0
  0
LINE
  5
1C2D
330
1F
100
AcDbEntity
  8
SANINDUSA
100
AcDbLine
 10
5082.884050372156
 20
1945.965874708161
 30
0.0
 11
5082.884502213389
 21
1945.966326549394
 31
0.0
  0
LINE
  5
1C2E
330
1F
100
AcDbEntity
  8
SANINDUSA
100
AcDbLine
 10
5082.884050372156
 20
1945.966778390627
 30
0.0
 11
5082.884954054623
 21
1945.965874708161
 31
0.0
  0
LINE
  5
1C2F
330
1F
100
AcDbEntity
  8
SANINDUSA
100
AcDbLine
 10
5082.886602320529
 20
1945.967522974068
 30
0.0
 11
5082.885698638063
 21
1945.968426656534
 31
0.0
  0
LINE
  5
1C30
330
1F
100
AcDbEntity
  8
SANINDUSA
100
AcDbLine
 10
5082.884050372156
 20
1945.965874708161
 30
0.0
 11
5082.884050372156
 21
1945.966778390627
 31
0.0
  0
LINE
  5
1C31
330
1F
100
AcDbEntity
  8
SANINDUSA
100
AcDbLine
 10
5082.884954054623
 20
1945.965874708161
 30
0.0
 11
5082.884050372156
 21
1945.965874708161
 31
0.0
  0
LINE
  5
1C32
330
1F
100
AcDbEntity
  8
SANINDUSA
100
AcDbLine
 10
5082.884050372156
 20
1945.965874708161
 30
0.0
 11
5082.883598530923
 21
1945.966326549394
 31
0.0
  0
LINE
  5
1C33
330
1F
100
AcDbEntity
  8
SANINDUSA
100
AcDbLine
 10
5082.885698638063
 20
1945.968426656534
 30
0.0
 11
5082.884389745805
 21
1945.967117764276
 31
0.0
  0
LINE
  5
1C34
330
1F
100
AcDbEntity
  8
SANINDUSA
100
AcDbLine
 10
5082.885293428271
 20
1945.96621408181
 30
0.0
 11
5082.886602320529
 21
1945.967522974068
 31
0.0
  0
LINE
  5
1C35
330
1F
100
AcDbEntity
  8
SANINDUSA
100
AcDbLine
 10
5082.884050372156
 20
1945.966778390627
 30
0.0
 11
5082.884389745805
 21
1945.967117764276
 31
0.0
  0
LINE
  5
1C36
330
1F
100
AcDbEntity
  8
SANINDUSA
100
AcDbLine
 10
5082.884389745805
 20
1945.967117764276
 30
0.0
 11
5082.884050372156
 21
1945.968844708161
 31
0.0
  0
LINE
  5
1C37
330
1F
100
AcDbEntity
  8
SANINDUSA
100
AcDbLine
 10
5082.883710998507
 20
1945.967117764276
 30
0.0
 11
5082.884050372156
 21
1945.966778390627
 31
0.0
  0
LINE
  5
1C38
330
1F
100
AcDbEntity
  8
SANINDUSA
100
AcDbLine
 10
5082.884050372156
 20
1945.968844708161
 30
0.0
 11
5082.884050372156
 21
1945.966778390627
 31
0.0
  0
LINE
  5
1C39
330
1F
100
AcDbEntity
  8
SANINDUSA
100
AcDbLine
 10
5082.884050372156
 20
1945.968844708161
 30
0.0
 11
5082.883710998507
 21
1945.967117764276
 31
0.0
  0
LINE
  5
1C3A
330
1F
100
AcDbEntity
  8
SANINDUSA
100
AcDbLine
 10
5082.885293428271
 20
1945.96621408181
 30
0.0
 11
5082.884954054623
 21
1945.965874708161
 31
0.0
  0
LINE
  5
1C3B
330
1F
100
AcDbEntity
  8
SANINDUSA
100
AcDbLine
 10
5082.887020372156
 20
1945.965874708161
 30
0.0
 11
5082.884954054623
 21
1945.965874708161
 31
0.0
  0
LINE
  5
1C3C
330
1F
100
AcDbEntity
  8
SANINDUSA
100
AcDbLine
 10
5082.887020372156
 20
1945.965874708161
 30
0.0
 11
5082.885293428271
 21
1945.96621408181
 31
0.0
  0
LINE
  5
1C3D
330
1F
100
AcDbEntity
  8
SANINDUSA
100
AcDbLine
 10
5082.88314668969
 20
1945.965874708161
 30
0.0
 11
5082.884050372156
 21
1945.965874708161
 31
0.0
  0
LINE
  5
1C3E
330
1F
100
AcDbEntity
  8
SANINDUSA
100
AcDbLine
 10
5082.884050372156
 20
1945.966778390627
 30
0.0
 11
5082.88314668969
 21
1945.965874708161
 31
0.0
  0
LINE
  5
1C3F
330
1F
100
AcDbEntity
  8
SANINDUSA
100
AcDbLine
 10
5082.883710998507
 20
1945.967117764276
 30
0.0
 11
5082.88240210625
 21
1945.968426656534
 31
0.0
  0
LINE
  5
1C40
330
1F
100
AcDbEntity
  8
SANINDUSA
100
AcDbLine
 10
5082.866019149236
 20
1945.99521963958
 30
0.0
 11
5082.854705440737
 21
1945.983905931081
 31
0.0
  0
LINE
  5
1C41
330
1F
100
AcDbEntity
  8
SANINDUSA
100
AcDbLine
 10
5082.866019149236
 20
1945.99521963958
 30
0.0
 11
5082.875918644172
 21
1945.985320144643
 31
0.0
  0
LINE
  5
1C42
330
1F
100
AcDbEntity
  8
SANINDUSA
100
AcDbLine
 10
5082.854705440737
 20
1945.983905931081
 30
0.0
 11
5082.864604935673
 21
1945.974006436145
 31
0.0
  0
LINE
  5
1C43
330
1F
100
AcDbEntity
  8
SANINDUSA
100
AcDbLine
 10
5082.875565090781
 20
1945.982138164128
 30
0.0
 11
5082.874150877219
 21
1945.98355237769
 31
0.0
  0
LINE
  5
1C44
330
1F
100
AcDbEntity
  8
SANINDUSA
100
AcDbLine
 10
5082.867786916189
 20
1945.974359989535
 30
0.0
 11
5082.866372702626
 21
1945.975774203097
 31
0.0
  0
LINE
  5
1C45
330
1F
100
AcDbEntity
  8
SANINDUSA
100
AcDbLine
 10
5082.875918644172
 20
1945.985320144643
 30
0.0
 11
5082.864604935673
 21
1945.974006436145
 31
0.0
  0
LINE
  5
1C46
330
1F
100
AcDbEntity
  8
SANINDUSA
100
AcDbLine
 10
5082.877332857735
 20
1945.983905931081
 30
0.0
 11
5082.866019149236
 21
1945.972592222582
 31
0.0
  0
LINE
  5
1C47
330
1F
100
AcDbEntity
  8
SANINDUSA
100
AcDbLine
 10
5082.919300372156
 20
1945.988374708161
 30
0.0
 11
5082.919300372156
 21
1945.943374708161
 31
0.0
  0
LINE
  5
1C48
330
1F
100
AcDbEntity
  8
SANINDUSA
100
AcDbLine
 10
5082.901300372156
 20
1945.988374708161
 30
0.0
 11
5082.901300372156
 21
1945.943374708161
 31
0.0
  0
LINE
  5
1C49
330
1F
100
AcDbEntity
  8
SANINDUSA
100
AcDbLine
 10
5082.901300372156
 20
1945.943374708161
 30
0.0
 11
5082.919300372156
 21
1945.943374708161
 31
0.0
  0
LINE
  5
1C4A
330
1F
100
AcDbEntity
  8
SANINDUSA
100
AcDbLine
 10
5082.901300372156
 20
1945.988374708161
 30
0.0
 11
5082.919300372156
 21
1945.988374708161
 31
0.0
  0
LINE
  5
1C4B
330
1F
100
AcDbEntity
  8
SANINDUSA
100
AcDbLine
 10
5082.909200372156
 20
1946.185936756958
 30
-0.0000000000076263
 11
5082.909200372156
 21
1945.563081912465
 31
-0.0000000000076263
  0
LINE
  5
1C4C
330
1F
100
AcDbEntity
  8
SANINDUSA
100
AcDbLine
 10
5082.903200372156
 20
1946.185936756958
 30
-0.0000000000076263
 11
5082.903200372156
 21
1945.563081912465
 31
-0.0000000000076263
  0
LINE
  5
1C4D
330
1F
100
AcDbEntity
  8
SANINDUSA
100
AcDbLine
 10
5082.909200372156
 20
1946.185936756958
 30
-0.0000000000076263
 11
5082.903200372156
 21
1946.185936756958
 31
-0.0000000000076263
  0
LINE
  5
1CD2
330
1F
100
AcDbEntity
  8
SANINDUSA
 48
2.0
100
AcDbLine
 10
5082.020871941222
 20
1945.59140348153
 30
0.0000000001479286
 11
5082.020871941222
 21
1946.190558780717
 31
0.0000000001479286
  0
LINE
  5
1CD3
330
1F
100
AcDbEntity
  8
SANINDUSA
 48
2.0
100
AcDbLine
 10
5082.007871941222
 20
1945.59140348153
 30
0.0000000001479286
 11
5082.007871941222
 21
1946.190558780717
 31
0.0000000001479286
  0
LINE
  5
1CD4
330
1F
100
AcDbEntity
  8
SANINDUSA
100
AcDbLine
 10
5082.023371941222
 20
1946.208058780717
 30
0.0
 11
5082.023371941222
 21
1946.225308780717
 31
0.0
  0
LINE
  5
1CD5
330
1F
100
AcDbEntity
  8
SANINDUSA
100
AcDbLine
 10
5082.005371941221
 20
1946.208058780717
 30
0.0
 11
5082.005371941221
 21
1946.225308780717
 31
0.0
  0
LINE
  5
1CD6
330
1F
100
AcDbEntity
  8
SANINDUSA
100
AcDbLine
 10
5082.013732941222
 20
1946.211028780717
 30
0.0
 11
5082.015010941222
 21
1946.211028780717
 31
0.0
  0
LINE
  5
1CD7
330
1F
100
AcDbEntity
  8
SANINDUSA
100
AcDbLine
 10
5082.014371941221
 20
1946.208058780717
 30
0.0
 11
5082.015010941222
 21
1946.208058780717
 31
0.0
  0
LINE
  5
1CD8
330
1F
100
AcDbEntity
  8
SANINDUSA
100
AcDbLine
 10
5082.014371941221
 20
1946.208058780717
 30
0.0
 11
5082.015010941222
 21
1946.207419780717
 31
0.0
  0
LINE
  5
1CD9
330
1F
100
AcDbEntity
  8
SANINDUSA
100
AcDbLine
 10
5082.015010941222
 20
1946.208697780717
 30
0.0
 11
5082.014371941221
 21
1946.208058780717
 31
0.0
  0
LINE
  5
1CDA
330
1F
100
AcDbEntity
  8
SANINDUSA
100
AcDbLine
 10
5082.015010941222
 20
1946.207419780717
 30
0.0
 11
5082.013732941222
 21
1946.207419780717
 31
0.0
  0
LINE
  5
1CDB
330
1F
100
AcDbEntity
  8
SANINDUSA
100
AcDbLine
 10
5082.013732941222
 20
1946.208697780717
 30
0.0
 11
5082.015010941222
 21
1946.208697780717
 31
0.0
  0
LINE
  5
1CDC
330
1F
100
AcDbEntity
  8
SANINDUSA
100
AcDbLine
 10
5082.015010941222
 20
1946.207419780717
 30
0.0
 11
5082.015010941222
 21
1946.208697780717
 31
0.0
  0
LINE
  5
1CDD
330
1F
100
AcDbEntity
  8
SANINDUSA
100
AcDbLine
 10
5082.017341941222
 20
1946.208697780717
 30
0.0
 11
5082.017341941222
 21
1946.207419780717
 31
0.0
  0
LINE
  5
1CDE
330
1F
100
AcDbEntity
  8
SANINDUSA
100
AcDbLine
 10
5082.017341941222
 20
1946.207419780717
 30
0.0
 11
5082.015490888039
 21
1946.207419780717
 31
0.0
  0
LINE
  5
1CDF
330
1F
100
AcDbEntity
  8
SANINDUSA
100
AcDbLine
 10
5082.015490888039
 20
1946.208697780717
 30
0.0
 11
5082.017341941222
 21
1946.208697780717
 31
0.0
  0
LINE
  5
1CE0
330
1F
100
AcDbEntity
  8
SANINDUSA
100
AcDbLine
 10
5082.015010941222
 20
1946.207419780717
 30
0.0
 11
5082.015490888039
 21
1946.207419780717
 31
0.0
  0
LINE
  5
1CE1
330
1F
100
AcDbEntity
  8
SANINDUSA
100
AcDbLine
 10
5082.015010941222
 20
1946.208697780717
 30
0.0
 11
5082.015010941222
 21
1946.209177727535
 31
0.0
  0
LINE
  5
1CE2
330
1F
100
AcDbEntity
  8
SANINDUSA
100
AcDbLine
 10
5082.015010941222
 20
1946.209177727535
 30
0.0
 11
5082.016472048362
 21
1946.210158887857
 31
0.0
  0
LINE
  5
1CE3
330
1F
100
AcDbEntity
  8
SANINDUSA
100
AcDbLine
 10
5082.015490888039
 20
1946.208697780717
 30
0.0
 11
5082.015010941222
 21
1946.208697780717
 31
0.0
  0
LINE
  5
1CE4
330
1F
100
AcDbEntity
  8
SANINDUSA
100
AcDbLine
 10
5082.016472048362
 20
1946.210158887857
 30
0.0
 11
5082.015010941222
 21
1946.208697780717
 31
0.0
  0
LINE
  5
1CE5
330
1F
100
AcDbEntity
  8
SANINDUSA
100
AcDbLine
 10
5082.016472048362
 20
1946.210158887857
 30
0.0
 11
5082.015490888039
 21
1946.208697780717
 31
0.0
  0
LINE
  5
1CE6
330
1F
100
AcDbEntity
  8
SANINDUSA
100
AcDbLine
 10
5082.013732941222
 20
1946.208058780717
 30
0.0
 11
5082.014371941221
 21
1946.208058780717
 31
0.0
  0
LINE
  5
1CE7
330
1F
100
AcDbEntity
  8
SANINDUSA
100
AcDbLine
 10
5082.014371941221
 20
1946.208058780717
 30
0.0
 11
5082.014371941221
 21
1946.207419780717
 31
0.0
  0
LINE
  5
1CE8
330
1F
100
AcDbEntity
  8
SANINDUSA
100
AcDbLine
 10
5082.013732941222
 20
1946.207419780717
 30
0.0
 11
5082.014371941221
 21
1946.208058780717
 31
0.0
  0
LINE
  5
1CE9
330
1F
100
AcDbEntity
  8
SANINDUSA
100
AcDbLine
 10
5082.013732941222
 20
1946.208697780717
 30
0.0
 11
5082.013732941222
 21
1946.207419780717
 31
0.0
  0
LINE
  5
1CEA
330
1F
100
AcDbEntity
  8
SANINDUSA
100
AcDbLine
 10
5082.014371941221
 20
1946.208697780717
 30
0.0
 11
5082.014371941221
 21
1946.208058780717
 31
0.0
  0
LINE
  5
1CEB
330
1F
100
AcDbEntity
  8
SANINDUSA
100
AcDbLine
 10
5082.014371941221
 20
1946.208058780717
 30
0.0
 11
5082.013732941222
 21
1946.208697780717
 31
0.0
  0
LINE
  5
1CEC
330
1F
100
AcDbEntity
  8
SANINDUSA
100
AcDbLine
 10
5082.013732941222
 20
1946.208697780717
 30
0.0
 11
5082.013252994404
 21
1946.208697780717
 31
0.0
  0
LINE
  5
1CED
330
1F
100
AcDbEntity
  8
SANINDUSA
100
AcDbLine
 10
5082.013252994404
 20
1946.208697780717
 30
0.0
 11
5082.012271834082
 21
1946.210158887857
 31
0.0
  0
LINE
  5
1CEE
330
1F
100
AcDbEntity
  8
SANINDUSA
100
AcDbLine
 10
5082.013732941222
 20
1946.209177727535
 30
0.0
 11
5082.013732941222
 21
1946.208697780717
 31
0.0
  0
LINE
  5
1CEF
330
1F
100
AcDbEntity
  8
SANINDUSA
100
AcDbLine
 10
5082.012271834082
 20
1946.210158887857
 30
0.0
 11
5082.013732941222
 21
1946.208697780717
 31
0.0
  0
LINE
  5
1CF0
330
1F
100
AcDbEntity
  8
SANINDUSA
100
AcDbLine
 10
5082.012271834082
 20
1946.210158887857
 30
0.0
 11
5082.013732941222
 21
1946.209177727535
 31
0.0
  0
LINE
  5
1CF1
330
1F
100
AcDbEntity
  8
SANINDUSA
100
AcDbLine
 10
5082.013252994404
 20
1946.207419780717
 30
0.0
 11
5082.013732941222
 21
1946.207419780717
 31
0.0
  0
LINE
  5
1CF2
330
1F
100
AcDbEntity
  8
SANINDUSA
100
AcDbLine
 10
5082.011401941223
 20
1946.207419780717
 30
0.0
 11
5082.011401941223
 21
1946.208697780717
 31
0.0
  0
LINE
  5
1CF3
330
1F
100
AcDbEntity
  8
SANINDUSA
100
AcDbLine
 10
5082.011401941223
 20
1946.208697780717
 30
0.0
 11
5082.013252994404
 21
1946.208697780717
 31
0.0
  0
LINE
  5
1CF4
330
1F
100
AcDbEntity
  8
SANINDUSA
100
AcDbLine
 10
5082.013252994404
 20
1946.207419780717
 30
0.0
 11
5082.011401941223
 21
1946.207419780717
 31
0.0
  0
LINE
  5
1CF5
330
1F
100
AcDbEntity
  8
SANINDUSA
100
AcDbLine
 10
5082.015010941222
 20
1946.211028780717
 30
0.0
 11
5082.015010941222
 21
1946.209177727535
 31
0.0
  0
LINE
  5
1CF6
330
1F
100
AcDbEntity
  8
SANINDUSA
100
AcDbLine
 10
5082.013732941222
 20
1946.209177727535
 30
0.0
 11
5082.013732941222
 21
1946.211028780717
 31
0.0
  0
LINE
  5
1CF7
330
1F
100
AcDbEntity
  8
SANINDUSA
100
AcDbLine
 10
5082.015010941222
 20
1946.205088780717
 30
0.0
 11
5082.013732941222
 21
1946.205088780717
 31
0.0
  0
LINE
  5
1CF8
330
1F
100
AcDbEntity
  8
SANINDUSA
100
AcDbLine
 10
5082.006371941222
 20
1946.190558780717
 30
0.0
 11
5082.006371941222
 21
1946.203935675091
 31
0.0
  0
LINE
  5
1CF9
330
1F
100
AcDbEntity
  8
SANINDUSA
100
AcDbLine
 10
5082.015010941222
 20
1946.2069398339
 30
0.0
 11
5082.015010941222
 21
1946.205088780717
 31
0.0
  0
LINE
  5
1CFA
330
1F
100
AcDbEntity
  8
SANINDUSA
100
AcDbLine
 10
5082.016472048362
 20
1946.205958673577
 30
0.0
 11
5082.015010941222
 21
1946.2069398339
 31
0.0
  0
LINE
  5
1CFB
330
1F
100
AcDbEntity
  8
SANINDUSA
100
AcDbLine
 10
5082.022371941222
 20
1946.197558780717
 30
0.0
 11
5082.006371941222
 21
1946.197558780717
 31
0.0
  0
LINE
  5
1CFC
330
1F
100
AcDbEntity
  8
SANINDUSA
100
AcDbLine
 10
5082.013732941222
 20
1946.205088780717
 30
0.0
 11
5082.013732941222
 21
1946.2069398339
 31
0.0
  0
LINE
  5
1CFD
330
1F
100
AcDbEntity
  8
SANINDUSA
100
AcDbLine
 10
5082.013732941222
 20
1946.2069398339
 30
0.0
 11
5082.012271834082
 21
1946.205958673577
 31
0.0
  0
LINE
  5
1CFE
330
1F
100
AcDbEntity
  8
SANINDUSA
100
AcDbLine
 10
5082.022371941222
 20
1946.190558780717
 30
0.0
 11
5082.006371941222
 21
1946.190558780717
 31
0.0
  0
LINE
  5
1CFF
330
1F
100
AcDbEntity
  8
SANINDUSA
100
AcDbLine
 10
5082.015490888039
 20
1946.207419780717
 30
0.0
 11
5082.016472048362
 21
1946.205958673577
 31
0.0
  0
LINE
  5
1D00
330
1F
100
AcDbEntity
  8
SANINDUSA
100
AcDbLine
 10
5082.015010941222
 20
1946.2069398339
 30
0.0
 11
5082.015010941222
 21
1946.207419780717
 31
0.0
  0
LINE
  5
1D01
330
1F
100
AcDbEntity
  8
SANINDUSA
100
AcDbLine
 10
5082.016472048362
 20
1946.205958673577
 30
0.0
 11
5082.015010941222
 21
1946.207419780717
 31
0.0
  0
LINE
  5
1D02
330
1F
100
AcDbEntity
  8
SANINDUSA
100
AcDbLine
 10
5082.013732941222
 20
1946.207419780717
 30
0.0
 11
5082.013732941222
 21
1946.2069398339
 31
0.0
  0
LINE
  5
1D03
330
1F
100
AcDbEntity
  8
SANINDUSA
100
AcDbLine
 10
5082.012271834082
 20
1946.205958673577
 30
0.0
 11
5082.013732941222
 21
1946.207419780717
 31
0.0
  0
LINE
  5
1D04
330
1F
100
AcDbEntity
  8
SANINDUSA
100
AcDbLine
 10
5082.012271834082
 20
1946.205958673577
 30
0.0
 11
5082.013252994404
 21
1946.207419780717
 31
0.0
  0
ARC
  5
1D05
330
1F
100
AcDbEntity
  8
SANINDUSA
100
AcDbCircle
 10
5082.014371941221
 20
1946.208058780717
 30
0.0
 40
0.009
100
AcDbArc
 50
180.0
 51
0.0
  0
LINE
  5
1D06
330
1F
100
AcDbEntity
  8
SANINDUSA
100
AcDbLine
 10
5082.022371941222
 20
1946.190558780717
 30
0.0
 11
5082.022371941222
 21
1946.203935675091
 31
0.0
  0
CIRCLE
  5
1D07
330
1F
100
AcDbEntity
  8
SANINDUSA
100
AcDbCircle
 10
5082.014371941221
 20
1946.208058780717
 30
0.0
 40
0.005085
  0
LINE
  5
1D08
330
1F
100
AcDbEntity
  8
SANINDUSA
100
AcDbLine
 10
5081.999371941222
 20
1946.230308780717
 30
0.0
 11
5081.999371941222
 21
1946.227308780717
 31
0.0
  0
LINE
  5
1D09
330
1F
100
AcDbEntity
  8
SANINDUSA
100
AcDbLine
 10
5082.029371941222
 20
1946.227308780717
 30
0.0
 11
5082.029371941222
 21
1946.230308780717
 31
0.0
  0
LINE
  5
1D0A
330
1F
100
AcDbEntity
  8
SANINDUSA
100
AcDbLine
 10
5082.001371941221
 20
1946.225308780717
 30
0.0
 11
5082.027371941222
 21
1946.225308780717
 31
0.0
  0
ARC
  5
1D0B
330
1F
100
AcDbEntity
  8
SANINDUSA
100
AcDbCircle
 10
5082.027371941222
 20
1946.227308780717
 30
0.0
 40
0.002
100
AcDbArc
 50
270.0
 51
0.0
  0
ARC
  5
1D0C
330
1F
100
AcDbEntity
  8
SANINDUSA
100
AcDbCircle
 10
5082.001371941221
 20
1946.227308780717
 30
0.0
 40
0.002
100
AcDbArc
 50
180.0
 51
270.0
  0
LINE
  5
1D0D
330
1F
100
AcDbEntity
  8
SANINDUSA
100
AcDbLine
 10
5082.029371941222
 20
1946.230308780717
 30
0.0
 11
5081.999371941222
 21
1946.230308780717
 31
0.0
  0
LINE
  5
1D0E
330
1F
100
AcDbEntity
  8
SANINDUSA
100
AcDbLine
 10
5082.023371941222
 20
1945.57390348153
 30
0.0000000001479286
 11
5082.023371941222
 21
1945.55665348153
 31
0.0000000001479286
  0
LINE
  5
1D0F
330
1F
100
AcDbEntity
  8
SANINDUSA
100
AcDbLine
 10
5082.022371941222
 20
1945.59140348153
 30
0.0000000001479286
 11
5082.022371941222
 21
1945.578026587156
 31
0.0000000001479286
  0
LINE
  5
1D10
330
1F
100
AcDbEntity
  8
SANINDUSA
100
AcDbLine
 10
5082.012271834082
 20
1945.57180337439
 30
0.0000000001479286
 11
5082.013732941222
 21
1945.572784534713
 31
0.0000000001479286
  0
LINE
  5
1D11
330
1F
100
AcDbEntity
  8
SANINDUSA
100
AcDbLine
 10
5082.015490888039
 20
1945.57454248153
 30
0.0000000001479286
 11
5082.016472048362
 21
1945.57600358867
 31
0.0000000001479286
  0
LINE
  5
1D12
330
1F
100
AcDbEntity
  8
SANINDUSA
100
AcDbLine
 10
5082.014371941221
 20
1945.57390348153
 30
0.0000000001479286
 11
5082.015010941222
 21
1945.57390348153
 31
0.0000000001479286
  0
LINE
  5
1D13
330
1F
100
AcDbEntity
  8
SANINDUSA
100
AcDbLine
 10
5082.015010941222
 20
1945.57454248153
 30
0.0000000001479286
 11
5082.015010941222
 21
1945.57326448153
 31
0.0000000001479286
  0
LINE
  5
1D14
330
1F
100
AcDbEntity
  8
SANINDUSA
100
AcDbLine
 10
5082.015010941222
 20
1945.57326448153
 30
0.0000000001479286
 11
5082.014371941221
 21
1945.57390348153
 31
0.0000000001479286
  0
LINE
  5
1D15
330
1F
100
AcDbEntity
  8
SANINDUSA
100
AcDbLine
 10
5082.014371941221
 20
1945.57326448153
 30
0.0000000001479286
 11
5082.014371941221
 21
1945.57390348153
 31
0.0000000001479286
  0
LINE
  5
1D16
330
1F
100
AcDbEntity
  8
SANINDUSA
100
AcDbLine
 10
5082.013732941222
 20
1945.57326448153
 30
0.0000000001479286
 11
5082.015010941222
 21
1945.57326448153
 31
0.0000000001479286
  0
LINE
  5
1D17
330
1F
100
AcDbEntity
  8
SANINDUSA
100
AcDbLine
 10
5082.015010941222
 20
1945.57454248153
 30
0.0000000001479286
 11
5082.015490888039
 21
1945.57454248153
 31
0.0000000001479286
  0
LINE
  5
1D18
330
1F
100
AcDbEntity
  8
SANINDUSA
100
AcDbLine
 10
5082.013732941222
 20
1945.572784534713
 30
0.0000000001479286
 11
5082.013732941222
 21
1945.57326448153
 31
0.0000000001479286
  0
LINE
  5
1D19
330
1F
100
AcDbEntity
  8
SANINDUSA
100
AcDbLine
 10
5082.005371941221
 20
1945.57390348153
 30
0.0000000001479286
 11
5082.005371941221
 21
1945.55665348153
 31
0.0000000001479286
  0
CIRCLE
  5
1D1A
330
1F
100
AcDbEntity
  8
SANINDUSA
100
AcDbCircle
 10
5082.014371941221
 20
1945.57390348153
 30
0.0000000001479286
 40
0.005085
  0
ARC
  5
1D1B
330
1F
100
AcDbEntity
  8
SANINDUSA
100
AcDbCircle
 10
5082.014371941221
 20
1945.57390348153
 30
0.0000000001479286
 40
0.009
100
AcDbArc
 50
0.0
 51
180.0
  0
LINE
  5
1D1C
330
1F
100
AcDbEntity
  8
SANINDUSA
100
AcDbLine
 10
5082.013732941222
 20
1945.57093348153
 30
0.0000000001479286
 11
5082.015010941222
 21
1945.57093348153
 31
0.0000000001479286
  0
LINE
  5
1D1D
330
1F
100
AcDbEntity
  8
SANINDUSA
100
AcDbLine
 10
5082.013732941222
 20
1945.572784534713
 30
0.0000000001479286
 11
5082.013732941222
 21
1945.57093348153
 31
0.0000000001479286
  0
LINE
  5
1D1E
330
1F
100
AcDbEntity
  8
SANINDUSA
100
AcDbLine
 10
5082.036871941221
 20
1945.55665348153
 30
0.0000000001479286
 11
5081.991871941221
 21
1945.55665348153
 31
0.0000000001479286
  0
LINE
  5
1D1F
330
1F
100
AcDbEntity
  8
SANINDUSA
100
AcDbLine
 10
5082.036871941221
 20
1945.53865348153
 30
0.0000000001479286
 11
5081.991871941221
 21
1945.53865348153
 31
0.0000000001479286
  0
LINE
  5
1D20
330
1F
100
AcDbEntity
  8
SANINDUSA
100
AcDbLine
 10
5081.991871941221
 20
1945.55665348153
 30
0.0000000001479286
 11
5081.991871941221
 21
1945.53865348153
 31
0.0000000001479286
  0
LINE
  5
1D21
330
1F
100
AcDbEntity
  8
SANINDUSA
100
AcDbLine
 10
5082.015010941222
 20
1945.57093348153
 30
0.0000000001479286
 11
5082.015010941222
 21
1945.572784534713
 31
0.0000000001479286
  0
LINE
  5
1D22
330
1F
100
AcDbEntity
  8
SANINDUSA
100
AcDbLine
 10
5082.017341941222
 20
1945.57326448153
 30
0.0000000001479286
 11
5082.017341941222
 21
1945.57454248153
 31
0.0000000001479286
  0
LINE
  5
1D23
330
1F
100
AcDbEntity
  8
SANINDUSA
100
AcDbLine
 10
5082.017341941222
 20
1945.57454248153
 30
0.0000000001479286
 11
5082.015490888039
 21
1945.57454248153
 31
0.0000000001479286
  0
LINE
  5
1D24
330
1F
100
AcDbEntity
  8
SANINDUSA
100
AcDbLine
 10
5082.015490888039
 20
1945.57326448153
 30
0.0000000001479286
 11
5082.017341941222
 21
1945.57326448153
 31
0.0000000001479286
  0
LINE
  5
1D25
330
1F
100
AcDbEntity
  8
SANINDUSA
100
AcDbLine
 10
5082.015010941222
 20
1945.57326448153
 30
0.0000000001479286
 11
5082.015010941222
 21
1945.572784534713
 31
0.0000000001479286
  0
LINE
  5
1D26
330
1F
100
AcDbEntity
  8
SANINDUSA
100
AcDbLine
 10
5082.015010941222
 20
1945.572784534713
 30
0.0000000001479286
 11
5082.016472048362
 21
1945.57180337439
 31
0.0000000001479286
  0
LINE
  5
1D27
330
1F
100
AcDbEntity
  8
SANINDUSA
100
AcDbLine
 10
5082.015490888039
 20
1945.57326448153
 30
0.0000000001479286
 11
5082.015010941222
 21
1945.57326448153
 31
0.0000000001479286
  0
LINE
  5
1D28
330
1F
100
AcDbEntity
  8
SANINDUSA
100
AcDbLine
 10
5082.016472048362
 20
1945.57180337439
 30
0.0000000001479286
 11
5082.015010941222
 21
1945.57326448153
 31
0.0000000001479286
  0
LINE
  5
1D29
330
1F
100
AcDbEntity
  8
SANINDUSA
100
AcDbLine
 10
5082.016472048362
 20
1945.57180337439
 30
0.0000000001479286
 11
5082.015490888039
 21
1945.57326448153
 31
0.0000000001479286
  0
LINE
  5
1D2A
330
1F
100
AcDbEntity
  8
SANINDUSA
100
AcDbLine
 10
5082.036871941221
 20
1945.55665348153
 30
0.0000000001479286
 11
5082.036871941221
 21
1945.53865348153
 31
0.0000000001479286
  0
LINE
  5
1D2B
330
1F
100
AcDbEntity
  8
SANINDUSA
100
AcDbLine
 10
5082.011401941223
 20
1945.57454248153
 30
0.0000000001479286
 11
5082.011401941223
 21
1945.57326448153
 31
0.0000000001479286
  0
LINE
  5
1D2C
330
1F
100
AcDbEntity
  8
SANINDUSA
100
AcDbLine
 10
5082.013252994404
 20
1945.57326448153
 30
0.0000000001479286
 11
5082.012271834082
 21
1945.57180337439
 31
0.0000000001479286
  0
LINE
  5
1D2D
330
1F
100
AcDbEntity
  8
SANINDUSA
100
AcDbLine
 10
5082.012271834082
 20
1945.57180337439
 30
0.0000000001479286
 11
5082.013732941222
 21
1945.57326448153
 31
0.0000000001479286
  0
LINE
  5
1D2E
330
1F
100
AcDbEntity
  8
SANINDUSA
100
AcDbLine
 10
5082.011401941223
 20
1945.57326448153
 30
0.0000000001479286
 11
5082.013252994404
 21
1945.57326448153
 31
0.0000000001479286
  0
LINE
  5
1D2F
330
1F
100
AcDbEntity
  8
SANINDUSA
100
AcDbLine
 10
5082.006371941222
 20
1945.59140348153
 30
0.0000000001479286
 11
5082.006371941222
 21
1945.578026587156
 31
0.0000000001479286
  0
LINE
  5
1D30
330
1F
100
AcDbEntity
  8
SANINDUSA
100
AcDbLine
 10
5082.022371941222
 20
1945.59140348153
 30
0.0000000001479286
 11
5082.006371941222
 21
1945.59140348153
 31
0.0000000001479286
  0
LINE
  5
1D31
330
1F
100
AcDbEntity
  8
SANINDUSA
100
AcDbLine
 10
5082.013732941222
 20
1945.57687348153
 30
0.0000000001479286
 11
5082.013732941222
 21
1945.575022428347
 31
0.0000000001479286
  0
LINE
  5
1D32
330
1F
100
AcDbEntity
  8
SANINDUSA
100
AcDbLine
 10
5082.013732941222
 20
1945.575022428347
 30
0.0000000001479286
 11
5082.012271834082
 21
1945.57600358867
 31
0.0000000001479286
  0
LINE
  5
1D33
330
1F
100
AcDbEntity
  8
SANINDUSA
100
AcDbLine
 10
5082.012271834082
 20
1945.57600358867
 30
0.0000000001479286
 11
5082.013732941222
 21
1945.57454248153
 31
0.0000000001479286
  0
LINE
  5
1D34
330
1F
100
AcDbEntity
  8
SANINDUSA
100
AcDbLine
 10
5082.012271834082
 20
1945.57600358867
 30
0.0000000001479286
 11
5082.013252994404
 21
1945.57454248153
 31
0.0000000001479286
  0
LINE
  5
1D35
330
1F
100
AcDbEntity
  8
SANINDUSA
100
AcDbLine
 10
5082.013252994404
 20
1945.57454248153
 30
0.0000000001479286
 11
5082.011401941223
 21
1945.57454248153
 31
0.0000000001479286
  0
LINE
  5
1D36
330
1F
100
AcDbEntity
  8
SANINDUSA
100
AcDbLine
 10
5082.013732941222
 20
1945.57454248153
 30
0.0000000001479286
 11
5082.013732941222
 21
1945.575022428347
 31
0.0000000001479286
  0
LINE
  5
1D37
330
1F
100
AcDbEntity
  8
SANINDUSA
100
AcDbLine
 10
5082.013252994404
 20
1945.57454248153
 30
0.0000000001479286
 11
5082.013732941222
 21
1945.57454248153
 31
0.0000000001479286
  0
LINE
  5
1D38
330
1F
100
AcDbEntity
  8
SANINDUSA
100
AcDbLine
 10
5082.015010941222
 20
1945.57687348153
 30
0.0000000001479286
 11
5082.013732941222
 21
1945.57687348153
 31
0.0000000001479286
  0
LINE
  5
1D39
330
1F
100
AcDbEntity
  8
SANINDUSA
100
AcDbLine
 10
5082.016472048362
 20
1945.57600358867
 30
0.0000000001479286
 11
5082.015010941222
 21
1945.57454248153
 31
0.0000000001479286
  0
LINE
  5
1D3A
330
1F
100
AcDbEntity
  8
SANINDUSA
100
AcDbLine
 10
5082.016472048362
 20
1945.57600358867
 30
0.0000000001479286
 11
5082.015010941222
 21
1945.575022428347
 31
0.0000000001479286
  0
LINE
  5
1D3B
330
1F
100
AcDbEntity
  8
SANINDUSA
100
AcDbLine
 10
5082.013732941222
 20
1945.57390348153
 30
0.0000000001479286
 11
5082.014371941221
 21
1945.57390348153
 31
0.0000000001479286
  0
LINE
  5
1D3C
330
1F
100
AcDbEntity
  8
SANINDUSA
100
AcDbLine
 10
5082.014371941221
 20
1945.57390348153
 30
0.0000000001479286
 11
5082.015010941222
 21
1945.57454248153
 31
0.0000000001479286
  0
LINE
  5
1D3D
330
1F
100
AcDbEntity
  8
SANINDUSA
100
AcDbLine
 10
5082.014371941221
 20
1945.57390348153
 30
0.0000000001479286
 11
5082.014371941221
 21
1945.57454248153
 31
0.0000000001479286
  0
LINE
  5
1D3E
330
1F
100
AcDbEntity
  8
SANINDUSA
100
AcDbLine
 10
5082.014371941221
 20
1945.57390348153
 30
0.0000000001479286
 11
5082.013732941222
 21
1945.57326448153
 31
0.0000000001479286
  0
LINE
  5
1D3F
330
1F
100
AcDbEntity
  8
SANINDUSA
100
AcDbLine
 10
5082.015010941222
 20
1945.575022428347
 30
0.0000000001479286
 11
5082.015010941222
 21
1945.57454248153
 31
0.0000000001479286
  0
LINE
  5
1D40
330
1F
100
AcDbEntity
  8
SANINDUSA
100
AcDbLine
 10
5082.013732941222
 20
1945.57326448153
 30
0.0000000001479286
 11
5082.013252994404
 21
1945.57326448153
 31
0.0000000001479286
  0
LINE
  5
1D41
330
1F
100
AcDbEntity
  8
SANINDUSA
100
AcDbLine
 10
5082.015010941222
 20
1945.575022428347
 30
0.0000000001479286
 11
5082.015010941222
 21
1945.57687348153
 31
0.0000000001479286
  0
LINE
  5
1D42
330
1F
100
AcDbEntity
  8
SANINDUSA
100
AcDbLine
 10
5082.013732941222
 20
1945.57454248153
 30
0.0000000001479286
 11
5082.014371941221
 21
1945.57390348153
 31
0.0000000001479286
  0
LINE
  5
1D43
330
1F
100
AcDbEntity
  8
SANINDUSA
100
AcDbLine
 10
5082.013732941222
 20
1945.57326448153
 30
0.0000000001479286
 11
5082.013732941222
 21
1945.57454248153
 31
0.0000000001479286
  0
LINE
  5
1D44
330
1F
100
AcDbEntity
  8
SANINDUSA
100
AcDbLine
 10
5082.015010941222
 20
1945.57454248153
 30
0.0000000001479286
 11
5082.013732941222
 21
1945.57454248153
 31
0.0000000001479286
  0
LINE
  5
1D45
330
1F
100
AcDbEntity
  8
SANINDUSA
100
AcDbLine
 10
5082.022371941222
 20
1945.58440348153
 30
0.0000000001479286
 11
5082.006371941222
 21
1945.58440348153
 31
0.0000000001479286
  0
CIRCLE
  5
1D4B
330
1F
100
AcDbEntity
  8
SANINDUSA
100
AcDbCircle
 10
5082.293371941222
 20
1945.537353429237
 30
0.0000000001479286
 40
0.008
  0
ARC
  5
2115
330
1F
100
AcDbEntity
  8
SANINDUSA
100
AcDbCircle
 10
5083.865316072778
 20
1946.376065225043
 30
-0.0000000017937957
 40
0.001
100
AcDbArc
 50
90.0
 51
180.0
  0
LINE
  5
2116
330
1F
100
AcDbEntity
  8
SANINDUSA
100
AcDbLine
 10
5083.940316072778
 20
1946.377065225043
 30
-0.0000000017937957
 11
5083.999316072777
 21
1946.377065225043
 31
-0.0000000017937957
  0
ARC
  5
2117
330
1F
100
AcDbEntity
  8
SANINDUSA
100
AcDbCircle
 10
5083.999316072777
 20
1946.376065225043
 30
-0.0000000017937957
 40
0.001
100
AcDbArc
 50
0.0
 51
90.0
  0
ARC
  5
2118
330
1F
100
AcDbEntity
  8
SANINDUSA
100
AcDbCircle
 10
5083.939316072778
 20
1946.382565225043
 30
-0.0000000017937957
 40
0.001
100
AcDbArc
 50
0.0
 51
90.0
  0
LINE
  5
2119
330
1F
100
AcDbEntity
  8
SANINDUSA
100
AcDbLine
 10
5083.940316072778
 20
1946.382565225043
 30
-0.0000000017937957
 11
5083.940316072778
 21
1946.377065225043
 31
-0.0000000017937957
  0
LINE
  5
211A
330
1F
100
AcDbEntity
  8
SANINDUSA
100
AcDbLine
 10
5083.939816072778
 20
1946.361565225043
 30
-0.0000000017937957
 11
5083.939816072778
 21
1946.357565225043
 31
-0.0000000017937957
  0
LINE
  5
211B
330
1F
100
AcDbEntity
  8
SANINDUSA
100
AcDbLine
 10
5083.940316072778
 20
1946.377065225043
 30
-0.0000000017937957
 11
5083.940316072778
 21
1946.361565225043
 31
-0.0000000017937957
  0
ARC
  5
211C
330
1F
100
AcDbEntity
  8
SANINDUSA
100
AcDbCircle
 10
5083.925316072778
 20
1946.382565225043
 30
-0.0000000017937957
 40
0.001
100
AcDbArc
 50
90.0
 51
180.0
  0
LINE
  5
211D
330
1F
100
AcDbEntity
  8
SANINDUSA
100
AcDbLine
 10
5083.925316072778
 20
1946.383565225043
 30
-0.0000000017937957
 11
5083.939316072778
 21
1946.383565225043
 31
-0.0000000017937957
  0
LINE
  5
211E
330
1F
100
AcDbEntity
  8
SANINDUSA
100
AcDbLine
 10
5083.924816072777
 20
1946.361565225043
 30
-0.0000000017937957
 11
5083.924816072777
 21
1946.357565225043
 31
-0.0000000017937957
  0
LINE
  5
211F
330
1F
100
AcDbEntity
  8
SANINDUSA
100
AcDbLine
 10
5083.924316072778
 20
1946.357565225043
 30
-0.0000000017937957
 11
5083.923427183889
 21
1946.357565225043
 31
-0.0000000017937957
  0
LINE
  5
2120
330
1F
100
AcDbEntity
  8
SANINDUSA
100
AcDbLine
 10
5083.941204961667
 20
1946.361565225043
 30
-0.0000000017937957
 11
5083.924316072778
 21
1946.361565225043
 31
-0.0000000017937957
  0
LINE
  5
2121
330
1F
100
AcDbEntity
  8
SANINDUSA
100
AcDbLine
 10
5083.924316072778
 20
1946.357565225043
 30
-0.0000000017937957
 11
5083.940316072778
 21
1946.357565225043
 31
-0.0000000017937957
  0
LINE
  5
2122
330
1F
100
AcDbEntity
  8
SANINDUSA
100
AcDbLine
 10
5083.924316072778
 20
1946.361565225043
 30
-0.0000000017937957
 11
5083.924316072778
 21
1946.382565225043
 31
-0.0000000017937957
  0
LINE
  5
2123
330
1F
100
AcDbEntity
  8
SANINDUSA
100
AcDbLine
 10
5083.923427183889
 20
1946.357565225043
 30
-0.0000000017937957
 11
5083.923427183889
 21
1946.377065225043
 31
-0.0000000017937957
  0
LINE
  5
2124
330
1F
100
AcDbEntity
  8
SANINDUSA
100
AcDbLine
 10
5083.923427183889
 20
1946.377065225043
 30
-0.0000000017937957
 11
5083.865316072778
 21
1946.377065225043
 31
-0.0000000017937957
  0
ARC
  5
2125
330
1F
100
AcDbEntity
  8
SANINDUSA
100
AcDbCircle
 10
5083.865316072778
 20
1946.343065225043
 30
-0.0000000017937957
 40
0.001
100
AcDbArc
 50
180.0
 51
270.0
  0
ARC
  5
2126
330
1F
100
AcDbEntity
  8
SANINDUSA
100
AcDbCircle
 10
5083.939316072778
 20
1946.336565225043
 30
-0.0000000017937957
 40
0.001
100
AcDbArc
 50
270.0
 51
0.0
  0
ARC
  5
2127
330
1F
100
AcDbEntity
  8
SANINDUSA
100
AcDbCircle
 10
5083.925316072778
 20
1946.336565225043
 30
-0.0000000017937957
 40
0.001
100
AcDbArc
 50
180.0
 51
270.0
  0
LINE
  5
2128
330
1F
100
AcDbEntity
  8
SANINDUSA
100
AcDbLine
 10
5083.939316072778
 20
1946.335565225043
 30
-0.0000000017937957
 11
5083.925316072778
 21
1946.335565225043
 31
-0.0000000017937957
  0
LINE
  5
2129
330
1F
100
AcDbEntity
  8
SANINDUSA
100
AcDbLine
 10
5083.999316072777
 20
1946.342065225043
 30
-0.0000000017937957
 11
5083.941204961667
 21
1946.342065225043
 31
-0.0000000017937957
  0
ARC
  5
212A
330
1F
100
AcDbEntity
  8
SANINDUSA
100
AcDbCircle
 10
5083.999316072777
 20
1946.343065225043
 30
-0.0000000017937957
 40
0.001
100
AcDbArc
 50
270.0
 51
0.0
  0
LINE
  5
212B
330
1F
100
AcDbEntity
  8
SANINDUSA
100
AcDbLine
 10
5083.865316072778
 20
1946.342065225043
 30
-0.0000000017937957
 11
5083.924316072778
 21
1946.342065225043
 31
-0.0000000017937957
  0
LINE
  5
212C
330
1F
100
AcDbEntity
  8
SANINDUSA
100
AcDbLine
 10
5083.940316072778
 20
1946.357565225043
 30
-0.0000000017937957
 11
5083.940316072778
 21
1946.336565225043
 31
-0.0000000017937957
  0
LINE
  5
212D
330
1F
100
AcDbEntity
  8
SANINDUSA
100
AcDbLine
 10
5083.924316072778
 20
1946.336565225043
 30
-0.0000000017937957
 11
5083.924316072778
 21
1946.357565225043
 31
-0.0000000017937957
  0
LINE
  5
212E
330
1F
100
AcDbEntity
  8
SANINDUSA
100
AcDbLine
 10
5084.000316072778
 20
1946.376065225043
 30
-0.0000000017937957
 11
5084.000316072778
 21
1946.343065225043
 31
-0.0000000017937957
  0
LINE
  5
212F
330
1F
100
AcDbEntity
  8
SANINDUSA
100
AcDbLine
 10
5083.941204961667
 20
1946.342065225043
 30
-0.0000000017937957
 11
5083.941204961667
 21
1946.361565225043
 31
-0.0000000017937957
  0
LINE
  5
2130
330
1F
100
AcDbEntity
  8
SANINDUSA
100
AcDbLine
 10
5083.864316072777
 20
1946.376065225043
 30
-0.0000000017937957
 11
5083.864316072777
 21
1946.343065225043
 31
-0.0000000017937957
  0
ARC
  5
2132
330
1F
100
AcDbEntity
  8
SANINDUSA
100
AcDbCircle
 10
5083.865316072778
 20
1945.116065225053
 30
-0.0000000017937957
 40
0.001
100
AcDbArc
 50
90.0
 51
180.0
  0
LINE
  5
2133
330
1F
100
AcDbEntity
  8
SANINDUSA
100
AcDbLine
 10
5083.864316072777
 20
1945.116065225053
 30
-0.0000000017937957
 11
5083.864316072777
 21
1945.083065225053
 31
-0.0000000017937957
  0
ARC
  5
2134
330
1F
100
AcDbEntity
  8
SANINDUSA
100
AcDbCircle
 10
5083.865316072778
 20
1945.083065225053
 30
-0.0000000017937957
 40
0.001
100
AcDbArc
 50
180.0
 51
270.0
  0
ARC
  5
2135
330
1F
100
AcDbEntity
  8
SANINDUSA
100
AcDbCircle
 10
5083.939316072778
 20
1945.122565225053
 30
-0.0000000017937957
 40
0.001
100
AcDbArc
 50
0.0
 51
90.0
  0
ARC
  5
2136
330
1F
100
AcDbEntity
  8
SANINDUSA
100
AcDbCircle
 10
5083.925316072778
 20
1945.122565225053
 30
-0.0000000017937957
 40
0.001
100
AcDbArc
 50
90.0
 51
180.0
  0
LINE
  5
2137
330
1F
100
AcDbEntity
  8
SANINDUSA
100
AcDbLine
 10
5083.940316072778
 20
1945.117065225053
 30
-0.0000000017937957
 11
5083.999316072777
 21
1945.117065225053
 31
-0.0000000017937957
  0
LINE
  5
2138
330
1F
100
AcDbEntity
  8
SANINDUSA
100
AcDbLine
 10
5083.999316072777
 20
1945.082065225053
 30
-0.0000000017937957
 11
5083.941204961667
 21
1945.082065225053
 31
-0.0000000017937957
  0
ARC
  5
2139
330
1F
100
AcDbEntity
  8
SANINDUSA
100
AcDbCircle
 10
5083.999316072777
 20
1945.116065225053
 30
-0.0000000017937957
 40
0.001
100
AcDbArc
 50
0.0
 51
90.0
  0
ARC
  5
213A
330
1F
100
AcDbEntity
  8
SANINDUSA
100
AcDbCircle
 10
5083.999316072777
 20
1945.083065225053
 30
-0.0000000017937957
 40
0.001
100
AcDbArc
 50
270.0
 51
0.0
  0
LINE
  5
213B
330
1F
100
AcDbEntity
  8
SANINDUSA
100
AcDbLine
 10
5084.000316072778
 20
1945.116065225053
 30
-0.0000000017937957
 11
5084.000316072778
 21
1945.083065225053
 31
-0.0000000017937957
  0
LINE
  5
213C
330
1F
100
AcDbEntity
  8
SANINDUSA
100
AcDbLine
 10
5083.940316072778
 20
1945.122565225053
 30
-0.0000000017937957
 11
5083.940316072778
 21
1945.117065225053
 31
-0.0000000017937957
  0
LINE
  5
213D
330
1F
100
AcDbEntity
  8
SANINDUSA
100
AcDbLine
 10
5083.940316072778
 20
1945.097565225053
 30
-0.0000000017937957
 11
5083.940316072778
 21
1945.076565225052
 31
-0.0000000017937957
  0
LINE
  5
213E
330
1F
100
AcDbEntity
  8
SANINDUSA
100
AcDbLine
 10
5083.941204961667
 20
1945.082065225053
 30
-0.0000000017937957
 11
5083.941204961667
 21
1945.101565225053
 31
-0.0000000017937957
  0
ARC
  5
213F
330
1F
100
AcDbEntity
  8
SANINDUSA
100
AcDbCircle
 10
5083.939316072778
 20
1945.076565225052
 30
-0.0000000017937957
 40
0.001
100
AcDbArc
 50
270.0
 51
0.0
  0
LINE
  5
2140
330
1F
100
AcDbEntity
  8
SANINDUSA
100
AcDbLine
 10
5083.939816072778
 20
1945.101565225053
 30
-0.0000000017937957
 11
5083.939816072778
 21
1945.097565225053
 31
-0.0000000017937957
  0
LINE
  5
2141
330
1F
100
AcDbEntity
  8
SANINDUSA
100
AcDbLine
 10
5083.940316072778
 20
1945.117065225053
 30
-0.0000000017937957
 11
5083.940316072778
 21
1945.101565225053
 31
-0.0000000017937957
  0
LINE
  5
2142
330
1F
100
AcDbEntity
  8
SANINDUSA
100
AcDbLine
 10
5083.925316072778
 20
1945.123565225053
 30
-0.0000000017937957
 11
5083.939316072778
 21
1945.123565225053
 31
-0.0000000017937957
  0
LINE
  5
2143
330
1F
100
AcDbEntity
  8
SANINDUSA
100
AcDbLine
 10
5083.924316072778
 20
1945.076565225052
 30
-0.0000000017937957
 11
5083.924316072778
 21
1945.097565225053
 31
-0.0000000017937957
  0
ARC
  5
2144
330
1F
100
AcDbEntity
  8
SANINDUSA
100
AcDbCircle
 10
5083.925316072778
 20
1945.076565225052
 30
-0.0000000017937957
 40
0.001
100
AcDbArc
 50
180.0
 51
270.0
  0
LINE
  5
2145
330
1F
100
AcDbEntity
  8
SANINDUSA
100
AcDbLine
 10
5083.924816072777
 20
1945.101565225053
 30
-0.0000000017937957
 11
5083.924816072777
 21
1945.097565225053
 31
-0.0000000017937957
  0
LINE
  5
2146
330
1F
100
AcDbEntity
  8
SANINDUSA
100
AcDbLine
 10
5083.924316072778
 20
1945.097565225053
 30
-0.0000000017937957
 11
5083.923427183889
 21
1945.097565225053
 31
-0.0000000017937957
  0
LINE
  5
2147
330
1F
100
AcDbEntity
  8
SANINDUSA
100
AcDbLine
 10
5083.939316072778
 20
1945.075565225053
 30
-0.0000000017937957
 11
5083.925316072778
 21
1945.075565225053
 31
-0.0000000017937957
  0
LINE
  5
2148
330
1F
100
AcDbEntity
  8
SANINDUSA
100
AcDbLine
 10
5083.941204961667
 20
1945.101565225053
 30
-0.0000000017937957
 11
5083.924316072778
 21
1945.101565225053
 31
-0.0000000017937957
  0
LINE
  5
2149
330
1F
100
AcDbEntity
  8
SANINDUSA
100
AcDbLine
 10
5083.924316072778
 20
1945.097565225053
 30
-0.0000000017937957
 11
5083.940316072778
 21
1945.097565225053
 31
-0.0000000017937957
  0
LINE
  5
214A
330
1F
100
AcDbEntity
  8
SANINDUSA
100
AcDbLine
 10
5083.924316072778
 20
1945.101565225053
 30
-0.0000000017937957
 11
5083.924316072778
 21
1945.122565225053
 31
-0.0000000017937957
  0
LINE
  5
214B
330
1F
100
AcDbEntity
  8
SANINDUSA
100
AcDbLine
 10
5083.923427183889
 20
1945.097565225053
 30
-0.0000000017937957
 11
5083.923427183889
 21
1945.117065225053
 31
-0.0000000017937957
  0
LINE
  5
214C
330
1F
100
AcDbEntity
  8
SANINDUSA
100
AcDbLine
 10
5083.923427183889
 20
1945.117065225053
 30
-0.0000000017937957
 11
5083.865316072778
 21
1945.117065225053
 31
-0.0000000017937957
  0
LINE
  5
214D
330
1F
100
AcDbEntity
  8
SANINDUSA
100
AcDbLine
 10
5083.865316072778
 20
1945.082065225053
 30
-0.0000000017937957
 11
5083.924316072778
 21
1945.082065225053
 31
-0.0000000017937957
  0
LINE
  5
2153
330
1F
100
AcDbEntity
  8
SANINDUSA
100
AcDbLine
 10
5083.933816072778
 20
1946.654565225053
 30
0.0
 11
5084.59825693739
 21
1946.654565225053
 31
0.0
  0
LINE
  5
2154
330
1F
100
AcDbEntity
  8
SANINDUSA
100
AcDbLine
 10
5083.933816072778
 20
1944.814565225053
 30
0.0
 11
5084.558220295563
 21
1944.814565225053
 31
0.0
  0
LINE
  5
2156
330
1F
100
AcDbEntity
  8
SANINDUSA
100
AcDbLine
 10
5083.197933284651
 20
1944.804565225053
 30
0.0
 11
5084.59825693739
 21
1944.804565225053
 31
0.0
  0
LINE
  5
2157
330
1F
100
AcDbEntity
  8
SANINDUSA
100
AcDbLine
 10
5084.547969329109
 20
1944.814565225053
 30
0.0
 11
5084.547969329109
 21
1946.654565225053
 31
0.0
  0
LINE
  5
2158
330
1F
100
AcDbEntity
  8
SANINDUSA
100
AcDbLine
 10
5084.57995693739
 20
1944.814565225053
 30
0.0
 11
5084.57995693739
 21
1946.654565225053
 31
0.0
  0
LINE
  5
2159
330
1F
100
AcDbEntity
  8
SANINDUSA
100
AcDbLine
 10
5084.58595693739
 20
1944.814565225053
 30
0.0
 11
5084.58595693739
 21
1946.654565225053
 31
0.0
  0
LINE
  5
215A
330
1F
100
AcDbEntity
  8
SANINDUSA
100
AcDbLine
 10
5084.59825693739
 20
1944.804565225053
 30
0.0
 11
5084.59825693739
 21
1946.654565225053
 31
0.0
  0
LINE
  5
215B
330
1F
100
AcDbEntity
  8
SANINDUSA
100
AcDbLine
 10
5084.558555271032
 20
1944.804565225053
 30
0.0
 11
5084.558555271032
 21
1946.654565225053
 31
0.0
  0
LINE
  5
2160
330
1F
100
AcDbEntity
  8
SANINDUSA
100
AcDbLine
 10
5084.57995693739
 20
1944.814565225053
 30
0.0
 11
5084.58595693739
 21
1944.814565225053
 31
0.0
  0
LINE
  5
2162
330
1F
100
AcDbEntity
  8
SANINDUSA
100
AcDbLine
 10
5083.933816072778
 20
1945.123565225053
 30
0.0
 11
5083.933816072778
 21
1946.335565225043
 31
0.0
  0
LINE
  5
2163
330
1F
100
AcDbEntity
  8
SANINDUSA
100
AcDbLine
 10
5083.930816072778
 20
1945.123565225053
 30
0.0
 11
5083.930816072778
 21
1946.335565225043
 31
0.0
  0
LINE
  5
2164
330
1F
100
AcDbEntity
  8
SANINDUSA
100
AcDbLine
 10
5083.25278328465
 20
1944.804565225053
 30
0.0
 11
5083.25278328465
 21
1946.654565225053
 31
0.0
  0
LINE
  5
2165
330
1F
100
AcDbEntity
  8
SANINDUSA
100
AcDbLine
 10
5083.197933284651
 20
1944.804565225053
 30
0.0
 11
5083.197933284651
 21
1946.654565225053
 31
0.0
  0
LINE
  5
216A
330
1F
100
AcDbEntity
  8
SANINDUSA
100
AcDbLine
 10
5083.930816072778
 20
1944.804565225053
 30
0.0
 11
5083.930816072778
 21
1945.075565225053
 31
0.0
  0
LINE
  5
216B
330
1F
100
AcDbEntity
  8
SANINDUSA
100
AcDbLine
 10
5083.933816072778
 20
1944.814565225053
 30
0.0
 11
5083.933816072778
 21
1945.075565225053
 31
0.0
  0
LINE
  5
216D
330
1F
100
AcDbEntity
  8
SANINDUSA
100
AcDbLine
 10
5083.197933284651
 20
1946.654565225053
 30
0.0
 11
5083.930816072778
 21
1946.654565225053
 31
0.0
  0
LINE
  5
216E
330
1F
100
AcDbEntity
  8
SANINDUSA
100
AcDbLine
 10
5083.930816072778
 20
1946.383565225043
 30
0.0
 11
5083.930816072778
 21
1946.654565225053
 31
0.0
  0
LINE
  5
216F
330
1F
100
AcDbEntity
  8
SANINDUSA
100
AcDbLine
 10
5083.933816072778
 20
1946.383565225043
 30
0.0
 11
5083.933816072778
 21
1946.654565225053
 31
0.0
  0
LINE
  5
2170
330
1F
100
AcDbEntity
  8
SANINDUSA
100
AcDbLine
 10
5084.595926252355
 20
1946.654565225053
 30
0.0
 11
5084.595926252355
 21
1944.804565225053
 31
0.0
  0
LINE
  5
2171
330
1F
100
AcDbEntity
  8
SANINDUSA
100
AcDbLine
 10
5084.521969329109
 20
1946.654565225053
 30
0.0000000001555553
 11
5084.521969329109
 21
1944.814565225053
 31
0.0000000001555553
  0
ARC
  5
21E9
330
1F
100
AcDbEntity
  8
SANINDUSA
100
AcDbCircle
 10
5081.532249917461
 20
1945.55945348153
 30
0.0
 40
0.0009999999999999
100
AcDbArc
 50
90.0
 51
180.0
  0
LINE
  5
21EA
330
1F
100
AcDbEntity
  8
SANINDUSA
100
AcDbLine
 10
5081.531249917461
 20
1945.558467695093
 30
0.0
 11
5081.531249917461
 21
1945.55945348153
 31
0.0
  0
LINE
  5
21EB
330
1F
100
AcDbEntity
  8
SANINDUSA
100
AcDbLine
 10
5081.532249917461
 20
1945.56045348153
 30
0.0
 11
5081.567273221594
 21
1945.56045348153
 31
0.0
  0
ARC
  5
21EC
330
1F
100
AcDbEntity
  8
SANINDUSA
100
AcDbCircle
 10
5081.532249917461
 20
1945.558467695093
 30
0.0
 40
0.0010000000000003
100
AcDbArc
 50
180.0
 51
225.0
  0
ARC
  5
21ED
330
1F
100
AcDbEntity
  8
SANINDUSA
100
AcDbCircle
 10
5081.567273221594
 20
1945.55945348153
 30
0.0
 40
0.001
100
AcDbArc
 50
270.0
 51
90.0
  0
LINE
  5
21EE
330
1F
100
AcDbEntity
  8
SANINDUSA
100
AcDbLine
 10
5081.532457024243
 20
1945.556846374749
 30
0.0
 11
5081.53154281068
 21
1945.557760588311
 31
0.0
  0
LINE
  5
21EF
330
1F
100
AcDbEntity
  8
SANINDUSA
100
AcDbLine
 10
5081.567273221594
 20
1945.55845348153
 30
0.0
 11
5081.535749917462
 21
1945.55845348153
 31
0.0
  0
ARC
  5
21F0
330
1F
100
AcDbEntity
  8
SANINDUSA
100
AcDbCircle
 10
5081.531749917462
 20
1945.556139267968
 30
0.0
 40
0.0010000000000003
100
AcDbArc
 50
0.0
 51
45.0
  0
ARC
  5
21F1
330
1F
100
AcDbEntity
  8
SANINDUSA
100
AcDbCircle
 10
5081.535749917462
 20
1945.55745348153
 30
0.0
 40
0.001
100
AcDbArc
 50
90.0
 51
180.0
  0
LINE
  5
21F2
330
1F
100
AcDbEntity
  8
SANINDUSA
100
AcDbLine
 10
5081.532749917462
 20
1945.552764141702
 30
0.0
 11
5081.532749917462
 21
1945.556139267968
 31
0.0
  0
LINE
  5
21F3
330
1F
100
AcDbEntity
  8
SANINDUSA
100
AcDbLine
 10
5081.534749917462
 20
1945.55745348153
 30
0.0
 11
5081.534749917462
 21
1945.539594295253
 31
0.0
  0
ARC
  5
21F4
330
1F
100
AcDbEntity
  8
SANINDUSA
100
AcDbCircle
 10
5081.532999917462
 20
1945.552764141702
 30
0.0
 40
0.0002500000000003
100
AcDbArc
 50
180.0
 51
225.0
  0
ARC
  5
21F5
330
1F
100
AcDbEntity
  8
SANINDUSA
100
AcDbCircle
 10
5081.535749917462
 20
1945.539594295253
 30
0.0
 40
0.001
100
AcDbArc
 50
180.0
 51
272.1494579411624
  0
LINE
  5
21F6
330
1F
100
AcDbEntity
  8
SANINDUSA
100
AcDbLine
 10
5081.533303470853
 20
1945.55210703492
 30
0.0
 11
5081.532823140767
 21
1945.552587365007
 31
0.0
  0
ARC
  5
21F7
330
1F
100
AcDbEntity
  8
SANINDUSA
100
AcDbCircle
 10
5081.532159809024
 20
1945.635247041175
 30
0.0
 40
0.0967200954923435
100
AcDbArc
 50
272.1494579411624
 51
285.5601696169789
  0
ARC
  5
21F8
330
1F
100
AcDbEntity
  8
SANINDUSA
100
AcDbCircle
 10
5081.532949917463
 20
1945.55175348153
 30
0.0
 40
0.0005
100
AcDbArc
 50
315.0
 51
45.0
  0
ARC
  5
21F9
330
1F
100
AcDbEntity
  8
SANINDUSA
100
AcDbCircle
 10
5081.557970868221
 20
1945.54255348153
 30
0.0
 40
0.0005
100
AcDbArc
 50
285.5601696169789
 51
90.0
  0
LINE
  5
21FA
330
1F
100
AcDbEntity
  8
SANINDUSA
100
AcDbLine
 10
5081.532823140767
 20
1945.550919598053
 30
0.0
 11
5081.533303470853
 21
1945.55139992814
 31
0.0
  0
LINE
  5
21FB
330
1F
100
AcDbEntity
  8
SANINDUSA
100
AcDbLine
 10
5081.557970868221
 20
1945.54305348153
 30
0.0
 11
5081.545273221593
 21
1945.54305348153
 31
0.0
  0
ARC
  5
21FC
330
1F
100
AcDbEntity
  8
SANINDUSA
100
AcDbCircle
 10
5081.532999917462
 20
1945.550742821358
 30
0.0
 40
0.00025
100
AcDbArc
 50
135.0
 51
180.0
  0
ARC
  5
21FD
330
1F
100
AcDbEntity
  8
SANINDUSA
100
AcDbCircle
 10
5081.545273221593
 20
1945.54405348153
 30
0.0
 40
0.001
100
AcDbArc
 50
90.0
 51
270.0
  0
LINE
  5
21FE
330
1F
100
AcDbEntity
  8
SANINDUSA
100
AcDbLine
 10
5081.532749917462
 20
1945.540553457868
 30
0.0
 11
5081.532749917462
 21
1945.550742821358
 31
0.0
  0
LINE
  5
21FF
330
1F
100
AcDbEntity
  8
SANINDUSA
100
AcDbLine
 10
5081.545273221593
 20
1945.54505348153
 30
0.0
 11
5081.567273221594
 21
1945.54505348153
 31
0.0
  0
ARC
  5
2200
330
1F
100
AcDbEntity
  8
SANINDUSA
100
AcDbCircle
 10
5081.531749917462
 20
1945.540553457868
 30
0.0
 40
0.0010000000000003
100
AcDbArc
 50
314.9106959381468
 51
0.0
  0
ARC
  5
2201
330
1F
100
AcDbEntity
  8
SANINDUSA
100
AcDbCircle
 10
5081.567273221594
 20
1945.54405348153
 30
0.0
 40
0.001
100
AcDbArc
 50
291.0588352713053
 51
90.0
  0
LINE
  5
2202
330
1F
100
AcDbEntity
  8
SANINDUSA
100
AcDbLine
 10
5081.531549482142
 20
1945.538941631951
 30
0.0
 11
5081.532455921253
 21
1945.539845249815
 31
0.0
  0
ARC
  5
2203
330
1F
100
AcDbEntity
  8
SANINDUSA
100
AcDbCircle
 10
5081.532159809024
 20
1945.635247041175
 30
0.0
 40
0.0987200954923432
100
AcDbArc
 50
270.052236582395
 51
291.0588352713053
  0
ARC
  5
2204
330
1F
100
AcDbEntity
  8
SANINDUSA
100
AcDbCircle
 10
5081.532255485933
 20
1945.538233423897
 30
0.0
 40
0.0010000000000003
100
AcDbArc
 50
134.9106959381467
 51
179.4659008959631
  0
ARC
  5
2205
330
1F
100
AcDbEntity
  8
SANINDUSA
100
AcDbCircle
 10
5081.53224890048
 20
1945.537526986295
 30
0.0
 40
0.001
100
AcDbArc
 50
179.4659008959631
 51
270.052236582395
  0
LINE
  5
2206
330
1F
100
AcDbEntity
  8
SANINDUSA
100
AcDbLine
 10
5081.531248943928
 20
1945.537536307948
 30
0.0
 11
5081.53125552938
 21
1945.53824274555
 31
0.0
  0
LINE
  5
2209
330
1F
100
AcDbEntity
  8
SANINDUSA
100
AcDbLine
 10
5081.528899917461
 20
1945.536526986295
 30
0.0
 11
5081.528899917461
 21
1945.56045348153
 31
0.0
  0
LINE
  5
220A
330
1F
100
AcDbEntity
  8
SANINDUSA
100
AcDbLine
 10
5081.528899917461
 20
1945.536526986295
 30
0.0
 11
5081.529898798375
 21
1945.536526986295
 31
0.0
  0
LINE
  5
220B
330
1F
100
AcDbEntity
  8
SANINDUSA
100
AcDbLine
 10
5081.529899917462
 20
1945.56045348153
 30
0.0
 11
5081.528899917461
 21
1945.56045348153
 31
0.0
  0
ARC
  5
220C
330
1F
100
AcDbEntity
  8
SANINDUSA
100
AcDbCircle
 10
5081.529898798375
 20
1945.537526986295
 30
0.0
 40
0.0009999999999999
100
AcDbArc
 50
270.0
 51
359.4659008959632
  0
ARC
  5
220D
330
1F
100
AcDbEntity
  8
SANINDUSA
100
AcDbCircle
 10
5081.529899917462
 20
1945.55945348153
 30
0.0
 40
0.0009999999999999
100
AcDbArc
 50
0.0
 51
90.0
  0
LINE
  5
220E
330
1F
100
AcDbEntity
  8
SANINDUSA
100
AcDbLine
 10
5081.530898754927
 20
1945.537517664642
 30
0.0
 11
5081.530905544587
 21
1945.538246008129
 31
0.0
  0
LINE
  5
220F
330
1F
100
AcDbEntity
  8
SANINDUSA
100
AcDbLine
 10
5081.530899917463
 20
1945.558467695093
 30
0.0
 11
5081.530899917463
 21
1945.55945348153
 31
0.0
  0
ARC
  5
2210
330
1F
100
AcDbEntity
  8
SANINDUSA
100
AcDbCircle
 10
5081.532255485933
 20
1945.538233423897
 30
0.0
 40
0.00135
100
AcDbArc
 50
134.9106959381467
 51
179.4659008959631
  0
ARC
  5
2211
330
1F
100
AcDbEntity
  8
SANINDUSA
100
AcDbCircle
 10
5081.532249917461
 20
1945.558467695093
 30
0.0
 40
0.0013499999999998
100
AcDbArc
 50
180.0
 51
225.0
  0
LINE
  5
2212
330
1F
100
AcDbEntity
  8
SANINDUSA
100
AcDbLine
 10
5081.531302380815
 20
1945.53918950477
 30
0.0
 11
5081.532208819926
 21
1945.540093122634
 31
0.0
  0
LINE
  5
2213
330
1F
100
AcDbEntity
  8
SANINDUSA
100
AcDbLine
 10
5081.532209536869
 20
1945.556598887376
 30
0.0
 11
5081.531295323307
 21
1945.557513100938
 31
0.0
  0
ARC
  5
2214
330
1F
100
AcDbEntity
  8
SANINDUSA
100
AcDbCircle
 10
5081.531749917462
 20
1945.540553457868
 30
0.0
 40
0.0006500000000003
100
AcDbArc
 50
314.9106959381468
 51
0.0
  0
ARC
  5
2215
330
1F
100
AcDbEntity
  8
SANINDUSA
100
AcDbCircle
 10
5081.531749917462
 20
1945.556139267968
 30
0.0
 40
0.0006500000000003
100
AcDbArc
 50
0.0
 51
45.0
  0
LINE
  5
2216
330
1F
100
AcDbEntity
  8
SANINDUSA
100
AcDbLine
 10
5081.532399917461
 20
1945.540553457868
 30
0.0
 11
5081.532399917461
 21
1945.556139267968
 31
0.0
  0
LINE
  5
2217
330
1F
100
AcDbEntity
  8
SANINDUSA
100
AcDbLine
 10
5081.581375144754
 20
1945.55575348153
 30
0.0
 11
5081.578686531603
 21
1945.55575348153
 31
0.0
  0
ARC
  5
2218
330
1F
100
AcDbEntity
  8
SANINDUSA
100
AcDbCircle
 10
5081.581375144754
 20
1945.55525348153
 30
0.0
 40
0.0005000000000001
100
AcDbArc
 50
23.57817848029807
 51
90.0
  0
ARC
  5
2219
330
1F
100
AcDbEntity
  8
SANINDUSA
100
AcDbCircle
 10
5081.578686531603
 20
1945.55525348153
 30
0.0
 40
0.0005
100
AcDbArc
 50
90.0
 51
160.5287793619829
  0
ARC
  5
221A
330
1F
100
AcDbEntity
  8
SANINDUSA
100
AcDbCircle
 10
5081.582749917462
 20
1945.55585348153
 30
0.0
 40
0.0009999999999999
100
AcDbArc
 50
203.5781784802981
 51
0.0
  0
ARC
  5
221B
330
1F
100
AcDbEntity
  8
SANINDUSA
100
AcDbCircle
 10
5081.577272318041
 20
1945.55575348153
 30
0.0
 40
0.001
100
AcDbArc
 50
199.471220638017
 51
340.5287793619829
  0
LINE
  5
221C
330
1F
100
AcDbEntity
  8
SANINDUSA
100
AcDbLine
 10
5081.583749917462
 20
1945.55585348153
 30
0.0
 11
5081.583749917462
 21
1945.55675348153
 31
0.0
  0
ARC
  5
221D
330
1F
100
AcDbEntity
  8
SANINDUSA
100
AcDbCircle
 10
5081.575858104478
 20
1945.55525348153
 30
0.0
 40
0.0004999999999999
100
AcDbArc
 50
19.47122063801706
 51
90.0
  0
ARC
  5
221E
330
1F
100
AcDbEntity
  8
SANINDUSA
100
AcDbCircle
 10
5081.582749917462
 20
1945.55675348153
 30
0.0
 40
0.0009999999999999
100
AcDbArc
 50
0.0
 51
90.0
  0
LINE
  5
221F
330
1F
100
AcDbEntity
  8
SANINDUSA
100
AcDbLine
 10
5081.575858104478
 20
1945.55575348153
 30
0.0
 11
5081.574271941222
 21
1945.55575348153
 31
0.0
  0
LINE
  5
2220
330
1F
100
AcDbEntity
  8
SANINDUSA
100
AcDbLine
 10
5081.582749917462
 20
1945.55775348153
 30
0.0
 11
5081.551249917462
 21
1945.55775348153
 31
0.0
  0
ARC
  5
2221
330
1F
100
AcDbEntity
  8
SANINDUSA
100
AcDbCircle
 10
5081.574271941222
 20
1945.55525348153
 30
0.0
 40
0.0005
100
AcDbArc
 50
90.0
 51
180.0
  0
ARC
  5
2222
330
1F
100
AcDbEntity
  8
SANINDUSA
100
AcDbCircle
 10
5081.551249917462
 20
1945.55675348153
 30
0.0
 40
0.001
100
AcDbArc
 50
90.0
 51
270.0
  0
LINE
  5
2223
330
1F
100
AcDbEntity
  8
SANINDUSA
100
AcDbLine
 10
5081.573771941222
 20
1945.55525348153
 30
0.0
 11
5081.573771941222
 21
1945.54825348153
 31
0.0
  0
LINE
  5
2224
330
1F
100
AcDbEntity
  8
SANINDUSA
100
AcDbLine
 10
5081.551249917462
 20
1945.55575348153
 30
0.0
 11
5081.571271941222
 21
1945.55575348153
 31
0.0
  0
ARC
  5
2225
330
1F
100
AcDbEntity
  8
SANINDUSA
100
AcDbCircle
 10
5081.574271941222
 20
1945.54825348153
 30
0.0
 40
0.0005
100
AcDbArc
 50
180.0
 51
270.0
  0
ARC
  5
2226
330
1F
100
AcDbEntity
  8
SANINDUSA
100
AcDbCircle
 10
5081.571271941222
 20
1945.55525348153
 30
0.0
 40
0.0005000000000001
100
AcDbArc
 50
0.0
 51
90.0
  0
LINE
  5
2227
330
1F
100
AcDbEntity
  8
SANINDUSA
100
AcDbLine
 10
5081.574271941222
 20
1945.54775348153
 30
0.0
 11
5081.575858104478
 21
1945.54775348153
 31
0.0
  0
LINE
  5
2228
330
1F
100
AcDbEntity
  8
SANINDUSA
100
AcDbLine
 10
5081.571771941221
 20
1945.55525348153
 30
0.0
 11
5081.571771941221
 21
1945.54825348153
 31
0.0
  0
ARC
  5
2229
330
1F
100
AcDbEntity
  8
SANINDUSA
100
AcDbCircle
 10
5081.575858104478
 20
1945.54825348153
 30
0.0
 40
0.0005
100
AcDbArc
 50
270.0
 51
340.5287793619829
  0
ARC
  5
222A
330
1F
100
AcDbEntity
  8
SANINDUSA
100
AcDbCircle
 10
5081.571271941222
 20
1945.54825348153
 30
0.0
 40
0.0005000000000001
100
AcDbArc
 50
270.0
 51
0.0
  0
ARC
  5
222B
330
1F
100
AcDbEntity
  8
SANINDUSA
100
AcDbCircle
 10
5081.577272318041
 20
1945.54775348153
 30
0.0
 40
0.001
100
AcDbArc
 50
19.47122063801706
 51
160.5287793619829
  0
LINE
  5
222C
330
1F
100
AcDbEntity
  8
SANINDUSA
100
AcDbLine
 10
5081.571271941222
 20
1945.54775348153
 30
0.0
 11
5081.551249917462
 21
1945.54775348153
 31
0.0
  0
ARC
  5
222D
330
1F
100
AcDbEntity
  8
SANINDUSA
100
AcDbCircle
 10
5081.578686531603
 20
1945.54825348153
 30
0.0
 40
0.0005
100
AcDbArc
 50
199.471220638017
 51
270.0
  0
ARC
  5
222E
330
1F
100
AcDbEntity
  8
SANINDUSA
100
AcDbCircle
 10
5081.551249917462
 20
1945.54675348153
 30
0.0
 40
0.001
100
AcDbArc
 50
90.0
 51
270.0
  0
LINE
  5
222F
330
1F
100
AcDbEntity
  8
SANINDUSA
100
AcDbLine
 10
5081.578686531603
 20
1945.54775348153
 30
0.0
 11
5081.581375144754
 21
1945.54775348153
 31
0.0
  0
LINE
  5
2230
330
1F
100
AcDbEntity
  8
SANINDUSA
100
AcDbLine
 10
5081.551249917462
 20
1945.54575348153
 30
0.0
 11
5081.582749917462
 21
1945.54575348153
 31
0.0
  0
ARC
  5
2231
330
1F
100
AcDbEntity
  8
SANINDUSA
100
AcDbCircle
 10
5081.581375144754
 20
1945.54825348153
 30
0.0
 40
0.0005000000000001
100
AcDbArc
 50
270.0
 51
336.4218215197019
  0
ARC
  5
2232
330
1F
100
AcDbEntity
  8
SANINDUSA
100
AcDbCircle
 10
5081.582749917462
 20
1945.54675348153
 30
0.0
 40
0.0010000000000001
100
AcDbArc
 50
270.0
 51
0.0
  0
ARC
  5
2233
330
1F
100
AcDbEntity
  8
SANINDUSA
100
AcDbCircle
 10
5081.582749917462
 20
1945.54765348153
 30
0.0
 40
0.0009999999999999
100
AcDbArc
 50
0.0
 51
156.4218215197019
  0
LINE
  5
2234
330
1F
100
AcDbEntity
  8
SANINDUSA
100
AcDbLine
 10
5081.583749917462
 20
1945.54675348153
 30
0.0
 11
5081.583749917462
 21
1945.54765348153
 31
0.0
  0
LINE
  5
2235
330
1F
100
AcDbEntity
  8
SANINDUSA
100
AcDbLine
 10
5082.903021055932
 20
1945.575081912464
 30
0.0000000001479285
 11
5082.903500368346
 21
1945.575081912464
 31
0.0000000001479285
  0
LINE
  5
2236
330
1F
100
AcDbEntity
  8
SANINDUSA
100
AcDbLine
 10
5082.903069893339
 20
1945.572581912464
 30
0.0000000001479285
 11
5082.903465484731
 21
1945.572522688734
 31
0.0000000001479285
  0
ARC
  5
2237
330
1F
100
AcDbEntity
  8
SANINDUSA
100
AcDbCircle
 10
5082.903021055932
 20
1945.574281912465
 30
0.0000000001479285
 40
0.0008
100
AcDbArc
 50
90.0
 51
171.4855215631279
  0
ARC
  5
2238
330
1F
100
AcDbEntity
  8
SANINDUSA
100
AcDbCircle
 10
5082.904677127093
 20
1945.571835722368
 30
0.0000000001479285
 40
0.0002
100
AcDbArc
 50
261.4855215521728
 51
81.48552155217281
  0
LINE
  5
2239
330
1F
100
AcDbEntity
  8
SANINDUSA
100
AcDbLine
 10
5082.908603674802
 20
1945.574737494666
 30
0.0000000001479285
 11
5082.908935251962
 21
1945.572522688734
 31
0.0000000001479285
  0
ARC
  5
223A
330
1F
100
AcDbEntity
  8
SANINDUSA
100
AcDbCircle
 10
5082.907723609601
 20
1945.571835722368
 30
0.0000000001479285
 40
0.0002
100
AcDbArc
 50
98.5144784478272
 51
278.5144784478272
  0
LINE
  5
223B
330
1F
100
AcDbEntity
  8
SANINDUSA
100
AcDbLine
 10
5082.909330843355
 20
1945.572581912464
 30
0.0000000001479285
 11
5082.908935251962
 21
1945.572522688734
 31
0.0000000001479285
  0
ARC
  5
223C
330
1F
100
AcDbEntity
  8
SANINDUSA
100
AcDbCircle
 10
5082.908900368346
 20
1945.574781912464
 30
0.0000000001479285
 40
0.0003
100
AcDbArc
 50
90.0
 51
188.514478436872
  0
ARC
  5
223D
330
1F
100
AcDbEntity
  8
SANINDUSA
100
AcDbCircle
 10
5082.903500368346
 20
1945.574781912464
 30
0.0000000001479285
 40
0.0003
100
AcDbArc
 50
351.4855215631279
 51
90.0
  0
LINE
  5
223E
330
1F
100
AcDbEntity
  8
SANINDUSA
100
AcDbLine
 10
5082.903797061891
 20
1945.574737494666
 30
0.0000000001479285
 11
5082.903465484731
 21
1945.572522688734
 31
0.0000000001479285
  0
LINE
  5
223F
330
1F
100
AcDbEntity
  8
SANINDUSA
100
AcDbLine
 10
5082.902966251809
 20
1945.571889627528
 30
0.0000000001479285
 11
5082.904647515228
 21
1945.571637926672
 31
0.0000000001479285
  0
LINE
  5
2240
330
1F
100
AcDbEntity
  8
SANINDUSA
100
AcDbLine
 10
5082.90302547554
 20
1945.57228521892
 30
0.0000000001479285
 11
5082.904706738958
 21
1945.572033518064
 31
0.0000000001479285
  0
LINE
  5
2241
330
1F
100
AcDbEntity
  8
SANINDUSA
100
AcDbLine
 10
5082.902647924256
 20
1945.569763323794
 30
0.0000000001479285
 11
5082.903043515648
 21
1945.569704100063
 31
0.0000000001479285
  0
ARC
  5
2242
330
1F
100
AcDbEntity
  8
SANINDUSA
100
AcDbCircle
 10
5082.902400368347
 20
1945.563381912464
 30
0.0000000001479285
 40
0.0003
100
AcDbArc
 50
171.4855215631279
 51
270.0
  0
ARC
  5
2243
330
1F
100
AcDbEntity
  8
SANINDUSA
100
AcDbCircle
 10
5082.901500368347
 20
1945.564124313294
 30
0.0000000001479285
 40
0.0008
100
AcDbArc
 50
171.4855215631279
 51
180.0
  0
LINE
  5
2244
330
1F
100
AcDbEntity
  8
SANINDUSA
100
AcDbLine
 10
5082.902276676264
 20
1945.564581912464
 30
0.0000000001479285
 11
5082.902103674803
 21
1945.563426330263
 31
0.0000000001479285
  0
LINE
  5
2245
330
1F
100
AcDbEntity
  8
SANINDUSA
100
AcDbLine
 10
5082.902276676264
 20
1945.564581912464
 30
0.0000000001479285
 11
5082.903100368347
 21
1945.564581912464
 31
0.0000000001479285
  0
LINE
  5
2246
330
1F
100
AcDbEntity
  8
SANINDUSA
100
AcDbLine
 10
5082.903100368347
 20
1945.564581912464
 30
0.0000000001479285
 11
5082.903100368347
 21
1945.565781912464
 31
0.0000000001479285
  0
LINE
  5
2247
330
1F
100
AcDbEntity
  8
SANINDUSA
100
AcDbLine
 10
5082.902456327486
 20
1945.565781912464
 30
0.0000000001479285
 11
5082.903100368347
 21
1945.565781912464
 31
0.0000000001479285
  0
LINE
  5
2248
330
1F
100
AcDbEntity
  8
SANINDUSA
100
AcDbLine
 10
5082.903043515648
 20
1945.569704100063
 30
0.0000000001479285
 11
5082.902456327486
 21
1945.565781912464
 31
0.0000000001479285
  0
LINE
  5
2249
330
1F
100
AcDbEntity
  8
SANINDUSA
100
AcDbLine
 10
5082.909300368346
 20
1945.564581912464
 30
0.0000000001479285
 11
5082.909300368346
 21
1945.565781912464
 31
0.0000000001479285
  0
LINE
  5
224A
330
1F
100
AcDbEntity
  8
SANINDUSA
100
AcDbLine
 10
5082.902229873147
 20
1945.574400359926
 30
0.0000000001479285
 11
5082.900709185562
 21
1945.564242760755
 31
0.0000000001479285
  0
LINE
  5
224B
330
1F
100
AcDbEntity
  8
SANINDUSA
100
AcDbLine
 10
5082.903069893339
 20
1945.572581912464
 30
0.0000000001479285
 11
5082.902647924256
 21
1945.569763323794
 31
0.0000000001479285
  0
ARC
  5
224C
330
1F
100
AcDbEntity
  8
SANINDUSA
100
AcDbCircle
 10
5082.909379680761
 20
1945.574281912465
 30
0.0000000001479285
 40
0.0008
100
AcDbArc
 50
8.514478436872073
 51
90.0
  0
LINE
  5
224D
330
1F
100
AcDbEntity
  8
SANINDUSA
100
AcDbLine
 10
5082.909752812437
 20
1945.569763323794
 30
0.0000000001479285
 11
5082.909357221045
 21
1945.569704100063
 31
0.0000000001479285
  0
ARC
  5
224E
330
1F
100
AcDbEntity
  8
SANINDUSA
100
AcDbCircle
 10
5082.910000368347
 20
1945.563381912464
 30
0.0000000001479285
 40
0.0003
100
AcDbArc
 50
270.0
 51
8.514478436872073
  0
ARC
  5
224F
330
1F
100
AcDbEntity
  8
SANINDUSA
100
AcDbCircle
 10
5082.910900368347
 20
1945.564124313294
 30
0.0000000001479285
 40
0.0008
100
AcDbArc
 50
0.0
 51
8.514478436872073
  0
LINE
  5
2250
330
1F
100
AcDbEntity
  8
SANINDUSA
100
AcDbLine
 10
5082.91029706189
 20
1945.563426330263
 30
0.0000000001479285
 11
5082.910124060429
 21
1945.564581912464
 31
0.0000000001479285
  0
LINE
  5
2251
330
1F
100
AcDbEntity
  8
SANINDUSA
100
AcDbLine
 10
5082.909357221045
 20
1945.569704100063
 30
0.0000000001479285
 11
5082.909944409207
 21
1945.565781912464
 31
0.0000000001479285
  0
LINE
  5
2252
330
1F
100
AcDbEntity
  8
SANINDUSA
100
AcDbLine
 10
5082.911691551132
 20
1945.564242760755
 30
0.0000000001479285
 11
5082.910170863545
 21
1945.574400359926
 31
0.0000000001479285
  0
LINE
  5
2253
330
1F
100
AcDbEntity
  8
SANINDUSA
100
AcDbLine
 10
5082.902400368347
 20
1945.563081912465
 30
0.0000000001479285
 11
5082.910000368347
 21
1945.563081912465
 31
0.0000000001479285
  0
LINE
  5
2254
330
1F
100
AcDbEntity
  8
SANINDUSA
100
AcDbLine
 10
5082.908900368346
 20
1945.575081912464
 30
0.0000000001479285
 11
5082.909379680761
 21
1945.575081912464
 31
0.0000000001479285
  0
LINE
  5
2255
330
1F
100
AcDbEntity
  8
SANINDUSA
100
AcDbLine
 10
5082.909300368346
 20
1945.565781912464
 30
0.0000000001479285
 11
5082.909944409207
 21
1945.565781912464
 31
0.0000000001479285
  0
LINE
  5
2256
330
1F
100
AcDbEntity
  8
SANINDUSA
100
AcDbLine
 10
5082.909300368346
 20
1945.564581912464
 30
0.0000000001479285
 11
5082.910124060429
 21
1945.564581912464
 31
0.0000000001479285
  0
LINE
  5
2257
330
1F
100
AcDbEntity
  8
SANINDUSA
100
AcDbLine
 10
5082.909330843355
 20
1945.572581912464
 30
0.0000000001479285
 11
5082.909752812437
 21
1945.569763323794
 31
0.0000000001479285
  0
LINE
  5
2258
330
1F
100
AcDbEntity
  8
SANINDUSA
100
AcDbLine
 10
5082.909375261152
 20
1945.57228521892
 30
0.0000000001479285
 11
5082.907693997735
 21
1945.572033518064
 31
0.0000000001479285
  0
LINE
  5
2259
330
1F
100
AcDbEntity
  8
SANINDUSA
100
AcDbLine
 10
5082.909434484884
 20
1945.571889627528
 30
0.0000000001479285
 11
5082.907753221466
 21
1945.571637926672
 31
0.0000000001479285
  0
LINE
  5
225A
330
1F
100
AcDbEntity
  8
SANINDUSA
100
AcDbLine
 10
5082.900700368346
 20
1945.561581912464
 30
0.0000000001479285
 11
5082.900700368346
 21
1945.559324553151
 31
0.0000000001479285
  0
ARC
  5
225B
330
1F
100
AcDbEntity
  8
SANINDUSA
100
AcDbCircle
 10
5082.902700368347
 20
1945.560581912464
 30
0.0000000001479285
 40
0.001
100
AcDbArc
 50
90.0
 51
180.0
  0
ARC
  5
225C
330
1F
100
AcDbEntity
  8
SANINDUSA
100
AcDbCircle
 10
5082.902050389484
 20
1945.559312131361
 30
0.0000000001479285
 40
0.00075
100
AcDbArc
 50
137.1677595124223
 51
180.1949910944401
  0
ARC
  5
225D
330
1F
100
AcDbEntity
  8
SANINDUSA
100
AcDbCircle
 10
5082.900950368347
 20
1945.560331912464
 30
0.0000000001479285
 40
0.00075
100
AcDbArc
 50
317.1677595124223
 51
0.0
  0
LINE
  5
225E
330
1F
100
AcDbEntity
  8
SANINDUSA
100
AcDbLine
 10
5082.901700368346
 20
1945.560331912464
 30
0.0000000001479285
 11
5082.901700368346
 21
1945.560581912464
 31
0.0000000001479285
  0
LINE
  5
225F
330
1F
100
AcDbEntity
  8
SANINDUSA
100
AcDbLine
 10
5082.903135723686
 20
1945.555666658139
 30
0.0000000001479285
 11
5082.902589098509
 21
1945.556213283314
 31
0.0000000001479285
  0
ARC
  5
2260
330
1F
100
AcDbEntity
  8
SANINDUSA
100
AcDbCircle
 10
5082.903630698432
 20
1945.555100972714
 30
0.0000000001479285
 40
0.0002
100
AcDbArc
 50
135.0000000921187
 51
225.000000073695
  0
ARC
  5
2261
330
1F
100
AcDbEntity
  8
SANINDUSA
100
AcDbCircle
 10
5082.905700368346
 20
1945.559324553151
 30
0.0000000001479285
 40
0.005
100
AcDbArc
 50
180.0
 51
225.0
  0
ARC
  5
2262
330
1F
100
AcDbEntity
  8
SANINDUSA
100
AcDbCircle
 10
5082.905700368346
 20
1945.559324553151
 30
0.0000000001479285
 40
0.0044
100
AcDbArc
 50
180.1949910944401
 51
225.0
  0
ARC
  5
2263
330
1F
100
AcDbEntity
  8
SANINDUSA
100
AcDbCircle
 10
5082.905221688683
 20
1945.556267698901
 30
0.0000000001479285
 40
0.00075
100
AcDbArc
 50
44.99999998157625
 51
135.0
  0
ARC
  5
2264
330
1F
100
AcDbEntity
  8
SANINDUSA
100
AcDbCircle
 10
5082.905221688683
 20
1945.556267698901
 30
0.0000000001479285
 40
0.0005
100
AcDbArc
 50
44.99999998157625
 51
135.0
  0
ARC
  5
2265
330
1F
100
AcDbEntity
  8
SANINDUSA
100
AcDbCircle
 10
5082.903347855719
 20
1945.555878790173
 30
0.0000000001479285
 40
0.0003
100
AcDbArc
 50
225.0
 51
315.0000001289662
  0
LINE
  5
2266
330
1F
100
AcDbEntity
  8
SANINDUSA
100
AcDbLine
 10
5082.902923591652
 20
1945.555030262034
 30
0.0000000001479285
 11
5082.904691358597
 21
1945.556798028987
 31
0.0000000001479285
  0
LINE
  5
2267
330
1F
100
AcDbEntity
  8
SANINDUSA
100
AcDbLine
 10
5082.903489277077
 20
1945.55524239407
 30
0.0000000001479285
 11
5082.904868135292
 21
1945.556621252292
 31
0.0000000001479285
  0
ARC
  5
2268
330
1F
100
AcDbEntity
  8
SANINDUSA
100
AcDbCircle
 10
5082.90872186726
 20
1945.550504778632
 30
0.0000000001479285
 40
0.0003
100
AcDbArc
 50
135.0000000184237
 51
225.0
  0
ARC
  5
2269
330
1F
100
AcDbEntity
  8
SANINDUSA
100
AcDbCircle
 10
5082.907944049814
 20
1945.550787621344
 30
0.0000000001479285
 40
0.0002
100
AcDbArc
 50
225.000000073695
 51
315.0000002947799
  0
LINE
  5
226A
330
1F
100
AcDbEntity
  8
SANINDUSA
100
AcDbLine
 10
5082.908710418853
 20
1945.550091962971
 30
0.0000000001479285
 11
5082.908509735226
 21
1945.550292646597
 31
0.0000000001479285
  0
LINE
  5
226B
330
1F
100
AcDbEntity
  8
SANINDUSA
100
AcDbLine
 10
5082.908286154784
 20
1945.549667698902
 30
0.0000000001479285
 11
5082.902164834441
 21
1945.555789019245
 31
0.0000000001479285
  0
LINE
  5
226C
330
1F
100
AcDbEntity
  8
SANINDUSA
100
AcDbLine
 10
5082.907802628459
 20
1945.550646199987
 30
0.0000000001479285
 11
5082.903489277077
 21
1945.554959551358
 31
0.0000000001479285
  0
ARC
  5
226D
330
1F
100
AcDbEntity
  8
SANINDUSA
100
AcDbCircle
 10
5082.909700368347
 20
1945.560581912464
 30
0.0000000001479285
 40
0.001
100
AcDbArc
 50
0.0
 51
90.0
  0
ARC
  5
226E
330
1F
100
AcDbEntity
  8
SANINDUSA
100
AcDbCircle
 10
5082.910350368346
 20
1945.555562108562
 30
0.0000000001479285
 40
0.00075
100
AcDbArc
 50
0.0
 51
42.83342806503022
  0
ARC
  5
226F
330
1F
100
AcDbEntity
  8
SANINDUSA
100
AcDbCircle
 10
5082.911450368347
 20
1945.556581912464
 30
0.0000000001479285
 40
0.00075
100
AcDbArc
 50
180.0
 51
222.8334280650302
  0
LINE
  5
2270
330
1F
100
AcDbEntity
  8
SANINDUSA
100
AcDbLine
 10
5082.910700368347
 20
1945.560581912464
 30
0.0000000001479285
 11
5082.910700368347
 21
1945.556581912464
 31
0.0000000001479285
  0
ARC
  5
2271
330
1F
100
AcDbEntity
  8
SANINDUSA
100
AcDbCircle
 10
5082.909110775987
 20
1945.5523786116
 30
0.0000000001479285
 40
0.00075
100
AcDbArc
 50
315.0
 51
45.0
  0
ARC
  5
2272
330
1F
100
AcDbEntity
  8
SANINDUSA
100
AcDbCircle
 10
5082.909110775987
 20
1945.5523786116
 30
0.0000000001479285
 40
0.0005
100
AcDbArc
 50
315.0
 51
45.0
  0
LINE
  5
2273
330
1F
100
AcDbEntity
  8
SANINDUSA
100
AcDbLine
 10
5082.911700368347
 20
1945.561581912464
 30
0.0000000001479285
 11
5082.911700368347
 21
1945.551081912464
 31
0.0000000001479285
  0
LINE
  5
2274
330
1F
100
AcDbEntity
  8
SANINDUSA
100
AcDbLine
 10
5082.911100368346
 20
1945.555562108562
 30
0.0000000001479285
 11
5082.911100368346
 21
1945.551081912464
 31
0.0000000001479285
  0
ARC
  5
2275
330
1F
100
AcDbEntity
  8
SANINDUSA
100
AcDbCircle
 10
5082.909700368347
 20
1945.551081912464
 30
0.0000000001479285
 40
0.002
100
AcDbArc
 50
225.0
 51
0.0
  0
LINE
  5
2276
330
1F
100
AcDbEntity
  8
SANINDUSA
100
AcDbLine
 10
5082.909641106073
 20
1945.552908941685
 30
0.0000000001479285
 11
5082.905752018769
 21
1945.556798028987
 31
0.0000000001479285
  0
ARC
  5
2277
330
1F
100
AcDbEntity
  8
SANINDUSA
100
AcDbCircle
 10
5082.909700368347
 20
1945.551081912464
 30
0.0000000001479285
 40
0.0014
100
AcDbArc
 50
225.0
 51
0.0
  0
LINE
  5
2278
330
1F
100
AcDbEntity
  8
SANINDUSA
100
AcDbLine
 10
5082.907873339124
 20
1945.550080514563
 30
0.0000000001479285
 11
5082.909641106072
 21
1945.551848281514
 31
0.0000000001479285
  0
LINE
  5
2279
330
1F
100
AcDbEntity
  8
SANINDUSA
100
AcDbLine
 10
5082.902700368347
 20
1945.561581912464
 30
0.0000000001479285
 11
5082.909700368347
 21
1945.561581912464
 31
0.0000000001479285
  0
HATCH
  5
227A
330
1F
100
AcDbEntity
  8
SANINDUSA
100
AcDbHatch
 10
0.0
 20
0.0
 30
0.0000000001479285
210
0.0
220
0.0
230
1.0
  2
ANSI31
 70
     0
 71
     0
 91
        1
 92
        7
 72
     1
 73
     1
 93
        8
 10
5082.904868135291
 20
1945.556621252291
 42
0.0
 10
5082.903489277076
 20
1945.55524239407
 42
0.414213562178905
 10
5082.903489277077
 20
1945.554959551358
 42
0.0
 10
5082.907802628459
 20
1945.550646199987
 42
0.4142135636146872
 10
5082.908085471172
 20
1945.550646199988
 42
0.0
 10
5082.909464329379
 20
1945.552025058211
 42
0.4142135608152901
 10
5082.909464329378
 20
1945.55273216499
 42
0.0
 10
5082.905575242073
 20
1945.556621252292
 42
0.4142135628833784
 97
        0
 75
     0
 76
     1
 52
135.0
 41
0.00025
 77
     0
 78
     1
 53
180.0
 43
5083.301472269735
 44
1945.286967377824
 45
0.0
 46
-0.00079375
 79
     0
 47
0.0364805528584695
 98
        1
 10
5082.905347131973
 20
1945.555682434726
  0
LINE
  5
227B
330
1F
100
AcDbEntity
  8
SANINDUSA
100
AcDbLine
 10
5082.909464329378
 20
1945.55273216499
 30
0.0000000001479285
 11
5082.905575242073
 21
1945.556621252292
 31
0.0000000001479285
  0
LINE
  5
227C
330
1F
100
AcDbEntity
  8
SANINDUSA
100
AcDbLine
 10
5082.908085471172
 20
1945.550646199988
 30
0.0000000001479285
 11
5082.909464329378
 21
1945.552025058209
 31
0.0000000001479285
  0
LINE
  5
227D
330
1F
100
AcDbEntity
  8
SANINDUSA
100
AcDbLine
 10
5082.900700368346
 20
1945.561581912464
 30
0.0000000001479285
 11
5082.900700368346
 21
1945.564124313294
 31
0.0000000001479285
  0
LINE
  5
227E
330
1F
100
AcDbEntity
  8
SANINDUSA
100
AcDbLine
 10
5082.911700368347
 20
1945.561581912464
 30
0.0000000001479285
 11
5082.911700368347
 21
1945.564124313294
 31
0.0000000001479285
  0
LINE
  5
227F
330
1F
100
AcDbEntity
  8
SANINDUSA
100
AcDbLine
 10
5082.882871941222
 20
1945.554932797754
 30
0.0000000001479285
 11
5082.882871941222
 21
1945.55445348534
 31
0.0000000001479285
  0
LINE
  5
2280
330
1F
100
AcDbEntity
  8
SANINDUSA
100
AcDbLine
 10
5082.885371941222
 20
1945.554883960348
 30
0.0000000001479285
 11
5082.885431164953
 21
1945.554488368955
 31
0.0000000001479285
  0
ARC
  5
2281
330
1F
100
AcDbEntity
  8
SANINDUSA
100
AcDbCircle
 10
5082.883671941222
 20
1945.554932797754
 30
0.0000000001479285
 40
0.0008
100
AcDbArc
 50
98.5144784478272
 51
180.0
  0
ARC
  5
2282
330
1F
100
AcDbEntity
  8
SANINDUSA
100
AcDbCircle
 10
5082.886118131319
 20
1945.553276726594
 30
0.0000000001479285
 40
0.0002
100
AcDbArc
 50
188.514478436872
 51
8.514478436872073
  0
LINE
  5
2283
330
1F
100
AcDbEntity
  8
SANINDUSA
100
AcDbLine
 10
5082.88321635902
 20
1945.549350178884
 30
0.0000000001479285
 11
5082.885431164953
 21
1945.549018601724
 31
0.0000000001479285
  0
ARC
  5
2284
330
1F
100
AcDbEntity
  8
SANINDUSA
100
AcDbCircle
 10
5082.886118131319
 20
1945.550230244085
 30
0.0000000001479285
 40
0.0002
100
AcDbArc
 50
351.4855215631279
 51
171.4855215631279
  0
LINE
  5
2285
330
1F
100
AcDbEntity
  8
SANINDUSA
100
AcDbLine
 10
5082.885371941222
 20
1945.548623010331
 30
0.0000000001479285
 11
5082.885431164953
 21
1945.549018601724
 31
0.0000000001479285
  0
ARC
  5
2286
330
1F
100
AcDbEntity
  8
SANINDUSA
100
AcDbCircle
 10
5082.883171941222
 20
1945.549053485339
 30
0.0000000001479285
 40
0.0003
100
AcDbArc
 50
81.48552155217281
 51
180.0
  0
ARC
  5
2287
330
1F
100
AcDbEntity
  8
SANINDUSA
100
AcDbCircle
 10
5082.883171941222
 20
1945.55445348534
 30
0.0000000001479285
 40
0.0003
100
AcDbArc
 50
180.0
 51
278.5144784478272
  0
LINE
  5
2288
330
1F
100
AcDbEntity
  8
SANINDUSA
100
AcDbLine
 10
5082.88321635902
 20
1945.554156791795
 30
0.0000000001479285
 11
5082.885431164953
 21
1945.554488368955
 31
0.0000000001479285
  0
LINE
  5
2289
330
1F
100
AcDbEntity
  8
SANINDUSA
100
AcDbLine
 10
5082.886064226158
 20
1945.554987601877
 30
0.0000000001479285
 11
5082.886315927014
 21
1945.553306338459
 31
0.0000000001479285
  0
LINE
  5
228A
330
1F
100
AcDbEntity
  8
SANINDUSA
100
AcDbLine
 10
5082.885668634766
 20
1945.554928378146
 30
0.0000000001479285
 11
5082.885920335622
 21
1945.553247114728
 31
0.0000000001479285
  0
LINE
  5
228B
330
1F
100
AcDbEntity
  8
SANINDUSA
100
AcDbLine
 10
5082.888190529892
 20
1945.55530592943
 30
0.0000000001479285
 11
5082.888249753623
 21
1945.554910338038
 31
0.0000000001479285
  0
ARC
  5
228C
330
1F
100
AcDbEntity
  8
SANINDUSA
100
AcDbCircle
 10
5082.894571941221
 20
1945.55555348534
 30
0.0000000001479285
 40
0.0003
100
AcDbArc
 50
0.0
 51
98.5144784478272
  0
ARC
  5
228D
330
1F
100
AcDbEntity
  8
SANINDUSA
100
AcDbCircle
 10
5082.893829540392
 20
1945.556453485339
 30
0.0000000001479285
 40
0.0008
100
AcDbArc
 50
90.0
 51
98.5144784478272
  0
LINE
  5
228E
330
1F
100
AcDbEntity
  8
SANINDUSA
100
AcDbLine
 10
5082.893371941222
 20
1945.555677177422
 30
0.0000000001479285
 11
5082.894527523424
 21
1945.555850178884
 31
0.0000000001479285
  0
LINE
  5
228F
330
1F
100
AcDbEntity
  8
SANINDUSA
100
AcDbLine
 10
5082.893371941222
 20
1945.555677177422
 30
0.0000000001479285
 11
5082.893371941222
 21
1945.554853485339
 31
0.0000000001479285
  0
LINE
  5
2290
330
1F
100
AcDbEntity
  8
SANINDUSA
100
AcDbLine
 10
5082.893371941222
 20
1945.554853485339
 30
0.0000000001479285
 11
5082.892171941222
 21
1945.554853485339
 31
0.0000000001479285
  0
LINE
  5
2291
330
1F
100
AcDbEntity
  8
SANINDUSA
100
AcDbLine
 10
5082.892171941222
 20
1945.5554975262
 30
0.0000000001479285
 11
5082.892171941222
 21
1945.554853485339
 31
0.0000000001479285
  0
LINE
  5
2292
330
1F
100
AcDbEntity
  8
SANINDUSA
100
AcDbLine
 10
5082.888249753623
 20
1945.554910338038
 30
0.0000000001479285
 11
5082.892171941222
 21
1945.5554975262
 31
0.0000000001479285
  0
LINE
  5
2293
330
1F
100
AcDbEntity
  8
SANINDUSA
100
AcDbLine
 10
5082.893371941222
 20
1945.54865348534
 30
0.0000000001479285
 11
5082.892171941222
 21
1945.54865348534
 31
0.0000000001479285
  0
LINE
  5
2294
330
1F
100
AcDbEntity
  8
SANINDUSA
100
AcDbLine
 10
5082.883553493759
 20
1945.555723980539
 30
0.0000000001479285
 11
5082.893711092931
 21
1945.557244668124
 31
0.0000000001479285
  0
LINE
  5
2295
330
1F
100
AcDbEntity
  8
SANINDUSA
100
AcDbLine
 10
5082.885371941222
 20
1945.554883960348
 30
0.0000000001479285
 11
5082.888190529892
 21
1945.55530592943
 31
0.0000000001479285
  0
ARC
  5
2296
330
1F
100
AcDbEntity
  8
SANINDUSA
100
AcDbCircle
 10
5082.883671941222
 20
1945.548574172925
 30
0.0000000001479285
 40
0.0008
100
AcDbArc
 50
180.0
 51
261.4855215521728
  0
LINE
  5
2297
330
1F
100
AcDbEntity
  8
SANINDUSA
100
AcDbLine
 10
5082.888190529892
 20
1945.548201041249
 30
0.0000000001479285
 11
5082.888249753623
 21
1945.548596632642
 31
0.0000000001479285
  0
ARC
  5
2298
330
1F
100
AcDbEntity
  8
SANINDUSA
100
AcDbCircle
 10
5082.894571941221
 20
1945.54795348534
 30
0.0000000001479285
 40
0.0003
100
AcDbArc
 50
261.4855215521728
 51
0.0
  0
ARC
  5
2299
330
1F
100
AcDbEntity
  8
SANINDUSA
100
AcDbCircle
 10
5082.893829540392
 20
1945.54705348534
 30
0.0000000001479285
 40
0.0008
100
AcDbArc
 50
261.4855215521728
 51
270.0
  0
LINE
  5
229A
330
1F
100
AcDbEntity
  8
SANINDUSA
100
AcDbLine
 10
5082.894527523424
 20
1945.547656791795
 30
0.0000000001479285
 11
5082.893371941222
 21
1945.547829793258
 31
0.0000000001479285
  0
LINE
  5
229B
330
1F
100
AcDbEntity
  8
SANINDUSA
100
AcDbLine
 10
5082.888249753623
 20
1945.548596632642
 30
0.0000000001479285
 11
5082.892171941222
 21
1945.548009444479
 31
0.0000000001479285
  0
LINE
  5
229C
330
1F
100
AcDbEntity
  8
SANINDUSA
100
AcDbLine
 10
5082.893711092931
 20
1945.546262302555
 30
0.0000000001479285
 11
5082.883553493759
 21
1945.547782990141
 31
0.0000000001479285
  0
LINE
  5
229D
330
1F
100
AcDbEntity
  8
SANINDUSA
100
AcDbLine
 10
5082.894871941221
 20
1945.55555348534
 30
0.0000000001479285
 11
5082.894871941221
 21
1945.54795348534
 31
0.0000000001479285
  0
LINE
  5
229E
330
1F
100
AcDbEntity
  8
SANINDUSA
100
AcDbLine
 10
5082.882871941222
 20
1945.549053485339
 30
0.0000000001479285
 11
5082.882871941222
 21
1945.548574172925
 31
0.0000000001479285
  0
LINE
  5
229F
330
1F
100
AcDbEntity
  8
SANINDUSA
100
AcDbLine
 10
5082.892171941222
 20
1945.54865348534
 30
0.0000000001479285
 11
5082.892171941222
 21
1945.548009444479
 31
0.0000000001479285
  0
LINE
  5
22A0
330
1F
100
AcDbEntity
  8
SANINDUSA
100
AcDbLine
 10
5082.893371941222
 20
1945.54865348534
 30
0.0000000001479285
 11
5082.893371941222
 21
1945.547829793258
 31
0.0000000001479285
  0
LINE
  5
22A1
330
1F
100
AcDbEntity
  8
SANINDUSA
100
AcDbLine
 10
5082.885371941222
 20
1945.548623010331
 30
0.0000000001479285
 11
5082.888190529892
 21
1945.548201041249
 31
0.0000000001479285
  0
LINE
  5
22A2
330
1F
100
AcDbEntity
  8
SANINDUSA
100
AcDbLine
 10
5082.885668634766
 20
1945.548578592533
 30
0.0000000001479285
 11
5082.885920335622
 21
1945.550259855951
 31
0.0000000001479285
  0
LINE
  5
22A3
330
1F
100
AcDbEntity
  8
SANINDUSA
100
AcDbLine
 10
5082.886064226158
 20
1945.548519368802
 30
0.0000000001479285
 11
5082.886315927014
 21
1945.55020063222
 31
0.0000000001479285
  0
LINE
  5
22A4
330
1F
100
AcDbEntity
  8
SANINDUSA
100
AcDbLine
 10
5082.896371941221
 20
1945.55725348534
 30
0.0000000001479285
 11
5082.898629300535
 21
1945.55725348534
 31
0.0000000001479285
  0
ARC
  5
22A5
330
1F
100
AcDbEntity
  8
SANINDUSA
100
AcDbCircle
 10
5082.897371941221
 20
1945.55525348534
 30
0.0000000001479285
 40
0.001
100
AcDbArc
 50
90.0
 51
180.0
  0
ARC
  5
22A6
330
1F
100
AcDbEntity
  8
SANINDUSA
100
AcDbCircle
 10
5082.898641722325
 20
1945.555903464202
 30
0.0000000001479285
 40
0.00075
100
AcDbArc
 50
89.8050089056486
 51
132.8322405155419
  0
ARC
  5
22A7
330
1F
100
AcDbEntity
  8
SANINDUSA
100
AcDbCircle
 10
5082.897621941222
 20
1945.55700348534
 30
0.0000000001479285
 40
0.00075
100
AcDbArc
 50
270.0
 51
312.832240515542
  0
LINE
  5
22A8
330
1F
100
AcDbEntity
  8
SANINDUSA
100
AcDbLine
 10
5082.897621941222
 20
1945.55625348534
 30
0.0000000001479285
 11
5082.897371941221
 21
1945.55625348534
 31
0.0000000001479285
  0
LINE
  5
22A9
330
1F
100
AcDbEntity
  8
SANINDUSA
100
AcDbLine
 10
5082.902287195548
 20
1945.554818130001
 30
0.0000000001479285
 11
5082.901740570371
 21
1945.555364755177
 31
0.0000000001479285
  0
ARC
  5
22AA
330
1F
100
AcDbEntity
  8
SANINDUSA
100
AcDbCircle
 10
5082.902852880972
 20
1945.554323155253
 30
0.0000000001479285
 40
0.0002
100
AcDbArc
 50
44.99999992630503
 51
134.9999999078813
  0
ARC
  5
22AB
330
1F
100
AcDbEntity
  8
SANINDUSA
100
AcDbCircle
 10
5082.898629300535
 20
1945.55225348534
 30
0.0000000001479285
 40
0.005
100
AcDbArc
 50
45.0
 51
90.0
  0
ARC
  5
22AC
330
1F
100
AcDbEntity
  8
SANINDUSA
100
AcDbCircle
 10
5082.898629300535
 20
1945.55225348534
 30
0.0000000001479285
 40
0.0044
100
AcDbArc
 50
45.0
 51
89.8050089056486
  0
ARC
  5
22AD
330
1F
100
AcDbEntity
  8
SANINDUSA
100
AcDbCircle
 10
5082.901686154785
 20
1945.552732165003
 30
0.0000000001479285
 40
0.00075
100
AcDbArc
 50
135.0
 51
225.0000000184237
  0
ARC
  5
22AE
330
1F
100
AcDbEntity
  8
SANINDUSA
100
AcDbCircle
 10
5082.901686154785
 20
1945.552732165003
 30
0.0000000001479285
 40
0.0005
100
AcDbArc
 50
135.0
 51
225.0000000184237
  0
ARC
  5
22AF
330
1F
100
AcDbEntity
  8
SANINDUSA
100
AcDbCircle
 10
5082.902075063513
 20
1945.554605997967
 30
0.0000000001479285
 40
0.0003
100
AcDbArc
 50
314.9999998710338
 51
45.0
  0
LINE
  5
22B0
330
1F
100
AcDbEntity
  8
SANINDUSA
100
AcDbLine
 10
5082.902923591652
 20
1945.555030262034
 30
0.0000000001479285
 11
5082.9011558247
 21
1945.553262495089
 31
0.0000000001479285
  0
LINE
  5
22B1
330
1F
100
AcDbEntity
  8
SANINDUSA
100
AcDbLine
 10
5082.902711459616
 20
1945.55446457661
 30
0.0000000001479285
 11
5082.901332601394
 21
1945.553085718394
 31
0.0000000001479285
  0
ARC
  5
22B2
330
1F
100
AcDbEntity
  8
SANINDUSA
100
AcDbCircle
 10
5082.907449075054
 20
1945.549231986425
 30
0.0000000001479285
 40
0.0003
100
AcDbArc
 50
45.0
 51
134.9999999815763
  0
ARC
  5
22B3
330
1F
100
AcDbEntity
  8
SANINDUSA
100
AcDbCircle
 10
5082.907166232342
 20
1945.550009803871
 30
0.0000000001479285
 40
0.0002
100
AcDbArc
 50
314.9999997052201
 51
44.99999992630503
  0
LINE
  5
22B4
330
1F
100
AcDbEntity
  8
SANINDUSA
100
AcDbLine
 10
5082.907861890715
 20
1945.549243434833
 30
0.0000000001479285
 11
5082.907661207088
 21
1945.54944411846
 31
0.0000000001479285
  0
LINE
  5
22B5
330
1F
100
AcDbEntity
  8
SANINDUSA
100
AcDbLine
 10
5082.908286154784
 20
1945.549667698902
 30
0.0000000001479285
 11
5082.902164834441
 21
1945.555789019245
 31
0.0000000001479285
  0
LINE
  5
22B6
330
1F
100
AcDbEntity
  8
SANINDUSA
100
AcDbLine
 10
5082.907307653698
 20
1945.550151225227
 30
0.0000000001479285
 11
5082.902994302328
 21
1945.554464576609
 31
0.0000000001479285
  0
ARC
  5
22B7
330
1F
100
AcDbEntity
  8
SANINDUSA
100
AcDbCircle
 10
5082.897371941221
 20
1945.54825348534
 30
0.0000000001479285
 40
0.001
100
AcDbArc
 50
180.0
 51
270.0
  0
ARC
  5
22B8
330
1F
100
AcDbEntity
  8
SANINDUSA
100
AcDbCircle
 10
5082.902391745125
 20
1945.54760348534
 30
0.0000000001479285
 40
0.00075
100
AcDbArc
 50
227.1665719349698
 51
270.0
  0
ARC
  5
22B9
330
1F
100
AcDbEntity
  8
SANINDUSA
100
AcDbCircle
 10
5082.901371941222
 20
1945.54650348534
 30
0.0000000001479285
 40
0.00075
100
AcDbArc
 50
47.16657193496977
 51
90.0
  0
LINE
  5
22BA
330
1F
100
AcDbEntity
  8
SANINDUSA
100
AcDbLine
 10
5082.897371941221
 20
1945.54725348534
 30
0.0000000001479285
 11
5082.901371941222
 21
1945.54725348534
 31
0.0000000001479285
  0
ARC
  5
22BB
330
1F
100
AcDbEntity
  8
SANINDUSA
100
AcDbCircle
 10
5082.905575242087
 20
1945.5488430777
 30
0.0000000001479285
 40
0.00075
100
AcDbArc
 50
225.0
 51
315.0
  0
ARC
  5
22BC
330
1F
100
AcDbEntity
  8
SANINDUSA
100
AcDbCircle
 10
5082.905575242087
 20
1945.5488430777
 30
0.0000000001479285
 40
0.0005
100
AcDbArc
 50
225.0
 51
315.0
  0
LINE
  5
22BD
330
1F
100
AcDbEntity
  8
SANINDUSA
100
AcDbLine
 10
5082.896371941221
 20
1945.54625348534
 30
0.0000000001479285
 11
5082.906871941222
 21
1945.54625348534
 31
0.0000000001479285
  0
LINE
  5
22BE
330
1F
100
AcDbEntity
  8
SANINDUSA
100
AcDbLine
 10
5082.902391745125
 20
1945.54685348534
 30
0.0000000001479285
 11
5082.906871941222
 21
1945.54685348534
 31
0.0000000001479285
  0
ARC
  5
22BF
330
1F
100
AcDbEntity
  8
SANINDUSA
100
AcDbCircle
 10
5082.906871941222
 20
1945.54825348534
 30
0.0000000001479285
 40
0.002
100
AcDbArc
 50
270.0
 51
45.0
  0
LINE
  5
22C0
330
1F
100
AcDbEntity
  8
SANINDUSA
100
AcDbLine
 10
5082.905044912
 20
1945.548312747614
 30
0.0000000001479285
 11
5082.9011558247
 21
1945.552201834917
 31
0.0000000001479285
  0
ARC
  5
22C1
330
1F
100
AcDbEntity
  8
SANINDUSA
100
AcDbCircle
 10
5082.906871941222
 20
1945.54825348534
 30
0.0000000001479285
 40
0.0014
100
AcDbArc
 50
270.0
 51
45.0
  0
LINE
  5
22C2
330
1F
100
AcDbEntity
  8
SANINDUSA
100
AcDbLine
 10
5082.907873339124
 20
1945.550080514563
 30
0.0000000001479285
 11
5082.906105572173
 21
1945.548312747614
 31
0.0000000001479285
  0
LINE
  5
22C3
330
1F
100
AcDbEntity
  8
SANINDUSA
100
AcDbLine
 10
5082.896371941221
 20
1945.55525348534
 30
0.0000000001479285
 11
5082.896371941221
 21
1945.54825348534
 31
0.0000000001479285
  0
HATCH
  5
22C4
330
1F
100
AcDbEntity
  8
SANINDUSA
100
AcDbHatch
 10
0.0
 20
0.0
 30
0.0000000001479285
210
0.0
220
0.0
230
1.0
  2
ANSI31
 70
     0
 71
     0
 91
        1
 92
        5
 93
        8
 72
     1
 10
5082.901332601394
 20
1945.553085718394
 11
5082.902711459616
 21
1945.55446457661
 72
     3
 10
5082.902852880972
 20
1945.554323155253
 11
-0.0001414213562371
 21
0.0001414213562371
 40
1.0
 50
0.0000001129375338
 51
90.0000000749846
 73
     0
 72
     1
 10
5082.902994302328
 20
1945.554464576609
 11
5082.907307653698
 21
1945.550151225227
 72
     3
 10
5082.907166232342
 20
1945.550009803871
 11
-0.0001414213562373
 21
0.0001414213562373
 40
1.0
 50
90.00000007452401
 51
180.0000003175331
 73
     0
 72
     1
 10
5082.907307653698
 20
1945.549868382514
 11
5082.905928795475
 21
1945.548489524307
 72
     3
 10
5082.905575242087
 20
1945.5488430777
 11
-0.0003535533905931
 21
0.0003535533905931
 40
1.0
 50
180.0000003177358
 51
270.0000000130071
 73
     0
 72
     1
 10
5082.905221688696
 20
1945.548489524309
 11
5082.901332601394
 21
1945.552378611612
 72
     3
 10
5082.901686154785
 20
1945.552732165003
 11
0.0003535533905931
 21
0.0003535533905931
 40
0.9999999999999998
 50
180.0000000130071
 51
270.0000001128639
 73
     0
 97
        0
 75
     0
 76
     1
 52
45.0
 41
0.00025
 77
     0
 78
     1
 53
90.0
 43
5083.170986475862
 44
1945.156481583951
 45
0.00079375
 46
0.0
 79
     0
 47
0.0364805528584695
 98
        1
 10
5077.945358741581
 20
1943.450431942357
  0
LINE
  5
22C5
330
1F
100
AcDbEntity
  8
SANINDUSA
100
AcDbLine
 10
5082.905221688696
 20
1945.548489524309
 30
0.0000000001479285
 11
5082.901332601394
 21
1945.552378611612
 31
0.0000000001479285
  0
LINE
  5
22C6
330
1F
100
AcDbEntity
  8
SANINDUSA
100
AcDbLine
 10
5082.907307653698
 20
1945.549868382515
 30
0.0000000001479285
 11
5082.905928795477
 21
1945.548489524309
 31
0.0000000001479285
  0
LINE
  5
22C7
330
1F
100
AcDbEntity
  8
SANINDUSA
100
AcDbLine
 10
5082.896371941221
 20
1945.55725348534
 30
0.0000000001479285
 11
5082.893829540392
 21
1945.55725348534
 31
0.0000000001479285
  0
LINE
  5
22C8
330
1F
100
AcDbEntity
  8
SANINDUSA
100
AcDbLine
 10
5082.896371941221
 20
1945.54625348534
 30
0.0000000001479285
 11
5082.893829540392
 21
1945.54625348534
 31
0.0000000001479285
  0
LINE
  5
22C9
330
1F
100
AcDbEntity
  8
SANINDUSA
100
AcDbLine
 10
5082.902200372156
 20
1946.178333553426
 30
-0.0000000000076263
 11
5082.902200372156
 21
1946.181022166576
 31
-0.0000000000076263
  0
ARC
  5
22CA
330
1F
100
AcDbEntity
  8
SANINDUSA
100
AcDbCircle
 10
5082.902700372155
 20
1946.181022166576
 30
-0.0000000000076263
 40
0.0005
100
AcDbArc
 50
109.471220638017
 51
180.0
  0
ARC
  5
22CB
330
1F
100
AcDbEntity
  8
SANINDUSA
100
AcDbCircle
 10
5082.902700372155
 20
1946.178333553426
 30
-0.0000000000076263
 40
0.0005000000000001
100
AcDbArc
 50
180.0
 51
246.4218215249129
  0
ARC
  5
22CC
330
1F
100
AcDbEntity
  8
SANINDUSA
100
AcDbCircle
 10
5082.902200372156
 20
1946.182436380138
 30
-0.0000000000076263
 40
0.001
100
AcDbArc
 50
289.471220638017
 51
70.52877936198294
  0
ARC
  5
22CD
330
1F
100
AcDbEntity
  8
SANINDUSA
100
AcDbCircle
 10
5082.902100372156
 20
1946.176958780717
 30
-0.0000000000076263
 40
0.0009999999999999
100
AcDbArc
 50
270.0
 51
66.42182152491294
  0
ARC
  5
22CE
330
1F
100
AcDbEntity
  8
SANINDUSA
100
AcDbCircle
 10
5082.902700372155
 20
1946.1838505937
 30
-0.0000000000076263
 40
0.0004999999999999
100
AcDbArc
 50
180.0
 51
250.528779361983
  0
LINE
  5
22CF
330
1F
100
AcDbEntity
  8
SANINDUSA
100
AcDbLine
 10
5082.902100372156
 20
1946.175958780717
 30
-0.0000000000076263
 11
5082.901200372156
 21
1946.175958780717
 31
-0.0000000000076263
  0
LINE
  5
22D0
330
1F
100
AcDbEntity
  8
SANINDUSA
100
AcDbLine
 10
5082.902200372156
 20
1946.1838505937
 30
-0.0000000000076263
 11
5082.902200372156
 21
1946.185436756957
 31
-0.0000000000076263
  0
ARC
  5
22D1
330
1F
100
AcDbEntity
  8
SANINDUSA
100
AcDbCircle
 10
5082.901200372156
 20
1946.176958780717
 30
-0.0000000000076263
 40
0.0009999999999999
100
AcDbArc
 50
180.0
 51
270.0
  0
ARC
  5
22D2
330
1F
100
AcDbEntity
  8
SANINDUSA
100
AcDbCircle
 10
5082.902700372155
 20
1946.185436756957
 30
-0.0000000000076263
 40
0.0005
100
AcDbArc
 50
90.0
 51
180.0
  0
LINE
  5
22D3
330
1F
100
AcDbEntity
  8
SANINDUSA
100
AcDbLine
 10
5082.900200372156
 20
1946.176958780717
 30
-0.0000000000076263
 11
5082.900200372156
 21
1946.208458780717
 31
-0.0000000000076263
  0
LINE
  5
22D4
330
1F
100
AcDbEntity
  8
SANINDUSA
100
AcDbLine
 10
5082.902700372155
 20
1946.185936756958
 30
-0.0000000000076263
 11
5082.909700372156
 21
1946.185936756958
 31
-0.0000000000076263
  0
ARC
  5
22D5
330
1F
100
AcDbEntity
  8
SANINDUSA
100
AcDbCircle
 10
5082.901200372156
 20
1946.208458780717
 30
-0.0000000000076263
 40
0.001
100
AcDbArc
 50
0.0
 51
180.0
  0
ARC
  5
22D6
330
1F
100
AcDbEntity
  8
SANINDUSA
100
AcDbCircle
 10
5082.909700372156
 20
1946.185436756957
 30
-0.0000000000076263
 40
0.0005
100
AcDbArc
 50
0.0
 51
90.0
  0
LINE
  5
22D7
330
1F
100
AcDbEntity
  8
SANINDUSA
100
AcDbLine
 10
5082.902200372156
 20
1946.208458780717
 30
-0.0000000000076263
 11
5082.902200372156
 21
1946.188436756957
 31
-0.0000000000076263
  0
LINE
  5
22D8
330
1F
100
AcDbEntity
  8
SANINDUSA
100
AcDbLine
 10
5082.910200372157
 20
1946.185436756957
 30
-0.0000000000076263
 11
5082.910200372157
 21
1946.1838505937
 31
-0.0000000000076263
  0
ARC
  5
22D9
330
1F
100
AcDbEntity
  8
SANINDUSA
100
AcDbCircle
 10
5082.902700372155
 20
1946.188436756957
 30
-0.0000000000076263
 40
0.0005000000000001
100
AcDbArc
 50
180.0
 51
270.0
  0
ARC
  5
22DA
330
1F
100
AcDbEntity
  8
SANINDUSA
100
AcDbCircle
 10
5082.909700372156
 20
1946.1838505937
 30
-0.0000000000076263
 40
0.0005
100
AcDbArc
 50
289.471220638017
 51
0.0
  0
LINE
  5
22DB
330
1F
100
AcDbEntity
  8
SANINDUSA
100
AcDbLine
 10
5082.902700372155
 20
1946.187936756957
 30
-0.0000000000076263
 11
5082.909700372156
 21
1946.187936756957
 31
-0.0000000000076263
  0
ARC
  5
22DC
330
1F
100
AcDbEntity
  8
SANINDUSA
100
AcDbCircle
 10
5082.910200372157
 20
1946.182436380138
 30
-0.0000000000076263
 40
0.001
100
AcDbArc
 50
109.471220638017
 51
250.528779361983
  0
ARC
  5
22DD
330
1F
100
AcDbEntity
  8
SANINDUSA
100
AcDbCircle
 10
5082.909700372156
 20
1946.188436756957
 30
-0.0000000000076263
 40
0.0005000000000001
100
AcDbArc
 50
270.0
 51
0.0
  0
ARC
  5
22DE
330
1F
100
AcDbEntity
  8
SANINDUSA
100
AcDbCircle
 10
5082.909700372156
 20
1946.181022166576
 30
-0.0000000000076263
 40
0.0005
100
AcDbArc
 50
0.0
 51
70.52877936198294
  0
LINE
  5
22DF
330
1F
100
AcDbEntity
  8
SANINDUSA
100
AcDbLine
 10
5082.910200372157
 20
1946.188436756957
 30
-0.0000000000076263
 11
5082.910200372157
 21
1946.208458780717
 31
-0.0000000000076263
  0
LINE
  5
22E0
330
1F
100
AcDbEntity
  8
SANINDUSA
100
AcDbLine
 10
5082.910200372157
 20
1946.181022166576
 30
-0.0000000000076263
 11
5082.910200372157
 21
1946.178333553426
 31
-0.0000000000076263
  0
ARC
  5
22E1
330
1F
100
AcDbEntity
  8
SANINDUSA
100
AcDbCircle
 10
5082.911200372155
 20
1946.208458780717
 30
-0.0000000000076263
 40
0.001
100
AcDbArc
 50
0.0
 51
180.0
  0
ARC
  5
22E2
330
1F
100
AcDbEntity
  8
SANINDUSA
100
AcDbCircle
 10
5082.909700372156
 20
1946.178333553426
 30
-0.0000000000076263
 40
0.0005000000000001
100
AcDbArc
 50
293.578178475087
 51
0.0
  0
LINE
  5
22E3
330
1F
100
AcDbEntity
  8
SANINDUSA
100
AcDbLine
 10
5082.912200372156
 20
1946.208458780717
 30
-0.0000000000076263
 11
5082.912200372156
 21
1946.176958780717
 31
-0.0000000000076263
  0
ARC
  5
22E4
330
1F
100
AcDbEntity
  8
SANINDUSA
100
AcDbCircle
 10
5082.910300372155
 20
1946.176958780717
 30
-0.0000000000076263
 40
0.0009999999999999
100
AcDbArc
 50
113.578178475087
 51
270.0
  0
ARC
  5
22E5
330
1F
100
AcDbEntity
  8
SANINDUSA
100
AcDbCircle
 10
5082.911200372155
 20
1946.176958780717
 30
-0.0000000000076263
 40
0.0010000000000001
100
AcDbArc
 50
270.0
 51
0.0
  0
LINE
  5
22E6
330
1F
100
AcDbEntity
  8
SANINDUSA
100
AcDbLine
 10
5082.911200372155
 20
1946.175958780717
 30
-0.0000000000076263
 11
5082.910300372155
 21
1946.175958780717
 31
-0.0000000000076263
  0
ARC
  5
22E7
330
1F
100
AcDbEntity
  8
SANINDUSA
100
AcDbCircle
 10
5082.898500372156
 20
1946.226958780717
 30
-0.0000000000076263
 40
0.0009999999999999
100
AcDbArc
 50
90.0
 51
180.0
  0
LINE
  5
22E8
330
1F
100
AcDbEntity
  8
SANINDUSA
100
AcDbLine
 10
5082.897500372156
 20
1946.226958780717
 30
-0.0000000000076263
 11
5082.897500372156
 21
1946.191935476585
 31
-0.0000000000076263
  0
LINE
  5
22E9
330
1F
100
AcDbEntity
  8
SANINDUSA
100
AcDbLine
 10
5082.899486158593
 20
1946.227958780717
 30
-0.0000000000076263
 11
5082.898500372156
 21
1946.227958780717
 31
-0.0000000000076263
  0
ARC
  5
22EA
330
1F
100
AcDbEntity
  8
SANINDUSA
100
AcDbCircle
 10
5082.898500372156
 20
1946.191935476585
 30
-0.0000000000076263
 40
0.001
100
AcDbArc
 50
180.0
 51
0.0
  0
ARC
  5
22EB
330
1F
100
AcDbEntity
  8
SANINDUSA
100
AcDbCircle
 10
5082.899486158593
 20
1946.226958780717
 30
-0.0000000000076263
 40
0.0010000000000003
100
AcDbArc
 50
45.0
 51
90.0
  0
LINE
  5
22EC
330
1F
100
AcDbEntity
  8
SANINDUSA
100
AcDbLine
 10
5082.899500372156
 20
1946.191935476585
 30
-0.0000000000076263
 11
5082.899500372156
 21
1946.223458780717
 31
-0.0000000000076263
  0
LINE
  5
22ED
330
1F
100
AcDbEntity
  8
SANINDUSA
100
AcDbLine
 10
5082.901107478937
 20
1946.226751673936
 30
-0.0000000000076263
 11
5082.900193265374
 21
1946.227665887498
 31
-0.0000000000076263
  0
ARC
  5
22EE
330
1F
100
AcDbEntity
  8
SANINDUSA
100
AcDbCircle
 10
5082.900500372156
 20
1946.223458780717
 30
-0.0000000000076263
 40
0.001
100
AcDbArc
 50
90.0
 51
180.0
  0
ARC
  5
22EF
330
1F
100
AcDbEntity
  8
SANINDUSA
100
AcDbCircle
 10
5082.901814585718
 20
1946.227458780717
 30
-0.0000000000076263
 40
0.0010000000000003
100
AcDbArc
 50
225.0
 51
270.0
  0
LINE
  5
22F0
330
1F
100
AcDbEntity
  8
SANINDUSA
100
AcDbLine
 10
5082.900500372156
 20
1946.224458780717
 30
-0.0000000000076263
 11
5082.918359558433
 21
1946.224458780717
 31
-0.0000000000076263
  0
LINE
  5
22F1
330
1F
100
AcDbEntity
  8
SANINDUSA
100
AcDbLine
 10
5082.905189711985
 20
1946.226458780717
 30
-0.0000000000076263
 11
5082.901814585718
 21
1946.226458780717
 31
-0.0000000000076263
  0
ARC
  5
22F2
330
1F
100
AcDbEntity
  8
SANINDUSA
100
AcDbCircle
 10
5082.918359558433
 20
1946.223458780717
 30
-0.0000000000076263
 40
0.001
100
AcDbArc
 50
357.850542071856
 51
90.0
  0
ARC
  5
22F3
330
1F
100
AcDbEntity
  8
SANINDUSA
100
AcDbCircle
 10
5082.905189711985
 20
1946.226208780717
 30
-0.0000000000076263
 40
0.0002500000000003
100
AcDbArc
 50
45.0
 51
90.0
  0
ARC
  5
22F4
330
1F
100
AcDbEntity
  8
SANINDUSA
100
AcDbCircle
 10
5082.82270681251
 20
1946.227048889155
 30
-0.0000000000076263
 40
0.0967200954923435
100
AcDbArc
 50
344.4398303544263
 51
357.850542071856
  0
LINE
  5
22F5
330
1F
100
AcDbEntity
  8
SANINDUSA
100
AcDbLine
 10
5082.905846818765
 20
1946.225905227327
 30
-0.0000000000076263
 11
5082.90536648868
 21
1946.226385557412
 31
-0.0000000000076263
  0
ARC
  5
22F6
330
1F
100
AcDbEntity
  8
SANINDUSA
100
AcDbCircle
 10
5082.915400372156
 20
1946.201237829958
 30
-0.0000000000076263
 40
0.0005
100
AcDbArc
 50
180.0
 51
344.4398303544263
  0
ARC
  5
22F7
330
1F
100
AcDbEntity
  8
SANINDUSA
100
AcDbCircle
 10
5082.906200372156
 20
1946.226258780717
 30
-0.0000000000076263
 40
0.0005
100
AcDbArc
 50
225.0
 51
315.0
  0
LINE
  5
22F8
330
1F
100
AcDbEntity
  8
SANINDUSA
100
AcDbLine
 10
5082.914900372156
 20
1946.201237829958
 30
-0.0000000000076263
 11
5082.914900372156
 21
1946.213935476585
 31
-0.0000000000076263
  0
LINE
  5
22F9
330
1F
100
AcDbEntity
  8
SANINDUSA
100
AcDbLine
 10
5082.907034255633
 20
1946.226385557412
 30
-0.0000000000076263
 11
5082.906553925546
 21
1946.225905227327
 31
-0.0000000000076263
  0
ARC
  5
22FA
330
1F
100
AcDbEntity
  8
SANINDUSA
100
AcDbCircle
 10
5082.913900372155
 20
1946.213935476585
 30
-0.0000000000076263
 40
0.001
100
AcDbArc
 50
0.0
 51
180.0
  0
ARC
  5
22FB
330
1F
100
AcDbEntity
  8
SANINDUSA
100
AcDbCircle
 10
5082.907211032328
 20
1946.226208780717
 30
-0.0000000000076263
 40
0.00025
100
AcDbArc
 50
90.0
 51
135.0
  0
LINE
  5
22FC
330
1F
100
AcDbEntity
  8
SANINDUSA
100
AcDbLine
 10
5082.912900372156
 20
1946.213935476585
 30
-0.0000000000076263
 11
5082.912900372156
 21
1946.191935476585
 31
-0.0000000000076263
  0
LINE
  5
22FD
330
1F
100
AcDbEntity
  8
SANINDUSA
100
AcDbLine
 10
5082.917400395817
 20
1946.226458780717
 30
-0.0000000000076263
 11
5082.907211032328
 21
1946.226458780717
 31
-0.0000000000076263
  0
ARC
  5
22FE
330
1F
100
AcDbEntity
  8
SANINDUSA
100
AcDbCircle
 10
5082.913900372155
 20
1946.191935476585
 30
-0.0000000000076263
 40
0.001
100
AcDbArc
 50
180.0
 51
338.9411647436474
  0
ARC
  5
22FF
330
1F
100
AcDbEntity
  8
SANINDUSA
100
AcDbCircle
 10
5082.917400395817
 20
1946.227458780717
 30
-0.0000000000076263
 40
0.0010000000000003
100
AcDbArc
 50
270.0
 51
315.0893040525983
  0
ARC
  5
2300
330
1F
100
AcDbEntity
  8
SANINDUSA
100
AcDbCircle
 10
5082.82270681251
 20
1946.227048889155
 30
-0.0000000000076263
 40
0.0987200954923432
100
AcDbArc
 50
338.9411647436474
 51
359.9477634045892
  0
LINE
  5
2301
330
1F
100
AcDbEntity
  8
SANINDUSA
100
AcDbLine
 10
5082.919012221736
 20
1946.227659216037
 30
-0.0000000000076263
 11
5082.918108603871
 21
1946.226752776926
 31
-0.0000000000076263
  0
ARC
  5
2302
330
1F
100
AcDbEntity
  8
SANINDUSA
100
AcDbCircle
 10
5082.920426867391
 20
1946.226959797699
 30
-0.0000000000076263
 40
0.001
100
AcDbArc
 50
359.9477634045892
 51
90.53409911718526
  0
ARC
  5
2303
330
1F
100
AcDbEntity
  8
SANINDUSA
100
AcDbCircle
 10
5082.919720429789
 20
1946.226953212246
 30
-0.0000000000076263
 40
0.0010000000000003
100
AcDbArc
 50
90.53409911718526
 51
135.0893040525983
  0
LINE
  5
2304
330
1F
100
AcDbEntity
  8
SANINDUSA
100
AcDbLine
 10
5082.920417545738
 20
1946.227959754251
 30
-0.0000000000076263
 11
5082.919711108136
 21
1946.227953168799
 31
-0.0000000000076263
  0
LINE
  5
2305
330
1F
100
AcDbEntity
  8
SANINDUSA
100
AcDbLine
 10
5082.921426867391
 20
1946.230308780717
 30
-0.0000000000076263
 11
5082.897500372156
 21
1946.230308780717
 31
-0.0000000000076263
  0
LINE
  5
2306
330
1F
100
AcDbEntity
  8
SANINDUSA
100
AcDbLine
 10
5082.897500372156
 20
1946.229308780717
 30
-0.0000000000076263
 11
5082.897500372156
 21
1946.230308780717
 31
-0.0000000000076263
  0
LINE
  5
2307
330
1F
100
AcDbEntity
  8
SANINDUSA
100
AcDbLine
 10
5082.921426867391
 20
1946.230308780717
 30
-0.0000000000076263
 11
5082.921426867391
 21
1946.229309899805
 31
-0.0000000000076263
  0
ARC
  5
2308
330
1F
100
AcDbEntity
  8
SANINDUSA
100
AcDbCircle
 10
5082.898500372156
 20
1946.229308780717
 30
-0.0000000000076263
 40
0.0009999999999999
100
AcDbArc
 50
180.0
 51
270.0
  0
ARC
  5
2309
330
1F
100
AcDbEntity
  8
SANINDUSA
100
AcDbCircle
 10
5082.920426867391
 20
1946.229309899805
 30
-0.0000000000076263
 40
0.0009999999999999
100
AcDbArc
 50
270.5340991171852
 51
0.0
  0
LINE
  5
230A
330
1F
100
AcDbEntity
  8
SANINDUSA
100
AcDbLine
 10
5082.899486158593
 20
1946.228308780717
 30
-0.0000000000076263
 11
5082.898500372156
 21
1946.228308780717
 31
-0.0000000000076263
  0
LINE
  5
230B
330
1F
100
AcDbEntity
  8
SANINDUSA
100
AcDbLine
 10
5082.920436189045
 20
1946.228309943252
 30
-0.0000000000076263
 11
5082.919707845557
 21
1946.228303153592
 31
-0.0000000000076263
  0
ARC
  5
230C
330
1F
100
AcDbEntity
  8
SANINDUSA
100
AcDbCircle
 10
5082.899486158593
 20
1946.226958780717
 30
-0.0000000000076263
 40
0.0013499999999998
100
AcDbArc
 50
45.0
 51
90.0
  0
ARC
  5
230D
330
1F
100
AcDbEntity
  8
SANINDUSA
100
AcDbCircle
 10
5082.919720429789
 20
1946.226953212246
 30
-0.0000000000076263
 40
0.00135
100
AcDbArc
 50
90.53409911718526
 51
135.0893040525983
  0
LINE
  5
230E
330
1F
100
AcDbEntity
  8
SANINDUSA
100
AcDbLine
 10
5082.90135496631
 20
1946.226999161309
 30
-0.0000000000076263
 11
5082.900440752748
 21
1946.227913374872
 31
-0.0000000000076263
  0
LINE
  5
230F
330
1F
100
AcDbEntity
  8
SANINDUSA
100
AcDbLine
 10
5082.918764348915
 20
1946.227906317364
 30
-0.0000000000076263
 11
5082.917860731052
 21
1946.226999878253
 31
-0.0000000000076263
  0
ARC
  5
2310
330
1F
100
AcDbEntity
  8
SANINDUSA
100
AcDbCircle
 10
5082.901814585718
 20
1946.227458780717
 30
-0.0000000000076263
 40
0.0006500000000003
100
AcDbArc
 50
225.0
 51
270.0
  0
ARC
  5
2311
330
1F
100
AcDbEntity
  8
SANINDUSA
100
AcDbCircle
 10
5082.917400395817
 20
1946.227458780717
 30
-0.0000000000076263
 40
0.0006500000000003
100
AcDbArc
 50
270.0
 51
315.0893040525983
  0
LINE
  5
2312
330
1F
100
AcDbEntity
  8
SANINDUSA
100
AcDbLine
 10
5082.917400395817
 20
1946.226808780717
 30
-0.0000000000076263
 11
5082.901814585718
 21
1946.226808780717
 31
-0.0000000000076263
  0
ENDSEC
  0
SECTION
  2
OBJECTS
  0
DICTIONARY
  5
C
330
0
100
AcDbDictionary
281
     1
  3
ACAD_2007HEADERVARS_RT
350
24B2
  3
ACAD_COLOR
350
EE6
  3
ACAD_GROUP
350
D
  3
ACAD_LAYOUT
350
1A
  3
ACAD_MATERIAL
350
EE5
  3
ACAD_MLEADERSTYLE
350
23BE
  3
ACAD_MLINESTYLE
350
17
  3
ACAD_PLOTSETTINGS
350
19
  3
ACAD_PLOTSTYLENAME
350
E
  3
ACAD_SCALELIST
350
23AC
  3
ACAD_TABLESTYLE
350
EE7
  3
ACAD_VISUALSTYLE
350
2398
  3
ACDB_RECOMPOSE_DATA
350
24B0
  3
AcDbVariableDictionary
350
3D
  3
ASE_INDEX_DICTIONARY
350
E77
  3
DWGPROPS
350
24B1
  0
DICTIONARY
  5
1051
330
2
100
AcDbDictionary
280
     1
281
     1
  3
ACAD_LAYERFILTERS
360
1057
  3
ACLYDICTIONARY
360
1056
  0
DICTIONARY
  5
2410
330
10
100
AcDbDictionary
280
     1
281
     1
  3
ADSK_XREC_LAYER_RECONCILED
360
2411
  0
DICTIONARY
  5
2412
330
2F
100
AcDbDictionary
280
     1
281
     1
  3
ADSK_XREC_LAYER_RECONCILED
360
2413
  0
DICTIONARY
  5
2414
330
30
100
AcDbDictionary
280
     1
281
     1
  3
ADSK_XREC_LAYER_RECONCILED
360
2415
  0
DICTIONARY
  5
2416
330
31
100
AcDbDictionary
280
     1
281
     1
  3
ADSK_XREC_LAYER_RECONCILED
360
2417
  0
DICTIONARY
  5
2418
330
32
100
AcDbDictionary
280
     1
281
     1
  3
ADSK_XREC_LAYER_RECONCILED
360
2419
  0
DICTIONARY
  5
241A
330
33
100
AcDbDictionary
280
     1
281
     1
  3
ADSK_XREC_LAYER_RECONCILED
360
241B
  0
DICTIONARY
  5
241C
330
34
100
AcDbDictionary
280
     1
281
     1
  3
ADSK_XREC_LAYER_RECONCILED
360
241D
  0
DICTIONARY
  5
241E
330
35
100
AcDbDictionary
280
     1
281
     1
  3
ADSK_XREC_LAYER_RECONCILED
360
241F
  0
DICTIONARY
  5
2420
330
36
100
AcDbDictionary
280
     1
281
     1
  3
ADSK_XREC_LAYER_RECONCILED
360
2421
  0
DICTIONARY
  5
2422
330
37
100
AcDbDictionary
280
     1
281
     1
  3
ADSK_XREC_LAYER_RECONCILED
360
2423
  0
DICTIONARY
  5
2424
330
5D6
100
AcDbDictionary
280
     1
281
     1
  3
ADSK_XREC_LAYER_RECONCILED
360
2425
  0
DICTIONARY
  5
2426
330
8AF
100
AcDbDictionary
280
     1
281
     1
  3
ADSK_XREC_LAYER_RECONCILED
360
2427
  0
DICTIONARY
  5
2428
330
8F8
100
AcDbDictionary
280
     1
281
     1
  3
ADSK_XREC_LAYER_RECONCILED
360
2429
  0
DICTIONARY
  5
242A
330
91D
100
AcDbDictionary
280
     1
281
     1
  3
ADSK_XREC_LAYER_RECONCILED
360
242B
  0
DICTIONARY
  5
242C
330
C7B
100
AcDbDictionary
280
     1
281
     1
  3
ADSK_XREC_LAYER_RECONCILED
360
242D
  0
DICTIONARY
  5
242E
330
10E9
100
AcDbDictionary
280
     1
281
     1
  3
ADSK_XREC_LAYER_RECONCILED
360
242F
  0
DICTIONARY
  5
2207
330
1F
100
AcDbDictionary
280
     1
281
     1
  3
ACAD_SORTENTS
360
2208
  0
DICTIONARY
  5
24BB
330
206C
100
AcDbDictionary
280
     1
281
     1
  3
ACAD_MTEXT_RT
360
24BC
  0
DICTIONARY
  5
24B2
102
{ACAD_REACTORS
330
C
102
}
330
C
100
AcDbDictionary
281
     1
  3
DIMJOGANG
350
24B3
  0
DICTIONARY
  5
EE6
102
{ACAD_REACTORS
330
C
102
}
330
C
100
AcDbDictionary
281
     1
  0
DICTIONARY
  5
D
102
{ACAD_REACTORS
330
C
102
}
330
C
100
AcDbDictionary
281
     1
  0
DICTIONARY
  5
1A
102
{ACAD_REACTORS
330
C
102
}
330
C
100
AcDbDictionary
281
     1
  3
Layout1
350
1E
  3
Layout2
350
26
  3
Model
350
22
  0
DICTIONARY
  5
EE5
102
{ACAD_REACTORS
330
C
102
}
330
C
100
AcDbDictionary
281
     1
  3
ByBlock
350
2388
  3
ByLayer
350
2380
  3
Global
350
2390
  0
DICTIONARY
  5
23BE
102
{ACAD_REACTORS
330
C
102
}
330
C
100
AcDbDictionary
281
     1
  3
Standard
350
23BF
  0
DICTIONARY
  5
17
102
{ACAD_REACTORS
330
C
102
}
330
C
100
AcDbDictionary
281
     1
  3
Standard
350
18
  0
DICTIONARY
  5
19
102
{ACAD_REACTORS
330
C
102
}
330
C
100
AcDbDictionary
281
     1
  0
ACDBDICTIONARYWDFLT
  5
E
102
{ACAD_REACTORS
330
C
102
}
330
C
100
AcDbDictionary
281
     1
  3
Normal
350
F
100
AcDbDictionaryWithDefault
340
F
  0
DICTIONARY
  5
23AC
102
{ACAD_REACTORS
330
C
102
}
330
C
100
AcDbDictionary
281
     1
  3
A0
350
23AD
  3
A1
350
23AE
  3
A2
350
23AF
  3
A3
350
23B0
  3
A4
350
23B1
  3
A5
350
23B2
  3
A6
350
23B3
  3
A7
350
23B4
  3
A8
350
23B5
  3
A9
350
23B6
  3
B0
350
23B7
  3
B1
350
23B8
  3
B2
350
23B9
  3
B3
350
23BA
  3
B4
350
23BB
  3
B5
350
23BC
  3
B6
350
23BD
  0
DICTIONARY
  5
EE7
102
{ACAD_REACTORS
330
C
102
}
330
C
100
AcDbDictionary
281
     1
  3
Standard
350
EE8
  0
DICTIONARY
  5
2398
102
{ACAD_REACTORS
330
C
102
}
330
C
100
AcDbDictionary
281
     1
  3
2dWireframe
350
239E
  3
3D Hidden
350
23A0
  3
3dWireframe
350
239F
  3
Basic
350
239D
  3
Brighten
350
23A4
  3
ColorChange
350
23A8
  3
Conceptual
350
23A1
  3
Dim
350
23A3
  3
EdgeColorOff
350
23AB
  3
Facepattern
350
23A7
  3
Flat
350
2399
  3
FlatWithEdges
350
239A
  3
Gouraud
350
239B
  3
GouraudWithEdges
350
239C
  3
JitterOff
350
23A9
  3
Linepattern
350
23A6
  3
OverhangOff
350
23AA
  3
Realistic
350
23A2
  3
Thicken
350
23A5
  0
XRECORD
  5
24B0
102
{ACAD_REACTORS
330
C
102
}
330
C
100
AcDbXrecord
280
     1
 90
        1
330
EE8
  0
DICTIONARY
  5
3D
102
{ACAD_REACTORS
330
C
102
}
330
C
100
AcDbDictionary
281
     1
  3
CANNOSCALE
350
2471
  3
CMLEADERSTYLE
350
2470
  3
CTABLESTYLE
350
1049
  3
DIMASSOC
350
3F
  3
HIDETEXT
350
3E
  3
INDEXCTL
350
2473
  3
PROJECTNAME
350
231B
  3
SORTENTS
350
2472
  3
XCLIPFRAME
350
2474
  0
DICTIONARY
  5
E77
102
{ACAD_REACTORS
330
C
102
}
330
C
100
AcDbDictionary
281
     1
  3
ASEBlockHierarchyIndexRecord
350
E78
1001
DCO15
1040
1552647238.734
  0
XRECORD
  5
24B1
102
{ACAD_REACTORS
330
C
102
}
330
C
100
AcDbXrecord
280
     1
  1
DWGPROPS COOKIE
  2

  3

  4

  6

  7

  8
Julio
  9

300
=
301
=
302
=
303
=
304
=
305
=
306
=
307
=
308
=
309
=
 40
0.0225533449074074
 41
2454138.526907905
 42
2455818.735262766
  1

 90
        0
  0
DICTIONARY
  5
1057
102
{ACAD_REACTORS
330
1051
102
}
330
1051
100
AcDbDictionary
281
     1
  0
DICTIONARY
  5
1056
102
{ACAD_REACTORS
330
1051
102
}
330
1051
100
AcDbDictionary
281
     1
1001
ACAD
1000
<All
  0
XRECORD
  5
2411
102
{ACAD_REACTORS
330
2410
102
}
330
2410
100
AcDbXrecord
280
     1
290
     1
  0
XRECORD
  5
2413
102
{ACAD_REACTORS
330
2412
102
}
330
2412
100
AcDbXrecord
280
     1
290
     1
  0
XRECORD
  5
2415
102
{ACAD_REACTORS
330
2414
102
}
330
2414
100
AcDbXrecord
280
     1
290
     1
  0
XRECORD
  5
2417
102
{ACAD_REACTORS
330
2416
102
}
330
2416
100
AcDbXrecord
280
     1
290
     1
  0
XRECORD
  5
2419
102
{ACAD_REACTORS
330
2418
102
}
330
2418
100
AcDbXrecord
280
     1
290
     1
  0
XRECORD
  5
241B
102
{ACAD_REACTORS
330
241A
102
}
330
241A
100
AcDbXrecord
280
     1
290
     1
  0
XRECORD
  5
241D
102
{ACAD_REACTORS
330
241C
102
}
330
241C
100
AcDbXrecord
280
     1
290
     1
  0
XRECORD
  5
241F
102
{ACAD_REACTORS
330
241E
102
}
330
241E
100
AcDbXrecord
280
     1
290
     1
  0
XRECORD
  5
2421
102
{ACAD_REACTORS
330
2420
102
}
330
2420
100
AcDbXrecord
280
     1
290
     1
  0
XRECORD
  5
2423
102
{ACAD_REACTORS
330
2422
102
}
330
2422
100
AcDbXrecord
280
     1
290
     1
  0
XRECORD
  5
2425
102
{ACAD_REACTORS
330
2424
102
}
330
2424
100
AcDbXrecord
280
     1
290
     1
  0
XRECORD
  5
2427
102
{ACAD_REACTORS
330
2426
102
}
330
2426
100
AcDbXrecord
280
     1
290
     1
  0
XRECORD
  5
2429
102
{ACAD_REACTORS
330
2428
102
}
330
2428
100
AcDbXrecord
280
     1
290
     1
  0
XRECORD
  5
242B
102
{ACAD_REACTORS
330
242A
102
}
330
242A
100
AcDbXrecord
280
     1
290
     1
  0
XRECORD
  5
242D
102
{ACAD_REACTORS
330
242C
102
}
330
242C
100
AcDbXrecord
280
     1
290
     1
  0
XRECORD
  5
242F
102
{ACAD_REACTORS
330
242E
102
}
330
242E
100
AcDbXrecord
280
     1
290
     1
  0
SORTENTSTABLE
  5
2208
102
{ACAD_REACTORS
330
2207
102
}
330
2207
100
AcDbSortentsTable
330
1F
331
2147
  5
22E8
331
1D31
  5
224F
331
1D12
  5
2230
331
1CF3
  5
2211
331
2156
  5
22F7
331
2137
  5
22D8
331
1D40
  5
225E
331
1D21
  5
223F
331
1D02
  5
2220
331
1CE3
  5
21FF
331
2165
  5
2306
331
2146
  5
22E7
331
1D30
  5
224E
331
1D11
  5
222F
331
1CF2
  5
2210
331
211F
  5
22C0
331
2136
  5
22D7
331
221F
  5
1BA2
331
1D20
  5
223E
331
1D01
  5
221F
331
1CE2
  5
21FE
331
2164
  5
2305
331
2145
  5
22E6
331
220F
  5
1B73
331
1D10
  5
222E
331
1CF1
  5
220F
331
211E
  5
22BF
331
2154
  5
22F5
331
2135
  5
22D6
331
21FF
  5
1B91
331
221E
  5
1BA1
331
1D00
  5
221E
331
1CE1
  5
21FD
331
2163
  5
2304
331
2144
  5
22E5
331
21EF
  5
1B81
331
220E
  5
1B72
331
1CF0
  5
220E
331
211D
  5
22BE
331
2153
  5
22F4
331
2134
  5
22D5
331
21FE
  5
1B90
331
221D
  5
1BA0
331
1CE0
  5
21FC
331
2162
  5
2303
331
2143
  5
22E4
331
220D
  5
1B71
331
21EE
  5
1B80
331
211C
  5
22BD
331
2171
  5
2312
331
2133
  5
22D4
331
221C
  5
1B9F
331
21FD
  5
1B8F
331
2142
  5
22E3
331
21ED
  5
1B7F
331
220C
  5
1B70
331
1B6F
  5
1BB9
331
211B
  5
22BC
331
2170
  5
2311
331
2132
  5
22D3
331
1BE7
  5
1CC6
331
21FC
  5
1B8E
331
221B
  5
1B9E
331
2160
  5
2301
331
2141
  5
22E2
331
220B
  5
1B6F
331
1BD7
  5
1CB6
331
21EC
  5
1B7E
331
1B6E
  5
1BB8
331
211A
  5
22BB
331
216F
  5
2310
331
221A
  5
1B9D
331
1BC7
  5
1C5B
331
1BE6
  5
1CC5
331
21FB
  5
1B8D
331
2140
  5
22E1
331
1BD6
  5
1CB5
331
21EB
  5
1B7D
331
220A
  5
1B6E
331
1BB7
  5
1C01
331
2119
  5
22BA
331
216E
  5
230F
331
2130
  5
22D1
331
1BE5
  5
1CC4
331
21FA
  5
1B8C
331
2219
  5
1B9C
331
1BA7
  5
1BF1
331
213F
  5
22E0
331
2209
  5
1B6D
331
1BD5
  5
1CB4
331
21EA
  5
1B7C
331
1BB6
  5
1C00
331
1B97
  5
1BE1
331
2118
  5
22B9
331
216D
  5
230E
331
212F
  5
22D0
331
2218
  5
1B9B
331
1BC5
  5
1C0F
331
1BE4
  5
1CC3
331
21F9
  5
1B8B
331
1B87
  5
1BD1
331
1BA6
  5
1BF0
331
2127
  5
22C8
331
213E
  5
22DF
331
2227
  5
1BAA
331
1BD4
  5
1CB3
331
21E9
  5
1B7B
331
1B96
  5
1BE0
331
1BB5
  5
1BFF
331
2297
  5
1C29
331
2117
  5
22B8
331
214D
  5
22EE
331
212E
  5
22CF
331
1BE3
  5
1CC2
331
1BC4
  5
1C0E
331
21F8
  5
1B8A
331
2217
  5
1B9A
331
1BA5
  5
1BEF
331
1B86
  5
1BD0
331
2287
  5
1C19
331
2126
  5
22C7
331
213D
  5
22DE
331
1BD3
  5
1CB2
331
2226
  5
1BA9
331
1BB4
  5
1BFE
331
1B95
  5
1BDF
331
2296
  5
1C28
331
2277
  5
1D75
331
2116
  5
22B7
331
216B
  5
230C
331
212D
  5
22CE
331
214C
  5
22ED
331
2216
  5
1B7A
331
1BC3
  5
1C0D
331
1BE2
  5
1CC1
331
21F7
  5
1B89
331
1C3F
  5
1D24
331
1B85
  5
1BCF
331
1BA4
  5
1BEE
331
2267
  5
1D65
331
2286
  5
1C18
331
2125
  5
22C6
331
215B
  5
22FC
331
213C
  5
22DD
331
1BD2
  5
1CB1
331
2206
  5
1B98
331
2225
  5
1BA8
331
1C2F
  5
1D14
331
1B94
  5
1BDE
331
1BB3
  5
1BFD
331
2276
  5
1D74
331
2257
  5
1D55
331
2295
  5
1C27
331
2115
  5
22B6
331
214B
  5
22EC
331
212C
  5
22CD
331
216A
  5
230B
331
1BC2
  5
1C0C
331
1BE1
  5
1CC0
331
21F6
  5
1B88
331
2215
  5
1B79
331
1BA3
  5
1BED
331
1C3E
  5
1D23
331
1C1F
  5
1D04
331
1B84
  5
1BCE
331
2285
  5
1C17
331
2247
  5
1D45
331
2266
  5
1D64
331
2124
  5
22C5
331
215A
  5
22FB
331
213B
  5
22DC
331
1BD1
  5
1CB0
331
2205
  5
1B97
331
2224
  5
1BA7
331
1BB2
  5
1BFC
331
1C4D
  5
1D32
331
1C0F
  5
1CF4
331
1C2E
  5
1D13
331
1B93
  5
1BDD
331
2294
  5
1C26
331
2256
  5
1D54
331
2237
  5
1D35
331
2275
  5
1D73
331
212B
  5
22CC
331
214A
  5
22EB
331
1BC1
  5
1C0B
331
1BE0
  5
1CBF
331
21F5
  5
1B87
331
2214
  5
1B78
331
1C3D
  5
1D22
331
1BFF
  5
1CE4
331
1C1E
  5
1D03
331
1B83
  5
1BCD
331
1BA2
  5
1BEC
331
1B77
  5
1BC1
331
2265
  5
1D63
331
2246
  5
1D44
331
2284
  5
1C16
331
2123
  5
22C4
331
2159
  5
22FA
331
213A
  5
22DB
331
1BD0
  5
1CAF
331
1BEF
  5
1CD4
331
2204
  5
1B96
331
2223
  5
1BA6
331
1C4C
  5
1D31
331
1C0E
  5
1CF3
331
1C2D
  5
1D12
331
1B92
  5
1BDC
331
1BB1
  5
1BFB
331
2274
  5
1D72
331
230F
  5
1CAA
331
2236
  5
1D34
331
2255
  5
1D53
331
2293
  5
1C25
331
2149
  5
22EA
331
212A
  5
22CB
331
1BC0
  5
1C0A
331
1BDF
  5
1CBE
331
21F4
  5
1B86
331
2213
  5
1B77
331
1BA1
  5
1BEB
331
1C3C
  5
1D21
331
1CD7
  5
21F3
331
1BFE
  5
1CE3
331
1C1D
  5
1D02
331
1B82
  5
1BCC
331
1B76
  5
1BC0
331
2283
  5
1C15
331
22FF
  5
1C7A
331
2245
  5
1D43
331
2264
  5
1D62
331
2122
  5
22C3
331
2158
  5
22F9
331
2139
  5
22DA
331
1BCF
  5
1CAE
331
1BEE
  5
1CD3
331
2203
  5
1B95
331
2222
  5
1BA5
331
1BB0
  5
1BFA
331
1C4B
  5
1D30
331
1C0D
  5
1CF2
331
1C2C
  5
1D11
331
1B91
  5
1BDB
331
2292
  5
1C24
331
2254
  5
1D52
331
22EF
  5
1C6A
331
230E
  5
1CA9
331
2235
  5
1D33
331
2273
  5
1D71
331
2129
  5
22CA
331
2148
  5
22E9
331
1BBF
  5
1C09
331
1BDE
  5
1CBD
331
21F3
  5
1B85
331
2212
  5
1B76
331
1C3B
  5
1D20
331
1CD6
  5
21F2
331
1BFD
  5
1CE2
331
1C1C
  5
1D01
331
1B81
  5
1BCB
331
1BA0
  5
1BEA
331
1B75
  5
1BBF
331
2282
  5
1C14
331
2263
  5
1D61
331
22FE
  5
1C79
331
22DF
  5
1C96
331
2244
  5
1D42
331
2121
  5
22C2
331
2138
  5
22D9
331
1BED
  5
1CD2
331
2202
  5
1B94
331
2221
  5
1BA4
331
1C4A
  5
1D2F
331
1C0C
  5
1CF1
331
1C2B
  5
1D10
331
1B90
  5
1BDA
331
1BAF
  5
1BF9
331
2272
  5
1D70
331
22CF
  5
1C86
331
22EE
  5
1C69
331
230D
  5
1CA8
331
2234
  5
1BB7
331
2253
  5
1D51
331
2291
  5
1C23
331
2128
  5
22C9
331
1B9F
  5
1BE9
331
1BBE
  5
1C08
331
1BDD
  5
1CBC
331
21F2
  5
1B84
331
2211
  5
1B75
331
1C3A
  5
1D1F
331
1CD5
  5
21F1
331
1BFC
  5
1CE1
331
1C1B
  5
1D00
331
1B80
  5
1BCA
331
1B74
  5
1BBE
331
2281
  5
1C13
331
22DE
  5
1C95
331
22BF
  5
1C51
331
22FD
  5
1C78
331
2243
  5
1D41
331
2262
  5
1D60
331
2120
  5
22C1
331
1BEC
  5
1CCF
331
2201
  5
1B93
331
2220
  5
1BA3
331
1C49
  5
1D2E
331
1C0B
  5
1CF0
331
1C2A
  5
1D0F
331
1B8F
  5
1BD9
331
1BAE
  5
1BF8
331
2271
  5
1D6F
331
2252
  5
1D50
331
22ED
  5
1C68
331
22CE
  5
1C85
331
22AF
  5
1C41
331
230C
  5
1CA7
331
2233
  5
1BB6
331
2290
  5
1C22
331
1B7F
  5
1BC9
331
1B9E
  5
1BE8
331
1C39
  5
1D1E
331
1BBD
  5
1C07
331
1BDC
  5
1CBB
331
1CD4
  5
21F0
331
1BFB
  5
1CE0
331
1C1A
  5
1CFF
331
21F1
  5
1B83
331
2210
  5
1B74
331
1B73
  5
1BBD
331
2280
  5
1C12
331
2261
  5
1D5F
331
22FC
  5
1C77
331
22BE
  5
1C50
331
22DD
  5
1C94
331
2242
  5
1D40
331
229F
  5
1C31
331
1BEB
  5
1CCC
331
2200
  5
1B92
331
1C48
  5
1D2D
331
1C0A
  5
1CEF
331
1C29
  5
1D0E
331
1B8E
  5
1BD8
331
1BAD
  5
1BF7
331
2270
  5
1D6E
331
230B
  5
1CA6
331
22CD
  5
1C84
331
22AE
  5
1C40
331
22EC
  5
1C67
331
2232
  5
1BB5
331
2251
  5
1D4F
331
228F
  5
1C21
331
1B7E
  5
1BC8
331
1B9D
  5
1BE7
331
1C38
  5
1D1D
331
1BBC
  5
1C06
331
1BDB
  5
1CBA
331
1CD3
  5
21EF
331
1BFA
  5
1CDF
331
1C19
  5
1CFE
331
21F0
  5
1B82
331
1B72
  5
1BBC
331
2260
  5
1D5E
331
22DC
  5
1C93
331
22BD
  5
1C4F
331
22FB
  5
1C76
331
2241
  5
1D3F
331
227F
  5
1C11
331
229E
  5
1C30
331
1BCB
  5
1C5F
331
1BEA
  5
1CC9
331
1C47
  5
1D2C
331
1D3F
  5
225D
331
1C09
  5
1CEE
331
1C28
  5
1D0D
331
1B8D
  5
1BD7
331
1BAC
  5
1BF6
331
226F
  5
1D6D
331
2250
  5
1D4E
331
22EB
  5
1C66
331
22AD
  5
1C3F
331
22CC
  5
1C83
331
230A
  5
1CA5
331
2231
  5
1BB4
331
228E
  5
1C20
331
1BDA
  5
1CB9
331
1B7D
  5
1BC7
331
1B9C
  5
1BE6
331
1C37
  5
1D1C
331
1BBB
  5
1C05
331
1CD2
  5
21EE
331
1D2F
  5
224D
331
1BF9
  5
1CDE
331
1C18
  5
1CFD
331
1B71
  5
1BBB
331
227E
  5
1D7C
331
225F
  5
1D5D
331
22FA
  5
1C75
331
22BC
  5
1C4E
331
22DB
  5
1C92
331
2240
  5
1D3E
331
229D
  5
1C2F
331
1BE9
  5
1CC8
331
1BCA
  5
1C5E
331
1C46
  5
1D2B
331
1C27
  5
1D0C
331
1D3E
  5
225C
331
1D1F
  5
223D
331
1C08
  5
1CED
331
1B8C
  5
1BD6
331
1BAB
  5
1BF5
331
224F
  5
1D4D
331
2309
  5
1CA4
331
22CB
  5
1C82
331
22AC
  5
1C3E
331
22EA
  5
1C65
331
2230
  5
1BB3
331
226E
  5
1D6C
331
228D
  5
1C1F
331
1B7C
  5
1BC6
331
1B9B
  5
1BE5
331
1C17
  5
1CFC
331
1C36
  5
1D1B
331
1BBA
  5
1C04
331
1BD9
  5
1CB8
331
1D2E
  5
224C
331
1D0F
  5
222D
331
1BF8
  5
1CDD
331
1B70
  5
1BBA
331
229C
  5
1C2E
331
225E
  5
1D5C
331
22DA
  5
1C91
331
22BB
  5
1C4D
331
22F9
  5
1C74
331
223F
  5
1D3D
331
227D
  5
1D7B
331
1BC9
  5
1C5D
331
1BE8
  5
1CC7
331
1C45
  5
1D2A
331
1D3D
  5
225B
331
1D1E
  5
223C
331
1CFF
  5
221D
331
1C07
  5
1CEC
331
1C26
  5
1D0B
331
1B8B
  5
1BD5
331
1BAA
  5
1BF4
331
226D
  5
1D6B
331
224E
  5
1D4C
331
22E9
  5
1C64
331
22AB
  5
1C3D
331
22CA
  5
1C81
331
2308
  5
1CA3
331
222F
  5
1BB2
331
228C
  5
1C1E
331
1BD8
  5
1CB7
331
1B7B
  5
1BC5
331
1B9A
  5
1BE4
331
1C16
  5
1CFB
331
1BF7
  5
1CDC
331
1C35
  5
1D1A
331
1D2D
  5
224B
331
1D0E
  5
222C
331
1CEF
  5
220D
331
1BB9
  5
1C03
331
227C
  5
1D7A
331
22F8
  5
1C73
331
22BA
  5
1C4C
331
22D9
  5
1C90
331
223E
  5
1D3C
331
225D
  5
1D5B
331
229B
  5
1C2D
331
1BC8
  5
1C5C
331
1C44
  5
1D29
331
1C25
  5
1D0A
331
1CDF
  5
21FB
331
1D3C
  5
225A
331
1D1D
  5
223B
331
1CFE
  5
221C
331
1C06
  5
1CEB
331
1B8A
  5
1BD4
331
1BA9
  5
1BF3
331
228B
  5
1C1D
331
224D
  5
1D4B
331
2307
  5
1CA2
331
22C9
  5
1C80
331
22AA
  5
1C3C
331
22E8
  5
1C63
331
222E
  5
1BB1
331
226C
  5
1D6A
331
1B7A
  5
1BC4
331
1B99
  5
1BE3
331
1BF6
  5
1CDB
331
1C15
  5
1CFA
331
1C34
  5
1D19
331
1BB8
  5
1C02
331
1D4B
  5
2269
331
1D2C
  5
224A
331
1D0D
  5
222B
331
1CEE
  5
220C
331
229A
  5
1C2C
331
225C
  5
1D5A
331
22D8
  5
1C8F
331
22B9
  5
1C4B
331
22F7
  5
1C72
331
223D
  5
1D3B
331
227B
  5
1D79
331
1C43
  5
1D28
331
1CDE
  5
21FA
331
1C05
  5
1CEA
331
1D3B
  5
2259
331
1D1C
  5
223A
331
1CFD
  5
221B
331
1C24
  5
1D09
331
1B89
  5
1BD3
331
1BA8
  5
1BF2
331
226B
  5
1D69
331
22E7
  5
1C62
331
22A9
  5
1C3B
331
22C8
  5
1C5A
331
2306
  5
1CA1
331
222D
  5
1BB0
331
224C
  5
1D4A
331
228A
  5
1C1C
331
1B79
  5
1BC3
331
1B98
  5
1BE2
331
1C14
  5
1CF9
331
1BF5
  5
1CDA
331
1C33
  5
1D18
331
1D2B
  5
2249
331
1D0C
  5
222A
331
1CED
  5
220B
331
227A
  5
1D78
331
22F6
  5
1C71
331
22B8
  5
1C4A
331
22D7
  5
1C8E
331
223C
  5
1D3A
331
225B
  5
1D59
331
2299
  5
1C2B
331
1C42
  5
1D27
331
1C23
  5
1D08
331
1CDD
  5
21F9
331
1D3A
  5
2258
331
1D1B
  5
2239
331
1CFC
  5
221A
331
1C04
  5
1CE9
331
1B88
  5
1BD2
331
2289
  5
1C1B
331
224B
  5
1D49
331
2305
  5
1CA0
331
22C7
  5
1C59
331
22A8
  5
1C3A
331
22E6
  5
1C9E
331
222C
  5
1BAF
331
226A
  5
1D68
331
1B78
  5
1BC2
331
1BF4
  5
1CD9
331
1C13
  5
1CF8
331
1C32
  5
1D17
331
1D2A
  5
2248
331
1D0B
  5
2229
331
1CEC
  5
220A
331
2298
  5
1C2A
331
225A
  5
1D58
331
22D6
  5
1C8D
331
22B7
  5
1C49
331
22F5
  5
1C70
331
223B
  5
1D39
331
2279
  5
1D77
331
1C41
  5
1D26
331
1CDC
  5
21F8
331
1D39
  5
2257
331
1D1A
  5
2238
331
1CFB
  5
2219
331
1C03
  5
1CE8
331
1C22
  5
1D07
331
2269
  5
1D67
331
22E5
  5
1C9D
331
22A7
  5
1C39
331
22C6
  5
1C58
331
2304
  5
1C7F
331
222B
  5
1BAE
331
224A
  5
1D48
331
2288
  5
1C1A
331
1C12
  5
1CF7
331
1BF3
  5
1CD8
331
1D29
  5
2247
331
1D0A
  5
2228
331
1CEB
  5
2209
331
1C31
  5
1D16
331
2278
  5
1D76
331
22F4
  5
1C6F
331
22B6
  5
1C48
331
22D5
  5
1C8C
331
223A
  5
1D38
331
2259
  5
1D57
331
1C40
  5
1D25
331
1C21
  5
1D06
331
1CDB
  5
21F7
331
1D38
  5
2256
331
1D19
  5
2237
331
1CFA
  5
2218
331
1C02
  5
1CE7
331
2249
  5
1D47
331
2303
  5
1C7E
331
22C5
  5
1C57
331
22A6
  5
1C38
331
22E4
  5
1C9C
331
222A
  5
1BAD
331
2268
  5
1D66
331
1BF2
  5
1CD7
331
1C11
  5
1CF6
331
1D28
  5
2246
331
1D09
  5
2227
331
1CEA
  5
2206
331
1C30
  5
1D15
331
2258
  5
1D56
331
2312
  5
1CAD
331
22D4
  5
1C8B
331
22B5
  5
1C47
331
22F3
  5
1C6E
331
2239
  5
1D37
331
1CDA
  5
21F6
331
1D37
  5
2255
331
1D18
  5
2236
331
1CF9
  5
2217
331
1C01
  5
1CE6
331
1C20
  5
1D05
331
22E3
  5
1C9B
331
22A5
  5
1C37
331
22C4
  5
1C56
331
2302
  5
1C7D
331
2229
  5
1BAC
331
2248
  5
1D46
331
1C10
  5
1CF5
331
1BF1
  5
1CD6
331
1D27
  5
2245
331
1D08
  5
2226
331
1CE9
  5
2205
331
22F2
  5
1C6D
331
22B4
  5
1C46
331
22D3
  5
1C8A
331
2311
  5
1CAC
331
2238
  5
1D36
331
1CD9
  5
21F5
331
1D36
  5
2254
331
1D17
  5
2235
331
1CF8
  5
2216
331
1C00
  5
1CE5
331
2301
  5
1C7C
331
22C3
  5
1C55
331
22A4
  5
1C36
331
22E2
  5
1C9A
331
2228
  5
1BAB
331
1BF0
  5
1CD5
331
1D45
  5
2263
331
1D26
  5
2244
331
1D07
  5
2225
331
1CE8
  5
2204
331
22F1
  5
1C6C
331
22D2
  5
1C89
331
22B3
  5
1C45
331
2310
  5
1CAB
331
1CD8
  5
21F4
331
1D35
  5
2253
331
1D16
  5
2234
331
1CF7
  5
2215
331
22E1
  5
1C99
331
22A3
  5
1C35
331
22C2
  5
1C54
331
2300
  5
1C7B
331
1D44
  5
2262
331
1D25
  5
2243
331
1D06
  5
2224
331
1CE7
  5
2203
331
22F0
  5
1C6B
331
22B2
  5
1C44
331
22D1
  5
1C88
331
1D34
  5
2252
331
1D15
  5
2233
331
1CF6
  5
2214
331
22E0
  5
1C97
331
22C1
  5
1C53
331
22A2
  5
1C34
331
1D43
  5
2261
331
1D24
  5
2242
331
1D05
  5
2223
331
1CE6
  5
2202
331
22D0
  5
1C87
331
22B1
  5
1C43
331
1D33
  5
2251
331
1D14
  5
2232
331
1CF5
  5
2213
331
22A1
  5
1C33
331
22C0
  5
1C52
331
1D42
  5
2260
331
1D23
  5
2241
331
1D04
  5
2222
331
1CE5
  5
2201
331
22B0
  5
1C42
331
1D32
  5
2250
331
1D13
  5
2231
331
1CF4
  5
2212
331
22A0
  5
1C32
331
2157
  5
22F8
331
1D41
  5
225F
331
1D22
  5
2240
331
1D03
  5
2221
331
1CE4
  5
2200
  0
XRECORD
  5
24BC
102
{ACAD_REACTORS
330
24BB
102
}
330
24BB
100
AcDbXrecord
280
     1
 40
3752.0
  1
90,0°
  0
XRECORD
  5
24B3
102
{ACAD_REACTORS
330
24B2
102
}
330
24B2
100
AcDbXrecord
280
     1
 40
1.570796326794896
  0
LAYOUT
  5
1E
102
{ACAD_XDICTIONARY
360
24B4
102
}
102
{ACAD_REACTORS
330
1A
102
}
330
1A
100
AcDbPlotSettings
  1

  2
Ploter HP500
  4

  6

 40
0.0
 41
0.0
 42
0.0
 43
0.0
 44
0.0
 45
0.0
 46
0.0
 47
0.0
 48
0.0
 49
0.0
140
0.0
141
0.0
142
1.0
143
1.0
 70
   688
 72
     0
 73
     0
 74
     5
  7
sanindusa.ctb
 75
    16
147
1.0
148
0.0
149
0.0
100
AcDbLayout
  1
Layout1
 70
     1
 71
     1
 10
0.0
 20
0.0
 11
420.0
 21
297.0
 12
0.0
 22
0.0
 32
0.0
 14
1.000000000000000E+20
 24
1.000000000000000E+20
 34
1.000000000000000E+20
 15
-1.000000000000000E+20
 25
-1.000000000000000E+20
 35
-1.000000000000000E+20
146
0.0
 13
0.0
 23
0.0
 33
0.0
 16
1.0
 26
0.0
 36
0.0
 17
0.0
 27
1.0
 37
0.0
 76
     0
330
1B
  0
LAYOUT
  5
26
102
{ACAD_XDICTIONARY
360
24B8
102
}
102
{ACAD_REACTORS
330
1A
102
}
330
1A
100
AcDbPlotSettings
  1

  2
Ploter HP500
  4

  6

 40
0.0
 41
0.0
 42
0.0
 43
0.0
 44
0.0
 45
0.0
 46
0.0
 47
0.0
 48
0.0
 49
0.0
140
0.0
141
0.0
142
1.0
143
1.0
 70
   688
 72
     0
 73
     0
 74
     5
  7
sanindusa.ctb
 75
    16
147
1.0
148
0.0
149
0.0
100
AcDbLayout
  1
Layout2
 70
     1
 71
     2
 10
0.0
 20
0.0
 11
12.0
 21
9.0
 12
0.0
 22
0.0
 32
0.0
 14
0.0
 24
0.0
 34
0.0
 15
0.0
 25
0.0
 35
0.0
146
0.0
 13
0.0
 23
0.0
 33
0.0
 16
1.0
 26
0.0
 36
0.0
 17
0.0
 27
1.0
 37
0.0
 76
     0
330
23
  0
LAYOUT
  5
22
102
{ACAD_XDICTIONARY
360
24B6
102
}
102
{ACAD_REACTORS
330
1A
102
}
330
1A
100
AcDbPlotSettings
  1

  2
Ploter HP500
  4
User268
  6

 40
4.995333194732666
 41
16.97565841674804
 42
4.995330810546875
 43
16.97567749023437
 44
209.9733276367187
 45
296.9259948730469
 46
0.0
 47
0.0
 48
0.0
 49
0.0
140
0.0
141
0.0
142
1.0
143
1.0
 70
 11952
 72
     1
 73
     1
 74
     0
  7
sanindusa.ctb
 75
     0
147
1.0
148
-427.5957866592534
149
7.362384574453926
100
AcDbLayout
  1
Model
 70
     1
 71
     0
 10
0.0
 20
0.0
 11
12.0
 21
9.0
 12
0.0
 22
0.0
 32
0.0
 14
0.0
 24
0.0
 34
0.0
 15
0.0
 25
0.0
 35
0.0
146
0.0
 13
0.0
 23
0.0
 33
0.0
 16
1.0
 26
0.0
 36
0.0
 17
0.0
 27
1.0
 37
0.0
 76
     0
330
1F
331
2377
  0
MATERIAL
  5
2388
102
{ACAD_XDICTIONARY
360
2389
102
}
102
{ACAD_REACTORS
330
EE5
102
}
330
EE5
100
AcDbMaterial
  1
ByBlock
 72
     0
 43
0.0008202099737533
 43
0.0
 43
0.0
 43
0.0
 43
0.0
 43
0.0008202099737533
 43
0.0
 43
0.0
 43
0.0
 43
0.0
 43
1.0
 43
0.0
 43
0.0
 43
0.0
 43
0.0
 43
1.0
 77
     0
 47
0.0008202099737533
 47
0.0
 47
0.0
 47
0.0
 47
0.0
 47
0.0008202099737533
 47
0.0
 47
0.0
 47
0.0
 47
0.0
 47
1.0
 47
0.0
 47
0.0
 47
0.0
 47
0.0
 47
1.0
171
     0
 49
0.0008202099737533
 49
0.0
 49
0.0
 49
0.0
 49
0.0
 49
0.0008202099737533
 49
0.0
 49
0.0
 49
0.0
 49
0.0
 49
1.0
 49
0.0
 49
0.0
 49
0.0
 49
0.0
 49
1.0
175
     0
142
0.0008202099737533
142
0.0
142
0.0
142
0.0
142
0.0
142
0.0008202099737533
142
0.0
142
0.0
142
0.0
142
0.0
142
1.0
142
0.0
142
0.0
142
0.0
142
0.0
142
1.0
179
     0
144
0.0008202099737533
144
0.0
144
0.0
144
0.0
144
0.0
144
0.0008202099737533
144
0.0
144
0.0
144
0.0
144
0.0
144
1.0
144
0.0
144
0.0
144
0.0
144
0.0
144
1.0
147
0.0008202099737533
147
0.0
147
0.0
147
0.0
147
0.0
147
0.0008202099737533
147
0.0
147
0.0
147
0.0
147
0.0
147
1.0
147
0.0
147
0.0
147
0.0
147
0.0
147
1.0
  0
MATERIAL
  5
2380
102
{ACAD_XDICTIONARY
360
2381
102
}
102
{ACAD_REACTORS
330
EE5
102
}
330
EE5
100
AcDbMaterial
  1
ByLayer
 72
     0
 43
0.0008202099737533
 43
0.0
 43
0.0
 43
0.0
 43
0.0
 43
0.0008202099737533
 43
0.0
 43
0.0
 43
0.0
 43
0.0
 43
1.0
 43
0.0
 43
0.0
 43
0.0
 43
0.0
 43
1.0
 77
     0
 47
0.0008202099737533
 47
0.0
 47
0.0
 47
0.0
 47
0.0
 47
0.0008202099737533
 47
0.0
 47
0.0
 47
0.0
 47
0.0
 47
1.0
 47
0.0
 47
0.0
 47
0.0
 47
0.0
 47
1.0
171
     0
 49
0.0008202099737533
 49
0.0
 49
0.0
 49
0.0
 49
0.0
 49
0.0008202099737533
 49
0.0
 49
0.0
 49
0.0
 49
0.0
 49
1.0
 49
0.0
 49
0.0
 49
0.0
 49
0.0
 49
1.0
175
     0
142
0.0008202099737533
142
0.0
142
0.0
142
0.0
142
0.0
142
0.0008202099737533
142
0.0
142
0.0
142
0.0
142
0.0
142
1.0
142
0.0
142
0.0
142
0.0
142
0.0
142
1.0
179
     0
144
0.0008202099737533
144
0.0
144
0.0
144
0.0
144
0.0
144
0.0008202099737533
144
0.0
144
0.0
144
0.0
144
0.0
144
1.0
144
0.0
144
0.0
144
0.0
144
0.0
144
1.0
147
0.0008202099737533
147
0.0
147
0.0
147
0.0
147
0.0
147
0.0008202099737533
147
0.0
147
0.0
147
0.0
147
0.0
147
1.0
147
0.0
147
0.0
147
0.0
147
0.0
147
1.0
  0
MATERIAL
  5
2390
102
{ACAD_XDICTIONARY
360
2391
102
}
102
{ACAD_REACTORS
330
EE5
102
}
330
EE5
100
AcDbMaterial
  1
Global
 72
     0
 43
0.0008202099737533
 43
0.0
 43
0.0
 43
0.0
 43
0.0
 43
0.0008202099737533
 43
0.0
 43
0.0
 43
0.0
 43
0.0
 43
1.0
 43
0.0
 43
0.0
 43
0.0
 43
0.0
 43
1.0
 77
     0
 47
0.0008202099737533
 47
0.0
 47
0.0
 47
0.0
 47
0.0
 47
0.0008202099737533
 47
0.0
 47
0.0
 47
0.0
 47
0.0
 47
1.0
 47
0.0
 47
0.0
 47
0.0
 47
0.0
 47
1.0
171
     0
 49
0.0008202099737533
 49
0.0
 49
0.0
 49
0.0
 49
0.0
 49
0.0008202099737533
 49
0.0
 49
0.0
 49
0.0
 49
0.0
 49
1.0
 49
0.0
 49
0.0
 49
0.0
 49
0.0
 49
1.0
175
     0
142
0.0008202099737533
142
0.0
142
0.0
142
0.0
142
0.0
142
0.0008202099737533
142
0.0
142
0.0
142
0.0
142
0.0
142
1.0
142
0.0
142
0.0
142
0.0
142
0.0
142
1.0
179
     0
144
0.0008202099737533
144
0.0
144
0.0
144
0.0
144
0.0
144
0.0008202099737533
144
0.0
144
0.0
144
0.0
144
0.0
144
1.0
144
0.0
144
0.0
144
0.0
144
0.0
144
1.0
147
0.0008202099737533
147
0.0
147
0.0
147
0.0
147
0.0
147
0.0008202099737533
147
0.0
147
0.0
147
0.0
147
0.0
147
1.0
147
0.0
147
0.0
147
0.0
147
0.0
147
1.0
  0
MLEADERSTYLE
  5
23BF
102
{ACAD_REACTORS
330
23BE
102
}
330
23BE
100
AcDbMLeaderStyle
170
     2
171
     1
172
     0
 90
        2
 40
0.0
 41
0.0
173
     1
 91
-1056964608
340
14
 92
       -2
290
     1
 42
2.0
291
     1
 43
0.36
  3
Standard
 44
4.0
300

342
11
174
     1
178
     6
175
     1
176
     0
 93
-1056964608
 45
4.0
292
     0
297
     0
 46
4.0
 94
-1056964608
 47
1.0
 49
1.0
140
1.0
293
     1
141
0.0
294
     1
177
     0
142
1.0
295
     0
296
     0
143
0.125
1001
ACAD_MLEADERVER
1070
     2
  0
MLINESTYLE
  5
18
102
{ACAD_REACTORS
330
17
102
}
330
17
100
AcDbMlineStyle
  2
STANDARD
 70
     0
  3

 62
   256
 51
90.0
 52
90.0
 71
     2
 49
0.5
 62
   256
  6
BYLAYER
 49
-0.5
 62
   256
  6
BYLAYER
  0
ACDBPLACEHOLDER
  5
F
102
{ACAD_REACTORS
330
E
102
}
330
E
  0
SCALE
  5
23AD
102
{ACAD_REACTORS
330
23AC
102
}
330
23AC
100
AcDbScale
 70
     0
300
1:1
140
1.0
141
1.0
290
     1
  0
SCALE
  5
23AE
102
{ACAD_REACTORS
330
23AC
102
}
330
23AC
100
AcDbScale
 70
     0
300
1:2
140
1.0
141
2.0
290
     0
  0
SCALE
  5
23AF
102
{ACAD_REACTORS
330
23AC
102
}
330
23AC
100
AcDbScale
 70
     0
300
1:4
140
1.0
141
4.0
290
     0
  0
SCALE
  5
23B0
102
{ACAD_REACTORS
330
23AC
102
}
330
23AC
100
AcDbScale
 70
     0
300
1:5
140
1.0
141
5.0
290
     0
  0
SCALE
  5
23B1
102
{ACAD_REACTORS
330
23AC
102
}
330
23AC
100
AcDbScale
 70
     0
300
1:8
140
1.0
141
8.0
290
     0
  0
SCALE
  5
23B2
102
{ACAD_REACTORS
330
23AC
102
}
330
23AC
100
AcDbScale
 70
     0
300
1:10
140
1.0
141
10.0
290
     0
  0
SCALE
  5
23B3
102
{ACAD_REACTORS
330
23AC
102
}
330
23AC
100
AcDbScale
 70
     0
300
1:16
140
1.0
141
16.0
290
     0
  0
SCALE
  5
23B4
102
{ACAD_REACTORS
330
23AC
102
}
330
23AC
100
AcDbScale
 70
     0
300
1:20
140
1.0
141
20.0
290
     0
  0
SCALE
  5
23B5
102
{ACAD_REACTORS
330
23AC
102
}
330
23AC
100
AcDbScale
 70
     0
300
1:30
140
1.0
141
30.0
290
     0
  0
SCALE
  5
23B6
102
{ACAD_REACTORS
330
23AC
102
}
330
23AC
100
AcDbScale
 70
     0
300
1:40
140
1.0
141
40.0
290
     0
  0
SCALE
  5
23B7
102
{ACAD_REACTORS
330
23AC
102
}
330
23AC
100
AcDbScale
 70
     0
300
1:50
140
1.0
141
50.0
290
     0
  0
SCALE
  5
23B8
102
{ACAD_REACTORS
330
23AC
102
}
330
23AC
100
AcDbScale
 70
     0
300
1:100
140
1.0
141
100.0
290
     0
  0
SCALE
  5
23B9
102
{ACAD_REACTORS
330
23AC
102
}
330
23AC
100
AcDbScale
 70
     0
300
2:1
140
2.0
141
1.0
290
     0
  0
SCALE
  5
23BA
102
{ACAD_REACTORS
330
23AC
102
}
330
23AC
100
AcDbScale
 70
     0
300
4:1
140
4.0
141
1.0
290
     0
  0
SCALE
  5
23BB
102
{ACAD_REACTORS
330
23AC
102
}
330
23AC
100
AcDbScale
 70
     0
300
8:1
140
8.0
141
1.0
290
     0
  0
SCALE
  5
23BC
102
{ACAD_REACTORS
330
23AC
102
}
330
23AC
100
AcDbScale
 70
     0
300
10:1
140
10.0
141
1.0
290
     0
  0
SCALE
  5
23BD
102
{ACAD_REACTORS
330
23AC
102
}
330
23AC
100
AcDbScale
 70
     0
300
100:1
140
100.0
141
1.0
290
     0
  0
TABLESTYLE
  5
EE8
102
{ACAD_XDICTIONARY
360
24AE
102
}
102
{ACAD_REACTORS
330
EE7
102
}
330
EE7
100
AcDbTableStyle
  3
Standard
 70
     0
 71
     0
 40
1.5
 41
1.5
280
     0
281
     0
  7
Standard
140
4.5
170
     2
 62
     0
 63
     7
283
     0
274
    -2
284
     1
 64
     0
275
    -2
285
     1
 65
     0
276
    -2
286
     1
 66
     0
277
    -2
287
     1
 67
     0
278
    -2
288
     1
 68
     0
279
    -2
289
     1
 69
     0
  7
Standard
140
6.0
170
     5
 62
     0
 63
     7
283
     0
274
    -2
284
     1
 64
     0
275
    -2
285
     1
 65
     0
276
    -2
286
     1
 66
     0
277
    -2
287
     1
 67
     0
278
    -2
288
     1
 68
     0
279
    -2
289
     1
 69
     0
  7
Standard
140
4.5
170
     5
 62
     0
 63
     7
283
     0
274
    -2
284
     1
 64
     0
275
    -2
285
     1
 65
     0
276
    -2
286
     1
 66
     0
277
    -2
287
     1
 67
     0
278
    -2
288
     1
 68
     0
279
    -2
289
     1
 69
     0
  0
VISUALSTYLE
  5
239E
102
{ACAD_XDICTIONARY
360
24CA
102
}
102
{ACAD_REACTORS
330
2398
102
}
330
2398
100
AcDbVisualStyle
  2
2dWireframe
 70
     4
 71
     0
 72
     2
 73
     0
 90
        0
 40
-0.6
 41
-30.0
 62
     5
 63
     7
 74
     1
 91
        4
 64
     7
 65
   257
 75
     1
175
     1
 42
1.0
 92
        0
 66
   257
 43
1.0
 76
     1
 77
     6
 78
     2
 67
     7
 79
     5
170
     0
171
     0
290
     0
174
     0
 93
        1
 44
0.0
173
     0
291
     0
 45
0.0
1001
ACAD
1000
AcDbSavedByObjectVersion
1070
     0
  0
VISUALSTYLE
  5
23A0
102
{ACAD_XDICTIONARY
360
24CE
102
}
102
{ACAD_REACTORS
330
2398
102
}
330
2398
100
AcDbVisualStyle
  2
3D Hidden
 70
     6
 71
     1
 72
     2
 73
     2
 90
        0
 40
-0.6
 41
-30.0
 62
     5
 63
     7
 74
     2
 91
        2
 64
     7
 65
   257
 75
     2
175
     1
 42
179.0
 92
        0
 66
   257
 43
1.0
 76
     1
 77
     6
 78
     2
 67
     7
 79
     3
170
     0
171
     0
290
     0
174
     0
 93
        1
 44
0.0
173
     0
291
     0
 45
0.0
1001
ACAD
1000
AcDbSavedByObjectVersion
1070
     0
  0
VISUALSTYLE
  5
239F
102
{ACAD_XDICTIONARY
360
24CC
102
}
102
{ACAD_REACTORS
330
2398
102
}
330
2398
100
AcDbVisualStyle
  2
3dWireframe
 70
     5
 71
     0
 72
     2
 73
     0
 90
        0
 40
-0.6
 41
-30.0
 62
     5
 63
     7
 74
     1
 91
        4
 64
     7
 65
   257
 75
     1
175
     1
 42
1.0
 92
        0
 66
   257
 43
1.0
 76
     1
 77
     6
 78
     2
 67
     7
 79
     5
170
     0
171
     0
290
     0
174
     0
 93
        1
 44
0.0
173
     0
291
     0
 45
0.0
1001
ACAD
1000
AcDbSavedByObjectVersion
1070
     0
  0
VISUALSTYLE
  5
239D
102
{ACAD_XDICTIONARY
360
24C8
102
}
102
{ACAD_REACTORS
330
2398
102
}
330
2398
100
AcDbVisualStyle
  2
Basic
 70
     7
 71
     1
 72
     0
 73
     1
 90
        0
 40
-0.6
 41
-30.0
 62
     5
 63
     7
 74
     0
 91
        4
 64
     7
 65
   257
 75
     1
175
     1
 42
1.0
 92
        8
 66
     7
 43
1.0
 76
     1
 77
     6
 78
     2
 67
     7
 79
     5
170
     0
171
     0
290
     0
174
     0
 93
        1
 44
0.0
173
     0
291
     1
 45
0.0
1001
ACAD
1000
AcDbSavedByObjectVersion
1070
     0
  0
VISUALSTYLE
  5
23A4
102
{ACAD_XDICTIONARY
360
24D6
102
}
102
{ACAD_REACTORS
330
2398
102
}
330
2398
100
AcDbVisualStyle
  2
Brighten
 70
    12
 71
     2
 72
     2
 73
     0
 90
        0
 40
-0.6
 41
-30.0
 62
     5
 63
     7
 74
     1
 91
        4
 64
     7
 65
   257
 75
     1
175
     1
 42
1.0
 92
        8
 66
     7
 43
1.0
 76
     1
 77
     6
 78
     2
 67
     7
 79
     5
170
     0
171
     0
290
     0
174
     0
 93
        1
 44
50.0
173
     0
291
     1
 45
0.0
1001
ACAD
1000
AcDbSavedByObjectVersion
1070
     0
  0
VISUALSTYLE
  5
23A8
102
{ACAD_XDICTIONARY
360
24DE
102
}
102
{ACAD_REACTORS
330
2398
102
}
330
2398
100
AcDbVisualStyle
  2
ColorChange
 70
    16
 71
     2
 72
     2
 73
     3
 90
        0
 40
-0.6
 41
-30.0
 62
     5
 63
     8
 74
     1
 91
        4
 64
     7
 65
   257
 75
     1
175
     1
 42
1.0
 92
        8
 66
     8
 43
1.0
 76
     1
 77
     6
 78
     2
 67
     7
 79
     5
170
     0
171
     0
290
     0
174
     0
 93
        1
 44
0.0
173
     0
291
     1
 45
0.0
1001
ACAD
1000
AcDbSavedByObjectVersion
1070
     0
  0
VISUALSTYLE
  5
23A1
102
{ACAD_XDICTIONARY
360
24D0
102
}
102
{ACAD_REACTORS
330
2398
102
}
330
2398
100
AcDbVisualStyle
  2
Conceptual
 70
     9
 71
     3
 72
     2
 73
     0
 90
        0
 40
-0.6
 41
-30.0
 62
     5
 63
     7
 74
     2
 91
        2
 64
     7
 65
   257
 75
     1
175
     1
 42
179.0
 92
        8
 66
     7
 43
1.0
 76
     1
 77
     6
 78
     2
 67
     7
 79
     3
170
     0
171
     0
290
     0
174
     0
 93
        1
 44
0.0
173
     0
291
     0
 45
0.0
1001
ACAD
1000
AcDbSavedByObjectVersion
1070
     0
  0
VISUALSTYLE
  5
23A3
102
{ACAD_XDICTIONARY
360
24D4
102
}
102
{ACAD_REACTORS
330
2398
102
}
330
2398
100
AcDbVisualStyle
  2
Dim
 70
    11
 71
     2
 72
     2
 73
     0
 90
        0
 40
-0.6
 41
-30.0
 62
     5
 63
     7
 74
     1
 91
        4
 64
     7
 65
   257
 75
     1
175
     1
 42
1.0
 92
        8
 66
     7
 43
1.0
 76
     1
 77
     6
 78
     2
 67
     7
 79
     5
170
     0
171
     0
290
     0
174
     0
 93
        1
 44
-50.0
173
     0
291
     1
 45
0.0
1001
ACAD
1000
AcDbSavedByObjectVersion
1070
     0
  0
VISUALSTYLE
  5
23AB
102
{ACAD_XDICTIONARY
360
24E4
102
}
102
{ACAD_REACTORS
330
2398
102
}
330
2398
100
AcDbVisualStyle
  2
EdgeColorOff
 70
    22
 71
     2
 72
     2
 73
     0
 90
        0
 40
-0.6
 41
-30.0
 62
     5
 63
     7
 74
     1
 91
        4
 64
     7
 65
   257
 75
     1
175
     1
 42
1.0
 92
        8
 66
     7
 43
1.0
 76
     1
 77
     6
 78
     2
 67
     7
 79
     5
170
     0
171
     0
290
     0
174
     0
 93
        1
 44
0.0
173
     0
291
     1
 45
0.0
1001
ACAD
1000
AcDbSavedByObjectVersion
1070
     0
  0
VISUALSTYLE
  5
23A7
102
{ACAD_XDICTIONARY
360
24DC
102
}
102
{ACAD_REACTORS
330
2398
102
}
330
2398
100
AcDbVisualStyle
  2
Facepattern
 70
    15
 71
     2
 72
     2
 73
     0
 90
        0
 40
-0.6
 41
-30.0
 62
     5
 63
     7
 74
     1
 91
        4
 64
     7
 65
   257
 75
     1
175
     1
 42
1.0
 92
        8
 66
     7
 43
1.0
 76
     1
 77
     6
 78
     2
 67
     7
 79
     5
170
     0
171
     0
290
     0
174
     0
 93
        1
 44
0.0
173
     0
291
     1
 45
0.0
1001
ACAD
1000
AcDbSavedByObjectVersion
1070
     0
  0
VISUALSTYLE
  5
2399
102
{ACAD_XDICTIONARY
360
24C0
102
}
102
{ACAD_REACTORS
330
2398
102
}
330
2398
100
AcDbVisualStyle
  2
Flat
 70
     0
 71
     2
 72
     1
 73
     1
 90
        2
 40
-0.6
 41
30.0
 62
     5
 63
     7
 74
     0
 91
        4
 64
     7
 65
   257
 75
     1
175
     1
 42
1.0
 92
        8
 66
     7
 43
1.0
 76
     1
 77
     6
 78
     2
 67
     7
 79
     5
170
     0
171
     0
290
     0
174
     0
 93
       13
 44
0.0
173
     0
291
     1
 45
0.0
1001
ACAD
1000
AcDbSavedByObjectVersion
1070
     0
  0
VISUALSTYLE
  5
239A
102
{ACAD_XDICTIONARY
360
24C2
102
}
102
{ACAD_REACTORS
330
2398
102
}
330
2398
100
AcDbVisualStyle
  2
FlatWithEdges
 70
     1
 71
     2
 72
     1
 73
     1
 90
        2
 40
-0.6
 41
30.0
 62
     5
 63
     7
 74
     1
 91
        4
 64
     7
 65
   257
 75
     1
175
     1
 42
1.0
 92
        0
 66
   257
 43
1.0
 76
     1
 77
     6
 78
     2
 67
     7
 79
     5
170
     0
171
     0
290
     0
174
     0
 93
       13
 44
0.0
173
     0
291
     1
 45
0.0
1001
ACAD
1000
AcDbSavedByObjectVersion
1070
     0
  0
VISUALSTYLE
  5
239B
102
{ACAD_XDICTIONARY
360
24C4
102
}
102
{ACAD_REACTORS
330
2398
102
}
330
2398
100
AcDbVisualStyle
  2
Gouraud
 70
     2
 71
     2
 72
     2
 73
     1
 90
        2
 40
-0.6
 41
30.0
 62
     5
 63
     7
 74
     0
 91
        4
 64
     7
 65
   257
 75
     1
175
     1
 42
1.0
 92
        0
 66
     7
 43
1.0
 76
     1
 77
     6
 78
     2
 67
     7
 79
     5
170
     0
171
     0
290
     0
174
     0
 93
       13
 44
0.0
173
     0
291
     1
 45
0.0
1001
ACAD
1000
AcDbSavedByObjectVersion
1070
     0
  0
VISUALSTYLE
  5
239C
102
{ACAD_XDICTIONARY
360
24C6
102
}
102
{ACAD_REACTORS
330
2398
102
}
330
2398
100
AcDbVisualStyle
  2
GouraudWithEdges
 70
     3
 71
     2
 72
     2
 73
     1
 90
        2
 40
-0.6
 41
30.0
 62
     5
 63
     7
 74
     1
 91
        4
 64
     7
 65
   257
 75
     1
175
     1
 42
1.0
 92
        0
 66
   257
 43
1.0
 76
     1
 77
     6
 78
     2
 67
     7
 79
     5
170
     0
171
     0
290
     0
174
     0
 93
       13
 44
0.0
173
     0
291
     1
 45
0.0
1001
ACAD
1000
AcDbSavedByObjectVersion
1070
     0
  0
VISUALSTYLE
  5
23A9
102
{ACAD_XDICTIONARY
360
24E0
102
}
102
{ACAD_REACTORS
330
2398
102
}
330
2398
100
AcDbVisualStyle
  2
JitterOff
 70
    20
 71
     2
 72
     2
 73
     0
 90
        0
 40
-0.6
 41
-30.0
 62
     5
 63
     7
 74
     1
 91
        4
 64
     7
 65
   257
 75
     1
175
     1
 42
1.0
 92
       10
 66
     7
 43
1.0
 76
     1
 77
     6
 78
     2
 67
     7
 79
     5
170
     0
171
     0
290
     0
174
     0
 93
        1
 44
0.0
173
     0
291
     1
 45
0.0
1001
ACAD
1000
AcDbSavedByObjectVersion
1070
     0
  0
VISUALSTYLE
  5
23A6
102
{ACAD_XDICTIONARY
360
24DA
102
}
102
{ACAD_REACTORS
330
2398
102
}
330
2398
100
AcDbVisualStyle
  2
Linepattern
 70
    14
 71
     2
 72
     2
 73
     0
 90
        0
 40
-0.6
 41
-30.0
 62
     5
 63
     7
 74
     1
 91
        4
 64
     7
 65
   257
 75
     7
175
     7
 42
1.0
 92
        8
 66
     7
 43
1.0
 76
     1
 77
     6
 78
     2
 67
     7
 79
     5
170
     0
171
     0
290
     0
174
     0
 93
        1
 44
0.0
173
     0
291
     1
 45
0.0
1001
ACAD
1000
AcDbSavedByObjectVersion
1070
     0
  0
VISUALSTYLE
  5
23AA
102
{ACAD_XDICTIONARY
360
24E2
102
}
102
{ACAD_REACTORS
330
2398
102
}
330
2398
100
AcDbVisualStyle
  2
OverhangOff
 70
    21
 71
     2
 72
     2
 73
     0
 90
        0
 40
-0.6
 41
-30.0
 62
     5
 63
     7
 74
     1
 91
        4
 64
     7
 65
   257
 75
     1
175
     1
 42
1.0
 92
        9
 66
     7
 43
1.0
 76
     1
 77
     6
 78
     2
 67
     7
 79
     5
170
     0
171
     0
290
     0
174
     0
 93
        1
 44
0.0
173
     0
291
     1
 45
0.0
1001
ACAD
1000
AcDbSavedByObjectVersion
1070
     0
  0
VISUALSTYLE
  5
23A2
102
{ACAD_XDICTIONARY
360
24D2
102
}
102
{ACAD_REACTORS
330
2398
102
}
330
2398
100
AcDbVisualStyle
  2
Realistic
 70
     8
 71
     2
 72
     2
 73
     0
 90
        0
 40
-0.6
 41
-30.0
 62
     5
 63
     7
 74
     1
 91
        0
 64
     7
 65
   257
 75
     1
175
     1
 42
1.0
 92
        8
 66
     8
 43
1.0
 76
     1
 77
     6
 78
     2
 67
     7
 79
     5
170
     0
171
     0
290
     0
174
     0
 93
       13
 44
0.0
173
     0
291
     0
 45
0.0
1001
ACAD
1000
AcDbSavedByObjectVersion
1070
     0
  0
VISUALSTYLE
  5
23A5
102
{ACAD_XDICTIONARY
360
24D8
102
}
102
{ACAD_REACTORS
330
2398
102
}
330
2398
100
AcDbVisualStyle
  2
Thicken
 70
    13
 71
     2
 72
     2
 73
     0
 90
        0
 40
-0.6
 41
-30.0
 62
     5
 63
     7
 74
     1
 91
        4
 64
     7
 65
   257
 75
     1
175
     1
 42
1.0
 92
       12
 66
     7
 43
1.0
 76
     1
 77
     6
 78
     2
 67
     7
 79
     5
170
     0
171
     0
290
     0
174
     0
 93
        1
 44
0.0
173
     0
291
     1
 45
0.0
1001
ACAD
1000
AcDbSavedByObjectVersion
1070
     0
  0
DICTIONARYVAR
  5
2471
102
{ACAD_REACTORS
330
3D
102
}
330
3D
100
DictionaryVariables
280
     0
  1
1:1
  0
DICTIONARYVAR
  5
2470
102
{ACAD_REACTORS
330
3D
102
}
330
3D
100
DictionaryVariables
280
     0
  1
STANDARD
  0
DICTIONARYVAR
  5
1049
102
{ACAD_REACTORS
330
3D
102
}
330
3D
100
DictionaryVariables
280
     0
  1
STANDARD
  0
DICTIONARYVAR
  5
3F
102
{ACAD_REACTORS
330
3D
102
}
330
3D
100
DictionaryVariables
280
     0
  1
2
  0
DICTIONARYVAR
  5
3E
102
{ACAD_REACTORS
330
3D
102
}
330
3D
100
DictionaryVariables
280
     0
  1
1
  0
DICTIONARYVAR
  5
2473
102
{ACAD_REACTORS
330
3D
102
}
330
3D
100
DictionaryVariables
280
     0
  1
0
  0
DICTIONARYVAR
  5
231B
102
{ACAD_REACTORS
330
3D
102
}
330
3D
100
DictionaryVariables
280
     0
  1

  0
DICTIONARYVAR
  5
2472
102
{ACAD_REACTORS
330
3D
102
}
330
3D
100
DictionaryVariables
280
     0
  1
127
  0
DICTIONARYVAR
  5
2474
102
{ACAD_REACTORS
330
3D
102
}
330
3D
100
DictionaryVariables
280
     0
  1
2
  0
XRECORD
  5
E78
102
{ACAD_REACTORS
330
E77
102
}
330
E77
100
AcDbXrecord
280
     1
330
0
330
0
  0
DICTIONARY
  5
24B4
330
1E
100
AcDbDictionary
280
     1
281
     1
  3
ACAD_XREC_ROUNDTRIP
360
24B5
  0
DICTIONARY
  5
24B8
330
26
100
AcDbDictionary
280
     1
281
     1
  3
ACAD_XREC_ROUNDTRIP
360
24B9
  0
DICTIONARY
  5
24B6
330
22
100
AcDbDictionary
280
     1
281
     1
  3
ACAD_XREC_ROUNDTRIP
360
24B7
  0
DICTIONARY
  5
2389
330
2388
100
AcDbDictionary
280
     1
281
     1
  3
ACAD_XREC_ROUNDTRIP
360
24BE
  3
BUMPTILE
360
238B
  3
DIFFUSETILE
360
238A
  3
OPACITYTILE
360
238E
  3
REFLECTIONTILE
360
238D
  3
REFRACTIONTILE
360
238F
  3
SPECULARTILE
360
238C
  0
DICTIONARY
  5
2381
330
2380
100
AcDbDictionary
280
     1
281
     1
  3
ACAD_XREC_ROUNDTRIP
360
24BD
  3
BUMPTILE
360
2383
  3
DIFFUSETILE
360
2382
  3
OPACITYTILE
360
2386
  3
REFLECTIONTILE
360
2385
  3
REFRACTIONTILE
360
2387
  3
SPECULARTILE
360
2384
  0
DICTIONARY
  5
2391
330
2390
100
AcDbDictionary
280
     1
281
     1
  3
ACAD_XREC_ROUNDTRIP
360
24BF
  3
BUMPTILE
360
2393
  3
DIFFUSETILE
360
2392
  3
OPACITYTILE
360
2396
  3
REFLECTIONTILE
360
2395
  3
REFRACTIONTILE
360
2397
  3
SPECULARTILE
360
2394
  0
DICTIONARY
  5
24AE
330
EE8
100
AcDbDictionary
280
     1
281
     1
  3
ACAD_ROUNDTRIP_2008_TABLESTYLE_CELLSTYLEMAP
360
24AF
  3
ACAD_XREC_ROUNDTRIP
360
24BA
  0
DICTIONARY
  5
24CA
330
239E
100
AcDbDictionary
280
     1
281
     1
  3
ACAD_XREC_ROUNDTRIP
360
24CB
  0
DICTIONARY
  5
24CE
330
23A0
100
AcDbDictionary
280
     1
281
     1
  3
ACAD_XREC_ROUNDTRIP
360
24CF
  0
DICTIONARY
  5
24CC
330
239F
100
AcDbDictionary
280
     1
281
     1
  3
ACAD_XREC_ROUNDTRIP
360
24CD
  0
DICTIONARY
  5
24C8
330
239D
100
AcDbDictionary
280
     1
281
     1
  3
ACAD_XREC_ROUNDTRIP
360
24C9
  0
DICTIONARY
  5
24D6
330
23A4
100
AcDbDictionary
280
     1
281
     1
  3
ACAD_XREC_ROUNDTRIP
360
24D7
  0
DICTIONARY
  5
24DE
330
23A8
100
AcDbDictionary
280
     1
281
     1
  3
ACAD_XREC_ROUNDTRIP
360
24DF
  0
DICTIONARY
  5
24D0
330
23A1
100
AcDbDictionary
280
     1
281
     1
  3
ACAD_XREC_ROUNDTRIP
360
24D1
  0
DICTIONARY
  5
24D4
330
23A3
100
AcDbDictionary
280
     1
281
     1
  3
ACAD_XREC_ROUNDTRIP
360
24D5
  0
DICTIONARY
  5
24E4
330
23AB
100
AcDbDictionary
280
     1
281
     1
  3
ACAD_XREC_ROUNDTRIP
360
24E5
  0
DICTIONARY
  5
24DC
330
23A7
100
AcDbDictionary
280
     1
281
     1
  3
ACAD_XREC_ROUNDTRIP
360
24DD
  0
DICTIONARY
  5
24C0
330
2399
100
AcDbDictionary
280
     1
281
     1
  3
ACAD_XREC_ROUNDTRIP
360
24C1
  0
DICTIONARY
  5
24C2
330
239A
100
AcDbDictionary
280
     1
281
     1
  3
ACAD_XREC_ROUNDTRIP
360
24C3
  0
DICTIONARY
  5
24C4
330
239B
100
AcDbDictionary
280
     1
281
     1
  3
ACAD_XREC_ROUNDTRIP
360
24C5
  0
DICTIONARY
  5
24C6
330
239C
100
AcDbDictionary
280
     1
281
     1
  3
ACAD_XREC_ROUNDTRIP
360
24C7
  0
DICTIONARY
  5
24E0
330
23A9
100
AcDbDictionary
280
     1
281
     1
  3
ACAD_XREC_ROUNDTRIP
360
24E1
  0
DICTIONARY
  5
24DA
330
23A6
100
AcDbDictionary
280
     1
281
     1
  3
ACAD_XREC_ROUNDTRIP
360
24DB
  0
DICTIONARY
  5
24E2
330
23AA
100
AcDbDictionary
280
     1
281
     1
  3
ACAD_XREC_ROUNDTRIP
360
24E3
  0
DICTIONARY
  5
24D2
330
23A2
100
AcDbDictionary
280
     1
281
     1
  3
ACAD_XREC_ROUNDTRIP
360
24D3
  0
DICTIONARY
  5
24D8
330
23A5
100
AcDbDictionary
280
     1
281
     1
  3
ACAD_XREC_ROUNDTRIP
360
24D9
  0
XRECORD
  5
24B5
102
{ACAD_REACTORS
330
24B4
102
}
330
24B4
100
AcDbXrecord
280
     1
102
SHADEPLOT
 70
     0
102
SHADEPLOTRESLEVEL
 70
     2
102
SHADEPLOTCUSTOMDPI
 70
   300
  0
XRECORD
  5
24B9
102
{ACAD_REACTORS
330
24B8
102
}
330
24B8
100
AcDbXrecord
280
     1
102
SHADEPLOT
 70
     0
102
SHADEPLOTRESLEVEL
 70
     2
102
SHADEPLOTCUSTOMDPI
 70
   300
  0
XRECORD
  5
24B7
102
{ACAD_REACTORS
330
24B6
102
}
330
24B6
100
AcDbXrecord
280
     1
102
SHADEPLOT
 70
     0
102
SHADEPLOTRESLEVEL
 70
     2
102
SHADEPLOTCUSTOMDPI
 70
   300
  0
XRECORD
  5
24BE
102
{ACAD_REACTORS
330
2389
102
}
330
2389
100
AcDbXrecord
280
     1
102
MATERIAL
148
0.0
149
0.0
149
0.0
 93
        0
 94
      127
282
     0
 72
     0
 77
     0
171
     0
175
     0
179
     0
273
     0
  0
XRECORD
  5
238B
102
{ACAD_REACTORS
330
2389
102
}
330
2389
100
AcDbXrecord
280
     1
270
     1
271
     1
  0
XRECORD
  5
238A
102
{ACAD_REACTORS
330
2389
102
}
330
2389
100
AcDbXrecord
280
     1
270
     1
271
     1
  0
XRECORD
  5
238E
102
{ACAD_REACTORS
330
2389
102
}
330
2389
100
AcDbXrecord
280
     1
270
     1
271
     1
  0
XRECORD
  5
238D
102
{ACAD_REACTORS
330
2389
102
}
330
2389
100
AcDbXrecord
280
     1
270
     1
271
     1
  0
XRECORD
  5
238F
102
{ACAD_REACTORS
330
2389
102
}
330
2389
100
AcDbXrecord
280
     1
270
     1
271
     1
  0
XRECORD
  5
238C
102
{ACAD_REACTORS
330
2389
102
}
330
2389
100
AcDbXrecord
280
     1
270
     1
271
     1
  0
XRECORD
  5
24BD
102
{ACAD_REACTORS
330
2381
102
}
330
2381
100
AcDbXrecord
280
     1
102
MATERIAL
148
0.0
149
0.0
149
0.0
 93
        0
 94
      127
282
     0
 72
     0
 77
     0
171
     0
175
     0
179
     0
273
     0
  0
XRECORD
  5
2383
102
{ACAD_REACTORS
330
2381
102
}
330
2381
100
AcDbXrecord
280
     1
270
     1
271
     1
  0
XRECORD
  5
2382
102
{ACAD_REACTORS
330
2381
102
}
330
2381
100
AcDbXrecord
280
     1
270
     1
271
     1
  0
XRECORD
  5
2386
102
{ACAD_REACTORS
330
2381
102
}
330
2381
100
AcDbXrecord
280
     1
270
     1
271
     1
  0
XRECORD
  5
2385
102
{ACAD_REACTORS
330
2381
102
}
330
2381
100
AcDbXrecord
280
     1
270
     1
271
     1
  0
XRECORD
  5
2387
102
{ACAD_REACTORS
330
2381
102
}
330
2381
100
AcDbXrecord
280
     1
270
     1
271
     1
  0
XRECORD
  5
2384
102
{ACAD_REACTORS
330
2381
102
}
330
2381
100
AcDbXrecord
280
     1
270
     1
271
     1
  0
XRECORD
  5
24BF
102
{ACAD_REACTORS
330
2391
102
}
330
2391
100
AcDbXrecord
280
     1
102
MATERIAL
148
0.0
149
0.0
149
0.0
 93
        0
 94
      127
282
     0
 72
     0
 77
     0
171
     0
175
     0
179
     0
273
     0
  0
XRECORD
  5
2393
102
{ACAD_REACTORS
330
2391
102
}
330
2391
100
AcDbXrecord
280
     1
270
     1
271
     1
  0
XRECORD
  5
2392
102
{ACAD_REACTORS
330
2391
102
}
330
2391
100
AcDbXrecord
280
     1
270
     1
271
     1
  0
XRECORD
  5
2396
102
{ACAD_REACTORS
330
2391
102
}
330
2391
100
AcDbXrecord
280
     1
270
     1
271
     1
  0
XRECORD
  5
2395
102
{ACAD_REACTORS
330
2391
102
}
330
2391
100
AcDbXrecord
280
     1
270
     1
271
     1
  0
XRECORD
  5
2397
102
{ACAD_REACTORS
330
2391
102
}
330
2391
100
AcDbXrecord
280
     1
270
     1
271
     1
  0
XRECORD
  5
2394
102
{ACAD_REACTORS
330
2391
102
}
330
2391
100
AcDbXrecord
280
     1
270
     1
271
     1
  0
CELLSTYLEMAP
  5
24AF
102
{ACAD_REACTORS
330
24AE
102
}
330
24AE
100
AcDbCellStyleMap
 90
        3
300
CELLSTYLE
  1
TABLEFORMAT_BEGIN
 90
        5
170
     1
 91
        0
 92
    32768
 62
   257
 93
        1
300
CONTENTFORMAT
  1
CONTENTFORMAT_BEGIN
 90
        0
 91
        0
 92
        4
 93
        0
300

 40
0.0
140
1.0
 94
        5
 62
     0
340
11
144
6.0
309
CONTENTFORMAT_END
171
     1
301
MARGIN
  1
CELLMARGIN_BEGIN
 40
1.5
 40
1.5
 40
1.5
 40
1.5
 40
0.18
 40
0.18
309
CELLMARGIN_END
 94
        6
 95
        1
302
GRIDFORMAT
  1
GRIDFORMAT_BEGIN
 90
        0
 91
        1
 62
     0
 92
       -2
340
0
 93
        0
 40
0.045
309
GRIDFORMAT_END
 95
        2
302
GRIDFORMAT
  1
GRIDFORMAT_BEGIN
 90
        0
 91
        1
 62
     0
 92
       -2
340
0
 93
        0
 40
0.045
309
GRIDFORMAT_END
 95
        4
302
GRIDFORMAT
  1
GRIDFORMAT_BEGIN
 90
        0
 91
        1
 62
     0
 92
       -2
340
0
 93
        0
 40
0.045
309
GRIDFORMAT_END
 95
        8
302
GRIDFORMAT
  1
GRIDFORMAT_BEGIN
 90
        0
 91
        1
 62
     0
 92
       -2
340
0
 93
        0
 40
0.045
309
GRIDFORMAT_END
 95
       16
302
GRIDFORMAT
  1
GRIDFORMAT_BEGIN
 90
        0
 91
        1
 62
     0
 92
       -2
340
0
 93
        0
 40
0.045
309
GRIDFORMAT_END
 95
       32
302
GRIDFORMAT
  1
GRIDFORMAT_BEGIN
 90
        0
 91
        1
 62
     0
 92
       -2
340
0
 93
        0
 40
0.045
309
GRIDFORMAT_END
309
TABLEFORMAT_END
  1
CELLSTYLE_BEGIN
 90
        1
 91
        1
300
_TITLE
309
CELLSTYLE_END
300
CELLSTYLE
  1
TABLEFORMAT_BEGIN
 90
        5
170
     1
 91
        0
 92
        0
 62
   257
 93
        1
300
CONTENTFORMAT
  1
CONTENTFORMAT_BEGIN
 90
        0
 91
        0
 92
        4
 93
        0
300

 40
0.0
140
1.0
 94
        5
 62
     0
340
11
144
4.5
309
CONTENTFORMAT_END
171
     1
301
MARGIN
  1
CELLMARGIN_BEGIN
 40
1.5
 40
1.5
 40
1.5
 40
1.5
 40
0.18
 40
0.18
309
CELLMARGIN_END
 94
        6
 95
        1
302
GRIDFORMAT
  1
GRIDFORMAT_BEGIN
 90
        0
 91
        1
 62
     0
 92
       -2
340
0
 93
        0
 40
0.045
309
GRIDFORMAT_END
 95
        2
302
GRIDFORMAT
  1
GRIDFORMAT_BEGIN
 90
        0
 91
        1
 62
     0
 92
       -2
340
0
 93
        0
 40
0.045
309
GRIDFORMAT_END
 95
        4
302
GRIDFORMAT
  1
GRIDFORMAT_BEGIN
 90
        0
 91
        1
 62
     0
 92
       -2
340
0
 93
        0
 40
0.045
309
GRIDFORMAT_END
 95
        8
302
GRIDFORMAT
  1
GRIDFORMAT_BEGIN
 90
        0
 91
        1
 62
     0
 92
       -2
340
0
 93
        0
 40
0.045
309
GRIDFORMAT_END
 95
       16
302
GRIDFORMAT
  1
GRIDFORMAT_BEGIN
 90
        0
 91
        1
 62
     0
 92
       -2
340
0
 93
        0
 40
0.045
309
GRIDFORMAT_END
 95
       32
302
GRIDFORMAT
  1
GRIDFORMAT_BEGIN
 90
        0
 91
        1
 62
     0
 92
       -2
340
0
 93
        0
 40
0.045
309
GRIDFORMAT_END
309
TABLEFORMAT_END
  1
CELLSTYLE_BEGIN
 90
        2
 91
        1
300
_HEADER
309
CELLSTYLE_END
300
CELLSTYLE
  1
TABLEFORMAT_BEGIN
 90
        5
170
     1
 91
        0
 92
        0
 62
   257
 93
        1
300
CONTENTFORMAT
  1
CONTENTFORMAT_BEGIN
 90
        0
 91
        0
 92
        4
 93
        0
300

 40
0.0
140
1.0
 94
        2
 62
     0
340
11
144
4.5
309
CONTENTFORMAT_END
171
     1
301
MARGIN
  1
CELLMARGIN_BEGIN
 40
1.5
 40
1.5
 40
1.5
 40
1.5
 40
0.18
 40
0.18
309
CELLMARGIN_END
 94
        6
 95
        1
302
GRIDFORMAT
  1
GRIDFORMAT_BEGIN
 90
        0
 91
        1
 62
     0
 92
       -2
340
0
 93
        0
 40
0.045
309
GRIDFORMAT_END
 95
        2
302
GRIDFORMAT
  1
GRIDFORMAT_BEGIN
 90
        0
 91
        1
 62
     0
 92
       -2
340
0
 93
        0
 40
0.045
309
GRIDFORMAT_END
 95
        4
302
GRIDFORMAT
  1
GRIDFORMAT_BEGIN
 90
        0
 91
        1
 62
     0
 92
       -2
340
0
 93
        0
 40
0.045
309
GRIDFORMAT_END
 95
        8
302
GRIDFORMAT
  1
GRIDFORMAT_BEGIN
 90
        0
 91
        1
 62
     0
 92
       -2
340
0
 93
        0
 40
0.045
309
GRIDFORMAT_END
 95
       16
302
GRIDFORMAT
  1
GRIDFORMAT_BEGIN
 90
        0
 91
        1
 62
     0
 92
       -2
340
0
 93
        0
 40
0.045
309
GRIDFORMAT_END
 95
       32
302
GRIDFORMAT
  1
GRIDFORMAT_BEGIN
 90
        0
 91
        1
 62
     0
 92
       -2
340
0
 93
        0
 40
0.045
309
GRIDFORMAT_END
309
TABLEFORMAT_END
  1
CELLSTYLE_BEGIN
 90
        3
 91
        2
300
_DATA
309
CELLSTYLE_END
  0
XRECORD
  5
24BA
102
{ACAD_REACTORS
330
24AE
102
}
330
24AE
100
AcDbXrecord
280
     1
102
ACAD_ROUNDTRIP_PRE2007_TABLESTYLE
 90
        4
 91
        0
  1

 92
        4
 93
        0
  2

 94
        4
 95
        0
  3

  0
XRECORD
  5
24CB
102
{ACAD_REACTORS
330
24CA
102
}
330
24CA
100
AcDbXrecord
280
     1
102
RTVSPropertyOp0
 70
     1
102
RTVSPropertyOp1
 70
     1
102
RTVSPropertyOp2
 70
     1
102
RTVSPropertyOp3
 70
     1
102
RTVSPropertyOp4
 70
     1
102
RTVSPropertyOp5
 70
     1
102
RTVSPropertyOp6
 70
     1
102
RTVSPropertyOp7
 70
     1
102
RTVSPropertyOp8
 70
     1
102
RTVSPropertyOp9
 70
     1
102
RTVSPropertyOp10
 70
     1
102
RTVSPropertyOp11
 70
     1
102
RTVSPropertyOp12
 70
     1
102
RTVSPropertyOp13
 70
     1
102
RTVSPropertyOp14
 70
     1
102
RTVSPropertyOp15
 70
     1
102
RTVSPropertyOp16
 70
     1
102
RTVSPropertyOp17
 70
     1
102
RTVSPropertyOp18
 70
     1
102
RTVSPropertyOp19
 70
     1
102
RTVSPropertyOp20
 70
     1
102
RTVSPropertyOp21
 70
     1
102
RTVSPropertyOp22
 70
     1
102
RTVSPropertyOp23
 70
     1
102
RTVSPropertyOp24
 70
     1
102
RTVSPropertyOp25
 70
     1
102
RTVSPropertyOp26
 70
     1
102
RTVSPropertyOp27
 70
     1
  0
XRECORD
  5
24CF
102
{ACAD_REACTORS
330
24CE
102
}
330
24CE
100
AcDbXrecord
280
     1
102
RTVSPropertyOp0
 70
     1
102
RTVSPropertyOp1
 70
     1
102
RTVSPropertyOp2
 70
     1
102
RTVSPropertyOp3
 70
     1
102
RTVSPropertyOp4
 70
     1
102
RTVSPropertyOp5
 70
     1
102
RTVSPropertyOp6
 70
     1
102
RTVSPropertyOp7
 70
     1
102
RTVSPropertyOp8
 70
     1
102
RTVSPropertyOp9
 70
     1
102
RTVSPropertyOp10
 70
     1
102
RTVSPropertyOp11
 70
     1
102
RTVSPropertyOp12
 70
     1
102
RTVSPropertyOp13
 70
     1
102
RTVSPropertyOp14
 70
     1
102
RTVSPropertyOp15
 70
     1
102
RTVSPropertyOp16
 70
     1
102
RTVSPropertyOp17
 70
     1
102
RTVSPropertyOp18
 70
     1
102
RTVSPropertyOp19
 70
     1
102
RTVSPropertyOp20
 70
     1
102
RTVSPropertyOp21
 70
     1
102
RTVSPropertyOp22
 70
     1
102
RTVSPropertyOp23
 70
     1
102
RTVSPropertyOp24
 70
     1
102
RTVSPropertyOp25
 70
     1
102
RTVSPropertyOp26
 70
     1
102
RTVSPropertyOp27
 70
     1
  0
XRECORD
  5
24CD
102
{ACAD_REACTORS
330
24CC
102
}
330
24CC
100
AcDbXrecord
280
     1
102
RTVSPropertyOp0
 70
     1
102
RTVSPropertyOp1
 70
     1
102
RTVSPropertyOp2
 70
     1
102
RTVSPropertyOp3
 70
     1
102
RTVSPropertyOp4
 70
     1
102
RTVSPropertyOp5
 70
     1
102
RTVSPropertyOp6
 70
     1
102
RTVSPropertyOp7
 70
     1
102
RTVSPropertyOp8
 70
     1
102
RTVSPropertyOp9
 70
     1
102
RTVSPropertyOp10
 70
     1
102
RTVSPropertyOp11
 70
     1
102
RTVSPropertyOp12
 70
     1
102
RTVSPropertyOp13
 70
     1
102
RTVSPropertyOp14
 70
     1
102
RTVSPropertyOp15
 70
     1
102
RTVSPropertyOp16
 70
     1
102
RTVSPropertyOp17
 70
     1
102
RTVSPropertyOp18
 70
     1
102
RTVSPropertyOp19
 70
     1
102
RTVSPropertyOp20
 70
     1
102
RTVSPropertyOp21
 70
     1
102
RTVSPropertyOp22
 70
     1
102
RTVSPropertyOp23
 70
     1
102
RTVSPropertyOp24
 70
     1
102
RTVSPropertyOp25
 70
     1
102
RTVSPropertyOp26
 70
     1
102
RTVSPropertyOp27
 70
     1
  0
XRECORD
  5
24C9
102
{ACAD_REACTORS
330
24C8
102
}
330
24C8
100
AcDbXrecord
280
     1
102
RTVSPropertyOp0
 70
     1
102
RTVSPropertyOp1
 70
     1
102
RTVSPropertyOp2
 70
     1
102
RTVSPropertyOp3
 70
     1
102
RTVSPropertyOp4
 70
     1
102
RTVSPropertyOp5
 70
     1
102
RTVSPropertyOp6
 70
     1
102
RTVSPropertyOp7
 70
     1
102
RTVSPropertyOp8
 70
     1
102
RTVSPropertyOp9
 70
     1
102
RTVSPropertyOp10
 70
     1
102
RTVSPropertyOp11
 70
     1
102
RTVSPropertyOp12
 70
     1
102
RTVSPropertyOp13
 70
     1
102
RTVSPropertyOp14
 70
     1
102
RTVSPropertyOp15
 70
     1
102
RTVSPropertyOp16
 70
     1
102
RTVSPropertyOp17
 70
     1
102
RTVSPropertyOp18
 70
     1
102
RTVSPropertyOp19
 70
     1
102
RTVSPropertyOp20
 70
     1
102
RTVSPropertyOp21
 70
     1
102
RTVSPropertyOp22
 70
     1
102
RTVSPropertyOp23
 70
     1
102
RTVSPropertyOp24
 70
     1
102
RTVSPropertyOp25
 70
     1
102
RTVSPropertyOp26
 70
     1
102
RTVSPropertyOp27
 70
     1
  0
XRECORD
  5
24D7
102
{ACAD_REACTORS
330
24D6
102
}
330
24D6
100
AcDbXrecord
280
     1
102
RTVSPropertyOp0
 70
     1
102
RTVSPropertyOp1
 70
     1
102
RTVSPropertyOp2
 70
     1
102
RTVSPropertyOp3
 70
     1
102
RTVSPropertyOp4
 70
     1
102
RTVSPropertyOp5
 70
     1
102
RTVSPropertyOp6
 70
     1
102
RTVSPropertyOp7
 70
     1
102
RTVSPropertyOp8
 70
     1
102
RTVSPropertyOp9
 70
     1
102
RTVSPropertyOp10
 70
     1
102
RTVSPropertyOp11
 70
     1
102
RTVSPropertyOp12
 70
     1
102
RTVSPropertyOp13
 70
     1
102
RTVSPropertyOp14
 70
     1
102
RTVSPropertyOp15
 70
     1
102
RTVSPropertyOp16
 70
     1
102
RTVSPropertyOp17
 70
     1
102
RTVSPropertyOp18
 70
     1
102
RTVSPropertyOp19
 70
     1
102
RTVSPropertyOp20
 70
     1
102
RTVSPropertyOp21
 70
     1
102
RTVSPropertyOp22
 70
     1
102
RTVSPropertyOp23
 70
     1
102
RTVSPropertyOp24
 70
     1
102
RTVSPropertyOp25
 70
     1
102
RTVSPropertyOp26
 70
     1
102
RTVSPropertyOp27
 70
     1
  0
XRECORD
  5
24DF
102
{ACAD_REACTORS
330
24DE
102
}
330
24DE
100
AcDbXrecord
280
     1
102
RTVSPropertyOp0
 70
     1
102
RTVSPropertyOp1
 70
     1
102
RTVSPropertyOp2
 70
     1
102
RTVSPropertyOp3
 70
     1
102
RTVSPropertyOp4
 70
     1
102
RTVSPropertyOp5
 70
     1
102
RTVSPropertyOp6
 70
     1
102
RTVSPropertyOp7
 70
     1
102
RTVSPropertyOp8
 70
     1
102
RTVSPropertyOp9
 70
     1
102
RTVSPropertyOp10
 70
     1
102
RTVSPropertyOp11
 70
     1
102
RTVSPropertyOp12
 70
     1
102
RTVSPropertyOp13
 70
     1
102
RTVSPropertyOp14
 70
     1
102
RTVSPropertyOp15
 70
     1
102
RTVSPropertyOp16
 70
     1
102
RTVSPropertyOp17
 70
     1
102
RTVSPropertyOp18
 70
     1
102
RTVSPropertyOp19
 70
     1
102
RTVSPropertyOp20
 70
     1
102
RTVSPropertyOp21
 70
     1
102
RTVSPropertyOp22
 70
     1
102
RTVSPropertyOp23
 70
     1
102
RTVSPropertyOp24
 70
     1
102
RTVSPropertyOp25
 70
     1
102
RTVSPropertyOp26
 70
     1
102
RTVSPropertyOp27
 70
     1
  0
XRECORD
  5
24D1
102
{ACAD_REACTORS
330
24D0
102
}
330
24D0
100
AcDbXrecord
280
     1
102
RTVSPropertyOp0
 70
     1
102
RTVSPropertyOp1
 70
     1
102
RTVSPropertyOp2
 70
     1
102
RTVSPropertyOp3
 70
     1
102
RTVSPropertyOp4
 70
     1
102
RTVSPropertyOp5
 70
     1
102
RTVSPropertyOp6
 70
     1
102
RTVSPropertyOp7
 70
     1
102
RTVSPropertyOp8
 70
     1
102
RTVSPropertyOp9
 70
     1
102
RTVSPropertyOp10
 70
     1
102
RTVSPropertyOp11
 70
     1
102
RTVSPropertyOp12
 70
     1
102
RTVSPropertyOp13
 70
     1
102
RTVSPropertyOp14
 70
     1
102
RTVSPropertyOp15
 70
     1
102
RTVSPropertyOp16
 70
     1
102
RTVSPropertyOp17
 70
     1
102
RTVSPropertyOp18
 70
     1
102
RTVSPropertyOp19
 70
     1
102
RTVSPropertyOp20
 70
     1
102
RTVSPropertyOp21
 70
     1
102
RTVSPropertyOp22
 70
     1
102
RTVSPropertyOp23
 70
     1
102
RTVSPropertyOp24
 70
     1
102
RTVSPropertyOp25
 70
     1
102
RTVSPropertyOp26
 70
     1
102
RTVSPropertyOp27
 70
     1
  0
XRECORD
  5
24D5
102
{ACAD_REACTORS
330
24D4
102
}
330
24D4
100
AcDbXrecord
280
     1
102
RTVSPropertyOp0
 70
     1
102
RTVSPropertyOp1
 70
     1
102
RTVSPropertyOp2
 70
     1
102
RTVSPropertyOp3
 70
     1
102
RTVSPropertyOp4
 70
     1
102
RTVSPropertyOp5
 70
     1
102
RTVSPropertyOp6
 70
     1
102
RTVSPropertyOp7
 70
     1
102
RTVSPropertyOp8
 70
     1
102
RTVSPropertyOp9
 70
     1
102
RTVSPropertyOp10
 70
     1
102
RTVSPropertyOp11
 70
     1
102
RTVSPropertyOp12
 70
     1
102
RTVSPropertyOp13
 70
     1
102
RTVSPropertyOp14
 70
     1
102
RTVSPropertyOp15
 70
     1
102
RTVSPropertyOp16
 70
     1
102
RTVSPropertyOp17
 70
     1
102
RTVSPropertyOp18
 70
     1
102
RTVSPropertyOp19
 70
     1
102
RTVSPropertyOp20
 70
     1
102
RTVSPropertyOp21
 70
     1
102
RTVSPropertyOp22
 70
     1
102
RTVSPropertyOp23
 70
     1
102
RTVSPropertyOp24
 70
     1
102
RTVSPropertyOp25
 70
     1
102
RTVSPropertyOp26
 70
     1
102
RTVSPropertyOp27
 70
     1
  0
XRECORD
  5
24E5
102
{ACAD_REACTORS
330
24E4
102
}
330
24E4
100
AcDbXrecord
280
     1
102
RTVSPropertyOp0
 70
     0
102
RTVSPropertyOp1
 70
     0
102
RTVSPropertyOp2
 70
     0
102
RTVSPropertyOp3
 70
     0
102
RTVSPropertyOp4
 70
     0
102
RTVSPropertyOp5
 70
     0
102
RTVSPropertyOp6
 70
     0
102
RTVSPropertyOp7
 70
     0
102
RTVSPropertyOp8
 70
     0
102
RTVSPropertyOp9
 70
     0
102
RTVSPropertyOp10
 70
     0
102
RTVSPropertyOp11
 70
     0
102
RTVSPropertyOp12
 70
     0
102
RTVSPropertyOp13
 70
     0
102
RTVSPropertyOp14
 70
     2
102
RTVSPropertyOp15
 70
     0
102
RTVSPropertyOp16
 70
     0
102
RTVSPropertyOp17
 70
     0
102
RTVSPropertyOp18
 70
     0
102
RTVSPropertyOp19
 70
     0
102
RTVSPropertyOp20
 70
     0
102
RTVSPropertyOp21
 70
     0
102
RTVSPropertyOp22
 70
     0
102
RTVSPropertyOp23
 70
     0
102
RTVSPropertyOp24
 70
     0
102
RTVSPropertyOp25
 70
     0
102
RTVSPropertyOp26
 70
     0
102
RTVSPropertyOp27
 70
     0
  0
XRECORD
  5
24DD
102
{ACAD_REACTORS
330
24DC
102
}
330
24DC
100
AcDbXrecord
280
     1
102
RTVSPropertyOp0
 70
     1
102
RTVSPropertyOp1
 70
     1
102
RTVSPropertyOp2
 70
     1
102
RTVSPropertyOp3
 70
     1
102
RTVSPropertyOp4
 70
     1
102
RTVSPropertyOp5
 70
     1
102
RTVSPropertyOp6
 70
     1
102
RTVSPropertyOp7
 70
     1
102
RTVSPropertyOp8
 70
     1
102
RTVSPropertyOp9
 70
     1
102
RTVSPropertyOp10
 70
     1
102
RTVSPropertyOp11
 70
     1
102
RTVSPropertyOp12
 70
     1
102
RTVSPropertyOp13
 70
     1
102
RTVSPropertyOp14
 70
     1
102
RTVSPropertyOp15
 70
     1
102
RTVSPropertyOp16
 70
     1
102
RTVSPropertyOp17
 70
     1
102
RTVSPropertyOp18
 70
     1
102
RTVSPropertyOp19
 70
     1
102
RTVSPropertyOp20
 70
     1
102
RTVSPropertyOp21
 70
     1
102
RTVSPropertyOp22
 70
     1
102
RTVSPropertyOp23
 70
     1
102
RTVSPropertyOp24
 70
     1
102
RTVSPropertyOp25
 70
     1
102
RTVSPropertyOp26
 70
     1
102
RTVSPropertyOp27
 70
     1
  0
XRECORD
  5
24C1
102
{ACAD_REACTORS
330
24C0
102
}
330
24C0
100
AcDbXrecord
280
     1
102
RTVSPropertyOp0
 70
     1
102
RTVSPropertyOp1
 70
     1
102
RTVSPropertyOp2
 70
     1
102
RTVSPropertyOp3
 70
     1
102
RTVSPropertyOp4
 70
     1
102
RTVSPropertyOp5
 70
     1
102
RTVSPropertyOp6
 70
     1
102
RTVSPropertyOp7
 70
     1
102
RTVSPropertyOp8
 70
     1
102
RTVSPropertyOp9
 70
     1
102
RTVSPropertyOp10
 70
     1
102
RTVSPropertyOp11
 70
     1
102
RTVSPropertyOp12
 70
     1
102
RTVSPropertyOp13
 70
     1
102
RTVSPropertyOp14
 70
     1
102
RTVSPropertyOp15
 70
     1
102
RTVSPropertyOp16
 70
     1
102
RTVSPropertyOp17
 70
     1
102
RTVSPropertyOp18
 70
     1
102
RTVSPropertyOp19
 70
     1
102
RTVSPropertyOp20
 70
     1
102
RTVSPropertyOp21
 70
     1
102
RTVSPropertyOp22
 70
     1
102
RTVSPropertyOp23
 70
     1
102
RTVSPropertyOp24
 70
     1
102
RTVSPropertyOp25
 70
     1
102
RTVSPropertyOp26
 70
     1
102
RTVSPropertyOp27
 70
     1
  0
XRECORD
  5
24C3
102
{ACAD_REACTORS
330
24C2
102
}
330
24C2
100
AcDbXrecord
280
     1
102
RTVSPropertyOp0
 70
     1
102
RTVSPropertyOp1
 70
     1
102
RTVSPropertyOp2
 70
     1
102
RTVSPropertyOp3
 70
     1
102
RTVSPropertyOp4
 70
     1
102
RTVSPropertyOp5
 70
     1
102
RTVSPropertyOp6
 70
     1
102
RTVSPropertyOp7
 70
     1
102
RTVSPropertyOp8
 70
     1
102
RTVSPropertyOp9
 70
     1
102
RTVSPropertyOp10
 70
     1
102
RTVSPropertyOp11
 70
     1
102
RTVSPropertyOp12
 70
     1
102
RTVSPropertyOp13
 70
     1
102
RTVSPropertyOp14
 70
     1
102
RTVSPropertyOp15
 70
     1
102
RTVSPropertyOp16
 70
     1
102
RTVSPropertyOp17
 70
     1
102
RTVSPropertyOp18
 70
     1
102
RTVSPropertyOp19
 70
     1
102
RTVSPropertyOp20
 70
     1
102
RTVSPropertyOp21
 70
     1
102
RTVSPropertyOp22
 70
     1
102
RTVSPropertyOp23
 70
     1
102
RTVSPropertyOp24
 70
     1
102
RTVSPropertyOp25
 70
     1
102
RTVSPropertyOp26
 70
     1
102
RTVSPropertyOp27
 70
     1
  0
XRECORD
  5
24C5
102
{ACAD_REACTORS
330
24C4
102
}
330
24C4
100
AcDbXrecord
280
     1
102
RTVSPropertyOp0
 70
     1
102
RTVSPropertyOp1
 70
     1
102
RTVSPropertyOp2
 70
     1
102
RTVSPropertyOp3
 70
     1
102
RTVSPropertyOp4
 70
     1
102
RTVSPropertyOp5
 70
     1
102
RTVSPropertyOp6
 70
     1
102
RTVSPropertyOp7
 70
     1
102
RTVSPropertyOp8
 70
     1
102
RTVSPropertyOp9
 70
     1
102
RTVSPropertyOp10
 70
     1
102
RTVSPropertyOp11
 70
     1
102
RTVSPropertyOp12
 70
     1
102
RTVSPropertyOp13
 70
     1
102
RTVSPropertyOp14
 70
     1
102
RTVSPropertyOp15
 70
     1
102
RTVSPropertyOp16
 70
     1
102
RTVSPropertyOp17
 70
     1
102
RTVSPropertyOp18
 70
     1
102
RTVSPropertyOp19
 70
     1
102
RTVSPropertyOp20
 70
     1
102
RTVSPropertyOp21
 70
     1
102
RTVSPropertyOp22
 70
     1
102
RTVSPropertyOp23
 70
     1
102
RTVSPropertyOp24
 70
     1
102
RTVSPropertyOp25
 70
     1
102
RTVSPropertyOp26
 70
     1
102
RTVSPropertyOp27
 70
     1
  0
XRECORD
  5
24C7
102
{ACAD_REACTORS
330
24C6
102
}
330
24C6
100
AcDbXrecord
280
     1
102
RTVSPropertyOp0
 70
     1
102
RTVSPropertyOp1
 70
     1
102
RTVSPropertyOp2
 70
     1
102
RTVSPropertyOp3
 70
     1
102
RTVSPropertyOp4
 70
     1
102
RTVSPropertyOp5
 70
     1
102
RTVSPropertyOp6
 70
     1
102
RTVSPropertyOp7
 70
     1
102
RTVSPropertyOp8
 70
     1
102
RTVSPropertyOp9
 70
     1
102
RTVSPropertyOp10
 70
     1
102
RTVSPropertyOp11
 70
     1
102
RTVSPropertyOp12
 70
     1
102
RTVSPropertyOp13
 70
     1
102
RTVSPropertyOp14
 70
     1
102
RTVSPropertyOp15
 70
     1
102
RTVSPropertyOp16
 70
     1
102
RTVSPropertyOp17
 70
     1
102
RTVSPropertyOp18
 70
     1
102
RTVSPropertyOp19
 70
     1
102
RTVSPropertyOp20
 70
     1
102
RTVSPropertyOp21
 70
     1
102
RTVSPropertyOp22
 70
     1
102
RTVSPropertyOp23
 70
     1
102
RTVSPropertyOp24
 70
     1
102
RTVSPropertyOp25
 70
     1
102
RTVSPropertyOp26
 70
     1
102
RTVSPropertyOp27
 70
     1
  0
XRECORD
  5
24E1
102
{ACAD_REACTORS
330
24E0
102
}
330
24E0
100
AcDbXrecord
280
     1
102
RTVSPropertyOp0
 70
     0
102
RTVSPropertyOp1
 70
     0
102
RTVSPropertyOp2
 70
     0
102
RTVSPropertyOp3
 70
     0
102
RTVSPropertyOp4
 70
     0
102
RTVSPropertyOp5
 70
     0
102
RTVSPropertyOp6
 70
     0
102
RTVSPropertyOp7
 70
     0
102
RTVSPropertyOp8
 70
     0
102
RTVSPropertyOp9
 70
     0
102
RTVSPropertyOp10
 70
     0
102
RTVSPropertyOp11
 70
     0
102
RTVSPropertyOp12
 70
     0
102
RTVSPropertyOp13
 70
     0
102
RTVSPropertyOp14
 70
     2
102
RTVSPropertyOp15
 70
     0
102
RTVSPropertyOp16
 70
     0
102
RTVSPropertyOp17
 70
     0
102
RTVSPropertyOp18
 70
     0
102
RTVSPropertyOp19
 70
     0
102
RTVSPropertyOp20
 70
     0
102
RTVSPropertyOp21
 70
     0
102
RTVSPropertyOp22
 70
     0
102
RTVSPropertyOp23
 70
     0
102
RTVSPropertyOp24
 70
     0
102
RTVSPropertyOp25
 70
     0
102
RTVSPropertyOp26
 70
     0
102
RTVSPropertyOp27
 70
     0
  0
XRECORD
  5
24DB
102
{ACAD_REACTORS
330
24DA
102
}
330
24DA
100
AcDbXrecord
280
     1
102
RTVSPropertyOp0
 70
     1
102
RTVSPropertyOp1
 70
     1
102
RTVSPropertyOp2
 70
     1
102
RTVSPropertyOp3
 70
     1
102
RTVSPropertyOp4
 70
     1
102
RTVSPropertyOp5
 70
     1
102
RTVSPropertyOp6
 70
     1
102
RTVSPropertyOp7
 70
     1
102
RTVSPropertyOp8
 70
     1
102
RTVSPropertyOp9
 70
     1
102
RTVSPropertyOp10
 70
     1
102
RTVSPropertyOp11
 70
     1
102
RTVSPropertyOp12
 70
     1
102
RTVSPropertyOp13
 70
     1
102
RTVSPropertyOp14
 70
     1
102
RTVSPropertyOp15
 70
     1
102
RTVSPropertyOp16
 70
     1
102
RTVSPropertyOp17
 70
     1
102
RTVSPropertyOp18
 70
     1
102
RTVSPropertyOp19
 70
     1
102
RTVSPropertyOp20
 70
     1
102
RTVSPropertyOp21
 70
     1
102
RTVSPropertyOp22
 70
     1
102
RTVSPropertyOp23
 70
     1
102
RTVSPropertyOp24
 70
     1
102
RTVSPropertyOp25
 70
     1
102
RTVSPropertyOp26
 70
     1
102
RTVSPropertyOp27
 70
     1
  0
XRECORD
  5
24E3
102
{ACAD_REACTORS
330
24E2
102
}
330
24E2
100
AcDbXrecord
280
     1
102
RTVSPropertyOp0
 70
     0
102
RTVSPropertyOp1
 70
     0
102
RTVSPropertyOp2
 70
     0
102
RTVSPropertyOp3
 70
     0
102
RTVSPropertyOp4
 70
     0
102
RTVSPropertyOp5
 70
     0
102
RTVSPropertyOp6
 70
     0
102
RTVSPropertyOp7
 70
     0
102
RTVSPropertyOp8
 70
     0
102
RTVSPropertyOp9
 70
     0
102
RTVSPropertyOp10
 70
     0
102
RTVSPropertyOp11
 70
     0
102
RTVSPropertyOp12
 70
     0
102
RTVSPropertyOp13
 70
     0
102
RTVSPropertyOp14
 70
     2
102
RTVSPropertyOp15
 70
     0
102
RTVSPropertyOp16
 70
     0
102
RTVSPropertyOp17
 70
     0
102
RTVSPropertyOp18
 70
     0
102
RTVSPropertyOp19
 70
     0
102
RTVSPropertyOp20
 70
     0
102
RTVSPropertyOp21
 70
     0
102
RTVSPropertyOp22
 70
     0
102
RTVSPropertyOp23
 70
     0
102
RTVSPropertyOp24
 70
     0
102
RTVSPropertyOp25
 70
     0
102
RTVSPropertyOp26
 70
     0
102
RTVSPropertyOp27
 70
     0
  0
XRECORD
  5
24D3
102
{ACAD_REACTORS
330
24D2
102
}
330
24D2
100
AcDbXrecord
280
     1
102
RTVSPropertyOp0
 70
     1
102
RTVSPropertyOp1
 70
     1
102
RTVSPropertyOp2
 70
     1
102
RTVSPropertyOp3
 70
     1
102
RTVSPropertyOp4
 70
     1
102
RTVSPropertyOp5
 70
     1
102
RTVSPropertyOp6
 70
     1
102
RTVSPropertyOp7
 70
     1
102
RTVSPropertyOp8
 70
     1
102
RTVSPropertyOp9
 70
     1
102
RTVSPropertyOp10
 70
     1
102
RTVSPropertyOp11
 70
     1
102
RTVSPropertyOp12
 70
     1
102
RTVSPropertyOp13
 70
     1
102
RTVSPropertyOp14
 70
     1
102
RTVSPropertyOp15
 70
     1
102
RTVSPropertyOp16
 70
     1
102
RTVSPropertyOp17
 70
     1
102
RTVSPropertyOp18
 70
     1
102
RTVSPropertyOp19
 70
     1
102
RTVSPropertyOp20
 70
     1
102
RTVSPropertyOp21
 70
     1
102
RTVSPropertyOp22
 70
     1
102
RTVSPropertyOp23
 70
     1
102
RTVSPropertyOp24
 70
     1
102
RTVSPropertyOp25
 70
     1
102
RTVSPropertyOp26
 70
     1
102
RTVSPropertyOp27
 70
     1
  0
XRECORD
  5
24D9
102
{ACAD_REACTORS
330
24D8
102
}
330
24D8
100
AcDbXrecord
280
     1
102
RTVSPropertyOp0
 70
     1
102
RTVSPropertyOp1
 70
     1
102
RTVSPropertyOp2
 70
     1
102
RTVSPropertyOp3
 70
     1
102
RTVSPropertyOp4
 70
     1
102
RTVSPropertyOp5
 70
     1
102
RTVSPropertyOp6
 70
     1
102
RTVSPropertyOp7
 70
     1
102
RTVSPropertyOp8
 70
     1
102
RTVSPropertyOp9
 70
     1
102
RTVSPropertyOp10
 70
     1
102
RTVSPropertyOp11
 70
     1
102
RTVSPropertyOp12
 70
     1
102
RTVSPropertyOp13
 70
     1
102
RTVSPropertyOp14
 70
     1
102
RTVSPropertyOp15
 70
     1
102
RTVSPropertyOp16
 70
     1
102
RTVSPropertyOp17
 70
     1
102
RTVSPropertyOp18
 70
     1
102
RTVSPropertyOp19
 70
     1
102
RTVSPropertyOp20
 70
     1
102
RTVSPropertyOp21
 70
     1
102
RTVSPropertyOp22
 70
     1
102
RTVSPropertyOp23
 70
     1
102
RTVSPropertyOp24
 70
     1
102
RTVSPropertyOp25
 70
     1
102
RTVSPropertyOp26
 70
     1
102
RTVSPropertyOp27
 70
     1
  0
ENDSEC
  0
EOF
