  0
SECTION
  2
HEADER
  9
$ACADVER
  1
AC1015
  9
$ACADMAINTVER
 70
    20
  9
$DWGCODEPAGE
  3
ANSI_1252
  9
$INSBASE
 10
0.0
 20
0.0
 30
0.0
  9
$EXTMIN
 10
1551.317277039979
 20
781.0908518076238
 30
-0.0000000017937957
  9
$EXTMAX
 10
1553.589077823732
 20
782.9408518076238
 30
0.0000000002833784
  9
$LIMMIN
 10
0.0
 20
0.0
  9
$LIMMAX
 10
420.0
 20
297.0
  9
$ORTHOMODE
 70
     0
  9
$REGENMODE
 70
     1
  9
$FILLMODE
 70
     1
  9
$QTEXTMODE
 70
     0
  9
$MIRRTEXT
 70
     1
  9
$LTSCALE
 40
0.08
  9
$ATTMODE
 70
     1
  9
$TEXTSIZE
 40
2.5
  9
$TRACEWID
 40
1.0
  9
$TEXTSTYLE
  7
SANINDUSA
  9
$CLAYER
  8
cotas
  9
$CELTYPE
  6
ByLayer
  9
$CECOLOR
 62
   256
  9
$CELTSCALE
 40
1.0
  9
$DISPSILH
 70
     0
  9
$DIMSCALE
 40
1.0
  9
$DIMASZ
 40
2.0
  9
$DIMEXO
 40
1.0
  9
$DIMDLI
 40
1.0
  9
$DIMRND
 40
0.0
  9
$DIMDLE
 40
0.0
  9
$DIMEXE
 40
1.0
  9
$DIMTP
 40
0.0
  9
$DIMTM
 40
0.0
  9
$DIMTXT
 40
2.0
  9
$DIMCEN
 40
0.0
  9
$DIMTSZ
 40
0.0
  9
$DIMTOL
 70
     0
  9
$DIMLIM
 70
     0
  9
$DIMTIH
 70
     0
  9
$DIMTOH
 70
     0
  9
$DIMSE1
 70
     0
  9
$DIMSE2
 70
     0
  9
$DIMTAD
 70
     1
  9
$DIMZIN
 70
     8
  9
$DIMBLK
  1

  9
$DIMASO
 70
     1
  9
$DIMSHO
 70
     1
  9
$DIMPOST
  1

  9
$DIMAPOST
  1

  9
$DIMALT
 70
     0
  9
$DIMALTD
 70
     3
  9
$DIMALTF
 40
0.03937007874016
  9
$DIMLFAC
 40
1.0
  9
$DIMTOFL
 70
     1
  9
$DIMTVP
 40
0.0
  9
$DIMTIX
 70
     0
  9
$DIMSOXD
 70
     0
  9
$DIMSAH
 70
     0
  9
$DIMBLK1
  1

  9
$DIMBLK2
  1

  9
$DIMSTYLE
  2
SANINDUSA
  9
$DIMCLRD
 70
   256
  9
$DIMCLRE
 70
   256
  9
$DIMCLRT
 70
   256
  9
$DIMTFAC
 40
1.0
  9
$DIMGAP
 40
1.0
  9
$DIMJUST
 70
     0
  9
$DIMSD1
 70
     0
  9
$DIMSD2
 70
     0
  9
$DIMTOLJ
 70
     0
  9
$DIMTZIN
 70
     8
  9
$DIMALTZ
 70
     0
  9
$DIMALTTZ
 70
     0
  9
$DIMUPT
 70
     0
  9
$DIMDEC
 70
     1
  9
$DIMTDEC
 70
     1
  9
$DIMALTU
 70
     2
  9
$DIMALTTD
 70
     3
  9
$DIMTXSTY
  7
SANINDUSA
  9
$DIMAUNIT
 70
     0
  9
$DIMADEC
 70
     1
  9
$DIMALTRND
 40
0.0
  9
$DIMAZIN
 70
     0
  9
$DIMDSEP
 70
    44
  9
$DIMATFIT
 70
     3
  9
$DIMFRAC
 70
     0
  9
$DIMLDRBLK
  1

  9
$DIMLUNIT
 70
     2
  9
$DIMLWD
 70
    -1
  9
$DIMLWE
 70
    -1
  9
$DIMTMOVE
 70
     0
  9
$LUNITS
 70
     2
  9
$LUPREC
 70
     4
  9
$SKETCHINC
 40
1.0
  9
$FILLETRAD
 40
0.0
  9
$AUNITS
 70
     0
  9
$AUPREC
 70
     0
  9
$MENU
  1
.
  9
$ELEVATION
 40
0.0
  9
$PELEVATION
 40
0.0
  9
$THICKNESS
 40
0.0
  9
$LIMCHECK
 70
     0
  9
$CHAMFERA
 40
10.0
  9
$CHAMFERB
 40
10.0
  9
$CHAMFERC
 40
20.0
  9
$CHAMFERD
 40
0.0
  9
$SKPOLY
 70
     0
  9
$TDCREATE
 40
2453564.405545961
  9
$TDUCREATE
 40
2453564.363879294
  9
$TDUPDATE
 40
2455817.511894340
  9
$TDUUPDATE
 40
2455817.470227674
  9
$TDINDWG
 40
0.0525075926
  9
$TDUSRTIMER
 40
0.0525075926
  9
$USRTIMER
 70
     1
  9
$ANGBASE
 50
0.0
  9
$ANGDIR
 70
     0
  9
$PDMODE
 70
     0
  9
$PDSIZE
 40
0.0
  9
$PLINEWID
 40
0.0
  9
$SPLFRAME
 70
     0
  9
$SPLINETYPE
 70
     6
  9
$SPLINESEGS
 70
     8
  9
$HANDSEED
  5
3A4D
  9
$SURFTAB1
 70
     6
  9
$SURFTAB2
 70
     6
  9
$SURFTYPE
 70
     6
  9
$SURFU
 70
     6
  9
$SURFV
 70
     6
  9
$UCSBASE
  2

  9
$UCSNAME
  2

  9
$UCSORG
 10
0.0
 20
0.0
 30
0.0
  9
$UCSXDIR
 10
1.0
 20
0.0
 30
0.0
  9
$UCSYDIR
 10
0.0
 20
1.0
 30
0.0
  9
$UCSORTHOREF
  2

  9
$UCSORTHOVIEW
 70
     0
  9
$UCSORGTOP
 10
0.0
 20
0.0
 30
0.0
  9
$UCSORGBOTTOM
 10
0.0
 20
0.0
 30
0.0
  9
$UCSORGLEFT
 10
0.0
 20
0.0
 30
0.0
  9
$UCSORGRIGHT
 10
0.0
 20
0.0
 30
0.0
  9
$UCSORGFRONT
 10
0.0
 20
0.0
 30
0.0
  9
$UCSORGBACK
 10
0.0
 20
0.0
 30
0.0
  9
$PUCSBASE
  2

  9
$PUCSNAME
  2

  9
$PUCSORG
 10
0.0
 20
0.0
 30
0.0
  9
$PUCSXDIR
 10
1.0
 20
0.0
 30
0.0
  9
$PUCSYDIR
 10
0.0
 20
1.0
 30
0.0
  9
$PUCSORTHOREF
  2

  9
$PUCSORTHOVIEW
 70
     0
  9
$PUCSORGTOP
 10
0.0
 20
0.0
 30
0.0
  9
$PUCSORGBOTTOM
 10
0.0
 20
0.0
 30
0.0
  9
$PUCSORGLEFT
 10
0.0
 20
0.0
 30
0.0
  9
$PUCSORGRIGHT
 10
0.0
 20
0.0
 30
0.0
  9
$PUCSORGFRONT
 10
0.0
 20
0.0
 30
0.0
  9
$PUCSORGBACK
 10
0.0
 20
0.0
 30
0.0
  9
$USERI1
 70
     0
  9
$USERI2
 70
     0
  9
$USERI3
 70
     0
  9
$USERI4
 70
     0
  9
$USERI5
 70
     0
  9
$USERR1
 40
0.0
  9
$USERR2
 40
0.0
  9
$USERR3
 40
0.0
  9
$USERR4
 40
0.0
  9
$USERR5
 40
0.0
  9
$WORLDVIEW
 70
     1
  9
$SHADEDGE
 70
     3
  9
$SHADEDIF
 70
    70
  9
$TILEMODE
 70
     1
  9
$MAXACTVP
 70
    64
  9
$PINSBASE
 10
0.0
 20
0.0
 30
0.0
  9
$PLIMCHECK
 70
     0
  9
$PEXTMIN
 10
1.000000000000000E+20
 20
1.000000000000000E+20
 30
1.000000000000000E+20
  9
$PEXTMAX
 10
-1.000000000000000E+20
 20
-1.000000000000000E+20
 30
-1.000000000000000E+20
  9
$PLIMMIN
 10
0.0
 20
0.0
  9
$PLIMMAX
 10
420.0
 20
297.0
  9
$UNITMODE
 70
     0
  9
$VISRETAIN
 70
     1
  9
$PLINEGEN
 70
     0
  9
$PSLTSCALE
 70
     1
  9
$TREEDEPTH
 70
  3020
  9
$CMLSTYLE
  2
Standard
  9
$CMLJUST
 70
     0
  9
$CMLSCALE
 40
20.0
  9
$PROXYGRAPHICS
 70
     1
  9
$MEASUREMENT
 70
     1
  9
$CELWEIGHT
370
    -1
  9
$ENDCAPS
280
     0
  9
$JOINSTYLE
280
     0
  9
$LWDISPLAY
290
     0
  9
$INSUNITS
 70
     4
  9
$HYPERLINKBASE
  1

  9
$STYLESHEET
  1
monochrome.ctb
  9
$XEDIT
290
     1
  9
$CEPSNTYPE
380
     0
  9
$PSTYLEMODE
290
     1
  9
$FINGERPRINTGUID
  2
{E8610B8A-92B4-4398-8245-6233917CED87}
  9
$VERSIONGUID
  2
{76DE1390-C4A3-4D1C-9A5D-CB9A17214C55}
  9
$EXTNAMES
290
     1
  9
$PSVPSCALE
 40
0.0
  9
$OLESTARTUP
290
     0
  0
ENDSEC
  0
SECTION
  2
CLASSES
  0
CLASS
  1
ACDBDICTIONARYWDFLT
  2
AcDbDictionaryWithDefault
  3
ObjectDBX Classes
 90
        0
280
     0
281
     0
  0
CLASS
  1
ACDBPLACEHOLDER
  2
AcDbPlaceHolder
  3
ObjectDBX Classes
 90
        0
280
     0
281
     0
  0
CLASS
  1
LAYOUT
  2
AcDbLayout
  3
ObjectDBX Classes
 90
        0
280
     0
281
     0
  0
CLASS
  1
DICTIONARYVAR
  2
AcDbDictionaryVar
  3
ObjectDBX Classes
 90
        0
280
     0
281
     0
  0
CLASS
  1
DIMASSOC
  2
AcDbDimAssoc
  3
"AcDbDimAssoc|Product Desc:     AcDim ARX App For Dimension|Company:          Autodesk, Inc.|WEB Address:      www.autodesk.com"
 90
        0
280
     0
281
     0
  0
CLASS
  1
TABLESTYLE
  2
AcDbTableStyle
  3
ObjectDBX Classes
 90
     4095
280
     0
281
     0
  0
CLASS
  1
SORTENTSTABLE
  2
AcDbSortentsTable
  3
ObjectDBX Classes
 90
        0
280
     0
281
     0
  0
CLASS
  1
MATERIAL
  2
AcDbMaterial
  3
ObjectDBX Classes
 90
     1153
280
     0
281
     0
  0
CLASS
  1
VISUALSTYLE
  2
AcDbVisualStyle
  3
ObjectDBX Classes
 90
     4095
280
     0
281
     0
  0
CLASS
  1
SCALE
  2
AcDbScale
  3
ObjectDBX Classes
 90
     1153
280
     0
281
     0
  0
CLASS
  1
MLEADERSTYLE
  2
AcDbMLeaderStyle
  3
ACDB_MLEADERSTYLE_CLASS
 90
     4095
280
     0
281
     0
  0
CLASS
  1
CELLSTYLEMAP
  2
AcDbCellStyleMap
  3
ObjectDBX Classes
 90
     1152
280
     0
281
     0
  0
ENDSEC
  0
SECTION
  2
TABLES
  0
TABLE
  2
VPORT
  5
8
330
0
100
AcDbSymbolTable
 70
     1
  0
VPORT
  5
3945
330
8
100
AcDbSymbolTableRecord
100
AcDbViewportTableRecord
  2
*Active
 70
     0
 10
0.0
 20
0.0
 11
1.0
 21
1.0
 12
1552.453177431855
 22
782.0158518076238
 13
0.0
 23
0.0
 14
10.0
 24
10.0
 15
10.0
 25
10.0
 16
0.0
 26
0.0
 36
1.0
 17
0.0
 27
0.0
 37
0.0
 40
1.861562500000104
 41
1.645464025026068
 42
50.0
 43
0.0
 44
0.0
 50
0.0
 51
0.0
 71
     0
 72
   100
 73
     1
 74
     2
 75
     0
 76
     0
 77
     0
 78
     0
281
     0
 65
     1
110
0.0
120
0.0
130
0.0
111
1.0
121
0.0
131
0.0
112
0.0
122
1.0
132
0.0
 79
     0
146
0.0
  0
ENDTAB
  0
TABLE
  2
LTYPE
  5
5
330
0
100
AcDbSymbolTable
 70
     5
  0
LTYPE
  5
14
330
5
100
AcDbSymbolTableRecord
100
AcDbLinetypeTableRecord
  2
ByBlock
 70
     0
  3

 72
    65
 73
     0
 40
0.0
  0
LTYPE
  5
15
330
5
100
AcDbSymbolTableRecord
100
AcDbLinetypeTableRecord
  2
ByLayer
 70
     0
  3

 72
    65
 73
     0
 40
0.0
  0
LTYPE
  5
16
330
5
100
AcDbSymbolTableRecord
100
AcDbLinetypeTableRecord
  2
Continuous
 70
     0
  3
Solid line
 72
    65
 73
     0
 40
0.0
  0
LTYPE
  5
2D
330
5
100
AcDbSymbolTableRecord
100
AcDbLinetypeTableRecord
  2
DASHDOT
 70
     0
  3
Dash dot __ . __ . __ . __ . __ . __ . __ . __
 72
    65
 73
     4
 40
25.4
 49
12.7
 74
     0
 49
-6.349999999999999
 74
     0
 49
0.0
 74
     0
 49
-6.349999999999999
 74
     0
  0
LTYPE
  5
2E
330
5
100
AcDbSymbolTableRecord
100
AcDbLinetypeTableRecord
  2
HIDDEN
 70
     0
  3
Hidden __ __ __ __ __ __ __ __ __ __ __ __ __ _
 72
    65
 73
     2
 40
9.524999999999998
 49
6.349999999999999
 74
     0
 49
-3.174999999999999
 74
     0
  0
LTYPE
  5
C39
330
5
100
AcDbSymbolTableRecord
100
AcDbLinetypeTableRecord
  2
CENTER
 70
     0
  3
____ _ ____ _ ____ _ ____ _ ____ _ ____ _ ____ 
 72
    65
 73
     4
 40
2.0
 49
1.25
 74
     0
 49
-0.25
 74
     0
 49
0.25
 74
     0
 49
-0.25
 74
     0
  0
ENDTAB
  0
TABLE
  2
LAYER
  5
2
330
0
100
AcDbSymbolTable
 70
    17
  0
LAYER
  5
10
102
{ACAD_XDICTIONARY
360
39B3
102
}
330
2
100
AcDbSymbolTableRecord
100
AcDbLayerTableRecord
  2
0
 70
     0
 62
     7
  6
Continuous
370
    -3
390
F
  0
LAYER
  5
2F
102
{ACAD_XDICTIONARY
360
39B5
102
}
330
2
100
AcDbSymbolTableRecord
100
AcDbLayerTableRecord
  2
1
 70
     0
 62
     1
  6
Continuous
370
    -3
390
F
  0
LAYER
  5
30
102
{ACAD_XDICTIONARY
360
39B7
102
}
330
2
100
AcDbSymbolTableRecord
100
AcDbLayerTableRecord
  2
2
 70
     0
 62
     2
  6
Continuous
370
    -3
390
F
  0
LAYER
  5
31
102
{ACAD_XDICTIONARY
360
39B9
102
}
330
2
100
AcDbSymbolTableRecord
100
AcDbLayerTableRecord
  2
3
 70
     0
 62
     3
  6
Continuous
370
    -3
390
F
  0
LAYER
  5
32
102
{ACAD_XDICTIONARY
360
39BB
102
}
330
2
100
AcDbSymbolTableRecord
100
AcDbLayerTableRecord
  2
4
 70
     0
 62
     4
  6
Continuous
370
    -3
390
F
  0
LAYER
  5
33
102
{ACAD_XDICTIONARY
360
39BD
102
}
330
2
100
AcDbSymbolTableRecord
100
AcDbLayerTableRecord
  2
5
 70
     0
 62
     5
  6
Continuous
370
    -3
390
F
  0
LAYER
  5
34
102
{ACAD_XDICTIONARY
360
39BF
102
}
330
2
100
AcDbSymbolTableRecord
100
AcDbLayerTableRecord
  2
6
 70
     0
 62
     6
  6
Continuous
370
    -3
390
F
  0
LAYER
  5
35
102
{ACAD_XDICTIONARY
360
39C1
102
}
330
2
100
AcDbSymbolTableRecord
100
AcDbLayerTableRecord
  2
7
 70
     0
 62
     7
  6
Continuous
370
    -3
390
F
  0
LAYER
  5
36
102
{ACAD_XDICTIONARY
360
39C3
102
}
330
2
100
AcDbSymbolTableRecord
100
AcDbLayerTableRecord
  2
cen
 70
     0
 62
     7
  6
DASHDOT
370
    -3
390
F
  0
LAYER
  5
37
102
{ACAD_XDICTIONARY
360
39C5
102
}
330
2
100
AcDbSymbolTableRecord
100
AcDbLayerTableRecord
  2
hid
 70
     0
 62
     7
  6
HIDDEN
370
    -3
390
F
  0
LAYER
  5
5D6
102
{ACAD_XDICTIONARY
360
39C7
102
}
330
2
100
AcDbSymbolTableRecord
100
AcDbLayerTableRecord
  2
hatch
 70
     0
 62
     9
  6
Continuous
370
    -3
390
F
  0
LAYER
  5
8AF
102
{ACAD_XDICTIONARY
360
39C9
102
}
330
2
100
AcDbSymbolTableRecord
100
AcDbLayerTableRecord
  2
9
 70
     0
 62
     9
  6
Continuous
370
    -3
390
F
  0
LAYER
  5
8F8
102
{ACAD_XDICTIONARY
360
39CB
102
}
330
2
100
AcDbSymbolTableRecord
100
AcDbLayerTableRecord
  2
leg fin
 70
     0
 62
     9
  6
Continuous
370
    -3
390
F
  0
LAYER
  5
91D
102
{ACAD_XDICTIONARY
360
39CD
102
}
330
2
100
AcDbSymbolTableRecord
100
AcDbLayerTableRecord
  2
cotas
 70
     0
 62
     1
  6
Continuous
370
    -3
390
F
  0
LAYER
  5
92F
330
2
100
AcDbSymbolTableRecord
100
AcDbLayerTableRecord
  2
Defpoints
 70
     0
 62
     7
  6
Continuous
290
     0
370
    -3
390
F
  0
LAYER
  5
BA5
102
{ACAD_XDICTIONARY
360
39CF
102
}
330
2
100
AcDbSymbolTableRecord
100
AcDbLayerTableRecord
  2
SANINDUSA
 70
     0
 62
     3
  6
Continuous
370
    -3
390
F
  0
LAYER
  5
C3A
102
{ACAD_XDICTIONARY
360
39D1
102
}
330
2
100
AcDbSymbolTableRecord
100
AcDbLayerTableRecord
  2
quote
 70
     0
 62
     7
  6
Continuous
370
    18
390
F
  0
ENDTAB
  0
TABLE
  2
STYLE
  5
3
330
0
100
AcDbSymbolTable
 70
     3
  0
STYLE
  5
11
330
3
100
AcDbSymbolTableRecord
100
AcDbTextStyleTableRecord
  2
Standard
 70
     0
 40
0.0
 41
1.0
 50
0.0
 71
     0
 42
2.5
  3
Avgardn.ttf
  4

1001
ACAD
1000
AvantGarde Bk BT
1071
       34
  0
STYLE
  5
2C
330
3
100
AcDbSymbolTableRecord
100
AcDbTextStyleTableRecord
  2

 70
     1
 40
0.0
 41
1.0
 50
0.0
 71
     0
 42
2.5
  3
ltypeshp.shx
  4

  0
STYLE
  5
91F
330
3
100
AcDbSymbolTableRecord
100
AcDbTextStyleTableRecord
  2
SANINDUSA
 70
     0
 40
0.0
 41
1.0
 50
0.0
 71
     0
 42
2.5
  3
verdana.TTF
  4

1001
ACAD
1000
Verdana
1071
       34
  0
ENDTAB
  0
TABLE
  2
VIEW
  5
6
330
0
100
AcDbSymbolTable
 70
     0
  0
ENDTAB
  0
TABLE
  2
UCS
  5
7
330
0
100
AcDbSymbolTable
 70
     0
  0
ENDTAB
  0
TABLE
  2
APPID
  5
9
330
0
100
AcDbSymbolTable
 70
    15
  0
APPID
  5
12
330
9
100
AcDbSymbolTableRecord
100
AcDbRegAppTableRecord
  2
ACAD
 70
     0
  0
APPID
  5
3A
330
9
100
AcDbSymbolTableRecord
100
AcDbRegAppTableRecord
  2
DCO15
 70
     0
  0
APPID
  5
C3C
330
9
100
AcDbSymbolTableRecord
100
AcDbRegAppTableRecord
  2
GENIUS_GENREC_14
 70
     0
  0
APPID
  5
C3D
330
9
100
AcDbSymbolTableRecord
100
AcDbRegAppTableRecord
  2
GENIUS_GENODEF_13
 70
     0
  0
APPID
  5
C3E
330
9
100
AcDbSymbolTableRecord
100
AcDbRegAppTableRecord
  2
GENIUS_GENOBJ-N-REC_13
 70
     0
  0
APPID
  5
14FB
330
9
100
AcDbSymbolTableRecord
100
AcDbRegAppTableRecord
  2
ACAD_EXEMPT_FROM_CAD_STANDARDS
 70
     0
  0
APPID
  5
1583
330
9
100
AcDbSymbolTableRecord
100
AcDbRegAppTableRecord
  2
ACAD_DSTYLE_DIMTEXT_FILL
 70
     0
  0
APPID
  5
1584
330
9
100
AcDbSymbolTableRecord
100
AcDbRegAppTableRecord
  2
ACAD_DSTYLE_DIMEXT_LENGTH
 70
     0
  0
APPID
  5
1585
330
9
100
AcDbSymbolTableRecord
100
AcDbRegAppTableRecord
  2
ACAD_DSTYLE_DIMEXT_ENABLED
 70
     0
  0
APPID
  5
1586
330
9
100
AcDbSymbolTableRecord
100
AcDbRegAppTableRecord
  2
ACAD_DSTYLE_DIM_LINETYPE
 70
     0
  0
APPID
  5
1587
330
9
100
AcDbSymbolTableRecord
100
AcDbRegAppTableRecord
  2
ACAD_DSTYLE_DIM_EXT1_LINETYPE
 70
     0
  0
APPID
  5
1588
330
9
100
AcDbSymbolTableRecord
100
AcDbRegAppTableRecord
  2
ACAD_DSTYLE_DIM_EXT2_LINETYPE
 70
     0
  0
APPID
  5
1644
330
9
100
AcDbSymbolTableRecord
100
AcDbRegAppTableRecord
  2
ACAD_DSTYLE_DIMJOGGED_JOGANGLE_SYMBOL
 70
     0
  0
APPID
  5
16D8
330
9
100
AcDbSymbolTableRecord
100
AcDbRegAppTableRecord
  2
ACAD_DSTYLE_DIMARC_LENGTH_SYMBOL
 70
     0
  0
APPID
  5
3A4C
330
9
100
AcDbSymbolTableRecord
100
AcDbRegAppTableRecord
  2
ACAD_MLEADERVER
 70
     0
  0
ENDTAB
  0
TABLE
  2
DIMSTYLE
  5
A
330
0
100
AcDbSymbolTable
 70
     4
100
AcDbDimStyleTable
 71
     1
340
921
  0
DIMSTYLE
105
45
330
A
100
AcDbSymbolTableRecord
100
AcDbDimStyleTableRecord
  2
STANDARD
 70
     0
289
     0
340
11
  0
DIMSTYLE
105
921
330
A
100
AcDbSymbolTableRecord
100
AcDbDimStyleTableRecord
  2
SANINDUSA
 70
     0
 41
2.0
 42
1.0
 43
1.0
 44
1.0
 73
     0
 74
     0
 77
     1
 78
     8
140
2.0
141
0.0
143
0.03937007874016
147
1.0
171
     3
172
     1
176
   256
177
   256
178
   256
179
     1
271
     1
272
     1
274
     3
278
    44
283
     0
284
     8
340
91F
371
    -1
372
    -1
1001
ACAD_DSTYLE_DIMJOGGED_JOGANGLE_SYMBOL
1070
   384
1040
1.570796326794896
  0
DIMSTYLE
105
C3B
330
A
100
AcDbSymbolTableRecord
100
AcDbDimStyleTableRecord
  2
ISO-25
 70
     0
 40
5.0
 41
2.5
 42
0.625
 43
3.75
 44
1.25
 73
     0
 74
     0
 77
     1
 78
     8
140
2.5
141
2.5
143
0.03937007874016
147
0.625
171
     3
172
     1
271
     0
272
     0
274
     3
278
    44
283
     0
284
     8
340
11
  0
ENDTAB
  0
TABLE
  2
BLOCK_RECORD
  5
1
330
0
100
AcDbSymbolTable
 70
    29
  0
BLOCK_RECORD
  5
1F
102
{ACAD_XDICTIONARY
360
1A3D
102
}
330
1
100
AcDbSymbolTableRecord
100
AcDbBlockTableRecord
  2
*Model_Space
340
22
  0
BLOCK_RECORD
  5
1B
330
1
100
AcDbSymbolTableRecord
100
AcDbBlockTableRecord
  2
*Paper_Space
340
1E
  0
BLOCK_RECORD
  5
23
330
1
100
AcDbSymbolTableRecord
100
AcDbBlockTableRecord
  2
*Paper_Space0
340
26
  0
BLOCK_RECORD
  5
919
330
1
100
AcDbSymbolTableRecord
100
AcDbBlockTableRecord
  2
_DotSmall
340
0
  0
BLOCK_RECORD
  5
922
330
1
100
AcDbSymbolTableRecord
100
AcDbBlockTableRecord
  2
base para cotas
340
0
310
2800000020000000200000000100080000000000000400000000000000000000000000000000000000000000000080000080000000808000800000008000800080800000C0C0C000C0DCC000F0CAA6000020400000206000002080000020A0000020C0000020E00000400000004020000040400000406000004080000040A0
310
000040C0000040E00000600000006020000060400000606000006080000060A0000060C0000060E00000800000008020000080400000806000008080000080A0000080C0000080E00000A0000000A0200000A0400000A0600000A0800000A0A00000A0C00000A0E00000C0000000C0200000C0400000C0600000C0800000C0
310
A00000C0C00000C0E00000E0000000E0200000E0400000E0600000E0800000E0A00000E0C00000E0E00040000000400020004000400040006000400080004000A0004000C0004000E00040200000402020004020400040206000402080004020A0004020C0004020E000404000004040200040404000404060004040800040
310
40A0004040C0004040E00040600000406020004060400040606000406080004060A0004060C0004060E00040800000408020004080400040806000408080004080A0004080C0004080E00040A0000040A0200040A0400040A0600040A0800040A0A00040A0C00040A0E00040C0000040C0200040C0400040C0600040C08000
310
40C0A00040C0C00040C0E00040E0000040E0200040E0400040E0600040E0800040E0A00040E0C00040E0E00080000000800020008000400080006000800080008000A0008000C0008000E00080200000802020008020400080206000802080008020A0008020C0008020E00080400000804020008040400080406000804080
310
008040A0008040C0008040E00080600000806020008060400080606000806080008060A0008060C0008060E00080800000808020008080400080806000808080008080A0008080C0008080E00080A0000080A0200080A0400080A0600080A0800080A0A00080A0C00080A0E00080C0000080C0200080C0400080C0600080C0
310
800080C0A00080C0C00080C0E00080E0000080E0200080E0400080E0600080E0800080E0A00080E0C00080E0E000C0000000C0002000C0004000C0006000C0008000C000A000C000C000C000E000C0200000C0202000C0204000C0206000C0208000C020A000C020C000C020E000C0400000C0402000C0404000C0406000C0
310
408000C040A000C040C000C040E000C0600000C0602000C0604000C0606000C0608000C060A000C060C000C060E000C0800000C0802000C0804000C0806000C0808000C080A000C080C000C080E000C0A00000C0A02000C0A04000C0A06000C0A08000C0A0A000C0A0C000C0A0E000C0C00000C0C02000C0C04000C0C06000
310
C0C08000C0C0A000F0FBFF00A4A0A000808080000000FF0000FF000000FFFF00FF000000FF00FF00FFFF0000FFFFFF00A4A4A4A4A4A4A4A4A4A4A4A4A4A4A4A4A4A4A4A4A4A4A4A4A4A4A4A4A4A4A4A4A4A4A4A4A4A4A4A4A4A4A4A4A4A4A4A4A4A4A4A4A4A4A4A4A4A4A4A4A4A4A4A4A4A4A4A4A4A4A4A4A4A4A4A4A4A4A4
310
A4A4A4A4A4A4A4A4A4A4A4A4A4A4A4A4A4A4A4A4A4A4A4A4A4A4A4A4A4A4A4A4A4A4A4A4A4A4A4A4A4A4A4A4A4A4A4A4A4A4A4A4A4A4A4A4A4A4A4A4A4A4A4A4A4A4A4A4A4A4A4A4A4A4A4A4A4A4A4A4A4A4A4A4A4A4A4A4A4A4A4A4A4A4A4A4A4A4A4A4A4A4A4A4A4A4A4A4A4A4A4A4A4A4A4A4A4A4A4A4A4A4A4A4A4A4A4
310
A4A4A4A4A4A4A4A4A4A4A4A4A4A4A4A4A4A4A4A4A4A4A4A4A4A4A4A4A4A4A4A4A4A4A4A4A4A4A4A4A4A4A4A4A4A4A4A4A4A4A4A4A4A4A4A4A4A4A4A4A4A4A4A4A4A4A4A4A4A4A4A4A4A4A4A4A4A4A4A4A4A4A4A4A4A4A4A4A4A4A4A4A4A4A4A4A4A4A4A4A4A4A4A4A4A4A4A4A4A4A4A4A4A4A4A4A4A4A4A4A4A4A4A4A4A4A4
310
A4A4A4A4A4A4A4A4A4A4A4A4A4A4A4A4A4A4A4A4A4A4A4A4A4A4A4A4A4A4A4A4A4A4A4A4A4A4A4A4A4A4A4A4A4A4A4A4A4A4A4A4A4A4A4A4A4A4A4A4A4A4A4A4A4A4A4A4A4A4A4A4A4A4A4A4A4A4A4A4A4A4A4A4A4A4A4A4A4A4A4A4A4A4A4A4A4A4A4A4A4A4A4A4A4A4A4A4A4A4A4A4A4A4A4A4F9F9F9F9F9F9F9F9F9F9F9
310
F9F9F9F9F9F9F9F9F9F9F9F9F9F9F9F9F9F9F9A4A4F9F9F9F9F9F9F9F9F9F9F9F9F9F9F9F9F9F9F9F9F9F9F9F9F9F9F9F9F9F9A4A4F9F9F9F9F9F9F9F9F9F9F9F9F9F9F9F9F9F9F9F9F9F9F9F9F9F9F9F9F9F9A4A4F9A4A4A4A4A4A4A4A4A4A4A4A4A4A4A4A4A4A4A4A4A4A4A4A4A4A4A4A4F9A4A4A4A4A4A4A4A4A4A4A4A4
310
A4A4A4A4A4A4A4A4A4A4A4A4A4A4A4A4A4A4A4A4A4A4A4A4A4A4A4A4A4A4A4A4A4A4A4A4A4A4A4A4A4A4A4A4A4A4A4A4A4A4A4A4A4A4A4A4A4A4A4A4A4A4A4A4A4A4A4A4A4A4A4A4A4A4A4A4A4A4A4A4A4A4A4A4A4A4A4A4A4A4A4A4A4A4A4A4A4A4A4A4A4A4A4A4A4A4A4A4A4A4A4A4A4A4A4A4A4A4A4A4A4A4A4A4A4A4A4
310
A4A4A4A4A4A4A4A4A4A4A4A4A4A4A4A4A4A4A4A4A4A4A4A4A4A4A4A4A4A4A4A4A4A4A4A4A4A4A4A4A4A4A4A4A4A4A4A4A4A4A4A4A4A4A4A4A4A4A4A4A4A4A4A4A4A4A4A4A4A4A4A4A4A4A4A4A4A4A4A4A4A4A4A4A4A4A4A4A4A4A4A4A4A4A4A4A4A4A4A4A4A4A4A4A4A4A4A4A4A4A4A4A4A4A4A4A4A4A4A4A4A4A4A4A4A4A4
310
A4A4A4A4A4A4A4A4A4A4A4A4A4A4A4A4A4A4A4A4A4A4A4A4A4A4A4A4A4A4A4A4A4A4A4A4A4A4A4A4A4A4A4A4A4A4A4A4A4A4A4A4A4A4A4A4A4A4A4A4A4A4A4A4A4A4A4A4A4A4A4A4A4A4A4A4A4A4A4A4A4A4A4A4A4A4A4A4A4A4A4A4A4A4A4A4A4A4A4A4A4A4A4A4A4A4A4A4A4A4A4A4A4A4A4A4A4A4A4A4A4A4A4A4A4A4A4
310
A4A4A4A4A4A4A4A4A4A4A4A4A4A4A4A4A4A4A4A4A4A4A4A4A4A4A4A4A4A4A4A4A4A4A4A4A4A4A4A4A4A4A4A4A4A4A4A4A4A4A4A4A4A4A4A4
1001
ACAD
1000
DesignCenter Data
1002
{
1070
     1
1070
     4
1002
}
  0
BLOCK_RECORD
  5
AA8
330
1
100
AcDbSymbolTableRecord
100
AcDbBlockTableRecord
  2
_CLOSED
340
0
  0
BLOCK_RECORD
  5
BB0
330
1
100
AcDbSymbolTableRecord
100
AcDbBlockTableRecord
  2
guarnizione
340
0
  0
BLOCK_RECORD
  5
131C
330
1
100
AcDbSymbolTableRecord
100
AcDbBlockTableRecord
  2
*D10
340
0
  0
BLOCK_RECORD
  5
1328
330
1
100
AcDbSymbolTableRecord
100
AcDbBlockTableRecord
  2
*D11
340
0
  0
BLOCK_RECORD
  5
1346
330
1
100
AcDbSymbolTableRecord
100
AcDbBlockTableRecord
  2
*D12
340
0
  0
BLOCK_RECORD
  5
1352
330
1
100
AcDbSymbolTableRecord
100
AcDbBlockTableRecord
  2
*D13
340
0
  0
BLOCK_RECORD
  5
135E
330
1
100
AcDbSymbolTableRecord
100
AcDbBlockTableRecord
  2
*D14
340
0
  0
BLOCK_RECORD
  5
1464
330
1
100
AcDbSymbolTableRecord
100
AcDbBlockTableRecord
  2
*D20
340
0
  0
BLOCK_RECORD
  5
1470
330
1
100
AcDbSymbolTableRecord
100
AcDbBlockTableRecord
  2
*D21
340
0
  0
BLOCK_RECORD
  5
147C
330
1
100
AcDbSymbolTableRecord
100
AcDbBlockTableRecord
  2
*D22
340
0
  0
BLOCK_RECORD
  5
1488
330
1
100
AcDbSymbolTableRecord
100
AcDbBlockTableRecord
  2
*D23
340
0
  0
BLOCK_RECORD
  5
1494
330
1
100
AcDbSymbolTableRecord
100
AcDbBlockTableRecord
  2
*D24
340
0
  0
BLOCK_RECORD
  5
399C
330
1
100
AcDbSymbolTableRecord
100
AcDbBlockTableRecord
  2
*D28
340
0
  0
ENDTAB
  0
ENDSEC
  0
SECTION
  2
BLOCKS
  0
BLOCK
  5
20
330
1F
100
AcDbEntity
  8
0
100
AcDbBlockBegin
  2
*Model_Space
 70
     0
 10
0.0
 20
0.0
 30
0.0
  3
*Model_Space
  1

  0
ENDBLK
  5
21
330
1F
100
AcDbEntity
  8
0
100
AcDbBlockEnd
  0
BLOCK
  5
1C
330
1B
100
AcDbEntity
 67
     1
  8
0
100
AcDbBlockBegin
  2
*Paper_Space
 70
     0
 10
0.0
 20
0.0
 30
0.0
  3
*Paper_Space
  1

  0
ENDBLK
  5
1D
330
1B
100
AcDbEntity
 67
     1
  8
0
100
AcDbBlockEnd
  0
BLOCK
  5
24
330
23
100
AcDbEntity
 67
     1
  8
0
100
AcDbBlockBegin
  2
*Paper_Space0
 70
     0
 10
0.0
 20
0.0
 30
0.0
  3
*Paper_Space0
  1

  0
ENDBLK
  5
25
330
23
100
AcDbEntity
 67
     1
  8
0
100
AcDbBlockEnd
  0
BLOCK
  5
91B
330
919
100
AcDbEntity
  8
0
100
AcDbBlockBegin
  2
_DotSmall
 70
     0
 10
0.0
 20
0.0
 30
0.0
  3
_DotSmall
  1

  0
LWPOLYLINE
  5
91A
330
919
100
AcDbEntity
  8
0
  6
ByBlock
 62
     0
100
AcDbPolyline
 90
        2
 70
     1
 43
0.5
 10
-0.0625
 20
0.0
 42
1.0
 10
0.0625
 20
0.0
 42
1.0
  0
ENDBLK
  5
91C
330
919
100
AcDbEntity
  8
0
100
AcDbBlockEnd
  0
BLOCK
  5
92A
330
922
100
AcDbEntity
  8
0
100
AcDbBlockBegin
  2
base para cotas
 70
     0
 10
0.0
 20
0.0
 30
0.0
  3
base para cotas
  1

  0
LINE
  5
B36
330
922
100
AcDbEntity
  8
cotas
100
AcDbLine
 10
0.0
 20
-30.0
 30
0.0
 11
327.1260136525398
 21
-30.0
 31
0.0
  0
LINE
  5
B37
330
922
100
AcDbEntity
  8
cotas
100
AcDbLine
 10
0.0
 20
-25.0
 30
0.0
 11
327.1260136525398
 21
-25.0
 31
0.0
  0
LINE
  5
B38
330
922
100
AcDbEntity
  8
cotas
100
AcDbLine
 10
0.0
 20
-20.0
 30
0.0
 11
327.1260136525398
 21
-20.0
 31
0.0
  0
LINE
  5
B39
330
922
100
AcDbEntity
  8
cotas
100
AcDbLine
 10
0.0
 20
-15.0
 30
0.0
 11
327.1260136525398
 21
-15.0
 31
0.0
  0
LINE
  5
B3A
330
922
100
AcDbEntity
  8
cotas
100
AcDbLine
 10
0.0
 20
-10.0
 30
0.0
 11
327.1260136525398
 21
-10.0
 31
0.0
  0
LINE
  5
B3B
330
922
100
AcDbEntity
  8
cotas
100
AcDbLine
 10
0.0
 20
0.0
 30
0.0
 11
0.0
 21
-30.0
 31
0.0
  0
LINE
  5
B3C
330
922
100
AcDbEntity
  8
cotas
100
AcDbLine
 10
327.1260136525398
 20
-30.0
 30
0.0
 11
327.1260136525398
 21
0.0
 31
0.0
  0
ENDBLK
  5
92B
330
922
100
AcDbEntity
  8
0
100
AcDbBlockEnd
  0
BLOCK
  5
AAD
330
AA8
100
AcDbEntity
  8
0
100
AcDbBlockBegin
  2
_CLOSED
 70
     0
 10
0.0
 20
0.0
 30
0.0
  3
_CLOSED
  1

  0
LINE
  5
AA9
330
AA8
100
AcDbEntity
  8
0
100
AcDbLine
 10
-1.0
 20
0.166667
 30
0.0
 11
0.0
 21
0.0
 31
0.0
  0
LINE
  5
AAA
330
AA8
100
AcDbEntity
  8
0
100
AcDbLine
 10
0.0
 20
0.0
 30
0.0
 11
-1.0
 21
-0.166667
 31
0.0
  0
LINE
  5
AAB
330
AA8
100
AcDbEntity
  8
0
100
AcDbLine
 10
-1.0
 20
0.166667
 30
0.0
 11
-1.0
 21
-0.166667
 31
0.0
  0
LINE
  5
AAC
330
AA8
100
AcDbEntity
  8
0
100
AcDbLine
 10
0.0
 20
0.0
 30
0.0
 11
-1.0
 21
0.0
 31
0.0
  0
ENDBLK
  5
AAE
330
AA8
100
AcDbEntity
  8
0
100
AcDbBlockEnd
  0
BLOCK
  5
BB1
330
BB0
100
AcDbEntity
  8
0
 62
     4
100
AcDbBlockBegin
  2
guarnizione
 70
     0
 10
0.0
 20
0.0
 30
0.0
  3
guarnizione
  1

  0
LINE
  5
BB2
330
BB0
100
AcDbEntity
  8
0
100
AcDbLine
 10
12.0
 20
3.179312414488776
 30
0.0
 11
12.0
 21
2.699999999999818
 31
0.0
  0
LINE
  5
BB3
330
BB0
100
AcDbEntity
  8
0
100
AcDbLine
 10
9.5
 20
3.130475008156281
 30
0.0
 11
9.440776269158959
 21
2.734883615801663
 31
0.0
  0
ARC
  5
BB4
330
BB0
100
AcDbEntity
  8
0
100
AcDbCircle
 10
11.19999999999891
 20
3.179312414488776
 30
0.0
 40
0.8
100
AcDbArc
 50
0.0
 51
81.48552156587461
  0
ARC
  5
BB5
330
BB0
100
AcDbEntity
  8
0
100
AcDbCircle
 10
8.753809903480942
 20
1.523241254200002
 30
0.0
 40
0.1999999999999504
100
AcDbArc
 50
171.485521565823
 51
351.485521565823
  0
LINE
  5
BB6
330
BB0
100
AcDbEntity
  8
0
100
AcDbLine
 10
11.65558220186904
 20
-2.403306455734309
 30
0.0
 11
9.440776269158959
 21
-2.734883615802573
 31
0.0
  0
ARC
  5
BB7
330
BB0
100
AcDbEntity
  8
0
100
AcDbCircle
 10
8.753809903480942
 20
-1.523241254200911
 30
0.0
 40
0.1999999999999504
100
AcDbArc
 50
8.514478434176927
 51
188.5144784341769
  0
LINE
  5
BB8
330
BB0
100
AcDbEntity
  8
0
100
AcDbLine
 10
9.5
 20
-3.130475008157191
 30
0.0
 11
9.440776269158959
 21
-2.734883615802573
 31
0.0
  0
ARC
  5
BB9
330
BB0
100
AcDbEntity
  8
0
100
AcDbCircle
 10
11.69999999999891
 20
-2.699999999999818
 30
0.0
 40
0.3
100
AcDbArc
 50
0.0
 51
98.51447843412536
  0
ARC
  5
BBA
330
BB0
100
AcDbEntity
  8
0
100
AcDbCircle
 10
11.69999999999891
 20
2.699999999999818
 30
0.0
 40
0.3
100
AcDbArc
 50
261.4855215658746
 51
0.0
  0
LINE
  5
BBB
330
BB0
100
AcDbEntity
  8
0
100
AcDbLine
 10
11.65558220186904
 20
2.4033064557334
 30
0.0
 11
9.440776269158959
 21
2.734883615801663
 31
0.0
  0
LINE
  5
BBC
330
BB0
100
AcDbEntity
  8
0
100
AcDbLine
 10
8.807715063378054
 20
3.234116537129011
 30
0.0
 11
8.556014207302723
 21
1.552853119620522
 31
0.0
  0
LINE
  5
BBD
330
BB0
100
AcDbEntity
  8
0
100
AcDbLine
 10
9.203306455732672
 20
3.174892806287971
 30
0.0
 11
8.951605599657341
 21
1.493629388779481
 31
0.0
  0
LINE
  5
BBE
330
BB0
100
AcDbEntity
  8
0
100
AcDbLine
 10
6.681411329471302
 20
3.552444090400967
 30
0.0
 11
6.622187598630262
 21
3.15685269804544
 31
0.0
  0
ARC
  5
BBF
330
BB0
100
AcDbEntity
  8
0
100
AcDbCircle
 10
0.2999999999992724
 20
3.800000000000181
 30
0.0
 40
0.3
100
AcDbArc
 50
81.48552156587461
 51
180.0
  0
ARC
  5
BC0
330
BB0
100
AcDbEntity
  8
0
100
AcDbCircle
 10
1.042400829128382
 20
4.699999999999818
 30
0.0
 40
0.8
100
AcDbArc
 50
81.48552156587461
 51
90.0
  0
LINE
  5
BC1
330
BB0
100
AcDbEntity
  8
0
100
AcDbLine
 10
1.5
 20
3.923692082123125
 30
0.0
 11
0.3444177981309622
 21
4.09669354426569
 31
0.0
  0
LINE
  5
BC2
330
BB0
100
AcDbEntity
  8
0
100
AcDbLine
 10
1.5
 20
3.923692082123125
 30
0.0
 11
1.5
 21
3.099999999999454
 31
0.0
  0
LINE
  5
BC3
330
BB0
100
AcDbEntity
  8
0
100
AcDbLine
 10
1.5
 20
3.099999999999454
 30
0.0
 11
2.699999999998908
 21
3.099999999999454
 31
0.0
  0
LINE
  5
BC4
330
BB0
100
AcDbEntity
  8
0
100
AcDbLine
 10
2.699999999998908
 20
3.744040860223321
 30
0.0
 11
2.699999999998908
 21
3.099999999999454
 31
0.0
  0
LINE
  5
BC5
330
BB0
100
AcDbEntity
  8
0
100
AcDbLine
 10
6.622187598630262
 20
3.15685269804544
 30
0.0
 11
2.699999999998908
 21
3.744040860223321
 31
0.0
  0
LINE
  5
BC6
330
BB0
100
AcDbEntity
  8
0
100
AcDbLine
 10
1.5
 20
-3.100000000000363
 30
0.0
 11
2.699999999998908
 21
-3.100000000000363
 31
0.0
  0
LINE
  5
BC7
330
BB0
100
AcDbEntity
  8
0
100
AcDbLine
 10
11.31844746168099
 20
3.970495199198012
 30
0.0
 11
1.160848290810463
 21
5.491182784709053
 31
0.0
  0
LINE
  5
BC8
330
BB0
100
AcDbEntity
  8
0
100
AcDbLine
 10
9.5
 20
3.130475008156281
 30
0.0
 11
6.681411329471302
 21
3.552444090400967
 31
0.0
  0
ARC
  5
BC9
330
BB0
100
AcDbEntity
  8
0
100
AcDbCircle
 10
11.19999999999891
 20
-3.179312414488776
 30
0.0
 40
0.8
100
AcDbArc
 50
278.5144784341254
 51
0.0
  0
LINE
  5
BCA
330
BB0
100
AcDbEntity
  8
0
100
AcDbLine
 10
6.681411329471302
 20
-3.552444090400967
 30
0.0
 11
6.622187598630262
 21
-3.15685269804635
 31
0.0
  0
ARC
  5
BCB
330
BB0
100
AcDbEntity
  8
0
100
AcDbCircle
 10
0.2999999999992724
 20
-3.800000000000181
 30
0.0
 40
0.3
100
AcDbArc
 50
180.0
 51
278.5144784341254
  0
ARC
  5
BCC
330
BB0
100
AcDbEntity
  8
0
100
AcDbCircle
 10
1.042400829128382
 20
-4.699999999999818
 30
0.0
 40
0.8
100
AcDbArc
 50
270.0
 51
278.5144784341254
  0
LINE
  5
BCD
330
BB0
100
AcDbEntity
  8
0
100
AcDbLine
 10
0.3444177981309622
 20
-4.096693544266599
 30
0.0
 11
1.5
 21
-3.923692082124034
 31
0.0
  0
LINE
  5
BCE
330
BB0
100
AcDbEntity
  8
0
100
AcDbLine
 10
6.622187598630262
 20
-3.15685269804635
 30
0.0
 11
2.699999999998908
 21
-3.744040860224231
 31
0.0
  0
LINE
  5
BCF
330
BB0
100
AcDbEntity
  8
0
100
AcDbLine
 10
1.160848290810463
 20
-5.491182784709963
 30
0.0
 11
11.31844746168099
 21
-3.970495199198921
 31
0.0
  0
LINE
  5
BD0
330
BB0
100
AcDbEntity
  8
0
100
AcDbLine
 10
0.0
 20
3.800000000000181
 30
0.0
 11
0.0
 21
-3.800000000000181
 31
0.0
  0
LINE
  5
BD1
330
BB0
100
AcDbEntity
  8
0
100
AcDbLine
 10
12.0
 20
-2.699999999999818
 30
0.0
 11
12.0
 21
-3.179312414488776
 31
0.0
  0
LINE
  5
BD2
330
BB0
100
AcDbEntity
  8
0
100
AcDbLine
 10
2.699999999998908
 20
-3.100000000000363
 30
0.0
 11
2.699999999998908
 21
-3.744040860224231
 31
0.0
  0
LINE
  5
BD3
330
BB0
100
AcDbEntity
  8
0
100
AcDbLine
 10
1.5
 20
-3.100000000000363
 30
0.0
 11
1.5
 21
-3.923692082124034
 31
0.0
  0
LINE
  5
BD4
330
BB0
100
AcDbEntity
  8
0
100
AcDbLine
 10
9.5
 20
-3.130475008157191
 30
0.0
 11
6.681411329471302
 21
-3.552444090400967
 31
0.0
  0
LINE
  5
BD5
330
BB0
100
AcDbEntity
  8
0
100
AcDbLine
 10
9.203306455732672
 20
-3.174892806287971
 30
0.0
 11
8.951605599657341
 21
-1.493629388780391
 31
0.0
  0
LINE
  5
BD6
330
BB0
100
AcDbEntity
  8
0
100
AcDbLine
 10
8.807715063378054
 20
-3.234116537129011
 30
0.0
 11
8.556014207302723
 21
-1.552853119621431
 31
0.0
  0
LINE
  5
BD7
330
BB0
100
AcDbEntity
  8
0
100
AcDbLine
 10
-1.5
 20
5.5
 30
0.0
 11
-3.757359312881817
 21
5.5
 31
0.0
  0
ARC
  5
BD8
330
BB0
100
AcDbEntity
  8
0
100
AcDbCircle
 10
-2.5
 20
3.5
 30
0.0
 40
1.0
100
AcDbArc
 50
0.0
 51
90.0
  0
ARC
  5
BD9
330
BB0
100
AcDbEntity
  8
0
100
AcDbCircle
 10
-3.769781102879278
 20
4.149978862833449
 30
0.0
 40
0.75
100
AcDbArc
 50
47.16775949949599
 51
90.19499109987526
  0
ARC
  5
BDA
330
BB0
100
AcDbEntity
  8
0
100
AcDbCircle
 10
-2.75
 20
5.25
 30
0.0
 40
0.75
100
AcDbArc
 50
227.167759499496
 51
270.0
  0
LINE
  5
BDB
330
BB0
100
AcDbEntity
  8
0
100
AcDbLine
 10
-2.75
 20
4.5
 30
0.0
 11
-2.5
 21
4.5
 31
0.0
  0
LINE
  5
BDC
330
BB0
100
AcDbEntity
  8
0
100
AcDbLine
 10
-7.415254325502246
 20
3.064644661409147
 30
0.0
 11
-6.868629150101696
 21
3.611269837220788
 31
0.0
  0
ARC
  5
BDD
102
{ACAD_REACTORS
330
BF7
102
}
330
BB0
100
AcDbEntity
  8
0
100
AcDbCircle
 10
-7.980939750059405
 20
2.569669913566031
 30
0.0
 40
0.2
100
AcDbArc
 50
45.0000001037625
 51
135.0000000719631
  0
ARC
  5
BDE
330
BB0
100
AcDbEntity
  8
0
100
AcDbCircle
 10
-3.757359312881817
 20
0.5
 30
0.0
 40
5.0
100
AcDbArc
 50
90.0
 51
135.0
  0
ARC
  5
BDF
330
BB0
100
AcDbEntity
  8
0
100
AcDbCircle
 10
-3.757359312881817
 20
0.5
 30
0.0
 40
4.4
100
AcDbArc
 50
90.19499109987526
 51
135.0
  0
ARC
  5
BE0
330
BB0
100
AcDbEntity
  8
0
100
AcDbCircle
 10
-6.814213563102384
 20
0.9786796633270569
 30
0.0
 40
0.75
100
AcDbArc
 50
314.9999999676111
 51
45.0
  0
ARC
  5
BE1
102
{ACAD_REACTORS
330
BF7
102
}
330
BB0
100
AcDbEntity
  8
0
100
AcDbCircle
 10
-6.814213563102384
 20
0.9786796633270569
 30
0.0
 40
0.5
100
AcDbArc
 50
314.9999999676111
 51
45.0
  0
ARC
  5
BE2
330
BB0
100
AcDbEntity
  8
0
100
AcDbCircle
 10
-7.203122291144609
 20
2.852512627053329
 30
0.0
 40
0.3
100
AcDbArc
 50
135.0
 51
225.0000001112794
  0
LINE
  5
BE3
330
BB0
100
AcDbEntity
  8
0
100
AcDbLine
 10
-8.051650430128574
 20
3.276776694619002
 30
0.0
 11
-6.283883477519339
 21
1.509009749524921
 31
0.0
  0
LINE
  5
BE4
102
{ACAD_REACTORS
330
BF7
102
}
330
BB0
100
AcDbEntity
  8
0
100
AcDbLine
 10
-7.839518394079277
 20
2.711091270059114
 30
0.0
 11
-6.460660172508141
 21
1.33223305392039
 31
0.0
  0
ARC
  5
BE5
330
BB0
100
AcDbEntity
  8
0
100
AcDbCircle
 10
-12.57713383280133
 20
-2.521498914058611
 30
0.0
 40
0.3
100
AcDbArc
 50
45.00000003552097
 51
135.0
  0
ARC
  5
BE6
102
{ACAD_REACTORS
330
BF7
102
}
330
BB0
100
AcDbEntity
  8
0
100
AcDbCircle
 10
-12.29429112059733
 20
-1.743681468243266
 30
0.0
 40
0.2
100
AcDbArc
 50
135.0000000660675
 51
225.0000002990173
  0
LINE
  5
BE7
330
BB0
100
AcDbEntity
  8
0
100
AcDbLine
 10
-12.9899494936617
 20
-2.510050506339212
 30
0.0
 11
-12.78926586715715
 21
-2.309366879702793
 31
0.0
  0
LINE
  5
BE8
330
BB0
100
AcDbEntity
  8
0
100
AcDbLine
 10
-13.41421356237333
 20
-2.085786437626666
 30
0.0
 11
-7.292893218815152
 21
4.035533905932425
 31
0.0
  0
LINE
  5
BE9
102
{ACAD_REACTORS
330
BF7
102
}
330
BB0
100
AcDbEntity
  8
0
100
AcDbLine
 10
-12.43571247699765
 20
-1.602260112168551
 30
0.0
 11
-8.122361106474272
 21
2.711091269625285
 31
0.0
  0
ARC
  5
BEA
330
BB0
100
AcDbEntity
  8
0
100
AcDbCircle
 10
-2.5
 20
-3.5
 30
0.0
 40
1.0
100
AcDbArc
 50
270.0
 51
0.0
  0
ARC
  5
BEB
330
BB0
100
AcDbEntity
  8
0
100
AcDbCircle
 10
-7.519803902720013
 20
-4.150000000000545
 30
0.0
 40
0.75
100
AcDbArc
 50
270.0
 51
312.8334280660476
  0
ARC
  5
BEC
330
BB0
100
AcDbEntity
  8
0
100
AcDbCircle
 10
-6.5
 20
-5.25
 30
0.0
 40
0.75
100
AcDbArc
 50
90.0
 51
132.8334280660476
  0
LINE
  5
BED
330
BB0
100
AcDbEntity
  8
0
100
AcDbLine
 10
-2.5
 20
-4.5
 30
0.0
 11
-6.5
 21
-4.5
 31
0.0
  0
ARC
  5
BEE
330
BB0
100
AcDbEntity
  8
0
100
AcDbCircle
 10
-10.7033008647486
 20
-2.910407640086305
 30
0.0
 40
0.75
100
AcDbArc
 50
225.0
 51
315.0
  0
ARC
  5
BEF
102
{ACAD_REACTORS
330
BF7
102
}
330
BB0
100
AcDbEntity
  8
0
100
AcDbCircle
 10
-10.7033008647486
 20
-2.910407640086305
 30
0.0
 40
0.5
100
AcDbArc
 50
225.0
 51
315.0
  0
LINE
  5
BF0
330
BB0
100
AcDbEntity
  8
0
100
AcDbLine
 10
-1.5
 20
-5.5
 30
0.0
 11
-12.0
 21
-5.5
 31
0.0
  0
LINE
  5
BF1
330
BB0
100
AcDbEntity
  8
0
100
AcDbLine
 10
-7.519803902720013
 20
-4.900000000000545
 30
0.0
 11
-12.0
 21
-4.900000000000545
 31
0.0
  0
ARC
  5
BF2
330
BB0
100
AcDbEntity
  8
0
100
AcDbCircle
 10
-12.0
 20
-3.5
 30
0.0
 40
2.0
100
AcDbArc
 50
135.0
 51
270.0
  0
LINE
  5
BF3
330
BB0
100
AcDbEntity
  8
0
100
AcDbLine
 10
-10.17297077881812
 20
-3.440737725935832
 30
0.0
 11
-6.283883477372
 21
0.4483495772774404
 31
0.0
  0
ARC
  5
BF4
330
BB0
100
AcDbEntity
  8
0
100
AcDbCircle
 10
-12.0
 20
-3.5
 30
0.0
 40
1.399999999999999
100
AcDbArc
 50
135.0
 51
270.0
  0
LINE
  5
BF5
330
BB0
100
AcDbEntity
  8
0
100
AcDbLine
 10
-13.00139790187859
 20
-1.672970777132832
 30
0.0
 11
-11.23363095093009
 21
-3.440737725682993
 31
0.0
  0
LINE
  5
BF6
330
BB0
100
AcDbEntity
  8
0
100
AcDbLine
 10
-1.5
 20
3.5
 30
0.0
 11
-1.5
 21
-3.5
 31
0.0
  0
HATCH
  5
BF7
330
BB0
100
AcDbEntity
  8
0
100
AcDbHatch
 10
0.0
 20
0.0
 30
0.0
210
0.0
220
0.0
230
1.0
  2
ANSI31
 70
     0
 71
     1
 91
        1
 92
        7
 72
     1
 73
     1
 93
        8
 10
-6.460660173204814
 20
1.332233054616153
 42
0.0
 10
-7.839518394101105
 20
2.711091270081851
 42
0.414213562178905
 10
-8.122361106481548
 20
2.711091269618009
 42
0.0
 10
-12.43571247701766
 20
-1.602260112190379
 42
0.4142135636146872
 10
-12.43571247604996
 20
-1.885102825264766
 42
0.0
 10
-11.05685425338015
 20
-3.263961032639599
 42
0.4142135608152901
 10
-10.34974747407432
 20
-3.263961030598693
 42
0.0
 10
-6.460660172428106
 20
0.625126272813759
 42
0.4142135628833784
 97
        8
330
BE4
330
BDD
330
BE9
330
BE6
330
BF9
330
BEF
330
BF8
330
BE1
 75
     0
 76
     1
 52
45.0
 41
0.25
 77
     0
 78
     1
 53
90.0
 43
-276.1145346408611
 44
-395.2719013892401
 45
-0.79375
 46
0.0000000000000002
 79
     0
 47
0.0364805528584695
 98
        1
 10
-7.399477738399582
 20
0.8532363732892918
  0
LINE
  5
BF8
102
{ACAD_REACTORS
330
BF7
102
}
330
BB0
100
AcDbEntity
  8
0
100
AcDbLine
 10
-10.34974747415435
 20
-3.263961030678729
 30
0.0
 11
-6.46066017270823
 21
0.6251262725336347
 31
0.0
  0
LINE
  5
BF9
102
{ACAD_REACTORS
330
BF7
102
}
330
BB0
100
AcDbEntity
  8
0
100
AcDbLine
 10
-12.43571247609543
 20
-1.885102825218382
 30
0.0
 11
-11.05685425534102
 21
-3.263961030678729
 31
0.0
  0
LINE
  5
BFA
330
BB0
100
AcDbEntity
  8
0
100
AcDbLine
 10
-1.5
 20
5.5
 30
0.0
 11
1.042400829128382
 21
5.5
 31
0.0
  0
LINE
  5
BFB
330
BB0
100
AcDbEntity
  8
0
100
AcDbLine
 10
-1.5
 20
-5.5
 30
0.0
 11
1.042400829128382
 21
-5.5
 31
0.0
  0
ENDBLK
  5
BFC
330
BB0
100
AcDbEntity
  8
0
 62
     4
100
AcDbBlockEnd
  0
BLOCK
  5
1326
330
131C
100
AcDbEntity
  8
0
100
AcDbBlockBegin
  2
*D10
 70
     1
 10
0.0
 20
0.0
 30
0.0
  3
*D10
  1

  0
LINE
  5
2C40
330
131C
100
AcDbEntity
  8
0
100
AcDbLine
 10
1472.81383923223
 20
624.1645610243025
 30
0.0
 11
1463.194069309619
 21
624.1645610243025
 31
0.0
  0
LINE
  5
2C41
330
131C
100
AcDbEntity
  8
0
100
AcDbLine
 10
1474.50437845309
 20
556.0418741990209
 30
0.0
 11
1463.194069309619
 21
556.0418741990209
 31
0.0
  0
LINE
  5
2C42
330
131C
100
AcDbEntity
  8
0
100
AcDbLine
 10
1464.194069309619
 20
622.1645610243025
 30
0.0
 11
1464.194069309619
 21
558.0418741990208
 31
0.0
  0
SOLID
  5
2C43
330
131C
100
AcDbEntity
  8
0
100
AcDbTrace
 10
1463.860735976286
 20
622.1645610243025
 30
0.0
 11
1464.527402642952
 21
622.1645610243025
 31
0.0
 12
1464.194069309619
 22
624.1645610243025
 32
0.0
 13
1464.194069309619
 23
624.1645610243025
 33
0.0
  0
SOLID
  5
2C44
330
131C
100
AcDbEntity
  8
0
100
AcDbTrace
 10
1463.860735976286
 20
558.0418741990208
 30
0.0
 11
1464.527402642952
 21
558.0418741990208
 31
0.0
 12
1464.194069309619
 22
556.0418741990209
 32
0.0
 13
1464.194069309619
 23
556.0418741990209
 33
0.0
  0
MTEXT
  5
2C45
330
131C
100
AcDbEntity
  8
0
100
AcDbMText
 10
1461.944908799209
 20
590.1032176116619
 30
0.0
 40
2.0
 41
0.0
 71
     5
 72
     1
  1
MAX. 681 mm / MIN. 666 mm
  7
SANINDUSA
 11
0.0000000000000001
 21
1.0
 31
0.0
 73
     1
 44
1.0
1001
ACAD
1000
MTEXTBEGIN
1070
    73
1070
     1
1070
    44
1040
1.0
1070
    74
1070
     0
1000
MTEXTEND
  0
POINT
  5
2C46
330
131C
100
AcDbEntity
  8
Defpoints
 62
     0
100
AcDbPoint
 10
1473.81383923223
 20
624.1645610243025
 30
0.0
  0
POINT
  5
2C47
330
131C
100
AcDbEntity
  8
Defpoints
 62
     0
100
AcDbPoint
 10
1475.50437845309
 20
556.0418741990209
 30
0.0000000155554831
  0
POINT
  5
2C48
330
131C
100
AcDbEntity
  8
Defpoints
 62
     0
100
AcDbPoint
 10
1464.194069309619
 20
556.0418741990209
 30
0.0
  0
ENDBLK
  5
1327
330
131C
100
AcDbEntity
  8
0
100
AcDbBlockEnd
  0
BLOCK
  5
1332
330
1328
100
AcDbEntity
  8
0
100
AcDbBlockBegin
  2
*D11
 70
     1
 10
0.0
 20
0.0
 30
0.0
  3
*D11
  1

  0
LINE
  5
2C2E
330
1328
100
AcDbEntity
  8
0
100
AcDbLine
 10
1475.601363301188
 20
554.9448893509223
 30
0.0
 11
1475.601363301188
 21
544.3353303225535
 31
0.0
  0
LINE
  5
2C2F
330
1328
100
AcDbEntity
  8
0
100
AcDbLine
 10
1573.023300011359
 20
553.955100245163
 30
0.0
 11
1573.023300011359
 21
544.3353303225535
 31
0.0
  0
LINE
  5
2C30
330
1328
100
AcDbEntity
  8
0
100
AcDbLine
 10
1477.601363301188
 20
545.3353303225535
 30
0.0
 11
1571.02330001136
 21
545.3353303225535
 31
0.0
  0
SOLID
  5
2C31
330
1328
100
AcDbEntity
  8
0
100
AcDbTrace
 10
1477.601363301188
 20
545.6686636558869
 30
0.0
 11
1477.601363301188
 21
545.0019969892202
 31
0.0
 12
1475.601363301188
 22
545.3353303225535
 32
0.0
 13
1475.601363301188
 23
545.3353303225535
 33
0.0
  0
SOLID
  5
2C32
330
1328
100
AcDbEntity
  8
0
100
AcDbTrace
 10
1571.02330001136
 20
545.6686636558869
 30
0.0
 11
1571.02330001136
 21
545.0019969892202
 31
0.0
 12
1573.023300011359
 22
545.3353303225535
 32
0.0
 13
1573.023300011359
 23
545.3353303225535
 33
0.0
  0
MTEXT
  5
2C33
330
1328
100
AcDbEntity
  8
0
100
AcDbMText
 10
1508.893465374117
 20
547.5844908329632
 30
0.0
 40
2.0
 41
0.0
 71
     5
 72
     1
  1
MAX. 975 mm / MIN. 960 mm
  7
SANINDUSA
 73
     1
 44
1.0
1001
ACAD
1000
MTEXTBEGIN
1070
    73
1070
     1
1070
    44
1040
1.0
1070
    74
1070
     0
1000
MTEXTEND
  0
POINT
  5
2C34
330
1328
100
AcDbEntity
  8
Defpoints
 62
     0
100
AcDbPoint
 10
1475.601363301188
 20
555.9448893509223
 30
0.0000000155554831
  0
POINT
  5
2C35
330
1328
100
AcDbEntity
  8
Defpoints
 62
     0
100
AcDbPoint
 10
1573.023300011359
 20
554.9551002451631
 30
0.0
  0
POINT
  5
2C36
330
1328
100
AcDbEntity
  8
Defpoints
 62
     0
100
AcDbPoint
 10
1573.023300011359
 20
545.3353303225535
 30
0.0
  0
ENDBLK
  5
1333
330
1328
100
AcDbEntity
  8
0
100
AcDbBlockEnd
  0
BLOCK
  5
1350
330
1346
100
AcDbEntity
  8
0
100
AcDbBlockBegin
  2
*D12
 70
     1
 10
0.0
 20
0.0
 30
0.0
  3
*D12
  1

  0
LINE
  5
2C25
330
1346
100
AcDbEntity
  8
0
100
AcDbLine
 10
1477.001363301188
 20
554.9948893509225
 30
0.0
 11
1477.001363301188
 21
548.540484894289
 31
0.0
  0
LINE
  5
2C26
330
1346
100
AcDbEntity
  8
0
100
AcDbLine
 10
1537.02362833799
 20
554.9948893509224
 30
0.0
 11
1537.02362833799
 21
548.540484894289
 31
0.0
  0
LINE
  5
2C27
330
1346
100
AcDbEntity
  8
0
100
AcDbLine
 10
1479.001363301188
 20
549.5404848942889
 30
0.0
 11
1535.02362833799
 21
549.5404848942889
 31
0.0
  0
SOLID
  5
2C28
330
1346
100
AcDbEntity
  8
0
100
AcDbTrace
 10
1479.001363301188
 20
549.8738182276223
 30
0.0
 11
1479.001363301188
 21
549.2071515609556
 31
0.0
 12
1477.001363301188
 22
549.5404848942889
 32
0.0
 13
1477.001363301188
 23
549.5404848942889
 33
0.0
  0
SOLID
  5
2C29
330
1346
100
AcDbEntity
  8
0
100
AcDbTrace
 10
1535.02362833799
 20
549.8738182276223
 30
0.0
 11
1535.02362833799
 21
549.2071515609556
 31
0.0
 12
1537.02362833799
 22
549.5404848942889
 32
0.0
 13
1537.02362833799
 23
549.5404848942889
 33
0.0
  0
MTEXT
  5
2C2A
330
1346
100
AcDbEntity
  8
0
100
AcDbMText
 10
1507.012495819589
 20
551.581451986297
 30
0.0
 40
2.0
 41
0.0
 71
     5
 72
     1
  1
600
  7
SANINDUSA
 73
     1
 44
1.0
1001
ACAD
1000
MTEXTBEGIN
1070
    73
1070
     1
1070
    44
1040
1.0
1070
    74
1070
     0
1000
MTEXTEND
  0
POINT
  5
2C2B
330
1346
100
AcDbEntity
  8
Defpoints
 62
     0
100
AcDbPoint
 10
1477.001363301188
 20
555.9948893509226
 30
0.0000000155554831
  0
POINT
  5
2C2C
330
1346
100
AcDbEntity
  8
Defpoints
 62
     0
100
AcDbPoint
 10
1537.02362833799
 20
555.9948893509224
 30
0.0000000155554831
  0
POINT
  5
2C2D
330
1346
100
AcDbEntity
  8
Defpoints
 62
     0
100
AcDbPoint
 10
1537.02362833799
 20
549.5404848942889
 30
0.0
  0
ENDBLK
  5
1351
330
1346
100
AcDbEntity
  8
0
100
AcDbBlockEnd
  0
BLOCK
  5
135C
330
1352
100
AcDbEntity
  8
0
100
AcDbBlockBegin
  2
*D13
 70
     1
 10
0.0
 20
0.0
 30
0.0
  3
*D13
  1

  0
LINE
  5
1EDA
330
1352
100
AcDbEntity
  8
0
100
AcDbLine
 10
1537.32362833799
 20
554.9948889699631
 30
0.0
 11
1537.32362833799
 21
548.540484894289
 31
0.0
  0
LINE
  5
1EDB
330
1352
100
AcDbEntity
  8
0
100
AcDbLine
 10
1568.586097635373
 20
554.994888969963
 30
0.0
 11
1568.586097635373
 21
548.540484894289
 31
0.0
  0
LINE
  5
1EDC
330
1352
100
AcDbEntity
  8
0
100
AcDbLine
 10
1539.32362833799
 20
549.5404848942889
 30
0.0
 11
1566.586097635373
 21
549.5404848942889
 31
0.0
  0
SOLID
  5
1EDD
330
1352
100
AcDbEntity
  8
0
100
AcDbTrace
 10
1539.32362833799
 20
549.8738182276223
 30
0.0
 11
1539.32362833799
 21
549.2071515609556
 31
0.0
 12
1537.32362833799
 22
549.5404848942889
 32
0.0
 13
1537.32362833799
 23
549.5404848942889
 33
0.0
  0
SOLID
  5
1EDE
330
1352
100
AcDbEntity
  8
0
100
AcDbTrace
 10
1566.586097635373
 20
549.8738182276223
 30
0.0
 11
1566.586097635373
 21
549.2071515609556
 31
0.0
 12
1568.586097635373
 22
549.5404848942889
 32
0.0
 13
1568.586097635373
 23
549.5404848942889
 33
0.0
  0
MTEXT
  5
1EDF
330
1352
100
AcDbEntity
  8
0
100
AcDbMText
 10
1552.954862986682
 20
551.5821235779692
 30
0.0
 40
2.0
 41
0.0
 71
     5
 72
     1
  1
313
  7
SANINDUSA
 73
     1
 44
1.0
1001
ACAD
1000
MTEXTBEGIN
1070
    73
1070
     1
1070
    44
1040
1.0
1070
    74
1070
     0
1000
MTEXTEND
  0
POINT
  5
1EE0
330
1352
100
AcDbEntity
  8
Defpoints
 62
     0
100
AcDbPoint
 10
1537.32362833799
 20
555.9948889699632
 30
0.0000000155554969
  0
POINT
  5
1EE1
330
1352
100
AcDbEntity
  8
Defpoints
 62
     0
100
AcDbPoint
 10
1568.586097635373
 20
555.994888969963
 30
0.0000000147685134
  0
POINT
  5
1EE2
330
1352
100
AcDbEntity
  8
Defpoints
 62
     0
100
AcDbPoint
 10
1568.586097635373
 20
549.5404848942889
 30
0.0
  0
ENDBLK
  5
135D
330
1352
100
AcDbEntity
  8
0
100
AcDbBlockEnd
  0
BLOCK
  5
1368
330
135E
100
AcDbEntity
  8
0
100
AcDbBlockBegin
  2
*D14
 70
     1
 10
0.0
 20
0.0
 30
0.0
  3
*D14
  1

  0
LINE
  5
2C37
330
135E
100
AcDbEntity
  8
0
100
AcDbLine
 10
1474.55437845309
 20
619.7273586483117
 30
0.0
 11
1467.399223881354
 21
619.7273586483117
 31
0.0
  0
LINE
  5
2C38
330
135E
100
AcDbEntity
  8
0
100
AcDbLine
 10
1474.55437845309
 20
557.4418741990208
 30
0.0
 11
1467.399223881354
 21
557.4418741990208
 31
0.0
  0
LINE
  5
2C39
330
135E
100
AcDbEntity
  8
0
100
AcDbLine
 10
1468.399223881354
 20
617.7273586483116
 30
0.0
 11
1468.399223881354
 21
559.4418741990208
 31
0.0
  0
SOLID
  5
2C3A
330
135E
100
AcDbEntity
  8
0
100
AcDbTrace
 10
1468.065890548021
 20
617.7273586483116
 30
0.0
 11
1468.732557214688
 21
617.7273586483116
 31
0.0
 12
1468.399223881354
 22
619.7273586483117
 32
0.0
 13
1468.399223881354
 23
619.7273586483117
 33
0.0
  0
SOLID
  5
2C3B
330
135E
100
AcDbEntity
  8
0
100
AcDbTrace
 10
1468.065890548021
 20
559.4418741990208
 30
0.0
 11
1468.732557214688
 21
559.4418741990208
 31
0.0
 12
1468.399223881354
 22
557.4418741990208
 32
0.0
 13
1468.399223881354
 23
557.4418741990208
 33
0.0
  0
MTEXT
  5
2C3C
330
135E
100
AcDbEntity
  8
0
100
AcDbMText
 10
1466.357585197674
 20
588.5846164236665
 30
0.0
 40
2.0
 41
0.0
 71
     5
 72
     1
  1
623
  7
SANINDUSA
 11
0.0000000000000001
 21
1.0
 31
0.0
 73
     1
 44
1.0
1001
ACAD
1000
MTEXTBEGIN
1070
    73
1070
     1
1070
    44
1040
1.0
1070
    74
1070
     0
1000
MTEXTEND
  0
POINT
  5
2C3D
330
135E
100
AcDbEntity
  8
Defpoints
 62
     0
100
AcDbPoint
 10
1475.55437845309
 20
619.7273586483117
 30
0.0000000155554831
  0
POINT
  5
2C3E
330
135E
100
AcDbEntity
  8
Defpoints
 62
     0
100
AcDbPoint
 10
1475.55437845309
 20
557.4418741990208
 30
0.0000000155554831
  0
POINT
  5
2C3F
330
135E
100
AcDbEntity
  8
Defpoints
 62
     0
100
AcDbPoint
 10
1468.399223881354
 20
557.4418741990208
 30
0.0
  0
ENDBLK
  5
1369
330
135E
100
AcDbEntity
  8
0
100
AcDbBlockEnd
  0
BLOCK
  5
146E
330
1464
100
AcDbEntity
  8
0
100
AcDbBlockBegin
  2
*D20
 70
     1
 10
0.0
 20
0.0
 30
0.0
  3
*D20
  1

  0
LINE
  5
1F09
330
1464
100
AcDbEntity
  8
0
100
AcDbLine
 10
1712.612024810595
 20
656.9868119491488
 30
0.0
 11
1717.612024810595
 21
656.9868119491488
 31
0.0
  0
LINE
  5
1F0A
330
1464
100
AcDbEntity
  8
0
100
AcDbLine
 10
1693.142870855335
 20
627.4868119481816
 30
0.0
 11
1717.612024810595
 21
627.4868119481816
 31
0.0
  0
LINE
  5
1F0B
330
1464
100
AcDbEntity
  8
0
100
AcDbLine
 10
1716.612024810595
 20
654.9868119491487
 30
0.0
 11
1716.612024810595
 21
629.4868119481816
 31
0.0
  0
SOLID
  5
1F0C
330
1464
100
AcDbEntity
  8
0
100
AcDbTrace
 10
1716.278691477262
 20
654.9868119491487
 30
0.0
 11
1716.945358143928
 21
654.9868119491487
 31
0.0
 12
1716.612024810595
 22
656.9868119491488
 32
0.0
 13
1716.612024810595
 23
656.9868119491488
 33
0.0
  0
SOLID
  5
1F0D
330
1464
100
AcDbEntity
  8
0
100
AcDbTrace
 10
1716.278691477262
 20
629.4868119481816
 30
0.0
 11
1716.945358143928
 21
629.4868119481816
 31
0.0
 12
1716.612024810595
 22
627.4868119481816
 32
0.0
 13
1716.612024810595
 23
627.4868119481816
 33
0.0
  0
MTEXT
  5
1F0E
330
1464
100
AcDbEntity
  8
0
100
AcDbMText
 10
1714.570386126915
 20
642.2368119486653
 30
0.0
 40
2.0
 41
0.0
 71
     5
 72
     1
  1
295
  7
SANINDUSA
 11
0.0000000000000001
 21
1.0
 31
0.0
 73
     1
 44
1.0
1001
ACAD
1000
MTEXTBEGIN
1070
    73
1070
     1
1070
    44
1040
1.0
1070
    74
1070
     0
1000
MTEXTEND
  0
POINT
  5
1F0F
330
1464
100
AcDbEntity
  8
Defpoints
 62
     0
100
AcDbPoint
 10
1711.612024810595
 20
656.9868119491488
 30
0.0000001793827793
  0
POINT
  5
1F10
330
1464
100
AcDbEntity
  8
Defpoints
 62
     0
100
AcDbPoint
 10
1692.142870855336
 20
627.4868119481816
 30
0.0000000000032074
  0
POINT
  5
1F11
330
1464
100
AcDbEntity
  8
Defpoints
 62
     0
100
AcDbPoint
 10
1716.612024810595
 20
627.4868119481816
 30
0.0
  0
ENDBLK
  5
146F
330
1464
100
AcDbEntity
  8
0
100
AcDbBlockEnd
  0
BLOCK
  5
147A
330
1470
100
AcDbEntity
  8
0
100
AcDbBlockBegin
  2
*D21
 70
     1
 10
0.0
 20
0.0
 30
0.0
  3
*D21
  1

  0
LINE
  5
1EEC
330
1470
100
AcDbEntity
  8
0
100
AcDbLine
 10
1660.081727630091
 20
501.4868119491485
 30
0.0
 11
1655.081727630091
 21
501.4868119491485
 31
0.0
  0
LINE
  5
1EED
330
1470
100
AcDbEntity
  8
0
100
AcDbLine
 10
1652.769876046714
 20
472.9868119491485
 30
0.0
 11
1657.081727630091
 21
472.9868119491485
 31
0.0
  0
LINE
  5
1EEE
330
1470
100
AcDbEntity
  8
0
100
AcDbLine
 10
1656.081727630091
 20
499.4868119491485
 30
0.0
 11
1656.081727630091
 21
474.9868119491485
 31
0.0
  0
SOLID
  5
1EEF
330
1470
100
AcDbEntity
  8
0
100
AcDbTrace
 10
1655.748394296758
 20
499.4868119491485
 30
0.0
 11
1656.415060963424
 21
499.4868119491485
 31
0.0
 12
1656.081727630091
 22
501.4868119491485
 32
0.0
 13
1656.081727630091
 23
501.4868119491485
 33
0.0
  0
SOLID
  5
1EF0
330
1470
100
AcDbEntity
  8
0
100
AcDbTrace
 10
1655.748394296758
 20
474.9868119491485
 30
0.0
 11
1656.415060963424
 21
474.9868119491485
 31
0.0
 12
1656.081727630091
 22
472.9868119491485
 32
0.0
 13
1656.081727630091
 23
472.9868119491485
 33
0.0
  0
MTEXT
  5
1EF1
330
1470
100
AcDbEntity
  8
0
100
AcDbMText
 10
1654.036059396377
 20
487.2368119491487
 30
0.0
 40
2.0
 41
0.0
 71
     5
 72
     1
  1
285
  7
SANINDUSA
 11
0.0000000000000001
 21
1.0
 31
0.0
 73
     1
 44
1.0
1001
ACAD
1000
MTEXTBEGIN
1070
    73
1070
     1
1070
    44
1040
1.0
1070
    74
1070
     0
1000
MTEXTEND
  0
POINT
  5
1EF2
330
1470
100
AcDbEntity
  8
Defpoints
 62
     0
100
AcDbPoint
 10
1661.081727630091
 20
501.4868119491485
 30
-0.0000001793795719
  0
POINT
  5
1EF3
330
1470
100
AcDbEntity
  8
Defpoints
 62
     0
100
AcDbPoint
 10
1651.769876046714
 20
472.9868119491485
 30
-0.0000001793795719
  0
POINT
  5
1EF4
330
1470
100
AcDbEntity
  8
Defpoints
 62
     0
100
AcDbPoint
 10
1656.081727630091
 20
472.9868119491485
 30
0.0
  0
ENDBLK
  5
147B
330
1470
100
AcDbEntity
  8
0
100
AcDbBlockEnd
  0
BLOCK
  5
1486
330
147C
100
AcDbEntity
  8
0
100
AcDbBlockBegin
  2
*D22
 70
     1
 10
0.0
 20
0.0
 30
0.0
  3
*D22
  1

  0
LINE
  5
1EF5
330
147C
100
AcDbEntity
  8
0
100
AcDbLine
 10
1639.828279271985
 20
472.9868119491485
 30
0.0
 11
1652.081727630091
 21
472.9868119491485
 31
0.0
  0
LINE
  5
1EF6
330
147C
100
AcDbEntity
  8
0
100
AcDbLine
 10
1637.04944477911
 20
471.9868119491485
 30
0.0
 11
1652.081727630091
 21
471.9868119491485
 31
0.0
  0
LINE
  5
1EF7
330
147C
100
AcDbEntity
  8
0
100
AcDbLine
 10
1651.081727630091
 20
474.9868119491485
 30
0.0
 11
1651.081727630091
 21
476.9868119491485
 31
0.0
  0
LINE
  5
1EF8
330
147C
100
AcDbEntity
  8
0
100
AcDbLine
 10
1651.081727630091
 20
469.9868119491485
 30
0.0
 11
1651.081727630091
 21
463.043897241291
 31
0.0
  0
LINE
  5
1EF9
330
147C
100
AcDbEntity
  8
0
100
AcDbLine
 10
1651.081727630091
 20
472.9868119491485
 30
0.0
 11
1651.081727630091
 21
471.9868119491485
 31
0.0
  0
SOLID
  5
1EFA
330
147C
100
AcDbEntity
  8
0
100
AcDbTrace
 10
1650.748394296758
 20
474.9868119491485
 30
0.0
 11
1651.415060963424
 21
474.9868119491485
 31
0.0
 12
1651.081727630091
 22
472.9868119491485
 32
0.0
 13
1651.081727630091
 23
472.9868119491485
 33
0.0
  0
SOLID
  5
1EFB
330
147C
100
AcDbEntity
  8
0
100
AcDbTrace
 10
1650.748394296758
 20
469.9868119491485
 30
0.0
 11
1651.415060963424
 21
469.9868119491485
 31
0.0
 12
1651.081727630091
 22
471.9868119491485
 32
0.0
 13
1651.081727630091
 23
471.9868119491485
 33
0.0
  0
MTEXT
  5
1EFC
330
147C
100
AcDbEntity
  8
0
100
AcDbMText
 10
1649.040760538083
 20
465.5153545952199
 30
0.0
 40
2.0
 41
0.0
 71
     5
 72
     1
  1
10
  7
SANINDUSA
 11
0.0000000000000001
 21
1.0
 31
0.0
 73
     1
 44
1.0
1001
ACAD
1000
MTEXTBEGIN
1070
    73
1070
     1
1070
    44
1040
1.0
1070
    74
1070
     0
1000
MTEXTEND
  0
POINT
  5
1EFD
330
147C
100
AcDbEntity
  8
Defpoints
 62
     0
100
AcDbPoint
 10
1638.828279271985
 20
472.9868119491485
 30
-0.0000001793795719
  0
POINT
  5
1EFE
330
147C
100
AcDbEntity
  8
Defpoints
 62
     0
100
AcDbPoint
 10
1636.04944477911
 20
471.9868119491485
 30
0.0
  0
POINT
  5
1EFF
330
147C
100
AcDbEntity
  8
Defpoints
 62
     0
100
AcDbPoint
 10
1651.081727630091
 20
471.9868119491485
 30
0.0
  0
ENDBLK
  5
1487
330
147C
100
AcDbEntity
  8
0
100
AcDbBlockEnd
  0
BLOCK
  5
1492
330
1488
100
AcDbEntity
  8
0
100
AcDbBlockBegin
  2
*D23
 70
     1
 10
0.0
 20
0.0
 30
0.0
  3
*D23
  1

  0
LINE
  5
1F00
330
1488
100
AcDbEntity
  8
0
100
AcDbLine
 10
1695.525760890981
 20
501.4868119491482
 30
0.0
 11
1717.612024810595
 21
501.4868119491482
 31
0.0
  0
LINE
  5
1F01
330
1488
100
AcDbEntity
  8
0
100
AcDbLine
 10
1712.612024810595
 20
471.9868119491486
 30
0.0
 11
1717.612024810595
 21
471.9868119491486
 31
0.0
  0
LINE
  5
1F02
330
1488
100
AcDbEntity
  8
0
100
AcDbLine
 10
1716.612024810595
 20
499.4868119491481
 30
0.0
 11
1716.612024810595
 21
473.9868119491487
 31
0.0
  0
SOLID
  5
1F03
330
1488
100
AcDbEntity
  8
0
100
AcDbTrace
 10
1716.278691477262
 20
499.4868119491481
 30
0.0
 11
1716.945358143928
 21
499.4868119491481
 31
0.0
 12
1716.612024810595
 22
501.4868119491482
 32
0.0
 13
1716.612024810595
 23
501.4868119491482
 33
0.0
  0
SOLID
  5
1F04
330
1488
100
AcDbEntity
  8
0
100
AcDbTrace
 10
1716.278691477262
 20
473.9868119491487
 30
0.0
 11
1716.945358143928
 21
473.9868119491487
 31
0.0
 12
1716.612024810595
 22
471.9868119491486
 32
0.0
 13
1716.612024810595
 23
471.9868119491486
 33
0.0
  0
MTEXT
  5
1F05
330
1488
100
AcDbEntity
  8
0
100
AcDbMText
 10
1714.570386126915
 20
486.7368119491487
 30
0.0
 40
2.0
 41
0.0
 71
     5
 72
     1
  1
295
  7
SANINDUSA
 11
0.0000000000000001
 21
1.0
 31
0.0
 73
     1
 44
1.0
1001
ACAD
1000
MTEXTBEGIN
1070
    73
1070
     1
1070
    44
1040
1.0
1070
    74
1070
     0
1000
MTEXTEND
  0
POINT
  5
1F06
330
1488
100
AcDbEntity
  8
Defpoints
 62
     0
100
AcDbPoint
 10
1694.525760890981
 20
501.4868119491482
 30
-0.0000001793795719
  0
POINT
  5
1F07
330
1488
100
AcDbEntity
  8
Defpoints
 62
     0
100
AcDbPoint
 10
1711.612024810595
 20
471.9868119491486
 30
0.0
  0
POINT
  5
1F08
330
1488
100
AcDbEntity
  8
Defpoints
 62
     0
100
AcDbPoint
 10
1716.612024810595
 20
471.9868119491486
 30
0.0
  0
ENDBLK
  5
1493
330
1488
100
AcDbEntity
  8
0
100
AcDbBlockEnd
  0
BLOCK
  5
149E
330
1494
100
AcDbEntity
  8
0
100
AcDbBlockBegin
  2
*D24
 70
     1
 10
0.0
 20
0.0
 30
0.0
  3
*D24
  1

  0
LINE
  5
1EE3
330
1494
100
AcDbEntity
  8
0
100
AcDbLine
 10
1612.893103252321
 20
656.9868119491485
 30
0.0
 11
1605.40930249355
 21
656.9868119491485
 31
0.0
  0
LINE
  5
1EE4
330
1494
100
AcDbEntity
  8
0
100
AcDbLine
 10
1610.885032814105
 20
471.9868119491409
 30
0.0
 11
1605.40930249355
 21
471.9868119491409
 31
0.0
  0
LINE
  5
1EE5
330
1494
100
AcDbEntity
  8
0
100
AcDbLine
 10
1606.40930249355
 20
654.9868119491485
 30
0.0
 11
1606.40930249355
 21
473.9868119491409
 31
0.0
  0
SOLID
  5
1EE6
330
1494
100
AcDbEntity
  8
0
100
AcDbTrace
 10
1606.075969160217
 20
654.9868119491485
 30
0.0
 11
1606.742635826883
 21
654.9868119491485
 31
0.0
 12
1606.40930249355
 22
656.9868119491485
 32
0.0
 13
1606.40930249355
 23
656.9868119491485
 33
0.0
  0
SOLID
  5
1EE7
330
1494
100
AcDbEntity
  8
0
100
AcDbTrace
 10
1606.075969160217
 20
473.9868119491409
 30
0.0
 11
1606.742635826883
 21
473.9868119491409
 31
0.0
 12
1606.40930249355
 22
471.9868119491409
 32
0.0
 13
1606.40930249355
 23
471.9868119491409
 33
0.0
  0
MTEXT
  5
1EE8
330
1494
100
AcDbEntity
  8
0
100
AcDbMText
 10
1604.363634259836
 20
564.4868119491449
 30
0.0
 40
2.0
 41
0.0
 71
     5
 72
     1
  1
1850
  7
SANINDUSA
 11
0.0000000000000001
 21
1.0
 31
0.0
 73
     1
 44
1.0
1001
ACAD
1000
MTEXTBEGIN
1070
    73
1070
     1
1070
    44
1040
1.0
1070
    74
1070
     0
1000
MTEXTEND
  0
POINT
  5
1EE9
330
1494
100
AcDbEntity
  8
Defpoints
 62
     0
100
AcDbPoint
 10
1613.893103252321
 20
656.9868119491485
 30
0.0000000155554831
  0
POINT
  5
1EEA
330
1494
100
AcDbEntity
  8
Defpoints
 62
     0
100
AcDbPoint
 10
1611.885032814105
 20
471.9868119491409
 30
0.0
  0
POINT
  5
1EEB
330
1494
100
AcDbEntity
  8
Defpoints
 62
     0
100
AcDbPoint
 10
1606.40930249355
 20
471.9868119491409
 30
0.0
  0
ENDBLK
  5
149F
330
1494
100
AcDbEntity
  8
0
100
AcDbBlockEnd
  0
BLOCK
  5
399D
330
399C
100
AcDbEntity
  8
0
100
AcDbBlockBegin
  2
*D28
 70
     1
 10
0.0
 20
0.0
 30
0.0
  3
*D28
  1

  0
LINE
  5
39A9
330
399C
100
AcDbEntity
  8
cotas
100
AcDbLine
 10
2769.883477414693
 20
1467.854673543343
 30
0.0
 11
2842.16694487815
 21
1467.854673543343
 31
0.0
  0
LINE
  5
39AA
330
399C
100
AcDbEntity
  8
cotas
100
AcDbLine
 10
2769.883477414693
 20
-382.1453264566571
 30
0.0
 11
2842.16694487815
 21
-382.1453264566571
 31
0.0
  0
LINE
  5
39AB
330
399C
100
AcDbEntity
  8
cotas
100
AcDbLine
 10
2841.16694487815
 20
1465.854673543343
 30
0.0
 11
2841.16694487815
 21
-380.1453264566571
 31
0.0
  0
SOLID
  5
39AC
330
399C
100
AcDbEntity
  8
cotas
100
AcDbTrace
 10
2840.833611544816
 20
1465.854673543343
 30
0.0
 11
2841.500278211484
 21
1465.854673543343
 31
0.0
 12
2841.16694487815
 22
1467.854673543343
 32
0.0
 13
2841.16694487815
 23
1467.854673543343
 33
0.0
  0
SOLID
  5
39AD
330
399C
100
AcDbEntity
  8
cotas
100
AcDbTrace
 10
2840.833611544816
 20
-380.1453264566571
 30
0.0
 11
2841.500278211483
 21
-380.1453264566571
 31
0.0
 12
2841.16694487815
 22
-382.1453264566571
 32
0.0
 13
2841.16694487815
 23
-382.1453264566571
 33
0.0
  0
MTEXT
  5
39AE
330
399C
100
AcDbEntity
  8
cotas
100
AcDbMText
 10
2839.121276644436
 20
542.8546735433433
 30
0.0
 40
2.0
 41
0.0
 71
     5
 72
     1
  1
1850
  7
SANINDUSA
 11
0.0000000000000001
 21
1.0
 31
0.0
 73
     1
 44
1.0
1001
ACAD
1000
MTEXTBEGIN
1070
    73
1070
     1
1070
    44
1040
1.0
1070
    74
1070
     0
1000
MTEXTEND
  0
POINT
  5
39AF
330
399C
100
AcDbEntity
  8
Defpoints
 62
     0
100
AcDbPoint
 10
2768.883477414693
 20
1467.854673543343
 30
0.0
  0
POINT
  5
39B0
330
399C
100
AcDbEntity
  8
Defpoints
 62
     0
100
AcDbPoint
 10
2768.883477414693
 20
-382.1453264566571
 30
0.0
  0
POINT
  5
39B1
330
399C
100
AcDbEntity
  8
Defpoints
 62
     0
100
AcDbPoint
 10
2841.16694487815
 20
-382.1453264566571
 30
0.0
  0
ENDBLK
  5
399E
330
399C
100
AcDbEntity
  8
0
100
AcDbBlockEnd
  0
ENDSEC
  0
SECTION
  2
ENTITIES
  0
LINE
  5
FB4
330
1F
100
AcDbEntity
  8
SANINDUSA
100
AcDbLine
 10
1552.150000583089
 20
781.7778197714466
 30
0.0000000001020975
 11
1552.150000583089
 21
781.7598197714466
 31
0.0000000001020975
  0
LINE
  5
FB5
330
1F
100
AcDbEntity
  8
SANINDUSA
100
AcDbLine
 10
1552.105000583089
 20
781.7778197714466
 30
0.0000000001020975
 11
1552.105000583089
 21
781.7598197714466
 31
0.0000000001020975
  0
LINE
  5
FBC
330
1F
100
AcDbEntity
  8
SANINDUSA
100
AcDbLine
 10
1551.947196037872
 20
781.7698197714466
 30
0.000000000155555
 11
1551.947196037872
 21
781.7638197714466
 31
0.000000000155555
1001
GENIUS_GENREC_14
1002
{
1000
PYDIR
1011
1551.794196037872
1021
781.7636197714466
1031
0.000000000155555
1002
}
1002
{
1000
PXDIR
1011
1551.944196037872
1021
781.7696197714466
1031
0.000000000155555
1002
}
1002
{
1000
PORI
1011
1551.794196037872
1021
781.7696197714466
1031
0.000000000155555
1002
}
1002
{
1000
PINS
1011
1551.794196037872
1021
781.7696197714466
1031
0.000000000155555
1002
}
1002
{
1000
PINS2
1011
1551.944196037872
1021
781.7638197714466
1031
0.000000000155555
1002
}
1002
{
1000
C
1070
     1
1002
}
1001
GENIUS_GENODEF_13
1002
{
1000
HIER
1070
     0
1002
}
1002
{
1000
MANEDIT
1070
     0
1002
}
1002
{
1000
NOSEL
1070
     0
1002
}
1002
{
1000
BEHIND
1070
     0
1002
}
1002
{
1000
REACTOR
1002
}
1001
GENIUS_GENOBJ-N-REC_13
1002
{
1000
OWNER
1000
GEN
1002
}
  0
LINE
  5
FBD
330
1F
100
AcDbEntity
  8
SANINDUSA
100
AcDbLine
 10
1551.945343898526
 20
781.7612197752562
 30
0.0000000001555548
 11
1551.945343898526
 21
781.7724197752562
 31
0.0000000001555548
  0
LINE
  5
FBE
330
1F
100
AcDbEntity
  8
SANINDUSA
100
AcDbLine
 10
1551.944196037872
 20
781.7631233448061
 30
0.0000000001555548
 11
1551.944196037872
 21
781.7705162057063
 31
0.0000000001555548
  0
LINE
  5
FBF
330
1F
100
AcDbEntity
  8
SANINDUSA
  6
Continuous
100
AcDbLine
 10
1551.944196037872
 20
781.7698197752562
 30
0.0000000001555548
 11
1551.944196037872
 21
781.7638197752562
 31
0.0000000001555548
  0
ARC
  5
FC0
330
1F
100
AcDbEntity
  8
SANINDUSA
100
AcDbCircle
 10
1551.946181590834
 20
781.7668197752562
 30
0.0000000001555548
 40
0.0052623076923077
100
AcDbArc
 50
261.4923271330578
 51
98.50767286694221
  0
ARC
  5
FC1
330
1F
100
AcDbEntity
  8
SANINDUSA
100
AcDbCircle
 10
1551.946181590834
 20
781.7668197752562
 30
0.0000000001555548
 40
0.0056623076923077
100
AcDbArc
 50
261.4923271330578
 51
98.50767286694221
  0
LINE
  5
FC2
330
1F
100
AcDbEntity
  8
SANINDUSA
100
AcDbLine
 10
1551.343973387504
 20
781.7698197752562
 30
0.0000000001555548
 11
1551.343973387504
 21
781.7638197752562
 31
0.0000000001555548
  0
LINE
  5
FCD
330
1F
100
AcDbEntity
  8
SANINDUSA
100
AcDbLine
 10
1551.944196037872
 20
781.7638197752562
 30
0.0000000001555548
 11
1551.343973387504
 21
781.7638197752562
 31
0.0000000001555548
  0
LINE
  5
FD5
330
1F
100
AcDbEntity
  8
SANINDUSA
100
AcDbLine
 10
1552.150000583089
 20
781.7598197714466
 30
0.0000000001020975
 11
1552.105000583089
 21
781.7598197714466
 31
0.0000000001020975
  0
LINE
  5
FD8
330
1F
100
AcDbEntity
  8
SANINDUSA
  6
Continuous
100
AcDbLine
 10
1552.259820730846
 20
781.7638197714466
 30
0.0000000001476851
 11
1551.947196037872
 21
781.7638197714466
 31
0.0000000001621895
  0
LINE
  5
FD9
330
1F
100
AcDbEntity
  8
SANINDUSA
100
AcDbLine
 10
1551.960696037872
 20
781.7604197191529
 30
0.000000000155555
 11
1551.945695992276
 21
781.7604197191529
 31
0.000000000155555
  0
LINE
  5
FDA
330
1F
100
AcDbEntity
  8
SANINDUSA
100
AcDbLine
 10
1552.012696037872
 20
781.7524197191525
 30
0.000000000155555
 11
1551.953696037872
 21
781.7524197191525
 31
0.000000000155555
  0
LINE
  5
FDB
330
1F
100
AcDbEntity
  8
SANINDUSA
100
AcDbLine
 10
1551.936807148983
 20
781.7524197191531
 30
0.000000000155555
 11
1551.878696037872
 21
781.7524197191531
 31
0.000000000155555
  0
LINE
  5
FDE
330
1F
100
AcDbEntity
  8
SANINDUSA
100
AcDbLine
 10
1551.877696037872
 20
781.7624197714466
 30
0.000000000155555
 11
1551.930696037872
 21
781.7624197714466
 31
0.000000000155555
  0
LINE
  5
FDF
330
1F
100
AcDbEntity
  8
SANINDUSA
100
AcDbLine
 10
1551.877696037872
 20
781.7636197714466
 30
0.000000000155555
 11
1551.877696037872
 21
781.7626197714466
 31
0.000000000155555
1001
GENIUS_GENREC_14
1002
{
1000
PYDIR
1011
1551.877696037872
1021
781.7636197714466
1031
0.000000000155555
1002
}
1002
{
1000
PXDIR
1011
1551.930696037872
1021
781.7626197714466
1031
0.000000000155555
1002
}
1002
{
1000
PORI
1011
1551.877696037872
1021
781.7626197714466
1031
0.000000000155555
1002
}
1002
{
1000
PINS
1011
1551.877696037872
1021
781.7626197714466
1031
0.000000000155555
1002
}
1002
{
1000
PINS2
1011
1551.930696037872
1021
781.7636197714466
1031
0.000000000155555
1002
}
1002
{
1000
C
1070
     1
1002
}
1001
GENIUS_GENODEF_13
1002
{
1000
HIER
1070
     0
1002
}
1002
{
1000
MANEDIT
1070
     0
1002
}
1002
{
1000
NOSEL
1070
     0
1002
}
1002
{
1000
BEHIND
1070
     0
1002
}
1002
{
1000
REACTOR
1002
}
1001
GENIUS_GENOBJ-N-REC_13
1002
{
1000
OWNER
1000
GEN
1002
}
  0
LINE
  5
FE0
330
1F
100
AcDbEntity
  8
SANINDUSA
100
AcDbLine
 10
1551.877696037872
 20
781.7624197714466
 30
0.000000000155555
 11
1551.877696037872
 21
781.753419719153
 31
0.000000000155555
  0
ARC
  5
FE1
330
1F
100
AcDbEntity
  8
SANINDUSA
100
AcDbCircle
 10
1551.878696037872
 20
781.753419719153
 30
0.000000000155555
 40
0.001
100
AcDbArc
 50
180.0
 51
270.0
  0
LINE
  5
FE2
330
1F
100
AcDbEntity
  8
SANINDUSA
100
AcDbLine
 10
1551.944350815948
 20
781.7612197752562
 30
0.0000000001555548
 11
1551.945343898526
 21
781.7612197752562
 31
0.0000000001555548
  0
ARC
  5
FE3
330
1F
100
AcDbEntity
  8
SANINDUSA
100
AcDbCircle
 10
1551.940537679504
 20
781.7635698354924
 30
0.0000000001555548
 40
0.0005
100
AcDbArc
 50
260.6591658917312
 51
350.6591658992158
  0
LINE
  5
FE4
330
1F
100
AcDbEntity
  8
SANINDUSA
100
AcDbLine
 10
1551.94103104965
 20
781.7634886819416
 30
0.0000000001555548
 11
1551.941064456174
 21
781.7636917757221
 31
0.0000000001555548
  0
ARC
  5
FE5
330
1F
100
AcDbEntity
  8
SANINDUSA
100
AcDbCircle
 10
1551.941804511393
 20
781.7635700453958
 30
0.0000000001555548
 40
0.00075
100
AcDbArc
 50
350.6591658992158
 51
170.6591658992158
  0
LINE
  5
FE6
330
1F
100
AcDbEntity
  8
SANINDUSA
100
AcDbLine
 10
1551.942544566613
 20
781.7634483150696
 30
0.0000000001555548
 11
1551.942503989837
 21
781.7632016299963
 31
0.0000000001555548
  0
LINE
  5
FE7
330
1F
100
AcDbEntity
  8
SANINDUSA
100
AcDbLine
 10
1551.942916206432
 20
781.7626271062993
 30
0.0000000001555548
 11
1551.943498653611
 21
781.7625313006307
 31
0.0000000001555548
  0
ARC
  5
FE8
330
1F
100
AcDbEntity
  8
SANINDUSA
100
AcDbCircle
 10
1551.942997359983
 20
781.7631204764455
 30
0.0000000001555548
 40
0.0005
100
AcDbArc
 50
170.6591658992158
 51
260.6591658917312
  0
ARC
  5
FE9
330
1F
100
AcDbEntity
  8
SANINDUSA
100
AcDbCircle
 10
1551.937743898526
 20
781.7637253480366
 30
0.0000000001555548
 40
0.0006
100
AcDbArc
 50
260.6591658917312
 51
308.8488509993004
  0
ARC
  5
FEA
330
1F
100
AcDbEntity
  8
SANINDUSA
100
AcDbCircle
 10
1551.937322139583
 20
781.7639892907774
 30
0.0000000001555548
 40
0.000175
100
AcDbArc
 50
277.9999999981044
 51
97.99999999810436
  0
ARC
  5
FEB
330
1F
100
AcDbEntity
  8
SANINDUSA
100
AcDbCircle
 10
1551.938496620192
 20
781.7627907839176
 30
0.0000000001555548
 40
0.0006000000000005
100
AcDbArc
 50
80.65916589173115
 51
128.8488509993004
  0
LINE
  5
FEC
330
1F
100
AcDbEntity
  8
SANINDUSA
100
AcDbLine
 10
1551.938594004454
 20
781.763382828093
 30
0.0000000001555548
 11
1551.940456525953
 21
781.7630764653462
 31
0.0000000001555548
  0
ARC
  5
FED
330
1F
100
AcDbEntity
  8
SANINDUSA
100
AcDbCircle
 10
1551.933931485496
 20
781.7635416945546
 30
0.0000000001555548
 40
0.0006
100
AcDbArc
 50
32.46948079364152
 51
80.65916589173115
  0
ARC
  5
FEE
330
1F
100
AcDbEntity
  8
SANINDUSA
100
AcDbCircle
 10
1551.934943898526
 20
781.7641859149034
 30
0.0000000001555548
 40
0.0006000000000005
100
AcDbArc
 50
212.4694807936415
 51
255.8991081879715
  0
ARC
  5
FEF
330
1F
100
AcDbEntity
  8
SANINDUSA
100
AcDbCircle
 10
1551.935238675441
 20
781.7633682850269
 30
0.0000000001555548
 40
0.0004999999999883
100
AcDbArc
 50
97.99999999810436
 51
151.8736260327466
  0
LINE
  5
FF0
330
1F
100
AcDbEntity
  8
SANINDUSA
100
AcDbLine
 10
1551.932343898526
 20
781.7637041409249
 30
0.0000000001555548
 11
1551.932343898526
 21
781.7644108965589
 31
0.0000000001555548
  0
LINE
  5
FF1
330
1F
100
AcDbEntity
  8
SANINDUSA
100
AcDbLine
 10
1551.932343898526
 20
781.7644108965589
 30
0.0000000001555548
 11
1551.934028869758
 21
781.7641337387301
 31
0.0000000001555548
  0
ARC
  5
FF2
330
1F
100
AcDbEntity
  8
SANINDUSA
100
AcDbCircle
 10
1551.932943898526
 20
781.7637041409249
 30
0.0000000001555548
 40
0.0006
100
AcDbArc
 50
180.0
 51
260.6591658917312
  0
LINE
  5
FF3
330
1F
100
AcDbEntity
  8
SANINDUSA
100
AcDbLine
 10
1551.930696037872
 20
781.7626197714466
 30
0.000000000155555
 11
1551.930696037872
 21
781.7636197714466
 31
0.000000000155555
1001
GENIUS_GENREC_14
1002
{
1000
PYDIR
1011
1551.877696037872
1021
781.7636197714466
1031
0.000000000155555
1002
}
1002
{
1000
PXDIR
1011
1551.930696037872
1021
781.7626197714466
1031
0.000000000155555
1002
}
1002
{
1000
PORI
1011
1551.877696037872
1021
781.7626197714466
1031
0.000000000155555
1002
}
1002
{
1000
PINS
1011
1551.877696037872
1021
781.7626197714466
1031
0.000000000155555
1002
}
1002
{
1000
PINS2
1011
1551.930696037872
1021
781.7636197714466
1031
0.000000000155555
1002
}
1002
{
1000
C
1070
     1
1002
}
1001
GENIUS_GENODEF_13
1002
{
1000
HIER
1070
     0
1002
}
1002
{
1000
MANEDIT
1070
     0
1002
}
1002
{
1000
NOSEL
1070
     0
1002
}
1002
{
1000
BEHIND
1070
     0
1002
}
1002
{
1000
REACTOR
1002
}
1001
GENIUS_GENOBJ-N-REC_13
1002
{
1000
OWNER
1000
GEN
1002
}
  0
LINE
  5
FF4
330
1F
100
AcDbEntity
  8
SANINDUSA
100
AcDbLine
 10
1551.935169088891
 20
781.7638634190611
 30
0.0000000001555548
 11
1551.937297784291
 21
781.7641625876895
 31
0.0000000001555548
  0
LINE
  5
FF5
330
1F
100
AcDbEntity
  8
SANINDUSA
100
AcDbLine
 10
1551.937346494876
 20
781.7638159938654
 30
0.0000000001555548
 11
1551.93527016652
 21
781.7635241849452
 31
0.0000000001555548
  0
LINE
  5
FF6
330
1F
100
AcDbEntity
  8
SANINDUSA
100
AcDbLine
 10
1551.93527016652
 20
781.7635241849452
 30
0.0000000001555548
 11
1551.937646514265
 21
781.7631333038612
 31
0.0000000001555548
  0
LINE
  5
FF7
330
1F
100
AcDbEntity
  8
SANINDUSA
100
AcDbLine
 10
1551.930696037872
 20
781.7624197714466
 30
0.000000000155555
 11
1551.930696037872
 21
781.7604197714467
 31
0.000000000155555
  0
LINE
  5
FF8
330
1F
100
AcDbEntity
  8
SANINDUSA
100
AcDbLine
 10
1551.944350815948
 20
781.7612197752562
 30
0.0000000001555548
 11
1551.932846514265
 21
781.7631120967494
 31
0.0000000001555548
  0
LINE
  5
FF9
330
1F
100
AcDbEntity
  8
SANINDUSA
100
AcDbLine
 10
1551.930696037872
 20
781.7604197714467
 30
0.000000000155555
 11
1551.945696037872
 21
781.7604197191529
 31
0.000000000155555
  0
ARC
  5
FFA
330
1F
100
AcDbEntity
  8
SANINDUSA
100
AcDbCircle
 10
1551.943596037872
 20
781.7631233448061
 30
0.0000000001555548
 40
0.0006
100
AcDbArc
 50
260.6591658917312
 51
0.0
  0
LINE
  5
FFB
330
1F
100
AcDbEntity
  8
SANINDUSA
100
AcDbLine
 10
1551.954584926761
 20
781.7524197191525
 30
0.000000000155555
 11
1551.954584926761
 21
781.7604197191529
 31
0.000000000155555
  0
LINE
  5
FFC
330
1F
100
AcDbEntity
  8
SANINDUSA
100
AcDbLine
 10
1551.936807148983
 20
781.7524197191531
 30
0.000000000155555
 11
1551.936807148983
 21
781.7604197714467
 31
0.000000000155555
  0
CIRCLE
  5
FFD
330
1F
100
AcDbEntity
  8
SANINDUSA
100
AcDbCircle
 10
1551.945696037872
 20
781.7524197191531
 30
0.000000000155555
 40
0.008
  0
LINE
  5
1000
330
1F
100
AcDbEntity
  8
SANINDUSA
100
AcDbLine
 10
1551.960696037872
 20
781.7624197191529
 30
0.000000000155555
 11
1552.013696037872
 21
781.7624197191529
 31
0.000000000155555
  0
LINE
  5
1001
330
1F
100
AcDbEntity
  8
SANINDUSA
100
AcDbLine
 10
1551.960696037872
 20
781.7625197714465
 30
0.000000000155555
 11
1551.960696037872
 21
781.7635197714467
 31
0.000000000155555
1001
GENIUS_GENREC_14
1002
{
1000
PYDIR
1011
1551.877696037872
1021
781.7635197714467
1031
0.000000000155555
1002
}
1002
{
1000
PXDIR
1011
1551.930696037872
1021
781.7625197714465
1031
0.000000000155555
1002
}
1002
{
1000
PORI
1011
1551.877696037872
1021
781.7625197714465
1031
0.000000000155555
1002
}
1002
{
1000
PINS
1011
1551.877696037872
1021
781.7625197714465
1031
0.000000000155555
1002
}
1002
{
1000
PINS2
1011
1551.930696037872
1021
781.7635197714467
1031
0.000000000155555
1002
}
1002
{
1000
C
1070
     1
1002
}
1001
GENIUS_GENODEF_13
1002
{
1000
HIER
1070
     0
1002
}
1002
{
1000
MANEDIT
1070
     0
1002
}
1002
{
1000
NOSEL
1070
     0
1002
}
1002
{
1000
BEHIND
1070
     0
1002
}
1002
{
1000
REACTOR
1002
}
1001
GENIUS_GENOBJ-N-REC_13
1002
{
1000
OWNER
1000
GEN
1002
}
  0
LINE
  5
1002
330
1F
100
AcDbEntity
  8
SANINDUSA
100
AcDbLine
 10
1551.960696037872
 20
781.7604197191529
 30
0.000000000155555
 11
1551.960696037872
 21
781.7624197191529
 31
0.000000000155555
  0
LINE
  5
1003
330
1F
100
AcDbEntity
  8
SANINDUSA
100
AcDbLine
 10
1552.013696037872
 20
781.7635197714467
 30
0.000000000155555
 11
1552.013696037872
 21
781.7625197714465
 31
0.000000000155555
1001
GENIUS_GENREC_14
1002
{
1000
PYDIR
1011
1551.877696037872
1021
781.7635197714467
1031
0.000000000155555
1002
}
1002
{
1000
PXDIR
1011
1551.930696037872
1021
781.7625197714465
1031
0.000000000155555
1002
}
1002
{
1000
PORI
1011
1551.877696037872
1021
781.7625197714465
1031
0.000000000155555
1002
}
1002
{
1000
PINS
1011
1551.877696037872
1021
781.7625197714465
1031
0.000000000155555
1002
}
1002
{
1000
PINS2
1011
1551.930696037872
1021
781.7635197714467
1031
0.000000000155555
1002
}
1002
{
1000
C
1070
     1
1002
}
1001
GENIUS_GENODEF_13
1002
{
1000
HIER
1070
     0
1002
}
1002
{
1000
MANEDIT
1070
     0
1002
}
1002
{
1000
NOSEL
1070
     0
1002
}
1002
{
1000
BEHIND
1070
     0
1002
}
1002
{
1000
REACTOR
1002
}
1001
GENIUS_GENOBJ-N-REC_13
1002
{
1000
OWNER
1000
GEN
1002
}
  0
LINE
  5
1004
330
1F
100
AcDbEntity
  8
SANINDUSA
100
AcDbLine
 10
1552.013696037872
 20
781.7624197191529
 30
0.000000000155555
 11
1552.013696037872
 21
781.7534197191524
 31
0.000000000155555
  0
ARC
  5
1005
330
1F
100
AcDbEntity
  8
SANINDUSA
100
AcDbCircle
 10
1552.012696037872
 20
781.7534197191524
 30
0.000000000155555
 40
0.001
100
AcDbArc
 50
270.0
 51
0.0
  0
LINE
  5
1007
330
1F
100
AcDbEntity
  8
SANINDUSA
100
AcDbLine
 10
1551.944196037872
 20
781.7698197752562
 30
0.0000000001555548
 11
1551.343973387504
 21
781.7698197752562
 31
0.0000000001555548
  0
LINE
  5
1017
330
1F
100
AcDbEntity
  8
SANINDUSA
100
AcDbLine
 10
1551.379845418306
 20
782.2093666906811
 30
0.0
 11
1551.585967045022
 21
782.4154883173969
 31
0.0
  0
LINE
  5
1018
330
1F
100
AcDbEntity
  8
SANINDUSA
100
AcDbLine
 10
1551.389037806461
 20
782.2001743025256
 30
0.0
 11
1551.595159433177
 21
782.4062959292415
 31
0.0
  0
LINE
  5
101D
330
1F
100
AcDbEntity
  8
SANINDUSA
100
AcDbLine
 10
1551.360753535214
 20
782.1720824194336
 30
0.0
 11
1551.343503535214
 21
782.1720824194336
 31
0.0
  0
LINE
  5
101E
330
1F
100
AcDbEntity
  8
SANINDUSA
100
AcDbLine
 10
1551.360753535214
 20
782.1900824194336
 30
0.0
 11
1551.343503535214
 21
782.1900824194336
 31
0.0
  0
LINE
  5
1023
330
1F
100
AcDbEntity
  8
SANINDUSA
100
AcDbLine
 10
1551.343503535214
 20
782.2035824194336
 30
0.0
 11
1551.343503535214
 21
782.1585824194336
 31
0.0
  0
LINE
  5
1024
330
1F
100
AcDbEntity
  8
SANINDUSA
100
AcDbLine
 10
1551.325503535214
 20
782.2035824194336
 30
0.0
 11
1551.325503535214
 21
782.1585824194336
 31
0.0
  0
LINE
  5
1025
330
1F
100
AcDbEntity
  8
SANINDUSA
100
AcDbLine
 10
1551.343503535214
 20
782.1585824194336
 30
0.0
 11
1551.325503535214
 21
782.1585824194336
 31
0.0
  0
LINE
  5
1026
330
1F
100
AcDbEntity
  8
SANINDUSA
100
AcDbLine
 10
1551.343503535214
 20
782.2035824194336
 30
0.0
 11
1551.325503535214
 21
782.2035824194336
 31
0.0
  0
LINE
  5
1059
330
1F
100
AcDbEntity
  8
SANINDUSA
100
AcDbLine
 10
1551.390098466633
 20
782.1991136423538
 30
0.0
 11
1551.380198971696
 21
782.1892141474172
 31
0.0
  0
LINE
  5
105A
330
1F
100
AcDbEntity
  8
SANINDUSA
100
AcDbLine
 10
1551.378784758134
 20
782.2104273508529
 30
0.0
 11
1551.390098466633
 21
782.1991136423538
 31
0.0
  0
LINE
  5
105B
330
1F
100
AcDbEntity
  8
SANINDUSA
100
AcDbLine
 10
1551.378784758134
 20
782.1877999338548
 30
0.0
 11
1551.369325865411
 21
782.1783410411316
 31
0.0
  0
LINE
  5
105C
330
1F
100
AcDbEntity
  8
SANINDUSA
100
AcDbLine
 10
1551.367471049635
 20
782.1991136423538
 30
0.0
 11
1551.378784758134
 21
782.1877999338548
 31
0.0
  0
LINE
  5
105D
330
1F
100
AcDbEntity
  8
SANINDUSA
100
AcDbLine
 10
1551.367471049635
 20
782.1991136423538
 30
0.0
 11
1551.358439826715
 21
782.1900824194336
 31
0.0
  0
LINE
  5
105E
330
1F
100
AcDbEntity
  8
SANINDUSA
100
AcDbLine
 10
1551.368885263197
 20
782.2005278559162
 30
0.0
 11
1551.380198971696
 21
782.1892141474172
 31
0.0
  0
LINE
  5
105F
330
1F
100
AcDbEntity
  8
SANINDUSA
100
AcDbLine
 10
1551.377016991181
 20
782.1895677008078
 30
0.0
 11
1551.378431204743
 21
782.1909819143702
 31
0.0
  0
LINE
  5
1060
330
1F
100
AcDbEntity
  8
SANINDUSA
100
AcDbLine
 10
1551.369238816588
 20
782.1973458754008
 30
0.0
 11
1551.370653030151
 21
782.1987600889632
 31
0.0
  0
LINE
  5
1061
330
1F
100
AcDbEntity
  8
SANINDUSA
100
AcDbLine
 10
1551.378784758134
 20
782.2104273508529
 30
0.0
 11
1551.368885263197
 21
782.2005278559162
 31
0.0
  0
LINE
  5
1062
330
1F
100
AcDbEntity
  8
SANINDUSA
100
AcDbLine
 10
1551.357783535214
 20
782.1810824194336
 30
0.0
 11
1551.359510479098
 21
782.1814217930826
 31
0.0
  0
LINE
  5
1063
330
1F
100
AcDbEntity
  8
SANINDUSA
100
AcDbLine
 10
1551.357783535214
 20
782.1810824194336
 30
0.0
 11
1551.359849852748
 21
782.1810824194336
 31
0.0
  0
LINE
  5
1064
330
1F
100
AcDbEntity
  8
SANINDUSA
100
AcDbLine
 10
1551.359510479098
 20
782.1814217930826
 30
0.0
 11
1551.359849852748
 21
782.1810824194336
 31
0.0
  0
LINE
  5
1065
330
1F
100
AcDbEntity
  8
SANINDUSA
100
AcDbLine
 10
1551.359510479098
 20
782.1807430457846
 30
0.0
 11
1551.357783535214
 21
782.1810824194336
 31
0.0
  0
LINE
  5
1066
330
1F
100
AcDbEntity
  8
SANINDUSA
100
AcDbLine
 10
1551.359849852748
 20
782.1810824194336
 30
0.0
 11
1551.359510479098
 21
782.1807430457846
 31
0.0
  0
LINE
  5
1067
330
1F
100
AcDbEntity
  8
SANINDUSA
100
AcDbLine
 10
1551.363723535214
 20
782.1810824194336
 30
0.0
 11
1551.361996591329
 21
782.1807430457846
 31
0.0
  0
LINE
  5
1068
330
1F
100
AcDbEntity
  8
SANINDUSA
100
AcDbLine
 10
1551.363723535214
 20
782.1810824194336
 30
0.0
 11
1551.36165721768
 21
782.1810824194336
 31
0.0
  0
LINE
  5
1069
330
1F
100
AcDbEntity
  8
SANINDUSA
100
AcDbLine
 10
1551.361996591329
 20
782.1807430457846
 30
0.0
 11
1551.36165721768
 21
782.1810824194336
 31
0.0
  0
LINE
  5
106A
330
1F
100
AcDbEntity
  8
SANINDUSA
100
AcDbLine
 10
1551.361996591329
 20
782.1814217930826
 30
0.0
 11
1551.363723535214
 21
782.1810824194336
 31
0.0
  0
LINE
  5
106B
330
1F
100
AcDbEntity
  8
SANINDUSA
100
AcDbLine
 10
1551.36165721768
 20
782.1810824194336
 30
0.0
 11
1551.361996591329
 21
782.1814217930826
 31
0.0
  0
LINE
  5
106C
330
1F
100
AcDbEntity
  8
SANINDUSA
100
AcDbLine
 10
1551.360753535214
 20
782.1781124194337
 30
0.0
 11
1551.360414161565
 21
782.1798393633182
 31
0.0
  0
LINE
  5
106D
330
1F
100
AcDbEntity
  8
SANINDUSA
100
AcDbLine
 10
1551.360753535214
 20
782.1781124194337
 30
0.0
 11
1551.360753535214
 21
782.1801787369673
 31
0.0
  0
LINE
  5
106E
330
1F
100
AcDbEntity
  8
SANINDUSA
100
AcDbLine
 10
1551.360414161565
 20
782.1798393633182
 30
0.0
 11
1551.360753535214
 21
782.1801787369673
 31
0.0
  0
LINE
  5
106F
330
1F
100
AcDbEntity
  8
SANINDUSA
100
AcDbLine
 10
1551.361092908863
 20
782.1798393633182
 30
0.0
 11
1551.360753535214
 21
782.1781124194337
 31
0.0
  0
LINE
  5
1070
330
1F
100
AcDbEntity
  8
SANINDUSA
100
AcDbLine
 10
1551.360753535214
 20
782.1801787369673
 30
0.0
 11
1551.361092908863
 21
782.1798393633182
 31
0.0
  0
LINE
  5
1071
330
1F
100
AcDbEntity
  8
SANINDUSA
100
AcDbLine
 10
1551.360753535214
 20
782.1840524194336
 30
0.0
 11
1551.361092908863
 21
782.1823254755489
 31
0.0
  0
LINE
  5
1072
330
1F
100
AcDbEntity
  8
SANINDUSA
100
AcDbLine
 10
1551.360753535214
 20
782.1840524194336
 30
0.0
 11
1551.360753535214
 21
782.1819861018999
 31
0.0
  0
LINE
  5
1073
330
1F
100
AcDbEntity
  8
SANINDUSA
100
AcDbLine
 10
1551.361092908863
 20
782.1823254755489
 30
0.0
 11
1551.360753535214
 21
782.1819861018999
 31
0.0
  0
LINE
  5
1074
330
1F
100
AcDbEntity
  8
SANINDUSA
100
AcDbLine
 10
1551.360414161565
 20
782.1823254755489
 30
0.0
 11
1551.360753535214
 21
782.1840524194336
 31
0.0
  0
LINE
  5
1075
330
1F
100
AcDbEntity
  8
SANINDUSA
100
AcDbLine
 10
1551.360753535214
 20
782.1819861018999
 30
0.0
 11
1551.360414161565
 21
782.1823254755489
 31
0.0
  0
LINE
  5
1076
330
1F
100
AcDbEntity
  8
SANINDUSA
100
AcDbLine
 10
1551.359510479098
 20
782.1814217930826
 30
0.0
 11
1551.358201586841
 21
782.1827306853405
 31
0.0
  0
LINE
  5
1077
330
1F
100
AcDbEntity
  8
SANINDUSA
100
AcDbLine
 10
1551.361996591329
 20
782.1807430457846
 30
0.0
 11
1551.363305483587
 21
782.1794341535267
 31
0.0
  0
LINE
  5
1078
330
1F
100
AcDbEntity
  8
SANINDUSA
100
AcDbLine
 10
1551.360414161565
 20
782.1798393633182
 30
0.0
 11
1551.359105269307
 21
782.1785304710602
 31
0.0
  0
LINE
  5
1079
330
1F
100
AcDbEntity
  8
SANINDUSA
100
AcDbLine
 10
1551.361092908863
 20
782.1823254755489
 30
0.0
 11
1551.362401801121
 21
782.1836343678069
 31
0.0
  0
LINE
  5
107A
330
1F
100
AcDbEntity
  8
SANINDUSA
100
AcDbLine
 10
1551.360753535214
 20
782.1801787369673
 30
0.0
 11
1551.359849852748
 21
782.1810824194336
 31
0.0
  0
LINE
  5
107B
330
1F
100
AcDbEntity
  8
SANINDUSA
100
AcDbLine
 10
1551.362401801121
 20
782.1785304710602
 30
0.0
 11
1551.361092908863
 21
782.1798393633182
 31
0.0
  0
LINE
  5
107C
330
1F
100
AcDbEntity
  8
SANINDUSA
100
AcDbLine
 10
1551.360753535214
 20
782.1819861018999
 30
0.0
 11
1551.36165721768
 21
782.1810824194336
 31
0.0
  0
LINE
  5
107D
330
1F
100
AcDbEntity
  8
SANINDUSA
100
AcDbLine
 10
1551.359105269307
 20
782.1836343678069
 30
0.0
 11
1551.360414161565
 21
782.1823254755489
 31
0.0
  0
LINE
  5
107E
330
1F
100
AcDbEntity
  8
SANINDUSA
100
AcDbLine
 10
1551.360753535214
 20
782.1810824194336
 30
0.0
 11
1551.360753535214
 21
782.1801787369673
 31
0.0
  0
LINE
  5
107F
330
1F
100
AcDbEntity
  8
SANINDUSA
100
AcDbLine
 10
1551.36030169398
 20
782.1806305782004
 30
0.0
 11
1551.360753535214
 21
782.1810824194336
 31
0.0
  0
LINE
  5
1080
330
1F
100
AcDbEntity
  8
SANINDUSA
100
AcDbLine
 10
1551.363305483587
 20
782.1794341535267
 30
0.0
 11
1551.362401801121
 21
782.1785304710602
 31
0.0
  0
LINE
  5
1081
330
1F
100
AcDbEntity
  8
SANINDUSA
100
AcDbLine
 10
1551.360753535214
 20
782.1801787369673
 30
0.0
 11
1551.36165721768
 21
782.1810824194336
 31
0.0
  0
LINE
  5
1082
330
1F
100
AcDbEntity
  8
SANINDUSA
100
AcDbLine
 10
1551.36165721768
 20
782.1810824194336
 30
0.0
 11
1551.360753535214
 21
782.1810824194336
 31
0.0
  0
LINE
  5
1083
330
1F
100
AcDbEntity
  8
SANINDUSA
100
AcDbLine
 10
1551.360753535214
 20
782.1810824194336
 30
0.0
 11
1551.361205376447
 21
782.1815342606668
 31
0.0
  0
LINE
  5
1084
330
1F
100
AcDbEntity
  8
SANINDUSA
100
AcDbLine
 10
1551.359849852748
 20
782.1810824194336
 30
0.0
 11
1551.360753535214
 21
782.1810824194336
 31
0.0
  0
LINE
  5
1085
330
1F
100
AcDbEntity
  8
SANINDUSA
100
AcDbLine
 10
1551.360753535214
 20
782.1810824194336
 30
0.0
 11
1551.360753535214
 21
782.1819861018999
 31
0.0
  0
LINE
  5
1086
330
1F
100
AcDbEntity
  8
SANINDUSA
100
AcDbLine
 10
1551.358201586841
 20
782.1827306853405
 30
0.0
 11
1551.359105269307
 21
782.1836343678069
 31
0.0
  0
LINE
  5
1087
330
1F
100
AcDbEntity
  8
SANINDUSA
100
AcDbLine
 10
1551.360753535214
 20
782.1819861018999
 30
0.0
 11
1551.359849852748
 21
782.1810824194336
 31
0.0
  0
LINE
  5
1088
330
1F
100
AcDbEntity
  8
SANINDUSA
100
AcDbLine
 10
1551.363305483587
 20
782.1827306853405
 30
0.0
 11
1551.361996591329
 21
782.1814217930826
 31
0.0
  0
LINE
  5
1089
330
1F
100
AcDbEntity
  8
SANINDUSA
100
AcDbLine
 10
1551.360753535214
 20
782.1810824194336
 30
0.0
 11
1551.36030169398
 21
782.1815342606668
 31
0.0
  0
LINE
  5
108A
330
1F
100
AcDbEntity
  8
SANINDUSA
100
AcDbLine
 10
1551.362401801121
 20
782.1836343678069
 30
0.0
 11
1551.363305483587
 21
782.1827306853405
 31
0.0
  0
LINE
  5
108B
330
1F
100
AcDbEntity
  8
SANINDUSA
100
AcDbLine
 10
1551.361205376447
 20
782.1806305782004
 30
0.0
 11
1551.360753535214
 21
782.1810824194336
 31
0.0
  0
LINE
  5
108C
330
1F
100
AcDbEntity
  8
SANINDUSA
100
AcDbLine
 10
1551.358201586841
 20
782.1794341535267
 30
0.0
 11
1551.359510479098
 21
782.1807430457846
 31
0.0
  0
LINE
  5
108D
330
1F
100
AcDbEntity
  8
SANINDUSA
100
AcDbLine
 10
1551.359105269307
 20
782.1785304710602
 30
0.0
 11
1551.358201586841
 21
782.1794341535267
 31
0.0
  0
CIRCLE
  5
108E
330
1F
100
AcDbEntity
  8
SANINDUSA
100
AcDbCircle
 10
1551.360753535214
 20
782.1810824194336
 30
0.0
 40
0.005085
  0
LINE
  5
108F
330
1F
100
AcDbEntity
  8
SANINDUSA
100
AcDbLine
 10
1551.362521302167
 20
782.1941638948856
 30
0.0
 11
1551.373835010666
 21
782.1828501863865
 31
0.0
  0
ARC
  5
1090
330
1F
100
AcDbEntity
  8
SANINDUSA
100
AcDbCircle
 10
1551.360753535214
 20
782.1810824194336
 30
0.0
 40
0.009
100
AcDbArc
 50
270.0
 51
90.0
  0
ARC
  5
113C
330
1F
100
AcDbEntity
  8
SANINDUSA
100
AcDbCircle
 10
1551.60293760777
 20
782.42326649199
 30
0.0
 40
0.009
100
AcDbArc
 50
180.0
 51
0.0
  0
CIRCLE
  5
113D
330
1F
100
AcDbEntity
  8
SANINDUSA
100
AcDbCircle
 10
1551.60293760777
 20
782.42326649199
 30
0.0
 40
0.005085
  0
LINE
  5
113E
330
1F
100
AcDbEntity
  8
SANINDUSA
100
AcDbLine
 10
1551.61593760777
 20
782.44051649199
 30
0.0
 11
1551.58993760777
 21
782.44051649199
 31
0.0
  0
LINE
  5
113F
330
1F
100
AcDbEntity
  8
SANINDUSA
100
AcDbLine
 10
1551.58793760777
 20
782.44551649199
 30
0.0
 11
1551.61793760777
 21
782.44551649199
 31
0.0
  0
LINE
  5
1141
330
1F
100
AcDbEntity
  8
SANINDUSA
100
AcDbLine
 10
1551.589856132318
 20
782.421498725037
 30
0.0
 11
1551.601169840817
 21
782.4101850165381
 31
0.0
  0
LINE
  5
1142
330
1F
100
AcDbEntity
  8
SANINDUSA
100
AcDbLine
 10
1551.596220093349
 20
782.4052352690697
 30
0.0
 11
1551.601169840817
 21
782.4101850165381
 31
0.0
  0
LINE
  5
1143
330
1F
100
AcDbEntity
  8
SANINDUSA
100
AcDbLine
 10
1551.58490638485
 20
782.4165489775687
 30
0.0
 11
1551.589856132318
 21
782.421498725037
 31
0.0
  0
LINE
  5
1144
330
1F
100
AcDbEntity
  8
SANINDUSA
100
AcDbLine
 10
1551.58490638485
 20
782.4165489775687
 30
0.0
 11
1551.596220093349
 21
782.4052352690697
 31
0.0
  0
LINE
  5
1145
330
1F
100
AcDbEntity
  8
SANINDUSA
100
AcDbLine
 10
1551.59393760777
 20
782.42326649199
 30
0.0
 11
1551.59393760777
 21
782.44051649199
 31
0.0
  0
LINE
  5
1146
330
1F
100
AcDbEntity
  8
SANINDUSA
100
AcDbLine
 10
1551.589856132318
 20
782.421498725037
 30
0.0
 11
1551.59393760777
 21
782.425580200489
 31
0.0
  0
ARC
  5
1147
330
1F
100
AcDbEntity
  8
SANINDUSA
100
AcDbCircle
 10
1551.58993760777
 20
782.4425164919899
 30
0.0
 40
0.002
100
AcDbArc
 50
180.0
 51
270.0
  0
LINE
  5
1148
330
1F
100
AcDbEntity
  8
SANINDUSA
100
AcDbLine
 10
1551.58793760777
 20
782.4425164919899
 30
0.0
 11
1551.58793760777
 21
782.44551649199
 31
0.0
  0
LINE
  5
1149
330
1F
100
AcDbEntity
  8
SANINDUSA
100
AcDbLine
 10
1551.601169840817
 20
782.4101850165381
 30
0.0
 11
1551.605678986072
 21
782.4146941617931
 31
0.0
  0
LINE
  5
114A
330
1F
100
AcDbEntity
  8
SANINDUSA
100
AcDbLine
 10
1551.60590760777
 20
782.42262749199
 30
0.0
 11
1551.60590760777
 21
782.42390549199
 31
0.0
  0
LINE
  5
114B
330
1F
100
AcDbEntity
  8
SANINDUSA
100
AcDbLine
 10
1551.60357660777
 20
782.42623649199
 30
0.0
 11
1551.60229860777
 21
782.42623649199
 31
0.0
  0
LINE
  5
114C
330
1F
100
AcDbEntity
  8
SANINDUSA
100
AcDbLine
 10
1551.60229860777
 20
782.42623649199
 30
0.0
 11
1551.60229860777
 21
782.4243854388071
 31
0.0
  0
LINE
  5
114D
330
1F
100
AcDbEntity
  8
SANINDUSA
100
AcDbLine
 10
1551.60357660777
 20
782.42326649199
 30
0.0
 11
1551.60293760777
 21
782.42326649199
 31
0.0
  0
LINE
  5
114E
330
1F
100
AcDbEntity
  8
SANINDUSA
100
AcDbLine
 10
1551.60229860777
 20
782.42029649199
 30
0.0
 11
1551.60357660777
 21
782.42029649199
 31
0.0
  0
LINE
  5
114F
330
1F
100
AcDbEntity
  8
SANINDUSA
100
AcDbLine
 10
1551.60293760777
 20
782.42326649199
 30
0.0
 11
1551.60229860777
 21
782.42326649199
 31
0.0
  0
LINE
  5
1150
330
1F
100
AcDbEntity
  8
SANINDUSA
100
AcDbLine
 10
1551.60357660777
 20
782.42029649199
 30
0.0
 11
1551.60357660777
 21
782.422147545173
 31
0.0
  0
LINE
  5
1151
330
1F
100
AcDbEntity
  8
SANINDUSA
100
AcDbLine
 10
1551.60229860777
 20
782.42262749199
 30
0.0
 11
1551.60229860777
 21
782.42390549199
 31
0.0
  0
LINE
  5
1152
330
1F
100
AcDbEntity
  8
SANINDUSA
100
AcDbLine
 10
1551.59996760777
 20
782.42390549199
 30
0.0
 11
1551.59996760777
 21
782.42262749199
 31
0.0
  0
LINE
  5
1153
330
1F
100
AcDbEntity
  8
SANINDUSA
100
AcDbLine
 10
1551.60293760777
 20
782.42326649199
 30
0.0
 11
1551.60229860777
 21
782.42262749199
 31
0.0
  0
LINE
  5
1154
330
1F
100
AcDbEntity
  8
SANINDUSA
100
AcDbLine
 10
1551.60229860777
 20
782.42390549199
 30
0.0
 11
1551.60293760777
 21
782.42326649199
 31
0.0
  0
LINE
  5
1155
330
1F
100
AcDbEntity
  8
SANINDUSA
100
AcDbLine
 10
1551.60293760777
 20
782.42326649199
 30
0.0
 11
1551.60293760777
 21
782.42262749199
 31
0.0
  0
LINE
  5
1156
330
1F
100
AcDbEntity
  8
SANINDUSA
100
AcDbLine
 10
1551.60357660777
 20
782.42262749199
 30
0.0
 11
1551.60293760777
 21
782.42326649199
 31
0.0
  0
LINE
  5
1157
330
1F
100
AcDbEntity
  8
SANINDUSA
100
AcDbLine
 10
1551.60357660777
 20
782.42390549199
 30
0.0
 11
1551.60357660777
 21
782.42262749199
 31
0.0
  0
LINE
  5
1158
330
1F
100
AcDbEntity
  8
SANINDUSA
100
AcDbLine
 10
1551.60293760777
 20
782.42390549199
 30
0.0
 11
1551.60293760777
 21
782.42326649199
 31
0.0
  0
LINE
  5
1159
330
1F
100
AcDbEntity
  8
SANINDUSA
100
AcDbLine
 10
1551.60293760777
 20
782.42326649199
 30
0.0
 11
1551.60357660777
 21
782.42390549199
 31
0.0
  0
LINE
  5
115A
330
1F
100
AcDbEntity
  8
SANINDUSA
100
AcDbLine
 10
1551.59996760777
 20
782.42262749199
 30
0.0
 11
1551.601818660953
 21
782.42262749199
 31
0.0
  0
LINE
  5
115B
330
1F
100
AcDbEntity
  8
SANINDUSA
100
AcDbLine
 10
1551.60229860777
 20
782.42262749199
 30
0.0
 11
1551.60357660777
 21
782.42262749199
 31
0.0
  0
LINE
  5
115C
330
1F
100
AcDbEntity
  8
SANINDUSA
100
AcDbLine
 10
1551.60357660777
 20
782.42390549199
 30
0.0
 11
1551.60229860777
 21
782.42390549199
 31
0.0
  0
LINE
  5
115D
330
1F
100
AcDbEntity
  8
SANINDUSA
100
AcDbLine
 10
1551.60229860777
 20
782.422147545173
 30
0.0
 11
1551.60229860777
 21
782.42029649199
 31
0.0
  0
LINE
  5
115E
330
1F
100
AcDbEntity
  8
SANINDUSA
100
AcDbLine
 10
1551.60357660777
 20
782.4243854388071
 30
0.0
 11
1551.60357660777
 21
782.42623649199
 31
0.0
  0
LINE
  5
115F
330
1F
100
AcDbEntity
  8
SANINDUSA
100
AcDbLine
 10
1551.601818660953
 20
782.42390549199
 30
0.0
 11
1551.59996760777
 21
782.42390549199
 31
0.0
  0
LINE
  5
1160
330
1F
100
AcDbEntity
  8
SANINDUSA
100
AcDbLine
 10
1551.60229860777
 20
782.42262749199
 30
0.0
 11
1551.601818660953
 21
782.42262749199
 31
0.0
  0
LINE
  5
1161
330
1F
100
AcDbEntity
  8
SANINDUSA
100
AcDbLine
 10
1551.601818660953
 20
782.42262749199
 30
0.0
 11
1551.60083750063
 21
782.4211663848499
 31
0.0
  0
LINE
  5
1162
330
1F
100
AcDbEntity
  8
SANINDUSA
100
AcDbLine
 10
1551.60229860777
 20
782.422147545173
 30
0.0
 11
1551.60229860777
 21
782.42262749199
 31
0.0
  0
LINE
  5
1163
330
1F
100
AcDbEntity
  8
SANINDUSA
100
AcDbLine
 10
1551.60083750063
 20
782.4211663848499
 30
0.0
 11
1551.60229860777
 21
782.42262749199
 31
0.0
  0
LINE
  5
1164
330
1F
100
AcDbEntity
  8
SANINDUSA
100
AcDbLine
 10
1551.60083750063
 20
782.4211663848499
 30
0.0
 11
1551.60229860777
 21
782.422147545173
 31
0.0
  0
LINE
  5
1165
330
1F
100
AcDbEntity
  8
SANINDUSA
100
AcDbLine
 10
1551.60357660777
 20
782.42390549199
 30
0.0
 11
1551.604056554587
 21
782.42390549199
 31
0.0
  0
LINE
  5
1166
330
1F
100
AcDbEntity
  8
SANINDUSA
100
AcDbLine
 10
1551.60357660777
 20
782.4243854388071
 30
0.0
 11
1551.60357660777
 21
782.42390549199
 31
0.0
  0
LINE
  5
1167
330
1F
100
AcDbEntity
  8
SANINDUSA
100
AcDbLine
 10
1551.60357660777
 20
782.42262749199
 30
0.0
 11
1551.60357660777
 21
782.422147545173
 31
0.0
  0
LINE
  5
1168
330
1F
100
AcDbEntity
  8
SANINDUSA
100
AcDbLine
 10
1551.604056554587
 20
782.42262749199
 30
0.0
 11
1551.60357660777
 21
782.42262749199
 31
0.0
  0
LINE
  5
1169
330
1F
100
AcDbEntity
  8
SANINDUSA
100
AcDbLine
 10
1551.60229860777
 20
782.42390549199
 30
0.0
 11
1551.60229860777
 21
782.4243854388071
 31
0.0
  0
LINE
  5
116A
330
1F
100
AcDbEntity
  8
SANINDUSA
100
AcDbLine
 10
1551.60229860777
 20
782.4243854388071
 30
0.0
 11
1551.60083750063
 21
782.4253665991301
 31
0.0
  0
LINE
  5
116B
330
1F
100
AcDbEntity
  8
SANINDUSA
100
AcDbLine
 10
1551.601818660953
 20
782.42390549199
 30
0.0
 11
1551.60229860777
 21
782.42390549199
 31
0.0
  0
LINE
  5
116C
330
1F
100
AcDbEntity
  8
SANINDUSA
100
AcDbLine
 10
1551.60083750063
 20
782.4253665991301
 30
0.0
 11
1551.60229860777
 21
782.42390549199
 31
0.0
  0
LINE
  5
116D
330
1F
100
AcDbEntity
  8
SANINDUSA
100
AcDbLine
 10
1551.60083750063
 20
782.4253665991301
 30
0.0
 11
1551.601818660953
 21
782.42390549199
 31
0.0
  0
LINE
  5
116E
330
1F
100
AcDbEntity
  8
SANINDUSA
100
AcDbLine
 10
1551.60590760777
 20
782.42390549199
 30
0.0
 11
1551.604056554587
 21
782.42390549199
 31
0.0
  0
LINE
  5
116F
330
1F
100
AcDbEntity
  8
SANINDUSA
100
AcDbLine
 10
1551.604056554587
 20
782.42262749199
 30
0.0
 11
1551.60590760777
 21
782.42262749199
 31
0.0
  0
LINE
  5
1170
330
1F
100
AcDbEntity
  8
SANINDUSA
100
AcDbLine
 10
1551.604056554587
 20
782.42390549199
 30
0.0
 11
1551.60503771491
 21
782.4253665991301
 31
0.0
  0
LINE
  5
1171
330
1F
100
AcDbEntity
  8
SANINDUSA
100
AcDbLine
 10
1551.60503771491
 20
782.4253665991301
 30
0.0
 11
1551.60357660777
 21
782.42390549199
 31
0.0
  0
LINE
  5
1172
330
1F
100
AcDbEntity
  8
SANINDUSA
100
AcDbLine
 10
1551.60503771491
 20
782.4253665991301
 30
0.0
 11
1551.60357660777
 21
782.4243854388071
 31
0.0
  0
LINE
  5
1173
330
1F
100
AcDbEntity
  8
SANINDUSA
100
AcDbLine
 10
1551.60357660777
 20
782.422147545173
 30
0.0
 11
1551.60503771491
 21
782.4211663848499
 31
0.0
  0
LINE
  5
1174
330
1F
100
AcDbEntity
  8
SANINDUSA
100
AcDbLine
 10
1551.60503771491
 20
782.4211663848499
 30
0.0
 11
1551.60357660777
 21
782.42262749199
 31
0.0
  0
LINE
  5
1175
330
1F
100
AcDbEntity
  8
SANINDUSA
100
AcDbLine
 10
1551.60503771491
 20
782.4211663848499
 30
0.0
 11
1551.604056554587
 21
782.42262749199
 31
0.0
  0
LINE
  5
1176
330
1F
100
AcDbEntity
  8
SANINDUSA
100
AcDbLine
 10
1551.61193760777
 20
782.42326649199
 30
0.0
 11
1551.61193760777
 21
782.44051649199
 31
0.0
  0
LINE
  5
1177
330
1F
100
AcDbEntity
  8
SANINDUSA
100
AcDbLine
 10
1551.61793760777
 20
782.44551649199
 30
0.0
 11
1551.61793760777
 21
782.4425164919899
 31
0.0
  0
ARC
  5
1178
330
1F
100
AcDbEntity
  8
SANINDUSA
100
AcDbCircle
 10
1551.61593760777
 20
782.4425164919899
 30
0.0
 40
0.002
100
AcDbArc
 50
270.0
 51
0.0
  0
LINE
  5
11B4
330
1F
100
AcDbEntity
  8
SANINDUSA
100
AcDbLine
 10
1551.335503539023
 20
782.4011444682301
 30
0.0000000001555548
 11
1551.335503539023
 21
781.7782896237372
 31
0.0000000001555548
  0
LINE
  5
11B5
330
1F
100
AcDbEntity
  8
SANINDUSA
100
AcDbLine
 10
1551.329503539023
 20
782.4011444682301
 30
0.0000000001555548
 11
1551.329503539023
 21
781.7782896237372
 31
0.0000000001555548
  0
LINE
  5
11B8
330
1F
100
AcDbEntity
  8
SANINDUSA
  6
Continuous
100
AcDbLine
 10
1552.259820730846
 20
781.7698197714466
 30
0.0000000000039326
 11
1551.947196037872
 21
781.7698197714466
 31
0.0000000002833784
  0
LINE
  5
11B9
330
1F
100
AcDbEntity
  8
SANINDUSA
100
AcDbLine
 10
1552.122904389011
 20
781.8027872858679
 30
0.0000000001020975
 11
1552.274192754606
 21
781.9540756514631
 31
0.0000000001020975
  0
LINE
  5
11BA
330
1F
100
AcDbEntity
  8
SANINDUSA
100
AcDbLine
 10
1552.150000583089
 20
781.7778197714466
 30
0.0000000001020975
 11
1552.105000583089
 21
781.7778197714466
 31
0.0000000001020975
  0
LINE
  5
11BB
330
1F
100
AcDbEntity
  8
SANINDUSA
100
AcDbLine
 10
1552.133500583089
 20
781.8028197714466
 30
0.0000000001020975
 11
1552.121500583088
 21
781.8028197714466
 31
0.0000000001020975
  0
CIRCLE
  5
11BC
330
1F
100
AcDbEntity
  8
SANINDUSA
100
AcDbCircle
 10
1552.127500583089
 20
781.7960697714466
 30
0.0000000001020975
 40
0.0050849999999992
  0
LINE
  5
11BD
330
1F
100
AcDbEntity
  8
SANINDUSA
100
AcDbLine
 10
1552.136500583088
 20
781.7878197714466
 30
0.0000000001020975
 11
1552.118500583089
 21
781.7878197714466
 31
0.0000000001020975
  0
LINE
  5
11BE
330
1F
100
AcDbEntity
  8
SANINDUSA
100
AcDbLine
 10
1552.139874951759
 20
781.7971304316183
 30
0.0000000001020975
 11
1552.12856124326
 21
781.8084441401174
 31
0.0000000001020975
  0
LINE
  5
11BF
330
1F
100
AcDbEntity
  8
SANINDUSA
100
AcDbLine
 10
1552.129268350042
 20
781.8077370333362
 30
0.0000000001020975
 11
1552.124351088152
 21
781.8028197714466
 31
0.0000000001020975
  0
LINE
  5
11C0
330
1F
100
AcDbEntity
  8
SANINDUSA
100
AcDbLine
 10
1552.128139583088
 20
781.7949508246295
 30
0.0000000001020975
 11
1552.129600690229
 21
781.7939696643064
 31
0.0000000001020975
  0
LINE
  5
11C1
330
1F
100
AcDbEntity
  8
SANINDUSA
100
AcDbLine
 10
1552.129600690229
 20
781.7939696643064
 30
0.0000000001020975
 11
1552.128139583088
 21
781.7954307714466
 31
0.0000000001020975
  0
LINE
  5
11C2
330
1F
100
AcDbEntity
  8
SANINDUSA
100
AcDbLine
 10
1552.129600690229
 20
781.7939696643064
 30
0.0000000001020975
 11
1552.128619529906
 21
781.7954307714466
 31
0.0000000001020975
  0
LINE
  5
11C3
330
1F
100
AcDbEntity
  8
SANINDUSA
100
AcDbLine
 10
1552.130470583089
 20
781.7967087714465
 30
0.0000000001020975
 11
1552.128619529906
 21
781.7967087714465
 31
0.0000000001020975
  0
LINE
  5
11C4
330
1F
100
AcDbEntity
  8
SANINDUSA
100
AcDbLine
 10
1552.128619529906
 20
781.7954307714466
 30
0.0000000001020975
 11
1552.130470583089
 21
781.7954307714466
 31
0.0000000001020975
  0
LINE
  5
11C5
330
1F
100
AcDbEntity
  8
SANINDUSA
100
AcDbLine
 10
1552.128619529906
 20
781.7967087714465
 30
0.0000000001020975
 11
1552.129600690229
 21
781.7981698785867
 31
0.0000000001020975
  0
LINE
  5
11C6
330
1F
100
AcDbEntity
  8
SANINDUSA
100
AcDbLine
 10
1552.129600690229
 20
781.7981698785867
 30
0.0000000001020975
 11
1552.128139583088
 21
781.7967087714465
 31
0.0000000001020975
  0
LINE
  5
11C7
330
1F
100
AcDbEntity
  8
SANINDUSA
100
AcDbLine
 10
1552.129600690229
 20
781.7981698785867
 30
0.0000000001020975
 11
1552.128139583088
 21
781.7971887182636
 31
0.0000000001020975
  0
LINE
  5
1289
330
1F
100
AcDbEntity
  8
SANINDUSA
100
AcDbLine
 10
1552.119500583089
 20
781.7878197714466
 30
0.0000000001020975
 11
1552.119500583089
 21
781.8008197714466
 31
0.0000000001020975
  0
LINE
  5
128A
330
1F
100
AcDbEntity
  8
SANINDUSA
100
AcDbLine
 10
1552.128139583088
 20
781.7930997714466
 30
0.0000000001020975
 11
1552.128139583088
 21
781.7949508246295
 31
0.0000000001020975
  0
LINE
  5
128B
330
1F
100
AcDbEntity
  8
SANINDUSA
100
AcDbLine
 10
1552.126861583088
 20
781.7949508246295
 30
0.0000000001020975
 11
1552.126861583088
 21
781.7930997714466
 31
0.0000000001020975
  0
LINE
  5
128C
330
1F
100
AcDbEntity
  8
SANINDUSA
100
AcDbLine
 10
1552.126381636272
 20
781.7954307714466
 30
0.0000000001020975
 11
1552.125400475948
 21
781.7939696643064
 31
0.0000000001020975
  0
LINE
  5
128D
330
1F
100
AcDbEntity
  8
SANINDUSA
100
AcDbLine
 10
1552.125400475948
 20
781.7939696643064
 30
0.0000000001020975
 11
1552.126861583088
 21
781.7954307714466
 31
0.0000000001020975
  0
LINE
  5
128E
330
1F
100
AcDbEntity
  8
SANINDUSA
100
AcDbLine
 10
1552.125400475948
 20
781.7939696643064
 30
0.0000000001020975
 11
1552.126861583088
 21
781.7949508246295
 31
0.0000000001020975
  0
LINE
  5
128F
330
1F
100
AcDbEntity
  8
SANINDUSA
100
AcDbLine
 10
1552.118500583089
 20
781.7778197714466
 30
0.0000000001020975
 11
1552.118500583089
 21
781.7878197714466
 31
0.0000000001020975
  0
LINE
  5
1290
330
1F
100
AcDbEntity
  8
SANINDUSA
100
AcDbLine
 10
1552.126861583088
 20
781.7930997714466
 30
0.0000000001020975
 11
1552.128139583088
 21
781.7930997714466
 31
0.0000000001020975
  0
LINE
  5
1291
330
1F
100
AcDbEntity
  8
SANINDUSA
100
AcDbLine
 10
1552.126861583088
 20
781.7990397714465
 30
0.0000000001020975
 11
1552.126861583088
 21
781.7971887182636
 31
0.0000000001020975
  0
LINE
  5
1292
330
1F
100
AcDbEntity
  8
SANINDUSA
100
AcDbLine
 10
1552.128139583088
 20
781.7971887182636
 30
0.0000000001020975
 11
1552.128139583088
 21
781.7990397714465
 31
0.0000000001020975
  0
LINE
  5
1293
330
1F
100
AcDbEntity
  8
SANINDUSA
100
AcDbLine
 10
1552.126861583088
 20
781.7960697714466
 30
0.0000000001020975
 11
1552.127500583089
 21
781.7960697714466
 31
0.0000000001020975
  0
LINE
  5
1294
330
1F
100
AcDbEntity
  8
SANINDUSA
100
AcDbLine
 10
1552.127500583089
 20
781.7960697714466
 30
0.0000000001020975
 11
1552.128139583088
 21
781.7960697714466
 31
0.0000000001020975
  0
LINE
  5
1295
330
1F
100
AcDbEntity
  8
SANINDUSA
100
AcDbLine
 10
1552.128139583088
 20
781.7967087714465
 30
0.0000000001020975
 11
1552.128139583088
 21
781.7954307714466
 31
0.0000000001020975
  0
LINE
  5
1296
330
1F
100
AcDbEntity
  8
SANINDUSA
100
AcDbLine
 10
1552.127500583089
 20
781.7960697714466
 30
0.0000000001020975
 11
1552.128139583088
 21
781.7967087714465
 31
0.0000000001020975
  0
LINE
  5
1297
330
1F
100
AcDbEntity
  8
SANINDUSA
100
AcDbLine
 10
1552.128139583088
 20
781.7954307714466
 30
0.0000000001020975
 11
1552.127500583089
 21
781.7960697714466
 31
0.0000000001020975
  0
LINE
  5
1298
330
1F
100
AcDbEntity
  8
SANINDUSA
100
AcDbLine
 10
1552.127500583089
 20
781.7960697714466
 30
0.0000000001020975
 11
1552.127500583089
 21
781.7967087714465
 31
0.0000000001020975
  0
LINE
  5
1299
330
1F
100
AcDbEntity
  8
SANINDUSA
100
AcDbLine
 10
1552.126861583088
 20
781.7967087714465
 30
0.0000000001020975
 11
1552.127500583089
 21
781.7960697714466
 31
0.0000000001020975
  0
LINE
  5
129A
330
1F
100
AcDbEntity
  8
SANINDUSA
100
AcDbLine
 10
1552.126861583088
 20
781.7954307714466
 30
0.0000000001020975
 11
1552.126861583088
 21
781.7967087714465
 31
0.0000000001020975
  0
LINE
  5
129B
330
1F
100
AcDbEntity
  8
SANINDUSA
100
AcDbLine
 10
1552.124530583089
 20
781.7967087714465
 30
0.0000000001020975
 11
1552.124530583089
 21
781.7954307714466
 31
0.0000000001020975
  0
LINE
  5
129C
330
1F
100
AcDbEntity
  8
SANINDUSA
100
AcDbLine
 10
1552.127500583089
 20
781.7954307714466
 30
0.0000000001020975
 11
1552.127500583089
 21
781.7960697714466
 31
0.0000000001020975
  0
LINE
  5
129D
330
1F
100
AcDbEntity
  8
SANINDUSA
100
AcDbLine
 10
1552.127500583089
 20
781.7960697714466
 30
0.0000000001020975
 11
1552.126861583088
 21
781.7954307714466
 31
0.0000000001020975
  0
LINE
  5
129E
330
1F
100
AcDbEntity
  8
SANINDUSA
100
AcDbLine
 10
1552.128139583088
 20
781.7967087714465
 30
0.0000000001020975
 11
1552.126861583088
 21
781.7967087714465
 31
0.0000000001020975
  0
LINE
  5
129F
330
1F
100
AcDbEntity
  8
SANINDUSA
100
AcDbLine
 10
1552.124530583089
 20
781.7954307714466
 30
0.0000000001020975
 11
1552.126381636272
 21
781.7954307714466
 31
0.0000000001020975
  0
LINE
  5
12A0
330
1F
100
AcDbEntity
  8
SANINDUSA
100
AcDbLine
 10
1552.126861583088
 20
781.7954307714466
 30
0.0000000001020975
 11
1552.128139583088
 21
781.7954307714466
 31
0.0000000001020975
  0
LINE
  5
12A1
330
1F
100
AcDbEntity
  8
SANINDUSA
100
AcDbLine
 10
1552.126381636272
 20
781.7967087714465
 30
0.0000000001020975
 11
1552.124530583089
 21
781.7967087714465
 31
0.0000000001020975
  0
LINE
  5
12A2
330
1F
100
AcDbEntity
  8
SANINDUSA
100
AcDbLine
 10
1552.128139583088
 20
781.7967087714465
 30
0.0000000001020975
 11
1552.128619529906
 21
781.7967087714465
 31
0.0000000001020975
  0
LINE
  5
12A3
330
1F
100
AcDbEntity
  8
SANINDUSA
100
AcDbLine
 10
1552.128139583088
 20
781.7971887182636
 30
0.0000000001020975
 11
1552.128139583088
 21
781.7967087714465
 31
0.0000000001020975
  0
LINE
  5
12A4
330
1F
100
AcDbEntity
  8
SANINDUSA
100
AcDbLine
 10
1552.126861583088
 20
781.7954307714466
 30
0.0000000001020975
 11
1552.126381636272
 21
781.7954307714466
 31
0.0000000001020975
  0
LINE
  5
12A5
330
1F
100
AcDbEntity
  8
SANINDUSA
100
AcDbLine
 10
1552.126861583088
 20
781.7949508246295
 30
0.0000000001020975
 11
1552.126861583088
 21
781.7954307714466
 31
0.0000000001020975
  0
LINE
  5
12A6
330
1F
100
AcDbEntity
  8
SANINDUSA
100
AcDbLine
 10
1552.126861583088
 20
781.7967087714465
 30
0.0000000001020975
 11
1552.126861583088
 21
781.7971887182636
 31
0.0000000001020975
  0
LINE
  5
12A7
330
1F
100
AcDbEntity
  8
SANINDUSA
100
AcDbLine
 10
1552.126861583088
 20
781.7971887182636
 30
0.0000000001020975
 11
1552.125400475948
 21
781.7981698785867
 31
0.0000000001020975
  0
LINE
  5
12A8
330
1F
100
AcDbEntity
  8
SANINDUSA
100
AcDbLine
 10
1552.126381636272
 20
781.7967087714465
 30
0.0000000001020975
 11
1552.126861583088
 21
781.7967087714465
 31
0.0000000001020975
  0
LINE
  5
12A9
330
1F
100
AcDbEntity
  8
SANINDUSA
100
AcDbLine
 10
1552.125400475948
 20
781.7981698785867
 30
0.0000000001020975
 11
1552.126861583088
 21
781.7967087714465
 31
0.0000000001020975
  0
LINE
  5
12AA
330
1F
100
AcDbEntity
  8
SANINDUSA
100
AcDbLine
 10
1552.125400475948
 20
781.7981698785867
 30
0.0000000001020975
 11
1552.126381636272
 21
781.7967087714465
 31
0.0000000001020975
  0
LINE
  5
12AB
330
1F
100
AcDbEntity
  8
SANINDUSA
100
AcDbLine
 10
1552.128139583088
 20
781.7954307714466
 30
0.0000000001020975
 11
1552.128139583088
 21
781.7949508246295
 31
0.0000000001020975
  0
LINE
  5
12AC
330
1F
100
AcDbEntity
  8
SANINDUSA
100
AcDbLine
 10
1552.128619529906
 20
781.7954307714466
 30
0.0000000001020975
 11
1552.128139583088
 21
781.7954307714466
 31
0.0000000001020975
  0
LINE
  5
12AD
330
1F
100
AcDbEntity
  8
SANINDUSA
100
AcDbLine
 10
1552.128139583088
 20
781.7990397714465
 30
0.0000000001020975
 11
1552.126861583088
 21
781.7990397714465
 31
0.0000000001020975
  0
ARC
  5
12AE
330
1F
100
AcDbEntity
  8
SANINDUSA
100
AcDbCircle
 10
1552.121500583088
 20
781.8008197714466
 30
0.0000000001020975
 40
0.002
100
AcDbArc
 50
90.0
 51
180.0
  0
LINE
  5
12B1
330
1F
100
AcDbEntity
  8
SANINDUSA
100
AcDbLine
 10
1552.301192754606
 20
781.9345119429641
 30
0.0000000001020975
 11
1552.304192754606
 21
781.9345119429641
 31
0.0000000001020975
  0
LINE
  5
12B3
330
1F
100
AcDbEntity
  8
SANINDUSA
100
AcDbLine
 10
1552.304192754606
 20
781.9645119429641
 30
0.0000000001020975
 11
1552.301192754606
 21
781.9645119429641
 31
0.0000000001020975
  0
LINE
  5
12B4
330
1F
100
AcDbEntity
  8
SANINDUSA
100
AcDbLine
 10
1552.284256463105
 20
781.9415119429641
 30
0.0000000001020975
 11
1552.135500583089
 21
781.7927560629477
 31
0.0000000001020975
  0
LINE
  5
12B5
330
1F
100
AcDbEntity
  8
SANINDUSA
100
AcDbLine
 10
1552.130470583089
 20
781.7954307714466
 30
0.0000000001020975
 11
1552.130470583089
 21
781.7967087714465
 31
0.0000000001020975
  0
LINE
  5
12B6
330
1F
100
AcDbEntity
  8
SANINDUSA
100
AcDbLine
 10
1552.135500583089
 20
781.7878197714466
 30
0.0000000001020975
 11
1552.135500583089
 21
781.8008197714466
 31
0.0000000001020975
  0
LINE
  5
12B7
330
1F
100
AcDbEntity
  8
SANINDUSA
100
AcDbLine
 10
1552.135500583089
 20
781.79417027651
 30
0.0000000001020975
 11
1552.139167844978
 21
781.7978375383995
 31
0.0000000001020975
  0
LINE
  5
12B8
330
1F
100
AcDbEntity
  8
SANINDUSA
100
AcDbLine
 10
1552.136500583088
 20
781.7778197714466
 30
0.0000000001020975
 11
1552.136500583088
 21
781.7878197714466
 31
0.0000000001020975
  0
ARC
  5
12B9
330
1F
100
AcDbEntity
  8
SANINDUSA
100
AcDbCircle
 10
1552.133500583089
 20
781.8008197714466
 30
0.0000000001020975
 40
0.002
100
AcDbArc
 50
0.0
 51
90.0
  0
LINE
  5
12BA
330
1F
100
AcDbEntity
  8
SANINDUSA
100
AcDbLine
 10
1552.289192754606
 20
781.9585119429641
 30
0.0000000001020975
 11
1552.289192754606
 21
781.9405119429641
 31
0.0000000001020975
  0
LINE
  5
12BB
330
1F
100
AcDbEntity
  8
SANINDUSA
100
AcDbLine
 10
1552.299192754606
 20
781.962511942964
 30
0.0000000001020975
 11
1552.299192754606
 21
781.9365119429641
 31
0.0000000001020975
  0
CIRCLE
  5
12BC
330
1F
100
AcDbEntity
  8
SANINDUSA
100
AcDbCircle
 10
1552.280942754606
 20
781.9495119429641
 30
0.0000000001020975
 40
0.0050849999999992
  0
LINE
  5
12BD
330
1F
100
AcDbEntity
  8
SANINDUSA
100
AcDbLine
 10
1552.274192754606
 20
781.9555119429641
 30
0.0000000001020975
 11
1552.274192754606
 21
781.9435119429641
 31
0.0000000001020975
  0
LINE
  5
12BE
330
1F
100
AcDbEntity
  8
SANINDUSA
100
AcDbLine
 10
1552.269275492716
 20
781.9477441760112
 30
0.0000000001020975
 11
1552.274192754606
 21
781.9526614379006
 31
0.0000000001020975
  0
LINE
  5
12BF
330
1F
100
AcDbEntity
  8
SANINDUSA
100
AcDbLine
 10
1552.281581754606
 20
781.9501509429641
 30
0.0000000001020975
 11
1552.281581754606
 21
781.948872942964
 31
0.0000000001020975
  0
LINE
  5
12C0
330
1F
100
AcDbEntity
  8
SANINDUSA
100
AcDbLine
 10
1552.283912754606
 20
781.948872942964
 30
0.0000000001020975
 11
1552.283912754606
 21
781.9501509429641
 31
0.0000000001020975
  0
LINE
  5
12C1
330
1F
100
AcDbEntity
  8
SANINDUSA
100
AcDbLine
 10
1552.281581754606
 20
781.948872942964
 30
0.0000000001020975
 11
1552.280942754606
 21
781.9495119429641
 31
0.0000000001020975
  0
LINE
  5
12C2
330
1F
100
AcDbEntity
  8
SANINDUSA
100
AcDbLine
 10
1552.280303754606
 20
781.948872942964
 30
0.0000000001020975
 11
1552.280303754606
 21
781.9501509429641
 31
0.0000000001020975
  0
LINE
  5
12C3
330
1F
100
AcDbEntity
  8
SANINDUSA
100
AcDbLine
 10
1552.277972754606
 20
781.9501509429641
 30
0.0000000001020975
 11
1552.277972754606
 21
781.948872942964
 31
0.0000000001020975
  0
LINE
  5
12C4
330
1F
100
AcDbEntity
  8
SANINDUSA
100
AcDbLine
 10
1552.280942754606
 20
781.948872942964
 30
0.0000000001020975
 11
1552.280942754606
 21
781.9495119429641
 31
0.0000000001020975
  0
LINE
  5
12C5
330
1F
100
AcDbEntity
  8
SANINDUSA
100
AcDbLine
 10
1552.280942754606
 20
781.9495119429641
 30
0.0000000001020975
 11
1552.280303754606
 21
781.948872942964
 31
0.0000000001020975
  0
LINE
  5
12C6
330
1F
100
AcDbEntity
  8
SANINDUSA
100
AcDbLine
 10
1552.299192754606
 20
781.9405119429641
 30
0.0000000001020975
 11
1552.289192754606
 21
781.9405119429641
 31
0.0000000001020975
  0
ARC
  5
12C7
330
1F
100
AcDbEntity
  8
SANINDUSA
100
AcDbCircle
 10
1552.301192754606
 20
781.9365119429641
 30
0.0000000001020975
 40
0.002
100
AcDbArc
 50
180.0
 51
270.0
  0
LINE
  5
12C8
330
1F
100
AcDbEntity
  8
SANINDUSA
100
AcDbLine
 10
1552.279882094434
 20
781.9371375742933
 30
0.0000000001020975
 11
1552.268568385935
 21
781.9484512827923
 31
0.0000000001020975
  0
LINE
  5
12C9
330
1F
100
AcDbEntity
  8
SANINDUSA
100
AcDbLine
 10
1552.282842249543
 20
781.9415119429641
 30
0.0000000001020975
 11
1552.279174987653
 21
781.9378446810746
 31
0.0000000001020975
  0
ARC
  5
12CA
330
1F
100
AcDbEntity
  8
SANINDUSA
100
AcDbCircle
 10
1552.276192754606
 20
781.9435119429641
 30
0.0000000001020975
 40
0.002
100
AcDbArc
 50
180.0
 51
270.0
  0
LINE
  5
12CB
330
1F
100
AcDbEntity
  8
SANINDUSA
100
AcDbLine
 10
1552.280303754606
 20
781.9465419429641
 30
0.0000000001020975
 11
1552.281581754606
 21
781.9465419429641
 31
0.0000000001020975
  0
LINE
  5
12CC
330
1F
100
AcDbEntity
  8
SANINDUSA
100
AcDbLine
 10
1552.281581754606
 20
781.9465419429641
 30
0.0000000001020975
 11
1552.281581754606
 21
781.9483929961469
 31
0.0000000001020975
  0
LINE
  5
12CD
330
1F
100
AcDbEntity
  8
SANINDUSA
100
AcDbLine
 10
1552.277972754606
 20
781.948872942964
 30
0.0000000001020975
 11
1552.279823807789
 21
781.948872942964
 31
0.0000000001020975
  0
LINE
  5
12CE
330
1F
100
AcDbEntity
  8
SANINDUSA
100
AcDbLine
 10
1552.280303754606
 20
781.948872942964
 30
0.0000000001020975
 11
1552.281581754606
 21
781.948872942964
 31
0.0000000001020975
  0
LINE
  5
12CF
330
1F
100
AcDbEntity
  8
SANINDUSA
100
AcDbLine
 10
1552.280303754606
 20
781.9483929961469
 30
0.0000000001020975
 11
1552.280303754606
 21
781.9465419429641
 31
0.0000000001020975
  0
LINE
  5
12D0
330
1F
100
AcDbEntity
  8
SANINDUSA
100
AcDbLine
 10
1552.282061701423
 20
781.948872942964
 30
0.0000000001020975
 11
1552.283912754606
 21
781.948872942964
 31
0.0000000001020975
  0
LINE
  5
12D1
330
1F
100
AcDbEntity
  8
SANINDUSA
100
AcDbLine
 10
1552.280303754606
 20
781.948872942964
 30
0.0000000001020975
 11
1552.279823807789
 21
781.948872942964
 31
0.0000000001020975
  0
LINE
  5
12D2
330
1F
100
AcDbEntity
  8
SANINDUSA
100
AcDbLine
 10
1552.279823807789
 20
781.948872942964
 30
0.0000000001020975
 11
1552.278842647466
 21
781.9474118358239
 31
0.0000000001020975
  0
LINE
  5
12D3
330
1F
100
AcDbEntity
  8
SANINDUSA
100
AcDbLine
 10
1552.280303754606
 20
781.9483929961469
 30
0.0000000001020975
 11
1552.280303754606
 21
781.948872942964
 31
0.0000000001020975
  0
LINE
  5
12D4
330
1F
100
AcDbEntity
  8
SANINDUSA
100
AcDbLine
 10
1552.278842647466
 20
781.9474118358239
 30
0.0000000001020975
 11
1552.280303754606
 21
781.948872942964
 31
0.0000000001020975
  0
LINE
  5
12D5
330
1F
100
AcDbEntity
  8
SANINDUSA
100
AcDbLine
 10
1552.278842647466
 20
781.9474118358239
 30
0.0000000001020975
 11
1552.280303754606
 21
781.9483929961469
 31
0.0000000001020975
  0
LINE
  5
12D6
330
1F
100
AcDbEntity
  8
SANINDUSA
100
AcDbLine
 10
1552.281581754606
 20
781.948872942964
 30
0.0000000001020975
 11
1552.281581754606
 21
781.9483929961469
 31
0.0000000001020975
  0
LINE
  5
12D7
330
1F
100
AcDbEntity
  8
SANINDUSA
100
AcDbLine
 10
1552.281581754606
 20
781.9483929961469
 30
0.0000000001020975
 11
1552.283042861746
 21
781.9474118358239
 31
0.0000000001020975
  0
LINE
  5
12D8
330
1F
100
AcDbEntity
  8
SANINDUSA
100
AcDbLine
 10
1552.282061701423
 20
781.948872942964
 30
0.0000000001020975
 11
1552.281581754606
 21
781.948872942964
 31
0.0000000001020975
  0
LINE
  5
12D9
330
1F
100
AcDbEntity
  8
SANINDUSA
100
AcDbLine
 10
1552.283042861746
 20
781.9474118358239
 30
0.0000000001020975
 11
1552.281581754606
 21
781.948872942964
 31
0.0000000001020975
  0
LINE
  5
12DA
330
1F
100
AcDbEntity
  8
SANINDUSA
100
AcDbLine
 10
1552.283042861746
 20
781.9474118358239
 30
0.0000000001020975
 11
1552.282061701423
 21
781.948872942964
 31
0.0000000001020975
  0
LINE
  5
12DB
330
1F
100
AcDbEntity
  8
SANINDUSA
100
AcDbLine
 10
1552.289192754606
 20
781.9415119429641
 30
0.0000000001020975
 11
1552.276192754606
 21
781.9415119429641
 31
0.0000000001020975
  0
LINE
  5
12DC
330
1F
100
AcDbEntity
  8
SANINDUSA
100
AcDbLine
 10
1552.299192754606
 20
781.9585119429641
 30
0.0000000001020975
 11
1552.289192754606
 21
781.9585119429641
 31
0.0000000001020975
  0
ARC
  5
12DD
330
1F
100
AcDbEntity
  8
SANINDUSA
100
AcDbCircle
 10
1552.301192754606
 20
781.962511942964
 30
0.0000000001020975
 40
0.002
100
AcDbArc
 50
90.0
 51
180.0
  0
LINE
  5
12DE
330
1F
100
AcDbEntity
  8
SANINDUSA
100
AcDbLine
 10
1552.280303754606
 20
781.9495119429641
 30
0.0000000001020975
 11
1552.280942754606
 21
781.9495119429641
 31
0.0000000001020975
  0
LINE
  5
12DF
330
1F
100
AcDbEntity
  8
SANINDUSA
100
AcDbLine
 10
1552.281581754606
 20
781.9524819429641
 30
0.0000000001020975
 11
1552.280303754606
 21
781.9524819429641
 31
0.0000000001020975
  0
LINE
  5
12E0
330
1F
100
AcDbEntity
  8
SANINDUSA
100
AcDbLine
 10
1552.280942754606
 20
781.9495119429641
 30
0.0000000001020975
 11
1552.281581754606
 21
781.9495119429641
 31
0.0000000001020975
  0
LINE
  5
12E1
330
1F
100
AcDbEntity
  8
SANINDUSA
100
AcDbLine
 10
1552.280303754606
 20
781.9524819429641
 30
0.0000000001020975
 11
1552.280303754606
 21
781.9506308897812
 31
0.0000000001020975
  0
LINE
  5
12E2
330
1F
100
AcDbEntity
  8
SANINDUSA
100
AcDbLine
 10
1552.280942754606
 20
781.9495119429641
 30
0.0000000001020975
 11
1552.281581754606
 21
781.9501509429641
 31
0.0000000001020975
  0
LINE
  5
12E3
330
1F
100
AcDbEntity
  8
SANINDUSA
100
AcDbLine
 10
1552.280942754606
 20
781.9495119429641
 30
0.0000000001020975
 11
1552.280942754606
 21
781.9501509429641
 31
0.0000000001020975
  0
LINE
  5
12E4
330
1F
100
AcDbEntity
  8
SANINDUSA
100
AcDbLine
 10
1552.280303754606
 20
781.9501509429641
 30
0.0000000001020975
 11
1552.280942754606
 21
781.9495119429641
 31
0.0000000001020975
  0
LINE
  5
12E5
330
1F
100
AcDbEntity
  8
SANINDUSA
100
AcDbLine
 10
1552.283912754606
 20
781.9501509429641
 30
0.0000000001020975
 11
1552.282061701423
 21
781.9501509429641
 31
0.0000000001020975
  0
LINE
  5
12E6
330
1F
100
AcDbEntity
  8
SANINDUSA
100
AcDbLine
 10
1552.281581754606
 20
781.9501509429641
 30
0.0000000001020975
 11
1552.280303754606
 21
781.9501509429641
 31
0.0000000001020975
  0
LINE
  5
12E7
330
1F
100
AcDbEntity
  8
SANINDUSA
100
AcDbLine
 10
1552.281581754606
 20
781.9506308897812
 30
0.0000000001020975
 11
1552.281581754606
 21
781.9524819429641
 31
0.0000000001020975
  0
LINE
  5
12E8
330
1F
100
AcDbEntity
  8
SANINDUSA
100
AcDbLine
 10
1552.279823807789
 20
781.9501509429641
 30
0.0000000001020975
 11
1552.277972754606
 21
781.9501509429641
 31
0.0000000001020975
  0
LINE
  5
12E9
330
1F
100
AcDbEntity
  8
SANINDUSA
100
AcDbLine
 10
1552.281581754606
 20
781.9501509429641
 30
0.0000000001020975
 11
1552.282061701423
 21
781.9501509429641
 31
0.0000000001020975
  0
LINE
  5
12EA
330
1F
100
AcDbEntity
  8
SANINDUSA
100
AcDbLine
 10
1552.282061701423
 20
781.9501509429641
 30
0.0000000001020975
 11
1552.283042861746
 21
781.9516120501043
 31
0.0000000001020975
  0
LINE
  5
12EB
330
1F
100
AcDbEntity
  8
SANINDUSA
100
AcDbLine
 10
1552.281581754606
 20
781.9506308897812
 30
0.0000000001020975
 11
1552.281581754606
 21
781.9501509429641
 31
0.0000000001020975
  0
LINE
  5
12EC
330
1F
100
AcDbEntity
  8
SANINDUSA
100
AcDbLine
 10
1552.283042861746
 20
781.9516120501043
 30
0.0000000001020975
 11
1552.281581754606
 21
781.9501509429641
 31
0.0000000001020975
  0
LINE
  5
12ED
330
1F
100
AcDbEntity
  8
SANINDUSA
100
AcDbLine
 10
1552.283042861746
 20
781.9516120501043
 30
0.0000000001020975
 11
1552.281581754606
 21
781.9506308897812
 31
0.0000000001020975
  0
LINE
  5
12EE
330
1F
100
AcDbEntity
  8
SANINDUSA
100
AcDbLine
 10
1552.280303754606
 20
781.9501509429641
 30
0.0000000001020975
 11
1552.280303754606
 21
781.9506308897812
 31
0.0000000001020975
  0
LINE
  5
12EF
330
1F
100
AcDbEntity
  8
SANINDUSA
100
AcDbLine
 10
1552.280303754606
 20
781.9506308897812
 30
0.0000000001020975
 11
1552.278842647466
 21
781.9516120501043
 31
0.0000000001020975
  0
LINE
  5
12F0
330
1F
100
AcDbEntity
  8
SANINDUSA
100
AcDbLine
 10
1552.279823807789
 20
781.9501509429641
 30
0.0000000001020975
 11
1552.280303754606
 21
781.9501509429641
 31
0.0000000001020975
  0
LINE
  5
12F1
330
1F
100
AcDbEntity
  8
SANINDUSA
100
AcDbLine
 10
1552.278842647466
 20
781.9516120501043
 30
0.0000000001020975
 11
1552.280303754606
 21
781.9501509429641
 31
0.0000000001020975
  0
LINE
  5
12F2
330
1F
100
AcDbEntity
  8
SANINDUSA
100
AcDbLine
 10
1552.278842647466
 20
781.9516120501043
 30
0.0000000001020975
 11
1552.279823807789
 21
781.9501509429641
 31
0.0000000001020975
  0
ARC
  5
12F3
330
1F
100
AcDbEntity
  8
SANINDUSA
100
AcDbCircle
 10
1552.276192754606
 20
781.9555119429641
 30
0.0000000001020975
 40
0.002
100
AcDbArc
 50
90.0
 51
180.0
  0
LINE
  5
12F4
330
1F
100
AcDbEntity
  8
SANINDUSA
100
AcDbLine
 10
1552.289192754606
 20
781.957511942964
 30
0.0000000001020975
 11
1552.276192754606
 21
781.957511942964
 31
0.0000000001020975
  0
LINE
  5
12F5
330
1F
100
AcDbEntity
  8
SANINDUSA
100
AcDbLine
 10
1552.304192754606
 20
781.9345119429641
 30
0.0000000001020975
 11
1552.304192754606
 21
781.9645119429641
 31
0.0000000001020975
  0
LINE
  5
12F8
330
1F
100
AcDbEntity
  8
SANINDUSA
100
AcDbLine
 10
1551.878696037872
 20
781.7762197714467
 30
0.000000000155555
 11
1551.929696037872
 21
781.7762197714467
 31
0.000000000155555
  0
LINE
  5
12FA
330
1F
100
AcDbEntity
  8
SANINDUSA
100
AcDbLine
 10
1551.930696037872
 20
781.7712197714467
 30
0.000000000155555
 11
1551.877696037872
 21
781.7712197714467
 31
0.000000000155555
  0
LINE
  5
12FB
330
1F
100
AcDbEntity
  8
SANINDUSA
100
AcDbLine
 10
1551.877696037872
 20
781.7712197714467
 30
0.000000000155555
 11
1551.877696037872
 21
781.7752197714465
 31
0.000000000155555
  0
ARC
  5
12FC
330
1F
100
AcDbEntity
  8
SANINDUSA
100
AcDbCircle
 10
1551.878696037872
 20
781.7752197714465
 30
0.000000000155555
 40
0.001
100
AcDbArc
 50
90.0
 51
180.0
  0
LINE
  5
12FD
330
1F
100
AcDbEntity
  8
SANINDUSA
100
AcDbLine
 10
1551.930696037872
 20
781.7712197714467
 30
0.000000000155555
 11
1551.930696037872
 21
781.7752197714465
 31
0.000000000155555
  0
LINE
  5
12FE
330
1F
100
AcDbEntity
  8
SANINDUSA
100
AcDbLine
 10
1551.944350815948
 20
781.7724197752562
 30
0.0000000001555548
 11
1551.945343898526
 21
781.7724197752562
 31
0.0000000001555548
  0
ARC
  5
12FF
330
1F
100
AcDbEntity
  8
SANINDUSA
100
AcDbCircle
 10
1551.941804511393
 20
781.7700695051166
 30
0.0000000001555548
 40
0.00075
100
AcDbArc
 50
179.8634464257769
 51
9.340834100784213
  0
LINE
  5
1300
330
1F
100
AcDbEntity
  8
SANINDUSA
100
AcDbLine
 10
1551.943498653611
 20
781.7711082498817
 30
0.0000000001555548
 11
1551.942916206432
 21
781.771012444213
 31
0.0000000001555548
  0
ARC
  5
1301
330
1F
100
AcDbEntity
  8
SANINDUSA
100
AcDbCircle
 10
1551.940554514943
 20
781.7700724842506
 30
0.0000000001555548
 40
0.0005
100
AcDbArc
 50
359.863446425777
 51
99.34083410826884
  0
LINE
  5
1302
330
1F
100
AcDbEntity
  8
SANINDUSA
100
AcDbLine
 10
1551.942503989837
 20
781.7704379205159
 30
0.0000000001555548
 11
1551.942544566613
 21
781.7701912354428
 31
0.0000000001555548
  0
LINE
  5
1303
330
1F
100
AcDbEntity
  8
SANINDUSA
100
AcDbLine
 10
1551.941064456174
 20
781.7699477747902
 30
0.0000000001555548
 11
1551.941023879398
 21
781.7701944598634
 31
0.0000000001555548
  0
ARC
  5
1304
330
1F
100
AcDbEntity
  8
SANINDUSA
100
AcDbCircle
 10
1551.942997359983
 20
781.7705190740668
 30
0.0000000001555548
 40
0.0005
100
AcDbArc
 50
99.34083410826884
 51
189.3408341007842
  0
ARC
  5
1305
330
1F
100
AcDbEntity
  8
SANINDUSA
100
AcDbCircle
 10
1551.937322139583
 20
781.7696502597349
 30
0.0000000001555548
 40
0.000175
100
AcDbArc
 50
262.0000000018956
 51
82.00000000189561
  0
ARC
  5
1306
330
1F
100
AcDbEntity
  8
SANINDUSA
100
AcDbCircle
 10
1551.937743898526
 20
781.7699142024758
 30
0.0000000001555548
 40
0.0006
100
AcDbArc
 50
51.15114900069957
 51
99.34083410826884
  0
ARC
  5
1307
330
1F
100
AcDbEntity
  8
SANINDUSA
100
AcDbCircle
 10
1551.938496620192
 20
781.7708487665948
 30
0.0000000001555548
 40
0.0006000000000005
100
AcDbArc
 50
231.1511490006996
 51
279.3408341082688
  0
LINE
  5
1308
330
1F
100
AcDbEntity
  8
SANINDUSA
100
AcDbLine
 10
1551.940473361392
 20
781.7705658543967
 30
0.0000000001555548
 11
1551.938594004454
 21
781.7702567224194
 31
0.0000000001555548
  0
ARC
  5
1309
330
1F
100
AcDbEntity
  8
SANINDUSA
100
AcDbCircle
 10
1551.933931485496
 20
781.7700978559578
 30
0.0000000001555548
 40
0.0006
100
AcDbArc
 50
279.3408341082688
 51
327.5305192063584
  0
LINE
  5
130A
330
1F
100
AcDbEntity
  8
SANINDUSA
100
AcDbLine
 10
1551.932343898526
 20
781.7692286539534
 30
0.0000000001555548
 11
1551.932343898526
 21
781.7699354095875
 31
0.0000000001555548
  0
LINE
  5
130B
330
1F
100
AcDbEntity
  8
SANINDUSA
100
AcDbLine
 10
1551.934028869758
 20
781.7695058117823
 30
0.0000000001555548
 11
1551.932343898526
 21
781.7692286539534
 31
0.0000000001555548
  0
ARC
  5
130C
330
1F
100
AcDbEntity
  8
SANINDUSA
100
AcDbCircle
 10
1551.935238675441
 20
781.7702712654855
 30
0.0000000001555548
 40
0.0005
100
AcDbArc
 50
208.1263739672534
 51
262.0000000018956
  0
ARC
  5
130D
330
1F
100
AcDbEntity
  8
SANINDUSA
100
AcDbCircle
 10
1551.934943898526
 20
781.7694536356088
 30
0.0000000001555548
 40
0.0005999999999989
100
AcDbArc
 50
104.1008918136154
 51
147.5305192063585
  0
ARC
  5
130E
330
1F
100
AcDbEntity
  8
SANINDUSA
100
AcDbCircle
 10
1551.932943898526
 20
781.7699354095875
 30
0.0000000001555548
 40
0.0006
100
AcDbArc
 50
99.34083410826884
 51
180.0
  0
LINE
  5
130F
330
1F
100
AcDbEntity
  8
SANINDUSA
100
AcDbLine
 10
1551.937297784291
 20
781.7694769628229
 30
0.0000000001555548
 11
1551.935169088891
 21
781.7697761314511
 31
0.0000000001555548
  0
LINE
  5
1310
330
1F
100
AcDbEntity
  8
SANINDUSA
100
AcDbLine
 10
1551.937646514265
 20
781.7705062466512
 30
0.0000000001555548
 11
1551.93527016652
 21
781.7701153655672
 31
0.0000000001555548
  0
LINE
  5
1311
330
1F
100
AcDbEntity
  8
SANINDUSA
100
AcDbLine
 10
1551.93527016652
 20
781.7701153655672
 30
0.0000000001555548
 11
1551.937346494876
 21
781.769823556647
 31
0.0000000001555548
  0
LINE
  5
1312
330
1F
100
AcDbEntity
  8
SANINDUSA
100
AcDbLine
 10
1551.932846514265
 20
781.770527453763
 30
0.0000000001555548
 11
1551.944350815948
 21
781.7724197752562
 31
0.0000000001555548
  0
ARC
  5
1313
330
1F
100
AcDbEntity
  8
SANINDUSA
100
AcDbCircle
 10
1551.943596037872
 20
781.7705162057063
 30
0.0000000001555548
 40
0.0006
100
AcDbArc
 50
0.0
 51
99.34083410826884
  0
ARC
  5
1314
330
1F
100
AcDbEntity
  8
SANINDUSA
100
AcDbCircle
 10
1551.929696037872
 20
781.7752197714465
 30
0.000000000155555
 40
0.001
100
AcDbArc
 50
0.0
 51
90.0
  0
LINE
  5
1316
330
1F
100
AcDbEntity
  8
SANINDUSA
100
AcDbLine
 10
1551.960696037872
 20
781.7712197714467
 30
0.000000000155555
 11
1552.013696037872
 21
781.7712197714467
 31
0.000000000155555
  0
LINE
  5
1317
330
1F
100
AcDbEntity
  8
SANINDUSA
100
AcDbLine
 10
1552.012696037872
 20
781.7762197714467
 30
0.000000000155555
 11
1551.961696037873
 21
781.7762197714467
 31
0.000000000155555
  0
LINE
  5
1318
330
1F
100
AcDbEntity
  8
SANINDUSA
100
AcDbLine
 10
1551.960696037872
 20
781.7712197714467
 30
0.000000000155555
 11
1551.960696037872
 21
781.7752197714465
 31
0.000000000155555
  0
ARC
  5
1319
330
1F
100
AcDbEntity
  8
SANINDUSA
100
AcDbCircle
 10
1551.961696037873
 20
781.7752197714465
 30
0.000000000155555
 40
0.001
100
AcDbArc
 50
90.0
 51
180.0
  0
LINE
  5
131A
330
1F
100
AcDbEntity
  8
SANINDUSA
100
AcDbLine
 10
1552.013696037872
 20
781.7712197714467
 30
0.000000000155555
 11
1552.013696037872
 21
781.7752197714465
 31
0.000000000155555
  0
ARC
  5
131B
330
1F
100
AcDbEntity
  8
SANINDUSA
100
AcDbCircle
 10
1552.012696037872
 20
781.7752197714465
 30
0.000000000155555
 40
0.001
100
AcDbArc
 50
0.0
 51
90.0
  0
LINE
  5
140C
330
1F
100
AcDbEntity
  8
SANINDUSA
100
AcDbLine
 10
1553.297581106998
 20
781.3683518076238
 30
-0.0000000017937957
 11
1553.238581106998
 21
781.3683518076238
 31
-0.0000000017937957
  0
LINE
  5
140D
330
1F
100
AcDbEntity
  8
SANINDUSA
100
AcDbLine
 10
1553.239469995887
 20
781.4033518076238
 30
-0.0000000017937957
 11
1553.297581106998
 21
781.4033518076238
 31
-0.0000000017937957
  0
LINE
  5
140F
330
1F
100
AcDbEntity
  8
SANINDUSA
100
AcDbLine
 10
1553.222581106999
 20
781.3838518076238
 30
-0.0000000017937957
 11
1553.222581106999
 21
781.3628518076239
 31
-0.0000000017937957
  0
LINE
  5
1410
330
1F
100
AcDbEntity
  8
SANINDUSA
100
AcDbLine
 10
1553.221692218109
 20
781.3683518076238
 30
-0.0000000017937957
 11
1553.221692218109
 21
781.3878518076238
 31
-0.0000000017937957
  0
LINE
  5
1411
330
1F
100
AcDbEntity
  8
SANINDUSA
100
AcDbLine
 10
1553.162581106999
 20
781.4023518076238
 30
-0.0000000017937957
 11
1553.162581106999
 21
781.3693518076238
 31
-0.0000000017937957
  0
LINE
  5
1412
330
1F
100
AcDbEntity
  8
SANINDUSA
100
AcDbLine
 10
1553.163581106999
 20
781.3683518076238
 30
-0.0000000017937957
 11
1553.221692218109
 21
781.3683518076238
 31
-0.0000000017937957
  0
ARC
  5
1413
330
1F
100
AcDbEntity
  8
SANINDUSA
100
AcDbCircle
 10
1553.163581106999
 20
781.3693518076238
 30
-0.0000000017937957
 40
0.001
100
AcDbArc
 50
180.0
 51
270.0
  0
ARC
  5
1414
330
1F
100
AcDbEntity
  8
SANINDUSA
100
AcDbCircle
 10
1553.223581106998
 20
781.3628518076239
 30
-0.0000000017937957
 40
0.001
100
AcDbArc
 50
180.0
 51
270.0
  0
LINE
  5
1415
330
1F
100
AcDbEntity
  8
SANINDUSA
100
AcDbLine
 10
1553.222581106999
 20
781.4033518076238
 30
-0.0000000017937957
 11
1553.163581106999
 21
781.4033518076238
 31
-0.0000000017937957
  0
ARC
  5
1416
330
1F
100
AcDbEntity
  8
SANINDUSA
100
AcDbCircle
 10
1553.163581106999
 20
781.4023518076238
 30
-0.0000000017937957
 40
0.001
100
AcDbArc
 50
90.0
 51
180.0
  0
ARC
  5
1417
330
1F
100
AcDbEntity
  8
SANINDUSA
100
AcDbCircle
 10
1553.223581106998
 20
781.4088518076238
 30
-0.0000000017937957
 40
0.001
100
AcDbArc
 50
90.0
 51
180.0
  0
LINE
  5
1418
330
1F
100
AcDbEntity
  8
SANINDUSA
100
AcDbLine
 10
1553.222581106999
 20
781.4033518076238
 30
-0.0000000017937957
 11
1553.222581106999
 21
781.3878518076238
 31
-0.0000000017937957
  0
LINE
  5
1419
330
1F
100
AcDbEntity
  8
SANINDUSA
100
AcDbLine
 10
1553.222581106999
 20
781.4088518076238
 30
-0.0000000017937957
 11
1553.222581106999
 21
781.4033518076238
 31
-0.0000000017937957
  0
LINE
  5
141A
330
1F
100
AcDbEntity
  8
SANINDUSA
100
AcDbLine
 10
1553.223081106998
 20
781.3878518076238
 30
-0.0000000017937957
 11
1553.223081106998
 21
781.3838518076238
 31
-0.0000000017937957
  0
LINE
  5
141B
330
1F
100
AcDbEntity
  8
SANINDUSA
100
AcDbLine
 10
1553.238581106998
 20
781.3628518076239
 30
-0.0000000017937957
 11
1553.238581106998
 21
781.3838518076238
 31
-0.0000000017937957
  0
ARC
  5
141C
330
1F
100
AcDbEntity
  8
SANINDUSA
100
AcDbCircle
 10
1553.237581106998
 20
781.3628518076239
 30
-0.0000000017937957
 40
0.001
100
AcDbArc
 50
270.0
 51
0.0
  0
LINE
  5
141D
330
1F
100
AcDbEntity
  8
SANINDUSA
100
AcDbLine
 10
1553.223581106998
 20
781.3618518076239
 30
-0.0000000017937957
 11
1553.237581106998
 21
781.3618518076239
 31
-0.0000000017937957
  0
LINE
  5
141E
330
1F
100
AcDbEntity
  8
SANINDUSA
100
AcDbLine
 10
1553.238581106999
 20
781.3878518076238
 30
-0.0000000017937957
 11
1553.238581106999
 21
781.4088518076238
 31
-0.0000000017937957
  0
LINE
  5
141F
330
1F
100
AcDbEntity
  8
SANINDUSA
100
AcDbLine
 10
1553.239469995887
 20
781.3838518076238
 30
-0.0000000017937957
 11
1553.239469995887
 21
781.4033518076238
 31
-0.0000000017937957
  0
LINE
  5
1420
330
1F
100
AcDbEntity
  8
SANINDUSA
100
AcDbLine
 10
1553.238081106998
 20
781.3878518076238
 30
-0.0000000017937957
 11
1553.238081106998
 21
781.3838518076238
 31
-0.0000000017937957
  0
LINE
  5
1421
330
1F
100
AcDbEntity
  8
SANINDUSA
100
AcDbLine
 10
1553.238581106998
 20
781.3838518076238
 30
-0.0000000017937957
 11
1553.239469995887
 21
781.3838518076238
 31
-0.0000000017937957
  0
ARC
  5
1422
330
1F
100
AcDbEntity
  8
SANINDUSA
100
AcDbCircle
 10
1553.237581106999
 20
781.4088518076238
 30
-0.0000000017937957
 40
0.001
100
AcDbArc
 50
0.0
 51
90.0
  0
LINE
  5
1423
330
1F
100
AcDbEntity
  8
SANINDUSA
100
AcDbLine
 10
1553.221692218109
 20
781.3878518076238
 30
-0.0000000017937957
 11
1553.238581106999
 21
781.3878518076238
 31
-0.0000000017937957
  0
LINE
  5
1424
330
1F
100
AcDbEntity
  8
SANINDUSA
100
AcDbLine
 10
1553.238581106998
 20
781.3838518076238
 30
-0.0000000017937957
 11
1553.222581106999
 21
781.3838518076238
 31
-0.0000000017937957
  0
LINE
  5
1425
330
1F
100
AcDbEntity
  8
SANINDUSA
100
AcDbLine
 10
1553.237581106999
 20
781.4098518076238
 30
-0.0000000017937957
 11
1553.223581106998
 21
781.4098518076239
 31
-0.0000000017937957
  0
LINE
  5
1426
330
1F
100
AcDbEntity
  8
SANINDUSA
100
AcDbLine
 10
1553.298581106998
 20
781.4023518076238
 30
-0.0000000017937957
 11
1553.298581106998
 21
781.3693518076238
 31
-0.0000000017937957
  0
ARC
  5
1427
330
1F
100
AcDbEntity
  8
SANINDUSA
100
AcDbCircle
 10
1553.297581106998
 20
781.3693518076238
 30
-0.0000000017937957
 40
0.001
100
AcDbArc
 50
270.0
 51
0.0
  0
ARC
  5
1428
330
1F
100
AcDbEntity
  8
SANINDUSA
100
AcDbCircle
 10
1553.297581106998
 20
781.4023518076238
 30
-0.0000000017937957
 40
0.001
100
AcDbArc
 50
0.0
 51
90.0
  0
LINE
  5
1429
330
1F
100
AcDbEntity
  8
SANINDUSA
100
AcDbLine
 10
1553.297581106998
 20
782.6283518076142
 30
-0.0000000017937957
 11
1553.238581106998
 21
782.6283518076142
 31
-0.0000000017937957
  0
LINE
  5
142A
330
1F
100
AcDbEntity
  8
SANINDUSA
100
AcDbLine
 10
1553.239469995887
 20
782.6633518076142
 30
-0.0000000017937957
 11
1553.297581106998
 21
782.6633518076142
 31
-0.0000000017937957
  0
LINE
  5
142C
330
1F
100
AcDbEntity
  8
SANINDUSA
100
AcDbLine
 10
1553.222581106999
 20
782.6438518076141
 30
-0.0000000017937957
 11
1553.222581106999
 21
782.6228518076142
 31
-0.0000000017937957
  0
LINE
  5
142D
330
1F
100
AcDbEntity
  8
SANINDUSA
100
AcDbLine
 10
1553.221692218109
 20
782.6283518076142
 30
-0.0000000017937957
 11
1553.221692218109
 21
782.6478518076141
 31
-0.0000000017937957
  0
LINE
  5
142E
330
1F
100
AcDbEntity
  8
SANINDUSA
100
AcDbLine
 10
1553.162581106999
 20
782.6623518076141
 30
-0.0000000017937957
 11
1553.162581106999
 21
782.6293518076141
 31
-0.0000000017937957
  0
LINE
  5
142F
330
1F
100
AcDbEntity
  8
SANINDUSA
100
AcDbLine
 10
1553.163581106999
 20
782.6283518076142
 30
-0.0000000017937957
 11
1553.221692218109
 21
782.6283518076142
 31
-0.0000000017937957
  0
ARC
  5
1430
330
1F
100
AcDbEntity
  8
SANINDUSA
100
AcDbCircle
 10
1553.163581106999
 20
782.6293518076141
 30
-0.0000000017937957
 40
0.001
100
AcDbArc
 50
180.0
 51
270.0
  0
ARC
  5
1431
330
1F
100
AcDbEntity
  8
SANINDUSA
100
AcDbCircle
 10
1553.223581106998
 20
782.6228518076142
 30
-0.0000000017937957
 40
0.001
100
AcDbArc
 50
180.0
 51
270.0
  0
LINE
  5
1432
330
1F
100
AcDbEntity
  8
SANINDUSA
100
AcDbLine
 10
1553.222581106999
 20
782.6633518076142
 30
-0.0000000017937957
 11
1553.163581106999
 21
782.6633518076142
 31
-0.0000000017937957
  0
ARC
  5
1433
330
1F
100
AcDbEntity
  8
SANINDUSA
100
AcDbCircle
 10
1553.163581106999
 20
782.6623518076141
 30
-0.0000000017937957
 40
0.001
100
AcDbArc
 50
90.0
 51
180.0
  0
ARC
  5
1434
330
1F
100
AcDbEntity
  8
SANINDUSA
100
AcDbCircle
 10
1553.223581106998
 20
782.6688518076141
 30
-0.0000000017937957
 40
0.001
100
AcDbArc
 50
90.0
 51
180.0
  0
LINE
  5
1435
330
1F
100
AcDbEntity
  8
SANINDUSA
100
AcDbLine
 10
1553.222581106999
 20
782.6633518076142
 30
-0.0000000017937957
 11
1553.222581106999
 21
782.6478518076141
 31
-0.0000000017937957
  0
LINE
  5
1436
330
1F
100
AcDbEntity
  8
SANINDUSA
100
AcDbLine
 10
1553.222581106999
 20
782.6688518076141
 30
-0.0000000017937957
 11
1553.222581106999
 21
782.6633518076142
 31
-0.0000000017937957
  0
LINE
  5
1437
330
1F
100
AcDbEntity
  8
SANINDUSA
100
AcDbLine
 10
1553.223081106998
 20
782.6478518076141
 30
-0.0000000017937957
 11
1553.223081106998
 21
782.6438518076141
 31
-0.0000000017937957
  0
LINE
  5
1438
330
1F
100
AcDbEntity
  8
SANINDUSA
100
AcDbLine
 10
1553.238581106998
 20
782.6228518076142
 30
-0.0000000017937957
 11
1553.238581106998
 21
782.6438518076141
 31
-0.0000000017937957
  0
ARC
  5
1439
330
1F
100
AcDbEntity
  8
SANINDUSA
100
AcDbCircle
 10
1553.237581106998
 20
782.6228518076142
 30
-0.0000000017937957
 40
0.001
100
AcDbArc
 50
270.0
 51
0.0
  0
LINE
  5
143A
330
1F
100
AcDbEntity
  8
SANINDUSA
100
AcDbLine
 10
1553.223581106998
 20
782.6218518076142
 30
-0.0000000017937957
 11
1553.237581106998
 21
782.6218518076142
 31
-0.0000000017937957
  0
LINE
  5
143B
330
1F
100
AcDbEntity
  8
SANINDUSA
100
AcDbLine
 10
1553.238581106999
 20
782.6478518076141
 30
-0.0000000017937957
 11
1553.238581106999
 21
782.6688518076141
 31
-0.0000000017937957
  0
LINE
  5
143C
330
1F
100
AcDbEntity
  8
SANINDUSA
100
AcDbLine
 10
1553.239469995887
 20
782.6438518076141
 30
-0.0000000017937957
 11
1553.239469995887
 21
782.6633518076142
 31
-0.0000000017937957
  0
LINE
  5
143D
330
1F
100
AcDbEntity
  8
SANINDUSA
100
AcDbLine
 10
1553.238081106998
 20
782.6478518076141
 30
-0.0000000017937957
 11
1553.238081106998
 21
782.6438518076141
 31
-0.0000000017937957
  0
LINE
  5
143E
330
1F
100
AcDbEntity
  8
SANINDUSA
100
AcDbLine
 10
1553.238581106998
 20
782.6438518076141
 30
-0.0000000017937957
 11
1553.239469995887
 21
782.6438518076141
 31
-0.0000000017937957
  0
ARC
  5
143F
330
1F
100
AcDbEntity
  8
SANINDUSA
100
AcDbCircle
 10
1553.237581106999
 20
782.6688518076141
 30
-0.0000000017937957
 40
0.001
100
AcDbArc
 50
0.0
 51
90.0
  0
LINE
  5
1440
330
1F
100
AcDbEntity
  8
SANINDUSA
100
AcDbLine
 10
1553.221692218109
 20
782.6478518076141
 30
-0.0000000017937957
 11
1553.238581106999
 21
782.6478518076141
 31
-0.0000000017937957
  0
LINE
  5
1441
330
1F
100
AcDbEntity
  8
SANINDUSA
100
AcDbLine
 10
1553.238581106998
 20
782.6438518076141
 30
-0.0000000017937957
 11
1553.222581106999
 21
782.6438518076141
 31
-0.0000000017937957
  0
LINE
  5
1442
330
1F
100
AcDbEntity
  8
SANINDUSA
100
AcDbLine
 10
1553.237581106999
 20
782.6698518076142
 30
-0.0000000017937957
 11
1553.223581106998
 21
782.6698518076142
 31
-0.0000000017937957
  0
LINE
  5
1443
330
1F
100
AcDbEntity
  8
SANINDUSA
100
AcDbLine
 10
1553.298581106998
 20
782.6623518076141
 30
-0.0000000017937957
 11
1553.298581106998
 21
782.6293518076141
 31
-0.0000000017937957
  0
ARC
  5
1444
330
1F
100
AcDbEntity
  8
SANINDUSA
100
AcDbCircle
 10
1553.297581106998
 20
782.6293518076141
 30
-0.0000000017937957
 40
0.001
100
AcDbArc
 50
270.0
 51
0.0
  0
ARC
  5
1445
330
1F
100
AcDbEntity
  8
SANINDUSA
100
AcDbCircle
 10
1553.297581106998
 20
782.6623518076141
 30
-0.0000000017937957
 40
0.001
100
AcDbArc
 50
0.0
 51
90.0
  0
LINE
  5
1446
330
1F
100
AcDbEntity
  8
SANINDUSA
100
AcDbLine
 10
1553.232081106999
 20
782.6698518076142
 30
0.0
 11
1553.232081106999
 21
782.9408518076238
 31
0.0
  0
LINE
  5
1447
330
1F
100
AcDbEntity
  8
SANINDUSA
100
AcDbLine
 10
1553.229081106999
 20
782.6698518076142
 30
0.0
 11
1553.229081106999
 21
782.9408518076238
 31
0.0
  0
LINE
  5
144D
330
1F
100
AcDbEntity
  8
SANINDUSA
100
AcDbLine
 10
1553.589077823732
 20
781.0908518076238
 30
0.0
 11
1553.589077823732
 21
782.9408518076238
 31
0.0
  0
LINE
  5
144E
330
1F
100
AcDbEntity
  8
SANINDUSA
100
AcDbLine
 10
1553.534727823732
 20
781.0908518076238
 30
0.0
 11
1553.534727823732
 21
782.9408518076238
 31
0.0
  0
LINE
  5
1450
330
1F
100
AcDbEntity
  8
SANINDUSA
100
AcDbLine
 10
1553.232081106999
 20
781.4098518076239
 30
0.0
 11
1553.232081106999
 21
782.6218518076142
 31
0.0
  0
LINE
  5
1451
330
1F
100
AcDbEntity
  8
SANINDUSA
100
AcDbLine
 10
1553.229081106999
 20
781.4098518076239
 30
0.0
 11
1553.229081106999
 21
782.6218518076142
 31
0.0
  0
LINE
  5
1452
330
1F
100
AcDbEntity
  8
SANINDUSA
100
AcDbLine
 10
1553.229081106999
 20
781.1008518076238
 30
0.0
 11
1552.611888608149
 21
781.1008518076238
 31
0.0
  0
LINE
  5
1458
330
1F
100
AcDbEntity
  8
SANINDUSA
100
AcDbLine
 10
1553.229081106999
 20
781.1008518076238
 30
0.0
 11
1553.229081106999
 21
781.3618518076239
 31
0.0
  0
LINE
  5
1459
330
1F
100
AcDbEntity
  8
SANINDUSA
100
AcDbLine
 10
1553.232081106999
 20
781.0908518076238
 30
0.0
 11
1553.232081106999
 21
781.3618518076239
 31
0.0
  0
LINE
  5
145E
330
1F
100
AcDbEntity
  8
SANINDUSA
100
AcDbLine
 10
1553.229081106999
 20
782.9408518076238
 30
0.0
 11
1552.611888608149
 21
782.9408518076238
 31
0.0000000001555548
  0
LINE
  5
1460
330
1F
100
AcDbEntity
  8
SANINDUSA
100
AcDbLine
 10
1553.589077823732
 20
782.9408518076238
 30
0.0
 11
1553.161261091883
 21
782.9408518076238
 31
0.0
  0
LINE
  5
1463
330
1F
100
AcDbEntity
  8
SANINDUSA
100
AcDbLine
 10
1552.611888608149
 20
781.0908518076238
 30
0.0000000001555548
 11
1553.589077823732
 21
781.0908518076238
 31
0.0
  0
LINE
  5
1506
330
1F
100
AcDbEntity
  8
SANINDUSA
100
AcDbLine
 10
1553.549721358388
 20
781.0908518076238
 30
0.0
 11
1553.549721358388
 21
782.9408518076238
 31
0.0
  0
LINE
  5
1510
330
1F
100
AcDbEntity
  8
SANINDUSA
100
AcDbLine
 10
1552.64085845663
 20
782.9408518076238
 30
0.0000000001555548
 11
1552.64085845663
 21
781.1008518076238
 31
0.0000000001555548
  0
LINE
  5
1511
330
1F
100
AcDbEntity
  8
SANINDUSA
100
AcDbLine
 10
1552.61485845663
 20
782.9408518076238
 30
0.0000000001555548
 11
1552.61485845663
 21
781.1008518076238
 31
0.0000000001555548
  0
LINE
  5
1512
330
1F
100
AcDbEntity
  8
SANINDUSA
100
AcDbLine
 10
1552.611888608149
 20
782.9408518076238
 30
0.0000000001555548
 11
1552.611888608149
 21
781.0908518076238
 31
0.0000000001555548
  0
LINE
  5
1A3F
330
1F
100
AcDbEntity
  8
SANINDUSA
100
AcDbLine
 10
1552.304192754606
 20
781.7515932762116
 30
0.0
 11
1552.304192754606
 21
781.7755197714466
 31
0.0
  0
LINE
  5
1A40
330
1F
100
AcDbEntity
  8
SANINDUSA
100
AcDbLine
 10
1552.303192754606
 20
781.7755197714466
 30
0.0
 11
1552.304192754606
 21
781.7755197714466
 31
0.0
  0
LINE
  5
1A41
330
1F
100
AcDbEntity
  8
SANINDUSA
100
AcDbLine
 10
1552.304192754606
 20
781.7515932762116
 30
0.0
 11
1552.303193873694
 21
781.7515932762116
 31
0.0
  0
ARC
  5
1A42
330
1F
100
AcDbEntity
  8
SANINDUSA
100
AcDbCircle
 10
1552.303192754606
 20
781.7745197714466
 30
0.0
 40
0.0009999999999999
100
AcDbArc
 50
90.0
 51
180.0
  0
ARC
  5
1A43
330
1F
100
AcDbEntity
  8
SANINDUSA
100
AcDbCircle
 10
1552.303193873694
 20
781.7525932762117
 30
0.0
 40
0.0009999999999999
100
AcDbArc
 50
180.5340991106717
 51
270.0
  0
LINE
  5
1A44
330
1F
100
AcDbEntity
  8
SANINDUSA
100
AcDbLine
 10
1552.302192754606
 20
781.7735339850089
 30
0.0
 11
1552.302192754606
 21
781.7745197714466
 31
0.0
  0
LINE
  5
1A45
330
1F
100
AcDbEntity
  8
SANINDUSA
100
AcDbLine
 10
1552.302193917141
 20
781.7525839545586
 30
0.0
 11
1552.302187127481
 21
781.7533122980456
 31
0.0
  0
ARC
  5
1A46
330
1F
100
AcDbEntity
  8
SANINDUSA
100
AcDbCircle
 10
1552.300842754606
 20
781.7735339850089
 30
0.0
 40
0.0013499999999998
100
AcDbArc
 50
315.0
 51
0.0
  0
ARC
  5
1A47
330
1F
100
AcDbEntity
  8
SANINDUSA
100
AcDbCircle
 10
1552.300837186135
 20
781.753299713814
 30
0.0
 40
0.00135
100
AcDbArc
 50
0.5340991106717575
 51
45.08930404340082
  0
LINE
  5
1A48
330
1F
100
AcDbEntity
  8
SANINDUSA
100
AcDbLine
 10
1552.300883135198
 20
781.7716651772919
 30
0.0
 11
1552.301797348761
 21
781.7725793908544
 31
0.0
  0
LINE
  5
1A49
330
1F
100
AcDbEntity
  8
SANINDUSA
100
AcDbLine
 10
1552.301790291253
 20
781.7542557946864
 30
0.0
 11
1552.300883852142
 21
781.7551594125502
 31
0.0
  0
ARC
  5
1A4A
330
1F
100
AcDbEntity
  8
SANINDUSA
100
AcDbCircle
 10
1552.301342754606
 20
781.7712055578843
 30
0.0
 40
0.0006500000000003
100
AcDbArc
 50
135.0
 51
180.0
  0
ARC
  5
1A4B
330
1F
100
AcDbEntity
  8
SANINDUSA
100
AcDbCircle
 10
1552.301342754606
 20
781.755619747785
 30
0.0
 40
0.0006500000000003
100
AcDbArc
 50
180.0
 51
225.0893040434008
  0
LINE
  5
1A4C
330
1F
100
AcDbEntity
  8
SANINDUSA
100
AcDbLine
 10
1552.300692754606
 20
781.755619747785
 30
0.0
 11
1552.300692754606
 21
781.7712055578843
 31
0.0
  0
ARC
  5
1A4D
330
1F
100
AcDbEntity
  8
SANINDUSA
100
AcDbCircle
 10
1552.300842754606
 20
781.7745197714466
 30
0.0
 40
0.0009999999999999
100
AcDbArc
 50
0.0
 51
90.0
  0
LINE
  5
1A4E
330
1F
100
AcDbEntity
  8
SANINDUSA
100
AcDbLine
 10
1552.300842754606
 20
781.7755197714466
 30
0.0
 11
1552.265819450474
 21
781.7755197714466
 31
0.0
  0
LINE
  5
1A4F
330
1F
100
AcDbEntity
  8
SANINDUSA
100
AcDbLine
 10
1552.301842754606
 20
781.7735339850089
 30
0.0
 11
1552.301842754606
 21
781.7745197714466
 31
0.0
  0
ARC
  5
1A50
330
1F
100
AcDbEntity
  8
SANINDUSA
100
AcDbCircle
 10
1552.265819450474
 20
781.7745197714466
 30
0.0
 40
0.001
100
AcDbArc
 50
90.0
 51
270.0
  0
ARC
  5
1A51
330
1F
100
AcDbEntity
  8
SANINDUSA
100
AcDbCircle
 10
1552.300842754606
 20
781.7735339850089
 30
0.0
 40
0.0010000000000003
100
AcDbArc
 50
315.0
 51
0.0
  0
LINE
  5
1A52
330
1F
100
AcDbEntity
  8
SANINDUSA
100
AcDbLine
 10
1552.265819450474
 20
781.7735197714466
 30
0.0
 11
1552.297342754606
 21
781.7735197714466
 31
0.0
  0
LINE
  5
1A53
330
1F
100
AcDbEntity
  8
SANINDUSA
100
AcDbLine
 10
1552.300635647825
 20
781.7719126646655
 30
0.0
 11
1552.301549861387
 21
781.7728268782278
 31
0.0
  0
ARC
  5
1A54
330
1F
100
AcDbEntity
  8
SANINDUSA
100
AcDbCircle
 10
1552.297342754606
 20
781.7725197714466
 30
0.0
 40
0.001
100
AcDbArc
 50
0.0
 51
90.0
  0
ARC
  5
1A55
330
1F
100
AcDbEntity
  8
SANINDUSA
100
AcDbCircle
 10
1552.301342754606
 20
781.7712055578843
 30
0.0
 40
0.0010000000000003
100
AcDbArc
 50
135.0
 51
180.0
  0
LINE
  5
1A56
330
1F
100
AcDbEntity
  8
SANINDUSA
100
AcDbLine
 10
1552.298342754606
 20
781.7725197714466
 30
0.0
 11
1552.298342754606
 21
781.7546605851694
 31
0.0
  0
LINE
  5
1A57
330
1F
100
AcDbEntity
  8
SANINDUSA
100
AcDbLine
 10
1552.300342754606
 20
781.7678304316184
 30
0.0
 11
1552.300342754606
 21
781.7712055578843
 31
0.0
  0
ARC
  5
1A58
330
1F
100
AcDbEntity
  8
SANINDUSA
100
AcDbCircle
 10
1552.297342754606
 20
781.7546605851694
 30
0.0
 40
0.001
100
AcDbArc
 50
267.8505420585933
 51
0.0
  0
ARC
  5
1A59
330
1F
100
AcDbEntity
  8
SANINDUSA
100
AcDbCircle
 10
1552.300092754606
 20
781.7678304316184
 30
0.0
 40
0.0002500000000003
100
AcDbArc
 50
315.0
 51
0.0
  0
ARC
  5
1A5A
330
1F
100
AcDbEntity
  8
SANINDUSA
100
AcDbCircle
 10
1552.300932863044
 20
781.8503133310916
 30
0.0
 40
0.0967200954923435
100
AcDbArc
 50
254.4398303561735
 51
267.8505420585933
  0
LINE
  5
1A5B
330
1F
100
AcDbEntity
  8
SANINDUSA
100
AcDbLine
 10
1552.299789201216
 20
781.7671733248372
 30
0.0
 11
1552.300269531301
 21
781.7676536549231
 31
0.0
  0
ARC
  5
1A5C
330
1F
100
AcDbEntity
  8
SANINDUSA
100
AcDbCircle
 10
1552.275121803847
 20
781.7576197714465
 30
0.0
 40
0.0005
100
AcDbArc
 50
90.0
 51
254.4398303561735
  0
ARC
  5
1A5D
330
1F
100
AcDbEntity
  8
SANINDUSA
100
AcDbCircle
 10
1552.300142754606
 20
781.7668197714466
 30
0.0
 40
0.0005
100
AcDbArc
 50
135.0
 51
225.0
  0
LINE
  5
1A5E
330
1F
100
AcDbEntity
  8
SANINDUSA
100
AcDbLine
 10
1552.275121803847
 20
781.7581197714466
 30
0.0
 11
1552.287819450474
 21
781.7581197714466
 31
0.0
  0
LINE
  5
1A5F
330
1F
100
AcDbEntity
  8
SANINDUSA
100
AcDbLine
 10
1552.300269531301
 20
781.7659858879701
 30
0.0
 11
1552.299789201216
 21
781.766466218056
 31
0.0
  0
ARC
  5
1A60
330
1F
100
AcDbEntity
  8
SANINDUSA
100
AcDbCircle
 10
1552.287819450474
 20
781.7591197714466
 30
0.0
 40
0.001
100
AcDbArc
 50
270.0
 51
90.0
  0
ARC
  5
1A61
330
1F
100
AcDbEntity
  8
SANINDUSA
100
AcDbCircle
 10
1552.300092754606
 20
781.7658091112748
 30
0.0
 40
0.00025
100
AcDbArc
 50
0.0
 51
45.0
  0
LINE
  5
1A62
330
1F
100
AcDbEntity
  8
SANINDUSA
100
AcDbLine
 10
1552.287819450474
 20
781.7601197714466
 30
0.0
 11
1552.265819450474
 21
781.7601197714466
 31
0.0
  0
LINE
  5
1A63
330
1F
100
AcDbEntity
  8
SANINDUSA
100
AcDbLine
 10
1552.300342754606
 20
781.755619747785
 30
0.0
 11
1552.300342754606
 21
781.7658091112748
 31
0.0
  0
ARC
  5
1A64
330
1F
100
AcDbEntity
  8
SANINDUSA
100
AcDbCircle
 10
1552.265819450474
 20
781.7591197714466
 30
0.0
 40
0.001
100
AcDbArc
 50
90.0
 51
248.9411647506691
  0
ARC
  5
1A65
330
1F
100
AcDbEntity
  8
SANINDUSA
100
AcDbCircle
 10
1552.301342754606
 20
781.755619747785
 30
0.0
 40
0.0010000000000003
100
AcDbArc
 50
180.0
 51
225.0893040434008
  0
ARC
  5
1A66
330
1F
100
AcDbEntity
  8
SANINDUSA
100
AcDbCircle
 10
1552.300932863044
 20
781.8503133310916
 30
0.0
 40
0.0987200954923432
100
AcDbArc
 50
248.9411647506691
 51
269.9477634045833
  0
LINE
  5
1A67
330
1F
100
AcDbEntity
  8
SANINDUSA
100
AcDbLine
 10
1552.301543189926
 20
781.7540079218676
 30
0.0
 11
1552.300636750815
 21
781.7549115397314
 31
0.0
  0
ARC
  5
1A68
330
1F
100
AcDbEntity
  8
SANINDUSA
100
AcDbCircle
 10
1552.300843771587
 20
781.7525932762117
 30
0.0
 40
0.001
100
AcDbArc
 50
269.9477634045833
 51
0.5340991106717575
  0
ARC
  5
1A69
330
1F
100
AcDbEntity
  8
SANINDUSA
100
AcDbCircle
 10
1552.300837186135
 20
781.753299713814
 30
0.0
 40
0.0010000000000003
100
AcDbArc
 50
0.5340991106717575
 51
45.08930404340082
  0
LINE
  5
1A6A
330
1F
100
AcDbEntity
  8
SANINDUSA
100
AcDbLine
 10
1552.30184372814
 20
781.7526025978646
 30
0.0
 11
1552.301837142687
 21
781.753309035467
 31
0.0
  0
LINE
  5
1A6B
330
1F
100
AcDbEntity
  8
SANINDUSA
100
AcDbLine
 10
1552.252217527315
 20
781.7708197714466
 30
0.0
 11
1552.254906140465
 21
781.7708197714466
 31
0.0
  0
ARC
  5
1A6C
330
1F
100
AcDbEntity
  8
SANINDUSA
100
AcDbCircle
 10
1552.254906140465
 20
781.7703197714466
 30
0.0
 40
0.0005
100
AcDbArc
 50
19.47122063187581
 51
90.0
  0
ARC
  5
1A6D
330
1F
100
AcDbEntity
  8
SANINDUSA
100
AcDbCircle
 10
1552.252217527315
 20
781.7703197714466
 30
0.0
 40
0.0005000000000001
100
AcDbArc
 50
90.0
 51
156.4218215189429
  0
ARC
  5
1A6E
330
1F
100
AcDbEntity
  8
SANINDUSA
100
AcDbCircle
 10
1552.256320354027
 20
781.7708197714466
 30
0.0
 40
0.001
100
AcDbArc
 50
199.4712206318758
 51
340.5287793681242
  0
ARC
  5
1A6F
330
1F
100
AcDbEntity
  8
SANINDUSA
100
AcDbCircle
 10
1552.250842754606
 20
781.7709197714466
 30
0.0
 40
0.0009999999999999
100
AcDbArc
 50
180.0
 51
336.421821518943
  0
ARC
  5
1A70
330
1F
100
AcDbEntity
  8
SANINDUSA
100
AcDbCircle
 10
1552.25773456759
 20
781.7703197714466
 30
0.0
 40
0.0004999999999999
100
AcDbArc
 50
90.0
 51
160.5287793681242
  0
LINE
  5
1A71
330
1F
100
AcDbEntity
  8
SANINDUSA
100
AcDbLine
 10
1552.249842754606
 20
781.7709197714466
 30
0.0
 11
1552.249842754606
 21
781.7718197714466
 31
0.0
  0
LINE
  5
1A72
330
1F
100
AcDbEntity
  8
SANINDUSA
100
AcDbLine
 10
1552.25773456759
 20
781.7708197714466
 30
0.0
 11
1552.259320730846
 21
781.7708197714466
 31
0.0
  0
ARC
  5
1A73
330
1F
100
AcDbEntity
  8
SANINDUSA
100
AcDbCircle
 10
1552.250842754606
 20
781.7718197714466
 30
0.0
 40
0.0009999999999999
100
AcDbArc
 50
90.0
 51
180.0
  0
ARC
  5
1A74
330
1F
100
AcDbEntity
  8
SANINDUSA
100
AcDbCircle
 10
1552.259320730846
 20
781.7703197714466
 30
0.0
 40
0.0005
100
AcDbArc
 50
0.0
 51
90.0
  0
LINE
  5
1A75
330
1F
100
AcDbEntity
  8
SANINDUSA
100
AcDbLine
 10
1552.250842754606
 20
781.7728197714466
 30
0.0
 11
1552.282342754606
 21
781.7728197714466
 31
0.0
  0
LINE
  5
1A76
330
1F
100
AcDbEntity
  8
SANINDUSA
100
AcDbLine
 10
1552.259820730846
 20
781.7703197714466
 30
0.0
 11
1552.259820730846
 21
781.7633197714465
 31
0.0
  0
ARC
  5
1A77
330
1F
100
AcDbEntity
  8
SANINDUSA
100
AcDbCircle
 10
1552.282342754606
 20
781.7718197714466
 30
0.0
 40
0.001
100
AcDbArc
 50
270.0
 51
90.0
  0
ARC
  5
1A78
330
1F
100
AcDbEntity
  8
SANINDUSA
100
AcDbCircle
 10
1552.259320730846
 20
781.7633197714465
 30
0.0
 40
0.0005
100
AcDbArc
 50
270.0
 51
0.0
  0
LINE
  5
1A79
330
1F
100
AcDbEntity
  8
SANINDUSA
100
AcDbLine
 10
1552.282342754606
 20
781.7708197714466
 30
0.0
 11
1552.262320730846
 21
781.7708197714466
 31
0.0
  0
LINE
  5
1A7A
330
1F
100
AcDbEntity
  8
SANINDUSA
100
AcDbLine
 10
1552.259320730846
 20
781.7628197714466
 30
0.0
 11
1552.25773456759
 21
781.7628197714466
 31
0.0
  0
ARC
  5
1A7B
330
1F
100
AcDbEntity
  8
SANINDUSA
100
AcDbCircle
 10
1552.262320730846
 20
781.7703197714466
 30
0.0
 40
0.0005000000000001
100
AcDbArc
 50
90.0
 51
180.0
  0
ARC
  5
1A7C
330
1F
100
AcDbEntity
  8
SANINDUSA
100
AcDbCircle
 10
1552.25773456759
 20
781.7633197714465
 30
0.0
 40
0.0005
100
AcDbArc
 50
199.4712206318758
 51
270.0
  0
LINE
  5
1A7D
330
1F
100
AcDbEntity
  8
SANINDUSA
100
AcDbLine
 10
1552.261820730846
 20
781.7703197714466
 30
0.0
 11
1552.261820730846
 21
781.7633197714465
 31
0.0
  0
ARC
  5
1A7E
330
1F
100
AcDbEntity
  8
SANINDUSA
100
AcDbCircle
 10
1552.256320354027
 20
781.7628197714466
 30
0.0
 40
0.001
100
AcDbArc
 50
19.47122063187581
 51
160.5287793681242
  0
ARC
  5
1A7F
330
1F
100
AcDbEntity
  8
SANINDUSA
100
AcDbCircle
 10
1552.262320730846
 20
781.7633197714465
 30
0.0
 40
0.0005000000000001
100
AcDbArc
 50
180.0
 51
270.0
  0
ARC
  5
1A80
330
1F
100
AcDbEntity
  8
SANINDUSA
100
AcDbCircle
 10
1552.254906140465
 20
781.7633197714465
 30
0.0
 40
0.0005
100
AcDbArc
 50
270.0
 51
340.5287793681242
  0
LINE
  5
1A81
330
1F
100
AcDbEntity
  8
SANINDUSA
100
AcDbLine
 10
1552.262320730846
 20
781.7628197714466
 30
0.0
 11
1552.282342754606
 21
781.7628197714466
 31
0.0
  0
LINE
  5
1A82
330
1F
100
AcDbEntity
  8
SANINDUSA
100
AcDbLine
 10
1552.254906140465
 20
781.7628197714466
 30
0.0
 11
1552.252217527315
 21
781.7628197714466
 31
0.0
  0
ARC
  5
1A83
330
1F
100
AcDbEntity
  8
SANINDUSA
100
AcDbCircle
 10
1552.282342754606
 20
781.7618197714466
 30
0.0
 40
0.001
100
AcDbArc
 50
270.0
 51
90.0
  0
ARC
  5
1A84
330
1F
100
AcDbEntity
  8
SANINDUSA
100
AcDbCircle
 10
1552.252217527315
 20
781.7633197714465
 30
0.0
 40
0.0005000000000001
100
AcDbArc
 50
203.578178481057
 51
270.0
  0
LINE
  5
1A85
330
1F
100
AcDbEntity
  8
SANINDUSA
100
AcDbLine
 10
1552.282342754606
 20
781.7608197714466
 30
0.0
 11
1552.250842754606
 21
781.7608197714466
 31
0.0
  0
ARC
  5
1A86
330
1F
100
AcDbEntity
  8
SANINDUSA
100
AcDbCircle
 10
1552.250842754606
 20
781.7627197714466
 30
0.0
 40
0.0009999999999999
100
AcDbArc
 50
23.57817848105703
 51
180.0
  0
ARC
  5
1A87
330
1F
100
AcDbEntity
  8
SANINDUSA
100
AcDbCircle
 10
1552.250842754606
 20
781.7618197714466
 30
0.0
 40
0.0010000000000001
100
AcDbArc
 50
180.0
 51
270.0
  0
LINE
  5
1A88
330
1F
100
AcDbEntity
  8
SANINDUSA
100
AcDbLine
 10
1552.249842754606
 20
781.7618197714466
 30
0.0
 11
1552.249842754606
 21
781.7627197714466
 31
0.0
  0
LINE
  5
1A89
330
1F
100
AcDbEntity
  8
SANINDUSA
100
AcDbLine
 10
1551.355973387504
 20
781.7699990876707
 30
0.0000000001555548
 11
1551.355973387504
 21
781.7695197752562
 31
0.0000000001555548
  0
LINE
  5
1A8A
330
1F
100
AcDbEntity
  8
SANINDUSA
100
AcDbLine
 10
1551.353473387504
 20
781.7699502502644
 30
0.0000000001555548
 11
1551.353414163773
 21
781.769554658872
 31
0.0000000001555548
  0
ARC
  5
1A8B
330
1F
100
AcDbEntity
  8
SANINDUSA
100
AcDbCircle
 10
1551.355173387504
 20
781.7699990876707
 30
0.0000000001555548
 40
0.0008
100
AcDbArc
 50
0.0
 51
81.4855215660212
  0
ARC
  5
1A8C
330
1F
100
AcDbEntity
  8
SANINDUSA
100
AcDbCircle
 10
1551.352727197408
 20
781.7683430165105
 30
0.0000000001555548
 40
0.0002
100
AcDbArc
 50
171.4855215650568
 51
351.4855215650568
  0
LINE
  5
1A8D
330
1F
100
AcDbEntity
  8
SANINDUSA
100
AcDbLine
 10
1551.355628969706
 20
781.7644164688005
 30
0.0000000001555548
 11
1551.353414163773
 21
781.7640848916404
 31
0.0000000001555548
  0
ARC
  5
1A8E
330
1F
100
AcDbEntity
  8
SANINDUSA
100
AcDbCircle
 10
1551.352727197408
 20
781.765296534002
 30
0.0000000001555548
 40
0.0002
100
AcDbArc
 50
8.514478434943223
 51
188.5144784349432
  0
LINE
  5
1A8F
330
1F
100
AcDbEntity
  8
SANINDUSA
100
AcDbLine
 10
1551.353473387504
 20
781.7636893002481
 30
0.0000000001555548
 11
1551.353414163773
 21
781.7640848916404
 31
0.0000000001555548
  0
ARC
  5
1A90
330
1F
100
AcDbEntity
  8
SANINDUSA
100
AcDbCircle
 10
1551.355673387504
 20
781.7641197752561
 30
0.0000000001555548
 40
0.0003
100
AcDbArc
 50
0.0
 51
98.51447843397879
  0
ARC
  5
1A91
330
1F
100
AcDbEntity
  8
SANINDUSA
100
AcDbCircle
 10
1551.355673387504
 20
781.7695197752562
 30
0.0000000001555548
 40
0.0003
100
AcDbArc
 50
261.4855215660213
 51
0.0
  0
LINE
  5
1A92
330
1F
100
AcDbEntity
  8
SANINDUSA
100
AcDbLine
 10
1551.355628969706
 20
781.769223081712
 30
0.0000000001555548
 11
1551.353414163773
 21
781.769554658872
 31
0.0000000001555548
  0
LINE
  5
1A93
330
1F
100
AcDbEntity
  8
SANINDUSA
100
AcDbLine
 10
1551.352781102568
 20
781.7700538917933
 30
0.0000000001555548
 11
1551.352529401712
 21
781.7683726283758
 31
0.0000000001555548
  0
LINE
  5
1A94
330
1F
100
AcDbEntity
  8
SANINDUSA
100
AcDbLine
 10
1551.35317669396
 20
781.7699946680625
 30
0.0000000001555548
 11
1551.352924993104
 21
781.768313404645
 31
0.0000000001555548
  0
LINE
  5
1A95
330
1F
100
AcDbEntity
  8
SANINDUSA
100
AcDbLine
 10
1551.350654798834
 20
781.7703722193466
 30
0.0000000001555548
 11
1551.350595575103
 21
781.7699766279543
 31
0.0000000001555548
  0
ARC
  5
1A96
330
1F
100
AcDbEntity
  8
SANINDUSA
100
AcDbCircle
 10
1551.344273387504
 20
781.7706197752563
 30
0.0000000001555548
 40
0.0003
100
AcDbArc
 50
81.4855215660212
 51
180.0
  0
ARC
  5
1A97
330
1F
100
AcDbEntity
  8
SANINDUSA
100
AcDbCircle
 10
1551.345015788333
 20
781.7715197752562
 30
0.0000000001555548
 40
0.0008
100
AcDbArc
 50
81.4855215660212
 51
90.0
  0
LINE
  5
1A98
330
1F
100
AcDbEntity
  8
SANINDUSA
100
AcDbLine
 10
1551.345473387504
 20
781.7707434673383
 30
0.0000000001555548
 11
1551.344317805302
 21
781.7709164688005
 31
0.0000000001555548
  0
LINE
  5
1A99
330
1F
100
AcDbEntity
  8
SANINDUSA
100
AcDbLine
 10
1551.345473387504
 20
781.7707434673383
 30
0.0000000001555548
 11
1551.345473387504
 21
781.7699197752562
 31
0.0000000001555548
  0
LINE
  5
1A9A
330
1F
100
AcDbEntity
  8
SANINDUSA
100
AcDbLine
 10
1551.345473387504
 20
781.7699197752562
 30
0.0000000001555548
 11
1551.346673387504
 21
781.7699197752562
 31
0.0000000001555548
  0
LINE
  5
1A9B
330
1F
100
AcDbEntity
  8
SANINDUSA
100
AcDbLine
 10
1551.346673387504
 20
781.7705638161164
 30
0.0000000001555548
 11
1551.346673387504
 21
781.7699197752562
 31
0.0000000001555548
  0
LINE
  5
1A9C
330
1F
100
AcDbEntity
  8
SANINDUSA
100
AcDbLine
 10
1551.350595575103
 20
781.7699766279543
 30
0.0000000001555548
 11
1551.346673387504
 21
781.7705638161164
 31
0.0000000001555548
  0
LINE
  5
1A9D
330
1F
100
AcDbEntity
  8
SANINDUSA
100
AcDbLine
 10
1551.345473387504
 20
781.7637197752561
 30
0.0000000001555548
 11
1551.346673387504
 21
781.7637197752561
 31
0.0000000001555548
  0
LINE
  5
1A9E
330
1F
100
AcDbEntity
  8
SANINDUSA
100
AcDbLine
 10
1551.355291834966
 20
781.7707902704555
 30
0.0000000001555548
 11
1551.345134235795
 21
781.7723109580409
 31
0.0000000001555548
  0
LINE
  5
1A9F
330
1F
100
AcDbEntity
  8
SANINDUSA
100
AcDbLine
 10
1551.353473387504
 20
781.7699502502644
 30
0.0000000001555548
 11
1551.350654798834
 21
781.7703722193466
 31
0.0000000001555548
  0
ARC
  5
1AA0
330
1F
100
AcDbEntity
  8
SANINDUSA
100
AcDbCircle
 10
1551.355173387504
 20
781.7636404628417
 30
0.0000000001555548
 40
0.0008
100
AcDbArc
 50
278.5144784339788
 51
0.0
  0
LINE
  5
1AA1
330
1F
100
AcDbEntity
  8
SANINDUSA
100
AcDbLine
 10
1551.350654798834
 20
781.7632673311658
 30
0.0000000001555548
 11
1551.350595575103
 21
781.7636629225582
 31
0.0000000001555548
  0
ARC
  5
1AA2
330
1F
100
AcDbEntity
  8
SANINDUSA
100
AcDbCircle
 10
1551.344273387504
 20
781.7630197752562
 30
0.0000000001555548
 40
0.0003
100
AcDbArc
 50
180.0
 51
278.5144784339788
  0
ARC
  5
1AA3
330
1F
100
AcDbEntity
  8
SANINDUSA
100
AcDbCircle
 10
1551.345015788333
 20
781.7621197752562
 30
0.0000000001555548
 40
0.0008
100
AcDbArc
 50
270.0
 51
278.5144784339788
  0
LINE
  5
1AA4
330
1F
100
AcDbEntity
  8
SANINDUSA
100
AcDbLine
 10
1551.344317805302
 20
781.7627230817119
 30
0.0000000001555548
 11
1551.345473387504
 21
781.762896083174
 31
0.0000000001555548
  0
LINE
  5
1AA5
330
1F
100
AcDbEntity
  8
SANINDUSA
100
AcDbLine
 10
1551.350595575103
 20
781.7636629225582
 30
0.0000000001555548
 11
1551.346673387504
 21
781.763075734396
 31
0.0000000001555548
  0
LINE
  5
1AA6
330
1F
100
AcDbEntity
  8
SANINDUSA
100
AcDbLine
 10
1551.345134235795
 20
781.7613285924715
 30
0.0000000001555548
 11
1551.355291834966
 21
781.762849280057
 31
0.0000000001555548
  0
LINE
  5
1AA7
330
1F
100
AcDbEntity
  8
SANINDUSA
100
AcDbLine
 10
1551.343973387504
 20
781.7706197752563
 30
0.0000000001555548
 11
1551.343973387504
 21
781.7630197752562
 31
0.0000000001555548
  0
LINE
  5
1AA8
330
1F
100
AcDbEntity
  8
SANINDUSA
100
AcDbLine
 10
1551.355973387504
 20
781.7641197752561
 30
0.0000000001555548
 11
1551.355973387504
 21
781.7636404628417
 31
0.0000000001555548
  0
LINE
  5
1AA9
330
1F
100
AcDbEntity
  8
SANINDUSA
100
AcDbLine
 10
1551.346673387504
 20
781.7637197752561
 30
0.0000000001555548
 11
1551.346673387504
 21
781.763075734396
 31
0.0000000001555548
  0
LINE
  5
1AAA
330
1F
100
AcDbEntity
  8
SANINDUSA
100
AcDbLine
 10
1551.345473387504
 20
781.7637197752561
 30
0.0000000001555548
 11
1551.345473387504
 21
781.762896083174
 31
0.0000000001555548
  0
LINE
  5
1AAB
330
1F
100
AcDbEntity
  8
SANINDUSA
100
AcDbLine
 10
1551.353473387504
 20
781.7636893002481
 30
0.0000000001555548
 11
1551.350654798834
 21
781.7632673311658
 31
0.0000000001555548
  0
LINE
  5
1AAC
330
1F
100
AcDbEntity
  8
SANINDUSA
100
AcDbLine
 10
1551.35317669396
 20
781.7636448824499
 30
0.0000000001555548
 11
1551.352924993104
 21
781.7653261458674
 31
0.0000000001555548
  0
LINE
  5
1AAD
330
1F
100
AcDbEntity
  8
SANINDUSA
100
AcDbLine
 10
1551.352781102568
 20
781.763585658719
 30
0.0000000001555548
 11
1551.352529401712
 21
781.7652669221366
 31
0.0000000001555548
  0
LINE
  5
1AAE
330
1F
100
AcDbEntity
  8
SANINDUSA
100
AcDbLine
 10
1551.342473387504
 20
781.7723197752561
 30
0.0000000001555548
 11
1551.340216028191
 21
781.7723197752561
 31
0.0000000001555548
  0
ARC
  5
1AAF
330
1F
100
AcDbEntity
  8
SANINDUSA
100
AcDbCircle
 10
1551.341473387504
 20
781.7703197752562
 30
0.0000000001555548
 40
0.001
100
AcDbArc
 50
0.0
 51
90.0
  0
ARC
  5
1AB0
330
1F
100
AcDbEntity
  8
SANINDUSA
100
AcDbCircle
 10
1551.340203606401
 20
781.770969754119
 30
0.0000000001555548
 40
0.00075
100
AcDbArc
 50
47.16775950356548
 51
90.19499109435137
  0
ARC
  5
1AB1
330
1F
100
AcDbEntity
  8
SANINDUSA
100
AcDbCircle
 10
1551.341223387504
 20
781.7720697752562
 30
0.0000000001555548
 40
0.00075
100
AcDbArc
 50
227.1677595035655
 51
270.0
  0
LINE
  5
1AB2
330
1F
100
AcDbEntity
  8
SANINDUSA
100
AcDbLine
 10
1551.341223387504
 20
781.7713197752562
 30
0.0000000001555548
 11
1551.341473387504
 21
781.7713197752562
 31
0.0000000001555548
  0
LINE
  5
1AB3
330
1F
100
AcDbEntity
  8
SANINDUSA
100
AcDbLine
 10
1551.336558133179
 20
781.7698844199176
 30
0.0000000001555548
 11
1551.337104758354
 21
781.7704310450935
 31
0.0000000001555548
  0
ARC
  5
1AB4
330
1F
100
AcDbEntity
  8
SANINDUSA
100
AcDbCircle
 10
1551.335992447754
 20
781.7693894451697
 30
0.0000000001555548
 40
0.0002
100
AcDbArc
 50
45.00000010593649
 51
135.0000000736949
  0
ARC
  5
1AB5
330
1F
100
AcDbEntity
  8
SANINDUSA
100
AcDbCircle
 10
1551.340216028191
 20
781.7673197752561
 30
0.0000000001555548
 40
0.005
100
AcDbArc
 50
90.0
 51
135.0
  0
ARC
  5
1AB6
330
1F
100
AcDbEntity
  8
SANINDUSA
100
AcDbCircle
 10
1551.340216028191
 20
781.7673197752561
 30
0.0000000001555548
 40
0.0044
100
AcDbArc
 50
90.19499109435137
 51
135.0
  0
ARC
  5
1AB7
330
1F
100
AcDbEntity
  8
SANINDUSA
100
AcDbCircle
 10
1551.337159173941
 20
781.7677984549195
 30
0.0000000001555548
 40
0.00075
100
AcDbArc
 50
314.9999999677585
 51
45.0
  0
ARC
  5
1AB8
330
1F
100
AcDbEntity
  8
SANINDUSA
100
AcDbCircle
 10
1551.337159173941
 20
781.7677984549195
 30
0.0000000001555548
 40
0.0005
100
AcDbArc
 50
314.9999999677585
 51
45.0
  0
ARC
  5
1AB9
330
1F
100
AcDbEntity
  8
SANINDUSA
100
AcDbCircle
 10
1551.336770265213
 20
781.7696722878832
 30
0.0000000001555548
 40
0.0003
100
AcDbArc
 50
135.0
 51
225.0000001105424
  0
LINE
  5
1ABA
330
1F
100
AcDbEntity
  8
SANINDUSA
100
AcDbLine
 10
1551.335921737074
 20
781.7700965519508
 30
0.0000000001555548
 11
1551.337689504027
 21
781.7683287850058
 31
0.0000000001555548
  0
LINE
  5
1ABB
330
1F
100
AcDbEntity
  8
SANINDUSA
100
AcDbLine
 10
1551.33613386911
 20
781.7695308665262
 30
0.0000000001555548
 11
1551.337512727332
 21
781.7681520083101
 31
0.0000000001555548
  0
ARC
  5
1ABC
330
1F
100
AcDbEntity
  8
SANINDUSA
100
AcDbCircle
 10
1551.331396253672
 20
781.7642982763421
 30
0.0000000001555548
 40
0.0003
100
AcDbArc
 50
45.00000003684747
 51
135.0
  0
ARC
  5
1ABD
330
1F
100
AcDbEntity
  8
SANINDUSA
100
AcDbCircle
 10
1551.331679096383
 20
781.765076093788
 30
0.0000000001555548
 40
0.0002
100
AcDbArc
 50
135.000000069089
 51
225.0000002947798
  0
LINE
  5
1ABE
330
1F
100
AcDbEntity
  8
SANINDUSA
100
AcDbLine
 10
1551.330983438011
 20
781.7643097247498
 30
0.0000000001555548
 11
1551.331184121637
 21
781.7645104083765
 31
0.0000000001555548
  0
LINE
  5
1ABF
330
1F
100
AcDbEntity
  8
SANINDUSA
100
AcDbLine
 10
1551.330559173942
 20
781.7647339888186
 30
0.0000000001555548
 11
1551.336680494286
 21
781.7708553091621
 31
0.0000000001555548
  0
LINE
  5
1AC0
330
1F
100
AcDbEntity
  8
SANINDUSA
100
AcDbLine
 10
1551.331537675027
 20
781.765217515144
 30
0.0000000001555548
 11
1551.335851026398
 21
781.7695308665259
 31
0.0000000001555548
  0
ARC
  5
1AC1
330
1F
100
AcDbEntity
  8
SANINDUSA
100
AcDbCircle
 10
1551.341473387504
 20
781.7633197752562
 30
0.0000000001555548
 40
0.001
100
AcDbArc
 50
270.0
 51
0.0
  0
ARC
  5
1AC2
330
1F
100
AcDbEntity
  8
SANINDUSA
100
AcDbCircle
 10
1551.336453583602
 20
781.7626697752562
 30
0.0000000001555548
 40
0.00075
100
AcDbArc
 50
270.0
 51
312.8334280650302
  0
ARC
  5
1AC3
330
1F
100
AcDbEntity
  8
SANINDUSA
100
AcDbCircle
 10
1551.337473387504
 20
781.7615697752562
 30
0.0000000001555548
 40
0.00075
100
AcDbArc
 50
90.0
 51
132.8334280650302
  0
LINE
  5
1AC4
330
1F
100
AcDbEntity
  8
SANINDUSA
100
AcDbLine
 10
1551.341473387504
 20
781.7623197752562
 30
0.0000000001555548
 11
1551.337473387504
 21
781.7623197752562
 31
0.0000000001555548
  0
ARC
  5
1AC5
330
1F
100
AcDbEntity
  8
SANINDUSA
100
AcDbCircle
 10
1551.333270086639
 20
781.7639093676161
 30
0.0000000001555548
 40
0.00075
100
AcDbArc
 50
225.0
 51
315.0
  0
ARC
  5
1AC6
330
1F
100
AcDbEntity
  8
SANINDUSA
100
AcDbCircle
 10
1551.333270086639
 20
781.7639093676161
 30
0.0000000001555548
 40
0.0005
100
AcDbArc
 50
225.0
 51
315.0
  0
LINE
  5
1AC7
330
1F
100
AcDbEntity
  8
SANINDUSA
100
AcDbLine
 10
1551.342473387504
 20
781.7613197752562
 30
0.0000000001555548
 11
1551.331973387504
 21
781.7613197752562
 31
0.0000000001555548
  0
LINE
  5
1AC8
330
1F
100
AcDbEntity
  8
SANINDUSA
100
AcDbLine
 10
1551.336453583602
 20
781.7619197752563
 30
0.0000000001555548
 11
1551.331973387504
 21
781.7619197752563
 31
0.0000000001555548
  0
ARC
  5
1AC9
330
1F
100
AcDbEntity
  8
SANINDUSA
100
AcDbCircle
 10
1551.331973387504
 20
781.7633197752562
 30
0.0000000001555548
 40
0.002
100
AcDbArc
 50
135.0
 51
270.0
  0
LINE
  5
1ACA
330
1F
100
AcDbEntity
  8
SANINDUSA
100
AcDbLine
 10
1551.333800416725
 20
781.7633790375302
 30
0.0000000001555548
 11
1551.337689504027
 21
781.7672681248335
 31
0.0000000001555548
  0
ARC
  5
1ACB
330
1F
100
AcDbEntity
  8
SANINDUSA
100
AcDbCircle
 10
1551.331973387504
 20
781.7633197752562
 30
0.0000000001555548
 40
0.0014
100
AcDbArc
 50
135.0
 51
270.0
  0
LINE
  5
1ACC
330
1F
100
AcDbEntity
  8
SANINDUSA
100
AcDbLine
 10
1551.330971989602
 20
781.7651468044791
 30
0.0000000001555548
 11
1551.332739756553
 21
781.7633790375305
 31
0.0000000001555548
  0
LINE
  5
1ACD
330
1F
100
AcDbEntity
  8
SANINDUSA
100
AcDbLine
 10
1551.342473387504
 20
781.7703197752562
 30
0.0000000001555548
 11
1551.342473387504
 21
781.7633197752562
 31
0.0000000001555548
  0
LINE
  5
1ACF
330
1F
100
AcDbEntity
  8
SANINDUSA
100
AcDbLine
 10
1551.33362364003
 20
781.7635558142256
 30
0.0000000001555548
 11
1551.337512727332
 21
781.7674449015287
 31
0.0000000001555548
  0
LINE
  5
1AD0
330
1F
100
AcDbEntity
  8
SANINDUSA
100
AcDbLine
 10
1551.331537675028
 20
781.7649346724309
 30
0.0000000001555548
 11
1551.332916533249
 21
781.7635558142256
 31
0.0000000001555548
  0
LINE
  5
1AD1
330
1F
100
AcDbEntity
  8
SANINDUSA
100
AcDbLine
 10
1551.342473387504
 20
781.7723197752561
 30
0.0000000001555548
 11
1551.345015788333
 21
781.7723197752561
 31
0.0000000001555548
  0
LINE
  5
1AD2
330
1F
100
AcDbEntity
  8
SANINDUSA
100
AcDbLine
 10
1551.342473387504
 20
781.7613197752562
 30
0.0000000001555548
 11
1551.345015788333
 21
781.7613197752562
 31
0.0000000001555548
  0
LINE
  5
1AD3
330
1F
100
AcDbEntity
  8
SANINDUSA
100
AcDbLine
 10
1551.335682851438
 20
781.7902896237371
 30
0.0000000001555548
 11
1551.335203539023
 21
781.7902896237371
 31
0.0000000001555548
  0
LINE
  5
1AD4
330
1F
100
AcDbEntity
  8
SANINDUSA
100
AcDbLine
 10
1551.335634014032
 20
781.7877896237372
 30
0.0000000001555548
 11
1551.335238422639
 21
781.7877304000063
 31
0.0000000001555548
  0
ARC
  5
1AD5
330
1F
100
AcDbEntity
  8
SANINDUSA
100
AcDbCircle
 10
1551.335682851438
 20
781.7894896237371
 30
0.0000000001555548
 40
0.0008
100
AcDbArc
 50
8.514478434943223
 51
90.0
  0
ARC
  5
1AD6
330
1F
100
AcDbEntity
  8
SANINDUSA
100
AcDbCircle
 10
1551.334026780278
 20
781.7870434336406
 30
0.0000000001555548
 40
0.0002
100
AcDbArc
 50
98.51447843397879
 51
278.5144784339788
  0
LINE
  5
1AD7
330
1F
100
AcDbEntity
  8
SANINDUSA
100
AcDbLine
 10
1551.330100232568
 20
781.789945205939
 30
0.0000000001555548
 11
1551.329768655407
 21
781.7877304000063
 31
0.0000000001555548
  0
ARC
  5
1AD8
330
1F
100
AcDbEntity
  8
SANINDUSA
100
AcDbCircle
 10
1551.330980297769
 20
781.7870434336406
 30
0.0000000001555548
 40
0.0002
100
AcDbArc
 50
261.4855215660213
 51
81.4855215660212
  0
LINE
  5
1AD9
330
1F
100
AcDbEntity
  8
SANINDUSA
100
AcDbLine
 10
1551.329373064015
 20
781.7877896237372
 30
0.0000000001555548
 11
1551.329768655407
 21
781.7877304000063
 31
0.0000000001555548
  0
ARC
  5
1ADA
330
1F
100
AcDbEntity
  8
SANINDUSA
100
AcDbCircle
 10
1551.329803539023
 20
781.7899896237372
 30
0.0000000001555548
 40
0.0003
100
AcDbArc
 50
351.4855215650568
 51
90.0
  0
ARC
  5
1ADB
330
1F
100
AcDbEntity
  8
SANINDUSA
100
AcDbCircle
 10
1551.335203539023
 20
781.7899896237372
 30
0.0000000001555548
 40
0.0003
100
AcDbArc
 50
90.0
 51
188.5144784349432
  0
LINE
  5
1ADC
330
1F
100
AcDbEntity
  8
SANINDUSA
100
AcDbLine
 10
1551.334906845479
 20
781.789945205939
 30
0.0000000001555548
 11
1551.335238422639
 21
781.7877304000063
 31
0.0000000001555548
  0
LINE
  5
1ADD
330
1F
100
AcDbEntity
  8
SANINDUSA
100
AcDbLine
 10
1551.33573765556
 20
781.7870973388005
 30
0.0000000001555548
 11
1551.334056392143
 21
781.7868456379444
 31
0.0000000001555548
  0
LINE
  5
1ADE
330
1F
100
AcDbEntity
  8
SANINDUSA
100
AcDbLine
 10
1551.33567843183
 20
781.7874929301929
 30
0.0000000001555548
 11
1551.333997168412
 21
781.7872412293368
 31
0.0000000001555548
  0
LINE
  5
1ADF
330
1F
100
AcDbEntity
  8
SANINDUSA
100
AcDbLine
 10
1551.336055983114
 20
781.7849710350666
 30
0.0000000001555548
 11
1551.335660391721
 21
781.7849118113358
 31
0.0000000001555548
  0
ARC
  5
1AE0
330
1F
100
AcDbEntity
  8
SANINDUSA
100
AcDbCircle
 10
1551.336303539023
 20
781.7785896237372
 30
0.0000000001555548
 40
0.0003
100
AcDbArc
 50
270.0
 51
8.514478434943223
  0
ARC
  5
1AE1
330
1F
100
AcDbEntity
  8
SANINDUSA
100
AcDbCircle
 10
1551.337203539023
 20
781.7793320245663
 30
0.0000000001555548
 40
0.0008
100
AcDbArc
 50
0.0
 51
8.514478434943223
  0
LINE
  5
1AE2
330
1F
100
AcDbEntity
  8
SANINDUSA
100
AcDbLine
 10
1551.336427231105
 20
781.7797896237371
 30
0.0000000001555548
 11
1551.336600232567
 21
781.7786340415353
 31
0.0000000001555548
  0
LINE
  5
1AE3
330
1F
100
AcDbEntity
  8
SANINDUSA
100
AcDbLine
 10
1551.336427231105
 20
781.7797896237371
 30
0.0000000001555548
 11
1551.335603539023
 21
781.7797896237371
 31
0.0000000001555548
  0
LINE
  5
1AE4
330
1F
100
AcDbEntity
  8
SANINDUSA
100
AcDbLine
 10
1551.335603539023
 20
781.7797896237371
 30
0.0000000001555548
 11
1551.335603539023
 21
781.7809896237372
 31
0.0000000001555548
  0
LINE
  5
1AE5
330
1F
100
AcDbEntity
  8
SANINDUSA
100
AcDbLine
 10
1551.336247579883
 20
781.7809896237372
 30
0.0000000001555548
 11
1551.335603539023
 21
781.7809896237372
 31
0.0000000001555548
  0
LINE
  5
1AE6
330
1F
100
AcDbEntity
  8
SANINDUSA
100
AcDbLine
 10
1551.335660391721
 20
781.7849118113358
 30
0.0000000001555548
 11
1551.336247579883
 21
781.7809896237372
 31
0.0000000001555548
  0
LINE
  5
1AE7
330
1F
100
AcDbEntity
  8
SANINDUSA
100
AcDbLine
 10
1551.329403539023
 20
781.7797896237371
 30
0.0000000001555548
 11
1551.329403539023
 21
781.7809896237372
 31
0.0000000001555548
  0
LINE
  5
1AE8
330
1F
100
AcDbEntity
  8
SANINDUSA
100
AcDbLine
 10
1551.336474034223
 20
781.7896080711989
 30
0.0000000001555548
 11
1551.337994721808
 21
781.7794504720279
 31
0.0000000001555548
  0
LINE
  5
1AE9
330
1F
100
AcDbEntity
  8
SANINDUSA
100
AcDbLine
 10
1551.335634014032
 20
781.7877896237372
 30
0.0000000001555548
 11
1551.336055983114
 21
781.7849710350666
 31
0.0000000001555548
  0
ARC
  5
1AEA
330
1F
100
AcDbEntity
  8
SANINDUSA
100
AcDbCircle
 10
1551.329324226609
 20
781.7894896237371
 30
0.0000000001555548
 40
0.0008
100
AcDbArc
 50
90.0
 51
171.4855215650568
  0
LINE
  5
1AEB
330
1F
100
AcDbEntity
  8
SANINDUSA
100
AcDbLine
 10
1551.328951094933
 20
781.7849710350666
 30
0.0000000001555548
 11
1551.329346686325
 21
781.7849118113358
 31
0.0000000001555548
  0
ARC
  5
1AEC
330
1F
100
AcDbEntity
  8
SANINDUSA
100
AcDbCircle
 10
1551.328703539024
 20
781.7785896237372
 30
0.0000000001555548
 40
0.0003
100
AcDbArc
 50
171.4855215650568
 51
270.0
  0
ARC
  5
1AED
330
1F
100
AcDbEntity
  8
SANINDUSA
100
AcDbCircle
 10
1551.327803539023
 20
781.7793320245663
 30
0.0000000001555548
 40
0.0008
100
AcDbArc
 50
171.4855215650568
 51
180.0
  0
LINE
  5
1AEE
330
1F
100
AcDbEntity
  8
SANINDUSA
100
AcDbLine
 10
1551.328406845479
 20
781.7786340415353
 30
0.0000000001555548
 11
1551.328579846941
 21
781.7797896237371
 31
0.0000000001555548
  0
LINE
  5
1AEF
330
1F
100
AcDbEntity
  8
SANINDUSA
100
AcDbLine
 10
1551.329346686325
 20
781.7849118113358
 30
0.0000000001555548
 11
1551.328759498163
 21
781.7809896237372
 31
0.0000000001555548
  0
LINE
  5
1AF0
330
1F
100
AcDbEntity
  8
SANINDUSA
100
AcDbLine
 10
1551.327012356239
 20
781.7794504720279
 30
0.0000000001555548
 11
1551.328533043824
 21
781.7896080711989
 31
0.0000000001555548
  0
LINE
  5
1AF1
330
1F
100
AcDbEntity
  8
SANINDUSA
100
AcDbLine
 10
1551.336303539023
 20
781.7782896237372
 30
0.0000000001555548
 11
1551.328703539024
 21
781.7782896237372
 31
0.0000000001555548
  0
LINE
  5
1AF2
330
1F
100
AcDbEntity
  8
SANINDUSA
100
AcDbLine
 10
1551.329803539023
 20
781.7902896237371
 30
0.0000000001555548
 11
1551.329324226609
 21
781.7902896237371
 31
0.0000000001555548
  0
LINE
  5
1AF3
330
1F
100
AcDbEntity
  8
SANINDUSA
100
AcDbLine
 10
1551.329403539023
 20
781.7809896237372
 30
0.0000000001555548
 11
1551.328759498163
 21
781.7809896237372
 31
0.0000000001555548
  0
LINE
  5
1AF4
330
1F
100
AcDbEntity
  8
SANINDUSA
100
AcDbLine
 10
1551.329403539023
 20
781.7797896237371
 30
0.0000000001555548
 11
1551.328579846941
 21
781.7797896237371
 31
0.0000000001555548
  0
LINE
  5
1AF5
330
1F
100
AcDbEntity
  8
SANINDUSA
100
AcDbLine
 10
1551.329373064015
 20
781.7877896237372
 30
0.0000000001555548
 11
1551.328951094933
 21
781.7849710350666
 31
0.0000000001555548
  0
LINE
  5
1AF6
330
1F
100
AcDbEntity
  8
SANINDUSA
100
AcDbLine
 10
1551.329328646217
 20
781.7874929301929
 30
0.0000000001555548
 11
1551.331009909635
 21
781.7872412293368
 31
0.0000000001555548
  0
LINE
  5
1AF7
330
1F
100
AcDbEntity
  8
SANINDUSA
100
AcDbLine
 10
1551.329269422486
 20
781.7870973388005
 30
0.0000000001555548
 11
1551.330950685904
 21
781.7868456379444
 31
0.0000000001555548
  0
LINE
  5
1AF8
330
1F
100
AcDbEntity
  8
SANINDUSA
100
AcDbLine
 10
1551.338003539023
 20
781.7767896237371
 30
0.0000000001555548
 11
1551.338003539023
 21
781.7745322644243
 31
0.0000000001555548
  0
ARC
  5
1AF9
330
1F
100
AcDbEntity
  8
SANINDUSA
100
AcDbCircle
 10
1551.336003539023
 20
781.7757896237371
 30
0.0000000001555548
 40
0.001
100
AcDbArc
 50
0.0
 51
90.0
  0
ARC
  5
1AFA
330
1F
100
AcDbEntity
  8
SANINDUSA
100
AcDbCircle
 10
1551.336653517886
 20
781.7745198426343
 30
0.0000000001555548
 40
0.00075
100
AcDbArc
 50
359.8050088991349
 51
42.83224050121138
  0
ARC
  5
1AFB
330
1F
100
AcDbEntity
  8
SANINDUSA
100
AcDbCircle
 10
1551.337753539023
 20
781.7755396237372
 30
0.0000000001555548
 40
0.00075
100
AcDbArc
 50
180.0
 51
222.8322405012114
  0
LINE
  5
1AFC
330
1F
100
AcDbEntity
  8
SANINDUSA
100
AcDbLine
 10
1551.337003539023
 20
781.7755396237372
 30
0.0000000001555548
 11
1551.337003539023
 21
781.7757896237371
 31
0.0000000001555548
  0
LINE
  5
1AFD
330
1F
100
AcDbEntity
  8
SANINDUSA
100
AcDbLine
 10
1551.335568183685
 20
781.7708743694116
 30
0.0000000001555548
 11
1551.336114808861
 21
781.771420994587
 31
0.0000000001555548
  0
ARC
  5
1AFE
330
1F
100
AcDbEntity
  8
SANINDUSA
100
AcDbCircle
 10
1551.335073208937
 20
781.7703086839872
 30
0.0000000001555548
 40
0.0002
100
AcDbArc
 50
314.999999926305
 51
44.99999989406349
  0
ARC
  5
1AFF
330
1F
100
AcDbEntity
  8
SANINDUSA
100
AcDbCircle
 10
1551.333003539023
 20
781.7745322644243
 30
0.0000000001555548
 40
0.005
100
AcDbArc
 50
315.0
 51
0.0
  0
ARC
  5
1B00
330
1F
100
AcDbEntity
  8
SANINDUSA
100
AcDbCircle
 10
1551.333003539023
 20
781.7745322644243
 30
0.0000000001555548
 40
0.0044
100
AcDbArc
 50
315.0
 51
359.8050088991349
  0
ARC
  5
1B01
330
1F
100
AcDbEntity
  8
SANINDUSA
100
AcDbCircle
 10
1551.333482218687
 20
781.771475410174
 30
0.0000000001555548
 40
0.00075
100
AcDbArc
 50
45.0
 51
135.0000000368474
  0
ARC
  5
1B02
330
1F
100
AcDbEntity
  8
SANINDUSA
100
AcDbCircle
 10
1551.333482218687
 20
781.771475410174
 30
0.0000000001555548
 40
0.0005
100
AcDbArc
 50
45.0
 51
135.0000000368474
  0
ARC
  5
1B03
330
1F
100
AcDbEntity
  8
SANINDUSA
100
AcDbCircle
 10
1551.33535605165
 20
781.7710865014459
 30
0.0000000001555548
 40
0.0003
100
AcDbArc
 50
224.9999998894576
 51
315.0
  0
LINE
  5
1B04
330
1F
100
AcDbEntity
  8
SANINDUSA
100
AcDbLine
 10
1551.335780315718
 20
781.7702379733071
 30
0.0000000001555548
 11
1551.334012548773
 21
781.7720057402596
 31
0.0000000001555548
  0
LINE
  5
1B05
330
1F
100
AcDbEntity
  8
SANINDUSA
100
AcDbLine
 10
1551.335214630294
 20
781.7704501053431
 30
0.0000000001555548
 11
1551.333835772077
 21
781.7718289635646
 31
0.0000000001555548
  0
ARC
  5
1B06
330
1F
100
AcDbEntity
  8
SANINDUSA
100
AcDbCircle
 10
1551.329982040109
 20
781.7657124899044
 30
0.0000000001555548
 40
0.0003
100
AcDbArc
 50
315.0
 51
44.99999996315252
  0
ARC
  5
1B07
330
1F
100
AcDbEntity
  8
SANINDUSA
100
AcDbCircle
 10
1551.330759857555
 20
781.7659953326166
 30
0.0000000001555548
 40
0.0002
100
AcDbArc
 50
224.9999997006142
 51
314.999999930911
  0
LINE
  5
1B08
330
1F
100
AcDbEntity
  8
SANINDUSA
100
AcDbLine
 10
1551.329993488517
 20
781.7652996742435
 30
0.0000000001555548
 11
1551.330194172144
 21
781.76550035787
 31
0.0000000001555548
  0
LINE
  5
1B09
330
1F
100
AcDbEntity
  8
SANINDUSA
100
AcDbLine
 10
1551.330417752586
 20
781.7648754101748
 30
0.0000000001555548
 11
1551.336539072929
 21
781.7709967305184
 31
0.0000000001555548
  0
LINE
  5
1B0A
330
1F
100
AcDbEntity
  8
SANINDUSA
100
AcDbLine
 10
1551.330901278911
 20
781.7658539112602
 30
0.0000000001555548
 11
1551.335214630293
 21
781.7701672626307
 31
0.0000000001555548
  0
ARC
  5
1B0B
330
1F
100
AcDbEntity
  8
SANINDUSA
100
AcDbCircle
 10
1551.329003539023
 20
781.7757896237371
 30
0.0000000001555548
 40
0.001
100
AcDbArc
 50
90.0
 51
180.0
  0
ARC
  5
1B0C
330
1F
100
AcDbEntity
  8
SANINDUSA
100
AcDbCircle
 10
1551.328353539023
 20
781.7707698198345
 30
0.0000000001555548
 40
0.00075
100
AcDbArc
 50
137.1665719349697
 51
180.0
  0
ARC
  5
1B0D
330
1F
100
AcDbEntity
  8
SANINDUSA
100
AcDbCircle
 10
1551.327253539023
 20
781.7717896237371
 30
0.0000000001555548
 40
0.00075
100
AcDbArc
 50
317.1665719349698
 51
0.0
  0
LINE
  5
1B0E
330
1F
100
AcDbEntity
  8
SANINDUSA
100
AcDbLine
 10
1551.328003539023
 20
781.7757896237371
 30
0.0000000001555548
 11
1551.328003539023
 21
781.7717896237371
 31
0.0000000001555548
  0
ARC
  5
1B0F
330
1F
100
AcDbEntity
  8
SANINDUSA
100
AcDbCircle
 10
1551.329593131383
 20
781.7675863228725
 30
0.0000000001555548
 40
0.00075
100
AcDbArc
 50
135.0
 51
225.0
  0
ARC
  5
1B10
330
1F
100
AcDbEntity
  8
SANINDUSA
100
AcDbCircle
 10
1551.329593131383
 20
781.7675863228725
 30
0.0000000001555548
 40
0.0005
100
AcDbArc
 50
135.0
 51
225.0
  0
LINE
  5
1B11
330
1F
100
AcDbEntity
  8
SANINDUSA
100
AcDbLine
 10
1551.327003539023
 20
781.7767896237371
 30
0.0000000001555548
 11
1551.327003539023
 21
781.7662896237371
 31
0.0000000001555548
  0
LINE
  5
1B12
330
1F
100
AcDbEntity
  8
SANINDUSA
100
AcDbLine
 10
1551.327603539023
 20
781.7707698198345
 30
0.0000000001555548
 11
1551.327603539023
 21
781.7662896237371
 31
0.0000000001555548
  0
ARC
  5
1B13
330
1F
100
AcDbEntity
  8
SANINDUSA
100
AcDbCircle
 10
1551.329003539023
 20
781.7662896237371
 30
0.0000000001555548
 40
0.002
100
AcDbArc
 50
180.0
 51
315.0
  0
LINE
  5
1B14
330
1F
100
AcDbEntity
  8
SANINDUSA
100
AcDbLine
 10
1551.329062801297
 20
781.7681166529584
 30
0.0000000001555548
 11
1551.332951888601
 21
781.7720057402598
 31
0.0000000001555548
  0
ARC
  5
1B15
330
1F
100
AcDbEntity
  8
SANINDUSA
100
AcDbCircle
 10
1551.329003539023
 20
781.7662896237371
 30
0.0000000001555548
 40
0.0014
100
AcDbArc
 50
180.0
 51
315.0
  0
LINE
  5
1B16
330
1F
100
AcDbEntity
  8
SANINDUSA
100
AcDbLine
 10
1551.330830568246
 20
781.7652882258353
 30
0.0000000001555548
 11
1551.329062801298
 21
781.7670559927862
 31
0.0000000001555548
  0
LINE
  5
1B17
330
1F
100
AcDbEntity
  8
SANINDUSA
100
AcDbLine
 10
1551.336003539023
 20
781.7767896237371
 30
0.0000000001555548
 11
1551.329003539023
 21
781.7767896237371
 31
0.0000000001555548
  0
LINE
  5
1B19
330
1F
100
AcDbEntity
  8
SANINDUSA
100
AcDbLine
 10
1551.329239577993
 20
781.767939876263
 30
0.0000000001555548
 11
1551.333128665296
 21
781.7718289635645
 31
0.0000000001555548
  0
LINE
  5
1B1A
330
1F
100
AcDbEntity
  8
SANINDUSA
100
AcDbLine
 10
1551.330618436198
 20
781.7658539112612
 30
0.0000000001555548
 11
1551.329239577993
 21
781.7672327694818
 31
0.0000000001555548
  0
LINE
  5
1B1B
330
1F
100
AcDbEntity
  8
SANINDUSA
100
AcDbLine
 10
1551.338003539023
 20
781.7767896237371
 30
0.0000000001555548
 11
1551.338003539023
 21
781.7793320245663
 31
0.0000000001555548
  0
LINE
  5
1B1C
330
1F
100
AcDbEntity
  8
SANINDUSA
100
AcDbLine
 10
1551.327003539023
 20
781.7767896237371
 30
0.0000000001555548
 11
1551.327003539023
 21
781.7793320245663
 31
0.0000000001555548
  0
LINE
  5
1B1D
330
1F
100
AcDbEntity
  8
SANINDUSA
100
AcDbLine
 10
1551.336503535214
 20
782.3935412646984
 30
0.0
 11
1551.336503535214
 21
782.3962298778488
 31
0.0
  0
ARC
  5
1B1E
330
1F
100
AcDbEntity
  8
SANINDUSA
100
AcDbCircle
 10
1551.336003535214
 20
782.3935412646984
 30
0.0
 40
0.0005000000000001
100
AcDbArc
 50
293.5781784724816
 51
0.0
  0
ARC
  5
1B1F
330
1F
100
AcDbEntity
  8
SANINDUSA
100
AcDbCircle
 10
1551.336003535214
 20
782.3962298778488
 30
0.0
 40
0.0005
100
AcDbArc
 50
0.0
 51
70.52877936198294
  0
ARC
  5
1B20
330
1F
100
AcDbEntity
  8
SANINDUSA
100
AcDbCircle
 10
1551.336603535214
 20
782.3921664919899
 30
0.0
 40
0.0009999999999999
100
AcDbArc
 50
113.5781784724815
 51
270.0
  0
ARC
  5
1B21
330
1F
100
AcDbEntity
  8
SANINDUSA
100
AcDbCircle
 10
1551.336503535214
 20
782.3976440914111
 30
0.0
 40
0.001
100
AcDbArc
 50
109.471220638017
 51
250.528779361983
  0
LINE
  5
1B22
330
1F
100
AcDbEntity
  8
SANINDUSA
100
AcDbLine
 10
1551.336603535214
 20
782.39116649199
 30
0.0
 11
1551.337503535214
 21
782.39116649199
 31
0.0
  0
ARC
  5
1B23
330
1F
100
AcDbEntity
  8
SANINDUSA
100
AcDbCircle
 10
1551.336003535214
 20
782.3990583049734
 30
0.0
 40
0.0004999999999999
100
AcDbArc
 50
289.471220638017
 51
0.0
  0
ARC
  5
1B24
330
1F
100
AcDbEntity
  8
SANINDUSA
100
AcDbCircle
 10
1551.337503535214
 20
782.3921664919899
 30
0.0
 40
0.0009999999999999
100
AcDbArc
 50
270.0
 51
0.0
  0
LINE
  5
1B25
330
1F
100
AcDbEntity
  8
SANINDUSA
100
AcDbLine
 10
1551.336503535214
 20
782.3990583049734
 30
0.0
 11
1551.336503535214
 21
782.4006444682301
 31
0.0
  0
LINE
  5
1B26
330
1F
100
AcDbEntity
  8
SANINDUSA
100
AcDbLine
 10
1551.338503535214
 20
782.3921664919899
 30
0.0
 11
1551.338503535214
 21
782.42366649199
 31
0.0
  0
ARC
  5
1B27
330
1F
100
AcDbEntity
  8
SANINDUSA
100
AcDbCircle
 10
1551.336003535214
 20
782.4006444682301
 30
0.0
 40
0.0005
100
AcDbArc
 50
0.0
 51
90.0
  0
ARC
  5
1B28
330
1F
100
AcDbEntity
  8
SANINDUSA
100
AcDbCircle
 10
1551.337503535214
 20
782.42366649199
 30
0.0
 40
0.001
100
AcDbArc
 50
0.0
 51
180.0
  0
LINE
  5
1B29
330
1F
100
AcDbEntity
  8
SANINDUSA
100
AcDbLine
 10
1551.336003535214
 20
782.4011444682301
 30
0.0
 11
1551.329003535214
 21
782.4011444682301
 31
0.0
  0
LINE
  5
1B2A
330
1F
100
AcDbEntity
  8
SANINDUSA
100
AcDbLine
 10
1551.336503535214
 20
782.42366649199
 30
0.0
 11
1551.336503535214
 21
782.4036444682301
 31
0.0
  0
ARC
  5
1B2B
330
1F
100
AcDbEntity
  8
SANINDUSA
100
AcDbCircle
 10
1551.329003535214
 20
782.4006444682301
 30
0.0
 40
0.0005
100
AcDbArc
 50
90.0
 51
180.0
  0
ARC
  5
1B2C
330
1F
100
AcDbEntity
  8
SANINDUSA
100
AcDbCircle
 10
1551.336003535214
 20
782.4036444682301
 30
0.0
 40
0.0005000000000001
100
AcDbArc
 50
270.0
 51
0.0
  0
LINE
  5
1B2D
330
1F
100
AcDbEntity
  8
SANINDUSA
100
AcDbLine
 10
1551.328503535214
 20
782.4006444682301
 30
0.0
 11
1551.328503535214
 21
782.3990583049734
 31
0.0
  0
LINE
  5
1B2E
330
1F
100
AcDbEntity
  8
SANINDUSA
100
AcDbLine
 10
1551.336003535214
 20
782.4031444682301
 30
0.0
 11
1551.329003535214
 21
782.4031444682301
 31
0.0
  0
ARC
  5
1B2F
330
1F
100
AcDbEntity
  8
SANINDUSA
100
AcDbCircle
 10
1551.329003535214
 20
782.3990583049734
 30
0.0
 40
0.0005
100
AcDbArc
 50
180.0
 51
250.528779361983
  0
ARC
  5
1B30
330
1F
100
AcDbEntity
  8
SANINDUSA
100
AcDbCircle
 10
1551.329003535214
 20
782.4036444682301
 30
0.0
 40
0.0005000000000001
100
AcDbArc
 50
180.0
 51
270.0
  0
ARC
  5
1B31
330
1F
100
AcDbEntity
  8
SANINDUSA
100
AcDbCircle
 10
1551.328503535214
 20
782.3976440914111
 30
0.0
 40
0.001
100
AcDbArc
 50
289.471220638017
 51
70.52877936198294
  0
LINE
  5
1B32
330
1F
100
AcDbEntity
  8
SANINDUSA
100
AcDbLine
 10
1551.328503535214
 20
782.4036444682301
 30
0.0
 11
1551.328503535214
 21
782.42366649199
 31
0.0
  0
ARC
  5
1B33
330
1F
100
AcDbEntity
  8
SANINDUSA
100
AcDbCircle
 10
1551.329003535214
 20
782.3962298778488
 30
0.0
 40
0.0005
100
AcDbArc
 50
109.471220638017
 51
180.0
  0
ARC
  5
1B34
330
1F
100
AcDbEntity
  8
SANINDUSA
100
AcDbCircle
 10
1551.327503535214
 20
782.42366649199
 30
0.0
 40
0.001
100
AcDbArc
 50
0.0
 51
180.0
  0
LINE
  5
1B35
330
1F
100
AcDbEntity
  8
SANINDUSA
100
AcDbLine
 10
1551.328503535214
 20
782.3962298778488
 30
0.0
 11
1551.328503535214
 21
782.3935412646984
 31
0.0
  0
LINE
  5
1B36
330
1F
100
AcDbEntity
  8
SANINDUSA
100
AcDbLine
 10
1551.326503535214
 20
782.42366649199
 30
0.0
 11
1551.326503535214
 21
782.3921664919899
 31
0.0
  0
ARC
  5
1B37
330
1F
100
AcDbEntity
  8
SANINDUSA
100
AcDbCircle
 10
1551.329003535214
 20
782.3935412646984
 30
0.0
 40
0.0005000000000001
100
AcDbArc
 50
180.0
 51
246.4218215275185
  0
ARC
  5
1B38
330
1F
100
AcDbEntity
  8
SANINDUSA
100
AcDbCircle
 10
1551.327503535214
 20
782.3921664919899
 30
0.0
 40
0.0010000000000001
100
AcDbArc
 50
180.0
 51
270.0
  0
ARC
  5
1B39
330
1F
100
AcDbEntity
  8
SANINDUSA
100
AcDbCircle
 10
1551.328403535214
 20
782.3921664919899
 30
0.0
 40
0.0009999999999999
100
AcDbArc
 50
270.0
 51
66.42182152751846
  0
LINE
  5
1B3A
330
1F
100
AcDbEntity
  8
SANINDUSA
100
AcDbLine
 10
1551.327503535214
 20
782.39116649199
 30
0.0
 11
1551.328403535214
 21
782.39116649199
 31
0.0
  0
ARC
  5
1B3B
330
1F
100
AcDbEntity
  8
SANINDUSA
100
AcDbCircle
 10
1551.340203535214
 20
782.44216649199
 30
0.0
 40
0.0009999999999999
100
AcDbArc
 50
0.0
 51
90.0
  0
LINE
  5
1B3C
330
1F
100
AcDbEntity
  8
SANINDUSA
100
AcDbLine
 10
1551.339217748776
 20
782.44316649199
 30
0.0
 11
1551.340203535214
 21
782.44316649199
 31
0.0
  0
LINE
  5
1B3D
330
1F
100
AcDbEntity
  8
SANINDUSA
100
AcDbLine
 10
1551.341203535214
 20
782.44216649199
 30
0.0
 11
1551.341203535214
 21
782.407143187858
 31
0.0
  0
ARC
  5
1B3E
330
1F
100
AcDbEntity
  8
SANINDUSA
100
AcDbCircle
 10
1551.339217748776
 20
782.44216649199
 30
0.0
 40
0.0010000000000003
100
AcDbArc
 50
90.0
 51
135.0
  0
ARC
  5
1B3F
330
1F
100
AcDbEntity
  8
SANINDUSA
100
AcDbCircle
 10
1551.340203535214
 20
782.407143187858
 30
0.0
 40
0.001
100
AcDbArc
 50
180.0
 51
0.0
  0
LINE
  5
1B40
330
1F
100
AcDbEntity
  8
SANINDUSA
100
AcDbLine
 10
1551.337596428433
 20
782.4419593852089
 30
0.0
 11
1551.338510641995
 21
782.4428735987712
 31
0.0
  0
LINE
  5
1B41
330
1F
100
AcDbEntity
  8
SANINDUSA
100
AcDbLine
 10
1551.339203535214
 20
782.407143187858
 30
0.0
 11
1551.339203535214
 21
782.43866649199
 31
0.0
  0
ARC
  5
1B42
330
1F
100
AcDbEntity
  8
SANINDUSA
100
AcDbCircle
 10
1551.336889321651
 20
782.44266649199
 30
0.0
 40
0.0010000000000003
100
AcDbArc
 50
270.0
 51
315.0
  0
ARC
  5
1B43
330
1F
100
AcDbEntity
  8
SANINDUSA
100
AcDbCircle
 10
1551.338203535214
 20
782.43866649199
 30
0.0
 40
0.001
100
AcDbArc
 50
0.0
 51
90.0
  0
LINE
  5
1B44
330
1F
100
AcDbEntity
  8
SANINDUSA
100
AcDbLine
 10
1551.333514195386
 20
782.4416664919899
 30
0.0
 11
1551.336889321651
 21
782.4416664919899
 31
0.0
  0
LINE
  5
1B45
330
1F
100
AcDbEntity
  8
SANINDUSA
100
AcDbLine
 10
1551.338203535214
 20
782.43966649199
 30
0.0
 11
1551.320344348936
 21
782.43966649199
 31
0.0
  0
ARC
  5
1B46
330
1F
100
AcDbEntity
  8
SANINDUSA
100
AcDbCircle
 10
1551.333514195386
 20
782.44141649199
 30
0.0
 40
0.0002500000000003
100
AcDbArc
 50
90.0
 51
135.0
  0
ARC
  5
1B47
330
1F
100
AcDbEntity
  8
SANINDUSA
100
AcDbCircle
 10
1551.320344348936
 20
782.43866649199
 30
0.0
 40
0.001
100
AcDbArc
 50
90.0
 51
182.1494579346532
  0
LINE
  5
1B48
330
1F
100
AcDbEntity
  8
SANINDUSA
100
AcDbLine
 10
1551.332857088604
 20
782.4411129385993
 30
0.0
 11
1551.33333741869
 21
782.4415932686853
 31
0.0
  0
ARC
  5
1B49
330
1F
100
AcDbEntity
  8
SANINDUSA
100
AcDbCircle
 10
1551.415997094859
 20
782.4422566004279
 30
0.0
 40
0.0967200954923435
100
AcDbArc
 50
182.1494579346532
 51
195.5601696420791
  0
ARC
  5
1B4A
330
1F
100
AcDbEntity
  8
SANINDUSA
100
AcDbCircle
 10
1551.332503535214
 20
782.44146649199
 30
0.0
 40
0.0005
100
AcDbArc
 50
225.0
 51
315.0
  0
ARC
  5
1B4B
330
1F
100
AcDbEntity
  8
SANINDUSA
100
AcDbCircle
 10
1551.323303535214
 20
782.4164455412304
 30
0.0
 40
0.0005
100
AcDbArc
 50
195.5601696420791
 51
0.0
  0
LINE
  5
1B4C
330
1F
100
AcDbEntity
  8
SANINDUSA
100
AcDbLine
 10
1551.331669651737
 20
782.4415932686853
 30
0.0
 11
1551.332149981823
 21
782.4411129385993
 31
0.0
  0
LINE
  5
1B4D
330
1F
100
AcDbEntity
  8
SANINDUSA
100
AcDbLine
 10
1551.323803535214
 20
782.4164455412304
 30
0.0
 11
1551.323803535214
 21
782.429143187858
 31
0.0
  0
ARC
  5
1B4E
330
1F
100
AcDbEntity
  8
SANINDUSA
100
AcDbCircle
 10
1551.331492875042
 20
782.44141649199
 30
0.0
 40
0.00025
100
AcDbArc
 50
45.0
 51
90.0
  0
ARC
  5
1B4F
330
1F
100
AcDbEntity
  8
SANINDUSA
100
AcDbCircle
 10
1551.324803535214
 20
782.429143187858
 30
0.0
 40
0.001
100
AcDbArc
 50
0.0
 51
180.0
  0
LINE
  5
1B50
330
1F
100
AcDbEntity
  8
SANINDUSA
100
AcDbLine
 10
1551.321303511552
 20
782.4416664919899
 30
0.0
 11
1551.331492875042
 21
782.4416664919899
 31
0.0
  0
LINE
  5
1B51
330
1F
100
AcDbEntity
  8
SANINDUSA
100
AcDbLine
 10
1551.325803535214
 20
782.429143187858
 30
0.0
 11
1551.325803535214
 21
782.407143187858
 31
0.0
  0
ARC
  5
1B52
330
1F
100
AcDbEntity
  8
SANINDUSA
100
AcDbCircle
 10
1551.321303511552
 20
782.44266649199
 30
0.0
 40
0.0010000000000003
100
AcDbArc
 50
224.9106959519861
 51
270.0
  0
ARC
  5
1B53
330
1F
100
AcDbEntity
  8
SANINDUSA
100
AcDbCircle
 10
1551.324803535214
 20
782.407143187858
 30
0.0
 40
0.001
100
AcDbArc
 50
201.0588352469903
 51
0.0
  0
LINE
  5
1B54
330
1F
100
AcDbEntity
  8
SANINDUSA
100
AcDbLine
 10
1551.319691685635
 20
782.44286692731
 30
0.0
 11
1551.320595303498
 21
782.4419604881991
 31
0.0
  0
ARC
  5
1B55
330
1F
100
AcDbEntity
  8
SANINDUSA
100
AcDbCircle
 10
1551.415997094859
 20
782.4422566004279
 30
0.0
 40
0.0987200954923432
100
AcDbArc
 50
180.0522365954226
 51
201.0588352469903
  0
ARC
  5
1B56
330
1F
100
AcDbEntity
  8
SANINDUSA
100
AcDbCircle
 10
1551.318983477581
 20
782.442160923519
 30
0.0
 40
0.0010000000000003
100
AcDbArc
 50
44.91069595198608
 51
89.46590089584175
  0
ARC
  5
1B57
330
1F
100
AcDbEntity
  8
SANINDUSA
100
AcDbCircle
 10
1551.318277039979
 20
782.4421675089713
 30
0.0
 40
0.001
100
AcDbArc
 50
89.46590089584175
 51
180.0522365954226
  0
LINE
  5
1B58
330
1F
100
AcDbEntity
  8
SANINDUSA
100
AcDbLine
 10
1551.318286361632
 20
782.4431674655238
 30
0.0
 11
1551.318992799234
 21
782.4431608800714
 31
0.0
  0
LINE
  5
1B59
330
1F
100
AcDbEntity
  8
SANINDUSA
100
AcDbLine
 10
1551.317277039979
 20
782.44551649199
 30
0.0
 11
1551.341203535214
 21
782.44551649199
 31
0.0
  0
LINE
  5
1B5A
330
1F
100
AcDbEntity
  8
SANINDUSA
100
AcDbLine
 10
1551.317277039979
 20
782.44551649199
 30
0.0
 11
1551.317277039979
 21
782.4445176110775
 31
0.0
  0
LINE
  5
1B5B
330
1F
100
AcDbEntity
  8
SANINDUSA
100
AcDbLine
 10
1551.341203535214
 20
782.44451649199
 30
0.0
 11
1551.341203535214
 21
782.44551649199
 31
0.0
  0
ARC
  5
1B5C
330
1F
100
AcDbEntity
  8
SANINDUSA
100
AcDbCircle
 10
1551.318277039979
 20
782.4445176110775
 30
0.0
 40
0.0009999999999999
100
AcDbArc
 50
180.0
 51
269.4659008958417
  0
ARC
  5
1B5D
330
1F
100
AcDbEntity
  8
SANINDUSA
100
AcDbCircle
 10
1551.340203535214
 20
782.44451649199
 30
0.0
 40
0.0009999999999999
100
AcDbArc
 50
270.0
 51
0.0
  0
LINE
  5
1B5E
330
1F
100
AcDbEntity
  8
SANINDUSA
100
AcDbLine
 10
1551.318267718326
 20
782.443517654525
 30
0.0
 11
1551.318996061813
 21
782.4435108648648
 31
0.0
  0
LINE
  5
1B5F
330
1F
100
AcDbEntity
  8
SANINDUSA
100
AcDbLine
 10
1551.339217748776
 20
782.4435164919901
 30
0.0
 11
1551.340203535214
 21
782.4435164919901
 31
0.0
  0
ARC
  5
1B60
330
1F
100
AcDbEntity
  8
SANINDUSA
100
AcDbCircle
 10
1551.318983477581
 20
782.442160923519
 30
0.0
 40
0.00135
100
AcDbArc
 50
44.91069595198608
 51
89.46590089584175
  0
ARC
  5
1B61
330
1F
100
AcDbEntity
  8
SANINDUSA
100
AcDbCircle
 10
1551.339217748776
 20
782.44216649199
 30
0.0
 40
0.0013499999999998
100
AcDbArc
 50
90.0
 51
135.0
  0
LINE
  5
1B62
330
1F
100
AcDbEntity
  8
SANINDUSA
100
AcDbLine
 10
1551.319939558453
 20
782.4431140286368
 30
0.0
 11
1551.320843176317
 21
782.4422075895259
 31
0.0
  0
LINE
  5
1B63
330
1F
100
AcDbEntity
  8
SANINDUSA
100
AcDbLine
 10
1551.337348941059
 20
782.4422068725822
 30
0.0
 11
1551.338263154622
 21
782.4431210861446
 31
0.0
  0
ARC
  5
1B64
330
1F
100
AcDbEntity
  8
SANINDUSA
100
AcDbCircle
 10
1551.321303511552
 20
782.44266649199
 30
0.0
 40
0.0006500000000003
100
AcDbArc
 50
224.9106959519861
 51
270.0
  0
ARC
  5
1B65
330
1F
100
AcDbEntity
  8
SANINDUSA
100
AcDbCircle
 10
1551.336889321651
 20
782.44266649199
 30
0.0
 40
0.0006500000000003
100
AcDbArc
 50
270.0
 51
315.0
  0
LINE
  5
1B66
330
1F
100
AcDbEntity
  8
SANINDUSA
100
AcDbLine
 10
1551.321303511552
 20
782.4420164919899
 30
0.0
 11
1551.336889321651
 21
782.4420164919899
 31
0.0
  0
LINE
  5
2C4F
330
1F
100
AcDbEntity
  8
SANINDUSA
100
AcDbLine
 10
1552.013696037872
 20
781.7710197714466
 30
0.0000000001555548
 11
1551.960696037872
 21
781.7710197714466
 31
0.0000000001555548
1001
GENIUS_GENREC_14
1002
{
1000
PYDIR
1011
1551.877696037872
1021
781.5579098241751
1031
0.000000000155555
1002
}
1002
{
1000
PXDIR
1011
1551.930696037872
1021
781.5569098241751
1031
0.000000000155555
1002
}
1002
{
1000
PORI
1011
1551.877696037872
1021
781.5569098241751
1031
0.000000000155555
1002
}
1002
{
1000
PINS
1011
1551.877696037872
1021
781.5569098241751
1031
0.000000000155555
1002
}
1002
{
1000
PINS2
1011
1551.930696037872
1021
781.5579098241751
1031
0.000000000155555
1002
}
1002
{
1000
C
1070
     1
1002
}
1001
GENIUS_GENODEF_13
1002
{
1000
HIER
1070
     0
1002
}
1002
{
1000
MANEDIT
1070
     0
1002
}
1002
{
1000
NOSEL
1070
     0
1002
}
1002
{
1000
BEHIND
1070
     0
1002
}
1002
{
1000
REACTOR
1002
}
1001
GENIUS_GENOBJ-N-REC_13
1002
{
1000
OWNER
1000
GEN
1002
}
  0
LINE
  5
2C50
330
1F
100
AcDbEntity
  8
SANINDUSA
100
AcDbLine
 10
1551.960696037872
 20
781.7710197714466
 30
0.0000000001555548
 11
1551.960696037872
 21
781.7700197714466
 31
0.0000000001555548
1001
GENIUS_GENREC_14
1002
{
1000
PYDIR
1011
1551.877696037872
1021
781.5579098241751
1031
0.000000000155555
1002
}
1002
{
1000
PXDIR
1011
1551.930696037872
1021
781.5569098241751
1031
0.000000000155555
1002
}
1002
{
1000
PORI
1011
1551.877696037872
1021
781.5569098241751
1031
0.000000000155555
1002
}
1002
{
1000
PINS
1011
1551.877696037872
1021
781.5569098241751
1031
0.000000000155555
1002
}
1002
{
1000
PINS2
1011
1551.930696037872
1021
781.5579098241751
1031
0.000000000155555
1002
}
1002
{
1000
C
1070
     1
1002
}
1001
GENIUS_GENODEF_13
1002
{
1000
HIER
1070
     0
1002
}
1002
{
1000
MANEDIT
1070
     0
1002
}
1002
{
1000
NOSEL
1070
     0
1002
}
1002
{
1000
BEHIND
1070
     0
1002
}
1002
{
1000
REACTOR
1002
}
1001
GENIUS_GENOBJ-N-REC_13
1002
{
1000
OWNER
1000
GEN
1002
}
  0
LINE
  5
2C51
330
1F
100
AcDbEntity
  8
SANINDUSA
100
AcDbLine
 10
1551.960696037872
 20
781.7700197714466
 30
0.0000000001555548
 11
1552.013696037872
 21
781.7700197714466
 31
0.0000000001555548
1001
GENIUS_GENREC_14
1002
{
1000
PYDIR
1011
1551.877696037872
1021
781.5579098241751
1031
0.000000000155555
1002
}
1002
{
1000
PXDIR
1011
1551.930696037872
1021
781.5569098241751
1031
0.000000000155555
1002
}
1002
{
1000
PORI
1011
1551.877696037872
1021
781.5569098241751
1031
0.000000000155555
1002
}
1002
{
1000
PINS
1011
1551.877696037872
1021
781.5569098241751
1031
0.000000000155555
1002
}
1002
{
1000
PINS2
1011
1551.930696037872
1021
781.5579098241751
1031
0.000000000155555
1002
}
1002
{
1000
C
1070
     1
1002
}
1001
GENIUS_GENODEF_13
1002
{
1000
HIER
1070
     0
1002
}
1002
{
1000
MANEDIT
1070
     0
1002
}
1002
{
1000
NOSEL
1070
     0
1002
}
1002
{
1000
BEHIND
1070
     0
1002
}
1002
{
1000
REACTOR
1002
}
1001
GENIUS_GENOBJ-N-REC_13
1002
{
1000
OWNER
1000
GEN
1002
}
  0
LINE
  5
2C52
330
1F
100
AcDbEntity
  8
SANINDUSA
100
AcDbLine
 10
1552.013696037872
 20
781.7700197714466
 30
0.0000000001555548
 11
1552.013696037872
 21
781.7710197714466
 31
0.0000000001555548
1001
GENIUS_GENREC_14
1002
{
1000
PYDIR
1011
1551.877696037872
1021
781.5579098241751
1031
0.000000000155555
1002
}
1002
{
1000
PXDIR
1011
1551.930696037872
1021
781.5569098241751
1031
0.000000000155555
1002
}
1002
{
1000
PORI
1011
1551.877696037872
1021
781.5569098241751
1031
0.000000000155555
1002
}
1002
{
1000
PINS
1011
1551.877696037872
1021
781.5569098241751
1031
0.000000000155555
1002
}
1002
{
1000
PINS2
1011
1551.930696037872
1021
781.5579098241751
1031
0.000000000155555
1002
}
1002
{
1000
C
1070
     1
1002
}
1001
GENIUS_GENODEF_13
1002
{
1000
HIER
1070
     0
1002
}
1002
{
1000
MANEDIT
1070
     0
1002
}
1002
{
1000
NOSEL
1070
     0
1002
}
1002
{
1000
BEHIND
1070
     0
1002
}
1002
{
1000
REACTOR
1002
}
1001
GENIUS_GENOBJ-N-REC_13
1002
{
1000
OWNER
1000
GEN
1002
}
  0
LINE
  5
2C53
330
1F
100
AcDbEntity
  8
SANINDUSA
100
AcDbLine
 10
1551.877696037872
 20
781.7710197714466
 30
0.0000000001555548
 11
1551.930696037872
 21
781.7710197714466
 31
0.0000000001555548
1001
GENIUS_GENREC_14
1002
{
1000
PYDIR
1011
1552.176978294951
1021
781.8571920812543
1031
0.000000000155555
1002
}
1002
{
1000
PXDIR
1011
1552.229978294952
1021
781.8561920812543
1031
0.000000000155555
1002
}
1002
{
1000
PORI
1011
1552.176978294951
1021
781.8561920812543
1031
0.000000000155555
1002
}
1002
{
1000
PINS
1011
1552.176978294951
1021
781.8561920812543
1031
0.000000000155555
1002
}
1002
{
1000
PINS2
1011
1552.229978294952
1021
781.8571920812543
1031
0.000000000155555
1002
}
1002
{
1000
C
1070
     1
1002
}
1001
GENIUS_GENODEF_13
1002
{
1000
HIER
1070
     0
1002
}
1002
{
1000
MANEDIT
1070
     0
1002
}
1002
{
1000
NOSEL
1070
     0
1002
}
1002
{
1000
BEHIND
1070
     0
1002
}
1002
{
1000
REACTOR
1002
}
1001
GENIUS_GENOBJ-N-REC_13
1002
{
1000
OWNER
1000
GEN
1002
}
  0
LINE
  5
2C54
330
1F
100
AcDbEntity
  8
SANINDUSA
100
AcDbLine
 10
1551.930696037872
 20
781.7710197714466
 30
0.0000000001555548
 11
1551.930696037872
 21
781.7700197714466
 31
0.0000000001555548
1001
GENIUS_GENREC_14
1002
{
1000
PYDIR
1011
1552.176978294951
1021
781.8571920812543
1031
0.000000000155555
1002
}
1002
{
1000
PXDIR
1011
1552.229978294952
1021
781.8561920812543
1031
0.000000000155555
1002
}
1002
{
1000
PORI
1011
1552.176978294951
1021
781.8561920812543
1031
0.000000000155555
1002
}
1002
{
1000
PINS
1011
1552.176978294951
1021
781.8561920812543
1031
0.000000000155555
1002
}
1002
{
1000
PINS2
1011
1552.229978294952
1021
781.8571920812543
1031
0.000000000155555
1002
}
1002
{
1000
C
1070
     1
1002
}
1001
GENIUS_GENODEF_13
1002
{
1000
HIER
1070
     0
1002
}
1002
{
1000
MANEDIT
1070
     0
1002
}
1002
{
1000
NOSEL
1070
     0
1002
}
1002
{
1000
BEHIND
1070
     0
1002
}
1002
{
1000
REACTOR
1002
}
1001
GENIUS_GENOBJ-N-REC_13
1002
{
1000
OWNER
1000
GEN
1002
}
  0
LINE
  5
2C55
330
1F
100
AcDbEntity
  8
SANINDUSA
100
AcDbLine
 10
1551.930696037872
 20
781.7700197714466
 30
0.0000000001555548
 11
1551.877696037872
 21
781.7700197714466
 31
0.0000000001555548
1001
GENIUS_GENREC_14
1002
{
1000
PYDIR
1011
1552.176978294951
1021
781.8571920812543
1031
0.000000000155555
1002
}
1002
{
1000
PXDIR
1011
1552.229978294952
1021
781.8561920812543
1031
0.000000000155555
1002
}
1002
{
1000
PORI
1011
1552.176978294951
1021
781.8561920812543
1031
0.000000000155555
1002
}
1002
{
1000
PINS
1011
1552.176978294951
1021
781.8561920812543
1031
0.000000000155555
1002
}
1002
{
1000
PINS2
1011
1552.229978294952
1021
781.8571920812543
1031
0.000000000155555
1002
}
1002
{
1000
C
1070
     1
1002
}
1001
GENIUS_GENODEF_13
1002
{
1000
HIER
1070
     0
1002
}
1002
{
1000
MANEDIT
1070
     0
1002
}
1002
{
1000
NOSEL
1070
     0
1002
}
1002
{
1000
BEHIND
1070
     0
1002
}
1002
{
1000
REACTOR
1002
}
1001
GENIUS_GENOBJ-N-REC_13
1002
{
1000
OWNER
1000
GEN
1002
}
  0
LINE
  5
2C56
330
1F
100
AcDbEntity
  8
SANINDUSA
100
AcDbLine
 10
1551.877696037872
 20
781.7700197714466
 30
0.0000000001555548
 11
1551.877696037872
 21
781.7710197714466
 31
0.0000000001555548
1001
GENIUS_GENREC_14
1002
{
1000
PYDIR
1011
1552.176978294951
1021
781.8571920812543
1031
0.000000000155555
1002
}
1002
{
1000
PXDIR
1011
1552.229978294952
1021
781.8561920812543
1031
0.000000000155555
1002
}
1002
{
1000
PORI
1011
1552.176978294951
1021
781.8561920812543
1031
0.000000000155555
1002
}
1002
{
1000
PINS
1011
1552.176978294951
1021
781.8561920812543
1031
0.000000000155555
1002
}
1002
{
1000
PINS2
1011
1552.229978294952
1021
781.8571920812543
1031
0.000000000155555
1002
}
1002
{
1000
C
1070
     1
1002
}
1001
GENIUS_GENODEF_13
1002
{
1000
HIER
1070
     0
1002
}
1002
{
1000
MANEDIT
1070
     0
1002
}
1002
{
1000
NOSEL
1070
     0
1002
}
1002
{
1000
BEHIND
1070
     0
1002
}
1002
{
1000
REACTOR
1002
}
1001
GENIUS_GENOBJ-N-REC_13
1002
{
1000
OWNER
1000
GEN
1002
}
  0
LINE
  5
377B
330
1F
100
AcDbEntity
  8
SANINDUSA
100
AcDbLine
 10
1551.877696037872
 20
781.7626197714466
 30
0.0000000001555548
 11
1551.930696037872
 21
781.7626197714466
 31
0.0000000001555548
1001
GENIUS_GENREC_14
1002
{
1000
PYDIR
1011
1552.176978294951
1021
781.8569920812542
1031
0.000000000155555
1002
}
1002
{
1000
PXDIR
1011
1552.229978294952
1021
781.8559920812543
1031
0.000000000155555
1002
}
1002
{
1000
PORI
1011
1552.176978294951
1021
781.8559920812543
1031
0.000000000155555
1002
}
1002
{
1000
PINS
1011
1552.176978294951
1021
781.8559920812543
1031
0.000000000155555
1002
}
1002
{
1000
PINS2
1011
1552.229978294952
1021
781.8569920812542
1031
0.000000000155555
1002
}
1002
{
1000
C
1070
     1
1002
}
1001
GENIUS_GENODEF_13
1002
{
1000
HIER
1070
     0
1002
}
1002
{
1000
MANEDIT
1070
     0
1002
}
1002
{
1000
NOSEL
1070
     0
1002
}
1002
{
1000
BEHIND
1070
     0
1002
}
1002
{
1000
REACTOR
1002
}
1001
GENIUS_GENOBJ-N-REC_13
1002
{
1000
OWNER
1000
GEN
1002
}
  0
LINE
  5
3860
330
1F
100
AcDbEntity
  8
SANINDUSA
100
AcDbLine
 10
1551.332556040827
 20
781.7712563390963
 30
0.0000000001555548
 11
1551.334408396543
 21
781.7712563390963
 31
0.0000000001555548
  0
LINE
  5
3861
330
1F
100
AcDbEntity
  8
SANINDUSA
100
AcDbLine
 10
1551.331762290827
 20
781.7704625890963
 30
0.0000000001555548
 11
1551.33520214654
 21
781.7704625890963
 31
0.0000000001555548
  0
LINE
  5
3862
330
1F
100
AcDbEntity
  8
SANINDUSA
100
AcDbLine
 10
1551.330968540827
 20
781.7696688390963
 30
0.0000000001555548
 11
1551.334716206757
 21
781.7696688390963
 31
0.0000000001555548
  0
LINE
  5
3863
330
1F
100
AcDbEntity
  8
SANINDUSA
100
AcDbLine
 10
1551.330174790826
 20
781.7688750890964
 30
0.0000000001555548
 11
1551.333922456755
 21
781.7688750890964
 31
0.0000000001555548
  0
LINE
  5
3864
330
1F
100
AcDbEntity
  8
SANINDUSA
100
AcDbLine
 10
1551.329381040826
 20
781.7680813390964
 30
0.0000000001555548
 11
1551.333128706753
 21
781.7680813390964
 31
0.0000000001555548
  0
LINE
  5
3865
330
1F
100
AcDbEntity
  8
SANINDUSA
100
AcDbLine
 10
1551.329192184839
 20
781.7672875890963
 30
0.0000000001555548
 11
1551.332334956751
 21
781.7672875890963
 31
0.0000000001555548
  0
LINE
  5
3866
330
1F
100
AcDbEntity
  8
SANINDUSA
100
AcDbLine
 10
1551.32997850837
 20
781.7664938390963
 30
0.0000000001555548
 11
1551.331541206749
 21
781.7664938390963
 31
0.0000000001555548
  0
LINE
  5
38BF
330
1F
100
AcDbEntity
  8
SANINDUSA
100
AcDbLine
 10
1551.332177602863
 20
781.7642947446028
 30
0.0000000001555548
 11
1551.332177602863
 21
781.7658574429819
 31
0.0000000001555548
  0
LINE
  5
38C0
330
1F
100
AcDbEntity
  8
SANINDUSA
100
AcDbLine
 10
1551.332971352863
 20
781.7635084210722
 30
0.0000000001555548
 11
1551.332971352863
 21
781.7666511929838
 31
0.0000000001555548
  0
LINE
  5
38C1
330
1F
100
AcDbEntity
  8
SANINDUSA
100
AcDbLine
 10
1551.333765102864
 20
781.7636972770588
 30
0.0000000001555548
 11
1551.333765102864
 21
781.7674449429859
 31
0.0000000001555548
  0
LINE
  5
38C2
330
1F
100
AcDbEntity
  8
SANINDUSA
100
AcDbLine
 10
1551.334558852864
 20
781.7644910270593
 30
0.0000000001555548
 11
1551.334558852864
 21
781.7682386929881
 31
0.0000000001555548
  0
LINE
  5
38C3
330
1F
100
AcDbEntity
  8
SANINDUSA
100
AcDbLine
 10
1551.335352602863
 20
781.7652847770596
 30
0.0000000001555548
 11
1551.335352602863
 21
781.7690324429901
 31
0.0000000001555548
  0
LINE
  5
38C4
330
1F
100
AcDbEntity
  8
SANINDUSA
100
AcDbLine
 10
1551.336146352863
 20
781.76607852706
 30
0.0000000001555548
 11
1551.336146352863
 21
781.7695183827731
 31
0.0000000001555548
  0
LINE
  5
38C5
330
1F
100
AcDbEntity
  8
SANINDUSA
100
AcDbLine
 10
1551.336940102863
 20
781.7668722770603
 30
0.0000000001555548
 11
1551.336940102863
 21
781.7687246327762
 31
0.0000000001555548
  0
LINE
  5
3941
330
1F
100
AcDbEntity
  8
SANINDUSA
100
AcDbLine
 10
1552.013696037872
 20
781.7625197714465
 30
0.0000000001555548
 11
1551.960696037872
 21
781.7625197714465
 31
0.0000000001555548
1001
GENIUS_GENREC_14
1002
{
1000
PYDIR
1011
1551.877696037872
1021
781.5576098241751
1031
0.000000000155555
1002
}
1002
{
1000
PXDIR
1011
1551.930696037872
1021
781.5566098241751
1031
0.000000000155555
1002
}
1002
{
1000
PORI
1011
1551.877696037872
1021
781.5566098241751
1031
0.000000000155555
1002
}
1002
{
1000
PINS
1011
1551.877696037872
1021
781.5566098241751
1031
0.000000000155555
1002
}
1002
{
1000
PINS2
1011
1551.930696037872
1021
781.5576098241751
1031
0.000000000155555
1002
}
1002
{
1000
C
1070
     1
1002
}
1001
GENIUS_GENODEF_13
1002
{
1000
HIER
1070
     0
1002
}
1002
{
1000
MANEDIT
1070
     0
1002
}
1002
{
1000
NOSEL
1070
     0
1002
}
1002
{
1000
BEHIND
1070
     0
1002
}
1002
{
1000
REACTOR
1002
}
1001
GENIUS_GENOBJ-N-REC_13
1002
{
1000
OWNER
1000
GEN
1002
}
  0
LINE
  5
3942
330
1F
100
AcDbEntity
  8
SANINDUSA
100
AcDbLine
 10
1551.960696037872
 20
781.7635197714467
 30
0.0000000001555548
 11
1552.013696037872
 21
781.7635197714467
 31
0.0000000001555548
1001
GENIUS_GENREC_14
1002
{
1000
PYDIR
1011
1551.877696037872
1021
781.5576098241751
1031
0.000000000155555
1002
}
1002
{
1000
PXDIR
1011
1551.930696037872
1021
781.5566098241751
1031
0.000000000155555
1002
}
1002
{
1000
PORI
1011
1551.877696037872
1021
781.5566098241751
1031
0.000000000155555
1002
}
1002
{
1000
PINS
1011
1551.877696037872
1021
781.5566098241751
1031
0.000000000155555
1002
}
1002
{
1000
PINS2
1011
1551.930696037872
1021
781.5576098241751
1031
0.000000000155555
1002
}
1002
{
1000
C
1070
     1
1002
}
1001
GENIUS_GENODEF_13
1002
{
1000
HIER
1070
     0
1002
}
1002
{
1000
MANEDIT
1070
     0
1002
}
1002
{
1000
NOSEL
1070
     0
1002
}
1002
{
1000
BEHIND
1070
     0
1002
}
1002
{
1000
REACTOR
1002
}
1001
GENIUS_GENOBJ-N-REC_13
1002
{
1000
OWNER
1000
GEN
1002
}
  0
LINE
  5
3943
330
1F
100
AcDbEntity
  8
SANINDUSA
100
AcDbLine
 10
1551.930696037872
 20
781.7636197714466
 30
0.0000000001555548
 11
1551.877696037872
 21
781.7636197714466
 31
0.0000000001555548
1001
GENIUS_GENREC_14
1002
{
1000
PYDIR
1011
1552.176978294951
1021
781.8569920812542
1031
0.000000000155555
1002
}
1002
{
1000
PXDIR
1011
1552.229978294952
1021
781.8559920812543
1031
0.000000000155555
1002
}
1002
{
1000
PORI
1011
1552.176978294951
1021
781.8559920812543
1031
0.000000000155555
1002
}
1002
{
1000
PINS
1011
1552.176978294951
1021
781.8559920812543
1031
0.000000000155555
1002
}
1002
{
1000
PINS2
1011
1552.229978294952
1021
781.8569920812542
1031
0.000000000155555
1002
}
1002
{
1000
C
1070
     1
1002
}
1001
GENIUS_GENODEF_13
1002
{
1000
HIER
1070
     0
1002
}
1002
{
1000
MANEDIT
1070
     0
1002
}
1002
{
1000
NOSEL
1070
     0
1002
}
1002
{
1000
BEHIND
1070
     0
1002
}
1002
{
1000
REACTOR
1002
}
1001
GENIUS_GENOBJ-N-REC_13
1002
{
1000
OWNER
1000
GEN
1002
}
  0
ENDSEC
  0
SECTION
  2
OBJECTS
  0
DICTIONARY
  5
C
330
0
100
AcDbDictionary
281
     1
  3
ACAD_2007HEADERVARS_RT
350
3A1A
  3
ACAD_COLOR
350
BA9
  3
ACAD_GROUP
350
D
  3
ACAD_LAYOUT
350
1A
  3
ACAD_MATERIAL
350
BA8
  3
ACAD_MLEADERSTYLE
350
398D
  3
ACAD_MLINESTYLE
350
17
  3
ACAD_PLOTSETTINGS
350
19
  3
ACAD_PLOTSTYLENAME
350
E
  3
ACAD_SCALELIST
350
397B
  3
ACAD_TABLESTYLE
350
BAA
  3
ACAD_VISUALSTYLE
350
3967
  3
ACDB_RECOMPOSE_DATA
350
3A18
  3
AcDbVariableDictionary
350
3D
  3
ASE_INDEX_DICTIONARY
350
B91
  3
DWGPROPS
350
3A19
  0
DICTIONARY
  5
39B3
330
10
100
AcDbDictionary
280
     1
281
     1
  3
ADSK_XREC_LAYER_RECONCILED
360
39B4
  0
DICTIONARY
  5
39B5
330
2F
100
AcDbDictionary
280
     1
281
     1
  3
ADSK_XREC_LAYER_RECONCILED
360
39B6
  0
DICTIONARY
  5
39B7
330
30
100
AcDbDictionary
280
     1
281
     1
  3
ADSK_XREC_LAYER_RECONCILED
360
39B8
  0
DICTIONARY
  5
39B9
330
31
100
AcDbDictionary
280
     1
281
     1
  3
ADSK_XREC_LAYER_RECONCILED
360
39BA
  0
DICTIONARY
  5
39BB
330
32
100
AcDbDictionary
280
     1
281
     1
  3
ADSK_XREC_LAYER_RECONCILED
360
39BC
  0
DICTIONARY
  5
39BD
330
33
100
AcDbDictionary
280
     1
281
     1
  3
ADSK_XREC_LAYER_RECONCILED
360
39BE
  0
DICTIONARY
  5
39BF
330
34
100
AcDbDictionary
280
     1
281
     1
  3
ADSK_XREC_LAYER_RECONCILED
360
39C0
  0
DICTIONARY
  5
39C1
330
35
100
AcDbDictionary
280
     1
281
     1
  3
ADSK_XREC_LAYER_RECONCILED
360
39C2
  0
DICTIONARY
  5
39C3
330
36
100
AcDbDictionary
280
     1
281
     1
  3
ADSK_XREC_LAYER_RECONCILED
360
39C4
  0
DICTIONARY
  5
39C5
330
37
100
AcDbDictionary
280
     1
281
     1
  3
ADSK_XREC_LAYER_RECONCILED
360
39C6
  0
DICTIONARY
  5
39C7
330
5D6
100
AcDbDictionary
280
     1
281
     1
  3
ADSK_XREC_LAYER_RECONCILED
360
39C8
  0
DICTIONARY
  5
39C9
330
8AF
100
AcDbDictionary
280
     1
281
     1
  3
ADSK_XREC_LAYER_RECONCILED
360
39CA
  0
DICTIONARY
  5
39CB
330
8F8
100
AcDbDictionary
280
     1
281
     1
  3
ADSK_XREC_LAYER_RECONCILED
360
39CC
  0
DICTIONARY
  5
39CD
330
91D
100
AcDbDictionary
280
     1
281
     1
  3
ADSK_XREC_LAYER_RECONCILED
360
39CE
  0
DICTIONARY
  5
39CF
330
BA5
100
AcDbDictionary
280
     1
281
     1
  3
ADSK_XREC_LAYER_RECONCILED
360
39D0
  0
DICTIONARY
  5
39D1
330
C3A
100
AcDbDictionary
280
     1
281
     1
  3
ADSK_XREC_LAYER_RECONCILED
360
39D2
  0
DICTIONARY
  5
1A3D
330
1F
100
AcDbDictionary
280
     1
281
     1
  3
ACAD_SORTENTS
360
1A3E
  0
DICTIONARY
  5
3A1A
102
{ACAD_REACTORS
330
C
102
}
330
C
100
AcDbDictionary
281
     1
  3
DIMJOGANG
350
3A1B
  0
DICTIONARY
  5
BA9
102
{ACAD_REACTORS
330
C
102
}
330
C
100
AcDbDictionary
281
     1
  0
DICTIONARY
  5
D
102
{ACAD_REACTORS
330
C
102
}
330
C
100
AcDbDictionary
281
     1
  0
DICTIONARY
  5
1A
102
{ACAD_REACTORS
330
C
102
}
330
C
100
AcDbDictionary
281
     1
  3
Layout1
350
1E
  3
Layout2
350
26
  3
Model
350
22
  0
DICTIONARY
  5
BA8
102
{ACAD_REACTORS
330
C
102
}
330
C
100
AcDbDictionary
281
     1
  3
ByBlock
350
3957
  3
ByLayer
350
394F
  3
Global
350
395F
  0
DICTIONARY
  5
398D
102
{ACAD_REACTORS
330
C
102
}
330
C
100
AcDbDictionary
281
     1
  3
Standard
350
398E
  0
DICTIONARY
  5
17
102
{ACAD_REACTORS
330
C
102
}
330
C
100
AcDbDictionary
281
     1
  3
Standard
350
18
  0
DICTIONARY
  5
19
102
{ACAD_REACTORS
330
C
102
}
330
C
100
AcDbDictionary
281
     1
  0
ACDBDICTIONARYWDFLT
  5
E
102
{ACAD_REACTORS
330
C
102
}
330
C
100
AcDbDictionary
281
     1
  3
Normal
350
F
100
AcDbDictionaryWithDefault
340
F
  0
DICTIONARY
  5
397B
102
{ACAD_REACTORS
330
C
102
}
330
C
100
AcDbDictionary
281
     1
  3
A0
350
397C
  3
A1
350
397D
  3
A2
350
397E
  3
A3
350
397F
  3
A4
350
3980
  3
A5
350
3981
  3
A6
350
3982
  3
A7
350
3983
  3
A8
350
3984
  3
A9
350
3985
  3
B0
350
3986
  3
B1
350
3987
  3
B2
350
3988
  3
B3
350
3989
  3
B4
350
398A
  3
B5
350
398B
  3
B6
350
398C
  0
DICTIONARY
  5
BAA
102
{ACAD_REACTORS
330
C
102
}
330
C
100
AcDbDictionary
281
     1
  3
Standard
350
BAB
  0
DICTIONARY
  5
3967
102
{ACAD_REACTORS
330
C
102
}
330
C
100
AcDbDictionary
281
     1
  3
2dWireframe
350
396D
  3
3D Hidden
350
396F
  3
3dWireframe
350
396E
  3
Basic
350
396C
  3
Brighten
350
3973
  3
ColorChange
350
3977
  3
Conceptual
350
3970
  3
Dim
350
3972
  3
EdgeColorOff
350
397A
  3
Facepattern
350
3976
  3
Flat
350
3968
  3
FlatWithEdges
350
3969
  3
Gouraud
350
396A
  3
GouraudWithEdges
350
396B
  3
JitterOff
350
3978
  3
Linepattern
350
3975
  3
OverhangOff
350
3979
  3
Realistic
350
3971
  3
Thicken
350
3974
  0
XRECORD
  5
3A18
102
{ACAD_REACTORS
330
C
102
}
330
C
100
AcDbXrecord
280
     1
 90
        1
330
BAB
  0
DICTIONARY
  5
3D
102
{ACAD_REACTORS
330
C
102
}
330
C
100
AcDbDictionary
281
     1
  3
CANNOSCALE
350
3A12
  3
CMLEADERSTYLE
350
3A11
  3
CTABLESTYLE
350
1504
  3
DIMASSOC
350
3F
  3
HIDETEXT
350
3E
  3
INDEXCTL
350
3A14
  3
PROJECTNAME
350
394D
  3
SORTENTS
350
3A13
  3
XCLIPFRAME
350
3A15
  0
DICTIONARY
  5
B91
102
{ACAD_REACTORS
330
C
102
}
330
C
100
AcDbDictionary
281
     1
  3
ASEBlockHierarchyIndexRecord
350
B92
1001
DCO15
1040
1485069952.593
  0
XRECORD
  5
3A19
102
{ACAD_REACTORS
330
C
102
}
330
C
100
AcDbXrecord
280
     1
  1
DWGPROPS COOKIE
  2

  3

  4

  6

  7

  8
Julio
  9

300
=
301
=
302
=
303
=
304
=
305
=
306
=
307
=
308
=
309
=
 40
0.0525072337962963
 41
2453564.405545961
 42
2455817.51189434
  1

 90
        0
  0
XRECORD
  5
39B4
102
{ACAD_REACTORS
330
39B3
102
}
330
39B3
100
AcDbXrecord
280
     1
290
     1
  0
XRECORD
  5
39B6
102
{ACAD_REACTORS
330
39B5
102
}
330
39B5
100
AcDbXrecord
280
     1
290
     1
  0
XRECORD
  5
39B8
102
{ACAD_REACTORS
330
39B7
102
}
330
39B7
100
AcDbXrecord
280
     1
290
     1
  0
XRECORD
  5
39BA
102
{ACAD_REACTORS
330
39B9
102
}
330
39B9
100
AcDbXrecord
280
     1
290
     1
  0
XRECORD
  5
39BC
102
{ACAD_REACTORS
330
39BB
102
}
330
39BB
100
AcDbXrecord
280
     1
290
     1
  0
XRECORD
  5
39BE
102
{ACAD_REACTORS
330
39BD
102
}
330
39BD
100
AcDbXrecord
280
     1
290
     1
  0
XRECORD
  5
39C0
102
{ACAD_REACTORS
330
39BF
102
}
330
39BF
100
AcDbXrecord
280
     1
290
     1
  0
XRECORD
  5
39C2
102
{ACAD_REACTORS
330
39C1
102
}
330
39C1
100
AcDbXrecord
280
     1
290
     1
  0
XRECORD
  5
39C4
102
{ACAD_REACTORS
330
39C3
102
}
330
39C3
100
AcDbXrecord
280
     1
290
     1
  0
XRECORD
  5
39C6
102
{ACAD_REACTORS
330
39C5
102
}
330
39C5
100
AcDbXrecord
280
     1
290
     1
  0
XRECORD
  5
39C8
102
{ACAD_REACTORS
330
39C7
102
}
330
39C7
100
AcDbXrecord
280
     1
290
     1
  0
XRECORD
  5
39CA
102
{ACAD_REACTORS
330
39C9
102
}
330
39C9
100
AcDbXrecord
280
     1
290
     1
  0
XRECORD
  5
39CC
102
{ACAD_REACTORS
330
39CB
102
}
330
39CB
100
AcDbXrecord
280
     1
290
     1
  0
XRECORD
  5
39CE
102
{ACAD_REACTORS
330
39CD
102
}
330
39CD
100
AcDbXrecord
280
     1
290
     1
  0
XRECORD
  5
39D0
102
{ACAD_REACTORS
330
39CF
102
}
330
39CF
100
AcDbXrecord
280
     1
290
     1
  0
XRECORD
  5
39D2
102
{ACAD_REACTORS
330
39D1
102
}
330
39D1
100
AcDbXrecord
280
     1
290
     1
  0
SORTENTSTABLE
  5
1A3E
102
{ACAD_REACTORS
330
1A3D
102
}
330
1A3D
100
AcDbSortentsTable
330
1F
331
1298
  5
37DB
331
FD9
  5
1A0B
331
1A4A
  5
FC5
331
1A85
  5
FE9
331
12D6
  5
3819
331
1068
  5
2FF7
331
1B22
  5
3028
331
2C4F
  5
37C2
331
FE9
  5
1AA5
331
1024
  5
2DB2
331
3866
  5
119A
331
1A70
  5
FD1
331
1AB7
  5
10C1
331
1AF2
  5
110B
331
1451
  5
38A1
331
1416
  5
386B
331
12C1
  5
3804
331
12FC
  5
383E
331
11BD
  5
37B3
331
115C
  5
3723
331
1ADD
  5
10F3
331
1B4B
  5
305D
331
12AC
  5
37EF
331
143F
  5
3894
331
116D
  5
3763
331
107C
  5
300C
331
1A8D
  5
1098
331
1AC8
  5
10D4
331
1B36
  5
303B
331
38C1
  5
10DA
331
FFD
  5
1B5C
331
FD8
  5
19FC
331
1A84
  5
FE8
331
1A49
  5
FC4
331
142A
  5
387F
331
12D5
  5
3818
331
1B21
  5
3025
331
FE8
  5
1A9C
331
1023
  5
2DAA
331
3865
  5
119E
331
1AB6
  5
10BF
331
1415
  5
386A
331
1B5F
  5
3044
331
1450
  5
38A0
331
12FB
  5
383D
331
12C0
  5
3803
331
11BC
  5
37B2
331
115B
  5
371A
331
1090
  5
301E
331
1ADC
  5
10F4
331
1AA1
  5
10A8
331
1B0F
  5
1135
331
1B4A
  5
305C
331
12AB
  5
37EE
331
1A5D
  5
FFD
331
143E
  5
3893
331
116C
  5
3762
331
107B
  5
300A
331
1506
  5
38B0
331
1A8C
  5
1097
331
1B35
  5
3039
331
38C0
  5
10DC
331
3942
  5
FFE
331
FFC
  5
1B53
331
1A48
  5
FC3
331
1A83
  5
FE7
331
1429
  5
387E
331
130F
  5
3851
331
12D4
  5
3817
331
1B20
  5
3024
331
FE7
  5
1A9A
331
3864
  5
1199
331
1AF0
  5
110A
331
1B5E
  5
3045
331
1414
  5
3869
331
12BF
  5
3802
331
12FA
  5
383C
331
11BB
  5
37B1
331
108F
  5
301F
331
115A
  5
3718
331
1AA0
  5
10AA
331
1B0E
  5
1123
331
1B49
  5
305B
331
12AA
  5
37ED
331
1A5C
  5
FFC
331
143D
  5
3892
331
116B
  5
3761
331
107A
  5
3008
331
1A8B
  5
1096
331
1B34
  5
3038
331
3941
  5
1001
331
FFB
  5
1B52
331
1A82
  5
FE6
331
1A47
  5
FC2
331
1428
  5
387D
331
1463
  5
38AF
331
12D3
  5
3816
331
130E
  5
3850
331
128F
  5
37D2
331
FE6
  5
1A8C
331
3863
  5
1197
331
1AEF
  5
1109
331
1AB4
  5
10BE
331
1413
  5
3868
331
1B5D
  5
3043
331
12BE
  5
3801
331
11BA
  5
37B0
331
1159
  5
3708
331
108E
  5
301D
331
1A9F
  5
10A7
331
1ADA
  5
10F1
331
1B0D
  5
1125
331
1B48
  5
305A
331
12A9
  5
37EC
331
1A5B
  5
FFB
331
143C
  5
3891
331
116A
  5
3760
331
12E7
  5
382A
331
1079
  5
3009
331
1A8A
  5
1095
331
1B33
  5
3037
331
FFA
  5
1B41
331
1147
  5
3654
331
1A46
  5
FC1
331
1A81
  5
FE5
331
1427
  5
387C
331
130D
  5
384F
331
12D2
  5
3815
331
128E
  5
37D1
331
FE5
  5
1A87
331
1067
  5
2FF6
331
3862
  5
1198
331
1AB3
  5
10BC
331
1AEE
  5
1108
331
1B5C
  5
3042
331
1412
  5
3867
331
12BD
  5
3800
331
12F8
  5
383B
331
1A6F
  5
FD0
331
131B
  5
385C
331
11B9
  5
37AF
331
108D
  5
301B
331
1158
  5
3706
331
1AD9
  5
10F2
331
1B0C
  5
1124
331
1B47
  5
3059
331
12A8
  5
37EB
331
1A5A
  5
FFA
331
143B
  5
3890
331
12E6
  5
3829
331
1169
  5
375F
331
1078
  5
3007
331
1A89
  5
1094
331
1B32
  5
3035
331
1146
  5
364C
331
FF9
  5
1B3F
331
1A80
  5
FE4
331
1A45
  5
FC0
331
1AC7
  5
10D3
331
1426
  5
387B
331
130C
  5
384E
331
12D1
  5
3814
331
128D
  5
37D0
331
FE4
  5
1A80
331
1066
  5
2FF5
331
3861
  5
1196
331
1AED
  5
1107
331
1AB2
  5
10BB
331
1411
  5
3866
331
1B5B
  5
3040
331
12BC
  5
37FF
331
FC2
  5
1093
331
1A6E
  5
FCF
331
131A
  5
385B
331
11B8
  5
37AE
331
108C
  5
301A
331
1A9D
  5
10A6
331
1AD8
  5
10F0
331
1B0B
  5
1121
331
1B46
  5
3058
331
1A59
  5
FF9
331
143A
  5
388F
331
1168
  5
375E
331
12E5
  5
3828
331
1A88
  5
FEC
331
1B31
  5
3036
331
1145
  5
364B
331
FF8
  5
1B37
331
1A44
  5
FBF
331
1AC6
  5
10D2
331
1460
  5
38AE
331
1425
  5
387A
331
38BF
  5
10D7
331
130B
  5
384D
331
12D0
  5
3813
331
128C
  5
37CF
331
FE3
  5
1A77
331
1065
  5
2FF3
331
3860
  5
1195
331
1AB1
  5
10BA
331
1AEC
  5
1105
331
1410
  5
3865
331
1B1F
  5
3023
331
1B5A
  5
3041
331
12BB
  5
37FE
331
FC1
  5
1092
331
1A6D
  5
FCE
331
1319
  5
385A
331
144E
  5
389E
331
108B
  5
301C
331
1A9C
  5
10A5
331
1B45
  5
3056
331
1A58
  5
FF8
331
1439
  5
388E
331
12E4
  5
3827
331
1167
  5
375D
331
1B30
  5
3034
331
1144
  5
3642
331
FF7
  5
1B24
331
1A43
  5
FBE
331
1AC5
  5
10D1
331
1424
  5
3879
331
130A
  5
384C
331
12CF
  5
3812
331
FD5
  5
12E2
331
128B
  5
37CE
331
FE2
  5
1A66
331
1064
  5
2FF1
331
1AB0
  5
10B8
331
1AEB
  5
1104
331
1B1E
  5
3022
331
1B59
  5
303F
331
12BA
  5
37FD
331
FC0
  5
104D
331
1A6C
  5
FCD
331
1318
  5
3859
331
144D
  5
389D
331
108A
  5
3019
331
1A9B
  5
10A4
331
1B09
  5
111D
331
1B44
  5
3057
331
1A57
  5
FF7
331
1438
  5
388D
331
1166
  5
375C
331
12E3
  5
3826
331
1143
  5
3631
331
FF6
  5
1B25
331
1A42
  5
FBD
331
1AC4
  5
10D0
331
1AFF
  5
1114
331
1423
  5
3878
331
1309
  5
384B
331
12CE
  5
3811
331
128A
  5
37CD
331
FE1
  5
1A64
331
1063
  5
2FF4
331
1AAF
  5
10B9
331
1AEA
  5
1102
331
1B1D
  5
3021
331
1B58
  5
306B
331
12B9
  5
37FC
331
FBF
  5
104C
331
1A6B
  5
FCA
331
1317
  5
3858
331
11B5
  5
37AB
331
1089
  5
3018
331
1A9A
  5
10A2
331
1B08
  5
111F
331
1B43
  5
3054
331
1157
  5
36FC
331
1A56
  5
FF6
331
1437
  5
388C
331
1165
  5
375B
331
12A7
  5
37EA
331
12E2
  5
3825
331
1142
  5
3628
331
FF5
  5
1B14
331
1077
  5
3006
331
1AFE
  5
1116
331
1A41
  5
FBC
331
1AC3
  5
10CE
331
1422
  5
3877
331
1308
  5
384A
331
12CD
  5
3810
331
1A7F
  5
FE3
331
1289
  5
37CC
331
FE0
  5
1A51
331
1062
  5
2FF0
331
1AE9
  5
1103
331
1B1C
  5
11BE
331
1B57
  5
3069
331
101E
  5
2D78
331
12B8
  5
37FB
331
1A6A
  5
100C
331
1316
  5
3857
331
11B4
  5
37AA
331
1088
  5
3017
331
1A99
  5
10A1
331
1B42
  5
3055
331
1156
  5
36E8
331
1A55
  5
FF5
331
1AD7
  5
10EB
331
1436
  5
388B
331
1164
  5
375A
331
12A6
  5
37E9
331
12E1
  5
3824
331
1141
  5
3626
331
FF4
  5
1B10
331
1076
  5
3005
331
1A40
  5
FBB
331
1AC2
  5
10CC
331
1AFD
  5
1113
331
1421
  5
3876
331
12CC
  5
380F
331
1A7E
  5
FE2
331
1061
  5
2FF2
331
1AAD
  5
10B7
331
1AE8
  5
1101
331
1B1B
  5
11B2
331
1B56
  5
3068
331
101D
  5
2D6D
331
FBD
  5
100E
331
1A69
  5
100B
331
140F
  5
3864
331
12F5
  5
3838
331
1178
  5
376E
331
1A98
  5
10A0
331
1B06
  5
111B
331
1B41
  5
3053
331
1155
  5
36E0
331
1A54
  5
FF4
331
1AD6
  5
10E4
331
1435
  5
388A
331
1163
  5
3759
331
12A5
  5
37E8
331
12E0
  5
3823
331
FF3
  5
1B08
331
1075
  5
3004
331
1AC1
  5
10CA
331
1420
  5
3875
331
1B2F
  5
3033
331
12CB
  5
380E
331
1A7D
  5
FE1
331
145E
  5
38AD
331
11C7
  5
37BD
331
1060
  5
2FEF
331
1AAC
  5
10B6
331
1B1A
  5
11A9
331
1B55
  5
3066
331
FBC
  5
100D
331
1A68
  5
100A
331
1314
  5
3856
331
1177
  5
376D
331
12F4
  5
3837
331
1B40
  5
3052
331
1B05
  5
111C
331
1154
  5
36D7
331
1007
  5
2CAC
331
1A53
  5
FF3
331
1AD5
  5
10E6
331
1434
  5
3889
331
12A4
  5
37E7
331
12DF
  5
3822
331
1162
  5
3758
331
113F
  5
3611
331
FF2
  5
1B07
331
1074
  5
3002
331
1AC0
  5
10CB
331
1B2E
  5
3032
331
12CA
  5
380D
331
1A7C
  5
FE0
331
11C6
  5
37BC
331
105F
  5
2FEE
331
1AAB
  5
10B5
331
1B19
  5
11A4
331
1B54
  5
3067
331
1A67
  5
1009
331
140D
  5
3862
331
1313
  5
3855
331
1176
  5
376C
331
12F3
  5
3836
331
1153
  5
36CE
331
1A52
  5
FF2
331
1AD4
  5
10E9
331
1433
  5
3888
331
1161
  5
3757
331
12A3
  5
37E6
331
12DE
  5
3821
331
FF1
  5
1AFB
331
1073
  5
3003
331
113E
  5
3606
331
1AFA
  5
1112
331
1ABF
  5
10C9
331
1B2D
  5
3031
331
12C9
  5
380C
331
1A7B
  5
FDF
331
1307
  5
3849
331
11C5
  5
37BB
331
105E
  5
2FED
331
1AAA
  5
10B4
331
1B53
  5
3065
331
1A66
  5
1008
331
1312
  5
3854
331
140C
  5
3861
331
1447
  5
389C
331
1175
  5
376B
331
12B7
  5
37FA
331
12F2
  5
3835
331
1B03
  5
111A
331
1152
  5
36CB
331
1005
  5
2C90
331
1087
  5
3016
331
1A51
  5
FF1
331
1AD3
  5
10E5
331
1432
  5
3887
331
12A2
  5
37E5
331
12DD
  5
3820
331
1160
  5
374E
331
113D
  5
35F6
331
FF0
  5
1AEE
331
1072
  5
3000
331
1ABE
  5
10C8
331
1AF9
  5
1111
331
1B2C
  5
302F
331
12C8
  5
380B
331
1A3F
  5
FBA
331
1A7A
  5
FDE
331
11C4
  5
37BA
331
1306
  5
3848
331
105D
  5
2FE4
331
1AA9
  5
10B2
331
1B17
  5
1189
331
1B52
  5
3064
331
1A65
  5
1007
331
1AE7
  5
1100
331
1311
  5
3853
331
1446
  5
389B
331
1174
  5
376A
331
12B6
  5
37F9
331
12F1
  5
3834
331
1B02
  5
1119
331
1004
  5
2C85
331
1086
  5
3015
331
1151
  5
36C3
331
1A97
  5
109F
331
1A50
  5
FF0
331
1431
  5
3886
331
12A1
  5
37E4
331
12DC
  5
381F
331
1071
  5
3001
331
113C
  5
35EA
331
1AF8
  5
1110
331
1B2B
  5
3030
331
1B66
  5
304C
331
FCD
  5
129C
331
1A79
  5
FDC
331
141F
  5
3874
331
11C3
  5
37B9
331
1305
  5
3847
331
105C
  5
2FE3
331
1B51
  5
3062
331
1B16
  5
1181
331
1018
  5
2D3A
331
1A64
  5
1006
331
1AE6
  5
10FE
331
1310
  5
3852
331
1445
  5
389A
331
12B5
  5
37F8
331
12F0
  5
3833
331
1173
  5
3769
331
1B01
  5
1117
331
1150
  5
36AD
331
1003
  5
2C7E
331
1085
  5
3014
331
1AD1
  5
10E3
331
1A96
  5
109E
331
1B3F
  5
3051
331
1430
  5
3885
331
12A0
  5
37E3
331
12DB
  5
381E
331
1297
  5
37DA
331
1070
  5
2FFE
331
1ABC
  5
10C6
331
1B2A
  5
302D
331
1B65
  5
304A
331
1A78
  5
FDB
331
141E
  5
3873
331
1459
  5
38A8
331
11C2
  5
37B8
331
1304
  5
3846
331
105B
  5
2FD9
331
1B15
  5
1173
331
1B50
  5
3063
331
1017
  5
2D2A
331
1A63
  5
1005
331
1AE5
  5
10FD
331
1444
  5
3899
331
1172
  5
3768
331
12B4
  5
37F7
331
12EF
  5
3832
331
1002
  5
2C7A
331
1084
  5
3012
331
114F
  5
36AE
331
1A95
  5
109D
331
1AD0
  5
10E2
331
1B3E
  5
304F
331
129F
  5
37E2
331
12DA
  5
381D
331
1296
  5
37D9
331
106F
  5
2FFF
331
1ABB
  5
10C5
331
1B29
  5
302C
331
1B64
  5
304B
331
2C56
  5
37C1
331
1A77
  5
FDA
331
141D
  5
3872
331
1458
  5
38A7
331
11C1
  5
37B7
331
1303
  5
3845
331
105A
  5
2FD1
331
1B14
  5
116D
331
1A62
  5
1004
331
1AE4
  5
10FC
331
1443
  5
3898
331
12B3
  5
37F6
331
12EE
  5
3831
331
1171
  5
3767
331
114E
  5
36A6
331
1001
  5
2C68
331
1083
  5
3013
331
1ACF
  5
10E1
331
1A94
  5
109C
331
1B3D
  5
304E
331
12D9
  5
381C
331
129E
  5
37E1
331
FDF
  5
1A4D
331
1295
  5
37D8
331
106E
  5
2FFD
331
2C55
  5
37C0
331
1B28
  5
302E
331
1B63
  5
3049
331
FEF
  5
1AED
331
1A76
  5
FD9
331
141C
  5
3871
331
1302
  5
3844
331
12C7
  5
380A
331
11C0
  5
37B6
331
1059
  5
2FC0
331
1B13
  5
115A
331
1A61
  5
1003
331
1AE3
  5
10FA
331
1442
  5
3897
331
1170
  5
3766
331
12ED
  5
3830
331
1000
  5
2C5E
331
1082
  5
3011
331
114D
  5
369A
331
1B3C
  5
3050
331
129D
  5
37E0
331
12D8
  5
381B
331
FDE
  5
1A38
331
1A4F
  5
FEF
331
1294
  5
37D7
331
106D
  5
2FFC
331
1AB9
  5
10C4
331
1B62
  5
3048
331
2C54
  5
37BF
331
1B27
  5
302A
331
FEE
  5
1AE3
331
1A75
  5
FD8
331
1AF7
  5
110E
331
141B
  5
3870
331
12C6
  5
3809
331
1301
  5
3843
331
1B12
  5
1157
331
1A60
  5
1002
331
1AE2
  5
10F5
331
1AA7
  5
10B1
331
1441
  5
3896
331
12B1
  5
37F4
331
12EC
  5
382F
331
114C
  5
3692
331
1081
  5
3010
331
1B3B
  5
304D
331
129C
  5
37DF
331
1A4E
  5
FEE
331
142F
  5
3884
331
1293
  5
37D6
331
106C
  5
2FFB
331
1AB8
  5
10C3
331
2C53
  5
37BE
331
1B26
  5
302B
331
1B61
  5
3046
331
FED
  5
1ADA
331
1A74
  5
FD7
331
1AF6
  5
110F
331
141A
  5
386F
331
1300
  5
3842
331
12C5
  5
3808
331
1B11
  5
1142
331
1AA6
  5
10AF
331
1AE1
  5
10F8
331
1B4F
  5
3061
331
1440
  5
3895
331
12EB
  5
382E
331
1080
  5
300F
331
114B
  5
3683
331
1A91
  5
109A
331
1ACC
  5
10D8
331
1B3A
  5
303D
331
129B
  5
37DE
331
1A4D
  5
FED
331
142E
  5
3883
331
1292
  5
37D5
331
106B
  5
2FFA
331
1B60
  5
3047
331
2C52
  5
37C5
331
1B25
  5
3029
331
FEC
  5
1ACD
331
1A73
  5
FD6
331
1AF5
  5
110D
331
1419
  5
386E
331
12C4
  5
3807
331
12FF
  5
3841
331
1B10
  5
1137
331
115F
  5
3746
331
1AA5
  5
10AD
331
1B4E
  5
3060
331
12EA
  5
382D
331
FB5
  5
FB5
331
114A
  5
3680
331
107F
  5
300E
331
1512
  5
38B3
331
1A90
  5
109B
331
1B39
  5
303E
331
38C4
  5
10E0
331
129A
  5
37DD
331
FDB
  5
1A15
331
1A87
  5
FEB
331
1A4C
  5
FC7
331
142D
  5
3882
331
1291
  5
37D4
331
106A
  5
2FF9
331
2C51
  5
37C4
331
1B24
  5
3027
331
FEB
  5
1AB7
331
1026
  5
2DCC
331
1A72
  5
FD5
331
1AF4
  5
110C
331
1418
  5
386D
331
377B
  5
1A1F
331
12C3
  5
3806
331
12FE
  5
3840
331
11BF
  5
37B5
331
115E
  5
3744
331
1AA4
  5
10AC
331
1ADF
  5
10F7
331
1B4D
  5
305F
331
12AE
  5
37F1
331
12E9
  5
382C
331
FB4
  5
FB4
331
116F
  5
3765
331
107E
  5
300B
331
1149
  5
3670
331
1511
  5
38B2
331
1ACA
  5
10D6
331
1B38
  5
303C
331
1299
  5
37DC
331
FDA
  5
1A14
331
1A4B
  5
FC6
331
1A86
  5
FEA
331
142C
  5
3881
331
1290
  5
37D3
331
12D7
  5
381A
331
1069
  5
2FF8
331
2C50
  5
37C3
331
1B23
  5
3026
331
FEA
  5
1AB0
331
1025
  5
2DBA
331
1A71
  5
FD2
331
1417
  5
386C
331
1452
  5
38A2
331
12C2
  5
3805
331
12FD
  5
383F
331
11BE
  5
37B4
331
115D
  5
3737
331
1AA3
  5
10AB
331
1B4C
  5
305E
331
12E8
  5
382B
331
12AD
  5
37F0
331
1A5F
  5
FFF
331
116E
  5
3764
331
1148
  5
3662
331
107D
  5
300D
331
1510
  5
38B1
331
1A8E
  5
1099
331
1AC9
  5
10D5
331
1B37
  5
303A
331
38C2
  5
10DD
  0
XRECORD
  5
3A1B
102
{ACAD_REACTORS
330
3A1A
102
}
330
3A1A
100
AcDbXrecord
280
     1
 40
1.570796326794896
  0
LAYOUT
  5
1E
102
{ACAD_XDICTIONARY
360
3A1C
102
}
102
{ACAD_REACTORS
330
1A
102
}
330
1A
100
AcDbPlotSettings
  1

  2
Ploter HP500
  4

  6

 40
0.0
 41
0.0
 42
0.0
 43
0.0
 44
0.0
 45
0.0
 46
0.0
 47
0.0
 48
0.0
 49
0.0
140
0.0
141
0.0
142
1.0
143
1.0
 70
   688
 72
     0
 73
     0
 74
     5
  7
monochrome.ctb
 75
    16
147
1.0
148
0.0
149
0.0
100
AcDbLayout
  1
Layout1
 70
     1
 71
     1
 10
0.0
 20
0.0
 11
420.0
 21
297.0
 12
0.0
 22
0.0
 32
0.0
 14
1.000000000000000E+20
 24
1.000000000000000E+20
 34
1.000000000000000E+20
 15
-1.000000000000000E+20
 25
-1.000000000000000E+20
 35
-1.000000000000000E+20
146
0.0
 13
0.0
 23
0.0
 33
0.0
 16
1.0
 26
0.0
 36
0.0
 17
0.0
 27
1.0
 37
0.0
 76
     0
330
1B
  0
LAYOUT
  5
26
102
{ACAD_XDICTIONARY
360
3A20
102
}
102
{ACAD_REACTORS
330
1A
102
}
330
1A
100
AcDbPlotSettings
  1

  2
Ploter HP500
  4

  6

 40
0.0
 41
0.0
 42
0.0
 43
0.0
 44
0.0
 45
0.0
 46
0.0
 47
0.0
 48
0.0
 49
0.0
140
0.0
141
0.0
142
1.0
143
1.0
 70
   688
 72
     0
 73
     0
 74
     5
  7
monochrome.ctb
 75
    16
147
1.0
148
0.0
149
0.0
100
AcDbLayout
  1
Layout2
 70
     1
 71
     2
 10
0.0
 20
0.0
 11
12.0
 21
9.0
 12
0.0
 22
0.0
 32
0.0
 14
0.0
 24
0.0
 34
0.0
 15
0.0
 25
0.0
 35
0.0
146
0.0
 13
0.0
 23
0.0
 33
0.0
 16
1.0
 26
0.0
 36
0.0
 17
0.0
 27
1.0
 37
0.0
 76
     0
330
23
  0
LAYOUT
  5
22
102
{ACAD_XDICTIONARY
360
3A1E
102
}
102
{ACAD_REACTORS
330
1A
102
}
330
1A
100
AcDbPlotSettings
  1

  2
Ploter HP500
  4
User268
  6

 40
4.995333194732666
 41
16.97565841674804
 42
4.995330810546875
 43
16.97567749023437
 44
209.9733276367187
 45
296.9259948730469
 46
0.0
 47
0.0
 48
0.0
 49
0.0
140
0.0
141
0.0
142
1.0
143
1.0
 70
 11952
 72
     1
 73
     1
 74
     0
  7

 75
     0
147
1.0
148
-427.5957866592534
149
7.362384574453926
100
AcDbLayout
  1
Model
 70
     1
 71
     0
 10
0.0
 20
0.0
 11
12.0
 21
9.0
 12
0.0
 22
0.0
 32
0.0
 14
0.0
 24
0.0
 34
0.0
 15
0.0
 25
0.0
 35
0.0
146
0.0
 13
0.0
 23
0.0
 33
0.0
 16
1.0
 26
0.0
 36
0.0
 17
0.0
 27
1.0
 37
0.0
 76
     0
330
1F
331
3945
  0
MATERIAL
  5
3957
102
{ACAD_XDICTIONARY
360
3958
102
}
102
{ACAD_REACTORS
330
BA8
102
}
330
BA8
100
AcDbMaterial
  1
ByBlock
 72
     0
 43
0.0008202099737533
 43
0.0
 43
0.0
 43
0.0
 43
0.0
 43
0.0008202099737533
 43
0.0
 43
0.0
 43
0.0
 43
0.0
 43
1.0
 43
0.0
 43
0.0
 43
0.0
 43
0.0
 43
1.0
 77
     0
 47
0.0008202099737533
 47
0.0
 47
0.0
 47
0.0
 47
0.0
 47
0.0008202099737533
 47
0.0
 47
0.0
 47
0.0
 47
0.0
 47
1.0
 47
0.0
 47
0.0
 47
0.0
 47
0.0
 47
1.0
171
     0
 49
0.0008202099737533
 49
0.0
 49
0.0
 49
0.0
 49
0.0
 49
0.0008202099737533
 49
0.0
 49
0.0
 49
0.0
 49
0.0
 49
1.0
 49
0.0
 49
0.0
 49
0.0
 49
0.0
 49
1.0
175
     0
142
0.0008202099737533
142
0.0
142
0.0
142
0.0
142
0.0
142
0.0008202099737533
142
0.0
142
0.0
142
0.0
142
0.0
142
1.0
142
0.0
142
0.0
142
0.0
142
0.0
142
1.0
179
     0
144
0.0008202099737533
144
0.0
144
0.0
144
0.0
144
0.0
144
0.0008202099737533
144
0.0
144
0.0
144
0.0
144
0.0
144
1.0
144
0.0
144
0.0
144
0.0
144
0.0
144
1.0
147
0.0008202099737533
147
0.0
147
0.0
147
0.0
147
0.0
147
0.0008202099737533
147
0.0
147
0.0
147
0.0
147
0.0
147
1.0
147
0.0
147
0.0
147
0.0
147
0.0
147
1.0
  0
MATERIAL
  5
394F
102
{ACAD_XDICTIONARY
360
3950
102
}
102
{ACAD_REACTORS
330
BA8
102
}
330
BA8
100
AcDbMaterial
  1
ByLayer
 72
     0
 43
0.0008202099737533
 43
0.0
 43
0.0
 43
0.0
 43
0.0
 43
0.0008202099737533
 43
0.0
 43
0.0
 43
0.0
 43
0.0
 43
1.0
 43
0.0
 43
0.0
 43
0.0
 43
0.0
 43
1.0
 77
     0
 47
0.0008202099737533
 47
0.0
 47
0.0
 47
0.0
 47
0.0
 47
0.0008202099737533
 47
0.0
 47
0.0
 47
0.0
 47
0.0
 47
1.0
 47
0.0
 47
0.0
 47
0.0
 47
0.0
 47
1.0
171
     0
 49
0.0008202099737533
 49
0.0
 49
0.0
 49
0.0
 49
0.0
 49
0.0008202099737533
 49
0.0
 49
0.0
 49
0.0
 49
0.0
 49
1.0
 49
0.0
 49
0.0
 49
0.0
 49
0.0
 49
1.0
175
     0
142
0.0008202099737533
142
0.0
142
0.0
142
0.0
142
0.0
142
0.0008202099737533
142
0.0
142
0.0
142
0.0
142
0.0
142
1.0
142
0.0
142
0.0
142
0.0
142
0.0
142
1.0
179
     0
144
0.0008202099737533
144
0.0
144
0.0
144
0.0
144
0.0
144
0.0008202099737533
144
0.0
144
0.0
144
0.0
144
0.0
144
1.0
144
0.0
144
0.0
144
0.0
144
0.0
144
1.0
147
0.0008202099737533
147
0.0
147
0.0
147
0.0
147
0.0
147
0.0008202099737533
147
0.0
147
0.0
147
0.0
147
0.0
147
1.0
147
0.0
147
0.0
147
0.0
147
0.0
147
1.0
  0
MATERIAL
  5
395F
102
{ACAD_XDICTIONARY
360
3960
102
}
102
{ACAD_REACTORS
330
BA8
102
}
330
BA8
100
AcDbMaterial
  1
Global
 72
     0
 43
0.0008202099737533
 43
0.0
 43
0.0
 43
0.0
 43
0.0
 43
0.0008202099737533
 43
0.0
 43
0.0
 43
0.0
 43
0.0
 43
1.0
 43
0.0
 43
0.0
 43
0.0
 43
0.0
 43
1.0
 77
     0
 47
0.0008202099737533
 47
0.0
 47
0.0
 47
0.0
 47
0.0
 47
0.0008202099737533
 47
0.0
 47
0.0
 47
0.0
 47
0.0
 47
1.0
 47
0.0
 47
0.0
 47
0.0
 47
0.0
 47
1.0
171
     0
 49
0.0008202099737533
 49
0.0
 49
0.0
 49
0.0
 49
0.0
 49
0.0008202099737533
 49
0.0
 49
0.0
 49
0.0
 49
0.0
 49
1.0
 49
0.0
 49
0.0
 49
0.0
 49
0.0
 49
1.0
175
     0
142
0.0008202099737533
142
0.0
142
0.0
142
0.0
142
0.0
142
0.0008202099737533
142
0.0
142
0.0
142
0.0
142
0.0
142
1.0
142
0.0
142
0.0
142
0.0
142
0.0
142
1.0
179
     0
144
0.0008202099737533
144
0.0
144
0.0
144
0.0
144
0.0
144
0.0008202099737533
144
0.0
144
0.0
144
0.0
144
0.0
144
1.0
144
0.0
144
0.0
144
0.0
144
0.0
144
1.0
147
0.0008202099737533
147
0.0
147
0.0
147
0.0
147
0.0
147
0.0008202099737533
147
0.0
147
0.0
147
0.0
147
0.0
147
1.0
147
0.0
147
0.0
147
0.0
147
0.0
147
1.0
  0
MLEADERSTYLE
  5
398E
102
{ACAD_REACTORS
330
398D
102
}
330
398D
100
AcDbMLeaderStyle
170
     2
171
     1
172
     0
 90
        2
 40
0.0
 41
0.0
173
     1
 91
-1056964608
340
14
 92
       -2
290
     1
 42
2.0
291
     1
 43
0.36
  3
Standard
 44
4.0
300

342
11
174
     1
178
     6
175
     1
176
     0
 93
-1056964608
 45
4.0
292
     0
297
     0
 46
4.0
 94
-1056964608
 47
1.0
 49
1.0
140
1.0
293
     1
141
0.0
294
     1
177
     0
142
1.0
295
     0
296
     0
143
0.125
1001
ACAD_MLEADERVER
1070
     2
  0
MLINESTYLE
  5
18
102
{ACAD_REACTORS
330
17
102
}
330
17
100
AcDbMlineStyle
  2
STANDARD
 70
     0
  3

 62
   256
 51
90.0
 52
90.0
 71
     2
 49
0.5
 62
   256
  6
BYLAYER
 49
-0.5
 62
   256
  6
BYLAYER
  0
ACDBPLACEHOLDER
  5
F
102
{ACAD_REACTORS
330
E
102
}
330
E
  0
SCALE
  5
397C
102
{ACAD_REACTORS
330
397B
102
}
330
397B
100
AcDbScale
 70
     0
300
1:1
140
1.0
141
1.0
290
     1
  0
SCALE
  5
397D
102
{ACAD_REACTORS
330
397B
102
}
330
397B
100
AcDbScale
 70
     0
300
1:2
140
1.0
141
2.0
290
     0
  0
SCALE
  5
397E
102
{ACAD_REACTORS
330
397B
102
}
330
397B
100
AcDbScale
 70
     0
300
1:4
140
1.0
141
4.0
290
     0
  0
SCALE
  5
397F
102
{ACAD_REACTORS
330
397B
102
}
330
397B
100
AcDbScale
 70
     0
300
1:5
140
1.0
141
5.0
290
     0
  0
SCALE
  5
3980
102
{ACAD_REACTORS
330
397B
102
}
330
397B
100
AcDbScale
 70
     0
300
1:8
140
1.0
141
8.0
290
     0
  0
SCALE
  5
3981
102
{ACAD_REACTORS
330
397B
102
}
330
397B
100
AcDbScale
 70
     0
300
1:10
140
1.0
141
10.0
290
     0
  0
SCALE
  5
3982
102
{ACAD_REACTORS
330
397B
102
}
330
397B
100
AcDbScale
 70
     0
300
1:16
140
1.0
141
16.0
290
     0
  0
SCALE
  5
3983
102
{ACAD_REACTORS
330
397B
102
}
330
397B
100
AcDbScale
 70
     0
300
1:20
140
1.0
141
20.0
290
     0
  0
SCALE
  5
3984
102
{ACAD_REACTORS
330
397B
102
}
330
397B
100
AcDbScale
 70
     0
300
1:30
140
1.0
141
30.0
290
     0
  0
SCALE
  5
3985
102
{ACAD_REACTORS
330
397B
102
}
330
397B
100
AcDbScale
 70
     0
300
1:40
140
1.0
141
40.0
290
     0
  0
SCALE
  5
3986
102
{ACAD_REACTORS
330
397B
102
}
330
397B
100
AcDbScale
 70
     0
300
1:50
140
1.0
141
50.0
290
     0
  0
SCALE
  5
3987
102
{ACAD_REACTORS
330
397B
102
}
330
397B
100
AcDbScale
 70
     0
300
1:100
140
1.0
141
100.0
290
     0
  0
SCALE
  5
3988
102
{ACAD_REACTORS
330
397B
102
}
330
397B
100
AcDbScale
 70
     0
300
2:1
140
2.0
141
1.0
290
     0
  0
SCALE
  5
3989
102
{ACAD_REACTORS
330
397B
102
}
330
397B
100
AcDbScale
 70
     0
300
4:1
140
4.0
141
1.0
290
     0
  0
SCALE
  5
398A
102
{ACAD_REACTORS
330
397B
102
}
330
397B
100
AcDbScale
 70
     0
300
8:1
140
8.0
141
1.0
290
     0
  0
SCALE
  5
398B
102
{ACAD_REACTORS
330
397B
102
}
330
397B
100
AcDbScale
 70
     0
300
10:1
140
10.0
141
1.0
290
     0
  0
SCALE
  5
398C
102
{ACAD_REACTORS
330
397B
102
}
330
397B
100
AcDbScale
 70
     0
300
100:1
140
100.0
141
1.0
290
     0
  0
TABLESTYLE
  5
BAB
102
{ACAD_XDICTIONARY
360
3A16
102
}
102
{ACAD_REACTORS
330
BAA
102
}
330
BAA
100
AcDbTableStyle
  3
Standard
 70
     0
 71
     0
 40
1.5
 41
1.5
280
     0
281
     0
  7
Standard
140
4.5
170
     2
 62
     0
 63
     7
283
     0
274
    -2
284
     1
 64
     0
275
    -2
285
     1
 65
     0
276
    -2
286
     1
 66
     0
277
    -2
287
     1
 67
     0
278
    -2
288
     1
 68
     0
279
    -2
289
     1
 69
     0
  7
Standard
140
6.0
170
     5
 62
     0
 63
     7
283
     0
274
    -2
284
     1
 64
     0
275
    -2
285
     1
 65
     0
276
    -2
286
     1
 66
     0
277
    -2
287
     1
 67
     0
278
    -2
288
     1
 68
     0
279
    -2
289
     1
 69
     0
  7
Standard
140
4.5
170
     5
 62
     0
 63
     7
283
     0
274
    -2
284
     1
 64
     0
275
    -2
285
     1
 65
     0
276
    -2
286
     1
 66
     0
277
    -2
287
     1
 67
     0
278
    -2
288
     1
 68
     0
279
    -2
289
     1
 69
     0
  0
VISUALSTYLE
  5
396D
102
{ACAD_XDICTIONARY
360
3A30
102
}
102
{ACAD_REACTORS
330
3967
102
}
330
3967
100
AcDbVisualStyle
  2
2dWireframe
 70
     4
 71
     0
 72
     2
 73
     0
 90
        0
 40
-0.6
 41
-30.0
 62
     5
 63
     7
 74
     1
 91
        4
 64
     7
 65
   257
 75
     1
175
     1
 42
1.0
 92
        0
 66
   257
 43
1.0
 76
     1
 77
     6
 78
     2
 67
     7
 79
     5
170
     0
171
     0
290
     0
174
     0
 93
        1
 44
0.0
173
     0
291
     0
 45
0.0
1001
ACAD
1000
AcDbSavedByObjectVersion
1070
     0
  0
VISUALSTYLE
  5
396F
102
{ACAD_XDICTIONARY
360
3A34
102
}
102
{ACAD_REACTORS
330
3967
102
}
330
3967
100
AcDbVisualStyle
  2
3D Hidden
 70
     6
 71
     1
 72
     2
 73
     2
 90
        0
 40
-0.6
 41
-30.0
 62
     5
 63
     7
 74
     2
 91
        2
 64
     7
 65
   257
 75
     2
175
     1
 42
179.0
 92
        0
 66
   257
 43
1.0
 76
     1
 77
     6
 78
     2
 67
     7
 79
     3
170
     0
171
     0
290
     0
174
     0
 93
        1
 44
0.0
173
     0
291
     0
 45
0.0
1001
ACAD
1000
AcDbSavedByObjectVersion
1070
     0
  0
VISUALSTYLE
  5
396E
102
{ACAD_XDICTIONARY
360
3A32
102
}
102
{ACAD_REACTORS
330
3967
102
}
330
3967
100
AcDbVisualStyle
  2
3dWireframe
 70
     5
 71
     0
 72
     2
 73
     0
 90
        0
 40
-0.6
 41
-30.0
 62
     5
 63
     7
 74
     1
 91
        4
 64
     7
 65
   257
 75
     1
175
     1
 42
1.0
 92
        0
 66
   257
 43
1.0
 76
     1
 77
     6
 78
     2
 67
     7
 79
     5
170
     0
171
     0
290
     0
174
     0
 93
        1
 44
0.0
173
     0
291
     0
 45
0.0
1001
ACAD
1000
AcDbSavedByObjectVersion
1070
     0
  0
VISUALSTYLE
  5
396C
102
{ACAD_XDICTIONARY
360
3A2E
102
}
102
{ACAD_REACTORS
330
3967
102
}
330
3967
100
AcDbVisualStyle
  2
Basic
 70
     7
 71
     1
 72
     0
 73
     1
 90
        0
 40
-0.6
 41
-30.0
 62
     5
 63
     7
 74
     0
 91
        4
 64
     7
 65
   257
 75
     1
175
     1
 42
1.0
 92
        8
 66
     7
 43
1.0
 76
     1
 77
     6
 78
     2
 67
     7
 79
     5
170
     0
171
     0
290
     0
174
     0
 93
        1
 44
0.0
173
     0
291
     1
 45
0.0
1001
ACAD
1000
AcDbSavedByObjectVersion
1070
     0
  0
VISUALSTYLE
  5
3973
102
{ACAD_XDICTIONARY
360
3A3C
102
}
102
{ACAD_REACTORS
330
3967
102
}
330
3967
100
AcDbVisualStyle
  2
Brighten
 70
    12
 71
     2
 72
     2
 73
     0
 90
        0
 40
-0.6
 41
-30.0
 62
     5
 63
     7
 74
     1
 91
        4
 64
     7
 65
   257
 75
     1
175
     1
 42
1.0
 92
        8
 66
     7
 43
1.0
 76
     1
 77
     6
 78
     2
 67
     7
 79
     5
170
     0
171
     0
290
     0
174
     0
 93
        1
 44
50.0
173
     0
291
     1
 45
0.0
1001
ACAD
1000
AcDbSavedByObjectVersion
1070
     0
  0
VISUALSTYLE
  5
3977
102
{ACAD_XDICTIONARY
360
3A44
102
}
102
{ACAD_REACTORS
330
3967
102
}
330
3967
100
AcDbVisualStyle
  2
ColorChange
 70
    16
 71
     2
 72
     2
 73
     3
 90
        0
 40
-0.6
 41
-30.0
 62
     5
 63
     8
 74
     1
 91
        4
 64
     7
 65
   257
 75
     1
175
     1
 42
1.0
 92
        8
 66
     8
 43
1.0
 76
     1
 77
     6
 78
     2
 67
     7
 79
     5
170
     0
171
     0
290
     0
174
     0
 93
        1
 44
0.0
173
     0
291
     1
 45
0.0
1001
ACAD
1000
AcDbSavedByObjectVersion
1070
     0
  0
VISUALSTYLE
  5
3970
102
{ACAD_XDICTIONARY
360
3A36
102
}
102
{ACAD_REACTORS
330
3967
102
}
330
3967
100
AcDbVisualStyle
  2
Conceptual
 70
     9
 71
     3
 72
     2
 73
     0
 90
        0
 40
-0.6
 41
-30.0
 62
     5
 63
     7
 74
     2
 91
        2
 64
     7
 65
   257
 75
     1
175
     1
 42
179.0
 92
        8
 66
     7
 43
1.0
 76
     1
 77
     6
 78
     2
 67
     7
 79
     3
170
     0
171
     0
290
     0
174
     0
 93
        1
 44
0.0
173
     0
291
     0
 45
0.0
1001
ACAD
1000
AcDbSavedByObjectVersion
1070
     0
  0
VISUALSTYLE
  5
3972
102
{ACAD_XDICTIONARY
360
3A3A
102
}
102
{ACAD_REACTORS
330
3967
102
}
330
3967
100
AcDbVisualStyle
  2
Dim
 70
    11
 71
     2
 72
     2
 73
     0
 90
        0
 40
-0.6
 41
-30.0
 62
     5
 63
     7
 74
     1
 91
        4
 64
     7
 65
   257
 75
     1
175
     1
 42
1.0
 92
        8
 66
     7
 43
1.0
 76
     1
 77
     6
 78
     2
 67
     7
 79
     5
170
     0
171
     0
290
     0
174
     0
 93
        1
 44
-50.0
173
     0
291
     1
 45
0.0
1001
ACAD
1000
AcDbSavedByObjectVersion
1070
     0
  0
VISUALSTYLE
  5
397A
102
{ACAD_XDICTIONARY
360
3A4A
102
}
102
{ACAD_REACTORS
330
3967
102
}
330
3967
100
AcDbVisualStyle
  2
EdgeColorOff
 70
    22
 71
     2
 72
     2
 73
     0
 90
        0
 40
-0.6
 41
-30.0
 62
     5
 63
     7
 74
     1
 91
        4
 64
     7
 65
   257
 75
     1
175
     1
 42
1.0
 92
        8
 66
     7
 43
1.0
 76
     1
 77
     6
 78
     2
 67
     7
 79
     5
170
     0
171
     0
290
     0
174
     0
 93
        1
 44
0.0
173
     0
291
     1
 45
0.0
1001
ACAD
1000
AcDbSavedByObjectVersion
1070
     0
  0
VISUALSTYLE
  5
3976
102
{ACAD_XDICTIONARY
360
3A42
102
}
102
{ACAD_REACTORS
330
3967
102
}
330
3967
100
AcDbVisualStyle
  2
Facepattern
 70
    15
 71
     2
 72
     2
 73
     0
 90
        0
 40
-0.6
 41
-30.0
 62
     5
 63
     7
 74
     1
 91
        4
 64
     7
 65
   257
 75
     1
175
     1
 42
1.0
 92
        8
 66
     7
 43
1.0
 76
     1
 77
     6
 78
     2
 67
     7
 79
     5
170
     0
171
     0
290
     0
174
     0
 93
        1
 44
0.0
173
     0
291
     1
 45
0.0
1001
ACAD
1000
AcDbSavedByObjectVersion
1070
     0
  0
VISUALSTYLE
  5
3968
102
{ACAD_XDICTIONARY
360
3A26
102
}
102
{ACAD_REACTORS
330
3967
102
}
330
3967
100
AcDbVisualStyle
  2
Flat
 70
     0
 71
     2
 72
     1
 73
     1
 90
        2
 40
-0.6
 41
30.0
 62
     5
 63
     7
 74
     0
 91
        4
 64
     7
 65
   257
 75
     1
175
     1
 42
1.0
 92
        8
 66
     7
 43
1.0
 76
     1
 77
     6
 78
     2
 67
     7
 79
     5
170
     0
171
     0
290
     0
174
     0
 93
       13
 44
0.0
173
     0
291
     1
 45
0.0
1001
ACAD
1000
AcDbSavedByObjectVersion
1070
     0
  0
VISUALSTYLE
  5
3969
102
{ACAD_XDICTIONARY
360
3A28
102
}
102
{ACAD_REACTORS
330
3967
102
}
330
3967
100
AcDbVisualStyle
  2
FlatWithEdges
 70
     1
 71
     2
 72
     1
 73
     1
 90
        2
 40
-0.6
 41
30.0
 62
     5
 63
     7
 74
     1
 91
        4
 64
     7
 65
   257
 75
     1
175
     1
 42
1.0
 92
        0
 66
   257
 43
1.0
 76
     1
 77
     6
 78
     2
 67
     7
 79
     5
170
     0
171
     0
290
     0
174
     0
 93
       13
 44
0.0
173
     0
291
     1
 45
0.0
1001
ACAD
1000
AcDbSavedByObjectVersion
1070
     0
  0
VISUALSTYLE
  5
396A
102
{ACAD_XDICTIONARY
360
3A2A
102
}
102
{ACAD_REACTORS
330
3967
102
}
330
3967
100
AcDbVisualStyle
  2
Gouraud
 70
     2
 71
     2
 72
     2
 73
     1
 90
        2
 40
-0.6
 41
30.0
 62
     5
 63
     7
 74
     0
 91
        4
 64
     7
 65
   257
 75
     1
175
     1
 42
1.0
 92
        0
 66
     7
 43
1.0
 76
     1
 77
     6
 78
     2
 67
     7
 79
     5
170
     0
171
     0
290
     0
174
     0
 93
       13
 44
0.0
173
     0
291
     1
 45
0.0
1001
ACAD
1000
AcDbSavedByObjectVersion
1070
     0
  0
VISUALSTYLE
  5
396B
102
{ACAD_XDICTIONARY
360
3A2C
102
}
102
{ACAD_REACTORS
330
3967
102
}
330
3967
100
AcDbVisualStyle
  2
GouraudWithEdges
 70
     3
 71
     2
 72
     2
 73
     1
 90
        2
 40
-0.6
 41
30.0
 62
     5
 63
     7
 74
     1
 91
        4
 64
     7
 65
   257
 75
     1
175
     1
 42
1.0
 92
        0
 66
   257
 43
1.0
 76
     1
 77
     6
 78
     2
 67
     7
 79
     5
170
     0
171
     0
290
     0
174
     0
 93
       13
 44
0.0
173
     0
291
     1
 45
0.0
1001
ACAD
1000
AcDbSavedByObjectVersion
1070
     0
  0
VISUALSTYLE
  5
3978
102
{ACAD_XDICTIONARY
360
3A46
102
}
102
{ACAD_REACTORS
330
3967
102
}
330
3967
100
AcDbVisualStyle
  2
JitterOff
 70
    20
 71
     2
 72
     2
 73
     0
 90
        0
 40
-0.6
 41
-30.0
 62
     5
 63
     7
 74
     1
 91
        4
 64
     7
 65
   257
 75
     1
175
     1
 42
1.0
 92
       10
 66
     7
 43
1.0
 76
     1
 77
     6
 78
     2
 67
     7
 79
     5
170
     0
171
     0
290
     0
174
     0
 93
        1
 44
0.0
173
     0
291
     1
 45
0.0
1001
ACAD
1000
AcDbSavedByObjectVersion
1070
     0
  0
VISUALSTYLE
  5
3975
102
{ACAD_XDICTIONARY
360
3A40
102
}
102
{ACAD_REACTORS
330
3967
102
}
330
3967
100
AcDbVisualStyle
  2
Linepattern
 70
    14
 71
     2
 72
     2
 73
     0
 90
        0
 40
-0.6
 41
-30.0
 62
     5
 63
     7
 74
     1
 91
        4
 64
     7
 65
   257
 75
     7
175
     7
 42
1.0
 92
        8
 66
     7
 43
1.0
 76
     1
 77
     6
 78
     2
 67
     7
 79
     5
170
     0
171
     0
290
     0
174
     0
 93
        1
 44
0.0
173
     0
291
     1
 45
0.0
1001
ACAD
1000
AcDbSavedByObjectVersion
1070
     0
  0
VISUALSTYLE
  5
3979
102
{ACAD_XDICTIONARY
360
3A48
102
}
102
{ACAD_REACTORS
330
3967
102
}
330
3967
100
AcDbVisualStyle
  2
OverhangOff
 70
    21
 71
     2
 72
     2
 73
     0
 90
        0
 40
-0.6
 41
-30.0
 62
     5
 63
     7
 74
     1
 91
        4
 64
     7
 65
   257
 75
     1
175
     1
 42
1.0
 92
        9
 66
     7
 43
1.0
 76
     1
 77
     6
 78
     2
 67
     7
 79
     5
170
     0
171
     0
290
     0
174
     0
 93
        1
 44
0.0
173
     0
291
     1
 45
0.0
1001
ACAD
1000
AcDbSavedByObjectVersion
1070
     0
  0
VISUALSTYLE
  5
3971
102
{ACAD_XDICTIONARY
360
3A38
102
}
102
{ACAD_REACTORS
330
3967
102
}
330
3967
100
AcDbVisualStyle
  2
Realistic
 70
     8
 71
     2
 72
     2
 73
     0
 90
        0
 40
-0.6
 41
-30.0
 62
     5
 63
     7
 74
     1
 91
        0
 64
     7
 65
   257
 75
     1
175
     1
 42
1.0
 92
        8
 66
     8
 43
1.0
 76
     1
 77
     6
 78
     2
 67
     7
 79
     5
170
     0
171
     0
290
     0
174
     0
 93
       13
 44
0.0
173
     0
291
     0
 45
0.0
1001
ACAD
1000
AcDbSavedByObjectVersion
1070
     0
  0
VISUALSTYLE
  5
3974
102
{ACAD_XDICTIONARY
360
3A3E
102
}
102
{ACAD_REACTORS
330
3967
102
}
330
3967
100
AcDbVisualStyle
  2
Thicken
 70
    13
 71
     2
 72
     2
 73
     0
 90
        0
 40
-0.6
 41
-30.0
 62
     5
 63
     7
 74
     1
 91
        4
 64
     7
 65
   257
 75
     1
175
     1
 42
1.0
 92
       12
 66
     7
 43
1.0
 76
     1
 77
     6
 78
     2
 67
     7
 79
     5
170
     0
171
     0
290
     0
174
     0
 93
        1
 44
0.0
173
     0
291
     1
 45
0.0
1001
ACAD
1000
AcDbSavedByObjectVersion
1070
     0
  0
DICTIONARYVAR
  5
3A12
102
{ACAD_REACTORS
330
3D
102
}
330
3D
100
DictionaryVariables
280
     0
  1
1:1
  0
DICTIONARYVAR
  5
3A11
102
{ACAD_REACTORS
330
3D
102
}
330
3D
100
DictionaryVariables
280
     0
  1
STANDARD
  0
DICTIONARYVAR
  5
1504
102
{ACAD_REACTORS
330
3D
102
}
330
3D
100
DictionaryVariables
280
     0
  1
STANDARD
  0
DICTIONARYVAR
  5
3F
102
{ACAD_REACTORS
330
3D
102
}
330
3D
100
DictionaryVariables
280
     0
  1
2
  0
DICTIONARYVAR
  5
3E
102
{ACAD_REACTORS
330
3D
102
}
330
3D
100
DictionaryVariables
280
     0
  1
1
  0
DICTIONARYVAR
  5
3A14
102
{ACAD_REACTORS
330
3D
102
}
330
3D
100
DictionaryVariables
280
     0
  1
0
  0
DICTIONARYVAR
  5
394D
102
{ACAD_REACTORS
330
3D
102
}
330
3D
100
DictionaryVariables
280
     0
  1

  0
DICTIONARYVAR
  5
3A13
102
{ACAD_REACTORS
330
3D
102
}
330
3D
100
DictionaryVariables
280
     0
  1
127
  0
DICTIONARYVAR
  5
3A15
102
{ACAD_REACTORS
330
3D
102
}
330
3D
100
DictionaryVariables
280
     0
  1
2
  0
XRECORD
  5
B92
102
{ACAD_REACTORS
330
B91
102
}
330
B91
100
AcDbXrecord
280
     1
  0
DICTIONARY
  5
3A1C
330
1E
100
AcDbDictionary
280
     1
281
     1
  3
ACAD_XREC_ROUNDTRIP
360
3A1D
  0
DICTIONARY
  5
3A20
330
26
100
AcDbDictionary
280
     1
281
     1
  3
ACAD_XREC_ROUNDTRIP
360
3A21
  0
DICTIONARY
  5
3A1E
330
22
100
AcDbDictionary
280
     1
281
     1
  3
ACAD_XREC_ROUNDTRIP
360
3A1F
  0
DICTIONARY
  5
3958
330
3957
100
AcDbDictionary
280
     1
281
     1
  3
ACAD_XREC_ROUNDTRIP
360
3A24
  3
BUMPTILE
360
395A
  3
DIFFUSETILE
360
3959
  3
OPACITYTILE
360
395D
  3
REFLECTIONTILE
360
395C
  3
REFRACTIONTILE
360
395E
  3
SPECULARTILE
360
395B
  0
DICTIONARY
  5
3950
330
394F
100
AcDbDictionary
280
     1
281
     1
  3
ACAD_XREC_ROUNDTRIP
360
3A23
  3
BUMPTILE
360
3952
  3
DIFFUSETILE
360
3951
  3
OPACITYTILE
360
3955
  3
REFLECTIONTILE
360
3954
  3
REFRACTIONTILE
360
3956
  3
SPECULARTILE
360
3953
  0
DICTIONARY
  5
3960
330
395F
100
AcDbDictionary
280
     1
281
     1
  3
ACAD_XREC_ROUNDTRIP
360
3A25
  3
BUMPTILE
360
3962
  3
DIFFUSETILE
360
3961
  3
OPACITYTILE
360
3965
  3
REFLECTIONTILE
360
3964
  3
REFRACTIONTILE
360
3966
  3
SPECULARTILE
360
3963
  0
DICTIONARY
  5
3A16
330
BAB
100
AcDbDictionary
280
     1
281
     1
  3
ACAD_ROUNDTRIP_2008_TABLESTYLE_CELLSTYLEMAP
360
3A17
  3
ACAD_XREC_ROUNDTRIP
360
3A22
  0
DICTIONARY
  5
3A30
330
396D
100
AcDbDictionary
280
     1
281
     1
  3
ACAD_XREC_ROUNDTRIP
360
3A31
  0
DICTIONARY
  5
3A34
330
396F
100
AcDbDictionary
280
     1
281
     1
  3
ACAD_XREC_ROUNDTRIP
360
3A35
  0
DICTIONARY
  5
3A32
330
396E
100
AcDbDictionary
280
     1
281
     1
  3
ACAD_XREC_ROUNDTRIP
360
3A33
  0
DICTIONARY
  5
3A2E
330
396C
100
AcDbDictionary
280
     1
281
     1
  3
ACAD_XREC_ROUNDTRIP
360
3A2F
  0
DICTIONARY
  5
3A3C
330
3973
100
AcDbDictionary
280
     1
281
     1
  3
ACAD_XREC_ROUNDTRIP
360
3A3D
  0
DICTIONARY
  5
3A44
330
3977
100
AcDbDictionary
280
     1
281
     1
  3
ACAD_XREC_ROUNDTRIP
360
3A45
  0
DICTIONARY
  5
3A36
330
3970
100
AcDbDictionary
280
     1
281
     1
  3
ACAD_XREC_ROUNDTRIP
360
3A37
  0
DICTIONARY
  5
3A3A
330
3972
100
AcDbDictionary
280
     1
281
     1
  3
ACAD_XREC_ROUNDTRIP
360
3A3B
  0
DICTIONARY
  5
3A4A
330
397A
100
AcDbDictionary
280
     1
281
     1
  3
ACAD_XREC_ROUNDTRIP
360
3A4B
  0
DICTIONARY
  5
3A42
330
3976
100
AcDbDictionary
280
     1
281
     1
  3
ACAD_XREC_ROUNDTRIP
360
3A43
  0
DICTIONARY
  5
3A26
330
3968
100
AcDbDictionary
280
     1
281
     1
  3
ACAD_XREC_ROUNDTRIP
360
3A27
  0
DICTIONARY
  5
3A28
330
3969
100
AcDbDictionary
280
     1
281
     1
  3
ACAD_XREC_ROUNDTRIP
360
3A29
  0
DICTIONARY
  5
3A2A
330
396A
100
AcDbDictionary
280
     1
281
     1
  3
ACAD_XREC_ROUNDTRIP
360
3A2B
  0
DICTIONARY
  5
3A2C
330
396B
100
AcDbDictionary
280
     1
281
     1
  3
ACAD_XREC_ROUNDTRIP
360
3A2D
  0
DICTIONARY
  5
3A46
330
3978
100
AcDbDictionary
280
     1
281
     1
  3
ACAD_XREC_ROUNDTRIP
360
3A47
  0
DICTIONARY
  5
3A40
330
3975
100
AcDbDictionary
280
     1
281
     1
  3
ACAD_XREC_ROUNDTRIP
360
3A41
  0
DICTIONARY
  5
3A48
330
3979
100
AcDbDictionary
280
     1
281
     1
  3
ACAD_XREC_ROUNDTRIP
360
3A49
  0
DICTIONARY
  5
3A38
330
3971
100
AcDbDictionary
280
     1
281
     1
  3
ACAD_XREC_ROUNDTRIP
360
3A39
  0
DICTIONARY
  5
3A3E
330
3974
100
AcDbDictionary
280
     1
281
     1
  3
ACAD_XREC_ROUNDTRIP
360
3A3F
  0
XRECORD
  5
3A1D
102
{ACAD_REACTORS
330
3A1C
102
}
330
3A1C
100
AcDbXrecord
280
     1
102
SHADEPLOT
 70
     0
102
SHADEPLOTRESLEVEL
 70
     2
102
SHADEPLOTCUSTOMDPI
 70
   300
  0
XRECORD
  5
3A21
102
{ACAD_REACTORS
330
3A20
102
}
330
3A20
100
AcDbXrecord
280
     1
102
SHADEPLOT
 70
     0
102
SHADEPLOTRESLEVEL
 70
     2
102
SHADEPLOTCUSTOMDPI
 70
   300
  0
XRECORD
  5
3A1F
102
{ACAD_REACTORS
330
3A1E
102
}
330
3A1E
100
AcDbXrecord
280
     1
102
SHADEPLOT
 70
     0
102
SHADEPLOTRESLEVEL
 70
     2
102
SHADEPLOTCUSTOMDPI
 70
   300
  0
XRECORD
  5
3A24
102
{ACAD_REACTORS
330
3958
102
}
330
3958
100
AcDbXrecord
280
     1
102
MATERIAL
148
0.0
149
0.0
149
0.0
 93
        0
 94
      127
282
     0
 72
     0
 77
     0
171
     0
175
     0
179
     0
273
     0
  0
XRECORD
  5
395A
102
{ACAD_REACTORS
330
3958
102
}
330
3958
100
AcDbXrecord
280
     1
270
     1
271
     1
  0
XRECORD
  5
3959
102
{ACAD_REACTORS
330
3958
102
}
330
3958
100
AcDbXrecord
280
     1
270
     1
271
     1
  0
XRECORD
  5
395D
102
{ACAD_REACTORS
330
3958
102
}
330
3958
100
AcDbXrecord
280
     1
270
     1
271
     1
  0
XRECORD
  5
395C
102
{ACAD_REACTORS
330
3958
102
}
330
3958
100
AcDbXrecord
280
     1
270
     1
271
     1
  0
XRECORD
  5
395E
102
{ACAD_REACTORS
330
3958
102
}
330
3958
100
AcDbXrecord
280
     1
270
     1
271
     1
  0
XRECORD
  5
395B
102
{ACAD_REACTORS
330
3958
102
}
330
3958
100
AcDbXrecord
280
     1
270
     1
271
     1
  0
XRECORD
  5
3A23
102
{ACAD_REACTORS
330
3950
102
}
330
3950
100
AcDbXrecord
280
     1
102
MATERIAL
148
0.0
149
0.0
149
0.0
 93
        0
 94
      127
282
     0
 72
     0
 77
     0
171
     0
175
     0
179
     0
273
     0
  0
XRECORD
  5
3952
102
{ACAD_REACTORS
330
3950
102
}
330
3950
100
AcDbXrecord
280
     1
270
     1
271
     1
  0
XRECORD
  5
3951
102
{ACAD_REACTORS
330
3950
102
}
330
3950
100
AcDbXrecord
280
     1
270
     1
271
     1
  0
XRECORD
  5
3955
102
{ACAD_REACTORS
330
3950
102
}
330
3950
100
AcDbXrecord
280
     1
270
     1
271
     1
  0
XRECORD
  5
3954
102
{ACAD_REACTORS
330
3950
102
}
330
3950
100
AcDbXrecord
280
     1
270
     1
271
     1
  0
XRECORD
  5
3956
102
{ACAD_REACTORS
330
3950
102
}
330
3950
100
AcDbXrecord
280
     1
270
     1
271
     1
  0
XRECORD
  5
3953
102
{ACAD_REACTORS
330
3950
102
}
330
3950
100
AcDbXrecord
280
     1
270
     1
271
     1
  0
XRECORD
  5
3A25
102
{ACAD_REACTORS
330
3960
102
}
330
3960
100
AcDbXrecord
280
     1
102
MATERIAL
148
0.0
149
0.0
149
0.0
 93
        0
 94
      127
282
     0
 72
     0
 77
     0
171
     0
175
     0
179
     0
273
     0
  0
XRECORD
  5
3962
102
{ACAD_REACTORS
330
3960
102
}
330
3960
100
AcDbXrecord
280
     1
270
     1
271
     1
  0
XRECORD
  5
3961
102
{ACAD_REACTORS
330
3960
102
}
330
3960
100
AcDbXrecord
280
     1
270
     1
271
     1
  0
XRECORD
  5
3965
102
{ACAD_REACTORS
330
3960
102
}
330
3960
100
AcDbXrecord
280
     1
270
     1
271
     1
  0
XRECORD
  5
3964
102
{ACAD_REACTORS
330
3960
102
}
330
3960
100
AcDbXrecord
280
     1
270
     1
271
     1
  0
XRECORD
  5
3966
102
{ACAD_REACTORS
330
3960
102
}
330
3960
100
AcDbXrecord
280
     1
270
     1
271
     1
  0
XRECORD
  5
3963
102
{ACAD_REACTORS
330
3960
102
}
330
3960
100
AcDbXrecord
280
     1
270
     1
271
     1
  0
CELLSTYLEMAP
  5
3A17
102
{ACAD_REACTORS
330
3A16
102
}
330
3A16
100
AcDbCellStyleMap
 90
        3
300
CELLSTYLE
  1
TABLEFORMAT_BEGIN
 90
        5
170
     1
 91
        0
 92
    32768
 62
   257
 93
        1
300
CONTENTFORMAT
  1
CONTENTFORMAT_BEGIN
 90
        0
 91
        0
 92
        4
 93
        0
300

 40
0.0
140
1.0
 94
        5
 62
     0
340
11
144
6.0
309
CONTENTFORMAT_END
171
     1
301
MARGIN
  1
CELLMARGIN_BEGIN
 40
1.5
 40
1.5
 40
1.5
 40
1.5
 40
0.18
 40
0.18
309
CELLMARGIN_END
 94
        6
 95
        1
302
GRIDFORMAT
  1
GRIDFORMAT_BEGIN
 90
        0
 91
        1
 62
     0
 92
       -2
340
0
 93
        0
 40
0.045
309
GRIDFORMAT_END
 95
        2
302
GRIDFORMAT
  1
GRIDFORMAT_BEGIN
 90
        0
 91
        1
 62
     0
 92
       -2
340
0
 93
        0
 40
0.045
309
GRIDFORMAT_END
 95
        4
302
GRIDFORMAT
  1
GRIDFORMAT_BEGIN
 90
        0
 91
        1
 62
     0
 92
       -2
340
0
 93
        0
 40
0.045
309
GRIDFORMAT_END
 95
        8
302
GRIDFORMAT
  1
GRIDFORMAT_BEGIN
 90
        0
 91
        1
 62
     0
 92
       -2
340
0
 93
        0
 40
0.045
309
GRIDFORMAT_END
 95
       16
302
GRIDFORMAT
  1
GRIDFORMAT_BEGIN
 90
        0
 91
        1
 62
     0
 92
       -2
340
0
 93
        0
 40
0.045
309
GRIDFORMAT_END
 95
       32
302
GRIDFORMAT
  1
GRIDFORMAT_BEGIN
 90
        0
 91
        1
 62
     0
 92
       -2
340
0
 93
        0
 40
0.045
309
GRIDFORMAT_END
309
TABLEFORMAT_END
  1
CELLSTYLE_BEGIN
 90
        1
 91
        1
300
_TITLE
309
CELLSTYLE_END
300
CELLSTYLE
  1
TABLEFORMAT_BEGIN
 90
        5
170
     1
 91
        0
 92
        0
 62
   257
 93
        1
300
CONTENTFORMAT
  1
CONTENTFORMAT_BEGIN
 90
        0
 91
        0
 92
        4
 93
        0
300

 40
0.0
140
1.0
 94
        5
 62
     0
340
11
144
4.5
309
CONTENTFORMAT_END
171
     1
301
MARGIN
  1
CELLMARGIN_BEGIN
 40
1.5
 40
1.5
 40
1.5
 40
1.5
 40
0.18
 40
0.18
309
CELLMARGIN_END
 94
        6
 95
        1
302
GRIDFORMAT
  1
GRIDFORMAT_BEGIN
 90
        0
 91
        1
 62
     0
 92
       -2
340
0
 93
        0
 40
0.045
309
GRIDFORMAT_END
 95
        2
302
GRIDFORMAT
  1
GRIDFORMAT_BEGIN
 90
        0
 91
        1
 62
     0
 92
       -2
340
0
 93
        0
 40
0.045
309
GRIDFORMAT_END
 95
        4
302
GRIDFORMAT
  1
GRIDFORMAT_BEGIN
 90
        0
 91
        1
 62
     0
 92
       -2
340
0
 93
        0
 40
0.045
309
GRIDFORMAT_END
 95
        8
302
GRIDFORMAT
  1
GRIDFORMAT_BEGIN
 90
        0
 91
        1
 62
     0
 92
       -2
340
0
 93
        0
 40
0.045
309
GRIDFORMAT_END
 95
       16
302
GRIDFORMAT
  1
GRIDFORMAT_BEGIN
 90
        0
 91
        1
 62
     0
 92
       -2
340
0
 93
        0
 40
0.045
309
GRIDFORMAT_END
 95
       32
302
GRIDFORMAT
  1
GRIDFORMAT_BEGIN
 90
        0
 91
        1
 62
     0
 92
       -2
340
0
 93
        0
 40
0.045
309
GRIDFORMAT_END
309
TABLEFORMAT_END
  1
CELLSTYLE_BEGIN
 90
        2
 91
        1
300
_HEADER
309
CELLSTYLE_END
300
CELLSTYLE
  1
TABLEFORMAT_BEGIN
 90
        5
170
     1
 91
        0
 92
        0
 62
   257
 93
        1
300
CONTENTFORMAT
  1
CONTENTFORMAT_BEGIN
 90
        0
 91
        0
 92
        4
 93
        0
300

 40
0.0
140
1.0
 94
        2
 62
     0
340
11
144
4.5
309
CONTENTFORMAT_END
171
     1
301
MARGIN
  1
CELLMARGIN_BEGIN
 40
1.5
 40
1.5
 40
1.5
 40
1.5
 40
0.18
 40
0.18
309
CELLMARGIN_END
 94
        6
 95
        1
302
GRIDFORMAT
  1
GRIDFORMAT_BEGIN
 90
        0
 91
        1
 62
     0
 92
       -2
340
0
 93
        0
 40
0.045
309
GRIDFORMAT_END
 95
        2
302
GRIDFORMAT
  1
GRIDFORMAT_BEGIN
 90
        0
 91
        1
 62
     0
 92
       -2
340
0
 93
        0
 40
0.045
309
GRIDFORMAT_END
 95
        4
302
GRIDFORMAT
  1
GRIDFORMAT_BEGIN
 90
        0
 91
        1
 62
     0
 92
       -2
340
0
 93
        0
 40
0.045
309
GRIDFORMAT_END
 95
        8
302
GRIDFORMAT
  1
GRIDFORMAT_BEGIN
 90
        0
 91
        1
 62
     0
 92
       -2
340
0
 93
        0
 40
0.045
309
GRIDFORMAT_END
 95
       16
302
GRIDFORMAT
  1
GRIDFORMAT_BEGIN
 90
        0
 91
        1
 62
     0
 92
       -2
340
0
 93
        0
 40
0.045
309
GRIDFORMAT_END
 95
       32
302
GRIDFORMAT
  1
GRIDFORMAT_BEGIN
 90
        0
 91
        1
 62
     0
 92
       -2
340
0
 93
        0
 40
0.045
309
GRIDFORMAT_END
309
TABLEFORMAT_END
  1
CELLSTYLE_BEGIN
 90
        3
 91
        2
300
_DATA
309
CELLSTYLE_END
  0
XRECORD
  5
3A22
102
{ACAD_REACTORS
330
3A16
102
}
330
3A16
100
AcDbXrecord
280
     1
102
ACAD_ROUNDTRIP_PRE2007_TABLESTYLE
 90
        4
 91
        0
  1

 92
        4
 93
        0
  2

 94
        4
 95
        0
  3

  0
XRECORD
  5
3A31
102
{ACAD_REACTORS
330
3A30
102
}
330
3A30
100
AcDbXrecord
280
     1
102
RTVSPropertyOp0
 70
     1
102
RTVSPropertyOp1
 70
     1
102
RTVSPropertyOp2
 70
     1
102
RTVSPropertyOp3
 70
     1
102
RTVSPropertyOp4
 70
     1
102
RTVSPropertyOp5
 70
     1
102
RTVSPropertyOp6
 70
     1
102
RTVSPropertyOp7
 70
     1
102
RTVSPropertyOp8
 70
     1
102
RTVSPropertyOp9
 70
     1
102
RTVSPropertyOp10
 70
     1
102
RTVSPropertyOp11
 70
     1
102
RTVSPropertyOp12
 70
     1
102
RTVSPropertyOp13
 70
     1
102
RTVSPropertyOp14
 70
     1
102
RTVSPropertyOp15
 70
     1
102
RTVSPropertyOp16
 70
     1
102
RTVSPropertyOp17
 70
     1
102
RTVSPropertyOp18
 70
     1
102
RTVSPropertyOp19
 70
     1
102
RTVSPropertyOp20
 70
     1
102
RTVSPropertyOp21
 70
     1
102
RTVSPropertyOp22
 70
     1
102
RTVSPropertyOp23
 70
     1
102
RTVSPropertyOp24
 70
     1
102
RTVSPropertyOp25
 70
     1
102
RTVSPropertyOp26
 70
     1
102
RTVSPropertyOp27
 70
     1
  0
XRECORD
  5
3A35
102
{ACAD_REACTORS
330
3A34
102
}
330
3A34
100
AcDbXrecord
280
     1
102
RTVSPropertyOp0
 70
     1
102
RTVSPropertyOp1
 70
     1
102
RTVSPropertyOp2
 70
     1
102
RTVSPropertyOp3
 70
     1
102
RTVSPropertyOp4
 70
     1
102
RTVSPropertyOp5
 70
     1
102
RTVSPropertyOp6
 70
     1
102
RTVSPropertyOp7
 70
     1
102
RTVSPropertyOp8
 70
     1
102
RTVSPropertyOp9
 70
     1
102
RTVSPropertyOp10
 70
     1
102
RTVSPropertyOp11
 70
     1
102
RTVSPropertyOp12
 70
     1
102
RTVSPropertyOp13
 70
     1
102
RTVSPropertyOp14
 70
     1
102
RTVSPropertyOp15
 70
     1
102
RTVSPropertyOp16
 70
     1
102
RTVSPropertyOp17
 70
     1
102
RTVSPropertyOp18
 70
     1
102
RTVSPropertyOp19
 70
     1
102
RTVSPropertyOp20
 70
     1
102
RTVSPropertyOp21
 70
     1
102
RTVSPropertyOp22
 70
     1
102
RTVSPropertyOp23
 70
     1
102
RTVSPropertyOp24
 70
     1
102
RTVSPropertyOp25
 70
     1
102
RTVSPropertyOp26
 70
     1
102
RTVSPropertyOp27
 70
     1
  0
XRECORD
  5
3A33
102
{ACAD_REACTORS
330
3A32
102
}
330
3A32
100
AcDbXrecord
280
     1
102
RTVSPropertyOp0
 70
     1
102
RTVSPropertyOp1
 70
     1
102
RTVSPropertyOp2
 70
     1
102
RTVSPropertyOp3
 70
     1
102
RTVSPropertyOp4
 70
     1
102
RTVSPropertyOp5
 70
     1
102
RTVSPropertyOp6
 70
     1
102
RTVSPropertyOp7
 70
     1
102
RTVSPropertyOp8
 70
     1
102
RTVSPropertyOp9
 70
     1
102
RTVSPropertyOp10
 70
     1
102
RTVSPropertyOp11
 70
     1
102
RTVSPropertyOp12
 70
     1
102
RTVSPropertyOp13
 70
     1
102
RTVSPropertyOp14
 70
     1
102
RTVSPropertyOp15
 70
     1
102
RTVSPropertyOp16
 70
     1
102
RTVSPropertyOp17
 70
     1
102
RTVSPropertyOp18
 70
     1
102
RTVSPropertyOp19
 70
     1
102
RTVSPropertyOp20
 70
     1
102
RTVSPropertyOp21
 70
     1
102
RTVSPropertyOp22
 70
     1
102
RTVSPropertyOp23
 70
     1
102
RTVSPropertyOp24
 70
     1
102
RTVSPropertyOp25
 70
     1
102
RTVSPropertyOp26
 70
     1
102
RTVSPropertyOp27
 70
     1
  0
XRECORD
  5
3A2F
102
{ACAD_REACTORS
330
3A2E
102
}
330
3A2E
100
AcDbXrecord
280
     1
102
RTVSPropertyOp0
 70
     1
102
RTVSPropertyOp1
 70
     1
102
RTVSPropertyOp2
 70
     1
102
RTVSPropertyOp3
 70
     1
102
RTVSPropertyOp4
 70
     1
102
RTVSPropertyOp5
 70
     1
102
RTVSPropertyOp6
 70
     1
102
RTVSPropertyOp7
 70
     1
102
RTVSPropertyOp8
 70
     1
102
RTVSPropertyOp9
 70
     1
102
RTVSPropertyOp10
 70
     1
102
RTVSPropertyOp11
 70
     1
102
RTVSPropertyOp12
 70
     1
102
RTVSPropertyOp13
 70
     1
102
RTVSPropertyOp14
 70
     1
102
RTVSPropertyOp15
 70
     1
102
RTVSPropertyOp16
 70
     1
102
RTVSPropertyOp17
 70
     1
102
RTVSPropertyOp18
 70
     1
102
RTVSPropertyOp19
 70
     1
102
RTVSPropertyOp20
 70
     1
102
RTVSPropertyOp21
 70
     1
102
RTVSPropertyOp22
 70
     1
102
RTVSPropertyOp23
 70
     1
102
RTVSPropertyOp24
 70
     1
102
RTVSPropertyOp25
 70
     1
102
RTVSPropertyOp26
 70
     1
102
RTVSPropertyOp27
 70
     1
  0
XRECORD
  5
3A3D
102
{ACAD_REACTORS
330
3A3C
102
}
330
3A3C
100
AcDbXrecord
280
     1
102
RTVSPropertyOp0
 70
     1
102
RTVSPropertyOp1
 70
     1
102
RTVSPropertyOp2
 70
     1
102
RTVSPropertyOp3
 70
     1
102
RTVSPropertyOp4
 70
     1
102
RTVSPropertyOp5
 70
     1
102
RTVSPropertyOp6
 70
     1
102
RTVSPropertyOp7
 70
     1
102
RTVSPropertyOp8
 70
     1
102
RTVSPropertyOp9
 70
     1
102
RTVSPropertyOp10
 70
     1
102
RTVSPropertyOp11
 70
     1
102
RTVSPropertyOp12
 70
     1
102
RTVSPropertyOp13
 70
     1
102
RTVSPropertyOp14
 70
     1
102
RTVSPropertyOp15
 70
     1
102
RTVSPropertyOp16
 70
     1
102
RTVSPropertyOp17
 70
     1
102
RTVSPropertyOp18
 70
     1
102
RTVSPropertyOp19
 70
     1
102
RTVSPropertyOp20
 70
     1
102
RTVSPropertyOp21
 70
     1
102
RTVSPropertyOp22
 70
     1
102
RTVSPropertyOp23
 70
     1
102
RTVSPropertyOp24
 70
     1
102
RTVSPropertyOp25
 70
     1
102
RTVSPropertyOp26
 70
     1
102
RTVSPropertyOp27
 70
     1
  0
XRECORD
  5
3A45
102
{ACAD_REACTORS
330
3A44
102
}
330
3A44
100
AcDbXrecord
280
     1
102
RTVSPropertyOp0
 70
     1
102
RTVSPropertyOp1
 70
     1
102
RTVSPropertyOp2
 70
     1
102
RTVSPropertyOp3
 70
     1
102
RTVSPropertyOp4
 70
     1
102
RTVSPropertyOp5
 70
     1
102
RTVSPropertyOp6
 70
     1
102
RTVSPropertyOp7
 70
     1
102
RTVSPropertyOp8
 70
     1
102
RTVSPropertyOp9
 70
     1
102
RTVSPropertyOp10
 70
     1
102
RTVSPropertyOp11
 70
     1
102
RTVSPropertyOp12
 70
     1
102
RTVSPropertyOp13
 70
     1
102
RTVSPropertyOp14
 70
     1
102
RTVSPropertyOp15
 70
     1
102
RTVSPropertyOp16
 70
     1
102
RTVSPropertyOp17
 70
     1
102
RTVSPropertyOp18
 70
     1
102
RTVSPropertyOp19
 70
     1
102
RTVSPropertyOp20
 70
     1
102
RTVSPropertyOp21
 70
     1
102
RTVSPropertyOp22
 70
     1
102
RTVSPropertyOp23
 70
     1
102
RTVSPropertyOp24
 70
     1
102
RTVSPropertyOp25
 70
     1
102
RTVSPropertyOp26
 70
     1
102
RTVSPropertyOp27
 70
     1
  0
XRECORD
  5
3A37
102
{ACAD_REACTORS
330
3A36
102
}
330
3A36
100
AcDbXrecord
280
     1
102
RTVSPropertyOp0
 70
     1
102
RTVSPropertyOp1
 70
     1
102
RTVSPropertyOp2
 70
     1
102
RTVSPropertyOp3
 70
     1
102
RTVSPropertyOp4
 70
     1
102
RTVSPropertyOp5
 70
     1
102
RTVSPropertyOp6
 70
     1
102
RTVSPropertyOp7
 70
     1
102
RTVSPropertyOp8
 70
     1
102
RTVSPropertyOp9
 70
     1
102
RTVSPropertyOp10
 70
     1
102
RTVSPropertyOp11
 70
     1
102
RTVSPropertyOp12
 70
     1
102
RTVSPropertyOp13
 70
     1
102
RTVSPropertyOp14
 70
     1
102
RTVSPropertyOp15
 70
     1
102
RTVSPropertyOp16
 70
     1
102
RTVSPropertyOp17
 70
     1
102
RTVSPropertyOp18
 70
     1
102
RTVSPropertyOp19
 70
     1
102
RTVSPropertyOp20
 70
     1
102
RTVSPropertyOp21
 70
     1
102
RTVSPropertyOp22
 70
     1
102
RTVSPropertyOp23
 70
     1
102
RTVSPropertyOp24
 70
     1
102
RTVSPropertyOp25
 70
     1
102
RTVSPropertyOp26
 70
     1
102
RTVSPropertyOp27
 70
     1
  0
XRECORD
  5
3A3B
102
{ACAD_REACTORS
330
3A3A
102
}
330
3A3A
100
AcDbXrecord
280
     1
102
RTVSPropertyOp0
 70
     1
102
RTVSPropertyOp1
 70
     1
102
RTVSPropertyOp2
 70
     1
102
RTVSPropertyOp3
 70
     1
102
RTVSPropertyOp4
 70
     1
102
RTVSPropertyOp5
 70
     1
102
RTVSPropertyOp6
 70
     1
102
RTVSPropertyOp7
 70
     1
102
RTVSPropertyOp8
 70
     1
102
RTVSPropertyOp9
 70
     1
102
RTVSPropertyOp10
 70
     1
102
RTVSPropertyOp11
 70
     1
102
RTVSPropertyOp12
 70
     1
102
RTVSPropertyOp13
 70
     1
102
RTVSPropertyOp14
 70
     1
102
RTVSPropertyOp15
 70
     1
102
RTVSPropertyOp16
 70
     1
102
RTVSPropertyOp17
 70
     1
102
RTVSPropertyOp18
 70
     1
102
RTVSPropertyOp19
 70
     1
102
RTVSPropertyOp20
 70
     1
102
RTVSPropertyOp21
 70
     1
102
RTVSPropertyOp22
 70
     1
102
RTVSPropertyOp23
 70
     1
102
RTVSPropertyOp24
 70
     1
102
RTVSPropertyOp25
 70
     1
102
RTVSPropertyOp26
 70
     1
102
RTVSPropertyOp27
 70
     1
  0
XRECORD
  5
3A4B
102
{ACAD_REACTORS
330
3A4A
102
}
330
3A4A
100
AcDbXrecord
280
     1
102
RTVSPropertyOp0
 70
     0
102
RTVSPropertyOp1
 70
     0
102
RTVSPropertyOp2
 70
     0
102
RTVSPropertyOp3
 70
     0
102
RTVSPropertyOp4
 70
     0
102
RTVSPropertyOp5
 70
     0
102
RTVSPropertyOp6
 70
     0
102
RTVSPropertyOp7
 70
     0
102
RTVSPropertyOp8
 70
     0
102
RTVSPropertyOp9
 70
     0
102
RTVSPropertyOp10
 70
     0
102
RTVSPropertyOp11
 70
     0
102
RTVSPropertyOp12
 70
     0
102
RTVSPropertyOp13
 70
     0
102
RTVSPropertyOp14
 70
     2
102
RTVSPropertyOp15
 70
     0
102
RTVSPropertyOp16
 70
     0
102
RTVSPropertyOp17
 70
     0
102
RTVSPropertyOp18
 70
     0
102
RTVSPropertyOp19
 70
     0
102
RTVSPropertyOp20
 70
     0
102
RTVSPropertyOp21
 70
     0
102
RTVSPropertyOp22
 70
     0
102
RTVSPropertyOp23
 70
     0
102
RTVSPropertyOp24
 70
     0
102
RTVSPropertyOp25
 70
     0
102
RTVSPropertyOp26
 70
     0
102
RTVSPropertyOp27
 70
     0
  0
XRECORD
  5
3A43
102
{ACAD_REACTORS
330
3A42
102
}
330
3A42
100
AcDbXrecord
280
     1
102
RTVSPropertyOp0
 70
     1
102
RTVSPropertyOp1
 70
     1
102
RTVSPropertyOp2
 70
     1
102
RTVSPropertyOp3
 70
     1
102
RTVSPropertyOp4
 70
     1
102
RTVSPropertyOp5
 70
     1
102
RTVSPropertyOp6
 70
     1
102
RTVSPropertyOp7
 70
     1
102
RTVSPropertyOp8
 70
     1
102
RTVSPropertyOp9
 70
     1
102
RTVSPropertyOp10
 70
     1
102
RTVSPropertyOp11
 70
     1
102
RTVSPropertyOp12
 70
     1
102
RTVSPropertyOp13
 70
     1
102
RTVSPropertyOp14
 70
     1
102
RTVSPropertyOp15
 70
     1
102
RTVSPropertyOp16
 70
     1
102
RTVSPropertyOp17
 70
     1
102
RTVSPropertyOp18
 70
     1
102
RTVSPropertyOp19
 70
     1
102
RTVSPropertyOp20
 70
     1
102
RTVSPropertyOp21
 70
     1
102
RTVSPropertyOp22
 70
     1
102
RTVSPropertyOp23
 70
     1
102
RTVSPropertyOp24
 70
     1
102
RTVSPropertyOp25
 70
     1
102
RTVSPropertyOp26
 70
     1
102
RTVSPropertyOp27
 70
     1
  0
XRECORD
  5
3A27
102
{ACAD_REACTORS
330
3A26
102
}
330
3A26
100
AcDbXrecord
280
     1
102
RTVSPropertyOp0
 70
     1
102
RTVSPropertyOp1
 70
     1
102
RTVSPropertyOp2
 70
     1
102
RTVSPropertyOp3
 70
     1
102
RTVSPropertyOp4
 70
     1
102
RTVSPropertyOp5
 70
     1
102
RTVSPropertyOp6
 70
     1
102
RTVSPropertyOp7
 70
     1
102
RTVSPropertyOp8
 70
     1
102
RTVSPropertyOp9
 70
     1
102
RTVSPropertyOp10
 70
     1
102
RTVSPropertyOp11
 70
     1
102
RTVSPropertyOp12
 70
     1
102
RTVSPropertyOp13
 70
     1
102
RTVSPropertyOp14
 70
     1
102
RTVSPropertyOp15
 70
     1
102
RTVSPropertyOp16
 70
     1
102
RTVSPropertyOp17
 70
     1
102
RTVSPropertyOp18
 70
     1
102
RTVSPropertyOp19
 70
     1
102
RTVSPropertyOp20
 70
     1
102
RTVSPropertyOp21
 70
     1
102
RTVSPropertyOp22
 70
     1
102
RTVSPropertyOp23
 70
     1
102
RTVSPropertyOp24
 70
     1
102
RTVSPropertyOp25
 70
     1
102
RTVSPropertyOp26
 70
     1
102
RTVSPropertyOp27
 70
     1
  0
XRECORD
  5
3A29
102
{ACAD_REACTORS
330
3A28
102
}
330
3A28
100
AcDbXrecord
280
     1
102
RTVSPropertyOp0
 70
     1
102
RTVSPropertyOp1
 70
     1
102
RTVSPropertyOp2
 70
     1
102
RTVSPropertyOp3
 70
     1
102
RTVSPropertyOp4
 70
     1
102
RTVSPropertyOp5
 70
     1
102
RTVSPropertyOp6
 70
     1
102
RTVSPropertyOp7
 70
     1
102
RTVSPropertyOp8
 70
     1
102
RTVSPropertyOp9
 70
     1
102
RTVSPropertyOp10
 70
     1
102
RTVSPropertyOp11
 70
     1
102
RTVSPropertyOp12
 70
     1
102
RTVSPropertyOp13
 70
     1
102
RTVSPropertyOp14
 70
     1
102
RTVSPropertyOp15
 70
     1
102
RTVSPropertyOp16
 70
     1
102
RTVSPropertyOp17
 70
     1
102
RTVSPropertyOp18
 70
     1
102
RTVSPropertyOp19
 70
     1
102
RTVSPropertyOp20
 70
     1
102
RTVSPropertyOp21
 70
     1
102
RTVSPropertyOp22
 70
     1
102
RTVSPropertyOp23
 70
     1
102
RTVSPropertyOp24
 70
     1
102
RTVSPropertyOp25
 70
     1
102
RTVSPropertyOp26
 70
     1
102
RTVSPropertyOp27
 70
     1
  0
XRECORD
  5
3A2B
102
{ACAD_REACTORS
330
3A2A
102
}
330
3A2A
100
AcDbXrecord
280
     1
102
RTVSPropertyOp0
 70
     1
102
RTVSPropertyOp1
 70
     1
102
RTVSPropertyOp2
 70
     1
102
RTVSPropertyOp3
 70
     1
102
RTVSPropertyOp4
 70
     1
102
RTVSPropertyOp5
 70
     1
102
RTVSPropertyOp6
 70
     1
102
RTVSPropertyOp7
 70
     1
102
RTVSPropertyOp8
 70
     1
102
RTVSPropertyOp9
 70
     1
102
RTVSPropertyOp10
 70
     1
102
RTVSPropertyOp11
 70
     1
102
RTVSPropertyOp12
 70
     1
102
RTVSPropertyOp13
 70
     1
102
RTVSPropertyOp14
 70
     1
102
RTVSPropertyOp15
 70
     1
102
RTVSPropertyOp16
 70
     1
102
RTVSPropertyOp17
 70
     1
102
RTVSPropertyOp18
 70
     1
102
RTVSPropertyOp19
 70
     1
102
RTVSPropertyOp20
 70
     1
102
RTVSPropertyOp21
 70
     1
102
RTVSPropertyOp22
 70
     1
102
RTVSPropertyOp23
 70
     1
102
RTVSPropertyOp24
 70
     1
102
RTVSPropertyOp25
 70
     1
102
RTVSPropertyOp26
 70
     1
102
RTVSPropertyOp27
 70
     1
  0
XRECORD
  5
3A2D
102
{ACAD_REACTORS
330
3A2C
102
}
330
3A2C
100
AcDbXrecord
280
     1
102
RTVSPropertyOp0
 70
     1
102
RTVSPropertyOp1
 70
     1
102
RTVSPropertyOp2
 70
     1
102
RTVSPropertyOp3
 70
     1
102
RTVSPropertyOp4
 70
     1
102
RTVSPropertyOp5
 70
     1
102
RTVSPropertyOp6
 70
     1
102
RTVSPropertyOp7
 70
     1
102
RTVSPropertyOp8
 70
     1
102
RTVSPropertyOp9
 70
     1
102
RTVSPropertyOp10
 70
     1
102
RTVSPropertyOp11
 70
     1
102
RTVSPropertyOp12
 70
     1
102
RTVSPropertyOp13
 70
     1
102
RTVSPropertyOp14
 70
     1
102
RTVSPropertyOp15
 70
     1
102
RTVSPropertyOp16
 70
     1
102
RTVSPropertyOp17
 70
     1
102
RTVSPropertyOp18
 70
     1
102
RTVSPropertyOp19
 70
     1
102
RTVSPropertyOp20
 70
     1
102
RTVSPropertyOp21
 70
     1
102
RTVSPropertyOp22
 70
     1
102
RTVSPropertyOp23
 70
     1
102
RTVSPropertyOp24
 70
     1
102
RTVSPropertyOp25
 70
     1
102
RTVSPropertyOp26
 70
     1
102
RTVSPropertyOp27
 70
     1
  0
XRECORD
  5
3A47
102
{ACAD_REACTORS
330
3A46
102
}
330
3A46
100
AcDbXrecord
280
     1
102
RTVSPropertyOp0
 70
     0
102
RTVSPropertyOp1
 70
     0
102
RTVSPropertyOp2
 70
     0
102
RTVSPropertyOp3
 70
     0
102
RTVSPropertyOp4
 70
     0
102
RTVSPropertyOp5
 70
     0
102
RTVSPropertyOp6
 70
     0
102
RTVSPropertyOp7
 70
     0
102
RTVSPropertyOp8
 70
     0
102
RTVSPropertyOp9
 70
     0
102
RTVSPropertyOp10
 70
     0
102
RTVSPropertyOp11
 70
     0
102
RTVSPropertyOp12
 70
     0
102
RTVSPropertyOp13
 70
     0
102
RTVSPropertyOp14
 70
     2
102
RTVSPropertyOp15
 70
     0
102
RTVSPropertyOp16
 70
     0
102
RTVSPropertyOp17
 70
     0
102
RTVSPropertyOp18
 70
     0
102
RTVSPropertyOp19
 70
     0
102
RTVSPropertyOp20
 70
     0
102
RTVSPropertyOp21
 70
     0
102
RTVSPropertyOp22
 70
     0
102
RTVSPropertyOp23
 70
     0
102
RTVSPropertyOp24
 70
     0
102
RTVSPropertyOp25
 70
     0
102
RTVSPropertyOp26
 70
     0
102
RTVSPropertyOp27
 70
     0
  0
XRECORD
  5
3A41
102
{ACAD_REACTORS
330
3A40
102
}
330
3A40
100
AcDbXrecord
280
     1
102
RTVSPropertyOp0
 70
     1
102
RTVSPropertyOp1
 70
     1
102
RTVSPropertyOp2
 70
     1
102
RTVSPropertyOp3
 70
     1
102
RTVSPropertyOp4
 70
     1
102
RTVSPropertyOp5
 70
     1
102
RTVSPropertyOp6
 70
     1
102
RTVSPropertyOp7
 70
     1
102
RTVSPropertyOp8
 70
     1
102
RTVSPropertyOp9
 70
     1
102
RTVSPropertyOp10
 70
     1
102
RTVSPropertyOp11
 70
     1
102
RTVSPropertyOp12
 70
     1
102
RTVSPropertyOp13
 70
     1
102
RTVSPropertyOp14
 70
     1
102
RTVSPropertyOp15
 70
     1
102
RTVSPropertyOp16
 70
     1
102
RTVSPropertyOp17
 70
     1
102
RTVSPropertyOp18
 70
     1
102
RTVSPropertyOp19
 70
     1
102
RTVSPropertyOp20
 70
     1
102
RTVSPropertyOp21
 70
     1
102
RTVSPropertyOp22
 70
     1
102
RTVSPropertyOp23
 70
     1
102
RTVSPropertyOp24
 70
     1
102
RTVSPropertyOp25
 70
     1
102
RTVSPropertyOp26
 70
     1
102
RTVSPropertyOp27
 70
     1
  0
XRECORD
  5
3A49
102
{ACAD_REACTORS
330
3A48
102
}
330
3A48
100
AcDbXrecord
280
     1
102
RTVSPropertyOp0
 70
     0
102
RTVSPropertyOp1
 70
     0
102
RTVSPropertyOp2
 70
     0
102
RTVSPropertyOp3
 70
     0
102
RTVSPropertyOp4
 70
     0
102
RTVSPropertyOp5
 70
     0
102
RTVSPropertyOp6
 70
     0
102
RTVSPropertyOp7
 70
     0
102
RTVSPropertyOp8
 70
     0
102
RTVSPropertyOp9
 70
     0
102
RTVSPropertyOp10
 70
     0
102
RTVSPropertyOp11
 70
     0
102
RTVSPropertyOp12
 70
     0
102
RTVSPropertyOp13
 70
     0
102
RTVSPropertyOp14
 70
     2
102
RTVSPropertyOp15
 70
     0
102
RTVSPropertyOp16
 70
     0
102
RTVSPropertyOp17
 70
     0
102
RTVSPropertyOp18
 70
     0
102
RTVSPropertyOp19
 70
     0
102
RTVSPropertyOp20
 70
     0
102
RTVSPropertyOp21
 70
     0
102
RTVSPropertyOp22
 70
     0
102
RTVSPropertyOp23
 70
     0
102
RTVSPropertyOp24
 70
     0
102
RTVSPropertyOp25
 70
     0
102
RTVSPropertyOp26
 70
     0
102
RTVSPropertyOp27
 70
     0
  0
XRECORD
  5
3A39
102
{ACAD_REACTORS
330
3A38
102
}
330
3A38
100
AcDbXrecord
280
     1
102
RTVSPropertyOp0
 70
     1
102
RTVSPropertyOp1
 70
     1
102
RTVSPropertyOp2
 70
     1
102
RTVSPropertyOp3
 70
     1
102
RTVSPropertyOp4
 70
     1
102
RTVSPropertyOp5
 70
     1
102
RTVSPropertyOp6
 70
     1
102
RTVSPropertyOp7
 70
     1
102
RTVSPropertyOp8
 70
     1
102
RTVSPropertyOp9
 70
     1
102
RTVSPropertyOp10
 70
     1
102
RTVSPropertyOp11
 70
     1
102
RTVSPropertyOp12
 70
     1
102
RTVSPropertyOp13
 70
     1
102
RTVSPropertyOp14
 70
     1
102
RTVSPropertyOp15
 70
     1
102
RTVSPropertyOp16
 70
     1
102
RTVSPropertyOp17
 70
     1
102
RTVSPropertyOp18
 70
     1
102
RTVSPropertyOp19
 70
     1
102
RTVSPropertyOp20
 70
     1
102
RTVSPropertyOp21
 70
     1
102
RTVSPropertyOp22
 70
     1
102
RTVSPropertyOp23
 70
     1
102
RTVSPropertyOp24
 70
     1
102
RTVSPropertyOp25
 70
     1
102
RTVSPropertyOp26
 70
     1
102
RTVSPropertyOp27
 70
     1
  0
XRECORD
  5
3A3F
102
{ACAD_REACTORS
330
3A3E
102
}
330
3A3E
100
AcDbXrecord
280
     1
102
RTVSPropertyOp0
 70
     1
102
RTVSPropertyOp1
 70
     1
102
RTVSPropertyOp2
 70
     1
102
RTVSPropertyOp3
 70
     1
102
RTVSPropertyOp4
 70
     1
102
RTVSPropertyOp5
 70
     1
102
RTVSPropertyOp6
 70
     1
102
RTVSPropertyOp7
 70
     1
102
RTVSPropertyOp8
 70
     1
102
RTVSPropertyOp9
 70
     1
102
RTVSPropertyOp10
 70
     1
102
RTVSPropertyOp11
 70
     1
102
RTVSPropertyOp12
 70
     1
102
RTVSPropertyOp13
 70
     1
102
RTVSPropertyOp14
 70
     1
102
RTVSPropertyOp15
 70
     1
102
RTVSPropertyOp16
 70
     1
102
RTVSPropertyOp17
 70
     1
102
RTVSPropertyOp18
 70
     1
102
RTVSPropertyOp19
 70
     1
102
RTVSPropertyOp20
 70
     1
102
RTVSPropertyOp21
 70
     1
102
RTVSPropertyOp22
 70
     1
102
RTVSPropertyOp23
 70
     1
102
RTVSPropertyOp24
 70
     1
102
RTVSPropertyOp25
 70
     1
102
RTVSPropertyOp26
 70
     1
102
RTVSPropertyOp27
 70
     1
  0
ENDSEC
  0
EOF
