  0
SECTION
  2
HEADER
  9
$ACADVER
  1
AC1015
  9
$ACADMAINTVER
 70
    20
  9
$DWGCODEPAGE
  3
ANSI_1252
  9
$INSBASE
 10
0.0
 20
0.0
 30
0.0
  9
$EXTMIN
 10
549.3107617667823
 20
2022.491716429294
 30
-0.0000000017937957
  9
$EXTMAX
 10
551.2193303350699
 20
2024.341716429294
 30
0.0000000000000005
  9
$LIMMIN
 10
0.0
 20
0.0
  9
$LIMMAX
 10
420.0
 20
297.0
  9
$ORTHOMODE
 70
     0
  9
$REGENMODE
 70
     1
  9
$FILLMODE
 70
     1
  9
$QTEXTMODE
 70
     0
  9
$MIRRTEXT
 70
     1
  9
$LTSCALE
 40
1.0
  9
$ATTMODE
 70
     1
  9
$TEXTSIZE
 40
2.5
  9
$TRACEWID
 40
1.0
  9
$TEXTSTYLE
  7
SANINDUSA
  9
$CLAYER
  8
cotas
  9
$CELTYPE
  6
ByLayer
  9
$CECOLOR
 62
   256
  9
$CELTSCALE
 40
1.0
  9
$DISPSILH
 70
     0
  9
$DIMSCALE
 40
1.0
  9
$DIMASZ
 40
2.0
  9
$DIMEXO
 40
1.0
  9
$DIMDLI
 40
1.0
  9
$DIMRND
 40
0.0
  9
$DIMDLE
 40
0.0
  9
$DIMEXE
 40
1.0
  9
$DIMTP
 40
0.0
  9
$DIMTM
 40
0.0
  9
$DIMTXT
 40
2.0
  9
$DIMCEN
 40
0.0
  9
$DIMTSZ
 40
0.0
  9
$DIMTOL
 70
     0
  9
$DIMLIM
 70
     0
  9
$DIMTIH
 70
     0
  9
$DIMTOH
 70
     0
  9
$DIMSE1
 70
     0
  9
$DIMSE2
 70
     0
  9
$DIMTAD
 70
     1
  9
$DIMZIN
 70
     8
  9
$DIMBLK
  1

  9
$DIMASO
 70
     1
  9
$DIMSHO
 70
     1
  9
$DIMPOST
  1

  9
$DIMAPOST
  1

  9
$DIMALT
 70
     0
  9
$DIMALTD
 70
     3
  9
$DIMALTF
 40
0.03937007874016
  9
$DIMLFAC
 40
1.0
  9
$DIMTOFL
 70
     1
  9
$DIMTVP
 40
0.0
  9
$DIMTIX
 70
     0
  9
$DIMSOXD
 70
     0
  9
$DIMSAH
 70
     0
  9
$DIMBLK1
  1

  9
$DIMBLK2
  1

  9
$DIMSTYLE
  2
SANINDUSA
  9
$DIMCLRD
 70
   256
  9
$DIMCLRE
 70
   256
  9
$DIMCLRT
 70
   256
  9
$DIMTFAC
 40
1.0
  9
$DIMGAP
 40
1.0
  9
$DIMJUST
 70
     0
  9
$DIMSD1
 70
     0
  9
$DIMSD2
 70
     0
  9
$DIMTOLJ
 70
     0
  9
$DIMTZIN
 70
     8
  9
$DIMALTZ
 70
     0
  9
$DIMALTTZ
 70
     0
  9
$DIMUPT
 70
     0
  9
$DIMDEC
 70
     1
  9
$DIMTDEC
 70
     1
  9
$DIMALTU
 70
     2
  9
$DIMALTTD
 70
     3
  9
$DIMTXSTY
  7
SANINDUSA
  9
$DIMAUNIT
 70
     0
  9
$DIMADEC
 70
     1
  9
$DIMALTRND
 40
0.0
  9
$DIMAZIN
 70
     0
  9
$DIMDSEP
 70
    44
  9
$DIMATFIT
 70
     3
  9
$DIMFRAC
 70
     0
  9
$DIMLDRBLK
  1

  9
$DIMLUNIT
 70
     2
  9
$DIMLWD
 70
    -1
  9
$DIMLWE
 70
    -1
  9
$DIMTMOVE
 70
     0
  9
$LUNITS
 70
     2
  9
$LUPREC
 70
     4
  9
$SKETCHINC
 40
1.0
  9
$FILLETRAD
 40
0.0
  9
$AUNITS
 70
     0
  9
$AUPREC
 70
     0
  9
$MENU
  1
.
  9
$ELEVATION
 40
0.0
  9
$PELEVATION
 40
0.0
  9
$THICKNESS
 40
0.0
  9
$LIMCHECK
 70
     0
  9
$CHAMFERA
 40
10.0
  9
$CHAMFERB
 40
10.0
  9
$CHAMFERC
 40
20.0
  9
$CHAMFERD
 40
0.0
  9
$SKPOLY
 70
     0
  9
$TDCREATE
 40
2453259.648195706
  9
$TDUCREATE
 40
2453259.606529039
  9
$TDUPDATE
 40
2455817.505738750
  9
$TDUUPDATE
 40
2455817.464072083
  9
$TDINDWG
 40
0.0090527315
  9
$TDUSRTIMER
 40
0.0090527315
  9
$USRTIMER
 70
     1
  9
$ANGBASE
 50
0.0
  9
$ANGDIR
 70
     0
  9
$PDMODE
 70
     0
  9
$PDSIZE
 40
0.0
  9
$PLINEWID
 40
0.0
  9
$SPLFRAME
 70
     0
  9
$SPLINETYPE
 70
     6
  9
$SPLINESEGS
 70
     8
  9
$HANDSEED
  5
146E
  9
$SURFTAB1
 70
     6
  9
$SURFTAB2
 70
     6
  9
$SURFTYPE
 70
     6
  9
$SURFU
 70
     6
  9
$SURFV
 70
     6
  9
$UCSBASE
  2

  9
$UCSNAME
  2

  9
$UCSORG
 10
0.0
 20
0.0
 30
0.0
  9
$UCSXDIR
 10
1.0
 20
0.0
 30
0.0
  9
$UCSYDIR
 10
0.0
 20
1.0
 30
0.0
  9
$UCSORTHOREF
  2

  9
$UCSORTHOVIEW
 70
     0
  9
$UCSORGTOP
 10
0.0
 20
0.0
 30
0.0
  9
$UCSORGBOTTOM
 10
0.0
 20
0.0
 30
0.0
  9
$UCSORGLEFT
 10
0.0
 20
0.0
 30
0.0
  9
$UCSORGRIGHT
 10
0.0
 20
0.0
 30
0.0
  9
$UCSORGFRONT
 10
0.0
 20
0.0
 30
0.0
  9
$UCSORGBACK
 10
0.0
 20
0.0
 30
0.0
  9
$PUCSBASE
  2

  9
$PUCSNAME
  2

  9
$PUCSORG
 10
0.0
 20
0.0
 30
0.0
  9
$PUCSXDIR
 10
1.0
 20
0.0
 30
0.0
  9
$PUCSYDIR
 10
0.0
 20
1.0
 30
0.0
  9
$PUCSORTHOREF
  2

  9
$PUCSORTHOVIEW
 70
     0
  9
$PUCSORGTOP
 10
0.0
 20
0.0
 30
0.0
  9
$PUCSORGBOTTOM
 10
0.0
 20
0.0
 30
0.0
  9
$PUCSORGLEFT
 10
0.0
 20
0.0
 30
0.0
  9
$PUCSORGRIGHT
 10
0.0
 20
0.0
 30
0.0
  9
$PUCSORGFRONT
 10
0.0
 20
0.0
 30
0.0
  9
$PUCSORGBACK
 10
0.0
 20
0.0
 30
0.0
  9
$USERI1
 70
     0
  9
$USERI2
 70
     0
  9
$USERI3
 70
     0
  9
$USERI4
 70
     0
  9
$USERI5
 70
     0
  9
$USERR1
 40
0.0
  9
$USERR2
 40
0.0
  9
$USERR3
 40
0.0
  9
$USERR4
 40
0.0
  9
$USERR5
 40
0.0
  9
$WORLDVIEW
 70
     1
  9
$SHADEDGE
 70
     3
  9
$SHADEDIF
 70
    70
  9
$TILEMODE
 70
     1
  9
$MAXACTVP
 70
    64
  9
$PINSBASE
 10
0.0
 20
0.0
 30
0.0
  9
$PLIMCHECK
 70
     0
  9
$PEXTMIN
 10
1.000000000000000E+20
 20
1.000000000000000E+20
 30
1.000000000000000E+20
  9
$PEXTMAX
 10
-1.000000000000000E+20
 20
-1.000000000000000E+20
 30
-1.000000000000000E+20
  9
$PLIMMIN
 10
0.0
 20
0.0
  9
$PLIMMAX
 10
420.0
 20
297.0
  9
$UNITMODE
 70
     0
  9
$VISRETAIN
 70
     1
  9
$PLINEGEN
 70
     0
  9
$PSLTSCALE
 70
     1
  9
$TREEDEPTH
 70
  3020
  9
$CMLSTYLE
  2
Standard
  9
$CMLJUST
 70
     0
  9
$CMLSCALE
 40
20.0
  9
$PROXYGRAPHICS
 70
     1
  9
$MEASUREMENT
 70
     1
  9
$CELWEIGHT
370
    -1
  9
$ENDCAPS
280
     0
  9
$JOINSTYLE
280
     0
  9
$LWDISPLAY
290
     0
  9
$INSUNITS
 70
     4
  9
$HYPERLINKBASE
  1

  9
$STYLESHEET
  1
monochrome.ctb
  9
$XEDIT
290
     1
  9
$CEPSNTYPE
380
     0
  9
$PSTYLEMODE
290
     1
  9
$FINGERPRINTGUID
  2
{B98A73AA-52AA-4C10-B469-C0E7150AC31F}
  9
$VERSIONGUID
  2
{6096B152-BA99-431D-A210-C795355871A3}
  9
$EXTNAMES
290
     1
  9
$PSVPSCALE
 40
0.0
  9
$OLESTARTUP
290
     0
  0
ENDSEC
  0
SECTION
  2
CLASSES
  0
CLASS
  1
ACDBDICTIONARYWDFLT
  2
AcDbDictionaryWithDefault
  3
ObjectDBX Classes
 90
        0
280
     0
281
     0
  0
CLASS
  1
ACDBPLACEHOLDER
  2
AcDbPlaceHolder
  3
ObjectDBX Classes
 90
        0
280
     0
281
     0
  0
CLASS
  1
LAYOUT
  2
AcDbLayout
  3
ObjectDBX Classes
 90
        0
280
     0
281
     0
  0
CLASS
  1
DICTIONARYVAR
  2
AcDbDictionaryVar
  3
ObjectDBX Classes
 90
        0
280
     0
281
     0
  0
CLASS
  1
DIMASSOC
  2
AcDbDimAssoc
  3
"AcDbDimAssoc|Product Desc:     AcDim ARX App For Dimension|Company:          Autodesk, Inc.|WEB Address:      www.autodesk.com"
 90
        0
280
     0
281
     0
  0
CLASS
  1
MATERIAL
  2
AcDbMaterial
  3
ObjectDBX Classes
 90
     1153
280
     0
281
     0
  0
CLASS
  1
VISUALSTYLE
  2
AcDbVisualStyle
  3
ObjectDBX Classes
 90
     4095
280
     0
281
     0
  0
CLASS
  1
TABLESTYLE
  2
AcDbTableStyle
  3
ObjectDBX Classes
 90
     4095
280
     0
281
     0
  0
CLASS
  1
SCALE
  2
AcDbScale
  3
ObjectDBX Classes
 90
     1153
280
     0
281
     0
  0
CLASS
  1
MLEADERSTYLE
  2
AcDbMLeaderStyle
  3
ACDB_MLEADERSTYLE_CLASS
 90
     4095
280
     0
281
     0
  0
CLASS
  1
CELLSTYLEMAP
  2
AcDbCellStyleMap
  3
ObjectDBX Classes
 90
     1152
280
     0
281
     0
  0
ENDSEC
  0
SECTION
  2
TABLES
  0
TABLE
  2
VPORT
  5
8
330
0
100
AcDbSymbolTable
 70
     1
  0
VPORT
  5
1366
330
8
100
AcDbSymbolTableRecord
100
AcDbViewportTableRecord
  2
*Active
 70
     0
 10
0.0
 20
0.0
 11
1.0
 21
1.0
 12
550.265046050926
 22
2023.416716429294
 13
0.0
 23
0.0
 14
10.0
 24
10.0
 15
10.0
 25
10.0
 16
0.0
 26
0.0
 36
1.0
 17
0.0
 27
0.0
 37
0.0
 40
1.861562499999763
 41
1.645464025026068
 42
50.0
 43
0.0
 44
0.0
 50
0.0
 51
0.0
 71
     0
 72
   100
 73
     1
 74
     2
 75
     0
 76
     0
 77
     0
 78
     0
281
     0
 65
     1
110
0.0
120
0.0
130
0.0
111
1.0
121
0.0
131
0.0
112
0.0
122
1.0
132
0.0
 79
     0
146
0.0
  0
ENDTAB
  0
TABLE
  2
LTYPE
  5
5
330
0
100
AcDbSymbolTable
 70
     5
  0
LTYPE
  5
14
330
5
100
AcDbSymbolTableRecord
100
AcDbLinetypeTableRecord
  2
ByBlock
 70
     0
  3

 72
    65
 73
     0
 40
0.0
  0
LTYPE
  5
15
330
5
100
AcDbSymbolTableRecord
100
AcDbLinetypeTableRecord
  2
ByLayer
 70
     0
  3

 72
    65
 73
     0
 40
0.0
  0
LTYPE
  5
16
330
5
100
AcDbSymbolTableRecord
100
AcDbLinetypeTableRecord
  2
Continuous
 70
     0
  3
Solid line
 72
    65
 73
     0
 40
0.0
  0
LTYPE
  5
2D
330
5
100
AcDbSymbolTableRecord
100
AcDbLinetypeTableRecord
  2
DASHDOT
 70
     0
  3
Dash dot __ . __ . __ . __ . __ . __ . __ . __
 72
    65
 73
     4
 40
25.4
 49
12.7
 74
     0
 49
-6.349999999999999
 74
     0
 49
0.0
 74
     0
 49
-6.349999999999999
 74
     0
  0
LTYPE
  5
2E
330
5
100
AcDbSymbolTableRecord
100
AcDbLinetypeTableRecord
  2
HIDDEN
 70
     0
  3
Hidden __ __ __ __ __ __ __ __ __ __ __ __ __ _
 72
    65
 73
     2
 40
9.524999999999998
 49
6.349999999999999
 74
     0
 49
-3.174999999999999
 74
     0
  0
LTYPE
  5
C78
330
5
100
AcDbSymbolTableRecord
100
AcDbLinetypeTableRecord
  2
CENTER
 70
     0
  3
____ _ ____ _ ____ _ ____ _ ____ _ ____ _ ____ 
 72
    65
 73
     4
 40
2.0
 49
1.25
 74
     0
 49
-0.25
 74
     0
 49
0.25
 74
     0
 49
-0.25
 74
     0
  0
ENDTAB
  0
TABLE
  2
LAYER
  5
2
330
0
100
AcDbSymbolTable
 70
    17
  0
LAYER
  5
10
102
{ACAD_XDICTIONARY
360
13D2
102
}
330
2
100
AcDbSymbolTableRecord
100
AcDbLayerTableRecord
  2
0
 70
     0
 62
     7
  6
Continuous
370
    -3
390
F
  0
LAYER
  5
2F
102
{ACAD_XDICTIONARY
360
13D4
102
}
330
2
100
AcDbSymbolTableRecord
100
AcDbLayerTableRecord
  2
1
 70
     0
 62
     1
  6
Continuous
370
    -3
390
F
  0
LAYER
  5
30
102
{ACAD_XDICTIONARY
360
13D6
102
}
330
2
100
AcDbSymbolTableRecord
100
AcDbLayerTableRecord
  2
2
 70
     0
 62
     2
  6
Continuous
370
    -3
390
F
  0
LAYER
  5
31
102
{ACAD_XDICTIONARY
360
13D8
102
}
330
2
100
AcDbSymbolTableRecord
100
AcDbLayerTableRecord
  2
3
 70
     0
 62
     3
  6
Continuous
370
    -3
390
F
  0
LAYER
  5
32
102
{ACAD_XDICTIONARY
360
13DA
102
}
330
2
100
AcDbSymbolTableRecord
100
AcDbLayerTableRecord
  2
4
 70
     0
 62
     4
  6
Continuous
370
    -3
390
F
  0
LAYER
  5
33
102
{ACAD_XDICTIONARY
360
13DC
102
}
330
2
100
AcDbSymbolTableRecord
100
AcDbLayerTableRecord
  2
5
 70
     0
 62
     5
  6
Continuous
370
    -3
390
F
  0
LAYER
  5
34
102
{ACAD_XDICTIONARY
360
13DE
102
}
330
2
100
AcDbSymbolTableRecord
100
AcDbLayerTableRecord
  2
6
 70
     0
 62
     6
  6
Continuous
370
    -3
390
F
  0
LAYER
  5
35
102
{ACAD_XDICTIONARY
360
13E0
102
}
330
2
100
AcDbSymbolTableRecord
100
AcDbLayerTableRecord
  2
7
 70
     0
 62
     7
  6
Continuous
370
    -3
390
F
  0
LAYER
  5
36
102
{ACAD_XDICTIONARY
360
13E2
102
}
330
2
100
AcDbSymbolTableRecord
100
AcDbLayerTableRecord
  2
cen
 70
     0
 62
     7
  6
DASHDOT
370
    -3
390
F
  0
LAYER
  5
37
102
{ACAD_XDICTIONARY
360
13E4
102
}
330
2
100
AcDbSymbolTableRecord
100
AcDbLayerTableRecord
  2
hid
 70
     0
 62
     7
  6
HIDDEN
370
    -3
390
F
  0
LAYER
  5
5D6
102
{ACAD_XDICTIONARY
360
13E6
102
}
330
2
100
AcDbSymbolTableRecord
100
AcDbLayerTableRecord
  2
hatch
 70
     0
 62
     9
  6
Continuous
370
    -3
390
F
  0
LAYER
  5
8AF
102
{ACAD_XDICTIONARY
360
13E8
102
}
330
2
100
AcDbSymbolTableRecord
100
AcDbLayerTableRecord
  2
9
 70
     0
 62
     9
  6
Continuous
370
    -3
390
F
  0
LAYER
  5
8F8
102
{ACAD_XDICTIONARY
360
13EA
102
}
330
2
100
AcDbSymbolTableRecord
100
AcDbLayerTableRecord
  2
leg fin
 70
     0
 62
     9
  6
Continuous
370
    -3
390
F
  0
LAYER
  5
91D
102
{ACAD_XDICTIONARY
360
13EC
102
}
330
2
100
AcDbSymbolTableRecord
100
AcDbLayerTableRecord
  2
cotas
 70
     0
 62
     1
  6
Continuous
370
    -3
390
F
  0
LAYER
  5
92F
330
2
100
AcDbSymbolTableRecord
100
AcDbLayerTableRecord
  2
Defpoints
 70
     0
 62
     7
  6
Continuous
290
     0
370
    -3
390
F
  0
LAYER
  5
C79
102
{ACAD_XDICTIONARY
360
13EE
102
}
330
2
100
AcDbSymbolTableRecord
100
AcDbLayerTableRecord
  2
quote
 70
     0
 62
     7
  6
Continuous
370
    18
390
F
  0
LAYER
  5
13D1
102
{ACAD_XDICTIONARY
360
13F0
102
}
330
2
100
AcDbSymbolTableRecord
100
AcDbLayerTableRecord
  2
SANINDUSA
 70
     0
 62
     3
  6
Continuous
370
    -3
390
F
  0
ENDTAB
  0
TABLE
  2
STYLE
  5
3
330
0
100
AcDbSymbolTable
 70
     3
  0
STYLE
  5
11
330
3
100
AcDbSymbolTableRecord
100
AcDbTextStyleTableRecord
  2
Standard
 70
     0
 40
0.0
 41
1.0
 50
0.0
 71
     0
 42
2.5
  3
Avgardn.ttf
  4

1001
ACAD
1000
AvantGarde Bk BT
1071
       34
  0
STYLE
  5
2C
330
3
100
AcDbSymbolTableRecord
100
AcDbTextStyleTableRecord
  2

 70
     1
 40
0.0
 41
1.0
 50
0.0
 71
     0
 42
2.5
  3
ltypeshp.shx
  4

  0
STYLE
  5
91F
330
3
100
AcDbSymbolTableRecord
100
AcDbTextStyleTableRecord
  2
SANINDUSA
 70
     0
 40
0.0
 41
1.0
 50
0.0
 71
     0
 42
2.5
  3
verdana.TTF
  4

1001
ACAD
1000
Verdana
1071
       34
  0
ENDTAB
  0
TABLE
  2
VIEW
  5
6
330
0
100
AcDbSymbolTable
 70
     0
  0
ENDTAB
  0
TABLE
  2
UCS
  5
7
330
0
100
AcDbSymbolTable
 70
     0
  0
ENDTAB
  0
TABLE
  2
APPID
  5
9
330
0
100
AcDbSymbolTable
 70
     7
  0
APPID
  5
12
330
9
100
AcDbSymbolTableRecord
100
AcDbRegAppTableRecord
  2
ACAD
 70
     0
  0
APPID
  5
3A
330
9
100
AcDbSymbolTableRecord
100
AcDbRegAppTableRecord
  2
DCO15
 70
     0
  0
APPID
  5
C7B
330
9
100
AcDbSymbolTableRecord
100
AcDbRegAppTableRecord
  2
GENIUS_GENREC_14
 70
     0
  0
APPID
  5
C7C
330
9
100
AcDbSymbolTableRecord
100
AcDbRegAppTableRecord
  2
GENIUS_GENODEF_13
 70
     0
  0
APPID
  5
C7D
330
9
100
AcDbSymbolTableRecord
100
AcDbRegAppTableRecord
  2
GENIUS_GENOBJ-N-REC_13
 70
     0
  0
APPID
  5
13B2
330
9
100
AcDbSymbolTableRecord
100
AcDbRegAppTableRecord
  2
ACAD_EXEMPT_FROM_CAD_STANDARDS
 70
     0
  0
APPID
  5
146D
330
9
100
AcDbSymbolTableRecord
100
AcDbRegAppTableRecord
  2
ACAD_MLEADERVER
 70
     0
  0
ENDTAB
  0
TABLE
  2
DIMSTYLE
  5
A
330
0
100
AcDbSymbolTable
 70
     4
100
AcDbDimStyleTable
 71
     1
340
921
  0
DIMSTYLE
105
45
330
A
100
AcDbSymbolTableRecord
100
AcDbDimStyleTableRecord
  2
STANDARD
 70
     0
289
     0
340
11
  0
DIMSTYLE
105
921
330
A
100
AcDbSymbolTableRecord
100
AcDbDimStyleTableRecord
  2
SANINDUSA
 70
     0
 41
2.0
 42
1.0
 43
1.0
 44
1.0
 73
     0
 74
     0
 77
     1
 78
     8
140
2.0
141
0.0
143
0.03937007874016
147
1.0
171
     3
172
     1
176
   256
177
   256
178
   256
179
     1
271
     1
272
     1
274
     3
278
    44
283
     0
284
     8
340
91F
371
    -1
372
    -1
  0
DIMSTYLE
105
C7A
330
A
100
AcDbSymbolTableRecord
100
AcDbDimStyleTableRecord
  2
ISO-35
 70
     0
 41
3.5
 42
0.875
 43
5.25
 44
1.75
 45
0.5
 73
     0
 74
     0
 77
     1
 78
     8
140
3.5
141
3.5
143
0.0394
147
0.875
171
     4
172
     1
176
   256
177
   256
178
   256
271
     1
272
     1
273
     8
274
     4
340
11
371
    -1
372
    -1
  0
ENDTAB
  0
TABLE
  2
BLOCK_RECORD
  5
1
330
0
100
AcDbSymbolTable
 70
    30
  0
BLOCK_RECORD
  5
1F
330
1
100
AcDbSymbolTableRecord
100
AcDbBlockTableRecord
  2
*Model_Space
340
22
  0
BLOCK_RECORD
  5
1B
330
1
100
AcDbSymbolTableRecord
100
AcDbBlockTableRecord
  2
*Paper_Space
340
1E
  0
BLOCK_RECORD
  5
23
330
1
100
AcDbSymbolTableRecord
100
AcDbBlockTableRecord
  2
*Paper_Space0
340
26
  0
BLOCK_RECORD
  5
919
330
1
100
AcDbSymbolTableRecord
100
AcDbBlockTableRecord
  2
_DotSmall
340
0
  0
BLOCK_RECORD
  5
922
330
1
100
AcDbSymbolTableRecord
100
AcDbBlockTableRecord
  2
base para cotas
340
0
310
2800000020000000200000000100080000000000000400000000000000000000000000000000000000000000000080000080000000808000800000008000800080800000C0C0C000C0DCC000F0CAA6000020400000206000002080000020A0000020C0000020E00000400000004020000040400000406000004080000040A0
310
000040C0000040E00000600000006020000060400000606000006080000060A0000060C0000060E00000800000008020000080400000806000008080000080A0000080C0000080E00000A0000000A0200000A0400000A0600000A0800000A0A00000A0C00000A0E00000C0000000C0200000C0400000C0600000C0800000C0
310
A00000C0C00000C0E00000E0000000E0200000E0400000E0600000E0800000E0A00000E0C00000E0E00040000000400020004000400040006000400080004000A0004000C0004000E00040200000402020004020400040206000402080004020A0004020C0004020E000404000004040200040404000404060004040800040
310
40A0004040C0004040E00040600000406020004060400040606000406080004060A0004060C0004060E00040800000408020004080400040806000408080004080A0004080C0004080E00040A0000040A0200040A0400040A0600040A0800040A0A00040A0C00040A0E00040C0000040C0200040C0400040C0600040C08000
310
40C0A00040C0C00040C0E00040E0000040E0200040E0400040E0600040E0800040E0A00040E0C00040E0E00080000000800020008000400080006000800080008000A0008000C0008000E00080200000802020008020400080206000802080008020A0008020C0008020E00080400000804020008040400080406000804080
310
008040A0008040C0008040E00080600000806020008060400080606000806080008060A0008060C0008060E00080800000808020008080400080806000808080008080A0008080C0008080E00080A0000080A0200080A0400080A0600080A0800080A0A00080A0C00080A0E00080C0000080C0200080C0400080C0600080C0
310
800080C0A00080C0C00080C0E00080E0000080E0200080E0400080E0600080E0800080E0A00080E0C00080E0E000C0000000C0002000C0004000C0006000C0008000C000A000C000C000C000E000C0200000C0202000C0204000C0206000C0208000C020A000C020C000C020E000C0400000C0402000C0404000C0406000C0
310
408000C040A000C040C000C040E000C0600000C0602000C0604000C0606000C0608000C060A000C060C000C060E000C0800000C0802000C0804000C0806000C0808000C080A000C080C000C080E000C0A00000C0A02000C0A04000C0A06000C0A08000C0A0A000C0A0C000C0A0E000C0C00000C0C02000C0C04000C0C06000
310
C0C08000C0C0A000F0FBFF00A4A0A000808080000000FF0000FF000000FFFF00FF000000FF00FF00FFFF0000FFFFFF00A4A4A4A4A4A4A4A4A4A4A4A4A4A4A4A4A4A4A4A4A4A4A4A4A4A4A4A4A4A4A4A4A4A4A4A4A4A4A4A4A4A4A4A4A4A4A4A4A4A4A4A4A4A4A4A4A4A4A4A4A4A4A4A4A4A4A4A4A4A4A4A4A4A4A4A4A4A4A4
310
A4A4A4A4A4A4A4A4A4A4A4A4A4A4A4A4A4A4A4A4A4A4A4A4A4A4A4A4A4A4A4A4A4A4A4A4A4A4A4A4A4A4A4A4A4A4A4A4A4A4A4A4A4A4A4A4A4A4A4A4A4A4A4A4A4A4A4A4A4A4A4A4A4A4A4A4A4A4A4A4A4A4A4A4A4A4A4A4A4A4A4A4A4A4A4A4A4A4A4A4A4A4A4A4A4A4A4A4A4A4A4A4A4A4A4A4A4A4A4A4A4A4A4A4A4A4A4
310
A4A4A4A4A4A4A4A4A4A4A4A4A4A4A4A4A4A4A4A4A4A4A4A4A4A4A4A4A4A4A4A4A4A4A4A4A4A4A4A4A4A4A4A4A4A4A4A4A4A4A4A4A4A4A4A4A4A4A4A4A4A4A4A4A4A4A4A4A4A4A4A4A4A4A4A4A4A4A4A4A4A4A4A4A4A4A4A4A4A4A4A4A4A4A4A4A4A4A4A4A4A4A4A4A4A4A4A4A4A4A4A4A4A4A4A4A4A4A4A4A4A4A4A4A4A4A4
310
A4A4A4A4A4A4A4A4A4A4A4A4A4A4A4A4A4A4A4A4A4A4A4A4A4A4A4A4A4A4A4A4A4A4A4A4A4A4A4A4A4A4A4A4A4A4A4A4A4A4A4A4A4A4A4A4A4A4A4A4A4A4A4A4A4A4A4A4A4A4A4A4A4A4A4A4A4A4A4A4A4A4A4A4A4A4A4A4A4A4A4A4A4A4A4A4A4A4A4A4A4A4A4A4A4A4A4A4A4A4A4A4A4A4A4A4F9F9F9F9F9F9F9F9F9F9F9
310
F9F9F9F9F9F9F9F9F9F9F9F9F9F9F9F9F9F9F9A4A4F9F9F9F9F9F9F9F9F9F9F9F9F9F9F9F9F9F9F9F9F9F9F9F9F9F9F9F9F9F9A4A4F9F9F9F9F9F9F9F9F9F9F9F9F9F9F9F9F9F9F9F9F9F9F9F9F9F9F9F9F9F9A4A4F9A4A4A4A4A4A4A4A4A4A4A4A4A4A4A4A4A4A4A4A4A4A4A4A4A4A4A4A4F9A4A4A4A4A4A4A4A4A4A4A4A4
310
A4A4A4A4A4A4A4A4A4A4A4A4A4A4A4A4A4A4A4A4A4A4A4A4A4A4A4A4A4A4A4A4A4A4A4A4A4A4A4A4A4A4A4A4A4A4A4A4A4A4A4A4A4A4A4A4A4A4A4A4A4A4A4A4A4A4A4A4A4A4A4A4A4A4A4A4A4A4A4A4A4A4A4A4A4A4A4A4A4A4A4A4A4A4A4A4A4A4A4A4A4A4A4A4A4A4A4A4A4A4A4A4A4A4A4A4A4A4A4A4A4A4A4A4A4A4A4
310
A4A4A4A4A4A4A4A4A4A4A4A4A4A4A4A4A4A4A4A4A4A4A4A4A4A4A4A4A4A4A4A4A4A4A4A4A4A4A4A4A4A4A4A4A4A4A4A4A4A4A4A4A4A4A4A4A4A4A4A4A4A4A4A4A4A4A4A4A4A4A4A4A4A4A4A4A4A4A4A4A4A4A4A4A4A4A4A4A4A4A4A4A4A4A4A4A4A4A4A4A4A4A4A4A4A4A4A4A4A4A4A4A4A4A4A4A4A4A4A4A4A4A4A4A4A4A4
310
A4A4A4A4A4A4A4A4A4A4A4A4A4A4A4A4A4A4A4A4A4A4A4A4A4A4A4A4A4A4A4A4A4A4A4A4A4A4A4A4A4A4A4A4A4A4A4A4A4A4A4A4A4A4A4A4A4A4A4A4A4A4A4A4A4A4A4A4A4A4A4A4A4A4A4A4A4A4A4A4A4A4A4A4A4A4A4A4A4A4A4A4A4A4A4A4A4A4A4A4A4A4A4A4A4A4A4A4A4A4A4A4A4A4A4A4A4A4A4A4A4A4A4A4A4A4A4
310
A4A4A4A4A4A4A4A4A4A4A4A4A4A4A4A4A4A4A4A4A4A4A4A4A4A4A4A4A4A4A4A4A4A4A4A4A4A4A4A4A4A4A4A4A4A4A4A4A4A4A4A4A4A4A4A4
1001
ACAD
1000
DesignCenter Data
1002
{
1070
     1
1070
     4
1002
}
  0
BLOCK_RECORD
  5
AA8
330
1
100
AcDbSymbolTableRecord
100
AcDbBlockTableRecord
  2
_CLOSED
340
0
  0
BLOCK_RECORD
  5
BA5
330
1
100
AcDbSymbolTableRecord
100
AcDbBlockTableRecord
  2
guarnizione
340
0
102
{BLKREFS
331
E4E
102
}
  0
BLOCK_RECORD
  5
EA6
330
1
100
AcDbSymbolTableRecord
100
AcDbBlockTableRecord
  2
*D16
340
0
  0
BLOCK_RECORD
  5
EB2
330
1
100
AcDbSymbolTableRecord
100
AcDbBlockTableRecord
  2
*D17
340
0
  0
BLOCK_RECORD
  5
EBE
330
1
100
AcDbSymbolTableRecord
100
AcDbBlockTableRecord
  2
*D18
340
0
  0
BLOCK_RECORD
  5
ECA
330
1
100
AcDbSymbolTableRecord
100
AcDbBlockTableRecord
  2
*D19
340
0
  0
BLOCK_RECORD
  5
ED6
330
1
100
AcDbSymbolTableRecord
100
AcDbBlockTableRecord
  2
*D20
340
0
  0
BLOCK_RECORD
  5
EE2
330
1
100
AcDbSymbolTableRecord
100
AcDbBlockTableRecord
  2
*D21
340
0
  0
BLOCK_RECORD
  5
EEE
330
1
100
AcDbSymbolTableRecord
100
AcDbBlockTableRecord
  2
*D22
340
0
  0
BLOCK_RECORD
  5
EFA
330
1
100
AcDbSymbolTableRecord
100
AcDbBlockTableRecord
  2
*D23
340
0
  0
BLOCK_RECORD
  5
F08
330
1
100
AcDbSymbolTableRecord
100
AcDbBlockTableRecord
  2
*D24
340
0
  0
BLOCK_RECORD
  5
F14
330
1
100
AcDbSymbolTableRecord
100
AcDbBlockTableRecord
  2
*D25
340
0
  0
BLOCK_RECORD
  5
F20
330
1
100
AcDbSymbolTableRecord
100
AcDbBlockTableRecord
  2
*D26
340
0
  0
BLOCK_RECORD
  5
11FB
330
1
100
AcDbSymbolTableRecord
100
AcDbBlockTableRecord
  2
*D27
340
0
  0
BLOCK_RECORD
  5
13BA
330
1
100
AcDbSymbolTableRecord
100
AcDbBlockTableRecord
  2
*D29
340
0
  0
ENDTAB
  0
ENDSEC
  0
SECTION
  2
BLOCKS
  0
BLOCK
  5
20
330
1F
100
AcDbEntity
  8
0
100
AcDbBlockBegin
  2
*Model_Space
 70
     0
 10
0.0
 20
0.0
 30
0.0
  3
*Model_Space
  1

  0
ENDBLK
  5
21
330
1F
100
AcDbEntity
  8
0
100
AcDbBlockEnd
  0
BLOCK
  5
1C
330
1B
100
AcDbEntity
 67
     1
  8
0
100
AcDbBlockBegin
  2
*Paper_Space
 70
     0
 10
0.0
 20
0.0
 30
0.0
  3
*Paper_Space
  1

  0
ENDBLK
  5
1D
330
1B
100
AcDbEntity
 67
     1
  8
0
100
AcDbBlockEnd
  0
BLOCK
  5
24
330
23
100
AcDbEntity
 67
     1
  8
0
100
AcDbBlockBegin
  2
*Paper_Space0
 70
     0
 10
0.0
 20
0.0
 30
0.0
  3
*Paper_Space0
  1

  0
ENDBLK
  5
25
330
23
100
AcDbEntity
 67
     1
  8
0
100
AcDbBlockEnd
  0
BLOCK
  5
91B
330
919
100
AcDbEntity
  8
0
100
AcDbBlockBegin
  2
_DotSmall
 70
     0
 10
0.0
 20
0.0
 30
0.0
  3
_DotSmall
  1

  0
LWPOLYLINE
  5
91A
330
919
100
AcDbEntity
  8
0
  6
ByBlock
 62
     0
100
AcDbPolyline
 90
        2
 70
     1
 43
0.5
 10
-0.0625
 20
0.0
 42
1.0
 10
0.0625
 20
0.0
 42
1.0
  0
ENDBLK
  5
91C
330
919
100
AcDbEntity
  8
0
100
AcDbBlockEnd
  0
BLOCK
  5
92A
330
922
100
AcDbEntity
  8
0
100
AcDbBlockBegin
  2
base para cotas
 70
     0
 10
0.0
 20
0.0
 30
0.0
  3
base para cotas
  1

  0
LINE
  5
B36
330
922
100
AcDbEntity
  8
cotas
100
AcDbLine
 10
0.0
 20
-30.0
 30
0.0
 11
327.1260136525398
 21
-30.0
 31
0.0
  0
LINE
  5
B37
330
922
100
AcDbEntity
  8
cotas
100
AcDbLine
 10
0.0
 20
-25.0
 30
0.0
 11
327.1260136525398
 21
-25.0
 31
0.0
  0
LINE
  5
B38
330
922
100
AcDbEntity
  8
cotas
100
AcDbLine
 10
0.0
 20
-20.0
 30
0.0
 11
327.1260136525398
 21
-20.0
 31
0.0
  0
LINE
  5
B39
330
922
100
AcDbEntity
  8
cotas
100
AcDbLine
 10
0.0
 20
-15.0
 30
0.0
 11
327.1260136525398
 21
-15.0
 31
0.0
  0
LINE
  5
B3A
330
922
100
AcDbEntity
  8
cotas
100
AcDbLine
 10
0.0
 20
-10.0
 30
0.0
 11
327.1260136525398
 21
-10.0
 31
0.0
  0
LINE
  5
B3B
330
922
100
AcDbEntity
  8
cotas
100
AcDbLine
 10
0.0
 20
0.0
 30
0.0
 11
0.0
 21
-30.0
 31
0.0
  0
LINE
  5
B3C
330
922
100
AcDbEntity
  8
cotas
100
AcDbLine
 10
327.1260136525398
 20
-30.0
 30
0.0
 11
327.1260136525398
 21
0.0
 31
0.0
  0
ENDBLK
  5
92B
330
922
100
AcDbEntity
  8
0
100
AcDbBlockEnd
  0
BLOCK
  5
AAD
330
AA8
100
AcDbEntity
  8
0
100
AcDbBlockBegin
  2
_CLOSED
 70
     0
 10
0.0
 20
0.0
 30
0.0
  3
_CLOSED
  1

  0
LINE
  5
AA9
330
AA8
100
AcDbEntity
  8
0
100
AcDbLine
 10
-1.0
 20
0.166667
 30
0.0
 11
0.0
 21
0.0
 31
0.0
  0
LINE
  5
AAA
330
AA8
100
AcDbEntity
  8
0
100
AcDbLine
 10
0.0
 20
0.0
 30
0.0
 11
-1.0
 21
-0.166667
 31
0.0
  0
LINE
  5
AAB
330
AA8
100
AcDbEntity
  8
0
100
AcDbLine
 10
-1.0
 20
0.166667
 30
0.0
 11
-1.0
 21
-0.166667
 31
0.0
  0
LINE
  5
AAC
330
AA8
100
AcDbEntity
  8
0
100
AcDbLine
 10
0.0
 20
0.0
 30
0.0
 11
-1.0
 21
0.0
 31
0.0
  0
ENDBLK
  5
AAE
330
AA8
100
AcDbEntity
  8
0
100
AcDbBlockEnd
  0
BLOCK
  5
BF0
330
BA5
100
AcDbEntity
  8
0
 62
     4
100
AcDbBlockBegin
  2
guarnizione
 70
     0
 10
0.0
 20
0.0
 30
0.0
  3
guarnizione
  1

  0
LINE
  5
BA6
330
BA5
100
AcDbEntity
  8
0
100
AcDbLine
 10
12.0
 20
3.179312414488776
 30
0.0
 11
12.0
 21
2.699999999999818
 31
0.0
  0
LINE
  5
BA7
330
BA5
100
AcDbEntity
  8
0
100
AcDbLine
 10
9.5
 20
3.130475008156281
 30
0.0
 11
9.440776269158959
 21
2.734883615801663
 31
0.0
  0
ARC
  5
BA8
330
BA5
100
AcDbEntity
  8
0
100
AcDbCircle
 10
11.19999999999891
 20
3.179312414488776
 30
0.0
 40
0.8
100
AcDbArc
 50
0.0
 51
81.48552156587461
  0
ARC
  5
BA9
330
BA5
100
AcDbEntity
  8
0
100
AcDbCircle
 10
8.753809903480942
 20
1.523241254200002
 30
0.0
 40
0.1999999999999504
100
AcDbArc
 50
171.485521565823
 51
351.485521565823
  0
LINE
  5
BAA
330
BA5
100
AcDbEntity
  8
0
100
AcDbLine
 10
11.65558220186904
 20
-2.403306455734309
 30
0.0
 11
9.440776269158959
 21
-2.734883615802573
 31
0.0
  0
ARC
  5
BAB
330
BA5
100
AcDbEntity
  8
0
100
AcDbCircle
 10
8.753809903480942
 20
-1.523241254200911
 30
0.0
 40
0.1999999999999504
100
AcDbArc
 50
8.514478434176927
 51
188.5144784341769
  0
LINE
  5
BAC
330
BA5
100
AcDbEntity
  8
0
100
AcDbLine
 10
9.5
 20
-3.130475008157191
 30
0.0
 11
9.440776269158959
 21
-2.734883615802573
 31
0.0
  0
ARC
  5
BAD
330
BA5
100
AcDbEntity
  8
0
100
AcDbCircle
 10
11.69999999999891
 20
-2.699999999999818
 30
0.0
 40
0.3
100
AcDbArc
 50
0.0
 51
98.51447843412536
  0
ARC
  5
BAE
330
BA5
100
AcDbEntity
  8
0
100
AcDbCircle
 10
11.69999999999891
 20
2.699999999999818
 30
0.0
 40
0.3
100
AcDbArc
 50
261.4855215658746
 51
0.0
  0
LINE
  5
BAF
330
BA5
100
AcDbEntity
  8
0
100
AcDbLine
 10
11.65558220186904
 20
2.4033064557334
 30
0.0
 11
9.440776269158959
 21
2.734883615801663
 31
0.0
  0
LINE
  5
BB0
330
BA5
100
AcDbEntity
  8
0
100
AcDbLine
 10
8.807715063378054
 20
3.234116537129011
 30
0.0
 11
8.556014207302723
 21
1.552853119620522
 31
0.0
  0
LINE
  5
BB1
330
BA5
100
AcDbEntity
  8
0
100
AcDbLine
 10
9.203306455732672
 20
3.174892806287971
 30
0.0
 11
8.951605599657341
 21
1.493629388779481
 31
0.0
  0
LINE
  5
BB2
330
BA5
100
AcDbEntity
  8
0
100
AcDbLine
 10
6.681411329471302
 20
3.552444090400967
 30
0.0
 11
6.622187598630262
 21
3.15685269804544
 31
0.0
  0
ARC
  5
BB3
330
BA5
100
AcDbEntity
  8
0
100
AcDbCircle
 10
0.2999999999992724
 20
3.800000000000181
 30
0.0
 40
0.3
100
AcDbArc
 50
81.48552156587461
 51
180.0
  0
ARC
  5
BB4
330
BA5
100
AcDbEntity
  8
0
100
AcDbCircle
 10
1.042400829128382
 20
4.699999999999818
 30
0.0
 40
0.8
100
AcDbArc
 50
81.48552156587461
 51
90.0
  0
LINE
  5
BB5
330
BA5
100
AcDbEntity
  8
0
100
AcDbLine
 10
1.5
 20
3.923692082123125
 30
0.0
 11
0.3444177981309622
 21
4.09669354426569
 31
0.0
  0
LINE
  5
BB6
330
BA5
100
AcDbEntity
  8
0
100
AcDbLine
 10
1.5
 20
3.923692082123125
 30
0.0
 11
1.5
 21
3.099999999999454
 31
0.0
  0
LINE
  5
BB7
330
BA5
100
AcDbEntity
  8
0
100
AcDbLine
 10
1.5
 20
3.099999999999454
 30
0.0
 11
2.699999999998908
 21
3.099999999999454
 31
0.0
  0
LINE
  5
BB8
330
BA5
100
AcDbEntity
  8
0
100
AcDbLine
 10
2.699999999998908
 20
3.744040860223321
 30
0.0
 11
2.699999999998908
 21
3.099999999999454
 31
0.0
  0
LINE
  5
BB9
330
BA5
100
AcDbEntity
  8
0
100
AcDbLine
 10
6.622187598630262
 20
3.15685269804544
 30
0.0
 11
2.699999999998908
 21
3.744040860223321
 31
0.0
  0
LINE
  5
BBA
330
BA5
100
AcDbEntity
  8
0
100
AcDbLine
 10
1.5
 20
-3.100000000000363
 30
0.0
 11
2.699999999998908
 21
-3.100000000000363
 31
0.0
  0
LINE
  5
BBB
330
BA5
100
AcDbEntity
  8
0
100
AcDbLine
 10
11.31844746168099
 20
3.970495199198012
 30
0.0
 11
1.160848290810463
 21
5.491182784709053
 31
0.0
  0
LINE
  5
BBC
330
BA5
100
AcDbEntity
  8
0
100
AcDbLine
 10
9.5
 20
3.130475008156281
 30
0.0
 11
6.681411329471302
 21
3.552444090400967
 31
0.0
  0
ARC
  5
BBD
330
BA5
100
AcDbEntity
  8
0
100
AcDbCircle
 10
11.19999999999891
 20
-3.179312414488776
 30
0.0
 40
0.8
100
AcDbArc
 50
278.5144784341254
 51
0.0
  0
LINE
  5
BBE
330
BA5
100
AcDbEntity
  8
0
100
AcDbLine
 10
6.681411329471302
 20
-3.552444090400967
 30
0.0
 11
6.622187598630262
 21
-3.15685269804635
 31
0.0
  0
ARC
  5
BBF
330
BA5
100
AcDbEntity
  8
0
100
AcDbCircle
 10
0.2999999999992724
 20
-3.800000000000181
 30
0.0
 40
0.3
100
AcDbArc
 50
180.0
 51
278.5144784341254
  0
ARC
  5
BC0
330
BA5
100
AcDbEntity
  8
0
100
AcDbCircle
 10
1.042400829128382
 20
-4.699999999999818
 30
0.0
 40
0.8
100
AcDbArc
 50
270.0
 51
278.5144784341254
  0
LINE
  5
BC1
330
BA5
100
AcDbEntity
  8
0
100
AcDbLine
 10
0.3444177981309622
 20
-4.096693544266599
 30
0.0
 11
1.5
 21
-3.923692082124034
 31
0.0
  0
LINE
  5
BC2
330
BA5
100
AcDbEntity
  8
0
100
AcDbLine
 10
6.622187598630262
 20
-3.15685269804635
 30
0.0
 11
2.699999999998908
 21
-3.744040860224231
 31
0.0
  0
LINE
  5
BC3
330
BA5
100
AcDbEntity
  8
0
100
AcDbLine
 10
1.160848290810463
 20
-5.491182784709963
 30
0.0
 11
11.31844746168099
 21
-3.970495199198921
 31
0.0
  0
LINE
  5
BC4
330
BA5
100
AcDbEntity
  8
0
100
AcDbLine
 10
0.0
 20
3.800000000000181
 30
0.0
 11
0.0
 21
-3.800000000000181
 31
0.0
  0
LINE
  5
BC5
330
BA5
100
AcDbEntity
  8
0
100
AcDbLine
 10
12.0
 20
-2.699999999999818
 30
0.0
 11
12.0
 21
-3.179312414488776
 31
0.0
  0
LINE
  5
BC6
330
BA5
100
AcDbEntity
  8
0
100
AcDbLine
 10
2.699999999998908
 20
-3.100000000000363
 30
0.0
 11
2.699999999998908
 21
-3.744040860224231
 31
0.0
  0
LINE
  5
BC7
330
BA5
100
AcDbEntity
  8
0
100
AcDbLine
 10
1.5
 20
-3.100000000000363
 30
0.0
 11
1.5
 21
-3.923692082124034
 31
0.0
  0
LINE
  5
BC8
330
BA5
100
AcDbEntity
  8
0
100
AcDbLine
 10
9.5
 20
-3.130475008157191
 30
0.0
 11
6.681411329471302
 21
-3.552444090400967
 31
0.0
  0
LINE
  5
BC9
330
BA5
100
AcDbEntity
  8
0
100
AcDbLine
 10
9.203306455732672
 20
-3.174892806287971
 30
0.0
 11
8.951605599657341
 21
-1.493629388780391
 31
0.0
  0
LINE
  5
BCA
330
BA5
100
AcDbEntity
  8
0
100
AcDbLine
 10
8.807715063378054
 20
-3.234116537129011
 30
0.0
 11
8.556014207302723
 21
-1.552853119621431
 31
0.0
  0
LINE
  5
BCB
330
BA5
100
AcDbEntity
  8
0
100
AcDbLine
 10
-1.5
 20
5.5
 30
0.0
 11
-3.757359312881817
 21
5.5
 31
0.0
  0
ARC
  5
BCC
330
BA5
100
AcDbEntity
  8
0
100
AcDbCircle
 10
-2.5
 20
3.5
 30
0.0
 40
1.0
100
AcDbArc
 50
0.0
 51
90.0
  0
ARC
  5
BCD
330
BA5
100
AcDbEntity
  8
0
100
AcDbCircle
 10
-3.769781102879278
 20
4.149978862833449
 30
0.0
 40
0.75
100
AcDbArc
 50
47.16775949949599
 51
90.19499109987526
  0
ARC
  5
BCE
330
BA5
100
AcDbEntity
  8
0
100
AcDbCircle
 10
-2.75
 20
5.25
 30
0.0
 40
0.75
100
AcDbArc
 50
227.167759499496
 51
270.0
  0
LINE
  5
BCF
330
BA5
100
AcDbEntity
  8
0
100
AcDbLine
 10
-2.75
 20
4.5
 30
0.0
 11
-2.5
 21
4.5
 31
0.0
  0
LINE
  5
BD0
330
BA5
100
AcDbEntity
  8
0
100
AcDbLine
 10
-7.415254325502246
 20
3.064644661409147
 30
0.0
 11
-6.868629150101696
 21
3.611269837220788
 31
0.0
  0
ARC
  5
BD1
102
{ACAD_REACTORS
330
BEB
102
}
330
BA5
100
AcDbEntity
  8
0
100
AcDbCircle
 10
-7.980939750059405
 20
2.569669913566031
 30
0.0
 40
0.2
100
AcDbArc
 50
45.0000001037625
 51
135.0000000719631
  0
ARC
  5
BD2
330
BA5
100
AcDbEntity
  8
0
100
AcDbCircle
 10
-3.757359312881817
 20
0.5
 30
0.0
 40
5.0
100
AcDbArc
 50
90.0
 51
135.0
  0
ARC
  5
BD3
330
BA5
100
AcDbEntity
  8
0
100
AcDbCircle
 10
-3.757359312881817
 20
0.5
 30
0.0
 40
4.4
100
AcDbArc
 50
90.19499109987526
 51
135.0
  0
ARC
  5
BD4
330
BA5
100
AcDbEntity
  8
0
100
AcDbCircle
 10
-6.814213563102384
 20
0.9786796633270569
 30
0.0
 40
0.75
100
AcDbArc
 50
314.9999999676111
 51
45.0
  0
ARC
  5
BD5
102
{ACAD_REACTORS
330
BEB
102
}
330
BA5
100
AcDbEntity
  8
0
100
AcDbCircle
 10
-6.814213563102384
 20
0.9786796633270569
 30
0.0
 40
0.5
100
AcDbArc
 50
314.9999999676111
 51
45.0
  0
ARC
  5
BD6
330
BA5
100
AcDbEntity
  8
0
100
AcDbCircle
 10
-7.203122291144609
 20
2.852512627053329
 30
0.0
 40
0.3
100
AcDbArc
 50
135.0
 51
225.0000001112794
  0
LINE
  5
BD7
330
BA5
100
AcDbEntity
  8
0
100
AcDbLine
 10
-8.051650430128574
 20
3.276776694619002
 30
0.0
 11
-6.283883477519339
 21
1.509009749524921
 31
0.0
  0
LINE
  5
BD8
102
{ACAD_REACTORS
330
BEB
102
}
330
BA5
100
AcDbEntity
  8
0
100
AcDbLine
 10
-7.839518394079277
 20
2.711091270059114
 30
0.0
 11
-6.460660172508141
 21
1.33223305392039
 31
0.0
  0
ARC
  5
BD9
330
BA5
100
AcDbEntity
  8
0
100
AcDbCircle
 10
-12.57713383280133
 20
-2.521498914058611
 30
0.0
 40
0.3
100
AcDbArc
 50
45.00000003552097
 51
135.0
  0
ARC
  5
BDA
102
{ACAD_REACTORS
330
BEB
102
}
330
BA5
100
AcDbEntity
  8
0
100
AcDbCircle
 10
-12.29429112059733
 20
-1.743681468243266
 30
0.0
 40
0.2
100
AcDbArc
 50
135.0000000660675
 51
225.0000002990173
  0
LINE
  5
BDB
330
BA5
100
AcDbEntity
  8
0
100
AcDbLine
 10
-12.9899494936617
 20
-2.510050506339212
 30
0.0
 11
-12.78926586715715
 21
-2.309366879702793
 31
0.0
  0
LINE
  5
BDC
330
BA5
100
AcDbEntity
  8
0
100
AcDbLine
 10
-13.41421356237333
 20
-2.085786437626666
 30
0.0
 11
-7.292893218815152
 21
4.035533905932425
 31
0.0
  0
LINE
  5
BDD
102
{ACAD_REACTORS
330
BEB
102
}
330
BA5
100
AcDbEntity
  8
0
100
AcDbLine
 10
-12.43571247699765
 20
-1.602260112168551
 30
0.0
 11
-8.122361106474272
 21
2.711091269625285
 31
0.0
  0
ARC
  5
BDE
330
BA5
100
AcDbEntity
  8
0
100
AcDbCircle
 10
-2.5
 20
-3.5
 30
0.0
 40
1.0
100
AcDbArc
 50
270.0
 51
0.0
  0
ARC
  5
BDF
330
BA5
100
AcDbEntity
  8
0
100
AcDbCircle
 10
-7.519803902720013
 20
-4.150000000000545
 30
0.0
 40
0.75
100
AcDbArc
 50
270.0
 51
312.8334280660476
  0
ARC
  5
BE0
330
BA5
100
AcDbEntity
  8
0
100
AcDbCircle
 10
-6.5
 20
-5.25
 30
0.0
 40
0.75
100
AcDbArc
 50
90.0
 51
132.8334280660476
  0
LINE
  5
BE1
330
BA5
100
AcDbEntity
  8
0
100
AcDbLine
 10
-2.5
 20
-4.5
 30
0.0
 11
-6.5
 21
-4.5
 31
0.0
  0
ARC
  5
BE2
330
BA5
100
AcDbEntity
  8
0
100
AcDbCircle
 10
-10.7033008647486
 20
-2.910407640086305
 30
0.0
 40
0.75
100
AcDbArc
 50
225.0
 51
315.0
  0
ARC
  5
BE3
102
{ACAD_REACTORS
330
BEB
102
}
330
BA5
100
AcDbEntity
  8
0
100
AcDbCircle
 10
-10.7033008647486
 20
-2.910407640086305
 30
0.0
 40
0.5
100
AcDbArc
 50
225.0
 51
315.0
  0
LINE
  5
BE4
330
BA5
100
AcDbEntity
  8
0
100
AcDbLine
 10
-1.5
 20
-5.5
 30
0.0
 11
-12.0
 21
-5.5
 31
0.0
  0
LINE
  5
BE5
330
BA5
100
AcDbEntity
  8
0
100
AcDbLine
 10
-7.519803902720013
 20
-4.900000000000545
 30
0.0
 11
-12.0
 21
-4.900000000000545
 31
0.0
  0
ARC
  5
BE6
330
BA5
100
AcDbEntity
  8
0
100
AcDbCircle
 10
-12.0
 20
-3.5
 30
0.0
 40
2.0
100
AcDbArc
 50
135.0
 51
270.0
  0
LINE
  5
BE7
330
BA5
100
AcDbEntity
  8
0
100
AcDbLine
 10
-10.17297077881812
 20
-3.440737725935832
 30
0.0
 11
-6.283883477372
 21
0.4483495772774404
 31
0.0
  0
ARC
  5
BE8
330
BA5
100
AcDbEntity
  8
0
100
AcDbCircle
 10
-12.0
 20
-3.5
 30
0.0
 40
1.399999999999999
100
AcDbArc
 50
135.0
 51
270.0
  0
LINE
  5
BE9
330
BA5
100
AcDbEntity
  8
0
100
AcDbLine
 10
-13.00139790187859
 20
-1.672970777132832
 30
0.0
 11
-11.23363095093009
 21
-3.440737725682993
 31
0.0
  0
LINE
  5
BEA
330
BA5
100
AcDbEntity
  8
0
100
AcDbLine
 10
-1.5
 20
3.5
 30
0.0
 11
-1.5
 21
-3.5
 31
0.0
  0
HATCH
  5
BEB
330
BA5
100
AcDbEntity
  8
0
100
AcDbHatch
 10
0.0
 20
0.0
 30
0.0
210
0.0
220
0.0
230
1.0
  2
ANSI31
 70
     0
 71
     1
 91
        1
 92
        7
 72
     1
 73
     1
 93
        8
 10
-6.460660173204814
 20
1.332233054616153
 42
0.0
 10
-7.839518394101105
 20
2.711091270081851
 42
0.414213562178905
 10
-8.122361106481548
 20
2.711091269618009
 42
0.0
 10
-12.43571247701766
 20
-1.602260112190379
 42
0.4142135636146872
 10
-12.43571247604996
 20
-1.885102825264766
 42
0.0
 10
-11.05685425338015
 20
-3.263961032639599
 42
0.4142135608152901
 10
-10.34974747407432
 20
-3.263961030598693
 42
0.0
 10
-6.460660172428106
 20
0.625126272813759
 42
0.4142135628833784
 97
        8
330
BD8
330
BD1
330
BDD
330
BDA
330
BED
330
BE3
330
BEC
330
BD5
 75
     0
 76
     1
 52
45.0
 41
0.25
 77
     0
 78
     1
 53
90.0
 43
-276.1145346408611
 44
-395.2719013892401
 45
-0.79375
 46
0.0000000000000002
 79
     0
 47
0.0364805528584695
 98
        1
 10
-7.399477738399582
 20
0.8532363732892918
  0
LINE
  5
BEC
102
{ACAD_REACTORS
330
BEB
102
}
330
BA5
100
AcDbEntity
  8
0
100
AcDbLine
 10
-10.34974747415435
 20
-3.263961030678729
 30
0.0
 11
-6.46066017270823
 21
0.6251262725336347
 31
0.0
  0
LINE
  5
BED
102
{ACAD_REACTORS
330
BEB
102
}
330
BA5
100
AcDbEntity
  8
0
100
AcDbLine
 10
-12.43571247609543
 20
-1.885102825218382
 30
0.0
 11
-11.05685425534102
 21
-3.263961030678729
 31
0.0
  0
LINE
  5
BEE
330
BA5
100
AcDbEntity
  8
0
100
AcDbLine
 10
-1.5
 20
5.5
 30
0.0
 11
1.042400829128382
 21
5.5
 31
0.0
  0
LINE
  5
BEF
330
BA5
100
AcDbEntity
  8
0
100
AcDbLine
 10
-1.5
 20
-5.5
 30
0.0
 11
1.042400829128382
 21
-5.5
 31
0.0
  0
ENDBLK
  5
BF1
330
BA5
100
AcDbEntity
  8
0
 62
     4
100
AcDbBlockEnd
  0
BLOCK
  5
EB0
330
EA6
100
AcDbEntity
  8
0
100
AcDbBlockBegin
  2
*D16
 70
     1
 10
0.0
 20
0.0
 30
0.0
  3
*D16
  1

  0
LINE
  5
134A
330
EA6
100
AcDbEntity
  8
7
100
AcDbLine
 10
668.4153883626661
 20
2114.731404430822
 30
0.0
 11
663.4153883626661
 21
2114.731404430822
 31
0.0
  0
LINE
  5
134B
330
EA6
100
AcDbEntity
  8
7
100
AcDbLine
 10
675.4091632303827
 20
2085.231404429855
 30
0.0
 11
663.4153883626661
 21
2085.231404429855
 31
0.0
  0
LINE
  5
134C
330
EA6
100
AcDbEntity
  8
7
100
AcDbLine
 10
664.4153883626661
 20
2112.731404430821
 30
0.0
 11
664.4153883626661
 21
2087.231404429854
 31
0.0
  0
SOLID
  5
134D
330
EA6
100
AcDbEntity
  8
7
100
AcDbTrace
 10
664.0820550293327
 20
2112.731404430821
 30
0.0
 11
664.7487216959994
 21
2112.731404430821
 31
0.0
 12
664.4153883626661
 22
2114.731404430822
 32
0.0
 13
664.4153883626661
 23
2114.731404430822
 33
0.0
  0
SOLID
  5
134E
330
EA6
100
AcDbEntity
  8
7
100
AcDbTrace
 10
664.0820550293327
 20
2087.231404429854
 30
0.0
 11
664.7487216959994
 21
2087.231404429854
 31
0.0
 12
664.4153883626661
 22
2085.231404429855
 32
0.0
 13
664.4153883626661
 23
2085.231404429855
 33
0.0
  0
MTEXT
  5
134F
330
EA6
100
AcDbEntity
  8
7
100
AcDbMText
 10
662.3737496789856
 20
2099.981404430338
 30
0.0
 40
2.0
 41
0.0
 71
     5
 72
     1
  1
295
  7
SANINDUSA
 11
0.0000000000000001
 21
1.0
 31
0.0
 73
     1
 44
1.0
1001
ACAD
1000
MTEXTBEGIN
1070
    73
1070
     1
1070
    44
1040
1.0
1070
    74
1070
     0
1000
MTEXTEND
  0
POINT
  5
1350
330
EA6
100
AcDbEntity
  8
Defpoints
 62
     0
100
AcDbPoint
 10
669.4153883626661
 20
2114.731404430822
 30
0.0000001793827793
  0
POINT
  5
1351
330
EA6
100
AcDbEntity
  8
Defpoints
 62
     0
100
AcDbPoint
 10
676.4091632303827
 20
2085.231404429855
 30
0.0000000000032074
  0
POINT
  5
1352
330
EA6
100
AcDbEntity
  8
Defpoints
 62
     0
100
AcDbPoint
 10
664.4153883626661
 20
2085.231404429855
 30
0.0
  0
ENDBLK
  5
EB1
330
EA6
100
AcDbEntity
  8
0
100
AcDbBlockEnd
  0
BLOCK
  5
EBC
330
EB2
100
AcDbEntity
  8
0
100
AcDbBlockBegin
  2
*D17
 70
     1
 10
0.0
 20
0.0
 30
0.0
  3
*D17
  1

  0
LINE
  5
135C
330
EB2
100
AcDbEntity
  8
7
100
AcDbLine
 10
705.8153883626662
 20
2115.731404430821
 30
0.0
 11
705.8153883626662
 21
2120.731404430822
 31
0.0
  0
LINE
  5
135D
330
EB2
100
AcDbEntity
  8
7
100
AcDbLine
 10
669.4153883626661
 20
2115.731404430821
 30
0.0
 11
669.4153883626661
 21
2120.731404430822
 31
0.0
  0
LINE
  5
135E
330
EB2
100
AcDbEntity
  8
7
100
AcDbLine
 10
703.8153883626662
 20
2119.731404430821
 30
0.0
 11
671.4153883626661
 21
2119.731404430821
 31
0.0
  0
SOLID
  5
135F
330
EB2
100
AcDbEntity
  8
7
100
AcDbTrace
 10
703.8153883626662
 20
2120.064737764155
 30
0.0
 11
703.8153883626662
 21
2119.398071097488
 31
0.0
 12
705.8153883626662
 22
2119.731404430821
 32
0.0
 13
705.8153883626662
 23
2119.731404430821
 33
0.0
  0
SOLID
  5
1360
330
EB2
100
AcDbEntity
  8
7
100
AcDbTrace
 10
671.4153883626661
 20
2120.064737764155
 30
0.0
 11
671.4153883626661
 21
2119.398071097488
 31
0.0
 12
669.4153883626661
 22
2119.731404430821
 32
0.0
 13
669.4153883626661
 23
2119.731404430821
 33
0.0
  0
MTEXT
  5
1361
330
EB2
100
AcDbEntity
  8
7
100
AcDbMText
 10
687.6153883626662
 20
2121.773043114502
 30
0.0
 40
2.0
 41
0.0
 71
     5
 72
     1
  1
364
  7
SANINDUSA
 73
     1
 44
1.0
1001
ACAD
1000
MTEXTBEGIN
1070
    73
1070
     1
1070
    44
1040
1.0
1070
    74
1070
     0
1000
MTEXTEND
  0
POINT
  5
1362
330
EB2
100
AcDbEntity
  8
Defpoints
 62
     0
100
AcDbPoint
 10
705.8153883626662
 20
2114.731404430822
 30
0.0
  0
POINT
  5
1363
330
EB2
100
AcDbEntity
  8
Defpoints
 62
     0
100
AcDbPoint
 10
669.4153883626661
 20
2114.731404430822
 30
0.0
  0
POINT
  5
1364
330
EB2
100
AcDbEntity
  8
Defpoints
 62
     0
100
AcDbPoint
 10
669.4153883626661
 20
2119.731404430821
 30
0.0
  0
ENDBLK
  5
EBD
330
EB2
100
AcDbEntity
  8
0
100
AcDbBlockEnd
  0
BLOCK
  5
EC8
330
EBE
100
AcDbEntity
  8
0
100
AcDbBlockBegin
  2
*D18
 70
     1
 10
0.0
 20
0.0
 30
0.0
  3
*D18
  1

  0
LINE
  5
1353
330
EBE
100
AcDbEntity
  8
7
100
AcDbLine
 10
756.1153883626661
 20
2115.731404430821
 30
0.0
 11
756.1153883626661
 21
2120.731404430822
 31
0.0
  0
LINE
  5
1354
330
EBE
100
AcDbEntity
  8
7
100
AcDbLine
 10
706.1153883626663
 20
2115.731404430821
 30
0.0
 11
706.1153883626663
 21
2120.731404430822
 31
0.0
  0
LINE
  5
1355
330
EBE
100
AcDbEntity
  8
7
100
AcDbLine
 10
754.1153883626662
 20
2119.731404430821
 30
0.0
 11
708.1153883626662
 21
2119.731404430821
 31
0.0
  0
SOLID
  5
1356
330
EBE
100
AcDbEntity
  8
7
100
AcDbTrace
 10
754.1153883626662
 20
2120.064737764155
 30
0.0
 11
754.1153883626662
 21
2119.398071097488
 31
0.0
 12
756.1153883626661
 22
2119.731404430821
 32
0.0
 13
756.1153883626661
 23
2119.731404430821
 33
0.0
  0
SOLID
  5
1357
330
EBE
100
AcDbEntity
  8
7
100
AcDbTrace
 10
708.1153883626662
 20
2120.064737764155
 30
0.0
 11
708.1153883626662
 21
2119.398071097488
 31
0.0
 12
706.1153883626663
 22
2119.731404430821
 32
0.0
 13
706.1153883626663
 23
2119.731404430821
 33
0.0
  0
MTEXT
  5
1358
330
EBE
100
AcDbEntity
  8
7
100
AcDbMText
 10
731.1153883626661
 20
2121.77237152283
 30
0.0
 40
2.0
 41
0.0
 71
     5
 72
     1
  1
500
  7
SANINDUSA
 73
     1
 44
1.0
1001
ACAD
1000
MTEXTBEGIN
1070
    73
1070
     1
1070
    44
1040
1.0
1070
    74
1070
     0
1000
MTEXTEND
  0
POINT
  5
1359
330
EBE
100
AcDbEntity
  8
Defpoints
 62
     0
100
AcDbPoint
 10
756.1153883626661
 20
2114.731404430822
 30
0.0
  0
POINT
  5
135A
330
EBE
100
AcDbEntity
  8
Defpoints
 62
     0
100
AcDbPoint
 10
706.1153883626663
 20
2114.731404430822
 30
0.0
  0
POINT
  5
135B
330
EBE
100
AcDbEntity
  8
Defpoints
 62
     0
100
AcDbPoint
 10
706.1153883626663
 20
2119.731404430821
 30
0.0
  0
ENDBLK
  5
EC9
330
EBE
100
AcDbEntity
  8
0
100
AcDbBlockEnd
  0
BLOCK
  5
ED4
330
ECA
100
AcDbEntity
  8
0
100
AcDbBlockBegin
  2
*D19
 70
     1
 10
0.0
 20
0.0
 30
0.0
  3
*D19
  1

  0
LINE
  5
1309
330
ECA
100
AcDbEntity
  8
7
100
AcDbLine
 10
723.9732720571114
 20
2114.731404430822
 30
0.0
 11
731.3360138697963
 21
2114.731404430822
 31
0.0
  0
LINE
  5
130A
330
ECA
100
AcDbEntity
  8
7
100
AcDbLine
 10
723.9732720571116
 20
1930.731404430821
 30
0.0
 11
731.3360138697963
 21
1930.731404430821
 31
0.0
  0
LINE
  5
130B
330
ECA
100
AcDbEntity
  8
7
100
AcDbLine
 10
730.3360138697963
 20
2112.731404430821
 30
0.0
 11
730.3360138697963
 21
1932.731404430821
 31
0.0
  0
SOLID
  5
130C
330
ECA
100
AcDbEntity
  8
7
100
AcDbTrace
 10
730.002680536463
 20
2112.731404430821
 30
0.0
 11
730.6693472031297
 21
2112.731404430821
 31
0.0
 12
730.3360138697963
 22
2114.731404430822
 32
0.0
 13
730.3360138697963
 23
2114.731404430822
 33
0.0
  0
SOLID
  5
130D
330
ECA
100
AcDbEntity
  8
7
100
AcDbTrace
 10
730.002680536463
 20
1932.731404430821
 30
0.0
 11
730.6693472031297
 21
1932.731404430821
 31
0.0
 12
730.3360138697963
 22
1930.731404430821
 32
0.0
 13
730.3360138697963
 23
1930.731404430821
 33
0.0
  0
MTEXT
  5
130E
330
ECA
100
AcDbEntity
  8
7
100
AcDbMText
 10
728.2903456360823
 20
2022.731404430821
 30
0.0
 40
2.0
 41
0.0
 71
     5
 72
     1
  1
1840
  7
SANINDUSA
 11
0.0000000000000001
 21
1.0
 31
0.0
 73
     1
 44
1.0
1001
ACAD
1000
MTEXTBEGIN
1070
    73
1070
     1
1070
    44
1040
1.0
1070
    74
1070
     0
1000
MTEXTEND
  0
POINT
  5
130F
330
ECA
100
AcDbEntity
  8
Defpoints
 62
     0
100
AcDbPoint
 10
722.9732720571114
 20
2114.731404430822
 30
0.0
  0
POINT
  5
1310
330
ECA
100
AcDbEntity
  8
Defpoints
 62
     0
100
AcDbPoint
 10
722.9732720571116
 20
1930.731404430821
 30
0.0
  0
POINT
  5
1311
330
ECA
100
AcDbEntity
  8
Defpoints
 62
     0
100
AcDbPoint
 10
730.3360138697963
 20
1930.731404430821
 30
0.0
  0
ENDBLK
  5
ED5
330
ECA
100
AcDbEntity
  8
0
100
AcDbBlockEnd
  0
BLOCK
  5
EE0
330
ED6
100
AcDbEntity
  8
0
100
AcDbBlockBegin
  2
*D20
 70
     1
 10
0.0
 20
0.0
 30
0.0
  3
*D20
  1

  0
LINE
  5
1300
330
ED6
100
AcDbEntity
  8
7
100
AcDbLine
 10
759.4953883626661
 20
2114.731404430818
 30
0.0
 11
764.4953883626661
 21
2114.731404430818
 31
0.0
  0
LINE
  5
1301
330
ED6
100
AcDbEntity
  8
7
100
AcDbLine
 10
760.1423739893062
 20
1929.731404430813
 30
0.0
 11
764.4953883626661
 21
1929.731404430813
 31
0.0
  0
LINE
  5
1302
330
ED6
100
AcDbEntity
  8
7
100
AcDbLine
 10
763.4953883626661
 20
2112.731404430817
 30
0.0
 11
763.4953883626661
 21
1931.731404430813
 31
0.0
  0
SOLID
  5
1303
330
ED6
100
AcDbEntity
  8
7
100
AcDbTrace
 10
763.1620550293328
 20
2112.731404430817
 30
0.0
 11
763.8287216959995
 21
2112.731404430817
 31
0.0
 12
763.4953883626661
 22
2114.731404430818
 32
0.0
 13
763.4953883626661
 23
2114.731404430818
 33
0.0
  0
SOLID
  5
1304
330
ED6
100
AcDbEntity
  8
7
100
AcDbTrace
 10
763.1620550293328
 20
1931.731404430813
 30
0.0
 11
763.8287216959995
 21
1931.731404430813
 31
0.0
 12
763.4953883626661
 22
1929.731404430813
 32
0.0
 13
763.4953883626661
 23
1929.731404430813
 33
0.0
  0
MTEXT
  5
1305
330
ED6
100
AcDbEntity
  8
7
100
AcDbMText
 10
761.4497201289521
 20
2022.231404430824
 30
0.0
 40
2.0
 41
0.0
 71
     5
 72
     1
  1
1850
  7
SANINDUSA
 11
0.0000000000000001
 21
1.0
 31
0.0
 73
     1
 44
1.0
1001
ACAD
1000
MTEXTBEGIN
1070
    73
1070
     1
1070
    44
1040
1.0
1070
    74
1070
     0
1000
MTEXTEND
  0
POINT
  5
1306
330
ED6
100
AcDbEntity
  8
Defpoints
 62
     0
100
AcDbPoint
 10
758.4953883626662
 20
2114.731404430818
 30
0.0
  0
POINT
  5
1307
330
ED6
100
AcDbEntity
  8
Defpoints
 62
     0
100
AcDbPoint
 10
759.1423739893063
 20
1929.731404430813
 30
0.0
  0
POINT
  5
1308
330
ED6
100
AcDbEntity
  8
Defpoints
 62
     0
100
AcDbPoint
 10
763.4953883626661
 20
1929.731404430813
 30
0.0
  0
ENDBLK
  5
EE1
330
ED6
100
AcDbEntity
  8
0
100
AcDbBlockEnd
  0
BLOCK
  5
EEC
330
EE2
100
AcDbEntity
  8
0
100
AcDbBlockBegin
  2
*D21
 70
     1
 10
0.0
 20
0.0
 30
0.0
  3
*D21
  1

  0
LINE
  5
1326
330
EE2
100
AcDbEntity
  8
7
100
AcDbLine
 10
721.3360138697963
 20
1959.231404430821
 30
0.0
 11
726.3360138697963
 21
1959.231404430821
 31
0.0
  0
LINE
  5
1327
330
EE2
100
AcDbEntity
  8
7
100
AcDbLine
 10
708.5658639416268
 20
1930.731404430822
 30
0.0
 11
726.3360138697963
 21
1930.731404430822
 31
0.0
  0
LINE
  5
1328
330
EE2
100
AcDbEntity
  8
7
100
AcDbLine
 10
725.3360138697964
 20
1957.231404430821
 30
0.0
 11
725.3360138697964
 21
1932.731404430821
 31
0.0
  0
SOLID
  5
1329
330
EE2
100
AcDbEntity
  8
7
100
AcDbTrace
 10
725.002680536463
 20
1957.231404430821
 30
0.0
 11
725.6693472031297
 21
1957.231404430821
 31
0.0
 12
725.3360138697964
 22
1959.231404430821
 32
0.0
 13
725.3360138697964
 23
1959.231404430821
 33
0.0
  0
SOLID
  5
132A
330
EE2
100
AcDbEntity
  8
7
100
AcDbTrace
 10
725.002680536463
 20
1932.731404430821
 30
0.0
 11
725.6693472031297
 21
1932.731404430821
 31
0.0
 12
725.3360138697964
 22
1930.731404430822
 32
0.0
 13
725.3360138697964
 23
1930.731404430822
 33
0.0
  0
MTEXT
  5
132B
330
EE2
100
AcDbEntity
  8
7
100
AcDbMText
 10
723.2903456360823
 20
1944.981404430822
 30
0.0
 40
2.0
 41
0.0
 71
     5
 72
     1
  1
285
  7
SANINDUSA
 11
0.0000000000000001
 21
1.0
 31
0.0
 73
     1
 44
1.0
1001
ACAD
1000
MTEXTBEGIN
1070
    73
1070
     1
1070
    44
1040
1.0
1070
    74
1070
     0
1000
MTEXTEND
  0
POINT
  5
132C
330
EE2
100
AcDbEntity
  8
Defpoints
 62
     0
100
AcDbPoint
 10
720.3360138697964
 20
1959.231404430821
 30
-0.0000001793795719
  0
POINT
  5
132D
330
EE2
100
AcDbEntity
  8
Defpoints
 62
     0
100
AcDbPoint
 10
707.5658639416268
 20
1930.731404430822
 30
-0.0000001793795719
  0
POINT
  5
132E
330
EE2
100
AcDbEntity
  8
Defpoints
 62
     0
100
AcDbPoint
 10
725.3360138697964
 20
1930.731404430822
 30
0.0
  0
ENDBLK
  5
EED
330
EE2
100
AcDbEntity
  8
0
100
AcDbBlockEnd
  0
BLOCK
  5
EF8
330
EEE
100
AcDbEntity
  8
0
100
AcDbBlockBegin
  2
*D22
 70
     1
 10
0.0
 20
0.0
 30
0.0
  3
*D22
  1

  0
LINE
  5
131D
330
EEE
100
AcDbEntity
  8
7
100
AcDbLine
 10
690.6253535660352
 20
1959.231404430821
 30
0.0
 11
663.4153883626662
 21
1959.231404430821
 31
0.0
  0
LINE
  5
131E
330
EEE
100
AcDbEntity
  8
7
100
AcDbLine
 10
668.4153883626662
 20
1929.731404430821
 30
0.0
 11
663.4153883626662
 21
1929.731404430821
 31
0.0
  0
LINE
  5
131F
330
EEE
100
AcDbEntity
  8
7
100
AcDbLine
 10
664.4153883626662
 20
1957.231404430821
 30
0.0
 11
664.4153883626662
 21
1931.731404430821
 31
0.0
  0
SOLID
  5
1320
330
EEE
100
AcDbEntity
  8
7
100
AcDbTrace
 10
664.0820550293328
 20
1957.231404430821
 30
0.0
 11
664.7487216959996
 21
1957.231404430821
 31
0.0
 12
664.4153883626662
 22
1959.231404430821
 32
0.0
 13
664.4153883626662
 23
1959.231404430821
 33
0.0
  0
SOLID
  5
1321
330
EEE
100
AcDbEntity
  8
7
100
AcDbTrace
 10
664.0820550293328
 20
1931.731404430821
 30
0.0
 11
664.7487216959996
 21
1931.731404430821
 31
0.0
 12
664.4153883626662
 22
1929.731404430821
 32
0.0
 13
664.4153883626662
 23
1929.731404430821
 33
0.0
  0
MTEXT
  5
1322
330
EEE
100
AcDbEntity
  8
7
100
AcDbMText
 10
662.3737496789857
 20
1944.481404430822
 30
0.0
 40
2.0
 41
0.0
 71
     5
 72
     1
  1
295
  7
SANINDUSA
 11
0.0000000000000001
 21
1.0
 31
0.0
 73
     1
 44
1.0
1001
ACAD
1000
MTEXTBEGIN
1070
    73
1070
     1
1070
    44
1040
1.0
1070
    74
1070
     0
1000
MTEXTEND
  0
POINT
  5
1323
330
EEE
100
AcDbEntity
  8
Defpoints
 62
     0
100
AcDbPoint
 10
691.6253535660352
 20
1959.231404430821
 30
-0.0000001793795719
  0
POINT
  5
1324
330
EEE
100
AcDbEntity
  8
Defpoints
 62
     0
100
AcDbPoint
 10
669.4153883626662
 20
1929.731404430821
 30
0.0
  0
POINT
  5
1325
330
EEE
100
AcDbEntity
  8
Defpoints
 62
     0
100
AcDbPoint
 10
664.4153883626662
 20
1929.731404430821
 30
0.0
  0
ENDBLK
  5
EF9
330
EEE
100
AcDbEntity
  8
0
100
AcDbBlockEnd
  0
BLOCK
  5
F06
330
EFA
100
AcDbEntity
  8
0
100
AcDbBlockBegin
  2
*D23
 70
     1
 10
0.0
 20
0.0
 30
0.0
  3
*D23
  1

  0
LINE
  5
1312
330
EFA
100
AcDbEntity
  8
7
100
AcDbLine
 10
711.5074607163553
 20
1930.731404430822
 30
0.0
 11
721.3360138697963
 21
1930.731404430822
 31
0.0
  0
LINE
  5
1313
330
EFA
100
AcDbEntity
  8
7
100
AcDbLine
 10
714.2862952092301
 20
1929.731404430821
 30
0.0
 11
721.3360138697963
 21
1929.731404430821
 31
0.0
  0
LINE
  5
1314
330
EFA
100
AcDbEntity
  8
7
100
AcDbLine
 10
720.3360138697964
 20
1932.731404430821
 30
0.0
 11
720.3360138697964
 21
1934.731404430822
 31
0.0
  0
LINE
  5
1315
330
EFA
100
AcDbEntity
  8
7
100
AcDbLine
 10
720.3360138697964
 20
1927.731404430821
 30
0.0
 11
720.3360138697964
 21
1920.788489722963
 31
0.0
  0
LINE
  5
1316
330
EFA
100
AcDbEntity
  8
7
100
AcDbLine
 10
720.3360138697964
 20
1930.731404430822
 30
0.0
 11
720.3360138697964
 21
1929.731404430821
 31
0.0
  0
SOLID
  5
1317
330
EFA
100
AcDbEntity
  8
7
100
AcDbTrace
 10
720.002680536463
 20
1932.731404430821
 30
0.0
 11
720.6693472031297
 21
1932.731404430821
 31
0.0
 12
720.3360138697964
 22
1930.731404430822
 32
0.0
 13
720.3360138697964
 23
1930.731404430822
 33
0.0
  0
SOLID
  5
1318
330
EFA
100
AcDbEntity
  8
7
100
AcDbTrace
 10
720.002680536463
 20
1927.731404430821
 30
0.0
 11
720.6693472031297
 21
1927.731404430821
 31
0.0
 12
720.3360138697964
 22
1929.731404430821
 32
0.0
 13
720.3360138697964
 23
1929.731404430821
 33
0.0
  0
MTEXT
  5
1319
330
EFA
100
AcDbEntity
  8
7
100
AcDbMText
 10
718.2950467777881
 20
1923.259947076893
 30
0.0
 40
2.0
 41
0.0
 71
     5
 72
     1
  1
10
  7
SANINDUSA
 11
0.0000000000000001
 21
1.0
 31
0.0
 73
     1
 44
1.0
1001
ACAD
1000
MTEXTBEGIN
1070
    73
1070
     1
1070
    44
1040
1.0
1070
    74
1070
     0
1000
MTEXTEND
  0
POINT
  5
131A
330
EFA
100
AcDbEntity
  8
Defpoints
 62
     0
100
AcDbPoint
 10
710.5074607163553
 20
1930.731404430822
 30
-0.0000001793795719
  0
POINT
  5
131B
330
EFA
100
AcDbEntity
  8
Defpoints
 62
     0
100
AcDbPoint
 10
713.28629520923
 20
1929.731404430821
 30
0.0
  0
POINT
  5
131C
330
EFA
100
AcDbEntity
  8
Defpoints
 62
     0
100
AcDbPoint
 10
720.3360138697964
 20
1929.731404430821
 30
0.0
  0
ENDBLK
  5
F07
330
EFA
100
AcDbEntity
  8
0
100
AcDbBlockEnd
  0
BLOCK
  5
F12
330
F08
100
AcDbEntity
  8
0
100
AcDbBlockBegin
  2
*D24
 70
     1
 10
0.0
 20
0.0
 30
0.0
  3
*D24
  1

  0
LINE
  5
1341
330
F08
100
AcDbEntity
  8
7
100
AcDbLine
 10
705.2150600360456
 20
1901.001281347295
 30
0.0000000000000025
 11
705.2150600360456
 21
1912.137209126653
 31
0.0000000000000025
  0
LINE
  5
1342
330
F08
100
AcDbEntity
  8
7
100
AcDbLine
 10
669.4153883626662
 20
1899.934492909102
 30
0.0000000000000025
 11
669.4153883626662
 21
1912.137209126653
 31
0.0000000000000025
  0
LINE
  5
1343
330
F08
100
AcDbEntity
  8
7
100
AcDbLine
 10
703.2150600360457
 20
1911.137209126653
 30
0.0000000000000025
 11
671.4153883626662
 21
1911.137209126653
 31
0.0000000000000025
  0
SOLID
  5
1344
330
F08
100
AcDbEntity
  8
7
100
AcDbTrace
 10
703.2150600360457
 20
1911.470542459986
 30
0.0000000000000025
 11
703.2150600360457
 21
1910.80387579332
 31
0.0000000000000025
 12
705.2150600360456
 22
1911.137209126653
 32
0.0000000000000025
 13
705.2150600360456
 23
1911.137209126653
 33
0.0000000000000025
  0
SOLID
  5
1345
330
F08
100
AcDbEntity
  8
7
100
AcDbTrace
 10
671.4153883626662
 20
1911.470542459986
 30
0.0000000000000025
 11
671.4153883626662
 21
1910.80387579332
 31
0.0000000000000025
 12
669.4153883626662
 22
1911.137209126653
 32
0.0000000000000025
 13
669.4153883626662
 23
1911.137209126653
 33
0.0000000000000025
  0
MTEXT
  5
1346
330
F08
100
AcDbEntity
  8
7
100
AcDbMText
 10
687.3152241993559
 20
1913.182877360367
 30
0.0000000000000025
 40
2.0
 41
0.0
 71
     5
 72
     1
  1
358
  7
SANINDUSA
 73
     1
 44
1.0
1001
ACAD
1000
MTEXTBEGIN
1070
    73
1070
     1
1070
    44
1040
1.0
1070
    74
1070
     0
1000
MTEXTEND
  0
POINT
  5
1347
330
F08
100
AcDbEntity
  8
Defpoints
 62
     0
100
AcDbPoint
 10
705.2150600360456
 20
1900.001281347295
 30
0.0000000000000049
  0
POINT
  5
1348
330
F08
100
AcDbEntity
  8
Defpoints
 62
     0
100
AcDbPoint
 10
669.4153883626662
 20
1898.934492909102
 30
0.0000000000000025
  0
POINT
  5
1349
330
F08
100
AcDbEntity
  8
Defpoints
 62
     0
100
AcDbPoint
 10
669.4153883626662
 20
1911.137209126653
 30
0.0000000000000025
  0
ENDBLK
  5
F13
330
F08
100
AcDbEntity
  8
0
100
AcDbBlockEnd
  0
BLOCK
  5
F1E
330
F14
100
AcDbEntity
  8
0
100
AcDbBlockBegin
  2
*D25
 70
     1
 10
0.0
 20
0.0
 30
0.0
  3
*D25
  1

  0
LINE
  5
132F
330
F14
100
AcDbEntity
  8
7
100
AcDbLine
 10
755.511514701312
 20
1901.001282014861
 30
0.0000000000000025
 11
755.511514701312
 21
1906.974422105571
 31
0.0000000000000025
  0
LINE
  5
1330
330
F14
100
AcDbEntity
  8
7
100
AcDbLine
 10
705.5150600360458
 20
1901.00128201486
 30
0.0000000000000025
 11
705.5150600360458
 21
1906.974422105571
 31
0.0000000000000025
  0
LINE
  5
1331
330
F14
100
AcDbEntity
  8
7
100
AcDbLine
 10
753.5115147013121
 20
1905.974422105571
 30
0.0000000000000025
 11
707.5150600360458
 21
1905.974422105571
 31
0.0000000000000025
  0
SOLID
  5
1332
330
F14
100
AcDbEntity
  8
7
100
AcDbTrace
 10
753.5115147013121
 20
1906.307755438905
 30
0.0000000000000025
 11
753.5115147013121
 21
1905.641088772238
 31
0.0000000000000025
 12
755.511514701312
 22
1905.974422105571
 32
0.0000000000000025
 13
755.511514701312
 23
1905.974422105571
 33
0.0000000000000025
  0
SOLID
  5
1333
330
F14
100
AcDbEntity
  8
7
100
AcDbTrace
 10
707.5150600360458
 20
1906.307755438905
 30
0.0000000000000025
 11
707.5150600360458
 21
1905.641088772238
 31
0.0000000000000025
 12
705.5150600360458
 22
1905.974422105571
 32
0.0000000000000025
 13
705.5150600360458
 23
1905.974422105571
 33
0.0000000000000025
  0
MTEXT
  5
1334
330
F14
100
AcDbEntity
  8
7
100
AcDbMText
 10
730.5132873686789
 20
1908.015389197579
 30
0.0000000000000025
 40
2.0
 41
0.0
 71
     5
 72
     1
  1
500
  7
SANINDUSA
 73
     1
 44
1.0
1001
ACAD
1000
MTEXTBEGIN
1070
    73
1070
     1
1070
    44
1040
1.0
1070
    74
1070
     0
1000
MTEXTEND
  0
POINT
  5
1335
330
F14
100
AcDbEntity
  8
Defpoints
 62
     0
100
AcDbPoint
 10
755.511514701312
 20
1900.001282014861
 30
0.0000000000000025
  0
POINT
  5
1336
330
F14
100
AcDbEntity
  8
Defpoints
 62
     0
100
AcDbPoint
 10
705.5150600360458
 20
1900.00128201486
 30
-0.0000000000000061
  0
POINT
  5
1337
330
F14
100
AcDbEntity
  8
Defpoints
 62
     0
100
AcDbPoint
 10
705.5150600360458
 20
1905.974422105571
 30
0.0000000000000025
  0
ENDBLK
  5
F1F
330
F14
100
AcDbEntity
  8
0
100
AcDbBlockEnd
  0
BLOCK
  5
F2A
330
F20
100
AcDbEntity
  8
0
100
AcDbBlockBegin
  2
*D26
 70
     1
 10
0.0
 20
0.0
 30
0.0
  3
*D26
  1

  0
LINE
  5
1338
330
F20
100
AcDbEntity
  8
7
100
AcDbLine
 10
705.2150600360456
 20
1901.001281347295
 30
0.0000000000000025
 11
705.2150600360456
 21
1906.711907430725
 31
0.0000000000000025
  0
LINE
  5
1339
330
F20
100
AcDbEntity
  8
7
100
AcDbLine
 10
673.912590738662
 20
1901.001281347295
 30
0.0000000000000025
 11
673.912590738662
 21
1906.711907430725
 31
0.0000000000000025
  0
LINE
  5
133A
330
F20
100
AcDbEntity
  8
7
100
AcDbLine
 10
703.2150600360457
 20
1905.711907430725
 30
0.0000000000000025
 11
675.9125907386621
 21
1905.711907430725
 31
0.0000000000000025
  0
SOLID
  5
133B
330
F20
100
AcDbEntity
  8
7
100
AcDbTrace
 10
703.2150600360457
 20
1906.045240764058
 30
0.0000000000000025
 11
703.2150600360457
 21
1905.378574097391
 31
0.0000000000000025
 12
705.2150600360456
 22
1905.711907430725
 32
0.0000000000000025
 13
705.2150600360456
 23
1905.711907430725
 33
0.0000000000000025
  0
SOLID
  5
133C
330
F20
100
AcDbEntity
  8
7
100
AcDbTrace
 10
675.9125907386621
 20
1906.045240764058
 30
0.0000000000000025
 11
675.9125907386621
 21
1905.378574097391
 31
0.0000000000000025
 12
673.912590738662
 22
1905.711907430725
 32
0.0000000000000025
 13
673.912590738662
 23
1905.711907430725
 33
0.0000000000000025
  0
MTEXT
  5
133D
330
F20
100
AcDbEntity
  8
7
100
AcDbMText
 10
689.5638253873539
 20
1907.753546114405
 30
0.0000000000000025
 40
2.0
 41
0.0
 71
     5
 72
     1
  1
313
  7
SANINDUSA
 73
     1
 44
1.0
1001
ACAD
1000
MTEXTBEGIN
1070
    73
1070
     1
1070
    44
1040
1.0
1070
    74
1070
     0
1000
MTEXTEND
  0
POINT
  5
133E
330
F20
100
AcDbEntity
  8
Defpoints
 62
     0
100
AcDbPoint
 10
705.2150600360456
 20
1900.001281347295
 30
0.0000000000000049
  0
POINT
  5
133F
330
F20
100
AcDbEntity
  8
Defpoints
 62
     0
100
AcDbPoint
 10
673.912590738662
 20
1900.001281347295
 30
-0.0000000054558704
  0
POINT
  5
1340
330
F20
100
AcDbEntity
  8
Defpoints
 62
     0
100
AcDbPoint
 10
673.912590738662
 20
1905.711907430725
 30
0.0000000000000025
  0
ENDBLK
  5
F2B
330
F20
100
AcDbEntity
  8
0
100
AcDbBlockEnd
  0
BLOCK
  5
1205
330
11FB
100
AcDbEntity
  8
0
100
AcDbBlockBegin
  2
*D27
 70
     1
 10
0.0
 20
0.0
 30
0.0
  3
*D27
  1

  0
ARC
  5
12F7
330
11FB
100
AcDbEntity
  8
7
100
AcDbCircle
 10
707.1050659329696
 20
1900.00128201486
 30
0.0
 40
29.79851698381758
100
AcDbArc
 50
273.8462678727482
 51
356.1537321272518
  0
SOLID
  5
12F8
330
11FB
100
AcDbEntity
  8
7
100
AcDbTrace
 10
709.115125667243
 20
1869.936736882602
 30
0.0
 11
709.0927531892091
 21
1870.603028047687
 31
0.0
 12
707.1050659329695
 22
1870.202765031043
 32
0.0
 13
707.1050659329695
 23
1870.202765031043
 33
0.0
  0
SOLID
  5
12F9
330
11FB
100
AcDbEntity
  8
7
100
AcDbTrace
 10
736.5033199001425
 20
1898.013594758621
 30
0.0
 11
737.169611065228
 21
1897.991222280587
 31
0.0
 12
736.9035829167873
 22
1900.001282014861
 32
0.0
 13
736.9035829167873
 23
1900.001282014861
 33
0.0
  0
MTEXT
  5
12FA
102
{ACAD_XDICTIONARY
360
1441
102
}
330
11FB
100
AcDbEntity
  8
7
100
AcDbMText
 10
726.571630988898
 20
1880.534716958932
 30
0.0
 40
2.0
 41
0.0
 71
     5
 72
     1
  1
90,0\U+00B0
  7
SANINDUSA
 11
0.7071067811865471
 21
0.707106781186548
 31
0.0
 73
     1
 44
1.0
1001
ACAD
1000
MTEXTBEGIN
1070
    73
1070
     1
1070
    44
1040
1.0
1070
    74
1070
     0
1000
MTEXTEND
  0
POINT
  5
12FB
330
11FB
100
AcDbEntity
  8
Defpoints
 62
     0
100
AcDbPoint
 10
722.0043244248784
 20
1874.195009311772
 30
0.0
  0
POINT
  5
12FC
330
11FB
100
AcDbEntity
  8
Defpoints
 62
     0
100
AcDbPoint
 10
707.1050659329696
 20
1898.711276117937
 30
0.0000000000000025
  0
POINT
  5
12FD
330
11FB
100
AcDbEntity
  8
Defpoints
 62
     0
100
AcDbPoint
 10
705.5150600360457
 20
1900.00128201486
 30
-0.0000000000000061
  0
POINT
  5
12FE
330
11FB
100
AcDbEntity
  8
Defpoints
 62
     0
100
AcDbPoint
 10
755.511514701312
 20
1900.001282014861
 30
0.0000000000000491
  0
POINT
  5
12FF
330
11FB
100
AcDbEntity
  8
Defpoints
 62
     0
100
AcDbPoint
 10
707.1050659329694
 20
1848.71482145267
 30
0.0000000000000025
  0
ENDBLK
  5
1206
330
11FB
100
AcDbEntity
  8
0
100
AcDbBlockEnd
  0
BLOCK
  5
13BB
330
13BA
100
AcDbEntity
  8
0
100
AcDbBlockBegin
  2
*D29
 70
     1
 10
0.0
 20
0.0
 30
0.0
  3
*D29
  1

  0
LINE
  5
13C7
330
13BA
100
AcDbEntity
  8
cotas
100
AcDbLine
 10
770.5653883626655
 20
2942.731404430822
 30
0.0
 11
843.042118844662
 21
2942.731404430822
 31
0.0
  0
LINE
  5
13C8
330
13BA
100
AcDbEntity
  8
cotas
100
AcDbLine
 10
770.5653883626652
 20
1092.731404430822
 30
0.0
 11
843.0421188446617
 21
1092.731404430822
 31
0.0
  0
LINE
  5
13C9
330
13BA
100
AcDbEntity
  8
cotas
100
AcDbLine
 10
842.0421188446621
 20
2940.731404430822
 30
0.0
 11
842.0421188446617
 21
1094.731404430822
 31
0.0
  0
SOLID
  5
13CA
330
13BA
100
AcDbEntity
  8
cotas
100
AcDbTrace
 10
841.7087855113287
 20
2940.731404430822
 30
0.0
 11
842.3754521779954
 21
2940.731404430822
 31
0.0
 12
842.0421188446621
 22
2942.731404430822
 32
0.0
 13
842.0421188446621
 23
2942.731404430822
 33
0.0
  0
SOLID
  5
13CB
330
13BA
100
AcDbEntity
  8
cotas
100
AcDbTrace
 10
841.7087855113283
 20
1094.731404430822
 30
0.0
 11
842.3754521779951
 21
1094.731404430822
 31
0.0
 12
842.0421188446617
 22
1092.731404430822
 32
0.0
 13
842.0421188446617
 23
1092.731404430822
 33
0.0
  0
MTEXT
  5
13CC
330
13BA
100
AcDbEntity
  8
cotas
100
AcDbMText
 10
839.9964506109476
 20
2017.731404430822
 30
0.0
 40
2.0
 41
0.0
 71
     5
 72
     1
  1
1850
  7
SANINDUSA
 11
0.0000000000000001
 21
1.0
 31
0.0
 73
     1
 44
1.0
1001
ACAD
1000
MTEXTBEGIN
1070
    73
1070
     1
1070
    44
1040
1.0
1070
    74
1070
     0
1000
MTEXTEND
  0
POINT
  5
13CD
330
13BA
100
AcDbEntity
  8
Defpoints
 62
     0
100
AcDbPoint
 10
769.5653883626655
 20
2942.731404430822
 30
0.0
  0
POINT
  5
13CE
330
13BA
100
AcDbEntity
  8
Defpoints
 62
     0
100
AcDbPoint
 10
769.5653883626651
 20
1092.731404430822
 30
0.0
  0
POINT
  5
13CF
330
13BA
100
AcDbEntity
  8
Defpoints
 62
     0
100
AcDbPoint
 10
842.0421188446617
 20
1092.731404430822
 30
0.0
  0
ENDBLK
  5
13BC
330
13BA
100
AcDbEntity
  8
0
100
AcDbBlockEnd
  0
ENDSEC
  0
SECTION
  2
ENTITIES
  0
LINE
  5
D95
330
1F
100
AcDbEntity
  8
SANINDUSA
100
AcDbLine
 10
549.6777617667823
 20
2022.810716429294
 30
0.0
 11
549.6777617667823
 21
2024.022716429284
 31
0.0
  0
LINE
  5
D96
330
1F
100
AcDbEntity
  8
SANINDUSA
100
AcDbLine
 10
549.6747617667822
 20
2022.810716429294
 30
0.0
 11
549.6747617667822
 21
2024.022716429284
 31
0.0
  0
LINE
  5
D98
330
1F
100
AcDbEntity
  8
SANINDUSA
100
AcDbLine
 10
550.1777617667823
 20
2022.501716429294
 30
0.0
 11
550.1777617667823
 21
2024.341716429294
 31
0.0
  0
LINE
  5
D99
330
1F
100
AcDbEntity
  8
SANINDUSA
100
AcDbLine
 10
550.1832617667822
 20
2022.501716429294
 30
0.0
 11
550.1832617667822
 21
2024.341716429294
 31
0.0
  0
LINE
  5
D9A
330
1F
100
AcDbEntity
  8
SANINDUSA
100
AcDbLine
 10
550.1892617667822
 20
2022.501716429294
 30
0.0
 11
550.1892617667822
 21
2024.341716429294
 31
0.0
  0
LINE
  5
D9B
330
1F
100
AcDbEntity
  8
SANINDUSA
100
AcDbLine
 10
550.2015617667823
 20
2022.491716429294
 30
0.0
 11
550.2015617667823
 21
2024.341716429294
 31
0.0
  0
LINE
  5
D9C
330
1F
100
AcDbEntity
  8
SANINDUSA
100
AcDbLine
 10
549.3656117667823
 20
2022.491716429294
 30
0.0
 11
549.3656117667823
 21
2024.341716429294
 31
0.0
  0
LINE
  5
D9D
330
1F
100
AcDbEntity
  8
SANINDUSA
100
AcDbLine
 10
549.3107617667823
 20
2022.491716429294
 30
0.0
 11
549.3107617667823
 21
2024.341716429294
 31
0.0
  0
LINE
  5
DAB
330
1F
100
AcDbEntity
  8
SANINDUSA
100
AcDbLine
 10
550.7053657884173
 20
2023.433539054554
 30
-0.0000000000000001
 11
551.2053303350699
 21
2023.433539054554
 31
0.0000000000000005
  0
LINE
  5
DAC
330
1F
100
AcDbEntity
  8
SANINDUSA
100
AcDbLine
 10
550.7053657884173
 20
2023.439539054554
 30
0.0
 11
551.2053303350699
 21
2023.439539054554
 31
0.0
  0
ARC
  5
DAD
330
1F
100
AcDbEntity
  8
SANINDUSA
100
AcDbCircle
 10
550.7033802354559
 20
2023.436539054554
 30
0.0
 40
0.0056623076923077
100
AcDbArc
 50
81.49232712757934
 51
278.5076728724207
  0
ARC
  5
DAE
330
1F
100
AcDbEntity
  8
SANINDUSA
100
AcDbCircle
 10
550.7033802354559
 20
2023.436539054554
 30
0.0
 40
0.0052623076923077
100
AcDbArc
 50
81.49232712757934
 51
278.5076728724207
  0
LINE
  5
DAF
330
1F
100
AcDbEntity
  8
SANINDUSA
100
AcDbLine
 10
550.7155329565319
 20
2023.439225091081
 30
0.0
 11
550.7172179277636
 21
2023.438947933251
 31
0.0
  0
LINE
  5
DB0
330
1F
100
AcDbEntity
  8
SANINDUSA
100
AcDbLine
 10
550.7172179277636
 20
2023.438947933251
 30
0.0
 11
550.7172179277636
 21
2023.439654688885
 31
0.0
  0
ARC
  5
DB1
330
1F
100
AcDbEntity
  8
SANINDUSA
100
AcDbCircle
 10
550.7077573148966
 20
2023.439788784415
 30
0.0
 40
0.00075
100
AcDbArc
 50
170.6591658917311
 51
0.1365535742075354
  0
LINE
  5
DB2
330
1F
100
AcDbEntity
  8
SANINDUSA
100
AcDbLine
 10
550.7053657884173
 20
2023.439539054554
 30
0.0
 11
550.7053657884173
 21
2023.433539054554
 31
0.0
  0
LINE
  5
DB3
330
1F
100
AcDbEntity
  8
SANINDUSA
100
AcDbLine
 10
550.7053657884173
 20
2023.439539054554
 30
0.0000000000000001
 11
550.7053657884173
 21
2023.433539054554
 31
-0.0000000000000001
  0
LINE
  5
DB4
330
1F
100
AcDbEntity
  8
SANINDUSA
100
AcDbLine
 10
550.7023657884174
 20
2023.439539047878
 30
0.0
 11
550.7023657884174
 21
2023.433539047879
 31
0.0
1001
GENIUS_GENREC_14
1002
{
1000
PYDIR
1011
550.8553657884174
1021
2023.433339047878
1031
0.0
1002
}
1002
{
1000
PXDIR
1011
550.7053657884173
1021
2023.439339047878
1031
0.0
1002
}
1002
{
1000
PORI
1011
550.8553657884174
1021
2023.439339047878
1031
0.0
1002
}
1002
{
1000
PINS
1011
550.8553657884174
1021
2023.439339047878
1031
0.0
1002
}
1002
{
1000
PINS2
1011
550.7053657884173
1021
2023.433539047879
1031
0.0
1002
}
1002
{
1000
C
1070
     1
1002
}
1001
GENIUS_GENODEF_13
1002
{
1000
HIER
1070
     0
1002
}
1002
{
1000
MANEDIT
1070
     0
1002
}
1002
{
1000
NOSEL
1070
     0
1002
}
1002
{
1000
BEHIND
1070
     0
1002
}
1002
{
1000
REACTOR
1002
}
1001
GENIUS_GENOBJ-N-REC_13
1002
{
1000
OWNER
1000
GEN
1002
}
  0
LINE
  5
DB5
330
1F
100
AcDbEntity
  8
SANINDUSA
100
AcDbLine
 10
550.7042179277637
 20
2023.430939054554
 30
0.0
 11
550.7042179277637
 21
2023.442139054554
 31
0.0
  0
LINE
  5
DB6
330
1F
100
AcDbEntity
  8
SANINDUSA
100
AcDbLine
 10
550.7053657884173
 20
2023.432842624104
 30
0.0
 11
550.7053657884173
 21
2023.440235485004
 31
0.0
  0
LINE
  5
DB7
330
1F
100
AcDbEntity
  8
SANINDUSA
100
AcDbLine
 10
550.3893410954435
 20
2023.433539047879
 30
-0.0000000000545587
 11
550.3893410954435
 21
2023.439539047878
 31
-0.0000000000545587
  0
LINE
  5
DBA
330
1F
100
AcDbEntity
  8
SANINDUSA
100
AcDbLine
 10
550.7718657884173
 20
2023.432139047878
 30
0.0
 11
550.7188657884173
 21
2023.432139047878
 31
0.0
  0
LWPOLYLINE
  5
DBB
330
1F
100
AcDbEntity
  8
SANINDUSA
100
AcDbPolyline
 90
        2
 70
     0
 43
0.0
 10
550.7188657884173
 20
2023.433339047878
 10
550.7718657884173
 20
2023.433339047878
1001
GENIUS_GENREC_14
1002
{
1000
PYDIR
1011
550.4725835313382
1021
2023.81976377994
1031
0.0
1002
}
1002
{
1000
PXDIR
1011
550.4195835313383
1021
2023.81876377994
1031
0.0
1002
}
1002
{
1000
PORI
1011
550.4725835313382
1021
2023.81876377994
1031
0.0
1002
}
1002
{
1000
PINS
1011
550.4725835313382
1021
2023.81876377994
1031
0.0
1002
}
1002
{
1000
PINS2
1011
550.4195835313383
1021
2023.81976377994
1031
0.0
1002
}
1002
{
1000
C
1070
     1
1002
}
1001
GENIUS_GENODEF_13
1002
{
1000
HIER
1070
     0
1002
}
1002
{
1000
MANEDIT
1070
     0
1002
}
1002
{
1000
NOSEL
1070
     0
1002
}
1002
{
1000
BEHIND
1070
     0
1002
}
1002
{
1000
REACTOR
1002
}
1001
GENIUS_GENOBJ-N-REC_13
1002
{
1000
OWNER
1000
GEN
1002
}
  0
LWPOLYLINE
  5
DBC
330
1F
100
AcDbEntity
  8
SANINDUSA
100
AcDbPolyline
 90
        2
 70
     0
 43
0.0
 10
550.7718657884173
 20
2023.432339047879
 10
550.7188657884173
 20
2023.432339047879
1001
GENIUS_GENREC_14
1002
{
1000
PYDIR
1011
550.4725835313382
1021
2023.81976377994
1031
0.0
1002
}
1002
{
1000
PXDIR
1011
550.4195835313383
1021
2023.81876377994
1031
0.0
1002
}
1002
{
1000
PORI
1011
550.4725835313382
1021
2023.81876377994
1031
0.0
1002
}
1002
{
1000
PINS
1011
550.4725835313382
1021
2023.81876377994
1031
0.0
1002
}
1002
{
1000
PINS2
1011
550.4195835313383
1021
2023.81976377994
1031
0.0
1002
}
1002
{
1000
C
1070
     1
1002
}
1001
GENIUS_GENODEF_13
1002
{
1000
HIER
1070
     0
1002
}
1002
{
1000
MANEDIT
1070
     0
1002
}
1002
{
1000
NOSEL
1070
     0
1002
}
1002
{
1000
BEHIND
1070
     0
1002
}
1002
{
1000
REACTOR
1002
}
1001
GENIUS_GENOBJ-N-REC_13
1002
{
1000
OWNER
1000
GEN
1002
}
  0
LINE
  5
DBD
330
1F
100
AcDbEntity
  8
SANINDUSA
100
AcDbLine
 10
550.7127546773063
 20
2023.422138995585
 30
0.0
 11
550.7708657884173
 21
2023.422138995585
 31
0.0
  0
LINE
  5
DBE
330
1F
100
AcDbEntity
  8
SANINDUSA
100
AcDbLine
 10
550.3893410954435
 20
2023.433539047879
 30
-0.0000000000077739
 11
550.7083657884173
 21
2023.433539047879
 31
0.0
  0
LINE
  5
DCB
330
1F
100
AcDbEntity
  8
SANINDUSA
100
AcDbLine
 10
550.6888657884172
 20
2023.432138995585
 30
0.0
 11
550.6358657884172
 21
2023.432138995585
 31
0.0
  0
LWPOLYLINE
  5
DCC
330
1F
100
AcDbEntity
  8
SANINDUSA
100
AcDbPolyline
 90
        2
 70
     0
 43
0.0
 10
550.6358657884174
 20
2023.432239047878
 10
550.6888657884173
 20
2023.432239047878
1001
GENIUS_GENREC_14
1002
{
1000
PYDIR
1011
550.7718657884173
1021
2023.520381522861
1031
0.0
1002
}
1002
{
1000
PXDIR
1011
550.7188657884173
1021
2023.519381522861
1031
0.0
1002
}
1002
{
1000
PORI
1011
550.7718657884173
1021
2023.519381522861
1031
0.0
1002
}
1002
{
1000
PINS
1011
550.7718657884173
1021
2023.519381522861
1031
0.0
1002
}
1002
{
1000
PINS2
1011
550.7188657884173
1021
2023.520381522861
1031
0.0
1002
}
1002
{
1000
C
1070
     1
1002
}
1001
GENIUS_GENODEF_13
1002
{
1000
HIER
1070
     0
1002
}
1002
{
1000
MANEDIT
1070
     0
1002
}
1002
{
1000
NOSEL
1070
     0
1002
}
1002
{
1000
BEHIND
1070
     0
1002
}
1002
{
1000
REACTOR
1002
}
1001
GENIUS_GENOBJ-N-REC_13
1002
{
1000
OWNER
1000
GEN
1002
}
  0
LWPOLYLINE
  5
DCD
330
1F
100
AcDbEntity
  8
SANINDUSA
100
AcDbPolyline
 90
        2
 70
     0
 43
0.0
 10
550.6888657884173
 20
2023.433239047879
 10
550.6358657884174
 20
2023.433239047879
1001
GENIUS_GENREC_14
1002
{
1000
PYDIR
1011
550.7718657884173
1021
2023.520381522861
1031
0.0
1002
}
1002
{
1000
PXDIR
1011
550.7188657884173
1021
2023.519381522861
1031
0.0
1002
}
1002
{
1000
PORI
1011
550.7718657884173
1021
2023.519381522861
1031
0.0
1002
}
1002
{
1000
PINS
1011
550.7718657884173
1021
2023.519381522861
1031
0.0
1002
}
1002
{
1000
PINS2
1011
550.7188657884173
1021
2023.520381522861
1031
0.0
1002
}
1002
{
1000
C
1070
     1
1002
}
1001
GENIUS_GENODEF_13
1002
{
1000
HIER
1070
     0
1002
}
1002
{
1000
MANEDIT
1070
     0
1002
}
1002
{
1000
NOSEL
1070
     0
1002
}
1002
{
1000
BEHIND
1070
     0
1002
}
1002
{
1000
REACTOR
1002
}
1001
GENIUS_GENOBJ-N-REC_13
1002
{
1000
OWNER
1000
GEN
1002
}
  0
LINE
  5
DCE
330
1F
100
AcDbEntity
  8
SANINDUSA
100
AcDbLine
 10
550.6368657884173
 20
2023.422138995584
 30
0.0
 11
550.6958657884173
 21
2023.422138995584
 31
0.0
  0
LINE
  5
DCF
330
1F
100
AcDbEntity
  8
SANINDUSA
100
AcDbLine
 10
550.6358657884174
 20
2023.433239047879
 30
0.0
 11
550.6358657884174
 21
2023.432239047878
 31
0.0
1001
GENIUS_GENREC_14
1002
{
1000
PYDIR
1011
550.7718657884173
1021
2023.433239047879
1031
0.0
1002
}
1002
{
1000
PXDIR
1011
550.7188657884173
1021
2023.432239047878
1031
0.0
1002
}
1002
{
1000
PORI
1011
550.7718657884173
1021
2023.432239047878
1031
0.0
1002
}
1002
{
1000
PINS
1011
550.7718657884173
1021
2023.432239047878
1031
0.0
1002
}
1002
{
1000
PINS2
1011
550.7188657884173
1021
2023.433239047879
1031
0.0
1002
}
1002
{
1000
C
1070
     1
1002
}
1001
GENIUS_GENODEF_13
1002
{
1000
HIER
1070
     0
1002
}
1002
{
1000
MANEDIT
1070
     0
1002
}
1002
{
1000
NOSEL
1070
     0
1002
}
1002
{
1000
BEHIND
1070
     0
1002
}
1002
{
1000
REACTOR
1002
}
1001
GENIUS_GENOBJ-N-REC_13
1002
{
1000
OWNER
1000
GEN
1002
}
  0
ARC
  5
DD0
330
1F
100
AcDbEntity
  8
SANINDUSA
100
AcDbCircle
 10
550.6368657884173
 20
2023.423138995584
 30
0.0
 40
0.001
100
AcDbArc
 50
180.0
 51
270.0
  0
LINE
  5
DD1
330
1F
100
AcDbEntity
  8
SANINDUSA
100
AcDbLine
 10
550.6358657884172
 20
2023.432138995585
 30
0.0
 11
550.6358657884174
 21
2023.423138995584
 31
0.0
  0
ARC
  5
DD2
330
1F
100
AcDbEntity
  8
SANINDUSA
100
AcDbCircle
 10
550.7065644663065
 20
2023.432839755743
 30
0.0
 40
0.0005
100
AcDbArc
 50
279.3408341007842
 51
9.34083410826885
  0
LINE
  5
DD3
330
1F
100
AcDbEntity
  8
SANINDUSA
100
AcDbLine
 10
550.7188657884173
 20
2023.430139047878
 30
0.0
 11
550.7038657884173
 21
2023.430138995585
 31
0.0
  0
LINE
  5
DD4
330
1F
100
AcDbEntity
  8
SANINDUSA
100
AcDbLine
 10
550.7052110103422
 20
2023.430939054554
 30
0.0
 11
550.7167153120247
 21
2023.432831376047
 31
0.0
  0
LINE
  5
DD5
330
1F
100
AcDbEntity
  8
SANINDUSA
100
AcDbLine
 10
550.7070172596773
 20
2023.433167594367
 30
0.0
 11
550.7070578364526
 21
2023.432920909295
 31
0.0
  0
LINE
  5
DD6
330
1F
100
AcDbEntity
  8
SANINDUSA
100
AcDbLine
 10
550.7188657884173
 20
2023.432339047879
 30
0.0
 11
550.7188657884173
 21
2023.433339047878
 31
0.0
1001
GENIUS_GENREC_14
1002
{
1000
PYDIR
1011
550.7718657884173
1021
2023.433339047878
1031
0.0
1002
}
1002
{
1000
PXDIR
1011
550.7188657884173
1021
2023.432339047879
1031
0.0
1002
}
1002
{
1000
PORI
1011
550.7718657884173
1021
2023.432339047879
1031
0.0
1002
}
1002
{
1000
PINS
1011
550.7718657884173
1021
2023.432339047879
1031
0.0
1002
}
1002
{
1000
PINS2
1011
550.7188657884173
1021
2023.433339047878
1031
0.0
1002
}
1002
{
1000
C
1070
     1
1002
}
1001
GENIUS_GENODEF_13
1002
{
1000
HIER
1070
     0
1002
}
1002
{
1000
MANEDIT
1070
     0
1002
}
1002
{
1000
NOSEL
1070
     0
1002
}
1002
{
1000
BEHIND
1070
     0
1002
}
1002
{
1000
REACTOR
1002
}
1001
GENIUS_GENOBJ-N-REC_13
1002
{
1000
OWNER
1000
GEN
1002
}
  0
LINE
  5
DD7
330
1F
100
AcDbEntity
  8
SANINDUSA
100
AcDbLine
 10
550.7188657884173
 20
2023.432139047878
 30
0.0
 11
550.7188657884173
 21
2023.430139047878
 31
0.0
  0
ARC
  5
DD8
330
1F
100
AcDbEntity
  8
SANINDUSA
100
AcDbCircle
 10
550.7166179277636
 20
2023.433423420223
 30
0.0
 40
0.0006
100
AcDbArc
 50
279.3408341007842
 51
0.0
  0
LINE
  5
DD9
330
1F
100
AcDbEntity
  8
SANINDUSA
100
AcDbLine
 10
550.7142916597693
 20
2023.433243464243
 30
0.0
 11
550.7119153120246
 21
2023.432852583159
 31
0.0
  0
LINE
  5
DDA
330
1F
100
AcDbEntity
  8
SANINDUSA
100
AcDbLine
 10
550.7122153314139
 20
2023.433535273163
 30
0.0
 11
550.7142916597693
 21
2023.433243464243
 31
0.0
  0
LINE
  5
DDB
330
1F
100
AcDbEntity
  8
SANINDUSA
100
AcDbLine
 10
550.7143927373988
 20
2023.433582698359
 30
0.0
 11
550.7122640419992
 21
2023.433881866987
 31
0.0
  0
LINE
  5
DDC
330
1F
100
AcDbEntity
  8
SANINDUSA
100
AcDbLine
 10
550.7172179277636
 20
2023.434130175857
 30
0.0
 11
550.7155329565319
 21
2023.433853018028
 31
0.0
  0
LINE
  5
DDD
330
1F
100
AcDbEntity
  8
SANINDUSA
100
AcDbLine
 10
550.7172179277636
 20
2023.433423420223
 30
0.0
 11
550.7172179277636
 21
2023.434130175857
 31
0.0
  0
ARC
  5
DDE
330
1F
100
AcDbEntity
  8
SANINDUSA
100
AcDbCircle
 10
550.7143231508483
 20
2023.433087564325
 30
0.0
 40
0.0004999999999883
100
AcDbArc
 50
28.12637396418266
 51
82.00000000189561
  0
ARC
  5
DDF
330
1F
100
AcDbEntity
  8
SANINDUSA
100
AcDbCircle
 10
550.7146179277636
 20
2023.433905194201
 30
0.0
 40
0.0006000000000005
100
AcDbArc
 50
284.1008918057109
 51
327.5305192063584
  0
ARC
  5
DE0
330
1F
100
AcDbEntity
  8
SANINDUSA
100
AcDbCircle
 10
550.715630340793
 20
2023.433260973853
 30
0.0
 40
0.0006
100
AcDbArc
 50
99.34083410078422
 51
147.5305192063585
  0
LINE
  5
DE1
330
1F
100
AcDbEntity
  8
SANINDUSA
100
AcDbLine
 10
550.7085307766395
 20
2023.43320796124
 30
0.0
 11
550.708497370116
 21
2023.43341105502
 31
0.0
  0
LINE
  5
DE2
330
1F
100
AcDbEntity
  8
SANINDUSA
100
AcDbLine
 10
550.710967821836
 20
2023.433102107391
 30
0.0
 11
550.7091053003366
 21
2023.432795744644
 31
0.0
  0
ARC
  5
DE3
330
1F
100
AcDbEntity
  8
SANINDUSA
100
AcDbCircle
 10
550.711065206097
 20
2023.432510063216
 30
0.0
 40
0.0006000000000005
100
AcDbArc
 50
51.15114899661368
 51
99.34083410078422
  0
ARC
  5
DE4
330
1F
100
AcDbEntity
  8
SANINDUSA
100
AcDbCircle
 10
550.7090241467858
 20
2023.433289114791
 30
0.0
 40
0.0005
100
AcDbArc
 50
189.3408341082688
 51
279.3408341007842
  0
ARC
  5
DE5
330
1F
100
AcDbEntity
  8
SANINDUSA
100
AcDbCircle
 10
550.7122396867065
 20
2023.433708570076
 30
0.0
 40
0.000175
100
AcDbArc
 50
82.00000000189561
 51
262.0000000018956
  0
ARC
  5
DE6
330
1F
100
AcDbEntity
  8
SANINDUSA
100
AcDbCircle
 10
550.7118179277636
 20
2023.433444627334
 30
0.0
 40
0.0006
100
AcDbArc
 50
231.1511489966137
 51
279.3408341007842
  0
ARC
  5
DE7
330
1F
100
AcDbEntity
  8
SANINDUSA
100
AcDbCircle
 10
550.7077573148966
 20
2023.433289324694
 30
0.0
 40
0.00075
100
AcDbArc
 50
9.34083410826885
 51
189.3408341082688
  0
LINE
  5
DE8
330
1F
100
AcDbEntity
  8
SANINDUSA
100
AcDbLine
 10
550.6888657884172
 20
2023.430138995585
 30
0.0
 11
550.7038658340136
 21
2023.430138995585
 31
0.0
  0
LINE
  5
DE9
330
1F
100
AcDbEntity
  8
SANINDUSA
100
AcDbLine
 10
550.6888657884173
 20
2023.432239047878
 30
0.0
 11
550.6888657884173
 21
2023.433239047879
 31
0.0
1001
GENIUS_GENREC_14
1002
{
1000
PYDIR
1011
550.7718657884173
1021
2023.433239047879
1031
0.0
1002
}
1002
{
1000
PXDIR
1011
550.7188657884173
1021
2023.432239047878
1031
0.0
1002
}
1002
{
1000
PORI
1011
550.7718657884173
1021
2023.432239047878
1031
0.0
1002
}
1002
{
1000
PINS
1011
550.7718657884173
1021
2023.432239047878
1031
0.0
1002
}
1002
{
1000
PINS2
1011
550.7188657884173
1021
2023.433239047879
1031
0.0
1002
}
1002
{
1000
C
1070
     1
1002
}
1001
GENIUS_GENODEF_13
1002
{
1000
HIER
1070
     0
1002
}
1002
{
1000
MANEDIT
1070
     0
1002
}
1002
{
1000
NOSEL
1070
     0
1002
}
1002
{
1000
BEHIND
1070
     0
1002
}
1002
{
1000
REACTOR
1002
}
1001
GENIUS_GENOBJ-N-REC_13
1002
{
1000
OWNER
1000
GEN
1002
}
  0
LINE
  5
DEA
330
1F
100
AcDbEntity
  8
SANINDUSA
100
AcDbLine
 10
550.6888657884172
 20
2023.430138995585
 30
0.0
 11
550.6888657884172
 21
2023.432138995585
 31
0.0
  0
LINE
  5
DEB
330
1F
100
AcDbEntity
  8
SANINDUSA
100
AcDbLine
 10
550.7066456198573
 20
2023.432346385597
 30
0.0
 11
550.7060631726784
 21
2023.432250579928
 31
0.0
  0
ARC
  5
DEC
330
1F
100
AcDbEntity
  8
SANINDUSA
100
AcDbCircle
 10
550.7059657884174
 20
2023.432842624104
 30
0.0
 40
0.0006
100
AcDbArc
 50
180.0
 51
279.3408341007842
  0
LINE
  5
DED
330
1F
100
AcDbEntity
  8
SANINDUSA
100
AcDbLine
 10
550.7052110103422
 20
2023.430939054554
 30
0.0
 11
550.7042179277637
 21
2023.430939054554
 31
0.0
  0
CIRCLE
  5
E24
330
1F
100
AcDbEntity
  8
SANINDUSA
100
AcDbCircle
 10
550.7038657884173
 20
2023.422138995585
 30
0.0
 40
0.008
  0
LINE
  5
E27
330
1F
100
AcDbEntity
  8
SANINDUSA
100
AcDbLine
 10
550.7127546773063
 20
2023.422138995585
 30
0.0
 11
550.7127546773063
 21
2023.430139047878
 31
0.0
  0
LINE
  5
E28
330
1F
100
AcDbEntity
  8
SANINDUSA
100
AcDbLine
 10
550.6949768995283
 20
2023.422138995584
 30
0.0
 11
550.6949768995283
 21
2023.430138995585
 31
0.0
  0
LINE
  5
E29
330
1F
100
AcDbEntity
  8
SANINDUSA
100
AcDbLine
 10
550.7718657884173
 20
2023.433339047878
 30
0.0
 11
550.7718657884173
 21
2023.432339047879
 31
0.0
1001
GENIUS_GENREC_14
1002
{
1000
PYDIR
1011
550.7718657884173
1021
2023.433339047878
1031
0.0
1002
}
1002
{
1000
PXDIR
1011
550.7188657884173
1021
2023.432339047879
1031
0.0
1002
}
1002
{
1000
PORI
1011
550.7718657884173
1021
2023.432339047879
1031
0.0
1002
}
1002
{
1000
PINS
1011
550.7718657884173
1021
2023.432339047879
1031
0.0
1002
}
1002
{
1000
PINS2
1011
550.7188657884173
1021
2023.433339047878
1031
0.0
1002
}
1002
{
1000
C
1070
     1
1002
}
1001
GENIUS_GENODEF_13
1002
{
1000
HIER
1070
     0
1002
}
1002
{
1000
MANEDIT
1070
     0
1002
}
1002
{
1000
NOSEL
1070
     0
1002
}
1002
{
1000
BEHIND
1070
     0
1002
}
1002
{
1000
REACTOR
1002
}
1001
GENIUS_GENOBJ-N-REC_13
1002
{
1000
OWNER
1000
GEN
1002
}
  0
ARC
  5
E2A
330
1F
100
AcDbEntity
  8
SANINDUSA
100
AcDbCircle
 10
550.7708657884173
 20
2023.423138995585
 30
0.0
 40
0.001
100
AcDbArc
 50
270.0
 51
0.0
  0
LINE
  5
E2B
330
1F
100
AcDbEntity
  8
SANINDUSA
100
AcDbLine
 10
550.7718657884173
 20
2023.432139047878
 30
0.0
 11
550.7718657884173
 21
2023.423138995585
 31
0.0
  0
LINE
  5
E2C
330
1F
100
AcDbEntity
  8
SANINDUSA
100
AcDbLine
 10
550.7708657884173
 20
2023.445939047879
 30
0.0
 11
550.7198657884173
 21
2023.445939047879
 31
0.0
  0
LINE
  5
E2D
330
1F
100
AcDbEntity
  8
SANINDUSA
100
AcDbLine
 10
550.7188657884173
 20
2023.440939047878
 30
0.0
 11
550.7718657884173
 21
2023.440939047878
 31
0.0
  0
LWPOLYLINE
  5
E2E
330
1F
100
AcDbEntity
  8
SANINDUSA
100
AcDbPolyline
 90
        4
 70
     1
 43
0.0
 10
550.7718657884173
 20
2023.440739047879
 10
550.7188657884173
 20
2023.440739047879
 10
550.7188657884173
 20
2023.439739047879
 10
550.7718657884173
 20
2023.439739047879
1001
GENIUS_GENREC_14
1002
{
1000
PYDIR
1011
550.4725835313382
1021
2023.81996377994
1031
0.0
1002
}
1002
{
1000
PXDIR
1011
550.4195835313383
1021
2023.81896377994
1031
0.0
1002
}
1002
{
1000
PORI
1011
550.4725835313382
1021
2023.81896377994
1031
0.0
1002
}
1002
{
1000
PINS
1011
550.4725835313382
1021
2023.81896377994
1031
0.0
1002
}
1002
{
1000
PINS2
1011
550.4195835313383
1021
2023.81996377994
1031
0.0
1002
}
1002
{
1000
C
1070
     1
1002
}
1001
GENIUS_GENODEF_13
1002
{
1000
HIER
1070
     0
1002
}
1002
{
1000
MANEDIT
1070
     0
1002
}
1002
{
1000
NOSEL
1070
     0
1002
}
1002
{
1000
BEHIND
1070
     0
1002
}
1002
{
1000
REACTOR
1002
}
1001
GENIUS_GENOBJ-N-REC_13
1002
{
1000
OWNER
1000
GEN
1002
}
  0
LINE
  5
E2F
330
1F
100
AcDbEntity
  8
SANINDUSA
100
AcDbLine
 10
550.3893410954435
 20
2023.439539047878
 30
-0.0000000000545587
 11
550.7083657884173
 21
2023.439539047878
 31
0.0
  0
LINE
  5
E30
330
1F
100
AcDbEntity
  8
SANINDUSA
100
AcDbLine
 10
550.6368657884173
 20
2023.445939047879
 30
0.0
 11
550.6878657884174
 21
2023.445939047879
 31
0.0
  0
LINE
  5
E31
330
1F
100
AcDbEntity
  8
SANINDUSA
100
AcDbLine
 10
550.6888657884173
 20
2023.440939047878
 30
0.0
 11
550.6358657884174
 21
2023.440939047878
 31
0.0
  0
LWPOLYLINE
  5
E32
330
1F
100
AcDbEntity
  8
SANINDUSA
100
AcDbPolyline
 90
        4
 70
     1
 43
0.0
 10
550.6358657884174
 20
2023.440739047879
 10
550.6888657884173
 20
2023.440739047879
 10
550.6888657884173
 20
2023.439739047879
 10
550.6358657884174
 20
2023.439739047879
1001
GENIUS_GENREC_14
1002
{
1000
PYDIR
1011
550.7718657884173
1021
2023.520681522861
1031
0.0
1002
}
1002
{
1000
PXDIR
1011
550.7188657884173
1021
2023.519681522861
1031
0.0
1002
}
1002
{
1000
PORI
1011
550.7718657884173
1021
2023.519681522861
1031
0.0
1002
}
1002
{
1000
PINS
1011
550.7718657884173
1021
2023.519681522861
1031
0.0
1002
}
1002
{
1000
PINS2
1011
550.7188657884173
1021
2023.520681522861
1031
0.0
1002
}
1002
{
1000
C
1070
     1
1002
}
1001
GENIUS_GENODEF_13
1002
{
1000
HIER
1070
     0
1002
}
1002
{
1000
MANEDIT
1070
     0
1002
}
1002
{
1000
NOSEL
1070
     0
1002
}
1002
{
1000
BEHIND
1070
     0
1002
}
1002
{
1000
REACTOR
1002
}
1001
GENIUS_GENOBJ-N-REC_13
1002
{
1000
OWNER
1000
GEN
1002
}
  0
ARC
  5
E33
330
1F
100
AcDbEntity
  8
SANINDUSA
100
AcDbCircle
 10
550.6368657884173
 20
2023.444939047879
 30
0.0
 40
0.001
100
AcDbArc
 50
90.0
 51
180.0
  0
LINE
  5
E34
330
1F
100
AcDbEntity
  8
SANINDUSA
100
AcDbLine
 10
550.6358657884174
 20
2023.440939047878
 30
0.0
 11
550.6358657884174
 21
2023.444939047879
 31
0.0
  0
ARC
  5
E35
330
1F
100
AcDbEntity
  8
SANINDUSA
100
AcDbCircle
 10
550.7065644663065
 20
2023.440238353365
 30
0.0
 40
0.0005
100
AcDbArc
 50
350.6591658917312
 51
80.65916589921577
  0
LINE
  5
E36
330
1F
100
AcDbEntity
  8
SANINDUSA
100
AcDbLine
 10
550.7167153120247
 20
2023.440246733061
 30
0.0
 11
550.7052110103422
 21
2023.442139054554
 31
0.0
  0
LINE
  5
E37
330
1F
100
AcDbEntity
  8
SANINDUSA
100
AcDbLine
 10
550.7070578364526
 20
2023.440157199814
 30
0.0
 11
550.7070172596773
 21
2023.439910514741
 31
0.0
  0
ARC
  5
E38
330
1F
100
AcDbEntity
  8
SANINDUSA
100
AcDbCircle
 10
550.7198657884173
 20
2023.444939047879
 30
0.0
 40
0.001
100
AcDbArc
 50
90.0
 51
180.0
  0
LINE
  5
E39
330
1F
100
AcDbEntity
  8
SANINDUSA
100
AcDbLine
 10
550.7188657884173
 20
2023.440939047878
 30
0.0
 11
550.7188657884173
 21
2023.444939047879
 31
0.0
  0
ARC
  5
E3A
330
1F
100
AcDbEntity
  8
SANINDUSA
100
AcDbCircle
 10
550.7166179277636
 20
2023.439654688885
 30
0.0
 40
0.0006
100
AcDbArc
 50
0.0
 51
80.65916589921577
  0
LINE
  5
E3B
330
1F
100
AcDbEntity
  8
SANINDUSA
100
AcDbLine
 10
550.7142916597693
 20
2023.439834644865
 30
0.0
 11
550.7122153314139
 21
2023.439542835945
 31
0.0
  0
LINE
  5
E3C
330
1F
100
AcDbEntity
  8
SANINDUSA
100
AcDbLine
 10
550.7119153120246
 20
2023.440225525949
 30
0.0
 11
550.7142916597693
 21
2023.439834644865
 31
0.0
  0
LINE
  5
E3D
330
1F
100
AcDbEntity
  8
SANINDUSA
100
AcDbLine
 10
550.7122640419992
 20
2023.43919624212
 30
0.0
 11
550.7143927373988
 21
2023.439495410749
 31
0.0
  0
ARC
  5
E3E
330
1F
100
AcDbEntity
  8
SANINDUSA
100
AcDbCircle
 10
550.7146179277636
 20
2023.439172914907
 30
0.0
 40
0.0005999999999989
100
AcDbArc
 50
32.46948079364152
 51
75.89910819428901
  0
ARC
  5
E3F
330
1F
100
AcDbEntity
  8
SANINDUSA
100
AcDbCircle
 10
550.715630340793
 20
2023.439817135256
 30
0.0
 40
0.0006
100
AcDbArc
 50
212.4694807936415
 51
260.6591658992158
  0
ARC
  5
E40
330
1F
100
AcDbEntity
  8
SANINDUSA
100
AcDbCircle
 10
550.7143231508483
 20
2023.439990544784
 30
0.0
 40
0.0005
100
AcDbArc
 50
277.9999999981044
 51
331.8736260327467
  0
ARC
  5
E41
330
1F
100
AcDbEntity
  8
SANINDUSA
100
AcDbCircle
 10
550.711065206097
 20
2023.440568045893
 30
0.0
 40
0.0006000000000005
100
AcDbArc
 50
260.6591658992158
 51
308.8488510033863
  0
LINE
  5
E42
330
1F
100
AcDbEntity
  8
SANINDUSA
100
AcDbLine
 10
550.7090884648973
 20
2023.440285133695
 30
0.0
 11
550.710967821836
 21
2023.439976001717
 31
0.0
  0
LINE
  5
E43
330
1F
100
AcDbEntity
  8
SANINDUSA
100
AcDbLine
 10
550.708497370116
 20
2023.439667054088
 30
0.0
 11
550.7085379468914
 21
2023.439913739161
 31
0.0
  0
ARC
  5
E44
330
1F
100
AcDbEntity
  8
SANINDUSA
100
AcDbCircle
 10
550.7122396867065
 20
2023.439369539033
 30
0.0
 40
0.000175
100
AcDbArc
 50
97.99999999810438
 51
277.9999999981044
  0
ARC
  5
E45
330
1F
100
AcDbEntity
  8
SANINDUSA
100
AcDbCircle
 10
550.7118179277636
 20
2023.439633481774
 30
0.0
 40
0.0006
100
AcDbArc
 50
80.65916589921577
 51
128.8488510033863
  0
ARC
  5
E46
330
1F
100
AcDbEntity
  8
SANINDUSA
100
AcDbCircle
 10
550.7090073113466
 20
2023.439791763548
 30
0.0
 40
0.0005
100
AcDbArc
 50
80.65916589921577
 51
180.1365535742075
  0
ARC
  5
E47
330
1F
100
AcDbEntity
  8
SANINDUSA
100
AcDbCircle
 10
550.6878657884174
 20
2023.444939047879
 30
0.0
 40
0.001
100
AcDbArc
 50
0.0
 51
90.0
  0
LINE
  5
E48
330
1F
100
AcDbEntity
  8
SANINDUSA
100
AcDbLine
 10
550.6888657884173
 20
2023.440939047878
 30
0.0
 11
550.6888657884173
 21
2023.444939047879
 31
0.0
  0
LINE
  5
E49
330
1F
100
AcDbEntity
  8
SANINDUSA
100
AcDbLine
 10
550.7052110103422
 20
2023.442139054554
 30
0.0
 11
550.7042179277637
 21
2023.442139054554
 31
0.0
  0
LINE
  5
E4A
330
1F
100
AcDbEntity
  8
SANINDUSA
100
AcDbLine
 10
550.7060631726784
 20
2023.44082752918
 30
0.0
 11
550.7066456198573
 21
2023.440731723511
 31
0.0
  0
ARC
  5
E4B
330
1F
100
AcDbEntity
  8
SANINDUSA
100
AcDbCircle
 10
550.7059657884174
 20
2023.440235485004
 30
0.0
 40
0.0006
100
AcDbArc
 50
80.65916589921577
 51
180.0
  0
ARC
  5
E4C
330
1F
100
AcDbEntity
  8
SANINDUSA
100
AcDbCircle
 10
550.7708657884173
 20
2023.444939047879
 30
0.0
 40
0.001
100
AcDbArc
 50
0.0
 51
90.0
  0
LINE
  5
E4D
330
1F
100
AcDbEntity
  8
SANINDUSA
100
AcDbLine
 10
550.7718657884173
 20
2023.440939047878
 30
0.0
 11
550.7718657884173
 21
2023.444939047879
 31
0.0
  0
INSERT
  5
E4E
330
1F
100
AcDbEntity
  8
SANINDUSA
100
AcDbBlockReference
  2
guarnizione
 10
551.2053303350699
 20
2023.436539054554
 30
0.0
 41
-0.001
 42
0.001
 43
0.001
  0
LINE
  5
E4F
330
1F
100
AcDbEntity
  8
SANINDUSA
100
AcDbLine
 10
551.2053303350699
 20
2023.439539054554
 30
0.0
 11
551.2053303350699
 21
2023.433539054554
 31
0.0
  0
LINE
  5
E50
330
1F
100
AcDbEntity
  8
SANINDUSA
100
AcDbLine
 10
551.2053303350699
 20
2023.439539054554
 30
0.0
 11
551.2053303350699
 21
2023.433539054554
 31
0.0
  0
LINE
  5
E51
330
1F
100
AcDbEntity
  8
SANINDUSA
100
AcDbLine
 10
549.3227617667822
 20
2022.491716429294
 30
0.0
 11
550.2015617667823
 21
2022.491716429294
 31
0.0
  0
LINE
  5
E53
330
1F
100
AcDbEntity
  8
SANINDUSA
100
AcDbLine
 10
549.3507617667822
 20
2022.491716429294
 30
0.0
 11
549.3107617667823
 21
2022.491716429294
 31
0.0
  0
LINE
  5
E54
330
1F
100
AcDbEntity
  8
SANINDUSA
100
AcDbLine
 10
549.3107617667823
 20
2022.503716429294
 30
0.0
 11
549.3107617667823
 21
2022.782905495876
 31
0.0
  0
LINE
  5
E5A
330
1F
100
AcDbEntity
  8
SANINDUSA
100
AcDbLine
 10
549.6747617667822
 20
2022.491716429294
 30
0.0
 11
549.6747617667822
 21
2022.762716429294
 31
0.0
  0
LINE
  5
E5B
330
1F
100
AcDbEntity
  8
SANINDUSA
100
AcDbLine
 10
549.6777617667823
 20
2022.501716429294
 30
0.0
 11
549.6777617667823
 21
2022.762716429294
 31
0.0
  0
LINE
  5
E5C
330
1F
100
AcDbEntity
  8
SANINDUSA
100
AcDbLine
 10
549.6777617667823
 20
2022.501716429294
 30
0.0
 11
550.1777617667823
 21
2022.501716429294
 31
0.0
  0
LINE
  5
E5F
330
1F
100
AcDbEntity
  8
SANINDUSA
100
AcDbLine
 10
550.1832617667822
 20
2022.501716429294
 30
0.0
 11
550.1892617667822
 21
2022.501716429294
 31
0.0
  0
CIRCLE
  5
E83
330
1F
100
AcDbEntity
  8
SANINDUSA
100
AcDbCircle
 10
550.1277617667823
 20
2023.421715661347
 30
0.0
 40
0.004
  0
LINE
  5
E9E
330
1F
100
AcDbEntity
  8
SANINDUSA
100
AcDbLine
 10
549.3107617667823
 20
2024.341716429294
 30
0.0
 11
549.6747617667822
 21
2024.341716429294
 31
0.0
  0
LINE
  5
EA0
330
1F
100
AcDbEntity
  8
SANINDUSA
100
AcDbLine
 10
549.6777617667823
 20
2024.341716429294
 30
0.0
 11
550.2015617667823
 21
2024.341716429294
 31
0.0
  0
LINE
  5
EA1
330
1F
100
AcDbEntity
  8
SANINDUSA
100
AcDbLine
 10
549.6747617667822
 20
2024.070716429284
 30
0.0
 11
549.6747617667822
 21
2024.341716429294
 31
0.0
  0
LINE
  5
EA2
330
1F
100
AcDbEntity
  8
SANINDUSA
100
AcDbLine
 10
549.6777617667823
 20
2024.070716429284
 30
0.0
 11
549.6777617667823
 21
2024.341716429294
 31
0.0
  0
LINE
  5
1175
330
1F
100
AcDbEntity
  8
SANINDUSA
100
AcDbLine
 10
549.6851506556711
 20
2022.804216429294
 30
-0.0000000017937957
 11
549.7432617667822
 21
2022.804216429294
 31
-0.0000000017937957
  0
LINE
  5
1176
330
1F
100
AcDbEntity
  8
SANINDUSA
100
AcDbLine
 10
549.7432617667822
 20
2022.769216429294
 30
-0.0000000017937957
 11
549.6842617667821
 21
2022.769216429294
 31
-0.0000000017937957
  0
LINE
  5
1177
330
1F
100
AcDbEntity
  8
SANINDUSA
100
AcDbLine
 10
549.6832617667823
 20
2022.810716429294
 30
-0.0000000017937957
 11
549.6692617667823
 21
2022.810716429294
 31
-0.0000000017937957
  0
LINE
  5
1178
330
1F
100
AcDbEntity
  8
SANINDUSA
100
AcDbLine
 10
549.6842617667821
 20
2022.784716429294
 30
-0.0000000017937957
 11
549.6682617667821
 21
2022.784716429294
 31
-0.0000000017937957
  0
LINE
  5
1179
330
1F
100
AcDbEntity
  8
SANINDUSA
100
AcDbLine
 10
549.6673728778932
 20
2022.788716429294
 30
-0.0000000017937957
 11
549.6842617667822
 21
2022.788716429294
 31
-0.0000000017937957
  0
ARC
  5
117A
330
1F
100
AcDbEntity
  8
SANINDUSA
100
AcDbCircle
 10
549.6832617667823
 20
2022.809716429294
 30
-0.0000000017937957
 40
0.001
100
AcDbArc
 50
0.0
 51
90.0
  0
LINE
  5
117B
330
1F
100
AcDbEntity
  8
SANINDUSA
100
AcDbLine
 10
549.6842617667821
 20
2022.784716429294
 30
-0.0000000017937957
 11
549.6851506556711
 21
2022.784716429294
 31
-0.0000000017937957
  0
LINE
  5
117C
330
1F
100
AcDbEntity
  8
SANINDUSA
100
AcDbLine
 10
549.6837617667821
 20
2022.788716429294
 30
-0.0000000017937957
 11
549.6837617667821
 21
2022.784716429294
 31
-0.0000000017937957
  0
LINE
  5
117D
330
1F
100
AcDbEntity
  8
SANINDUSA
100
AcDbLine
 10
549.6851506556711
 20
2022.784716429294
 30
-0.0000000017937957
 11
549.6851506556711
 21
2022.804216429294
 31
-0.0000000017937957
  0
LINE
  5
117E
330
1F
100
AcDbEntity
  8
SANINDUSA
100
AcDbLine
 10
549.6842617667822
 20
2022.788716429294
 30
-0.0000000017937957
 11
549.6842617667822
 21
2022.809716429294
 31
-0.0000000017937957
  0
LINE
  5
117F
330
1F
100
AcDbEntity
  8
SANINDUSA
100
AcDbLine
 10
549.6692617667821
 20
2022.762716429294
 30
-0.0000000017937957
 11
549.6832617667821
 21
2022.762716429294
 31
-0.0000000017937957
  0
ARC
  5
1180
330
1F
100
AcDbEntity
  8
SANINDUSA
100
AcDbCircle
 10
549.6832617667821
 20
2022.763716429293
 30
-0.0000000017937957
 40
0.001
100
AcDbArc
 50
270.0
 51
0.0
  0
LINE
  5
1181
330
1F
100
AcDbEntity
  8
SANINDUSA
100
AcDbLine
 10
549.6842617667821
 20
2022.763716429293
 30
-0.0000000017937957
 11
549.6842617667821
 21
2022.784716429294
 31
-0.0000000017937957
  0
ARC
  5
1182
330
1F
100
AcDbEntity
  8
SANINDUSA
100
AcDbCircle
 10
549.7432617667822
 20
2022.803216429294
 30
-0.0000000017937957
 40
0.001
100
AcDbArc
 50
0.0
 51
90.0
  0
ARC
  5
1183
330
1F
100
AcDbEntity
  8
SANINDUSA
100
AcDbCircle
 10
549.7432617667822
 20
2022.770216429293
 30
-0.0000000017937957
 40
0.001
100
AcDbArc
 50
270.0
 51
0.0
  0
LINE
  5
1184
330
1F
100
AcDbEntity
  8
SANINDUSA
100
AcDbLine
 10
549.7442617667822
 20
2022.803216429294
 30
-0.0000000017937957
 11
549.7442617667822
 21
2022.770216429293
 31
-0.0000000017937957
  0
LINE
  5
1185
330
1F
100
AcDbEntity
  8
SANINDUSA
100
AcDbLine
 10
549.6682617667822
 20
2022.804216429294
 30
-0.0000000017937957
 11
549.6092617667823
 21
2022.804216429294
 31
-0.0000000017937957
  0
LINE
  5
1186
330
1F
100
AcDbEntity
  8
SANINDUSA
100
AcDbLine
 10
549.6092617667823
 20
2022.769216429294
 30
-0.0000000017937957
 11
549.6673728778932
 21
2022.769216429294
 31
-0.0000000017937957
  0
ARC
  5
1187
330
1F
100
AcDbEntity
  8
SANINDUSA
100
AcDbCircle
 10
549.6092617667823
 20
2022.803216429294
 30
-0.0000000017937957
 40
0.001
100
AcDbArc
 50
90.0
 51
180.0
  0
ARC
  5
1188
330
1F
100
AcDbEntity
  8
SANINDUSA
100
AcDbCircle
 10
549.6092617667823
 20
2022.770216429293
 30
-0.0000000017937957
 40
0.001
100
AcDbArc
 50
180.0
 51
270.0
  0
LINE
  5
1189
330
1F
100
AcDbEntity
  8
SANINDUSA
100
AcDbLine
 10
549.6082617667823
 20
2022.803216429294
 30
-0.0000000017937957
 11
549.6082617667823
 21
2022.770216429293
 31
-0.0000000017937957
  0
LINE
  5
118A
330
1F
100
AcDbEntity
  8
SANINDUSA
100
AcDbLine
 10
549.6687617667821
 20
2022.788716429294
 30
-0.0000000017937957
 11
549.6687617667821
 21
2022.784716429294
 31
-0.0000000017937957
  0
LINE
  5
118B
330
1F
100
AcDbEntity
  8
SANINDUSA
100
AcDbLine
 10
549.6682617667822
 20
2022.809716429294
 30
-0.0000000017937957
 11
549.6682617667822
 21
2022.804216429294
 31
-0.0000000017937957
  0
LINE
  5
118C
330
1F
100
AcDbEntity
  8
SANINDUSA
100
AcDbLine
 10
549.6682617667822
 20
2022.804216429294
 30
-0.0000000017937957
 11
549.6682617667822
 21
2022.788716429294
 31
-0.0000000017937957
  0
ARC
  5
118D
330
1F
100
AcDbEntity
  8
SANINDUSA
100
AcDbCircle
 10
549.6692617667823
 20
2022.809716429294
 30
-0.0000000017937957
 40
0.001
100
AcDbArc
 50
90.0
 51
180.0
  0
ARC
  5
118E
330
1F
100
AcDbEntity
  8
SANINDUSA
100
AcDbCircle
 10
549.6692617667821
 20
2022.763716429293
 30
-0.0000000017937957
 40
0.001
100
AcDbArc
 50
180.0
 51
270.0
  0
LINE
  5
118F
330
1F
100
AcDbEntity
  8
SANINDUSA
100
AcDbLine
 10
549.6673728778932
 20
2022.769216429294
 30
-0.0000000017937957
 11
549.6673728778932
 21
2022.788716429294
 31
-0.0000000017937957
  0
LINE
  5
1190
330
1F
100
AcDbEntity
  8
SANINDUSA
100
AcDbLine
 10
549.6682617667821
 20
2022.784716429294
 30
-0.0000000017937957
 11
549.6682617667821
 21
2022.763716429293
 31
-0.0000000017937957
  0
LINE
  5
1191
330
1F
100
AcDbEntity
  8
SANINDUSA
100
AcDbLine
 10
549.6851506556711
 20
2024.064216429284
 30
-0.0000000017937957
 11
549.7432617667822
 21
2024.064216429284
 31
-0.0000000017937957
  0
LINE
  5
1192
330
1F
100
AcDbEntity
  8
SANINDUSA
100
AcDbLine
 10
549.7432617667822
 20
2024.029216429284
 30
-0.0000000017937957
 11
549.6842617667821
 21
2024.029216429284
 31
-0.0000000017937957
  0
LINE
  5
1193
330
1F
100
AcDbEntity
  8
SANINDUSA
100
AcDbLine
 10
549.6832617667823
 20
2024.070716429284
 30
-0.0000000017937957
 11
549.6692617667823
 21
2024.070716429284
 31
-0.0000000017937957
  0
LINE
  5
1194
330
1F
100
AcDbEntity
  8
SANINDUSA
100
AcDbLine
 10
549.6842617667821
 20
2024.044716429284
 30
-0.0000000017937957
 11
549.6682617667821
 21
2024.044716429284
 31
-0.0000000017937957
  0
LINE
  5
1195
330
1F
100
AcDbEntity
  8
SANINDUSA
100
AcDbLine
 10
549.6673728778932
 20
2024.048716429284
 30
-0.0000000017937957
 11
549.6842617667822
 21
2024.048716429284
 31
-0.0000000017937957
  0
ARC
  5
1196
330
1F
100
AcDbEntity
  8
SANINDUSA
100
AcDbCircle
 10
549.6832617667823
 20
2024.069716429284
 30
-0.0000000017937957
 40
0.001
100
AcDbArc
 50
0.0
 51
90.0
  0
LINE
  5
1197
330
1F
100
AcDbEntity
  8
SANINDUSA
100
AcDbLine
 10
549.6842617667821
 20
2024.044716429284
 30
-0.0000000017937957
 11
549.6851506556711
 21
2024.044716429284
 31
-0.0000000017937957
  0
LINE
  5
1198
330
1F
100
AcDbEntity
  8
SANINDUSA
100
AcDbLine
 10
549.6837617667821
 20
2024.048716429284
 30
-0.0000000017937957
 11
549.6837617667821
 21
2024.044716429284
 31
-0.0000000017937957
  0
LINE
  5
1199
330
1F
100
AcDbEntity
  8
SANINDUSA
100
AcDbLine
 10
549.6851506556711
 20
2024.044716429284
 30
-0.0000000017937957
 11
549.6851506556711
 21
2024.064216429284
 31
-0.0000000017937957
  0
LINE
  5
119A
330
1F
100
AcDbEntity
  8
SANINDUSA
100
AcDbLine
 10
549.6842617667822
 20
2024.048716429284
 30
-0.0000000017937957
 11
549.6842617667822
 21
2024.069716429284
 31
-0.0000000017937957
  0
LINE
  5
119B
330
1F
100
AcDbEntity
  8
SANINDUSA
100
AcDbLine
 10
549.6692617667821
 20
2024.022716429284
 30
-0.0000000017937957
 11
549.6832617667821
 21
2024.022716429284
 31
-0.0000000017937957
  0
ARC
  5
119C
330
1F
100
AcDbEntity
  8
SANINDUSA
100
AcDbCircle
 10
549.6832617667821
 20
2024.023716429284
 30
-0.0000000017937957
 40
0.001
100
AcDbArc
 50
270.0
 51
0.0
  0
LINE
  5
119D
330
1F
100
AcDbEntity
  8
SANINDUSA
100
AcDbLine
 10
549.6842617667821
 20
2024.023716429284
 30
-0.0000000017937957
 11
549.6842617667821
 21
2024.044716429284
 31
-0.0000000017937957
  0
ARC
  5
119E
330
1F
100
AcDbEntity
  8
SANINDUSA
100
AcDbCircle
 10
549.7432617667822
 20
2024.063216429284
 30
-0.0000000017937957
 40
0.001
100
AcDbArc
 50
0.0
 51
90.0
  0
ARC
  5
119F
330
1F
100
AcDbEntity
  8
SANINDUSA
100
AcDbCircle
 10
549.7432617667822
 20
2024.030216429284
 30
-0.0000000017937957
 40
0.001
100
AcDbArc
 50
270.0
 51
0.0
  0
LINE
  5
11A0
330
1F
100
AcDbEntity
  8
SANINDUSA
100
AcDbLine
 10
549.7442617667822
 20
2024.063216429284
 30
-0.0000000017937957
 11
549.7442617667822
 21
2024.030216429284
 31
-0.0000000017937957
  0
LINE
  5
11A1
330
1F
100
AcDbEntity
  8
SANINDUSA
100
AcDbLine
 10
549.6682617667822
 20
2024.064216429284
 30
-0.0000000017937957
 11
549.6092617667823
 21
2024.064216429284
 31
-0.0000000017937957
  0
LINE
  5
11A2
330
1F
100
AcDbEntity
  8
SANINDUSA
100
AcDbLine
 10
549.6092617667823
 20
2024.029216429284
 30
-0.0000000017937957
 11
549.6673728778932
 21
2024.029216429284
 31
-0.0000000017937957
  0
ARC
  5
11A3
330
1F
100
AcDbEntity
  8
SANINDUSA
100
AcDbCircle
 10
549.6092617667823
 20
2024.063216429284
 30
-0.0000000017937957
 40
0.001
100
AcDbArc
 50
90.0
 51
180.0
  0
ARC
  5
11A4
330
1F
100
AcDbEntity
  8
SANINDUSA
100
AcDbCircle
 10
549.6092617667823
 20
2024.030216429284
 30
-0.0000000017937957
 40
0.001
100
AcDbArc
 50
180.0
 51
270.0
  0
LINE
  5
11A5
330
1F
100
AcDbEntity
  8
SANINDUSA
100
AcDbLine
 10
549.6082617667823
 20
2024.063216429284
 30
-0.0000000017937957
 11
549.6082617667823
 21
2024.030216429284
 31
-0.0000000017937957
  0
LINE
  5
11A6
330
1F
100
AcDbEntity
  8
SANINDUSA
100
AcDbLine
 10
549.6687617667821
 20
2024.048716429284
 30
-0.0000000017937957
 11
549.6687617667821
 21
2024.044716429284
 31
-0.0000000017937957
  0
LINE
  5
11A7
330
1F
100
AcDbEntity
  8
SANINDUSA
100
AcDbLine
 10
549.6682617667822
 20
2024.069716429284
 30
-0.0000000017937957
 11
549.6682617667822
 21
2024.064216429284
 31
-0.0000000017937957
  0
LINE
  5
11A8
330
1F
100
AcDbEntity
  8
SANINDUSA
100
AcDbLine
 10
549.6682617667822
 20
2024.064216429284
 30
-0.0000000017937957
 11
549.6682617667822
 21
2024.048716429284
 31
-0.0000000017937957
  0
ARC
  5
11A9
330
1F
100
AcDbEntity
  8
SANINDUSA
100
AcDbCircle
 10
549.6692617667823
 20
2024.069716429284
 30
-0.0000000017937957
 40
0.001
100
AcDbArc
 50
90.0
 51
180.0
  0
ARC
  5
11AA
330
1F
100
AcDbEntity
  8
SANINDUSA
100
AcDbCircle
 10
549.6692617667821
 20
2024.023716429284
 30
-0.0000000017937957
 40
0.001
100
AcDbArc
 50
180.0
 51
270.0
  0
LINE
  5
11AB
330
1F
100
AcDbEntity
  8
SANINDUSA
100
AcDbLine
 10
549.6673728778932
 20
2024.029216429284
 30
-0.0000000017937957
 11
549.6673728778932
 21
2024.048716429284
 31
-0.0000000017937957
  0
LINE
  5
11AC
330
1F
100
AcDbEntity
  8
SANINDUSA
100
AcDbLine
 10
549.6682617667821
 20
2024.044716429284
 30
-0.0000000017937957
 11
549.6682617667821
 21
2024.023716429284
 31
-0.0000000017937957
  0
ARC
  5
11AD
330
1F
100
AcDbEntity
  8
SANINDUSA
100
AcDbCircle
 10
550.3477190716836
 20
2023.444239047879
 30
-0.0000000000545587
 40
0.0009999999999999
100
AcDbArc
 50
90.0
 51
180.0
  0
LINE
  5
11AE
330
1F
100
AcDbEntity
  8
SANINDUSA
100
AcDbLine
 10
550.3467190716836
 20
2023.443253261441
 30
-0.0000000000545587
 11
550.3467190716836
 21
2023.444239047879
 31
-0.0000000000545587
  0
LINE
  5
11AF
330
1F
100
AcDbEntity
  8
SANINDUSA
100
AcDbLine
 10
550.3477190716836
 20
2023.445239047878
 30
-0.0000000000545587
 11
550.3827423758155
 21
2023.445239047878
 31
-0.0000000000545587
  0
ARC
  5
11B0
330
1F
100
AcDbEntity
  8
SANINDUSA
100
AcDbCircle
 10
550.3477190716836
 20
2023.443253261441
 30
-0.0000000000545587
 40
0.0010000000000003
100
AcDbArc
 50
180.0
 51
225.0
  0
ARC
  5
11B1
330
1F
100
AcDbEntity
  8
SANINDUSA
100
AcDbCircle
 10
550.3827423758155
 20
2023.444239047879
 30
-0.0000000000545587
 40
0.001
100
AcDbArc
 50
270.0
 51
90.0
  0
LINE
  5
11B2
330
1F
100
AcDbEntity
  8
SANINDUSA
100
AcDbLine
 10
550.3479261784648
 20
2023.441631941097
 30
-0.0000000000545587
 11
550.3470119649024
 21
2023.44254615466
 31
-0.0000000000545587
  0
LINE
  5
11B3
330
1F
100
AcDbEntity
  8
SANINDUSA
100
AcDbLine
 10
550.3827423758155
 20
2023.443239047878
 30
-0.0000000000545587
 11
550.3512190716836
 21
2023.443239047878
 31
-0.0000000000545587
  0
ARC
  5
11B4
330
1F
100
AcDbEntity
  8
SANINDUSA
100
AcDbCircle
 10
550.3472190716836
 20
2023.440924834316
 30
-0.0000000000545587
 40
0.0010000000000003
100
AcDbArc
 50
0.0
 51
45.0
  0
ARC
  5
11B5
330
1F
100
AcDbEntity
  8
SANINDUSA
100
AcDbCircle
 10
550.3512190716836
 20
2023.442239047879
 30
-0.0000000000545587
 40
0.001
100
AcDbArc
 50
90.0
 51
180.0
  0
LINE
  5
11B6
330
1F
100
AcDbEntity
  8
SANINDUSA
100
AcDbLine
 10
550.3482190716836
 20
2023.437549708051
 30
-0.0000000000545587
 11
550.3482190716836
 21
2023.440924834316
 31
-0.0000000000545587
  0
LINE
  5
11B7
330
1F
100
AcDbEntity
  8
SANINDUSA
100
AcDbLine
 10
550.3502190716837
 20
2023.442239047879
 30
-0.0000000000545587
 11
550.3502190716837
 21
2023.424379861602
 31
-0.0000000000545587
  0
ARC
  5
11B8
330
1F
100
AcDbEntity
  8
SANINDUSA
100
AcDbCircle
 10
550.3484690716836
 20
2023.437549708051
 30
-0.0000000000545587
 40
0.0002500000000003
100
AcDbArc
 50
180.0
 51
225.0
  0
ARC
  5
11B9
330
1F
100
AcDbEntity
  8
SANINDUSA
100
AcDbCircle
 10
550.3512190716836
 20
2023.424379861602
 30
-0.0000000000545587
 40
0.001
100
AcDbArc
 50
180.0
 51
272.1494579346532
  0
LINE
  5
11BA
330
1F
100
AcDbEntity
  8
SANINDUSA
100
AcDbLine
 10
550.3487726250742
 20
2023.436892601269
 30
-0.0000000000545587
 11
550.3482922949883
 21
2023.437372931355
 31
-0.0000000000545587
  0
ARC
  5
11BB
330
1F
100
AcDbEntity
  8
SANINDUSA
100
AcDbCircle
 10
550.3476289632457
 20
2023.520032607524
 30
-0.0000000000545587
 40
0.0967200954923435
100
AcDbArc
 50
272.1494579346532
 51
285.5601696420791
  0
ARC
  5
11BC
330
1F
100
AcDbEntity
  8
SANINDUSA
100
AcDbCircle
 10
550.3484190716837
 20
2023.436539047878
 30
-0.0000000000545587
 40
0.0005
100
AcDbArc
 50
315.0
 51
45.0
  0
ARC
  5
11BD
330
1F
100
AcDbEntity
  8
SANINDUSA
100
AcDbCircle
 10
550.3734400224431
 20
2023.427339047878
 30
-0.0000000000545587
 40
0.0005
100
AcDbArc
 50
285.5601696420791
 51
90.0
  0
LINE
  5
11BE
330
1F
100
AcDbEntity
  8
SANINDUSA
100
AcDbLine
 10
550.3482922949883
 20
2023.435705164402
 30
-0.0000000000545587
 11
550.3487726250742
 21
2023.436185494488
 31
-0.0000000000545587
  0
LINE
  5
11BF
330
1F
100
AcDbEntity
  8
SANINDUSA
100
AcDbLine
 10
550.3734400224431
 20
2023.427839047879
 30
-0.0000000000545587
 11
550.3607423758157
 21
2023.427839047879
 31
-0.0000000000545587
  0
ARC
  5
11C0
330
1F
100
AcDbEntity
  8
SANINDUSA
100
AcDbCircle
 10
550.3484690716836
 20
2023.435528387707
 30
-0.0000000000545587
 40
0.00025
100
AcDbArc
 50
135.0
 51
180.0
  0
ARC
  5
11C1
330
1F
100
AcDbEntity
  8
SANINDUSA
100
AcDbCircle
 10
550.3607423758157
 20
2023.428839047879
 30
-0.0000000000545587
 40
0.001
100
AcDbArc
 50
90.0
 51
270.0
  0
LINE
  5
11C2
330
1F
100
AcDbEntity
  8
SANINDUSA
100
AcDbLine
 10
550.3482190716836
 20
2023.425339024217
 30
-0.0000000000545587
 11
550.3482190716836
 21
2023.435528387707
 31
-0.0000000000545587
  0
LINE
  5
11C3
330
1F
100
AcDbEntity
  8
SANINDUSA
100
AcDbLine
 10
550.3607423758157
 20
2023.429839047878
 30
-0.0000000000545587
 11
550.3827423758155
 21
2023.429839047878
 31
-0.0000000000545587
  0
ARC
  5
11C4
330
1F
100
AcDbEntity
  8
SANINDUSA
100
AcDbCircle
 10
550.3472190716836
 20
2023.425339024217
 30
-0.0000000000545587
 40
0.0010000000000003
100
AcDbArc
 50
314.9106959519861
 51
0.0
  0
ARC
  5
11C5
330
1F
100
AcDbEntity
  8
SANINDUSA
100
AcDbCircle
 10
550.3827423758155
 20
2023.428839047879
 30
-0.0000000000545587
 40
0.001
100
AcDbArc
 50
291.0588352469903
 51
90.0
  0
LINE
  5
11C6
330
1F
100
AcDbEntity
  8
SANINDUSA
100
AcDbLine
 10
550.3470186363637
 20
2023.423727198299
 30
-0.0000000000545587
 11
550.3479250754745
 21
2023.424630816164
 31
-0.0000000000545587
  0
ARC
  5
11C7
330
1F
100
AcDbEntity
  8
SANINDUSA
100
AcDbCircle
 10
550.3476289632457
 20
2023.520032607524
 30
-0.0000000000545587
 40
0.0987200954923432
100
AcDbArc
 50
270.0522365954226
 51
291.0588352469903
  0
ARC
  5
11C8
330
1F
100
AcDbEntity
  8
SANINDUSA
100
AcDbCircle
 10
550.3477246401546
 20
2023.423018990246
 30
-0.0000000000545587
 40
0.0010000000000003
100
AcDbArc
 50
134.9106959519861
 51
179.4659008958417
  0
ARC
  5
11C9
330
1F
100
AcDbEntity
  8
SANINDUSA
100
AcDbCircle
 10
550.3477180547021
 20
2023.422312552643
 30
-0.0000000000545587
 40
0.001
100
AcDbArc
 50
179.4659008958417
 51
270.0522365954226
  0
LINE
  5
11CA
330
1F
100
AcDbEntity
  8
SANINDUSA
100
AcDbLine
 10
550.3467180981498
 20
2023.422321874297
 30
-0.0000000000545587
 11
550.3467246836021
 21
2023.423028311899
 31
-0.0000000000545587
  0
LINE
  5
11CB
330
1F
100
AcDbEntity
  8
SANINDUSA
100
AcDbLine
 10
550.3443690716836
 20
2023.421312552644
 30
-0.0000000000545587
 11
550.3443690716836
 21
2023.445239047878
 31
-0.0000000000545587
  0
LINE
  5
11CC
330
1F
100
AcDbEntity
  8
SANINDUSA
100
AcDbLine
 10
550.3443690716836
 20
2023.421312552644
 30
-0.0000000000545587
 11
550.3453679525961
 21
2023.421312552644
 31
-0.0000000000545587
  0
LINE
  5
11CD
330
1F
100
AcDbEntity
  8
SANINDUSA
100
AcDbLine
 10
550.3453690716836
 20
2023.445239047878
 30
-0.0000000000545587
 11
550.3443690716836
 21
2023.445239047878
 31
-0.0000000000545587
  0
ARC
  5
11CE
330
1F
100
AcDbEntity
  8
SANINDUSA
100
AcDbCircle
 10
550.3453679525961
 20
2023.422312552643
 30
-0.0000000000545587
 40
0.0009999999999999
100
AcDbArc
 50
270.0
 51
359.4659008958418
  0
ARC
  5
11CF
330
1F
100
AcDbEntity
  8
SANINDUSA
100
AcDbCircle
 10
550.3453690716836
 20
2023.444239047879
 30
-0.0000000000545587
 40
0.0009999999999999
100
AcDbArc
 50
0.0
 51
90.0
  0
LINE
  5
11D0
330
1F
100
AcDbEntity
  8
SANINDUSA
100
AcDbLine
 10
550.3463679091485
 20
2023.422303230991
 30
-0.0000000000545587
 11
550.3463746988087
 21
2023.423031574477
 31
-0.0000000000545587
  0
LINE
  5
11D1
330
1F
100
AcDbEntity
  8
SANINDUSA
100
AcDbLine
 10
550.3463690716836
 20
2023.443253261441
 30
-0.0000000000545587
 11
550.3463690716836
 21
2023.444239047879
 31
-0.0000000000545587
  0
ARC
  5
11D2
330
1F
100
AcDbEntity
  8
SANINDUSA
100
AcDbCircle
 10
550.3477246401546
 20
2023.423018990246
 30
-0.0000000000545587
 40
0.00135
100
AcDbArc
 50
134.9106959519861
 51
179.4659008958417
  0
ARC
  5
11D3
330
1F
100
AcDbEntity
  8
SANINDUSA
100
AcDbCircle
 10
550.3477190716836
 20
2023.443253261441
 30
-0.0000000000545587
 40
0.0013499999999998
100
AcDbArc
 50
180.0
 51
225.0
  0
LINE
  5
11D4
330
1F
100
AcDbEntity
  8
SANINDUSA
100
AcDbLine
 10
550.3467715350368
 20
2023.423975071118
 30
-0.0000000000545587
 11
550.3476779741476
 21
2023.424878688982
 31
-0.0000000000545587
  0
LINE
  5
11D5
330
1F
100
AcDbEntity
  8
SANINDUSA
100
AcDbLine
 10
550.3476786910915
 20
2023.441384453724
 30
-0.0000000000545587
 11
550.346764477529
 21
2023.442298667286
 31
-0.0000000000545587
  0
ARC
  5
11D6
330
1F
100
AcDbEntity
  8
SANINDUSA
100
AcDbCircle
 10
550.3472190716836
 20
2023.425339024217
 30
-0.0000000000545587
 40
0.0006500000000003
100
AcDbArc
 50
314.9106959519861
 51
0.0
  0
ARC
  5
11D7
330
1F
100
AcDbEntity
  8
SANINDUSA
100
AcDbCircle
 10
550.3472190716836
 20
2023.440924834316
 30
-0.0000000000545587
 40
0.0006500000000003
100
AcDbArc
 50
0.0
 51
45.0
  0
LINE
  5
11D8
330
1F
100
AcDbEntity
  8
SANINDUSA
100
AcDbLine
 10
550.3478690716836
 20
2023.425339024217
 30
-0.0000000000545587
 11
550.3478690716836
 21
2023.440924834316
 31
-0.0000000000545587
  0
LINE
  5
11D9
330
1F
100
AcDbEntity
  8
SANINDUSA
100
AcDbLine
 10
550.3968442989751
 20
2023.440539047879
 30
-0.0000000000545587
 11
550.3941556858249
 21
2023.440539047879
 31
-0.0000000000545587
  0
ARC
  5
11DA
330
1F
100
AcDbEntity
  8
SANINDUSA
100
AcDbCircle
 10
550.3968442989751
 20
2023.440039047878
 30
-0.0000000000545587
 40
0.0005000000000001
100
AcDbArc
 50
23.57817847248154
 51
90.0
  0
ARC
  5
11DB
330
1F
100
AcDbEntity
  8
SANINDUSA
100
AcDbCircle
 10
550.3941556858249
 20
2023.440039047878
 30
-0.0000000000545587
 40
0.0005
100
AcDbArc
 50
90.0
 51
160.5287793619829
  0
ARC
  5
11DC
330
1F
100
AcDbEntity
  8
SANINDUSA
100
AcDbCircle
 10
550.3982190716836
 20
2023.440639047878
 30
-0.0000000000545587
 40
0.0009999999999999
100
AcDbArc
 50
203.5781784724816
 51
0.0
  0
ARC
  5
11DD
330
1F
100
AcDbEntity
  8
SANINDUSA
100
AcDbCircle
 10
550.3927414722625
 20
2023.440539047879
 30
-0.0000000000545587
 40
0.001
100
AcDbArc
 50
199.471220638017
 51
340.5287793619829
  0
LINE
  5
11DE
330
1F
100
AcDbEntity
  8
SANINDUSA
100
AcDbLine
 10
550.3992190716836
 20
2023.440639047878
 30
-0.0000000000545587
 11
550.3992190716836
 21
2023.441539047878
 31
-0.0000000000545587
  0
ARC
  5
11DF
330
1F
100
AcDbEntity
  8
SANINDUSA
100
AcDbCircle
 10
550.3913272587001
 20
2023.440039047878
 30
-0.0000000000545587
 40
0.0004999999999999
100
AcDbArc
 50
19.47122063801706
 51
90.0
  0
ARC
  5
11E0
330
1F
100
AcDbEntity
  8
SANINDUSA
100
AcDbCircle
 10
550.3982190716836
 20
2023.441539047878
 30
-0.0000000000545587
 40
0.0009999999999999
100
AcDbArc
 50
0.0
 51
90.0
  0
LINE
  5
11E1
330
1F
100
AcDbEntity
  8
SANINDUSA
100
AcDbLine
 10
550.3913272587001
 20
2023.440539047879
 30
-0.0000000000545587
 11
550.3897410954436
 21
2023.440539047879
 31
-0.0000000000545587
  0
LINE
  5
11E2
330
1F
100
AcDbEntity
  8
SANINDUSA
100
AcDbLine
 10
550.3982190716836
 20
2023.442539047878
 30
-0.0000000000545587
 11
550.3667190716836
 21
2023.442539047878
 31
-0.0000000000545587
  0
ARC
  5
11E3
330
1F
100
AcDbEntity
  8
SANINDUSA
100
AcDbCircle
 10
550.3897410954436
 20
2023.440039047878
 30
-0.0000000000545587
 40
0.0005
100
AcDbArc
 50
90.0
 51
180.0
  0
ARC
  5
11E4
330
1F
100
AcDbEntity
  8
SANINDUSA
100
AcDbCircle
 10
550.3667190716836
 20
2023.441539047878
 30
-0.0000000000545587
 40
0.001
100
AcDbArc
 50
90.0
 51
270.0
  0
LINE
  5
11E5
330
1F
100
AcDbEntity
  8
SANINDUSA
100
AcDbLine
 10
550.3892410954436
 20
2023.440039047878
 30
-0.0000000000545587
 11
550.3892410954436
 21
2023.433039047878
 31
-0.0000000000545587
  0
LINE
  5
11E6
330
1F
100
AcDbEntity
  8
SANINDUSA
100
AcDbLine
 10
550.3667190716836
 20
2023.440539047879
 30
-0.0000000000545587
 11
550.3867410954435
 21
2023.440539047879
 31
-0.0000000000545587
  0
ARC
  5
11E7
330
1F
100
AcDbEntity
  8
SANINDUSA
100
AcDbCircle
 10
550.3897410954436
 20
2023.433039047878
 30
-0.0000000000545587
 40
0.0005
100
AcDbArc
 50
180.0
 51
270.0
  0
ARC
  5
11E8
330
1F
100
AcDbEntity
  8
SANINDUSA
100
AcDbCircle
 10
550.3867410954435
 20
2023.440039047878
 30
-0.0000000000545587
 40
0.0005000000000001
100
AcDbArc
 50
0.0
 51
90.0
  0
LINE
  5
11E9
330
1F
100
AcDbEntity
  8
SANINDUSA
100
AcDbLine
 10
550.3897410954436
 20
2023.432539047878
 30
-0.0000000000545587
 11
550.3913272587001
 21
2023.432539047878
 31
-0.0000000000545587
  0
LINE
  5
11EA
330
1F
100
AcDbEntity
  8
SANINDUSA
100
AcDbLine
 10
550.3872410954435
 20
2023.440039047878
 30
-0.0000000000545587
 11
550.3872410954435
 21
2023.433039047878
 31
-0.0000000000545587
  0
ARC
  5
11EB
330
1F
100
AcDbEntity
  8
SANINDUSA
100
AcDbCircle
 10
550.3913272587001
 20
2023.433039047878
 30
-0.0000000000545587
 40
0.0005
100
AcDbArc
 50
270.0
 51
340.5287793619829
  0
ARC
  5
11EC
330
1F
100
AcDbEntity
  8
SANINDUSA
100
AcDbCircle
 10
550.3867410954435
 20
2023.433039047878
 30
-0.0000000000545587
 40
0.0005000000000001
100
AcDbArc
 50
270.0
 51
0.0
  0
ARC
  5
11ED
330
1F
100
AcDbEntity
  8
SANINDUSA
100
AcDbCircle
 10
550.3927414722625
 20
2023.432539047878
 30
-0.0000000000545587
 40
0.001
100
AcDbArc
 50
19.47122063801706
 51
160.5287793619829
  0
LINE
  5
11EE
330
1F
100
AcDbEntity
  8
SANINDUSA
100
AcDbLine
 10
550.3867410954435
 20
2023.432539047878
 30
-0.0000000000545587
 11
550.3667190716836
 21
2023.432539047878
 31
-0.0000000000545587
  0
ARC
  5
11EF
330
1F
100
AcDbEntity
  8
SANINDUSA
100
AcDbCircle
 10
550.3941556858249
 20
2023.433039047878
 30
-0.0000000000545587
 40
0.0005
100
AcDbArc
 50
199.471220638017
 51
270.0
  0
ARC
  5
11F0
330
1F
100
AcDbEntity
  8
SANINDUSA
100
AcDbCircle
 10
550.3667190716836
 20
2023.431539047878
 30
-0.0000000000545587
 40
0.001
100
AcDbArc
 50
90.0
 51
270.0
  0
LINE
  5
11F1
330
1F
100
AcDbEntity
  8
SANINDUSA
100
AcDbLine
 10
550.3941556858249
 20
2023.432539047878
 30
-0.0000000000545587
 11
550.3968442989751
 21
2023.432539047878
 31
-0.0000000000545587
  0
LINE
  5
11F2
330
1F
100
AcDbEntity
  8
SANINDUSA
100
AcDbLine
 10
550.3667190716836
 20
2023.430539047879
 30
-0.0000000000545587
 11
550.3982190716836
 21
2023.430539047879
 31
-0.0000000000545587
  0
ARC
  5
11F3
330
1F
100
AcDbEntity
  8
SANINDUSA
100
AcDbCircle
 10
550.3968442989751
 20
2023.433039047878
 30
-0.0000000000545587
 40
0.0005000000000001
100
AcDbArc
 50
270.0
 51
336.4218215275184
  0
ARC
  5
11F4
330
1F
100
AcDbEntity
  8
SANINDUSA
100
AcDbCircle
 10
550.3982190716836
 20
2023.431539047878
 30
-0.0000000000545587
 40
0.0010000000000001
100
AcDbArc
 50
270.0
 51
0.0
  0
ARC
  5
11F5
330
1F
100
AcDbEntity
  8
SANINDUSA
100
AcDbCircle
 10
550.3982190716836
 20
2023.432439047879
 30
-0.0000000000545587
 40
0.0009999999999999
100
AcDbArc
 50
0.0
 51
156.4218215275184
  0
LINE
  5
11F6
330
1F
100
AcDbEntity
  8
SANINDUSA
100
AcDbLine
 10
550.3992190716836
 20
2023.431539047878
 30
-0.0000000000545587
 11
550.3992190716836
 21
2023.432439047879
 31
-0.0000000000545587
  0
ENDSEC
  0
SECTION
  2
OBJECTS
  0
DICTIONARY
  5
C
330
0
100
AcDbDictionary
281
     1
  3
ACAD_COLOR
350
1395
  3
ACAD_GROUP
350
D
  3
ACAD_LAYOUT
350
1A
  3
ACAD_MATERIAL
350
1368
  3
ACAD_MLEADERSTYLE
350
13AA
  3
ACAD_MLINESTYLE
350
17
  3
ACAD_PLOTSETTINGS
350
19
  3
ACAD_PLOTSTYLENAME
350
E
  3
ACAD_SCALELIST
350
1398
  3
ACAD_TABLESTYLE
350
1396
  3
ACAD_VISUALSTYLE
350
1381
  3
ACDB_RECOMPOSE_DATA
350
1439
  3
AcDbVariableDictionary
350
3D
  3
ASE_INDEX_DICTIONARY
350
11F7
  3
DWGPROPS
350
143A
  0
DICTIONARY
  5
13D2
330
10
100
AcDbDictionary
280
     1
281
     1
  3
ADSK_XREC_LAYER_RECONCILED
360
13D3
  0
DICTIONARY
  5
13D4
330
2F
100
AcDbDictionary
280
     1
281
     1
  3
ADSK_XREC_LAYER_RECONCILED
360
13D5
  0
DICTIONARY
  5
13D6
330
30
100
AcDbDictionary
280
     1
281
     1
  3
ADSK_XREC_LAYER_RECONCILED
360
13D7
  0
DICTIONARY
  5
13D8
330
31
100
AcDbDictionary
280
     1
281
     1
  3
ADSK_XREC_LAYER_RECONCILED
360
13D9
  0
DICTIONARY
  5
13DA
330
32
100
AcDbDictionary
280
     1
281
     1
  3
ADSK_XREC_LAYER_RECONCILED
360
13DB
  0
DICTIONARY
  5
13DC
330
33
100
AcDbDictionary
280
     1
281
     1
  3
ADSK_XREC_LAYER_RECONCILED
360
13DD
  0
DICTIONARY
  5
13DE
330
34
100
AcDbDictionary
280
     1
281
     1
  3
ADSK_XREC_LAYER_RECONCILED
360
13DF
  0
DICTIONARY
  5
13E0
330
35
100
AcDbDictionary
280
     1
281
     1
  3
ADSK_XREC_LAYER_RECONCILED
360
13E1
  0
DICTIONARY
  5
13E2
330
36
100
AcDbDictionary
280
     1
281
     1
  3
ADSK_XREC_LAYER_RECONCILED
360
13E3
  0
DICTIONARY
  5
13E4
330
37
100
AcDbDictionary
280
     1
281
     1
  3
ADSK_XREC_LAYER_RECONCILED
360
13E5
  0
DICTIONARY
  5
13E6
330
5D6
100
AcDbDictionary
280
     1
281
     1
  3
ADSK_XREC_LAYER_RECONCILED
360
13E7
  0
DICTIONARY
  5
13E8
330
8AF
100
AcDbDictionary
280
     1
281
     1
  3
ADSK_XREC_LAYER_RECONCILED
360
13E9
  0
DICTIONARY
  5
13EA
330
8F8
100
AcDbDictionary
280
     1
281
     1
  3
ADSK_XREC_LAYER_RECONCILED
360
13EB
  0
DICTIONARY
  5
13EC
330
91D
100
AcDbDictionary
280
     1
281
     1
  3
ADSK_XREC_LAYER_RECONCILED
360
13ED
  0
DICTIONARY
  5
13EE
330
C79
100
AcDbDictionary
280
     1
281
     1
  3
ADSK_XREC_LAYER_RECONCILED
360
13EF
  0
DICTIONARY
  5
13F0
330
13D1
100
AcDbDictionary
280
     1
281
     1
  3
ADSK_XREC_LAYER_RECONCILED
360
13F1
  0
DICTIONARY
  5
1441
330
12FA
100
AcDbDictionary
280
     1
281
     1
  3
ACAD_MTEXT_RT
360
1442
  0
DICTIONARY
  5
1395
102
{ACAD_REACTORS
330
C
102
}
330
C
100
AcDbDictionary
281
     1
  0
DICTIONARY
  5
D
102
{ACAD_REACTORS
330
C
102
}
330
C
100
AcDbDictionary
281
     1
  0
DICTIONARY
  5
1A
102
{ACAD_REACTORS
330
C
102
}
330
C
100
AcDbDictionary
281
     1
  3
Layout1
350
1E
  3
Layout2
350
26
  3
Model
350
22
  0
DICTIONARY
  5
1368
102
{ACAD_REACTORS
330
C
102
}
330
C
100
AcDbDictionary
281
     1
  3
ByBlock
350
1371
  3
ByLayer
350
1369
  3
Global
350
1379
  0
DICTIONARY
  5
13AA
102
{ACAD_REACTORS
330
C
102
}
330
C
100
AcDbDictionary
281
     1
  3
Standard
350
13AB
  0
DICTIONARY
  5
17
102
{ACAD_REACTORS
330
C
102
}
330
C
100
AcDbDictionary
281
     1
  3
Standard
350
18
  0
DICTIONARY
  5
19
102
{ACAD_REACTORS
330
C
102
}
330
C
100
AcDbDictionary
281
     1
  0
ACDBDICTIONARYWDFLT
  5
E
102
{ACAD_REACTORS
330
C
102
}
330
C
100
AcDbDictionary
281
     1
  3
Normal
350
F
100
AcDbDictionaryWithDefault
340
F
  0
DICTIONARY
  5
1398
102
{ACAD_REACTORS
330
C
102
}
330
C
100
AcDbDictionary
281
     1
  3
A0
350
1399
  3
A1
350
139A
  3
A2
350
139B
  3
A3
350
139C
  3
A4
350
139D
  3
A5
350
139E
  3
A6
350
139F
  3
A7
350
13A0
  3
A8
350
13A1
  3
A9
350
13A2
  3
B0
350
13A3
  3
B1
350
13A4
  3
B2
350
13A5
  3
B3
350
13A6
  3
B4
350
13A7
  3
B5
350
13A8
  3
B6
350
13A9
  0
DICTIONARY
  5
1396
102
{ACAD_REACTORS
330
C
102
}
330
C
100
AcDbDictionary
281
     1
  3
Standard
350
1397
  0
DICTIONARY
  5
1381
102
{ACAD_REACTORS
330
C
102
}
330
C
100
AcDbDictionary
281
     1
  3
2dWireframe
350
1387
  3
3D Hidden
350
1389
  3
3dWireframe
350
1388
  3
Basic
350
1386
  3
Brighten
350
138D
  3
ColorChange
350
1391
  3
Conceptual
350
138A
  3
Dim
350
138C
  3
EdgeColorOff
350
1394
  3
Facepattern
350
1390
  3
Flat
350
1382
  3
FlatWithEdges
350
1383
  3
Gouraud
350
1384
  3
GouraudWithEdges
350
1385
  3
JitterOff
350
1392
  3
Linepattern
350
138F
  3
OverhangOff
350
1393
  3
Realistic
350
138B
  3
Thicken
350
138E
  0
XRECORD
  5
1439
102
{ACAD_REACTORS
330
C
102
}
330
C
100
AcDbXrecord
280
     1
 90
        1
330
1397
  0
DICTIONARY
  5
3D
102
{ACAD_REACTORS
330
C
102
}
330
C
100
AcDbDictionary
281
     1
  3
CANNOSCALE
350
1433
  3
CMLEADERSTYLE
350
1432
  3
CTABLESTYLE
350
1431
  3
DIMASSOC
350
3F
  3
HIDETEXT
350
3E
  3
INDEXCTL
350
1435
  3
SORTENTS
350
1434
  3
XCLIPFRAME
350
1436
  0
DICTIONARY
  5
11F7
102
{ACAD_REACTORS
330
C
102
}
330
C
100
AcDbDictionary
281
     1
  3
ASEBlockHierarchyIndexRecord
350
11F8
1001
DCO15
1040
1508236606.156
  0
XRECORD
  5
143A
102
{ACAD_REACTORS
330
C
102
}
330
C
100
AcDbXrecord
280
     1
  1
DWGPROPS COOKIE
  2

  3

  4

  6

  7

  8
Julio
  9

300
=
301
=
302
=
303
=
304
=
305
=
306
=
307
=
308
=
309
=
 40
0.0090525462962963
 41
2453259.648195706
 42
2455817.50573875
  1

 90
        0
  0
XRECORD
  5
13D3
102
{ACAD_REACTORS
330
13D2
102
}
330
13D2
100
AcDbXrecord
280
     1
290
     1
  0
XRECORD
  5
13D5
102
{ACAD_REACTORS
330
13D4
102
}
330
13D4
100
AcDbXrecord
280
     1
290
     1
  0
XRECORD
  5
13D7
102
{ACAD_REACTORS
330
13D6
102
}
330
13D6
100
AcDbXrecord
280
     1
290
     1
  0
XRECORD
  5
13D9
102
{ACAD_REACTORS
330
13D8
102
}
330
13D8
100
AcDbXrecord
280
     1
290
     1
  0
XRECORD
  5
13DB
102
{ACAD_REACTORS
330
13DA
102
}
330
13DA
100
AcDbXrecord
280
     1
290
     1
  0
XRECORD
  5
13DD
102
{ACAD_REACTORS
330
13DC
102
}
330
13DC
100
AcDbXrecord
280
     1
290
     1
  0
XRECORD
  5
13DF
102
{ACAD_REACTORS
330
13DE
102
}
330
13DE
100
AcDbXrecord
280
     1
290
     1
  0
XRECORD
  5
13E1
102
{ACAD_REACTORS
330
13E0
102
}
330
13E0
100
AcDbXrecord
280
     1
290
     1
  0
XRECORD
  5
13E3
102
{ACAD_REACTORS
330
13E2
102
}
330
13E2
100
AcDbXrecord
280
     1
290
     1
  0
XRECORD
  5
13E5
102
{ACAD_REACTORS
330
13E4
102
}
330
13E4
100
AcDbXrecord
280
     1
290
     1
  0
XRECORD
  5
13E7
102
{ACAD_REACTORS
330
13E6
102
}
330
13E6
100
AcDbXrecord
280
     1
290
     1
  0
XRECORD
  5
13E9
102
{ACAD_REACTORS
330
13E8
102
}
330
13E8
100
AcDbXrecord
280
     1
290
     1
  0
XRECORD
  5
13EB
102
{ACAD_REACTORS
330
13EA
102
}
330
13EA
100
AcDbXrecord
280
     1
290
     1
  0
XRECORD
  5
13ED
102
{ACAD_REACTORS
330
13EC
102
}
330
13EC
100
AcDbXrecord
280
     1
290
     1
  0
XRECORD
  5
13EF
102
{ACAD_REACTORS
330
13EE
102
}
330
13EE
100
AcDbXrecord
280
     1
290
     1
  0
XRECORD
  5
13F1
102
{ACAD_REACTORS
330
13F0
102
}
330
13F0
100
AcDbXrecord
280
     1
290
     1
  0
XRECORD
  5
1442
102
{ACAD_REACTORS
330
1441
102
}
330
1441
100
AcDbXrecord
280
     1
 40
3752.0
  1
90,0°
  0
LAYOUT
  5
1E
102
{ACAD_XDICTIONARY
360
143B
102
}
102
{ACAD_REACTORS
330
1A
102
}
330
1A
100
AcDbPlotSettings
  1

  2
Ploter HP500
  4

  6

 40
0.0
 41
0.0
 42
0.0
 43
0.0
 44
0.0
 45
0.0
 46
0.0
 47
0.0
 48
0.0
 49
0.0
140
0.0
141
0.0
142
1.0
143
1.0
 70
   688
 72
     0
 73
     0
 74
     5
  7
monochrome.ctb
 75
    16
147
1.0
148
0.0
149
0.0
100
AcDbLayout
  1
Layout1
 70
     1
 71
     1
 10
0.0
 20
0.0
 11
420.0
 21
297.0
 12
0.0
 22
0.0
 32
0.0
 14
1.000000000000000E+20
 24
1.000000000000000E+20
 34
1.000000000000000E+20
 15
-1.000000000000000E+20
 25
-1.000000000000000E+20
 35
-1.000000000000000E+20
146
0.0
 13
0.0
 23
0.0
 33
0.0
 16
1.0
 26
0.0
 36
0.0
 17
0.0
 27
1.0
 37
0.0
 76
     0
330
1B
  0
LAYOUT
  5
26
102
{ACAD_XDICTIONARY
360
143F
102
}
102
{ACAD_REACTORS
330
1A
102
}
330
1A
100
AcDbPlotSettings
  1

  2
Ploter HP500
  4

  6

 40
0.0
 41
0.0
 42
0.0
 43
0.0
 44
0.0
 45
0.0
 46
0.0
 47
0.0
 48
0.0
 49
0.0
140
0.0
141
0.0
142
1.0
143
1.0
 70
   688
 72
     0
 73
     0
 74
     5
  7
monochrome.ctb
 75
    16
147
1.0
148
0.0
149
0.0
100
AcDbLayout
  1
Layout2
 70
     1
 71
     2
 10
0.0
 20
0.0
 11
12.0
 21
9.0
 12
0.0
 22
0.0
 32
0.0
 14
0.0
 24
0.0
 34
0.0
 15
0.0
 25
0.0
 35
0.0
146
0.0
 13
0.0
 23
0.0
 33
0.0
 16
1.0
 26
0.0
 36
0.0
 17
0.0
 27
1.0
 37
0.0
 76
     0
330
23
  0
LAYOUT
  5
22
102
{ACAD_XDICTIONARY
360
143D
102
}
102
{ACAD_REACTORS
330
1A
102
}
330
1A
100
AcDbPlotSettings
  1

  2
Ploter HP500
  4
User268
  6

 40
4.995333194732666
 41
16.97565841674804
 42
4.995330810546875
 43
16.97567749023437
 44
209.9733276367187
 45
296.9259948730469
 46
0.0
 47
0.0
 48
0.0
 49
0.0
140
0.0
141
0.0
142
1.0
143
1.0
 70
 11952
 72
     1
 73
     1
 74
     0
  7

 75
     0
147
1.0
148
-427.5957866592534
149
7.362384574453926
100
AcDbLayout
  1
Model
 70
     1
 71
     0
 10
0.0
 20
0.0
 11
12.0
 21
9.0
 12
0.0
 22
0.0
 32
0.0
 14
0.0
 24
0.0
 34
0.0
 15
0.0
 25
0.0
 35
0.0
146
0.0
 13
0.0
 23
0.0
 33
0.0
 16
1.0
 26
0.0
 36
0.0
 17
0.0
 27
1.0
 37
0.0
 76
     0
330
1F
331
1366
  0
MATERIAL
  5
1371
102
{ACAD_XDICTIONARY
360
1372
102
}
102
{ACAD_REACTORS
330
1368
102
}
330
1368
100
AcDbMaterial
  1
ByBlock
 72
     0
 43
0.0008202099737533
 43
0.0
 43
0.0
 43
0.0
 43
0.0
 43
0.0008202099737533
 43
0.0
 43
0.0
 43
0.0
 43
0.0
 43
1.0
 43
0.0
 43
0.0
 43
0.0
 43
0.0
 43
1.0
 77
     0
 47
0.0008202099737533
 47
0.0
 47
0.0
 47
0.0
 47
0.0
 47
0.0008202099737533
 47
0.0
 47
0.0
 47
0.0
 47
0.0
 47
1.0
 47
0.0
 47
0.0
 47
0.0
 47
0.0
 47
1.0
171
     0
 49
0.0008202099737533
 49
0.0
 49
0.0
 49
0.0
 49
0.0
 49
0.0008202099737533
 49
0.0
 49
0.0
 49
0.0
 49
0.0
 49
1.0
 49
0.0
 49
0.0
 49
0.0
 49
0.0
 49
1.0
175
     0
142
0.0008202099737533
142
0.0
142
0.0
142
0.0
142
0.0
142
0.0008202099737533
142
0.0
142
0.0
142
0.0
142
0.0
142
1.0
142
0.0
142
0.0
142
0.0
142
0.0
142
1.0
179
     0
144
0.0008202099737533
144
0.0
144
0.0
144
0.0
144
0.0
144
0.0008202099737533
144
0.0
144
0.0
144
0.0
144
0.0
144
1.0
144
0.0
144
0.0
144
0.0
144
0.0
144
1.0
147
0.0008202099737533
147
0.0
147
0.0
147
0.0
147
0.0
147
0.0008202099737533
147
0.0
147
0.0
147
0.0
147
0.0
147
1.0
147
0.0
147
0.0
147
0.0
147
0.0
147
1.0
  0
MATERIAL
  5
1369
102
{ACAD_XDICTIONARY
360
136A
102
}
102
{ACAD_REACTORS
330
1368
102
}
330
1368
100
AcDbMaterial
  1
ByLayer
 72
     0
 43
0.0008202099737533
 43
0.0
 43
0.0
 43
0.0
 43
0.0
 43
0.0008202099737533
 43
0.0
 43
0.0
 43
0.0
 43
0.0
 43
1.0
 43
0.0
 43
0.0
 43
0.0
 43
0.0
 43
1.0
 77
     0
 47
0.0008202099737533
 47
0.0
 47
0.0
 47
0.0
 47
0.0
 47
0.0008202099737533
 47
0.0
 47
0.0
 47
0.0
 47
0.0
 47
1.0
 47
0.0
 47
0.0
 47
0.0
 47
0.0
 47
1.0
171
     0
 49
0.0008202099737533
 49
0.0
 49
0.0
 49
0.0
 49
0.0
 49
0.0008202099737533
 49
0.0
 49
0.0
 49
0.0
 49
0.0
 49
1.0
 49
0.0
 49
0.0
 49
0.0
 49
0.0
 49
1.0
175
     0
142
0.0008202099737533
142
0.0
142
0.0
142
0.0
142
0.0
142
0.0008202099737533
142
0.0
142
0.0
142
0.0
142
0.0
142
1.0
142
0.0
142
0.0
142
0.0
142
0.0
142
1.0
179
     0
144
0.0008202099737533
144
0.0
144
0.0
144
0.0
144
0.0
144
0.0008202099737533
144
0.0
144
0.0
144
0.0
144
0.0
144
1.0
144
0.0
144
0.0
144
0.0
144
0.0
144
1.0
147
0.0008202099737533
147
0.0
147
0.0
147
0.0
147
0.0
147
0.0008202099737533
147
0.0
147
0.0
147
0.0
147
0.0
147
1.0
147
0.0
147
0.0
147
0.0
147
0.0
147
1.0
  0
MATERIAL
  5
1379
102
{ACAD_XDICTIONARY
360
137A
102
}
102
{ACAD_REACTORS
330
1368
102
}
330
1368
100
AcDbMaterial
  1
Global
 72
     0
 43
0.0008202099737533
 43
0.0
 43
0.0
 43
0.0
 43
0.0
 43
0.0008202099737533
 43
0.0
 43
0.0
 43
0.0
 43
0.0
 43
1.0
 43
0.0
 43
0.0
 43
0.0
 43
0.0
 43
1.0
 77
     0
 47
0.0008202099737533
 47
0.0
 47
0.0
 47
0.0
 47
0.0
 47
0.0008202099737533
 47
0.0
 47
0.0
 47
0.0
 47
0.0
 47
1.0
 47
0.0
 47
0.0
 47
0.0
 47
0.0
 47
1.0
171
     0
 49
0.0008202099737533
 49
0.0
 49
0.0
 49
0.0
 49
0.0
 49
0.0008202099737533
 49
0.0
 49
0.0
 49
0.0
 49
0.0
 49
1.0
 49
0.0
 49
0.0
 49
0.0
 49
0.0
 49
1.0
175
     0
142
0.0008202099737533
142
0.0
142
0.0
142
0.0
142
0.0
142
0.0008202099737533
142
0.0
142
0.0
142
0.0
142
0.0
142
1.0
142
0.0
142
0.0
142
0.0
142
0.0
142
1.0
179
     0
144
0.0008202099737533
144
0.0
144
0.0
144
0.0
144
0.0
144
0.0008202099737533
144
0.0
144
0.0
144
0.0
144
0.0
144
1.0
144
0.0
144
0.0
144
0.0
144
0.0
144
1.0
147
0.0008202099737533
147
0.0
147
0.0
147
0.0
147
0.0
147
0.0008202099737533
147
0.0
147
0.0
147
0.0
147
0.0
147
1.0
147
0.0
147
0.0
147
0.0
147
0.0
147
1.0
  0
MLEADERSTYLE
  5
13AB
102
{ACAD_REACTORS
330
13AA
102
}
330
13AA
100
AcDbMLeaderStyle
170
     2
171
     1
172
     0
 90
        2
 40
0.0
 41
0.0
173
     1
 91
-1056964608
340
14
 92
       -2
290
     1
 42
2.0
291
     1
 43
0.36
  3
Standard
 44
4.0
300

342
11
174
     1
178
     6
175
     1
176
     0
 93
-1056964608
 45
4.0
292
     0
297
     0
 46
4.0
 94
-1056964608
 47
1.0
 49
1.0
140
1.0
293
     1
141
0.0
294
     1
177
     0
142
1.0
295
     0
296
     0
143
0.125
1001
ACAD_MLEADERVER
1070
     2
  0
MLINESTYLE
  5
18
102
{ACAD_REACTORS
330
17
102
}
330
17
100
AcDbMlineStyle
  2
STANDARD
 70
     0
  3

 62
   256
 51
90.0
 52
90.0
 71
     2
 49
0.5
 62
   256
  6
BYLAYER
 49
-0.5
 62
   256
  6
BYLAYER
  0
ACDBPLACEHOLDER
  5
F
102
{ACAD_REACTORS
330
E
102
}
330
E
  0
SCALE
  5
1399
102
{ACAD_REACTORS
330
1398
102
}
330
1398
100
AcDbScale
 70
     0
300
1:1
140
1.0
141
1.0
290
     1
  0
SCALE
  5
139A
102
{ACAD_REACTORS
330
1398
102
}
330
1398
100
AcDbScale
 70
     0
300
1:2
140
1.0
141
2.0
290
     0
  0
SCALE
  5
139B
102
{ACAD_REACTORS
330
1398
102
}
330
1398
100
AcDbScale
 70
     0
300
1:4
140
1.0
141
4.0
290
     0
  0
SCALE
  5
139C
102
{ACAD_REACTORS
330
1398
102
}
330
1398
100
AcDbScale
 70
     0
300
1:5
140
1.0
141
5.0
290
     0
  0
SCALE
  5
139D
102
{ACAD_REACTORS
330
1398
102
}
330
1398
100
AcDbScale
 70
     0
300
1:8
140
1.0
141
8.0
290
     0
  0
SCALE
  5
139E
102
{ACAD_REACTORS
330
1398
102
}
330
1398
100
AcDbScale
 70
     0
300
1:10
140
1.0
141
10.0
290
     0
  0
SCALE
  5
139F
102
{ACAD_REACTORS
330
1398
102
}
330
1398
100
AcDbScale
 70
     0
300
1:16
140
1.0
141
16.0
290
     0
  0
SCALE
  5
13A0
102
{ACAD_REACTORS
330
1398
102
}
330
1398
100
AcDbScale
 70
     0
300
1:20
140
1.0
141
20.0
290
     0
  0
SCALE
  5
13A1
102
{ACAD_REACTORS
330
1398
102
}
330
1398
100
AcDbScale
 70
     0
300
1:30
140
1.0
141
30.0
290
     0
  0
SCALE
  5
13A2
102
{ACAD_REACTORS
330
1398
102
}
330
1398
100
AcDbScale
 70
     0
300
1:40
140
1.0
141
40.0
290
     0
  0
SCALE
  5
13A3
102
{ACAD_REACTORS
330
1398
102
}
330
1398
100
AcDbScale
 70
     0
300
1:50
140
1.0
141
50.0
290
     0
  0
SCALE
  5
13A4
102
{ACAD_REACTORS
330
1398
102
}
330
1398
100
AcDbScale
 70
     0
300
1:100
140
1.0
141
100.0
290
     0
  0
SCALE
  5
13A5
102
{ACAD_REACTORS
330
1398
102
}
330
1398
100
AcDbScale
 70
     0
300
2:1
140
2.0
141
1.0
290
     0
  0
SCALE
  5
13A6
102
{ACAD_REACTORS
330
1398
102
}
330
1398
100
AcDbScale
 70
     0
300
4:1
140
4.0
141
1.0
290
     0
  0
SCALE
  5
13A7
102
{ACAD_REACTORS
330
1398
102
}
330
1398
100
AcDbScale
 70
     0
300
8:1
140
8.0
141
1.0
290
     0
  0
SCALE
  5
13A8
102
{ACAD_REACTORS
330
1398
102
}
330
1398
100
AcDbScale
 70
     0
300
10:1
140
10.0
141
1.0
290
     0
  0
SCALE
  5
13A9
102
{ACAD_REACTORS
330
1398
102
}
330
1398
100
AcDbScale
 70
     0
300
100:1
140
100.0
141
1.0
290
     0
  0
TABLESTYLE
  5
1397
102
{ACAD_XDICTIONARY
360
1437
102
}
102
{ACAD_REACTORS
330
1396
102
}
330
1396
100
AcDbTableStyle
  3
Standard
 70
     0
 71
     0
 40
1.5
 41
1.5
280
     0
281
     0
  7
Standard
140
4.5
170
     2
 62
     0
 63
     7
283
     0
274
    -2
284
     1
 64
     0
275
    -2
285
     1
 65
     0
276
    -2
286
     1
 66
     0
277
    -2
287
     1
 67
     0
278
    -2
288
     1
 68
     0
279
    -2
289
     1
 69
     0
  7
Standard
140
6.0
170
     5
 62
     0
 63
     7
283
     0
274
    -2
284
     1
 64
     0
275
    -2
285
     1
 65
     0
276
    -2
286
     1
 66
     0
277
    -2
287
     1
 67
     0
278
    -2
288
     1
 68
     0
279
    -2
289
     1
 69
     0
  7
Standard
140
4.5
170
     5
 62
     0
 63
     7
283
     0
274
    -2
284
     1
 64
     0
275
    -2
285
     1
 65
     0
276
    -2
286
     1
 66
     0
277
    -2
287
     1
 67
     0
278
    -2
288
     1
 68
     0
279
    -2
289
     1
 69
     0
  0
VISUALSTYLE
  5
1387
102
{ACAD_XDICTIONARY
360
1450
102
}
102
{ACAD_REACTORS
330
1381
102
}
330
1381
100
AcDbVisualStyle
  2
2dWireframe
 70
     4
 71
     0
 72
     2
 73
     0
 90
        0
 40
-0.6
 41
-30.0
 62
     5
 63
     7
 74
     1
 91
        4
 64
     7
 65
   257
 75
     1
175
     1
 42
1.0
 92
        0
 66
   257
 43
1.0
 76
     1
 77
     6
 78
     2
 67
     7
 79
     5
170
     0
171
     0
290
     0
174
     0
 93
        1
 44
0.0
173
     0
291
     0
 45
0.0
1001
ACAD
1000
AcDbSavedByObjectVersion
1070
     0
  0
VISUALSTYLE
  5
1389
102
{ACAD_XDICTIONARY
360
1454
102
}
102
{ACAD_REACTORS
330
1381
102
}
330
1381
100
AcDbVisualStyle
  2
3D Hidden
 70
     6
 71
     1
 72
     2
 73
     2
 90
        0
 40
-0.6
 41
-30.0
 62
     5
 63
     7
 74
     2
 91
        2
 64
     7
 65
   257
 75
     2
175
     1
 42
179.0
 92
        0
 66
   257
 43
1.0
 76
     1
 77
     6
 78
     2
 67
     7
 79
     3
170
     0
171
     0
290
     0
174
     0
 93
        1
 44
0.0
173
     0
291
     0
 45
0.0
1001
ACAD
1000
AcDbSavedByObjectVersion
1070
     0
  0
VISUALSTYLE
  5
1388
102
{ACAD_XDICTIONARY
360
1452
102
}
102
{ACAD_REACTORS
330
1381
102
}
330
1381
100
AcDbVisualStyle
  2
3dWireframe
 70
     5
 71
     0
 72
     2
 73
     0
 90
        0
 40
-0.6
 41
-30.0
 62
     5
 63
     7
 74
     1
 91
        4
 64
     7
 65
   257
 75
     1
175
     1
 42
1.0
 92
        0
 66
   257
 43
1.0
 76
     1
 77
     6
 78
     2
 67
     7
 79
     5
170
     0
171
     0
290
     0
174
     0
 93
        1
 44
0.0
173
     0
291
     0
 45
0.0
1001
ACAD
1000
AcDbSavedByObjectVersion
1070
     0
  0
VISUALSTYLE
  5
1386
102
{ACAD_XDICTIONARY
360
144E
102
}
102
{ACAD_REACTORS
330
1381
102
}
330
1381
100
AcDbVisualStyle
  2
Basic
 70
     7
 71
     1
 72
     0
 73
     1
 90
        0
 40
-0.6
 41
-30.0
 62
     5
 63
     7
 74
     0
 91
        4
 64
     7
 65
   257
 75
     1
175
     1
 42
1.0
 92
        8
 66
     7
 43
1.0
 76
     1
 77
     6
 78
     2
 67
     7
 79
     5
170
     0
171
     0
290
     0
174
     0
 93
        1
 44
0.0
173
     0
291
     1
 45
0.0
1001
ACAD
1000
AcDbSavedByObjectVersion
1070
     0
  0
VISUALSTYLE
  5
138D
102
{ACAD_XDICTIONARY
360
145C
102
}
102
{ACAD_REACTORS
330
1381
102
}
330
1381
100
AcDbVisualStyle
  2
Brighten
 70
    12
 71
     2
 72
     2
 73
     0
 90
        0
 40
-0.6
 41
-30.0
 62
     5
 63
     7
 74
     1
 91
        4
 64
     7
 65
   257
 75
     1
175
     1
 42
1.0
 92
        8
 66
     7
 43
1.0
 76
     1
 77
     6
 78
     2
 67
     7
 79
     5
170
     0
171
     0
290
     0
174
     0
 93
        1
 44
50.0
173
     0
291
     1
 45
0.0
1001
ACAD
1000
AcDbSavedByObjectVersion
1070
     0
  0
VISUALSTYLE
  5
1391
102
{ACAD_XDICTIONARY
360
1464
102
}
102
{ACAD_REACTORS
330
1381
102
}
330
1381
100
AcDbVisualStyle
  2
ColorChange
 70
    16
 71
     2
 72
     2
 73
     3
 90
        0
 40
-0.6
 41
-30.0
 62
     5
 63
     8
 74
     1
 91
        4
 64
     7
 65
   257
 75
     1
175
     1
 42
1.0
 92
        8
 66
     8
 43
1.0
 76
     1
 77
     6
 78
     2
 67
     7
 79
     5
170
     0
171
     0
290
     0
174
     0
 93
        1
 44
0.0
173
     0
291
     1
 45
0.0
1001
ACAD
1000
AcDbSavedByObjectVersion
1070
     0
  0
VISUALSTYLE
  5
138A
102
{ACAD_XDICTIONARY
360
1456
102
}
102
{ACAD_REACTORS
330
1381
102
}
330
1381
100
AcDbVisualStyle
  2
Conceptual
 70
     9
 71
     3
 72
     2
 73
     0
 90
        0
 40
-0.6
 41
-30.0
 62
     5
 63
     7
 74
     2
 91
        2
 64
     7
 65
   257
 75
     1
175
     1
 42
179.0
 92
        8
 66
     7
 43
1.0
 76
     1
 77
     6
 78
     2
 67
     7
 79
     3
170
     0
171
     0
290
     0
174
     0
 93
        1
 44
0.0
173
     0
291
     0
 45
0.0
1001
ACAD
1000
AcDbSavedByObjectVersion
1070
     0
  0
VISUALSTYLE
  5
138C
102
{ACAD_XDICTIONARY
360
145A
102
}
102
{ACAD_REACTORS
330
1381
102
}
330
1381
100
AcDbVisualStyle
  2
Dim
 70
    11
 71
     2
 72
     2
 73
     0
 90
        0
 40
-0.6
 41
-30.0
 62
     5
 63
     7
 74
     1
 91
        4
 64
     7
 65
   257
 75
     1
175
     1
 42
1.0
 92
        8
 66
     7
 43
1.0
 76
     1
 77
     6
 78
     2
 67
     7
 79
     5
170
     0
171
     0
290
     0
174
     0
 93
        1
 44
-50.0
173
     0
291
     1
 45
0.0
1001
ACAD
1000
AcDbSavedByObjectVersion
1070
     0
  0
VISUALSTYLE
  5
1394
102
{ACAD_XDICTIONARY
360
146A
102
}
102
{ACAD_REACTORS
330
1381
102
}
330
1381
100
AcDbVisualStyle
  2
EdgeColorOff
 70
    22
 71
     2
 72
     2
 73
     0
 90
        0
 40
-0.6
 41
-30.0
 62
     5
 63
     7
 74
     1
 91
        4
 64
     7
 65
   257
 75
     1
175
     1
 42
1.0
 92
        8
 66
     7
 43
1.0
 76
     1
 77
     6
 78
     2
 67
     7
 79
     5
170
     0
171
     0
290
     0
174
     0
 93
        1
 44
0.0
173
     0
291
     1
 45
0.0
1001
ACAD
1000
AcDbSavedByObjectVersion
1070
     0
  0
VISUALSTYLE
  5
1390
102
{ACAD_XDICTIONARY
360
1462
102
}
102
{ACAD_REACTORS
330
1381
102
}
330
1381
100
AcDbVisualStyle
  2
Facepattern
 70
    15
 71
     2
 72
     2
 73
     0
 90
        0
 40
-0.6
 41
-30.0
 62
     5
 63
     7
 74
     1
 91
        4
 64
     7
 65
   257
 75
     1
175
     1
 42
1.0
 92
        8
 66
     7
 43
1.0
 76
     1
 77
     6
 78
     2
 67
     7
 79
     5
170
     0
171
     0
290
     0
174
     0
 93
        1
 44
0.0
173
     0
291
     1
 45
0.0
1001
ACAD
1000
AcDbSavedByObjectVersion
1070
     0
  0
VISUALSTYLE
  5
1382
102
{ACAD_XDICTIONARY
360
1446
102
}
102
{ACAD_REACTORS
330
1381
102
}
330
1381
100
AcDbVisualStyle
  2
Flat
 70
     0
 71
     2
 72
     1
 73
     1
 90
        2
 40
-0.6
 41
30.0
 62
     5
 63
     7
 74
     0
 91
        4
 64
     7
 65
   257
 75
     1
175
     1
 42
1.0
 92
        8
 66
     7
 43
1.0
 76
     1
 77
     6
 78
     2
 67
     7
 79
     5
170
     0
171
     0
290
     0
174
     0
 93
       13
 44
0.0
173
     0
291
     1
 45
0.0
1001
ACAD
1000
AcDbSavedByObjectVersion
1070
     0
  0
VISUALSTYLE
  5
1383
102
{ACAD_XDICTIONARY
360
1448
102
}
102
{ACAD_REACTORS
330
1381
102
}
330
1381
100
AcDbVisualStyle
  2
FlatWithEdges
 70
     1
 71
     2
 72
     1
 73
     1
 90
        2
 40
-0.6
 41
30.0
 62
     5
 63
     7
 74
     1
 91
        4
 64
     7
 65
   257
 75
     1
175
     1
 42
1.0
 92
        0
 66
   257
 43
1.0
 76
     1
 77
     6
 78
     2
 67
     7
 79
     5
170
     0
171
     0
290
     0
174
     0
 93
       13
 44
0.0
173
     0
291
     1
 45
0.0
1001
ACAD
1000
AcDbSavedByObjectVersion
1070
     0
  0
VISUALSTYLE
  5
1384
102
{ACAD_XDICTIONARY
360
144A
102
}
102
{ACAD_REACTORS
330
1381
102
}
330
1381
100
AcDbVisualStyle
  2
Gouraud
 70
     2
 71
     2
 72
     2
 73
     1
 90
        2
 40
-0.6
 41
30.0
 62
     5
 63
     7
 74
     0
 91
        4
 64
     7
 65
   257
 75
     1
175
     1
 42
1.0
 92
        0
 66
     7
 43
1.0
 76
     1
 77
     6
 78
     2
 67
     7
 79
     5
170
     0
171
     0
290
     0
174
     0
 93
       13
 44
0.0
173
     0
291
     1
 45
0.0
1001
ACAD
1000
AcDbSavedByObjectVersion
1070
     0
  0
VISUALSTYLE
  5
1385
102
{ACAD_XDICTIONARY
360
144C
102
}
102
{ACAD_REACTORS
330
1381
102
}
330
1381
100
AcDbVisualStyle
  2
GouraudWithEdges
 70
     3
 71
     2
 72
     2
 73
     1
 90
        2
 40
-0.6
 41
30.0
 62
     5
 63
     7
 74
     1
 91
        4
 64
     7
 65
   257
 75
     1
175
     1
 42
1.0
 92
        0
 66
   257
 43
1.0
 76
     1
 77
     6
 78
     2
 67
     7
 79
     5
170
     0
171
     0
290
     0
174
     0
 93
       13
 44
0.0
173
     0
291
     1
 45
0.0
1001
ACAD
1000
AcDbSavedByObjectVersion
1070
     0
  0
VISUALSTYLE
  5
1392
102
{ACAD_XDICTIONARY
360
1466
102
}
102
{ACAD_REACTORS
330
1381
102
}
330
1381
100
AcDbVisualStyle
  2
JitterOff
 70
    20
 71
     2
 72
     2
 73
     0
 90
        0
 40
-0.6
 41
-30.0
 62
     5
 63
     7
 74
     1
 91
        4
 64
     7
 65
   257
 75
     1
175
     1
 42
1.0
 92
       10
 66
     7
 43
1.0
 76
     1
 77
     6
 78
     2
 67
     7
 79
     5
170
     0
171
     0
290
     0
174
     0
 93
        1
 44
0.0
173
     0
291
     1
 45
0.0
1001
ACAD
1000
AcDbSavedByObjectVersion
1070
     0
  0
VISUALSTYLE
  5
138F
102
{ACAD_XDICTIONARY
360
1460
102
}
102
{ACAD_REACTORS
330
1381
102
}
330
1381
100
AcDbVisualStyle
  2
Linepattern
 70
    14
 71
     2
 72
     2
 73
     0
 90
        0
 40
-0.6
 41
-30.0
 62
     5
 63
     7
 74
     1
 91
        4
 64
     7
 65
   257
 75
     7
175
     7
 42
1.0
 92
        8
 66
     7
 43
1.0
 76
     1
 77
     6
 78
     2
 67
     7
 79
     5
170
     0
171
     0
290
     0
174
     0
 93
        1
 44
0.0
173
     0
291
     1
 45
0.0
1001
ACAD
1000
AcDbSavedByObjectVersion
1070
     0
  0
VISUALSTYLE
  5
1393
102
{ACAD_XDICTIONARY
360
1468
102
}
102
{ACAD_REACTORS
330
1381
102
}
330
1381
100
AcDbVisualStyle
  2
OverhangOff
 70
    21
 71
     2
 72
     2
 73
     0
 90
        0
 40
-0.6
 41
-30.0
 62
     5
 63
     7
 74
     1
 91
        4
 64
     7
 65
   257
 75
     1
175
     1
 42
1.0
 92
        9
 66
     7
 43
1.0
 76
     1
 77
     6
 78
     2
 67
     7
 79
     5
170
     0
171
     0
290
     0
174
     0
 93
        1
 44
0.0
173
     0
291
     1
 45
0.0
1001
ACAD
1000
AcDbSavedByObjectVersion
1070
     0
  0
VISUALSTYLE
  5
138B
102
{ACAD_XDICTIONARY
360
1458
102
}
102
{ACAD_REACTORS
330
1381
102
}
330
1381
100
AcDbVisualStyle
  2
Realistic
 70
     8
 71
     2
 72
     2
 73
     0
 90
        0
 40
-0.6
 41
-30.0
 62
     5
 63
     7
 74
     1
 91
        0
 64
     7
 65
   257
 75
     1
175
     1
 42
1.0
 92
        8
 66
     8
 43
1.0
 76
     1
 77
     6
 78
     2
 67
     7
 79
     5
170
     0
171
     0
290
     0
174
     0
 93
       13
 44
0.0
173
     0
291
     0
 45
0.0
1001
ACAD
1000
AcDbSavedByObjectVersion
1070
     0
  0
VISUALSTYLE
  5
138E
102
{ACAD_XDICTIONARY
360
145E
102
}
102
{ACAD_REACTORS
330
1381
102
}
330
1381
100
AcDbVisualStyle
  2
Thicken
 70
    13
 71
     2
 72
     2
 73
     0
 90
        0
 40
-0.6
 41
-30.0
 62
     5
 63
     7
 74
     1
 91
        4
 64
     7
 65
   257
 75
     1
175
     1
 42
1.0
 92
       12
 66
     7
 43
1.0
 76
     1
 77
     6
 78
     2
 67
     7
 79
     5
170
     0
171
     0
290
     0
174
     0
 93
        1
 44
0.0
173
     0
291
     1
 45
0.0
1001
ACAD
1000
AcDbSavedByObjectVersion
1070
     0
  0
DICTIONARYVAR
  5
1433
102
{ACAD_REACTORS
330
3D
102
}
330
3D
100
DictionaryVariables
280
     0
  1
1:1
  0
DICTIONARYVAR
  5
1432
102
{ACAD_REACTORS
330
3D
102
}
330
3D
100
DictionaryVariables
280
     0
  1
STANDARD
  0
DICTIONARYVAR
  5
1431
102
{ACAD_REACTORS
330
3D
102
}
330
3D
100
DictionaryVariables
280
     0
  1
STANDARD
  0
DICTIONARYVAR
  5
3F
102
{ACAD_REACTORS
330
3D
102
}
330
3D
100
DictionaryVariables
280
     0
  1
2
  0
DICTIONARYVAR
  5
3E
102
{ACAD_REACTORS
330
3D
102
}
330
3D
100
DictionaryVariables
280
     0
  1
1
  0
DICTIONARYVAR
  5
1435
102
{ACAD_REACTORS
330
3D
102
}
330
3D
100
DictionaryVariables
280
     0
  1
0
  0
DICTIONARYVAR
  5
1434
102
{ACAD_REACTORS
330
3D
102
}
330
3D
100
DictionaryVariables
280
     0
  1
127
  0
DICTIONARYVAR
  5
1436
102
{ACAD_REACTORS
330
3D
102
}
330
3D
100
DictionaryVariables
280
     0
  1
2
  0
XRECORD
  5
11F8
102
{ACAD_REACTORS
330
11F7
102
}
330
11F7
100
AcDbXrecord
280
     1
330
DA9
330
E4E
  0
DICTIONARY
  5
143B
330
1E
100
AcDbDictionary
280
     1
281
     1
  3
ACAD_XREC_ROUNDTRIP
360
143C
  0
DICTIONARY
  5
143F
330
26
100
AcDbDictionary
280
     1
281
     1
  3
ACAD_XREC_ROUNDTRIP
360
1440
  0
DICTIONARY
  5
143D
330
22
100
AcDbDictionary
280
     1
281
     1
  3
ACAD_XREC_ROUNDTRIP
360
143E
  0
DICTIONARY
  5
1372
330
1371
100
AcDbDictionary
280
     1
281
     1
  3
ACAD_XREC_ROUNDTRIP
360
1444
  3
BUMPTILE
360
1374
  3
DIFFUSETILE
360
1373
  3
OPACITYTILE
360
1377
  3
REFLECTIONTILE
360
1376
  3
REFRACTIONTILE
360
1378
  3
SPECULARTILE
360
1375
  0
DICTIONARY
  5
136A
330
1369
100
AcDbDictionary
280
     1
281
     1
  3
ACAD_XREC_ROUNDTRIP
360
1443
  3
BUMPTILE
360
136C
  3
DIFFUSETILE
360
136B
  3
OPACITYTILE
360
136F
  3
REFLECTIONTILE
360
136E
  3
REFRACTIONTILE
360
1370
  3
SPECULARTILE
360
136D
  0
DICTIONARY
  5
137A
330
1379
100
AcDbDictionary
280
     1
281
     1
  3
ACAD_XREC_ROUNDTRIP
360
1445
  3
BUMPTILE
360
137C
  3
DIFFUSETILE
360
137B
  3
OPACITYTILE
360
137F
  3
REFLECTIONTILE
360
137E
  3
REFRACTIONTILE
360
1380
  3
SPECULARTILE
360
137D
  0
DICTIONARY
  5
1437
330
1397
100
AcDbDictionary
280
     1
281
     1
  3
ACAD_ROUNDTRIP_2008_TABLESTYLE_CELLSTYLEMAP
360
1438
  3
ACAD_XREC_ROUNDTRIP
360
146C
  0
DICTIONARY
  5
1450
330
1387
100
AcDbDictionary
280
     1
281
     1
  3
ACAD_XREC_ROUNDTRIP
360
1451
  0
DICTIONARY
  5
1454
330
1389
100
AcDbDictionary
280
     1
281
     1
  3
ACAD_XREC_ROUNDTRIP
360
1455
  0
DICTIONARY
  5
1452
330
1388
100
AcDbDictionary
280
     1
281
     1
  3
ACAD_XREC_ROUNDTRIP
360
1453
  0
DICTIONARY
  5
144E
330
1386
100
AcDbDictionary
280
     1
281
     1
  3
ACAD_XREC_ROUNDTRIP
360
144F
  0
DICTIONARY
  5
145C
330
138D
100
AcDbDictionary
280
     1
281
     1
  3
ACAD_XREC_ROUNDTRIP
360
145D
  0
DICTIONARY
  5
1464
330
1391
100
AcDbDictionary
280
     1
281
     1
  3
ACAD_XREC_ROUNDTRIP
360
1465
  0
DICTIONARY
  5
1456
330
138A
100
AcDbDictionary
280
     1
281
     1
  3
ACAD_XREC_ROUNDTRIP
360
1457
  0
DICTIONARY
  5
145A
330
138C
100
AcDbDictionary
280
     1
281
     1
  3
ACAD_XREC_ROUNDTRIP
360
145B
  0
DICTIONARY
  5
146A
330
1394
100
AcDbDictionary
280
     1
281
     1
  3
ACAD_XREC_ROUNDTRIP
360
146B
  0
DICTIONARY
  5
1462
330
1390
100
AcDbDictionary
280
     1
281
     1
  3
ACAD_XREC_ROUNDTRIP
360
1463
  0
DICTIONARY
  5
1446
330
1382
100
AcDbDictionary
280
     1
281
     1
  3
ACAD_XREC_ROUNDTRIP
360
1447
  0
DICTIONARY
  5
1448
330
1383
100
AcDbDictionary
280
     1
281
     1
  3
ACAD_XREC_ROUNDTRIP
360
1449
  0
DICTIONARY
  5
144A
330
1384
100
AcDbDictionary
280
     1
281
     1
  3
ACAD_XREC_ROUNDTRIP
360
144B
  0
DICTIONARY
  5
144C
330
1385
100
AcDbDictionary
280
     1
281
     1
  3
ACAD_XREC_ROUNDTRIP
360
144D
  0
DICTIONARY
  5
1466
330
1392
100
AcDbDictionary
280
     1
281
     1
  3
ACAD_XREC_ROUNDTRIP
360
1467
  0
DICTIONARY
  5
1460
330
138F
100
AcDbDictionary
280
     1
281
     1
  3
ACAD_XREC_ROUNDTRIP
360
1461
  0
DICTIONARY
  5
1468
330
1393
100
AcDbDictionary
280
     1
281
     1
  3
ACAD_XREC_ROUNDTRIP
360
1469
  0
DICTIONARY
  5
1458
330
138B
100
AcDbDictionary
280
     1
281
     1
  3
ACAD_XREC_ROUNDTRIP
360
1459
  0
DICTIONARY
  5
145E
330
138E
100
AcDbDictionary
280
     1
281
     1
  3
ACAD_XREC_ROUNDTRIP
360
145F
  0
XRECORD
  5
143C
102
{ACAD_REACTORS
330
143B
102
}
330
143B
100
AcDbXrecord
280
     1
102
SHADEPLOT
 70
     0
102
SHADEPLOTRESLEVEL
 70
     2
102
SHADEPLOTCUSTOMDPI
 70
   300
  0
XRECORD
  5
1440
102
{ACAD_REACTORS
330
143F
102
}
330
143F
100
AcDbXrecord
280
     1
102
SHADEPLOT
 70
     0
102
SHADEPLOTRESLEVEL
 70
     2
102
SHADEPLOTCUSTOMDPI
 70
   300
  0
XRECORD
  5
143E
102
{ACAD_REACTORS
330
143D
102
}
330
143D
100
AcDbXrecord
280
     1
102
SHADEPLOT
 70
     0
102
SHADEPLOTRESLEVEL
 70
     2
102
SHADEPLOTCUSTOMDPI
 70
   300
  0
XRECORD
  5
1444
102
{ACAD_REACTORS
330
1372
102
}
330
1372
100
AcDbXrecord
280
     1
102
MATERIAL
148
0.0
149
0.0
149
0.0
 93
        0
 94
      127
282
     0
 72
     0
 77
     0
171
     0
175
     0
179
     0
273
     0
  0
XRECORD
  5
1374
102
{ACAD_REACTORS
330
1372
102
}
330
1372
100
AcDbXrecord
280
     1
270
     1
271
     1
  0
XRECORD
  5
1373
102
{ACAD_REACTORS
330
1372
102
}
330
1372
100
AcDbXrecord
280
     1
270
     1
271
     1
  0
XRECORD
  5
1377
102
{ACAD_REACTORS
330
1372
102
}
330
1372
100
AcDbXrecord
280
     1
270
     1
271
     1
  0
XRECORD
  5
1376
102
{ACAD_REACTORS
330
1372
102
}
330
1372
100
AcDbXrecord
280
     1
270
     1
271
     1
  0
XRECORD
  5
1378
102
{ACAD_REACTORS
330
1372
102
}
330
1372
100
AcDbXrecord
280
     1
270
     1
271
     1
  0
XRECORD
  5
1375
102
{ACAD_REACTORS
330
1372
102
}
330
1372
100
AcDbXrecord
280
     1
270
     1
271
     1
  0
XRECORD
  5
1443
102
{ACAD_REACTORS
330
136A
102
}
330
136A
100
AcDbXrecord
280
     1
102
MATERIAL
148
0.0
149
0.0
149
0.0
 93
        0
 94
      127
282
     0
 72
     0
 77
     0
171
     0
175
     0
179
     0
273
     0
  0
XRECORD
  5
136C
102
{ACAD_REACTORS
330
136A
102
}
330
136A
100
AcDbXrecord
280
     1
270
     1
271
     1
  0
XRECORD
  5
136B
102
{ACAD_REACTORS
330
136A
102
}
330
136A
100
AcDbXrecord
280
     1
270
     1
271
     1
  0
XRECORD
  5
136F
102
{ACAD_REACTORS
330
136A
102
}
330
136A
100
AcDbXrecord
280
     1
270
     1
271
     1
  0
XRECORD
  5
136E
102
{ACAD_REACTORS
330
136A
102
}
330
136A
100
AcDbXrecord
280
     1
270
     1
271
     1
  0
XRECORD
  5
1370
102
{ACAD_REACTORS
330
136A
102
}
330
136A
100
AcDbXrecord
280
     1
270
     1
271
     1
  0
XRECORD
  5
136D
102
{ACAD_REACTORS
330
136A
102
}
330
136A
100
AcDbXrecord
280
     1
270
     1
271
     1
  0
XRECORD
  5
1445
102
{ACAD_REACTORS
330
137A
102
}
330
137A
100
AcDbXrecord
280
     1
102
MATERIAL
148
0.0
149
0.0
149
0.0
 93
        0
 94
      127
282
     0
 72
     0
 77
     0
171
     0
175
     0
179
     0
273
     0
  0
XRECORD
  5
137C
102
{ACAD_REACTORS
330
137A
102
}
330
137A
100
AcDbXrecord
280
     1
270
     1
271
     1
  0
XRECORD
  5
137B
102
{ACAD_REACTORS
330
137A
102
}
330
137A
100
AcDbXrecord
280
     1
270
     1
271
     1
  0
XRECORD
  5
137F
102
{ACAD_REACTORS
330
137A
102
}
330
137A
100
AcDbXrecord
280
     1
270
     1
271
     1
  0
XRECORD
  5
137E
102
{ACAD_REACTORS
330
137A
102
}
330
137A
100
AcDbXrecord
280
     1
270
     1
271
     1
  0
XRECORD
  5
1380
102
{ACAD_REACTORS
330
137A
102
}
330
137A
100
AcDbXrecord
280
     1
270
     1
271
     1
  0
XRECORD
  5
137D
102
{ACAD_REACTORS
330
137A
102
}
330
137A
100
AcDbXrecord
280
     1
270
     1
271
     1
  0
CELLSTYLEMAP
  5
1438
102
{ACAD_REACTORS
330
1437
102
}
330
1437
100
AcDbCellStyleMap
 90
        3
300
CELLSTYLE
  1
TABLEFORMAT_BEGIN
 90
        5
170
     1
 91
        0
 92
    32768
 62
   257
 93
        1
300
CONTENTFORMAT
  1
CONTENTFORMAT_BEGIN
 90
        0
 91
        0
 92
      512
 93
        0
300

 40
0.0
140
1.0
 94
        5
 62
     0
340
11
144
6.0
309
CONTENTFORMAT_END
171
     1
301
MARGIN
  1
CELLMARGIN_BEGIN
 40
1.5
 40
1.5
 40
1.5
 40
1.5
 40
4.5
 40
4.5
309
CELLMARGIN_END
 94
        6
 95
        1
302
GRIDFORMAT
  1
GRIDFORMAT_BEGIN
 90
        0
 91
        1
 62
     0
 92
       -2
340
0
 93
        0
 40
1.125
309
GRIDFORMAT_END
 95
        2
302
GRIDFORMAT
  1
GRIDFORMAT_BEGIN
 90
        0
 91
        1
 62
     0
 92
       -2
340
0
 93
        0
 40
1.125
309
GRIDFORMAT_END
 95
        4
302
GRIDFORMAT
  1
GRIDFORMAT_BEGIN
 90
        0
 91
        1
 62
     0
 92
       -2
340
0
 93
        0
 40
1.125
309
GRIDFORMAT_END
 95
        8
302
GRIDFORMAT
  1
GRIDFORMAT_BEGIN
 90
        0
 91
        1
 62
     0
 92
       -2
340
0
 93
        0
 40
1.125
309
GRIDFORMAT_END
 95
       16
302
GRIDFORMAT
  1
GRIDFORMAT_BEGIN
 90
        0
 91
        1
 62
     0
 92
       -2
340
0
 93
        0
 40
1.125
309
GRIDFORMAT_END
 95
       32
302
GRIDFORMAT
  1
GRIDFORMAT_BEGIN
 90
        0
 91
        1
 62
     0
 92
       -2
340
0
 93
        0
 40
1.125
309
GRIDFORMAT_END
309
TABLEFORMAT_END
  1
CELLSTYLE_BEGIN
 90
        1
 91
        1
300
_TITLE
309
CELLSTYLE_END
300
CELLSTYLE
  1
TABLEFORMAT_BEGIN
 90
        5
170
     1
 91
        0
 92
        0
 62
   257
 93
        1
300
CONTENTFORMAT
  1
CONTENTFORMAT_BEGIN
 90
        0
 91
        0
 92
      512
 93
        0
300

 40
0.0
140
1.0
 94
        5
 62
     0
340
11
144
4.5
309
CONTENTFORMAT_END
171
     1
301
MARGIN
  1
CELLMARGIN_BEGIN
 40
1.5
 40
1.5
 40
1.5
 40
1.5
 40
4.5
 40
4.5
309
CELLMARGIN_END
 94
        6
 95
        1
302
GRIDFORMAT
  1
GRIDFORMAT_BEGIN
 90
        0
 91
        1
 62
     0
 92
       -2
340
0
 93
        0
 40
1.125
309
GRIDFORMAT_END
 95
        2
302
GRIDFORMAT
  1
GRIDFORMAT_BEGIN
 90
        0
 91
        1
 62
     0
 92
       -2
340
0
 93
        0
 40
1.125
309
GRIDFORMAT_END
 95
        4
302
GRIDFORMAT
  1
GRIDFORMAT_BEGIN
 90
        0
 91
        1
 62
     0
 92
       -2
340
0
 93
        0
 40
1.125
309
GRIDFORMAT_END
 95
        8
302
GRIDFORMAT
  1
GRIDFORMAT_BEGIN
 90
        0
 91
        1
 62
     0
 92
       -2
340
0
 93
        0
 40
1.125
309
GRIDFORMAT_END
 95
       16
302
GRIDFORMAT
  1
GRIDFORMAT_BEGIN
 90
        0
 91
        1
 62
     0
 92
       -2
340
0
 93
        0
 40
1.125
309
GRIDFORMAT_END
 95
       32
302
GRIDFORMAT
  1
GRIDFORMAT_BEGIN
 90
        0
 91
        1
 62
     0
 92
       -2
340
0
 93
        0
 40
1.125
309
GRIDFORMAT_END
309
TABLEFORMAT_END
  1
CELLSTYLE_BEGIN
 90
        2
 91
        1
300
_HEADER
309
CELLSTYLE_END
300
CELLSTYLE
  1
TABLEFORMAT_BEGIN
 90
        5
170
     1
 91
        0
 92
        0
 62
   257
 93
        1
300
CONTENTFORMAT
  1
CONTENTFORMAT_BEGIN
 90
        0
 91
        0
 92
      512
 93
        0
300

 40
0.0
140
1.0
 94
        2
 62
     0
340
11
144
4.5
309
CONTENTFORMAT_END
171
     1
301
MARGIN
  1
CELLMARGIN_BEGIN
 40
1.5
 40
1.5
 40
1.5
 40
1.5
 40
4.5
 40
4.5
309
CELLMARGIN_END
 94
        6
 95
        1
302
GRIDFORMAT
  1
GRIDFORMAT_BEGIN
 90
        0
 91
        1
 62
     0
 92
       -2
340
0
 93
        0
 40
1.125
309
GRIDFORMAT_END
 95
        2
302
GRIDFORMAT
  1
GRIDFORMAT_BEGIN
 90
        0
 91
        1
 62
     0
 92
       -2
340
0
 93
        0
 40
1.125
309
GRIDFORMAT_END
 95
        4
302
GRIDFORMAT
  1
GRIDFORMAT_BEGIN
 90
        0
 91
        1
 62
     0
 92
       -2
340
0
 93
        0
 40
1.125
309
GRIDFORMAT_END
 95
        8
302
GRIDFORMAT
  1
GRIDFORMAT_BEGIN
 90
        0
 91
        1
 62
     0
 92
       -2
340
0
 93
        0
 40
1.125
309
GRIDFORMAT_END
 95
       16
302
GRIDFORMAT
  1
GRIDFORMAT_BEGIN
 90
        0
 91
        1
 62
     0
 92
       -2
340
0
 93
        0
 40
1.125
309
GRIDFORMAT_END
 95
       32
302
GRIDFORMAT
  1
GRIDFORMAT_BEGIN
 90
        0
 91
        1
 62
     0
 92
       -2
340
0
 93
        0
 40
1.125
309
GRIDFORMAT_END
309
TABLEFORMAT_END
  1
CELLSTYLE_BEGIN
 90
        3
 91
        2
300
_DATA
309
CELLSTYLE_END
  0
XRECORD
  5
146C
102
{ACAD_REACTORS
330
1437
102
}
330
1437
100
AcDbXrecord
280
     1
102
ACAD_ROUNDTRIP_PRE2007_TABLESTYLE
 90
      512
 91
        0
  1

 92
      512
 93
        0
  2

 94
      512
 95
        0
  3

  0
XRECORD
  5
1451
102
{ACAD_REACTORS
330
1450
102
}
330
1450
100
AcDbXrecord
280
     1
102
RTVSPropertyOp0
 70
     1
102
RTVSPropertyOp1
 70
     1
102
RTVSPropertyOp2
 70
     1
102
RTVSPropertyOp3
 70
     1
102
RTVSPropertyOp4
 70
     1
102
RTVSPropertyOp5
 70
     1
102
RTVSPropertyOp6
 70
     1
102
RTVSPropertyOp7
 70
     1
102
RTVSPropertyOp8
 70
     1
102
RTVSPropertyOp9
 70
     1
102
RTVSPropertyOp10
 70
     1
102
RTVSPropertyOp11
 70
     1
102
RTVSPropertyOp12
 70
     1
102
RTVSPropertyOp13
 70
     1
102
RTVSPropertyOp14
 70
     1
102
RTVSPropertyOp15
 70
     1
102
RTVSPropertyOp16
 70
     1
102
RTVSPropertyOp17
 70
     1
102
RTVSPropertyOp18
 70
     1
102
RTVSPropertyOp19
 70
     1
102
RTVSPropertyOp20
 70
     1
102
RTVSPropertyOp21
 70
     1
102
RTVSPropertyOp22
 70
     1
102
RTVSPropertyOp23
 70
     1
102
RTVSPropertyOp24
 70
     1
102
RTVSPropertyOp25
 70
     1
102
RTVSPropertyOp26
 70
     1
102
RTVSPropertyOp27
 70
     1
  0
XRECORD
  5
1455
102
{ACAD_REACTORS
330
1454
102
}
330
1454
100
AcDbXrecord
280
     1
102
RTVSPropertyOp0
 70
     1
102
RTVSPropertyOp1
 70
     1
102
RTVSPropertyOp2
 70
     1
102
RTVSPropertyOp3
 70
     1
102
RTVSPropertyOp4
 70
     1
102
RTVSPropertyOp5
 70
     1
102
RTVSPropertyOp6
 70
     1
102
RTVSPropertyOp7
 70
     1
102
RTVSPropertyOp8
 70
     1
102
RTVSPropertyOp9
 70
     1
102
RTVSPropertyOp10
 70
     1
102
RTVSPropertyOp11
 70
     1
102
RTVSPropertyOp12
 70
     1
102
RTVSPropertyOp13
 70
     1
102
RTVSPropertyOp14
 70
     1
102
RTVSPropertyOp15
 70
     1
102
RTVSPropertyOp16
 70
     1
102
RTVSPropertyOp17
 70
     1
102
RTVSPropertyOp18
 70
     1
102
RTVSPropertyOp19
 70
     1
102
RTVSPropertyOp20
 70
     1
102
RTVSPropertyOp21
 70
     1
102
RTVSPropertyOp22
 70
     1
102
RTVSPropertyOp23
 70
     1
102
RTVSPropertyOp24
 70
     1
102
RTVSPropertyOp25
 70
     1
102
RTVSPropertyOp26
 70
     1
102
RTVSPropertyOp27
 70
     1
  0
XRECORD
  5
1453
102
{ACAD_REACTORS
330
1452
102
}
330
1452
100
AcDbXrecord
280
     1
102
RTVSPropertyOp0
 70
     1
102
RTVSPropertyOp1
 70
     1
102
RTVSPropertyOp2
 70
     1
102
RTVSPropertyOp3
 70
     1
102
RTVSPropertyOp4
 70
     1
102
RTVSPropertyOp5
 70
     1
102
RTVSPropertyOp6
 70
     1
102
RTVSPropertyOp7
 70
     1
102
RTVSPropertyOp8
 70
     1
102
RTVSPropertyOp9
 70
     1
102
RTVSPropertyOp10
 70
     1
102
RTVSPropertyOp11
 70
     1
102
RTVSPropertyOp12
 70
     1
102
RTVSPropertyOp13
 70
     1
102
RTVSPropertyOp14
 70
     1
102
RTVSPropertyOp15
 70
     1
102
RTVSPropertyOp16
 70
     1
102
RTVSPropertyOp17
 70
     1
102
RTVSPropertyOp18
 70
     1
102
RTVSPropertyOp19
 70
     1
102
RTVSPropertyOp20
 70
     1
102
RTVSPropertyOp21
 70
     1
102
RTVSPropertyOp22
 70
     1
102
RTVSPropertyOp23
 70
     1
102
RTVSPropertyOp24
 70
     1
102
RTVSPropertyOp25
 70
     1
102
RTVSPropertyOp26
 70
     1
102
RTVSPropertyOp27
 70
     1
  0
XRECORD
  5
144F
102
{ACAD_REACTORS
330
144E
102
}
330
144E
100
AcDbXrecord
280
     1
102
RTVSPropertyOp0
 70
     1
102
RTVSPropertyOp1
 70
     1
102
RTVSPropertyOp2
 70
     1
102
RTVSPropertyOp3
 70
     1
102
RTVSPropertyOp4
 70
     1
102
RTVSPropertyOp5
 70
     1
102
RTVSPropertyOp6
 70
     1
102
RTVSPropertyOp7
 70
     1
102
RTVSPropertyOp8
 70
     1
102
RTVSPropertyOp9
 70
     1
102
RTVSPropertyOp10
 70
     1
102
RTVSPropertyOp11
 70
     1
102
RTVSPropertyOp12
 70
     1
102
RTVSPropertyOp13
 70
     1
102
RTVSPropertyOp14
 70
     1
102
RTVSPropertyOp15
 70
     1
102
RTVSPropertyOp16
 70
     1
102
RTVSPropertyOp17
 70
     1
102
RTVSPropertyOp18
 70
     1
102
RTVSPropertyOp19
 70
     1
102
RTVSPropertyOp20
 70
     1
102
RTVSPropertyOp21
 70
     1
102
RTVSPropertyOp22
 70
     1
102
RTVSPropertyOp23
 70
     1
102
RTVSPropertyOp24
 70
     1
102
RTVSPropertyOp25
 70
     1
102
RTVSPropertyOp26
 70
     1
102
RTVSPropertyOp27
 70
     1
  0
XRECORD
  5
145D
102
{ACAD_REACTORS
330
145C
102
}
330
145C
100
AcDbXrecord
280
     1
102
RTVSPropertyOp0
 70
     1
102
RTVSPropertyOp1
 70
     1
102
RTVSPropertyOp2
 70
     1
102
RTVSPropertyOp3
 70
     1
102
RTVSPropertyOp4
 70
     1
102
RTVSPropertyOp5
 70
     1
102
RTVSPropertyOp6
 70
     1
102
RTVSPropertyOp7
 70
     1
102
RTVSPropertyOp8
 70
     1
102
RTVSPropertyOp9
 70
     1
102
RTVSPropertyOp10
 70
     1
102
RTVSPropertyOp11
 70
     1
102
RTVSPropertyOp12
 70
     1
102
RTVSPropertyOp13
 70
     1
102
RTVSPropertyOp14
 70
     1
102
RTVSPropertyOp15
 70
     1
102
RTVSPropertyOp16
 70
     1
102
RTVSPropertyOp17
 70
     1
102
RTVSPropertyOp18
 70
     1
102
RTVSPropertyOp19
 70
     1
102
RTVSPropertyOp20
 70
     1
102
RTVSPropertyOp21
 70
     1
102
RTVSPropertyOp22
 70
     1
102
RTVSPropertyOp23
 70
     1
102
RTVSPropertyOp24
 70
     1
102
RTVSPropertyOp25
 70
     1
102
RTVSPropertyOp26
 70
     1
102
RTVSPropertyOp27
 70
     1
  0
XRECORD
  5
1465
102
{ACAD_REACTORS
330
1464
102
}
330
1464
100
AcDbXrecord
280
     1
102
RTVSPropertyOp0
 70
     1
102
RTVSPropertyOp1
 70
     1
102
RTVSPropertyOp2
 70
     1
102
RTVSPropertyOp3
 70
     1
102
RTVSPropertyOp4
 70
     1
102
RTVSPropertyOp5
 70
     1
102
RTVSPropertyOp6
 70
     1
102
RTVSPropertyOp7
 70
     1
102
RTVSPropertyOp8
 70
     1
102
RTVSPropertyOp9
 70
     1
102
RTVSPropertyOp10
 70
     1
102
RTVSPropertyOp11
 70
     1
102
RTVSPropertyOp12
 70
     1
102
RTVSPropertyOp13
 70
     1
102
RTVSPropertyOp14
 70
     1
102
RTVSPropertyOp15
 70
     1
102
RTVSPropertyOp16
 70
     1
102
RTVSPropertyOp17
 70
     1
102
RTVSPropertyOp18
 70
     1
102
RTVSPropertyOp19
 70
     1
102
RTVSPropertyOp20
 70
     1
102
RTVSPropertyOp21
 70
     1
102
RTVSPropertyOp22
 70
     1
102
RTVSPropertyOp23
 70
     1
102
RTVSPropertyOp24
 70
     1
102
RTVSPropertyOp25
 70
     1
102
RTVSPropertyOp26
 70
     1
102
RTVSPropertyOp27
 70
     1
  0
XRECORD
  5
1457
102
{ACAD_REACTORS
330
1456
102
}
330
1456
100
AcDbXrecord
280
     1
102
RTVSPropertyOp0
 70
     1
102
RTVSPropertyOp1
 70
     1
102
RTVSPropertyOp2
 70
     1
102
RTVSPropertyOp3
 70
     1
102
RTVSPropertyOp4
 70
     1
102
RTVSPropertyOp5
 70
     1
102
RTVSPropertyOp6
 70
     1
102
RTVSPropertyOp7
 70
     1
102
RTVSPropertyOp8
 70
     1
102
RTVSPropertyOp9
 70
     1
102
RTVSPropertyOp10
 70
     1
102
RTVSPropertyOp11
 70
     1
102
RTVSPropertyOp12
 70
     1
102
RTVSPropertyOp13
 70
     1
102
RTVSPropertyOp14
 70
     1
102
RTVSPropertyOp15
 70
     1
102
RTVSPropertyOp16
 70
     1
102
RTVSPropertyOp17
 70
     1
102
RTVSPropertyOp18
 70
     1
102
RTVSPropertyOp19
 70
     1
102
RTVSPropertyOp20
 70
     1
102
RTVSPropertyOp21
 70
     1
102
RTVSPropertyOp22
 70
     1
102
RTVSPropertyOp23
 70
     1
102
RTVSPropertyOp24
 70
     1
102
RTVSPropertyOp25
 70
     1
102
RTVSPropertyOp26
 70
     1
102
RTVSPropertyOp27
 70
     1
  0
XRECORD
  5
145B
102
{ACAD_REACTORS
330
145A
102
}
330
145A
100
AcDbXrecord
280
     1
102
RTVSPropertyOp0
 70
     1
102
RTVSPropertyOp1
 70
     1
102
RTVSPropertyOp2
 70
     1
102
RTVSPropertyOp3
 70
     1
102
RTVSPropertyOp4
 70
     1
102
RTVSPropertyOp5
 70
     1
102
RTVSPropertyOp6
 70
     1
102
RTVSPropertyOp7
 70
     1
102
RTVSPropertyOp8
 70
     1
102
RTVSPropertyOp9
 70
     1
102
RTVSPropertyOp10
 70
     1
102
RTVSPropertyOp11
 70
     1
102
RTVSPropertyOp12
 70
     1
102
RTVSPropertyOp13
 70
     1
102
RTVSPropertyOp14
 70
     1
102
RTVSPropertyOp15
 70
     1
102
RTVSPropertyOp16
 70
     1
102
RTVSPropertyOp17
 70
     1
102
RTVSPropertyOp18
 70
     1
102
RTVSPropertyOp19
 70
     1
102
RTVSPropertyOp20
 70
     1
102
RTVSPropertyOp21
 70
     1
102
RTVSPropertyOp22
 70
     1
102
RTVSPropertyOp23
 70
     1
102
RTVSPropertyOp24
 70
     1
102
RTVSPropertyOp25
 70
     1
102
RTVSPropertyOp26
 70
     1
102
RTVSPropertyOp27
 70
     1
  0
XRECORD
  5
146B
102
{ACAD_REACTORS
330
146A
102
}
330
146A
100
AcDbXrecord
280
     1
102
RTVSPropertyOp0
 70
     0
102
RTVSPropertyOp1
 70
     0
102
RTVSPropertyOp2
 70
     0
102
RTVSPropertyOp3
 70
     0
102
RTVSPropertyOp4
 70
     0
102
RTVSPropertyOp5
 70
     0
102
RTVSPropertyOp6
 70
     0
102
RTVSPropertyOp7
 70
     0
102
RTVSPropertyOp8
 70
     0
102
RTVSPropertyOp9
 70
     0
102
RTVSPropertyOp10
 70
     0
102
RTVSPropertyOp11
 70
     0
102
RTVSPropertyOp12
 70
     0
102
RTVSPropertyOp13
 70
     0
102
RTVSPropertyOp14
 70
     2
102
RTVSPropertyOp15
 70
     0
102
RTVSPropertyOp16
 70
     0
102
RTVSPropertyOp17
 70
     0
102
RTVSPropertyOp18
 70
     0
102
RTVSPropertyOp19
 70
     0
102
RTVSPropertyOp20
 70
     0
102
RTVSPropertyOp21
 70
     0
102
RTVSPropertyOp22
 70
     0
102
RTVSPropertyOp23
 70
     0
102
RTVSPropertyOp24
 70
     0
102
RTVSPropertyOp25
 70
     0
102
RTVSPropertyOp26
 70
     0
102
RTVSPropertyOp27
 70
     0
  0
XRECORD
  5
1463
102
{ACAD_REACTORS
330
1462
102
}
330
1462
100
AcDbXrecord
280
     1
102
RTVSPropertyOp0
 70
     1
102
RTVSPropertyOp1
 70
     1
102
RTVSPropertyOp2
 70
     1
102
RTVSPropertyOp3
 70
     1
102
RTVSPropertyOp4
 70
     1
102
RTVSPropertyOp5
 70
     1
102
RTVSPropertyOp6
 70
     1
102
RTVSPropertyOp7
 70
     1
102
RTVSPropertyOp8
 70
     1
102
RTVSPropertyOp9
 70
     1
102
RTVSPropertyOp10
 70
     1
102
RTVSPropertyOp11
 70
     1
102
RTVSPropertyOp12
 70
     1
102
RTVSPropertyOp13
 70
     1
102
RTVSPropertyOp14
 70
     1
102
RTVSPropertyOp15
 70
     1
102
RTVSPropertyOp16
 70
     1
102
RTVSPropertyOp17
 70
     1
102
RTVSPropertyOp18
 70
     1
102
RTVSPropertyOp19
 70
     1
102
RTVSPropertyOp20
 70
     1
102
RTVSPropertyOp21
 70
     1
102
RTVSPropertyOp22
 70
     1
102
RTVSPropertyOp23
 70
     1
102
RTVSPropertyOp24
 70
     1
102
RTVSPropertyOp25
 70
     1
102
RTVSPropertyOp26
 70
     1
102
RTVSPropertyOp27
 70
     1
  0
XRECORD
  5
1447
102
{ACAD_REACTORS
330
1446
102
}
330
1446
100
AcDbXrecord
280
     1
102
RTVSPropertyOp0
 70
     1
102
RTVSPropertyOp1
 70
     1
102
RTVSPropertyOp2
 70
     1
102
RTVSPropertyOp3
 70
     1
102
RTVSPropertyOp4
 70
     1
102
RTVSPropertyOp5
 70
     1
102
RTVSPropertyOp6
 70
     1
102
RTVSPropertyOp7
 70
     1
102
RTVSPropertyOp8
 70
     1
102
RTVSPropertyOp9
 70
     1
102
RTVSPropertyOp10
 70
     1
102
RTVSPropertyOp11
 70
     1
102
RTVSPropertyOp12
 70
     1
102
RTVSPropertyOp13
 70
     1
102
RTVSPropertyOp14
 70
     1
102
RTVSPropertyOp15
 70
     1
102
RTVSPropertyOp16
 70
     1
102
RTVSPropertyOp17
 70
     1
102
RTVSPropertyOp18
 70
     1
102
RTVSPropertyOp19
 70
     1
102
RTVSPropertyOp20
 70
     1
102
RTVSPropertyOp21
 70
     1
102
RTVSPropertyOp22
 70
     1
102
RTVSPropertyOp23
 70
     1
102
RTVSPropertyOp24
 70
     1
102
RTVSPropertyOp25
 70
     1
102
RTVSPropertyOp26
 70
     1
102
RTVSPropertyOp27
 70
     1
  0
XRECORD
  5
1449
102
{ACAD_REACTORS
330
1448
102
}
330
1448
100
AcDbXrecord
280
     1
102
RTVSPropertyOp0
 70
     1
102
RTVSPropertyOp1
 70
     1
102
RTVSPropertyOp2
 70
     1
102
RTVSPropertyOp3
 70
     1
102
RTVSPropertyOp4
 70
     1
102
RTVSPropertyOp5
 70
     1
102
RTVSPropertyOp6
 70
     1
102
RTVSPropertyOp7
 70
     1
102
RTVSPropertyOp8
 70
     1
102
RTVSPropertyOp9
 70
     1
102
RTVSPropertyOp10
 70
     1
102
RTVSPropertyOp11
 70
     1
102
RTVSPropertyOp12
 70
     1
102
RTVSPropertyOp13
 70
     1
102
RTVSPropertyOp14
 70
     1
102
RTVSPropertyOp15
 70
     1
102
RTVSPropertyOp16
 70
     1
102
RTVSPropertyOp17
 70
     1
102
RTVSPropertyOp18
 70
     1
102
RTVSPropertyOp19
 70
     1
102
RTVSPropertyOp20
 70
     1
102
RTVSPropertyOp21
 70
     1
102
RTVSPropertyOp22
 70
     1
102
RTVSPropertyOp23
 70
     1
102
RTVSPropertyOp24
 70
     1
102
RTVSPropertyOp25
 70
     1
102
RTVSPropertyOp26
 70
     1
102
RTVSPropertyOp27
 70
     1
  0
XRECORD
  5
144B
102
{ACAD_REACTORS
330
144A
102
}
330
144A
100
AcDbXrecord
280
     1
102
RTVSPropertyOp0
 70
     1
102
RTVSPropertyOp1
 70
     1
102
RTVSPropertyOp2
 70
     1
102
RTVSPropertyOp3
 70
     1
102
RTVSPropertyOp4
 70
     1
102
RTVSPropertyOp5
 70
     1
102
RTVSPropertyOp6
 70
     1
102
RTVSPropertyOp7
 70
     1
102
RTVSPropertyOp8
 70
     1
102
RTVSPropertyOp9
 70
     1
102
RTVSPropertyOp10
 70
     1
102
RTVSPropertyOp11
 70
     1
102
RTVSPropertyOp12
 70
     1
102
RTVSPropertyOp13
 70
     1
102
RTVSPropertyOp14
 70
     1
102
RTVSPropertyOp15
 70
     1
102
RTVSPropertyOp16
 70
     1
102
RTVSPropertyOp17
 70
     1
102
RTVSPropertyOp18
 70
     1
102
RTVSPropertyOp19
 70
     1
102
RTVSPropertyOp20
 70
     1
102
RTVSPropertyOp21
 70
     1
102
RTVSPropertyOp22
 70
     1
102
RTVSPropertyOp23
 70
     1
102
RTVSPropertyOp24
 70
     1
102
RTVSPropertyOp25
 70
     1
102
RTVSPropertyOp26
 70
     1
102
RTVSPropertyOp27
 70
     1
  0
XRECORD
  5
144D
102
{ACAD_REACTORS
330
144C
102
}
330
144C
100
AcDbXrecord
280
     1
102
RTVSPropertyOp0
 70
     1
102
RTVSPropertyOp1
 70
     1
102
RTVSPropertyOp2
 70
     1
102
RTVSPropertyOp3
 70
     1
102
RTVSPropertyOp4
 70
     1
102
RTVSPropertyOp5
 70
     1
102
RTVSPropertyOp6
 70
     1
102
RTVSPropertyOp7
 70
     1
102
RTVSPropertyOp8
 70
     1
102
RTVSPropertyOp9
 70
     1
102
RTVSPropertyOp10
 70
     1
102
RTVSPropertyOp11
 70
     1
102
RTVSPropertyOp12
 70
     1
102
RTVSPropertyOp13
 70
     1
102
RTVSPropertyOp14
 70
     1
102
RTVSPropertyOp15
 70
     1
102
RTVSPropertyOp16
 70
     1
102
RTVSPropertyOp17
 70
     1
102
RTVSPropertyOp18
 70
     1
102
RTVSPropertyOp19
 70
     1
102
RTVSPropertyOp20
 70
     1
102
RTVSPropertyOp21
 70
     1
102
RTVSPropertyOp22
 70
     1
102
RTVSPropertyOp23
 70
     1
102
RTVSPropertyOp24
 70
     1
102
RTVSPropertyOp25
 70
     1
102
RTVSPropertyOp26
 70
     1
102
RTVSPropertyOp27
 70
     1
  0
XRECORD
  5
1467
102
{ACAD_REACTORS
330
1466
102
}
330
1466
100
AcDbXrecord
280
     1
102
RTVSPropertyOp0
 70
     0
102
RTVSPropertyOp1
 70
     0
102
RTVSPropertyOp2
 70
     0
102
RTVSPropertyOp3
 70
     0
102
RTVSPropertyOp4
 70
     0
102
RTVSPropertyOp5
 70
     0
102
RTVSPropertyOp6
 70
     0
102
RTVSPropertyOp7
 70
     0
102
RTVSPropertyOp8
 70
     0
102
RTVSPropertyOp9
 70
     0
102
RTVSPropertyOp10
 70
     0
102
RTVSPropertyOp11
 70
     0
102
RTVSPropertyOp12
 70
     0
102
RTVSPropertyOp13
 70
     0
102
RTVSPropertyOp14
 70
     2
102
RTVSPropertyOp15
 70
     0
102
RTVSPropertyOp16
 70
     0
102
RTVSPropertyOp17
 70
     0
102
RTVSPropertyOp18
 70
     0
102
RTVSPropertyOp19
 70
     0
102
RTVSPropertyOp20
 70
     0
102
RTVSPropertyOp21
 70
     0
102
RTVSPropertyOp22
 70
     0
102
RTVSPropertyOp23
 70
     0
102
RTVSPropertyOp24
 70
     0
102
RTVSPropertyOp25
 70
     0
102
RTVSPropertyOp26
 70
     0
102
RTVSPropertyOp27
 70
     0
  0
XRECORD
  5
1461
102
{ACAD_REACTORS
330
1460
102
}
330
1460
100
AcDbXrecord
280
     1
102
RTVSPropertyOp0
 70
     1
102
RTVSPropertyOp1
 70
     1
102
RTVSPropertyOp2
 70
     1
102
RTVSPropertyOp3
 70
     1
102
RTVSPropertyOp4
 70
     1
102
RTVSPropertyOp5
 70
     1
102
RTVSPropertyOp6
 70
     1
102
RTVSPropertyOp7
 70
     1
102
RTVSPropertyOp8
 70
     1
102
RTVSPropertyOp9
 70
     1
102
RTVSPropertyOp10
 70
     1
102
RTVSPropertyOp11
 70
     1
102
RTVSPropertyOp12
 70
     1
102
RTVSPropertyOp13
 70
     1
102
RTVSPropertyOp14
 70
     1
102
RTVSPropertyOp15
 70
     1
102
RTVSPropertyOp16
 70
     1
102
RTVSPropertyOp17
 70
     1
102
RTVSPropertyOp18
 70
     1
102
RTVSPropertyOp19
 70
     1
102
RTVSPropertyOp20
 70
     1
102
RTVSPropertyOp21
 70
     1
102
RTVSPropertyOp22
 70
     1
102
RTVSPropertyOp23
 70
     1
102
RTVSPropertyOp24
 70
     1
102
RTVSPropertyOp25
 70
     1
102
RTVSPropertyOp26
 70
     1
102
RTVSPropertyOp27
 70
     1
  0
XRECORD
  5
1469
102
{ACAD_REACTORS
330
1468
102
}
330
1468
100
AcDbXrecord
280
     1
102
RTVSPropertyOp0
 70
     0
102
RTVSPropertyOp1
 70
     0
102
RTVSPropertyOp2
 70
     0
102
RTVSPropertyOp3
 70
     0
102
RTVSPropertyOp4
 70
     0
102
RTVSPropertyOp5
 70
     0
102
RTVSPropertyOp6
 70
     0
102
RTVSPropertyOp7
 70
     0
102
RTVSPropertyOp8
 70
     0
102
RTVSPropertyOp9
 70
     0
102
RTVSPropertyOp10
 70
     0
102
RTVSPropertyOp11
 70
     0
102
RTVSPropertyOp12
 70
     0
102
RTVSPropertyOp13
 70
     0
102
RTVSPropertyOp14
 70
     2
102
RTVSPropertyOp15
 70
     0
102
RTVSPropertyOp16
 70
     0
102
RTVSPropertyOp17
 70
     0
102
RTVSPropertyOp18
 70
     0
102
RTVSPropertyOp19
 70
     0
102
RTVSPropertyOp20
 70
     0
102
RTVSPropertyOp21
 70
     0
102
RTVSPropertyOp22
 70
     0
102
RTVSPropertyOp23
 70
     0
102
RTVSPropertyOp24
 70
     0
102
RTVSPropertyOp25
 70
     0
102
RTVSPropertyOp26
 70
     0
102
RTVSPropertyOp27
 70
     0
  0
XRECORD
  5
1459
102
{ACAD_REACTORS
330
1458
102
}
330
1458
100
AcDbXrecord
280
     1
102
RTVSPropertyOp0
 70
     1
102
RTVSPropertyOp1
 70
     1
102
RTVSPropertyOp2
 70
     1
102
RTVSPropertyOp3
 70
     1
102
RTVSPropertyOp4
 70
     1
102
RTVSPropertyOp5
 70
     1
102
RTVSPropertyOp6
 70
     1
102
RTVSPropertyOp7
 70
     1
102
RTVSPropertyOp8
 70
     1
102
RTVSPropertyOp9
 70
     1
102
RTVSPropertyOp10
 70
     1
102
RTVSPropertyOp11
 70
     1
102
RTVSPropertyOp12
 70
     1
102
RTVSPropertyOp13
 70
     1
102
RTVSPropertyOp14
 70
     1
102
RTVSPropertyOp15
 70
     1
102
RTVSPropertyOp16
 70
     1
102
RTVSPropertyOp17
 70
     1
102
RTVSPropertyOp18
 70
     1
102
RTVSPropertyOp19
 70
     1
102
RTVSPropertyOp20
 70
     1
102
RTVSPropertyOp21
 70
     1
102
RTVSPropertyOp22
 70
     1
102
RTVSPropertyOp23
 70
     1
102
RTVSPropertyOp24
 70
     1
102
RTVSPropertyOp25
 70
     1
102
RTVSPropertyOp26
 70
     1
102
RTVSPropertyOp27
 70
     1
  0
XRECORD
  5
145F
102
{ACAD_REACTORS
330
145E
102
}
330
145E
100
AcDbXrecord
280
     1
102
RTVSPropertyOp0
 70
     1
102
RTVSPropertyOp1
 70
     1
102
RTVSPropertyOp2
 70
     1
102
RTVSPropertyOp3
 70
     1
102
RTVSPropertyOp4
 70
     1
102
RTVSPropertyOp5
 70
     1
102
RTVSPropertyOp6
 70
     1
102
RTVSPropertyOp7
 70
     1
102
RTVSPropertyOp8
 70
     1
102
RTVSPropertyOp9
 70
     1
102
RTVSPropertyOp10
 70
     1
102
RTVSPropertyOp11
 70
     1
102
RTVSPropertyOp12
 70
     1
102
RTVSPropertyOp13
 70
     1
102
RTVSPropertyOp14
 70
     1
102
RTVSPropertyOp15
 70
     1
102
RTVSPropertyOp16
 70
     1
102
RTVSPropertyOp17
 70
     1
102
RTVSPropertyOp18
 70
     1
102
RTVSPropertyOp19
 70
     1
102
RTVSPropertyOp20
 70
     1
102
RTVSPropertyOp21
 70
     1
102
RTVSPropertyOp22
 70
     1
102
RTVSPropertyOp23
 70
     1
102
RTVSPropertyOp24
 70
     1
102
RTVSPropertyOp25
 70
     1
102
RTVSPropertyOp26
 70
     1
102
RTVSPropertyOp27
 70
     1
  0
ENDSEC
  0
EOF
