  0
SECTION
  2
HEADER
  9
$ACADVER
  1
AC1015
  9
$ACADMAINTVER
 70
    20
  9
$DWGCODEPAGE
  3
ANSI_1252
  9
$INSBASE
 10
0.0
 20
0.0
 30
0.0
  9
$EXTMIN
 10
4157.839359307279
 20
1399.820349876449
 30
-0.0000000017937957
  9
$EXTMAX
 10
4159.720661894794
 20
1401.670349876449
 30
0.0000000000000005
  9
$LIMMIN
 10
0.0
 20
0.0
  9
$LIMMAX
 10
420.0
 20
297.0
  9
$ORTHOMODE
 70
     0
  9
$REGENMODE
 70
     1
  9
$FILLMODE
 70
     1
  9
$QTEXTMODE
 70
     0
  9
$MIRRTEXT
 70
     1
  9
$LTSCALE
 40
1.0
  9
$ATTMODE
 70
     1
  9
$TEXTSIZE
 40
2.5
  9
$TRACEWID
 40
1.0
  9
$TEXTSTYLE
  7
SANINDUSA
  9
$CLAYER
  8
cotas
  9
$CELTYPE
  6
ByLayer
  9
$CECOLOR
 62
   256
  9
$CELTSCALE
 40
1.0
  9
$DISPSILH
 70
     0
  9
$DIMSCALE
 40
1.0
  9
$DIMASZ
 40
2.0
  9
$DIMEXO
 40
1.0
  9
$DIMDLI
 40
1.0
  9
$DIMRND
 40
0.0
  9
$DIMDLE
 40
0.0
  9
$DIMEXE
 40
1.0
  9
$DIMTP
 40
0.0
  9
$DIMTM
 40
0.0
  9
$DIMTXT
 40
2.0
  9
$DIMCEN
 40
0.0
  9
$DIMTSZ
 40
0.0
  9
$DIMTOL
 70
     0
  9
$DIMLIM
 70
     0
  9
$DIMTIH
 70
     0
  9
$DIMTOH
 70
     0
  9
$DIMSE1
 70
     0
  9
$DIMSE2
 70
     0
  9
$DIMTAD
 70
     1
  9
$DIMZIN
 70
     8
  9
$DIMBLK
  1

  9
$DIMASO
 70
     1
  9
$DIMSHO
 70
     1
  9
$DIMPOST
  1

  9
$DIMAPOST
  1

  9
$DIMALT
 70
     0
  9
$DIMALTD
 70
     3
  9
$DIMALTF
 40
0.03937007874016
  9
$DIMLFAC
 40
1.0
  9
$DIMTOFL
 70
     1
  9
$DIMTVP
 40
0.0
  9
$DIMTIX
 70
     0
  9
$DIMSOXD
 70
     0
  9
$DIMSAH
 70
     0
  9
$DIMBLK1
  1

  9
$DIMBLK2
  1

  9
$DIMSTYLE
  2
SANINDUSA
  9
$DIMCLRD
 70
   256
  9
$DIMCLRE
 70
   256
  9
$DIMCLRT
 70
   256
  9
$DIMTFAC
 40
1.0
  9
$DIMGAP
 40
1.0
  9
$DIMJUST
 70
     0
  9
$DIMSD1
 70
     0
  9
$DIMSD2
 70
     0
  9
$DIMTOLJ
 70
     0
  9
$DIMTZIN
 70
     8
  9
$DIMALTZ
 70
     0
  9
$DIMALTTZ
 70
     0
  9
$DIMUPT
 70
     0
  9
$DIMDEC
 70
     1
  9
$DIMTDEC
 70
     1
  9
$DIMALTU
 70
     2
  9
$DIMALTTD
 70
     3
  9
$DIMTXSTY
  7
SANINDUSA
  9
$DIMAUNIT
 70
     0
  9
$DIMADEC
 70
     1
  9
$DIMALTRND
 40
0.0
  9
$DIMAZIN
 70
     0
  9
$DIMDSEP
 70
    44
  9
$DIMATFIT
 70
     3
  9
$DIMFRAC
 70
     0
  9
$DIMLDRBLK
  1

  9
$DIMLUNIT
 70
     2
  9
$DIMLWD
 70
    -1
  9
$DIMLWE
 70
    -1
  9
$DIMTMOVE
 70
     0
  9
$LUNITS
 70
     2
  9
$LUPREC
 70
     4
  9
$SKETCHINC
 40
1.0
  9
$FILLETRAD
 40
0.0
  9
$AUNITS
 70
     0
  9
$AUPREC
 70
     0
  9
$MENU
  1
.
  9
$ELEVATION
 40
0.0
  9
$PELEVATION
 40
0.0
  9
$THICKNESS
 40
0.0
  9
$LIMCHECK
 70
     0
  9
$CHAMFERA
 40
10.0
  9
$CHAMFERB
 40
10.0
  9
$CHAMFERC
 40
20.0
  9
$CHAMFERD
 40
0.0
  9
$SKPOLY
 70
     0
  9
$TDCREATE
 40
2453259.383573669
  9
$TDUCREATE
 40
2453259.341907003
  9
$TDUPDATE
 40
2455817.503568067
  9
$TDUUPDATE
 40
2455817.461901400
  9
$TDINDWG
 40
0.0506148727
  9
$TDUSRTIMER
 40
0.0506148727
  9
$USRTIMER
 70
     1
  9
$ANGBASE
 50
0.0
  9
$ANGDIR
 70
     0
  9
$PDMODE
 70
     0
  9
$PDSIZE
 40
0.0
  9
$PLINEWID
 40
0.0
  9
$SPLFRAME
 70
     0
  9
$SPLINETYPE
 70
     6
  9
$SPLINESEGS
 70
     8
  9
$HANDSEED
  5
2A26
  9
$SURFTAB1
 70
     6
  9
$SURFTAB2
 70
     6
  9
$SURFTYPE
 70
     6
  9
$SURFU
 70
     6
  9
$SURFV
 70
     6
  9
$UCSBASE
  2

  9
$UCSNAME
  2

  9
$UCSORG
 10
0.0
 20
0.0
 30
0.0
  9
$UCSXDIR
 10
1.0
 20
0.0
 30
0.0
  9
$UCSYDIR
 10
0.0
 20
1.0
 30
0.0
  9
$UCSORTHOREF
  2

  9
$UCSORTHOVIEW
 70
     0
  9
$UCSORGTOP
 10
0.0
 20
0.0
 30
0.0
  9
$UCSORGBOTTOM
 10
0.0
 20
0.0
 30
0.0
  9
$UCSORGLEFT
 10
0.0
 20
0.0
 30
0.0
  9
$UCSORGRIGHT
 10
0.0
 20
0.0
 30
0.0
  9
$UCSORGFRONT
 10
0.0
 20
0.0
 30
0.0
  9
$UCSORGBACK
 10
0.0
 20
0.0
 30
0.0
  9
$PUCSBASE
  2

  9
$PUCSNAME
  2

  9
$PUCSORG
 10
0.0
 20
0.0
 30
0.0
  9
$PUCSXDIR
 10
1.0
 20
0.0
 30
0.0
  9
$PUCSYDIR
 10
0.0
 20
1.0
 30
0.0
  9
$PUCSORTHOREF
  2

  9
$PUCSORTHOVIEW
 70
     0
  9
$PUCSORGTOP
 10
0.0
 20
0.0
 30
0.0
  9
$PUCSORGBOTTOM
 10
0.0
 20
0.0
 30
0.0
  9
$PUCSORGLEFT
 10
0.0
 20
0.0
 30
0.0
  9
$PUCSORGRIGHT
 10
0.0
 20
0.0
 30
0.0
  9
$PUCSORGFRONT
 10
0.0
 20
0.0
 30
0.0
  9
$PUCSORGBACK
 10
0.0
 20
0.0
 30
0.0
  9
$USERI1
 70
     0
  9
$USERI2
 70
     0
  9
$USERI3
 70
     0
  9
$USERI4
 70
     0
  9
$USERI5
 70
     0
  9
$USERR1
 40
0.0
  9
$USERR2
 40
0.0
  9
$USERR3
 40
0.0
  9
$USERR4
 40
0.0
  9
$USERR5
 40
0.0
  9
$WORLDVIEW
 70
     1
  9
$SHADEDGE
 70
     3
  9
$SHADEDIF
 70
    70
  9
$TILEMODE
 70
     1
  9
$MAXACTVP
 70
    64
  9
$PINSBASE
 10
0.0
 20
0.0
 30
0.0
  9
$PLIMCHECK
 70
     0
  9
$PEXTMIN
 10
1.000000000000000E+20
 20
1.000000000000000E+20
 30
1.000000000000000E+20
  9
$PEXTMAX
 10
-1.000000000000000E+20
 20
-1.000000000000000E+20
 30
-1.000000000000000E+20
  9
$PLIMMIN
 10
0.0
 20
0.0
  9
$PLIMMAX
 10
420.0
 20
297.0
  9
$UNITMODE
 70
     0
  9
$VISRETAIN
 70
     1
  9
$PLINEGEN
 70
     0
  9
$PSLTSCALE
 70
     1
  9
$TREEDEPTH
 70
  3020
  9
$CMLSTYLE
  2
Standard
  9
$CMLJUST
 70
     0
  9
$CMLSCALE
 40
20.0
  9
$PROXYGRAPHICS
 70
     1
  9
$MEASUREMENT
 70
     1
  9
$CELWEIGHT
370
    -1
  9
$ENDCAPS
280
     0
  9
$JOINSTYLE
280
     0
  9
$LWDISPLAY
290
     0
  9
$INSUNITS
 70
     4
  9
$HYPERLINKBASE
  1

  9
$STYLESHEET
  1
monochrome.ctb
  9
$XEDIT
290
     1
  9
$CEPSNTYPE
380
     0
  9
$PSTYLEMODE
290
     1
  9
$FINGERPRINTGUID
  2
{B98A73AA-52AA-4C10-B469-C0E7150AC31F}
  9
$VERSIONGUID
  2
{CB0D64B2-4101-45F7-B132-711B5581CC27}
  9
$EXTNAMES
290
     1
  9
$PSVPSCALE
 40
0.0
  9
$OLESTARTUP
290
     0
  0
ENDSEC
  0
SECTION
  2
CLASSES
  0
CLASS
  1
ACDBDICTIONARYWDFLT
  2
AcDbDictionaryWithDefault
  3
ObjectDBX Classes
 90
        0
280
     0
281
     0
  0
CLASS
  1
ACDBPLACEHOLDER
  2
AcDbPlaceHolder
  3
ObjectDBX Classes
 90
        0
280
     0
281
     0
  0
CLASS
  1
LAYOUT
  2
AcDbLayout
  3
ObjectDBX Classes
 90
        0
280
     0
281
     0
  0
CLASS
  1
DICTIONARYVAR
  2
AcDbDictionaryVar
  3
ObjectDBX Classes
 90
        0
280
     0
281
     0
  0
CLASS
  1
DIMASSOC
  2
AcDbDimAssoc
  3
"AcDbDimAssoc|Product Desc:     AcDim ARX App For Dimension|Company:          Autodesk, Inc.|WEB Address:      www.autodesk.com"
 90
    32768
280
     0
281
     0
  0
CLASS
  1
MATERIAL
  2
AcDbMaterial
  3
ObjectDBX Classes
 90
     1153
280
     0
281
     0
  0
CLASS
  1
VISUALSTYLE
  2
AcDbVisualStyle
  3
ObjectDBX Classes
 90
     4095
280
     0
281
     0
  0
CLASS
  1
TABLESTYLE
  2
AcDbTableStyle
  3
ObjectDBX Classes
 90
     4095
280
     0
281
     0
  0
CLASS
  1
SCALE
  2
AcDbScale
  3
ObjectDBX Classes
 90
     1153
280
     0
281
     0
  0
CLASS
  1
MLEADERSTYLE
  2
AcDbMLeaderStyle
  3
ACDB_MLEADERSTYLE_CLASS
 90
     4095
280
     0
281
     0
  0
CLASS
  1
CELLSTYLEMAP
  2
AcDbCellStyleMap
  3
ObjectDBX Classes
 90
     1152
280
     0
281
     0
  0
ENDSEC
  0
SECTION
  2
TABLES
  0
TABLE
  2
VPORT
  5
8
102
{ACAD_XDICTIONARY
360
2973
102
}
330
0
100
AcDbSymbolTable
 70
     1
  0
VPORT
  5
28E2
330
8
100
AcDbSymbolTableRecord
100
AcDbViewportTableRecord
  2
*Active
 70
     0
 10
0.0
 20
0.0
 11
1.0
 21
1.0
 12
4158.780010601037
 22
1400.745349876449
 13
0.0
 23
0.0
 14
10.0
 24
10.0
 15
10.0
 25
10.0
 16
0.0
 26
0.0
 36
1.0
 17
0.0
 27
0.0
 37
0.0
 40
1.86156249999999
 41
1.645464025026068
 42
50.0
 43
0.0
 44
0.0
 50
0.0
 51
0.0
 71
     0
 72
   100
 73
     1
 74
     2
 75
     0
 76
     0
 77
     0
 78
     0
281
     0
 65
     1
110
0.0
120
0.0
130
0.0
111
1.0
121
0.0
131
0.0
112
0.0
122
1.0
132
0.0
 79
     0
146
0.0
  0
ENDTAB
  0
TABLE
  2
LTYPE
  5
5
330
0
100
AcDbSymbolTable
 70
     4
  0
LTYPE
  5
14
330
5
100
AcDbSymbolTableRecord
100
AcDbLinetypeTableRecord
  2
ByBlock
 70
     0
  3

 72
    65
 73
     0
 40
0.0
  0
LTYPE
  5
15
330
5
100
AcDbSymbolTableRecord
100
AcDbLinetypeTableRecord
  2
ByLayer
 70
     0
  3

 72
    65
 73
     0
 40
0.0
  0
LTYPE
  5
16
330
5
100
AcDbSymbolTableRecord
100
AcDbLinetypeTableRecord
  2
Continuous
 70
     0
  3
Solid line
 72
    65
 73
     0
 40
0.0
  0
LTYPE
  5
2D
330
5
100
AcDbSymbolTableRecord
100
AcDbLinetypeTableRecord
  2
DASHDOT
 70
     0
  3
Dash dot __ . __ . __ . __ . __ . __ . __ . __
 72
    65
 73
     4
 40
25.4
 49
12.7
 74
     0
 49
-6.349999999999999
 74
     0
 49
0.0
 74
     0
 49
-6.349999999999999
 74
     0
  0
LTYPE
  5
2E
330
5
100
AcDbSymbolTableRecord
100
AcDbLinetypeTableRecord
  2
HIDDEN
 70
     0
  3
Hidden __ __ __ __ __ __ __ __ __ __ __ __ __ _
 72
    65
 73
     2
 40
9.524999999999998
 49
6.349999999999999
 74
     0
 49
-3.174999999999999
 74
     0
  0
LTYPE
  5
D1E
330
5
100
AcDbSymbolTableRecord
100
AcDbLinetypeTableRecord
  2
CENTER
 70
     0
  3
____ _ ____ _ ____ _ ____ _ ____ _ ____ _ ____ 
 72
    65
 73
     4
 40
2.0
 49
1.25
 74
     0
 49
-0.25
 74
     0
 49
0.25
 74
     0
 49
-0.25
 74
     0
  0
ENDTAB
  0
TABLE
  2
LAYER
  5
2
330
0
100
AcDbSymbolTable
 70
    17
  0
LAYER
  5
10
102
{ACAD_XDICTIONARY
360
294F
102
}
330
2
100
AcDbSymbolTableRecord
100
AcDbLayerTableRecord
  2
0
 70
     0
 62
     7
  6
Continuous
370
    -3
390
F
  0
LAYER
  5
2F
102
{ACAD_XDICTIONARY
360
2951
102
}
330
2
100
AcDbSymbolTableRecord
100
AcDbLayerTableRecord
  2
1
 70
     0
 62
     1
  6
Continuous
370
    -3
390
F
  0
LAYER
  5
30
102
{ACAD_XDICTIONARY
360
2953
102
}
330
2
100
AcDbSymbolTableRecord
100
AcDbLayerTableRecord
  2
2
 70
     0
 62
     2
  6
Continuous
370
    -3
390
F
  0
LAYER
  5
31
102
{ACAD_XDICTIONARY
360
2955
102
}
330
2
100
AcDbSymbolTableRecord
100
AcDbLayerTableRecord
  2
3
 70
     0
 62
     3
  6
Continuous
370
    -3
390
F
  0
LAYER
  5
32
102
{ACAD_XDICTIONARY
360
2957
102
}
330
2
100
AcDbSymbolTableRecord
100
AcDbLayerTableRecord
  2
4
 70
     0
 62
     4
  6
Continuous
370
    -3
390
F
  0
LAYER
  5
33
102
{ACAD_XDICTIONARY
360
2959
102
}
330
2
100
AcDbSymbolTableRecord
100
AcDbLayerTableRecord
  2
5
 70
     0
 62
     5
  6
Continuous
370
    -3
390
F
  0
LAYER
  5
34
102
{ACAD_XDICTIONARY
360
295B
102
}
330
2
100
AcDbSymbolTableRecord
100
AcDbLayerTableRecord
  2
6
 70
     0
 62
     6
  6
Continuous
370
    -3
390
F
  0
LAYER
  5
35
102
{ACAD_XDICTIONARY
360
295D
102
}
330
2
100
AcDbSymbolTableRecord
100
AcDbLayerTableRecord
  2
7
 70
     0
 62
     7
  6
Continuous
370
    -3
390
F
  0
LAYER
  5
36
102
{ACAD_XDICTIONARY
360
295F
102
}
330
2
100
AcDbSymbolTableRecord
100
AcDbLayerTableRecord
  2
cen
 70
     0
 62
     7
  6
DASHDOT
370
    -3
390
F
  0
LAYER
  5
37
102
{ACAD_XDICTIONARY
360
2961
102
}
330
2
100
AcDbSymbolTableRecord
100
AcDbLayerTableRecord
  2
hid
 70
     0
 62
     7
  6
HIDDEN
370
    -3
390
F
  0
LAYER
  5
5D6
102
{ACAD_XDICTIONARY
360
2963
102
}
330
2
100
AcDbSymbolTableRecord
100
AcDbLayerTableRecord
  2
hatch
 70
     0
 62
     9
  6
Continuous
370
    -3
390
F
  0
LAYER
  5
8AF
102
{ACAD_XDICTIONARY
360
2965
102
}
330
2
100
AcDbSymbolTableRecord
100
AcDbLayerTableRecord
  2
9
 70
     0
 62
     9
  6
Continuous
370
    -3
390
F
  0
LAYER
  5
8F8
102
{ACAD_XDICTIONARY
360
2967
102
}
330
2
100
AcDbSymbolTableRecord
100
AcDbLayerTableRecord
  2
leg fin
 70
     0
 62
     9
  6
Continuous
370
    -3
390
F
  0
LAYER
  5
91D
102
{ACAD_XDICTIONARY
360
2969
102
}
330
2
100
AcDbSymbolTableRecord
100
AcDbLayerTableRecord
  2
cotas
 70
     0
 62
     1
  6
Continuous
370
    -3
390
F
  0
LAYER
  5
92F
330
2
100
AcDbSymbolTableRecord
100
AcDbLayerTableRecord
  2
Defpoints
 70
     0
 62
     7
  6
Continuous
290
     0
370
    -3
390
F
  0
LAYER
  5
D1F
102
{ACAD_XDICTIONARY
360
296B
102
}
330
2
100
AcDbSymbolTableRecord
100
AcDbLayerTableRecord
  2
quote
 70
     0
 62
     7
  6
Continuous
370
    18
390
F
  0
LAYER
  5
294E
102
{ACAD_XDICTIONARY
360
296D
102
}
330
2
100
AcDbSymbolTableRecord
100
AcDbLayerTableRecord
  2
SANINDUSA
 70
     0
 62
     3
  6
Continuous
370
    -3
390
F
  0
ENDTAB
  0
TABLE
  2
STYLE
  5
3
330
0
100
AcDbSymbolTable
 70
     4
  0
STYLE
  5
11
330
3
100
AcDbSymbolTableRecord
100
AcDbTextStyleTableRecord
  2
Standard
 70
     0
 40
0.0
 41
1.0
 50
0.0
 71
     0
 42
2.5
  3
Avgardn.ttf
  4

1001
ACAD
1000
AvantGarde Bk BT
1071
       34
  0
STYLE
  5
2C
330
3
100
AcDbSymbolTableRecord
100
AcDbTextStyleTableRecord
  2

 70
     1
 40
0.0
 41
1.0
 50
0.0
 71
     0
 42
2.5
  3
ltypeshp.shx
  4

  0
STYLE
  5
91F
330
3
100
AcDbSymbolTableRecord
100
AcDbTextStyleTableRecord
  2
SANINDUSA
 70
     0
 40
0.0
 41
1.0
 50
0.0
 71
     0
 42
2.5
  3
verdana.TTF
  4

1001
ACAD
1000
Verdana
1071
       34
  0
STYLE
  5
D20
330
3
100
AcDbSymbolTableRecord
100
AcDbTextStyleTableRecord
  2
ISOCP
 70
     0
 40
0.0
 41
1.0
 50
0.0
 71
     0
 42
2.5
  3
isocp
  4

  0
ENDTAB
  0
TABLE
  2
VIEW
  5
6
330
0
100
AcDbSymbolTable
 70
     0
  0
ENDTAB
  0
TABLE
  2
UCS
  5
7
330
0
100
AcDbSymbolTable
 70
     0
  0
ENDTAB
  0
TABLE
  2
APPID
  5
9
330
0
100
AcDbSymbolTable
 70
     8
  0
APPID
  5
12
330
9
100
AcDbSymbolTableRecord
100
AcDbRegAppTableRecord
  2
ACAD
 70
     0
  0
APPID
  5
3A
330
9
100
AcDbSymbolTableRecord
100
AcDbRegAppTableRecord
  2
DCO15
 70
     0
  0
APPID
  5
D22
330
9
100
AcDbSymbolTableRecord
100
AcDbRegAppTableRecord
  2
GENIUS_GENDTOL_13
 70
     0
  0
APPID
  5
D23
330
9
100
AcDbSymbolTableRecord
100
AcDbRegAppTableRecord
  2
GENIUS_GENREC_14
 70
     0
  0
APPID
  5
D24
330
9
100
AcDbSymbolTableRecord
100
AcDbRegAppTableRecord
  2
GENIUS_GENODEF_13
 70
     0
  0
APPID
  5
D25
330
9
100
AcDbSymbolTableRecord
100
AcDbRegAppTableRecord
  2
GENIUS_GENOBJ-N-REC_13
 70
     0
  0
APPID
  5
292F
330
9
100
AcDbSymbolTableRecord
100
AcDbRegAppTableRecord
  2
ACAD_EXEMPT_FROM_CAD_STANDARDS
 70
     0
  0
APPID
  5
29AB
330
9
100
AcDbSymbolTableRecord
100
AcDbRegAppTableRecord
  2
ACAD_MLEADERVER
 70
     0
  0
ENDTAB
  0
TABLE
  2
DIMSTYLE
  5
A
330
0
100
AcDbSymbolTable
 70
     3
100
AcDbDimStyleTable
 71
     1
340
921
  0
DIMSTYLE
105
45
330
A
100
AcDbSymbolTableRecord
100
AcDbDimStyleTableRecord
  2
STANDARD
 70
     0
289
     0
340
11
  0
DIMSTYLE
105
921
330
A
100
AcDbSymbolTableRecord
100
AcDbDimStyleTableRecord
  2
SANINDUSA
 70
     0
 41
2.0
 42
1.0
 43
1.0
 44
1.0
 73
     0
 74
     0
 77
     1
 78
     8
140
2.0
141
0.0
143
0.03937007874016
147
1.0
171
     3
172
     1
176
   256
177
   256
178
   256
179
     1
271
     1
272
     1
274
     3
278
    44
283
     0
284
     8
340
91F
371
    -1
372
    -1
  0
DIMSTYLE
105
D21
330
A
100
AcDbSymbolTableRecord
100
AcDbDimStyleTableRecord
  2
ISO-35
 70
     0
 41
3.5
 42
0.875
 43
5.25
 44
1.75
 45
0.5
 73
     0
 74
     0
 77
     1
 78
     8
140
3.5
141
3.5
143
0.0394
147
0.875
171
     4
172
     1
176
   256
177
   256
178
   256
271
     1
272
     1
273
     8
274
     4
340
11
371
    -1
372
    -1
  0
ENDTAB
  0
TABLE
  2
BLOCK_RECORD
  5
1
330
0
100
AcDbSymbolTable
 70
    18
  0
BLOCK_RECORD
  5
1F
330
1
100
AcDbSymbolTableRecord
100
AcDbBlockTableRecord
  2
*Model_Space
340
22
  0
BLOCK_RECORD
  5
1B
330
1
100
AcDbSymbolTableRecord
100
AcDbBlockTableRecord
  2
*Paper_Space
340
1E
  0
BLOCK_RECORD
  5
23
330
1
100
AcDbSymbolTableRecord
100
AcDbBlockTableRecord
  2
*Paper_Space0
340
26
  0
BLOCK_RECORD
  5
919
330
1
100
AcDbSymbolTableRecord
100
AcDbBlockTableRecord
  2
_DotSmall
340
0
  0
BLOCK_RECORD
  5
922
330
1
100
AcDbSymbolTableRecord
100
AcDbBlockTableRecord
  2
base para cotas
340
0
310
2800000020000000200000000100080000000000000400000000000000000000000000000000000000000000000080000080000000808000800000008000800080800000C0C0C000C0DCC000F0CAA6000020400000206000002080000020A0000020C0000020E00000400000004020000040400000406000004080000040A0
310
000040C0000040E00000600000006020000060400000606000006080000060A0000060C0000060E00000800000008020000080400000806000008080000080A0000080C0000080E00000A0000000A0200000A0400000A0600000A0800000A0A00000A0C00000A0E00000C0000000C0200000C0400000C0600000C0800000C0
310
A00000C0C00000C0E00000E0000000E0200000E0400000E0600000E0800000E0A00000E0C00000E0E00040000000400020004000400040006000400080004000A0004000C0004000E00040200000402020004020400040206000402080004020A0004020C0004020E000404000004040200040404000404060004040800040
310
40A0004040C0004040E00040600000406020004060400040606000406080004060A0004060C0004060E00040800000408020004080400040806000408080004080A0004080C0004080E00040A0000040A0200040A0400040A0600040A0800040A0A00040A0C00040A0E00040C0000040C0200040C0400040C0600040C08000
310
40C0A00040C0C00040C0E00040E0000040E0200040E0400040E0600040E0800040E0A00040E0C00040E0E00080000000800020008000400080006000800080008000A0008000C0008000E00080200000802020008020400080206000802080008020A0008020C0008020E00080400000804020008040400080406000804080
310
008040A0008040C0008040E00080600000806020008060400080606000806080008060A0008060C0008060E00080800000808020008080400080806000808080008080A0008080C0008080E00080A0000080A0200080A0400080A0600080A0800080A0A00080A0C00080A0E00080C0000080C0200080C0400080C0600080C0
310
800080C0A00080C0C00080C0E00080E0000080E0200080E0400080E0600080E0800080E0A00080E0C00080E0E000C0000000C0002000C0004000C0006000C0008000C000A000C000C000C000E000C0200000C0202000C0204000C0206000C0208000C020A000C020C000C020E000C0400000C0402000C0404000C0406000C0
310
408000C040A000C040C000C040E000C0600000C0602000C0604000C0606000C0608000C060A000C060C000C060E000C0800000C0802000C0804000C0806000C0808000C080A000C080C000C080E000C0A00000C0A02000C0A04000C0A06000C0A08000C0A0A000C0A0C000C0A0E000C0C00000C0C02000C0C04000C0C06000
310
C0C08000C0C0A000F0FBFF00A4A0A000808080000000FF0000FF000000FFFF00FF000000FF00FF00FFFF0000FFFFFF00A4A4A4A4A4A4A4A4A4A4A4A4A4A4A4A4A4A4A4A4A4A4A4A4A4A4A4A4A4A4A4A4A4A4A4A4A4A4A4A4A4A4A4A4A4A4A4A4A4A4A4A4A4A4A4A4A4A4A4A4A4A4A4A4A4A4A4A4A4A4A4A4A4A4A4A4A4A4A4
310
A4A4A4A4A4A4A4A4A4A4A4A4A4A4A4A4A4A4A4A4A4A4A4A4A4A4A4A4A4A4A4A4A4A4A4A4A4A4A4A4A4A4A4A4A4A4A4A4A4A4A4A4A4A4A4A4A4A4A4A4A4A4A4A4A4A4A4A4A4A4A4A4A4A4A4A4A4A4A4A4A4A4A4A4A4A4A4A4A4A4A4A4A4A4A4A4A4A4A4A4A4A4A4A4A4A4A4A4A4A4A4A4A4A4A4A4A4A4A4A4A4A4A4A4A4A4A4
310
A4A4A4A4A4A4A4A4A4A4A4A4A4A4A4A4A4A4A4A4A4A4A4A4A4A4A4A4A4A4A4A4A4A4A4A4A4A4A4A4A4A4A4A4A4A4A4A4A4A4A4A4A4A4A4A4A4A4A4A4A4A4A4A4A4A4A4A4A4A4A4A4A4A4A4A4A4A4A4A4A4A4A4A4A4A4A4A4A4A4A4A4A4A4A4A4A4A4A4A4A4A4A4A4A4A4A4A4A4A4A4A4A4A4A4A4A4A4A4A4A4A4A4A4A4A4A4
310
A4A4A4A4A4A4A4A4A4A4A4A4A4A4A4A4A4A4A4A4A4A4A4A4A4A4A4A4A4A4A4A4A4A4A4A4A4A4A4A4A4A4A4A4A4A4A4A4A4A4A4A4A4A4A4A4A4A4A4A4A4A4A4A4A4A4A4A4A4A4A4A4A4A4A4A4A4A4A4A4A4A4A4A4A4A4A4A4A4A4A4A4A4A4A4A4A4A4A4A4A4A4A4A4A4A4A4A4A4A4A4A4A4A4A4A4F9F9F9F9F9F9F9F9F9F9F9
310
F9F9F9F9F9F9F9F9F9F9F9F9F9F9F9F9F9F9F9A4A4F9F9F9F9F9F9F9F9F9F9F9F9F9F9F9F9F9F9F9F9F9F9F9F9F9F9F9F9F9F9A4A4F9F9F9F9F9F9F9F9F9F9F9F9F9F9F9F9F9F9F9F9F9F9F9F9F9F9F9F9F9F9A4A4F9A4A4A4A4A4A4A4A4A4A4A4A4A4A4A4A4A4A4A4A4A4A4A4A4A4A4A4A4F9A4A4A4A4A4A4A4A4A4A4A4A4
310
A4A4A4A4A4A4A4A4A4A4A4A4A4A4A4A4A4A4A4A4A4A4A4A4A4A4A4A4A4A4A4A4A4A4A4A4A4A4A4A4A4A4A4A4A4A4A4A4A4A4A4A4A4A4A4A4A4A4A4A4A4A4A4A4A4A4A4A4A4A4A4A4A4A4A4A4A4A4A4A4A4A4A4A4A4A4A4A4A4A4A4A4A4A4A4A4A4A4A4A4A4A4A4A4A4A4A4A4A4A4A4A4A4A4A4A4A4A4A4A4A4A4A4A4A4A4A4
310
A4A4A4A4A4A4A4A4A4A4A4A4A4A4A4A4A4A4A4A4A4A4A4A4A4A4A4A4A4A4A4A4A4A4A4A4A4A4A4A4A4A4A4A4A4A4A4A4A4A4A4A4A4A4A4A4A4A4A4A4A4A4A4A4A4A4A4A4A4A4A4A4A4A4A4A4A4A4A4A4A4A4A4A4A4A4A4A4A4A4A4A4A4A4A4A4A4A4A4A4A4A4A4A4A4A4A4A4A4A4A4A4A4A4A4A4A4A4A4A4A4A4A4A4A4A4A4
310
A4A4A4A4A4A4A4A4A4A4A4A4A4A4A4A4A4A4A4A4A4A4A4A4A4A4A4A4A4A4A4A4A4A4A4A4A4A4A4A4A4A4A4A4A4A4A4A4A4A4A4A4A4A4A4A4A4A4A4A4A4A4A4A4A4A4A4A4A4A4A4A4A4A4A4A4A4A4A4A4A4A4A4A4A4A4A4A4A4A4A4A4A4A4A4A4A4A4A4A4A4A4A4A4A4A4A4A4A4A4A4A4A4A4A4A4A4A4A4A4A4A4A4A4A4A4A4
310
A4A4A4A4A4A4A4A4A4A4A4A4A4A4A4A4A4A4A4A4A4A4A4A4A4A4A4A4A4A4A4A4A4A4A4A4A4A4A4A4A4A4A4A4A4A4A4A4A4A4A4A4A4A4A4A4
1001
ACAD
1000
DesignCenter Data
1002
{
1070
     1
1070
     4
1002
}
  0
BLOCK_RECORD
  5
AA8
330
1
100
AcDbSymbolTableRecord
100
AcDbBlockTableRecord
  2
_CLOSED
340
0
  0
BLOCK_RECORD
  5
C8D
330
1
100
AcDbSymbolTableRecord
100
AcDbBlockTableRecord
  2
guarnizione
340
0
102
{BLKREFS
331
1257
102
}
  0
ENDTAB
  0
ENDSEC
  0
SECTION
  2
BLOCKS
  0
BLOCK
  5
20
330
1F
100
AcDbEntity
  8
0
100
AcDbBlockBegin
  2
*Model_Space
 70
     0
 10
0.0
 20
0.0
 30
0.0
  3
*Model_Space
  1

  0
ENDBLK
  5
21
330
1F
100
AcDbEntity
  8
0
100
AcDbBlockEnd
  0
BLOCK
  5
1C
330
1B
100
AcDbEntity
 67
     1
  8
0
100
AcDbBlockBegin
  2
*Paper_Space
 70
     0
 10
0.0
 20
0.0
 30
0.0
  3
*Paper_Space
  1

  0
ENDBLK
  5
1D
330
1B
100
AcDbEntity
 67
     1
  8
0
100
AcDbBlockEnd
  0
BLOCK
  5
24
330
23
100
AcDbEntity
 67
     1
  8
0
100
AcDbBlockBegin
  2
*Paper_Space0
 70
     0
 10
0.0
 20
0.0
 30
0.0
  3
*Paper_Space0
  1

  0
ENDBLK
  5
25
330
23
100
AcDbEntity
 67
     1
  8
0
100
AcDbBlockEnd
  0
BLOCK
  5
91B
330
919
100
AcDbEntity
  8
0
100
AcDbBlockBegin
  2
_DotSmall
 70
     0
 10
0.0
 20
0.0
 30
0.0
  3
_DotSmall
  1

  0
LWPOLYLINE
  5
91A
330
919
100
AcDbEntity
  8
0
  6
ByBlock
 62
     0
100
AcDbPolyline
 90
        2
 70
     1
 43
0.5
 10
-0.0625
 20
0.0
 42
1.0
 10
0.0625
 20
0.0
 42
1.0
  0
ENDBLK
  5
91C
330
919
100
AcDbEntity
  8
0
100
AcDbBlockEnd
  0
BLOCK
  5
92A
330
922
100
AcDbEntity
  8
0
100
AcDbBlockBegin
  2
base para cotas
 70
     0
 10
0.0
 20
0.0
 30
0.0
  3
base para cotas
  1

  0
LINE
  5
B36
330
922
100
AcDbEntity
  8
cotas
100
AcDbLine
 10
0.0
 20
-30.0
 30
0.0
 11
327.1260136525398
 21
-30.0
 31
0.0
  0
LINE
  5
B37
330
922
100
AcDbEntity
  8
cotas
100
AcDbLine
 10
0.0
 20
-25.0
 30
0.0
 11
327.1260136525398
 21
-25.0
 31
0.0
  0
LINE
  5
B38
330
922
100
AcDbEntity
  8
cotas
100
AcDbLine
 10
0.0
 20
-20.0
 30
0.0
 11
327.1260136525398
 21
-20.0
 31
0.0
  0
LINE
  5
B39
330
922
100
AcDbEntity
  8
cotas
100
AcDbLine
 10
0.0
 20
-15.0
 30
0.0
 11
327.1260136525398
 21
-15.0
 31
0.0
  0
LINE
  5
B3A
330
922
100
AcDbEntity
  8
cotas
100
AcDbLine
 10
0.0
 20
-10.0
 30
0.0
 11
327.1260136525398
 21
-10.0
 31
0.0
  0
LINE
  5
B3B
330
922
100
AcDbEntity
  8
cotas
100
AcDbLine
 10
0.0
 20
0.0
 30
0.0
 11
0.0
 21
-30.0
 31
0.0
  0
LINE
  5
B3C
330
922
100
AcDbEntity
  8
cotas
100
AcDbLine
 10
327.1260136525398
 20
-30.0
 30
0.0
 11
327.1260136525398
 21
0.0
 31
0.0
  0
ENDBLK
  5
92B
330
922
100
AcDbEntity
  8
0
100
AcDbBlockEnd
  0
BLOCK
  5
AAD
330
AA8
100
AcDbEntity
  8
0
100
AcDbBlockBegin
  2
_CLOSED
 70
     0
 10
0.0
 20
0.0
 30
0.0
  3
_CLOSED
  1

  0
LINE
  5
AA9
330
AA8
100
AcDbEntity
  8
0
100
AcDbLine
 10
-1.0
 20
0.166667
 30
0.0
 11
0.0
 21
0.0
 31
0.0
  0
LINE
  5
AAA
330
AA8
100
AcDbEntity
  8
0
100
AcDbLine
 10
0.0
 20
0.0
 30
0.0
 11
-1.0
 21
-0.166667
 31
0.0
  0
LINE
  5
AAB
330
AA8
100
AcDbEntity
  8
0
100
AcDbLine
 10
-1.0
 20
0.166667
 30
0.0
 11
-1.0
 21
-0.166667
 31
0.0
  0
LINE
  5
AAC
330
AA8
100
AcDbEntity
  8
0
100
AcDbLine
 10
0.0
 20
0.0
 30
0.0
 11
-1.0
 21
0.0
 31
0.0
  0
ENDBLK
  5
AAE
330
AA8
100
AcDbEntity
  8
0
100
AcDbBlockEnd
  0
BLOCK
  5
CD8
330
C8D
100
AcDbEntity
  8
0
 62
     4
100
AcDbBlockBegin
  2
guarnizione
 70
     0
 10
0.0
 20
0.0
 30
0.0
  3
guarnizione
  1

  0
LINE
  5
C8E
330
C8D
100
AcDbEntity
  8
0
100
AcDbLine
 10
12.0
 20
3.179312414488776
 30
0.0
 11
12.0
 21
2.699999999999818
 31
0.0
  0
LINE
  5
C8F
330
C8D
100
AcDbEntity
  8
0
100
AcDbLine
 10
9.5
 20
3.130475008156281
 30
0.0
 11
9.440776269158959
 21
2.734883615801663
 31
0.0
  0
ARC
  5
C90
330
C8D
100
AcDbEntity
  8
0
100
AcDbCircle
 10
11.19999999999891
 20
3.179312414488776
 30
0.0
 40
0.8
100
AcDbArc
 50
0.0
 51
81.48552156587461
  0
ARC
  5
C91
330
C8D
100
AcDbEntity
  8
0
100
AcDbCircle
 10
8.753809903480942
 20
1.523241254200002
 30
0.0
 40
0.1999999999999504
100
AcDbArc
 50
171.485521565823
 51
351.485521565823
  0
LINE
  5
C92
330
C8D
100
AcDbEntity
  8
0
100
AcDbLine
 10
11.65558220186904
 20
-2.403306455734309
 30
0.0
 11
9.440776269158959
 21
-2.734883615802573
 31
0.0
  0
ARC
  5
C93
330
C8D
100
AcDbEntity
  8
0
100
AcDbCircle
 10
8.753809903480942
 20
-1.523241254200911
 30
0.0
 40
0.1999999999999504
100
AcDbArc
 50
8.514478434176927
 51
188.5144784341769
  0
LINE
  5
C94
330
C8D
100
AcDbEntity
  8
0
100
AcDbLine
 10
9.5
 20
-3.130475008157191
 30
0.0
 11
9.440776269158959
 21
-2.734883615802573
 31
0.0
  0
ARC
  5
C95
330
C8D
100
AcDbEntity
  8
0
100
AcDbCircle
 10
11.69999999999891
 20
-2.699999999999818
 30
0.0
 40
0.3
100
AcDbArc
 50
0.0
 51
98.51447843412536
  0
ARC
  5
C96
330
C8D
100
AcDbEntity
  8
0
100
AcDbCircle
 10
11.69999999999891
 20
2.699999999999818
 30
0.0
 40
0.3
100
AcDbArc
 50
261.4855215658746
 51
0.0
  0
LINE
  5
C97
330
C8D
100
AcDbEntity
  8
0
100
AcDbLine
 10
11.65558220186904
 20
2.4033064557334
 30
0.0
 11
9.440776269158959
 21
2.734883615801663
 31
0.0
  0
LINE
  5
C98
330
C8D
100
AcDbEntity
  8
0
100
AcDbLine
 10
8.807715063378054
 20
3.234116537129011
 30
0.0
 11
8.556014207302723
 21
1.552853119620522
 31
0.0
  0
LINE
  5
C99
330
C8D
100
AcDbEntity
  8
0
100
AcDbLine
 10
9.203306455732672
 20
3.174892806287971
 30
0.0
 11
8.951605599657341
 21
1.493629388779481
 31
0.0
  0
LINE
  5
C9A
330
C8D
100
AcDbEntity
  8
0
100
AcDbLine
 10
6.681411329471302
 20
3.552444090400967
 30
0.0
 11
6.622187598630262
 21
3.15685269804544
 31
0.0
  0
ARC
  5
C9B
330
C8D
100
AcDbEntity
  8
0
100
AcDbCircle
 10
0.2999999999992724
 20
3.800000000000181
 30
0.0
 40
0.3
100
AcDbArc
 50
81.48552156587461
 51
180.0
  0
ARC
  5
C9C
330
C8D
100
AcDbEntity
  8
0
100
AcDbCircle
 10
1.042400829128382
 20
4.699999999999818
 30
0.0
 40
0.8
100
AcDbArc
 50
81.48552156587461
 51
90.0
  0
LINE
  5
C9D
330
C8D
100
AcDbEntity
  8
0
100
AcDbLine
 10
1.5
 20
3.923692082123125
 30
0.0
 11
0.3444177981309622
 21
4.09669354426569
 31
0.0
  0
LINE
  5
C9E
330
C8D
100
AcDbEntity
  8
0
100
AcDbLine
 10
1.5
 20
3.923692082123125
 30
0.0
 11
1.5
 21
3.099999999999454
 31
0.0
  0
LINE
  5
C9F
330
C8D
100
AcDbEntity
  8
0
100
AcDbLine
 10
1.5
 20
3.099999999999454
 30
0.0
 11
2.699999999998908
 21
3.099999999999454
 31
0.0
  0
LINE
  5
CA0
330
C8D
100
AcDbEntity
  8
0
100
AcDbLine
 10
2.699999999998908
 20
3.744040860223321
 30
0.0
 11
2.699999999998908
 21
3.099999999999454
 31
0.0
  0
LINE
  5
CA1
330
C8D
100
AcDbEntity
  8
0
100
AcDbLine
 10
6.622187598630262
 20
3.15685269804544
 30
0.0
 11
2.699999999998908
 21
3.744040860223321
 31
0.0
  0
LINE
  5
CA2
330
C8D
100
AcDbEntity
  8
0
100
AcDbLine
 10
1.5
 20
-3.100000000000363
 30
0.0
 11
2.699999999998908
 21
-3.100000000000363
 31
0.0
  0
LINE
  5
CA3
330
C8D
100
AcDbEntity
  8
0
100
AcDbLine
 10
11.31844746168099
 20
3.970495199198012
 30
0.0
 11
1.160848290810463
 21
5.491182784709053
 31
0.0
  0
LINE
  5
CA4
330
C8D
100
AcDbEntity
  8
0
100
AcDbLine
 10
9.5
 20
3.130475008156281
 30
0.0
 11
6.681411329471302
 21
3.552444090400967
 31
0.0
  0
ARC
  5
CA5
330
C8D
100
AcDbEntity
  8
0
100
AcDbCircle
 10
11.19999999999891
 20
-3.179312414488776
 30
0.0
 40
0.8
100
AcDbArc
 50
278.5144784341254
 51
0.0
  0
LINE
  5
CA6
330
C8D
100
AcDbEntity
  8
0
100
AcDbLine
 10
6.681411329471302
 20
-3.552444090400967
 30
0.0
 11
6.622187598630262
 21
-3.15685269804635
 31
0.0
  0
ARC
  5
CA7
330
C8D
100
AcDbEntity
  8
0
100
AcDbCircle
 10
0.2999999999992724
 20
-3.800000000000181
 30
0.0
 40
0.3
100
AcDbArc
 50
180.0
 51
278.5144784341254
  0
ARC
  5
CA8
330
C8D
100
AcDbEntity
  8
0
100
AcDbCircle
 10
1.042400829128382
 20
-4.699999999999818
 30
0.0
 40
0.8
100
AcDbArc
 50
270.0
 51
278.5144784341254
  0
LINE
  5
CA9
330
C8D
100
AcDbEntity
  8
0
100
AcDbLine
 10
0.3444177981309622
 20
-4.096693544266599
 30
0.0
 11
1.5
 21
-3.923692082124034
 31
0.0
  0
LINE
  5
CAA
330
C8D
100
AcDbEntity
  8
0
100
AcDbLine
 10
6.622187598630262
 20
-3.15685269804635
 30
0.0
 11
2.699999999998908
 21
-3.744040860224231
 31
0.0
  0
LINE
  5
CAB
330
C8D
100
AcDbEntity
  8
0
100
AcDbLine
 10
1.160848290810463
 20
-5.491182784709963
 30
0.0
 11
11.31844746168099
 21
-3.970495199198921
 31
0.0
  0
LINE
  5
CAC
330
C8D
100
AcDbEntity
  8
0
100
AcDbLine
 10
0.0
 20
3.800000000000181
 30
0.0
 11
0.0
 21
-3.800000000000181
 31
0.0
  0
LINE
  5
CAD
330
C8D
100
AcDbEntity
  8
0
100
AcDbLine
 10
12.0
 20
-2.699999999999818
 30
0.0
 11
12.0
 21
-3.179312414488776
 31
0.0
  0
LINE
  5
CAE
330
C8D
100
AcDbEntity
  8
0
100
AcDbLine
 10
2.699999999998908
 20
-3.100000000000363
 30
0.0
 11
2.699999999998908
 21
-3.744040860224231
 31
0.0
  0
LINE
  5
CAF
330
C8D
100
AcDbEntity
  8
0
100
AcDbLine
 10
1.5
 20
-3.100000000000363
 30
0.0
 11
1.5
 21
-3.923692082124034
 31
0.0
  0
LINE
  5
CB0
330
C8D
100
AcDbEntity
  8
0
100
AcDbLine
 10
9.5
 20
-3.130475008157191
 30
0.0
 11
6.681411329471302
 21
-3.552444090400967
 31
0.0
  0
LINE
  5
CB1
330
C8D
100
AcDbEntity
  8
0
100
AcDbLine
 10
9.203306455732672
 20
-3.174892806287971
 30
0.0
 11
8.951605599657341
 21
-1.493629388780391
 31
0.0
  0
LINE
  5
CB2
330
C8D
100
AcDbEntity
  8
0
100
AcDbLine
 10
8.807715063378054
 20
-3.234116537129011
 30
0.0
 11
8.556014207302723
 21
-1.552853119621431
 31
0.0
  0
LINE
  5
CB3
330
C8D
100
AcDbEntity
  8
0
100
AcDbLine
 10
-1.5
 20
5.5
 30
0.0
 11
-3.757359312881817
 21
5.5
 31
0.0
  0
ARC
  5
CB4
330
C8D
100
AcDbEntity
  8
0
100
AcDbCircle
 10
-2.5
 20
3.5
 30
0.0
 40
1.0
100
AcDbArc
 50
0.0
 51
90.0
  0
ARC
  5
CB5
330
C8D
100
AcDbEntity
  8
0
100
AcDbCircle
 10
-3.769781102879278
 20
4.149978862833449
 30
0.0
 40
0.75
100
AcDbArc
 50
47.16775949949599
 51
90.19499109987526
  0
ARC
  5
CB6
330
C8D
100
AcDbEntity
  8
0
100
AcDbCircle
 10
-2.75
 20
5.25
 30
0.0
 40
0.75
100
AcDbArc
 50
227.167759499496
 51
270.0
  0
LINE
  5
CB7
330
C8D
100
AcDbEntity
  8
0
100
AcDbLine
 10
-2.75
 20
4.5
 30
0.0
 11
-2.5
 21
4.5
 31
0.0
  0
LINE
  5
CB8
330
C8D
100
AcDbEntity
  8
0
100
AcDbLine
 10
-7.415254325502246
 20
3.064644661409147
 30
0.0
 11
-6.868629150101696
 21
3.611269837220788
 31
0.0
  0
ARC
  5
CB9
102
{ACAD_REACTORS
330
CD3
102
}
330
C8D
100
AcDbEntity
  8
0
100
AcDbCircle
 10
-7.980939750059405
 20
2.569669913566031
 30
0.0
 40
0.2
100
AcDbArc
 50
45.0000001037625
 51
135.0000000719631
  0
ARC
  5
CBA
330
C8D
100
AcDbEntity
  8
0
100
AcDbCircle
 10
-3.757359312881817
 20
0.5
 30
0.0
 40
5.0
100
AcDbArc
 50
90.0
 51
135.0
  0
ARC
  5
CBB
330
C8D
100
AcDbEntity
  8
0
100
AcDbCircle
 10
-3.757359312881817
 20
0.5
 30
0.0
 40
4.4
100
AcDbArc
 50
90.19499109987526
 51
135.0
  0
ARC
  5
CBC
330
C8D
100
AcDbEntity
  8
0
100
AcDbCircle
 10
-6.814213563102384
 20
0.9786796633270569
 30
0.0
 40
0.75
100
AcDbArc
 50
314.9999999676111
 51
45.0
  0
ARC
  5
CBD
102
{ACAD_REACTORS
330
CD3
102
}
330
C8D
100
AcDbEntity
  8
0
100
AcDbCircle
 10
-6.814213563102384
 20
0.9786796633270569
 30
0.0
 40
0.5
100
AcDbArc
 50
314.9999999676111
 51
45.0
  0
ARC
  5
CBE
330
C8D
100
AcDbEntity
  8
0
100
AcDbCircle
 10
-7.203122291144609
 20
2.852512627053329
 30
0.0
 40
0.3
100
AcDbArc
 50
135.0
 51
225.0000001112794
  0
LINE
  5
CBF
330
C8D
100
AcDbEntity
  8
0
100
AcDbLine
 10
-8.051650430128574
 20
3.276776694619002
 30
0.0
 11
-6.283883477519339
 21
1.509009749524921
 31
0.0
  0
LINE
  5
CC0
102
{ACAD_REACTORS
330
CD3
102
}
330
C8D
100
AcDbEntity
  8
0
100
AcDbLine
 10
-7.839518394079277
 20
2.711091270059114
 30
0.0
 11
-6.460660172508141
 21
1.33223305392039
 31
0.0
  0
ARC
  5
CC1
330
C8D
100
AcDbEntity
  8
0
100
AcDbCircle
 10
-12.57713383280133
 20
-2.521498914058611
 30
0.0
 40
0.3
100
AcDbArc
 50
45.00000003552097
 51
135.0
  0
ARC
  5
CC2
102
{ACAD_REACTORS
330
CD3
102
}
330
C8D
100
AcDbEntity
  8
0
100
AcDbCircle
 10
-12.29429112059733
 20
-1.743681468243266
 30
0.0
 40
0.2
100
AcDbArc
 50
135.0000000660675
 51
225.0000002990173
  0
LINE
  5
CC3
330
C8D
100
AcDbEntity
  8
0
100
AcDbLine
 10
-12.9899494936617
 20
-2.510050506339212
 30
0.0
 11
-12.78926586715715
 21
-2.309366879702793
 31
0.0
  0
LINE
  5
CC4
330
C8D
100
AcDbEntity
  8
0
100
AcDbLine
 10
-13.41421356237333
 20
-2.085786437626666
 30
0.0
 11
-7.292893218815152
 21
4.035533905932425
 31
0.0
  0
LINE
  5
CC5
102
{ACAD_REACTORS
330
CD3
102
}
330
C8D
100
AcDbEntity
  8
0
100
AcDbLine
 10
-12.43571247699765
 20
-1.602260112168551
 30
0.0
 11
-8.122361106474272
 21
2.711091269625285
 31
0.0
  0
ARC
  5
CC6
330
C8D
100
AcDbEntity
  8
0
100
AcDbCircle
 10
-2.5
 20
-3.5
 30
0.0
 40
1.0
100
AcDbArc
 50
270.0
 51
0.0
  0
ARC
  5
CC7
330
C8D
100
AcDbEntity
  8
0
100
AcDbCircle
 10
-7.519803902720013
 20
-4.150000000000545
 30
0.0
 40
0.75
100
AcDbArc
 50
270.0
 51
312.8334280660476
  0
ARC
  5
CC8
330
C8D
100
AcDbEntity
  8
0
100
AcDbCircle
 10
-6.5
 20
-5.25
 30
0.0
 40
0.75
100
AcDbArc
 50
90.0
 51
132.8334280660476
  0
LINE
  5
CC9
330
C8D
100
AcDbEntity
  8
0
100
AcDbLine
 10
-2.5
 20
-4.5
 30
0.0
 11
-6.5
 21
-4.5
 31
0.0
  0
ARC
  5
CCA
330
C8D
100
AcDbEntity
  8
0
100
AcDbCircle
 10
-10.7033008647486
 20
-2.910407640086305
 30
0.0
 40
0.75
100
AcDbArc
 50
225.0
 51
315.0
  0
ARC
  5
CCB
102
{ACAD_REACTORS
330
CD3
102
}
330
C8D
100
AcDbEntity
  8
0
100
AcDbCircle
 10
-10.7033008647486
 20
-2.910407640086305
 30
0.0
 40
0.5
100
AcDbArc
 50
225.0
 51
315.0
  0
LINE
  5
CCC
330
C8D
100
AcDbEntity
  8
0
100
AcDbLine
 10
-1.5
 20
-5.5
 30
0.0
 11
-12.0
 21
-5.5
 31
0.0
  0
LINE
  5
CCD
330
C8D
100
AcDbEntity
  8
0
100
AcDbLine
 10
-7.519803902720013
 20
-4.900000000000545
 30
0.0
 11
-12.0
 21
-4.900000000000545
 31
0.0
  0
ARC
  5
CCE
330
C8D
100
AcDbEntity
  8
0
100
AcDbCircle
 10
-12.0
 20
-3.5
 30
0.0
 40
2.0
100
AcDbArc
 50
135.0
 51
270.0
  0
LINE
  5
CCF
330
C8D
100
AcDbEntity
  8
0
100
AcDbLine
 10
-10.17297077881812
 20
-3.440737725935832
 30
0.0
 11
-6.283883477372
 21
0.4483495772774404
 31
0.0
  0
ARC
  5
CD0
330
C8D
100
AcDbEntity
  8
0
100
AcDbCircle
 10
-12.0
 20
-3.5
 30
0.0
 40
1.399999999999999
100
AcDbArc
 50
135.0
 51
270.0
  0
LINE
  5
CD1
330
C8D
100
AcDbEntity
  8
0
100
AcDbLine
 10
-13.00139790187859
 20
-1.672970777132832
 30
0.0
 11
-11.23363095093009
 21
-3.440737725682993
 31
0.0
  0
LINE
  5
CD2
330
C8D
100
AcDbEntity
  8
0
100
AcDbLine
 10
-1.5
 20
3.5
 30
0.0
 11
-1.5
 21
-3.5
 31
0.0
  0
HATCH
  5
CD3
330
C8D
100
AcDbEntity
  8
0
100
AcDbHatch
 10
0.0
 20
0.0
 30
0.0
210
0.0
220
0.0
230
1.0
  2
ANSI31
 70
     0
 71
     1
 91
        1
 92
        7
 72
     1
 73
     1
 93
        8
 10
-6.460660173204814
 20
1.332233054616153
 42
0.0
 10
-7.839518394101105
 20
2.711091270081851
 42
0.414213562178905
 10
-8.122361106481548
 20
2.711091269618009
 42
0.0
 10
-12.43571247701766
 20
-1.602260112190379
 42
0.4142135636146872
 10
-12.43571247604996
 20
-1.885102825264766
 42
0.0
 10
-11.05685425338015
 20
-3.263961032639599
 42
0.4142135608152901
 10
-10.34974747407432
 20
-3.263961030598693
 42
0.0
 10
-6.460660172428106
 20
0.625126272813759
 42
0.4142135628833784
 97
        8
330
CC0
330
CB9
330
CC5
330
CC2
330
CD5
330
CCB
330
CD4
330
CBD
 75
     0
 76
     1
 52
45.0
 41
0.25
 77
     0
 78
     1
 53
90.0
 43
-276.1145346408611
 44
-395.2719013892401
 45
-0.79375
 46
0.0000000000000002
 79
     0
 47
0.0364805528584695
 98
        1
 10
-7.399477738399582
 20
0.8532363732892918
  0
LINE
  5
CD4
102
{ACAD_REACTORS
330
CD3
102
}
330
C8D
100
AcDbEntity
  8
0
100
AcDbLine
 10
-10.34974747415435
 20
-3.263961030678729
 30
0.0
 11
-6.46066017270823
 21
0.6251262725336347
 31
0.0
  0
LINE
  5
CD5
102
{ACAD_REACTORS
330
CD3
102
}
330
C8D
100
AcDbEntity
  8
0
100
AcDbLine
 10
-12.43571247609543
 20
-1.885102825218382
 30
0.0
 11
-11.05685425534102
 21
-3.263961030678729
 31
0.0
  0
LINE
  5
CD6
330
C8D
100
AcDbEntity
  8
0
100
AcDbLine
 10
-1.5
 20
5.5
 30
0.0
 11
1.042400829128382
 21
5.5
 31
0.0
  0
LINE
  5
CD7
330
C8D
100
AcDbEntity
  8
0
100
AcDbLine
 10
-1.5
 20
-5.5
 30
0.0
 11
1.042400829128382
 21
-5.5
 31
0.0
  0
ENDBLK
  5
CD9
330
C8D
100
AcDbEntity
  8
0
 62
     4
100
AcDbBlockEnd
  0
ENDSEC
  0
SECTION
  2
ENTITIES
  0
LINE
  5
1241
330
1F
100
AcDbEntity
  8
SANINDUSA
100
AcDbLine
 10
4158.669348546907
 20
1400.758781495055
 30
-0.0000000000545587
 11
4158.350323853933
 21
1400.758781495055
 31
0.0
  0
LINE
  5
1242
330
1F
100
AcDbEntity
  8
SANINDUSA
100
AcDbLine
 10
4158.669348546907
 20
1400.752781495055
 30
-0.0000000000077739
 11
4158.350323853933
 21
1400.752781495055
 31
0.0
  0
LINE
  5
124A
330
1F
100
AcDbEntity
  8
SANINDUSA
100
AcDbLine
 10
4158.353323853932
 20
1400.758781501731
 30
0.0
 11
4157.85335930728
 21
1400.758781501731
 31
0.0
  0
LINE
  5
124B
330
1F
100
AcDbEntity
  8
SANINDUSA
100
AcDbLine
 10
4158.353323853932
 20
1400.752781501731
 30
-0.0000000000000001
 11
4157.85335930728
 21
1400.752781501731
 31
0.0000000000000005
  0
INSERT
  5
1257
330
1F
100
AcDbEntity
  8
SANINDUSA
100
AcDbBlockReference
  2
guarnizione
 10
4157.85335930728
 20
1400.755781501731
 30
0.0
 41
0.001
 42
0.001
 43
0.001
  0
LINE
  5
125C
330
1F
100
AcDbEntity
  8
SANINDUSA
100
AcDbLine
 10
4157.85335930728
 20
1400.758781501731
 30
0.0
 11
4157.85335930728
 21
1400.752781501731
 31
0.0
  0
LINE
  5
125D
330
1F
100
AcDbEntity
  8
SANINDUSA
100
AcDbLine
 10
4157.85335930728
 20
1400.758781501731
 30
0.0
 11
4157.85335930728
 21
1400.752781501731
 31
0.0
  0
LINE
  5
12C1
330
1F
100
AcDbEntity
  8
SANINDUSA
100
AcDbLine
 10
4158.345934965043
 20
1400.741381442762
 30
0.0
 11
4158.287823853934
 21
1400.741381442762
 31
0.0
  0
LWPOLYLINE
  5
12C2
330
1F
100
AcDbEntity
  8
SANINDUSA
100
AcDbPolyline
 90
        2
 70
     0
 43
0.0
 10
4158.286823853933
 20
1400.751581495055
 10
4158.339823853933
 20
1400.751581495055
1001
GENIUS_GENREC_14
1002
{
1000
PYDIR
1011
4158.586106111012
1021
1401.139006227117
1031
0.0
1002
}
1002
{
1000
PXDIR
1011
4158.639106111012
1021
1401.138006227117
1031
0.0
1002
}
1002
{
1000
PORI
1011
4158.586106111012
1021
1401.138006227117
1031
0.0
1002
}
1002
{
1000
PINS
1011
4158.586106111012
1021
1401.138006227117
1031
0.0
1002
}
1002
{
1000
PINS2
1011
4158.639106111012
1021
1401.139006227117
1031
0.0
1002
}
1002
{
1000
C
1070
     1
1002
}
1001
GENIUS_GENODEF_13
1002
{
1000
HIER
1070
     0
1002
}
1002
{
1000
MANEDIT
1070
     0
1002
}
1002
{
1000
NOSEL
1070
     0
1002
}
1002
{
1000
BEHIND
1070
     0
1002
}
1002
{
1000
REACTOR
1002
}
1001
GENIUS_GENOBJ-N-REC_13
1002
{
1000
OWNER
1000
GEN
1002
}
  0
LWPOLYLINE
  5
12C3
330
1F
100
AcDbEntity
  8
SANINDUSA
100
AcDbPolyline
 90
        2
 70
     0
 43
0.0
 10
4158.339823853933
 20
1400.752581495055
 10
4158.286823853933
 20
1400.752581495055
1001
GENIUS_GENREC_14
1002
{
1000
PYDIR
1011
4158.586106111012
1021
1401.139006227117
1031
0.0
1002
}
1002
{
1000
PXDIR
1011
4158.639106111012
1021
1401.138006227117
1031
0.0
1002
}
1002
{
1000
PORI
1011
4158.586106111012
1021
1401.138006227117
1031
0.0
1002
}
1002
{
1000
PINS
1011
4158.586106111012
1021
1401.138006227117
1031
0.0
1002
}
1002
{
1000
PINS2
1011
4158.639106111012
1021
1401.139006227117
1031
0.0
1002
}
1002
{
1000
C
1070
     1
1002
}
1001
GENIUS_GENODEF_13
1002
{
1000
HIER
1070
     0
1002
}
1002
{
1000
MANEDIT
1070
     0
1002
}
1002
{
1000
NOSEL
1070
     0
1002
}
1002
{
1000
BEHIND
1070
     0
1002
}
1002
{
1000
REACTOR
1002
}
1001
GENIUS_GENOBJ-N-REC_13
1002
{
1000
OWNER
1000
GEN
1002
}
  0
LWPOLYLINE
  5
12C4
330
1F
100
AcDbEntity
  8
SANINDUSA
100
AcDbPolyline
 90
        4
 70
     1
 43
0.0
 10
4158.286823853933
 20
1400.759981495055
 10
4158.339823853933
 20
1400.759981495055
 10
4158.339823853933
 20
1400.758981495055
 10
4158.286823853933
 20
1400.758981495055
1001
GENIUS_GENREC_14
1002
{
1000
PYDIR
1011
4158.586106111012
1021
1401.139206227117
1031
0.0
1002
}
1002
{
1000
PXDIR
1011
4158.639106111012
1021
1401.138206227117
1031
0.0
1002
}
1002
{
1000
PORI
1011
4158.586106111012
1021
1401.138206227117
1031
0.0
1002
}
1002
{
1000
PINS
1011
4158.586106111012
1021
1401.138206227117
1031
0.0
1002
}
1002
{
1000
PINS2
1011
4158.639106111012
1021
1401.139206227117
1031
0.0
1002
}
1002
{
1000
C
1070
     1
1002
}
1001
GENIUS_GENODEF_13
1002
{
1000
HIER
1070
     0
1002
}
1002
{
1000
MANEDIT
1070
     0
1002
}
1002
{
1000
NOSEL
1070
     0
1002
}
1002
{
1000
BEHIND
1070
     0
1002
}
1002
{
1000
REACTOR
1002
}
1001
GENIUS_GENOBJ-N-REC_13
1002
{
1000
OWNER
1000
GEN
1002
}
  0
LINE
  5
12C5
330
1F
100
AcDbEntity
  8
SANINDUSA
100
AcDbLine
 10
4158.286823853933
 20
1400.751381495055
 30
0.0
 11
4158.339823853933
 21
1400.751381495055
 31
0.0
  0
LINE
  5
12C6
330
1F
100
AcDbEntity
  8
SANINDUSA
100
AcDbLine
 10
4158.339823853933
 20
1400.760181495055
 30
0.0
 11
4158.286823853933
 21
1400.760181495055
 31
0.0
  0
LINE
  5
12C7
330
1F
100
AcDbEntity
  8
SANINDUSA
100
AcDbLine
 10
4158.287823853934
 20
1400.765181495055
 30
0.0
 11
4158.338823853933
 21
1400.765181495055
 31
0.0
  0
LINE
  5
12C9
330
1F
100
AcDbEntity
  8
SANINDUSA
100
AcDbLine
 10
4158.286823853933
 20
1400.751381495055
 30
0.0
 11
4158.286823853933
 21
1400.742381442762
 31
0.0
  0
ARC
  5
12CA
330
1F
100
AcDbEntity
  8
SANINDUSA
100
AcDbCircle
 10
4158.287823853934
 20
1400.742381442762
 30
0.0
 40
0.001
100
AcDbArc
 50
180.0
 51
270.0
  0
LINE
  5
12CB
330
1F
100
AcDbEntity
  8
SANINDUSA
100
AcDbLine
 10
4158.286823853933
 20
1400.760181495055
 30
0.0
 11
4158.286823853933
 21
1400.764181495055
 31
0.0
  0
LINE
  5
12CC
330
1F
100
AcDbEntity
  8
SANINDUSA
100
AcDbLine
 10
4158.286823853933
 20
1400.752581495055
 30
0.0
 11
4158.286823853933
 21
1400.751581495055
 31
0.0
1001
GENIUS_GENREC_14
1002
{
1000
PYDIR
1011
4158.286823853933
1021
1400.752581495055
1031
0.0
1002
}
1002
{
1000
PXDIR
1011
4158.339823853933
1021
1400.751581495055
1031
0.0
1002
}
1002
{
1000
PORI
1011
4158.286823853933
1021
1400.751581495055
1031
0.0
1002
}
1002
{
1000
PINS
1011
4158.286823853933
1021
1400.751581495055
1031
0.0
1002
}
1002
{
1000
PINS2
1011
4158.339823853933
1021
1400.752581495055
1031
0.0
1002
}
1002
{
1000
C
1070
     1
1002
}
1001
GENIUS_GENODEF_13
1002
{
1000
HIER
1070
     0
1002
}
1002
{
1000
MANEDIT
1070
     0
1002
}
1002
{
1000
NOSEL
1070
     0
1002
}
1002
{
1000
BEHIND
1070
     0
1002
}
1002
{
1000
REACTOR
1002
}
1001
GENIUS_GENOBJ-N-REC_13
1002
{
1000
OWNER
1000
GEN
1002
}
  0
ARC
  5
12CD
330
1F
100
AcDbEntity
  8
SANINDUSA
100
AcDbCircle
 10
4158.287823853934
 20
1400.764181495055
 30
0.0
 40
0.001
100
AcDbArc
 50
90.0
 51
180.0
  0
LINE
  5
1303
330
1F
100
AcDbEntity
  8
SANINDUSA
100
AcDbLine
 10
4158.421823853934
 20
1400.741381442761
 30
0.0
 11
4158.362823853933
 21
1400.741381442761
 31
0.0
  0
LWPOLYLINE
  5
1304
330
1F
100
AcDbEntity
  8
SANINDUSA
100
AcDbPolyline
 90
        2
 70
     0
 43
0.0
 10
4158.369823853933
 20
1400.752481495055
 10
4158.422823853932
 20
1400.752481495055
1001
GENIUS_GENREC_14
1002
{
1000
PYDIR
1011
4158.286823853933
1021
1400.839623970037
1031
0.0
1002
}
1002
{
1000
PXDIR
1011
4158.339823853933
1021
1400.838623970038
1031
0.0
1002
}
1002
{
1000
PORI
1011
4158.286823853933
1021
1400.838623970038
1031
0.0
1002
}
1002
{
1000
PINS
1011
4158.286823853933
1021
1400.838623970038
1031
0.0
1002
}
1002
{
1000
PINS2
1011
4158.339823853933
1021
1400.839623970037
1031
0.0
1002
}
1002
{
1000
C
1070
     1
1002
}
1001
GENIUS_GENODEF_13
1002
{
1000
HIER
1070
     0
1002
}
1002
{
1000
MANEDIT
1070
     0
1002
}
1002
{
1000
NOSEL
1070
     0
1002
}
1002
{
1000
BEHIND
1070
     0
1002
}
1002
{
1000
REACTOR
1002
}
1001
GENIUS_GENOBJ-N-REC_13
1002
{
1000
OWNER
1000
GEN
1002
}
  0
LWPOLYLINE
  5
1305
330
1F
100
AcDbEntity
  8
SANINDUSA
100
AcDbPolyline
 90
        2
 70
     0
 43
0.0
 10
4158.422823853932
 20
1400.751481495055
 10
4158.369823853933
 20
1400.751481495055
1001
GENIUS_GENREC_14
1002
{
1000
PYDIR
1011
4158.286823853933
1021
1400.839623970037
1031
0.0
1002
}
1002
{
1000
PXDIR
1011
4158.339823853933
1021
1400.838623970038
1031
0.0
1002
}
1002
{
1000
PORI
1011
4158.286823853933
1021
1400.838623970038
1031
0.0
1002
}
1002
{
1000
PINS
1011
4158.286823853933
1021
1400.838623970038
1031
0.0
1002
}
1002
{
1000
PINS2
1011
4158.339823853933
1021
1400.839623970037
1031
0.0
1002
}
1002
{
1000
C
1070
     1
1002
}
1001
GENIUS_GENODEF_13
1002
{
1000
HIER
1070
     0
1002
}
1002
{
1000
MANEDIT
1070
     0
1002
}
1002
{
1000
NOSEL
1070
     0
1002
}
1002
{
1000
BEHIND
1070
     0
1002
}
1002
{
1000
REACTOR
1002
}
1001
GENIUS_GENOBJ-N-REC_13
1002
{
1000
OWNER
1000
GEN
1002
}
  0
LWPOLYLINE
  5
1306
330
1F
100
AcDbEntity
  8
SANINDUSA
100
AcDbPolyline
 90
        4
 70
     1
 43
0.0
 10
4158.422823853932
 20
1400.759981495055
 10
4158.369823853933
 20
1400.759981495055
 10
4158.369823853933
 20
1400.758981495055
 10
4158.422823853932
 20
1400.758981495055
1001
GENIUS_GENREC_14
1002
{
1000
PYDIR
1011
4158.286823853933
1021
1400.839923970037
1031
0.0
1002
}
1002
{
1000
PXDIR
1011
4158.339823853933
1021
1400.838923970038
1031
0.0
1002
}
1002
{
1000
PORI
1011
4158.286823853933
1021
1400.838923970038
1031
0.0
1002
}
1002
{
1000
PINS
1011
4158.286823853933
1021
1400.838923970038
1031
0.0
1002
}
1002
{
1000
PINS2
1011
4158.339823853933
1021
1400.839923970037
1031
0.0
1002
}
1002
{
1000
C
1070
     1
1002
}
1001
GENIUS_GENODEF_13
1002
{
1000
HIER
1070
     0
1002
}
1002
{
1000
MANEDIT
1070
     0
1002
}
1002
{
1000
NOSEL
1070
     0
1002
}
1002
{
1000
BEHIND
1070
     0
1002
}
1002
{
1000
REACTOR
1002
}
1001
GENIUS_GENOBJ-N-REC_13
1002
{
1000
OWNER
1000
GEN
1002
}
  0
LINE
  5
1307
330
1F
100
AcDbEntity
  8
SANINDUSA
100
AcDbLine
 10
4158.369823853933
 20
1400.751381442761
 30
0.0
 11
4158.422823853932
 21
1400.751381442761
 31
0.0
  0
LINE
  5
1308
330
1F
100
AcDbEntity
  8
SANINDUSA
100
AcDbLine
 10
4158.369823853933
 20
1400.760181495055
 30
0.0
 11
4158.422823853932
 21
1400.760181495055
 31
0.0
  0
LINE
  5
1309
330
1F
100
AcDbEntity
  8
SANINDUSA
100
AcDbLine
 10
4158.421823853934
 20
1400.765181495055
 30
0.0
 11
4158.370823853933
 21
1400.765181495055
 31
0.0
  0
LINE
  5
130A
330
1F
100
AcDbEntity
  8
SANINDUSA
100
AcDbLine
 10
4158.353323853932
 20
1400.752085071281
 30
0.0
 11
4158.353323853932
 21
1400.759477932181
 31
0.0
  0
ARC
  5
130B
330
1F
100
AcDbEntity
  8
SANINDUSA
100
AcDbCircle
 10
4158.352723853933
 20
1400.759477932181
 30
0.0
 40
0.0006
100
AcDbArc
 50
0.0
 51
99.34083412006643
  0
LINE
  5
130C
330
1F
100
AcDbEntity
  8
SANINDUSA
100
AcDbLine
 10
4158.352626469672
 20
1400.760069976356
 30
0.0
 11
4158.352044022493
 21
1400.759974170688
 31
0.0
  0
LINE
  5
130D
330
1F
100
AcDbEntity
  8
SANINDUSA
100
AcDbLine
 10
4158.353478632007
 20
1400.761381501731
 30
0.0
 11
4158.354471714587
 21
1400.761381501731
 31
0.0
  0
ARC
  5
130E
330
1F
100
AcDbEntity
  8
SANINDUSA
100
AcDbCircle
 10
4158.346871714587
 20
1400.75887592895
 30
0.0
 40
0.0006
100
AcDbArc
 50
51.15114898646778
 51
99.34083412006643
  0
ARC
  5
130F
330
1F
100
AcDbEntity
  8
SANINDUSA
100
AcDbCircle
 10
4158.346449955644
 20
1400.75861198621
 30
0.0
 40
0.000175
100
AcDbArc
 50
261.9999999889949
 51
81.99999998899484
  0
ARC
  5
1310
330
1F
100
AcDbEntity
  8
SANINDUSA
100
AcDbCircle
 10
4158.350932327453
 20
1400.759031231591
 30
0.0
 40
0.00075
100
AcDbArc
 50
179.8634464257769
 51
9.340834109326083
  0
ARC
  5
1311
330
1F
100
AcDbEntity
  8
SANINDUSA
100
AcDbCircle
 10
4158.349682331003
 20
1400.759034210725
 30
0.0
 40
0.0005
100
AcDbArc
 50
359.863446425777
 51
99.34083412006643
  0
LINE
  5
1312
330
1F
100
AcDbEntity
  8
SANINDUSA
100
AcDbLine
 10
4158.351631805897
 20
1400.759399646991
 30
0.0
 11
4158.351672382673
 21
1400.759152961917
 31
0.0
  0
LINE
  5
1313
330
1F
100
AcDbEntity
  8
SANINDUSA
100
AcDbLine
 10
4158.350192272234
 20
1400.758909501265
 30
0.0
 11
4158.350151695459
 21
1400.759156186338
 31
0.0
  0
LINE
  5
1314
330
1F
100
AcDbEntity
  8
SANINDUSA
100
AcDbLine
 10
4158.349601177453
 20
1400.759527580871
 30
0.0
 11
4158.347721820514
 21
1400.759218448894
 31
0.0
  0
ARC
  5
1315
330
1F
100
AcDbEntity
  8
SANINDUSA
100
AcDbCircle
 10
4158.347624436253
 20
1400.75981049307
 30
0.0
 40
0.0006000000000005
100
AcDbArc
 50
231.1511489864678
 51
279.3408341200664
  0
ARC
  5
1316
330
1F
100
AcDbEntity
  8
SANINDUSA
100
AcDbCircle
 10
4158.352125176043
 20
1400.759480800542
 30
0.0
 40
0.0005
100
AcDbArc
 50
99.34083412006643
 51
189.3408341093261
  0
ARC
  5
1317
330
1F
100
AcDbEntity
  8
SANINDUSA
100
AcDbCircle
 10
4158.344366491502
 20
1400.75923299196
 30
0.0
 40
0.0005
100
AcDbArc
 50
208.1263739549705
 51
261.9999999889949
  0
ARC
  5
1318
330
1F
100
AcDbEntity
  8
SANINDUSA
100
AcDbCircle
 10
4158.343059301556
 20
1400.759059582433
 30
0.0
 40
0.0006
100
AcDbArc
 50
279.3408341200664
 51
327.5305191993646
  0
LINE
  5
1319
330
1F
100
AcDbEntity
  8
SANINDUSA
100
AcDbLine
 10
4158.341471714587
 20
1400.758190380428
 30
0.0
 11
4158.341471714587
 21
1400.758897136062
 31
0.0
  0
LINE
  5
131A
330
1F
100
AcDbEntity
  8
SANINDUSA
100
AcDbLine
 10
4158.343156685818
 20
1400.758467538257
 30
0.0
 11
4158.341471714587
 21
1400.758190380428
 31
0.0
  0
ARC
  5
131B
330
1F
100
AcDbEntity
  8
SANINDUSA
100
AcDbCircle
 10
4158.344071714586
 20
1400.758415362084
 30
0.0
 40
0.0005999999999989
100
AcDbArc
 50
104.1008917867584
 51
147.5305191993646
  0
LINE
  5
131C
330
1F
100
AcDbEntity
  8
SANINDUSA
100
AcDbLine
 10
4158.346425600351
 20
1400.758438689298
 30
0.0
 11
4158.344296904951
 21
1400.758737857926
 31
0.0
  0
LINE
  5
131D
330
1F
100
AcDbEntity
  8
SANINDUSA
100
AcDbLine
 10
4158.346774330325
 20
1400.759467973126
 30
0.0
 11
4158.34439798258
 21
1400.759077092042
 31
0.0
  0
LINE
  5
131E
330
1F
100
AcDbEntity
  8
SANINDUSA
100
AcDbLine
 10
4158.34439798258
 20
1400.759077092042
 30
0.0
 11
4158.346474310936
 21
1400.758785283121
 31
0.0
  0
LINE
  5
131F
330
1F
100
AcDbEntity
  8
SANINDUSA
100
AcDbLine
 10
4158.341974330325
 20
1400.759489180238
 30
0.0
 11
4158.353478632007
 21
1400.761381501731
 31
0.0
  0
ARC
  5
1320
330
1F
100
AcDbEntity
  8
SANINDUSA
100
AcDbCircle
 10
4158.342071714586
 20
1400.758897136062
 30
0.0
 40
0.0006
100
AcDbArc
 50
99.34083412006643
 51
180.0
  0
LINE
  5
1321
330
1F
100
AcDbEntity
  8
SANINDUSA
100
AcDbLine
 10
4158.353478632007
 20
1400.750181501731
 30
0.0
 11
4158.341974330325
 21
1400.752073823224
 31
0.0
  0
LINE
  5
1322
330
1F
100
AcDbEntity
  8
SANINDUSA
100
AcDbLine
 10
4158.353478632007
 20
1400.750181501731
 30
0.0
 11
4158.354471714587
 21
1400.750181501731
 31
0.0
  0
ARC
  5
1323
330
1F
100
AcDbEntity
  8
SANINDUSA
100
AcDbCircle
 10
4158.346871714587
 20
1400.752687074511
 30
0.0
 40
0.0006
100
AcDbArc
 50
260.6591658799336
 51
308.8488510135322
  0
ARC
  5
1324
330
1F
100
AcDbEntity
  8
SANINDUSA
100
AcDbCircle
 10
4158.346449955644
 20
1400.752951017252
 30
0.0
 40
0.000175
100
AcDbArc
 50
278.0000000110051
 51
98.00000001100515
  0
ARC
  5
1325
330
1F
100
AcDbEntity
  8
SANINDUSA
100
AcDbCircle
 10
4158.349665495564
 20
1400.752531561967
 30
0.0
 40
0.0005
100
AcDbArc
 50
260.6591658799336
 51
350.6591658906739
  0
ARC
  5
1326
330
1F
100
AcDbEntity
  8
SANINDUSA
100
AcDbCircle
 10
4158.347624436253
 20
1400.751752510392
 30
0.0
 40
0.0006000000000005
100
AcDbArc
 50
80.65916587993356
 51
128.8488510135322
  0
LINE
  5
1327
330
1F
100
AcDbEntity
  8
SANINDUSA
100
AcDbLine
 10
4158.347721820514
 20
1400.752344554567
 30
0.0
 11
4158.349584342013
 21
1400.752038191821
 31
0.0
  0
LINE
  5
1328
330
1F
100
AcDbEntity
  8
SANINDUSA
100
AcDbLine
 10
4158.350158865711
 20
1400.752450408416
 30
0.0
 11
4158.350192272234
 21
1400.752653502197
 31
0.0
  0
ARC
  5
1329
330
1F
100
AcDbEntity
  8
SANINDUSA
100
AcDbCircle
 10
4158.350932327453
 20
1400.75253177187
 30
0.0
 40
0.00075
100
AcDbArc
 50
350.6591658906739
 51
170.6591658906739
  0
LINE
  5
132A
330
1F
100
AcDbEntity
  8
SANINDUSA
100
AcDbLine
 10
4158.351672382673
 20
1400.752410041544
 30
0.0
 11
4158.351631805897
 21
1400.752163356471
 31
0.0
  0
ARC
  5
132B
330
1F
100
AcDbEntity
  8
SANINDUSA
100
AcDbCircle
 10
4158.343059301556
 20
1400.752503421029
 30
0.0
 40
0.0006
100
AcDbArc
 50
32.46948080063537
 51
80.65916587993356
  0
ARC
  5
132C
330
1F
100
AcDbEntity
  8
SANINDUSA
100
AcDbCircle
 10
4158.344071714586
 20
1400.753147641378
 30
0.0
 40
0.0006000000000005
100
AcDbArc
 50
212.4694808006354
 51
255.8991082132415
  0
ARC
  5
132D
330
1F
100
AcDbEntity
  8
SANINDUSA
100
AcDbCircle
 10
4158.344366491502
 20
1400.752330011501
 30
0.0
 40
0.0004999999999883
100
AcDbArc
 50
98.00000001100515
 51
151.8736260450294
  0
LINE
  5
132E
330
1F
100
AcDbEntity
  8
SANINDUSA
100
AcDbLine
 10
4158.341471714587
 20
1400.752665867399
 30
0.0
 11
4158.341471714587
 21
1400.753372623034
 31
0.0
  0
LINE
  5
132F
330
1F
100
AcDbEntity
  8
SANINDUSA
100
AcDbLine
 10
4158.341471714587
 20
1400.753372623034
 30
0.0
 11
4158.343156685818
 21
1400.753095465204
 31
0.0
  0
LINE
  5
1330
330
1F
100
AcDbEntity
  8
SANINDUSA
100
AcDbLine
 10
4158.344296904951
 20
1400.752825145536
 30
0.0
 11
4158.346425600351
 21
1400.753124314164
 31
0.0
  0
LINE
  5
1331
330
1F
100
AcDbEntity
  8
SANINDUSA
100
AcDbLine
 10
4158.346474310936
 20
1400.75277772034
 30
0.0
 11
4158.34439798258
 21
1400.75248591142
 31
0.0
  0
LINE
  5
1332
330
1F
100
AcDbEntity
  8
SANINDUSA
100
AcDbLine
 10
4158.34439798258
 20
1400.75248591142
 30
0.0
 11
4158.346774330325
 21
1400.752095030336
 31
0.0
  0
ARC
  5
1333
330
1F
100
AcDbEntity
  8
SANINDUSA
100
AcDbCircle
 10
4158.352723853933
 20
1400.752085071281
 30
0.0
 40
0.0006
100
AcDbArc
 50
260.6591658799336
 51
0.0
  0
LINE
  5
1334
330
1F
100
AcDbEntity
  8
SANINDUSA
100
AcDbLine
 10
4158.352044022493
 20
1400.751588832774
 30
0.0
 11
4158.352626469672
 21
1400.751493027105
 31
0.0
  0
ARC
  5
1335
330
1F
100
AcDbEntity
  8
SANINDUSA
100
AcDbCircle
 10
4158.352125176043
 20
1400.75208220292
 30
0.0
 40
0.0005
100
AcDbArc
 50
170.6591658906739
 51
260.6591658799336
  0
ARC
  5
1336
330
1F
100
AcDbEntity
  8
SANINDUSA
100
AcDbCircle
 10
4158.342071714586
 20
1400.752665867399
 30
0.0
 40
0.0006
100
AcDbArc
 50
180.0
 51
260.6591658799336
  0
LINE
  5
1337
330
1F
100
AcDbEntity
  8
SANINDUSA
100
AcDbLine
 10
4158.354471714587
 20
1400.750181501731
 30
0.0
 11
4158.354471714587
 21
1400.761381501731
 31
0.0
  0
ARC
  5
1338
330
1F
100
AcDbEntity
  8
SANINDUSA
100
AcDbCircle
 10
4158.355309406894
 20
1400.755781501731
 30
0.0
 40
0.0052623076923077
100
AcDbArc
 50
261.4923271082531
 51
98.50767289174697
  0
ARC
  5
1339
330
1F
100
AcDbEntity
  8
SANINDUSA
100
AcDbCircle
 10
4158.355309406894
 20
1400.755781501731
 30
0.0
 40
0.0056623076923077
100
AcDbArc
 50
261.4923271082531
 51
98.50767289174697
  0
LINE
  5
133A
330
1F
100
AcDbEntity
  8
SANINDUSA
100
AcDbLine
 10
4158.363712742821
 20
1400.741381442761
 30
0.0
 11
4158.363712742821
 21
1400.749381442762
 31
0.0
  0
LINE
  5
133B
330
1F
100
AcDbEntity
  8
SANINDUSA
100
AcDbLine
 10
4158.369823853933
 20
1400.760181495055
 30
0.0
 11
4158.369823853933
 21
1400.764181495055
 31
0.0
  0
LINE
  5
133C
330
1F
100
AcDbEntity
  8
SANINDUSA
100
AcDbLine
 10
4158.369823853933
 20
1400.749381442762
 30
0.0
 11
4158.369823853933
 21
1400.751381442761
 31
0.0
  0
LINE
  5
133D
330
1F
100
AcDbEntity
  8
SANINDUSA
100
AcDbLine
 10
4158.369823853933
 20
1400.751481495055
 30
0.0
 11
4158.369823853933
 21
1400.752481495055
 31
0.0
1001
GENIUS_GENREC_14
1002
{
1000
PYDIR
1011
4158.286823853933
1021
1400.752481495055
1031
0.0
1002
}
1002
{
1000
PXDIR
1011
4158.339823853933
1021
1400.751481495055
1031
0.0
1002
}
1002
{
1000
PORI
1011
4158.286823853933
1021
1400.751481495055
1031
0.0
1002
}
1002
{
1000
PINS
1011
4158.286823853933
1021
1400.751481495055
1031
0.0
1002
}
1002
{
1000
PINS2
1011
4158.339823853933
1021
1400.752481495055
1031
0.0
1002
}
1002
{
1000
C
1070
     1
1002
}
1001
GENIUS_GENODEF_13
1002
{
1000
HIER
1070
     0
1002
}
1002
{
1000
MANEDIT
1070
     0
1002
}
1002
{
1000
NOSEL
1070
     0
1002
}
1002
{
1000
BEHIND
1070
     0
1002
}
1002
{
1000
REACTOR
1002
}
1001
GENIUS_GENOBJ-N-REC_13
1002
{
1000
OWNER
1000
GEN
1002
}
  0
ARC
  5
133E
330
1F
100
AcDbEntity
  8
SANINDUSA
100
AcDbCircle
 10
4158.370823853933
 20
1400.764181495055
 30
0.0
 40
0.001
100
AcDbArc
 50
90.0
 51
180.0
  0
LINE
  5
133F
330
1F
100
AcDbEntity
  8
SANINDUSA
100
AcDbLine
 10
4158.356323853932
 20
1400.758781495055
 30
0.0
 11
4158.356323853932
 21
1400.752781495055
 31
0.0
1001
GENIUS_GENREC_14
1002
{
1000
PYDIR
1011
4158.203323853932
1021
1400.752581495055
1031
0.0
1002
}
1002
{
1000
PXDIR
1011
4158.353323853932
1021
1400.758581495055
1031
0.0
1002
}
1002
{
1000
PORI
1011
4158.203323853932
1021
1400.758581495055
1031
0.0
1002
}
1002
{
1000
PINS
1011
4158.203323853932
1021
1400.758581495055
1031
0.0
1002
}
1002
{
1000
PINS2
1011
4158.353323853932
1021
1400.752781495055
1031
0.0
1002
}
1002
{
1000
C
1070
     1
1002
}
1001
GENIUS_GENODEF_13
1002
{
1000
HIER
1070
     0
1002
}
1002
{
1000
MANEDIT
1070
     0
1002
}
1002
{
1000
NOSEL
1070
     0
1002
}
1002
{
1000
BEHIND
1070
     0
1002
}
1002
{
1000
REACTOR
1002
}
1001
GENIUS_GENOBJ-N-REC_13
1002
{
1000
OWNER
1000
GEN
1002
}
  0
LINE
  5
1340
330
1F
100
AcDbEntity
  8
SANINDUSA
100
AcDbLine
 10
4158.369823853933
 20
1400.749381442762
 30
0.0
 11
4158.354823808337
 21
1400.749381442762
 31
0.0
  0
LINE
  5
1341
330
1F
100
AcDbEntity
  8
SANINDUSA
100
AcDbLine
 10
4158.353323853932
 20
1400.758781501731
 30
0.0000000000000001
 11
4158.353323853932
 21
1400.752781501731
 31
-0.0000000000000001
  0
LINE
  5
1342
330
1F
100
AcDbEntity
  8
SANINDUSA
100
AcDbLine
 10
4158.353323853932
 20
1400.758781501731
 30
0.0
 11
4158.353323853932
 21
1400.752781501731
 31
0.0
  0
LINE
  5
1343
330
1F
100
AcDbEntity
  8
SANINDUSA
100
AcDbLine
 10
4158.345934965043
 20
1400.741381442762
 30
0.0
 11
4158.345934965043
 21
1400.749381495055
 31
0.0
  0
LINE
  5
1344
330
1F
100
AcDbEntity
  8
SANINDUSA
100
AcDbLine
 10
4158.339823853933
 20
1400.760181495055
 30
0.0
 11
4158.339823853933
 21
1400.764181495055
 31
0.0
  0
LINE
  5
1345
330
1F
100
AcDbEntity
  8
SANINDUSA
100
AcDbLine
 10
4158.339823853933
 20
1400.751381495055
 30
0.0
 11
4158.339823853933
 21
1400.749381495055
 31
0.0
  0
LINE
  5
1346
330
1F
100
AcDbEntity
  8
SANINDUSA
100
AcDbLine
 10
4158.339823853933
 20
1400.751581495055
 30
0.0
 11
4158.339823853933
 21
1400.752581495055
 31
0.0
1001
GENIUS_GENREC_14
1002
{
1000
PYDIR
1011
4158.286823853933
1021
1400.752581495055
1031
0.0
1002
}
1002
{
1000
PXDIR
1011
4158.339823853933
1021
1400.751581495055
1031
0.0
1002
}
1002
{
1000
PORI
1011
4158.286823853933
1021
1400.751581495055
1031
0.0
1002
}
1002
{
1000
PINS
1011
4158.286823853933
1021
1400.751581495055
1031
0.0
1002
}
1002
{
1000
PINS2
1011
4158.339823853933
1021
1400.752581495055
1031
0.0
1002
}
1002
{
1000
C
1070
     1
1002
}
1001
GENIUS_GENODEF_13
1002
{
1000
HIER
1070
     0
1002
}
1002
{
1000
MANEDIT
1070
     0
1002
}
1002
{
1000
NOSEL
1070
     0
1002
}
1002
{
1000
BEHIND
1070
     0
1002
}
1002
{
1000
REACTOR
1002
}
1001
GENIUS_GENOBJ-N-REC_13
1002
{
1000
OWNER
1000
GEN
1002
}
  0
ARC
  5
1347
330
1F
100
AcDbEntity
  8
SANINDUSA
100
AcDbCircle
 10
4158.338823853933
 20
1400.764181495055
 30
0.0
 40
0.001
100
AcDbArc
 50
0.0
 51
90.0
  0
LINE
  5
1348
330
1F
100
AcDbEntity
  8
SANINDUSA
100
AcDbLine
 10
4158.339823853933
 20
1400.749381495055
 30
0.0
 11
4158.354823853933
 21
1400.749381442762
 31
0.0
  0
CIRCLE
  5
1349
330
1F
100
AcDbEntity
  8
SANINDUSA
100
AcDbCircle
 10
4158.354823853933
 20
1400.741381442762
 30
0.0
 40
0.008
  0
LINE
  5
134A
330
1F
100
AcDbEntity
  8
SANINDUSA
100
AcDbLine
 10
4158.422823853932
 20
1400.751381442761
 30
0.0
 11
4158.422823853932
 21
1400.742381442761
 31
0.0
  0
ARC
  5
134B
330
1F
100
AcDbEntity
  8
SANINDUSA
100
AcDbCircle
 10
4158.421823853934
 20
1400.742381442761
 30
0.0
 40
0.001
100
AcDbArc
 50
270.0
 51
0.0
  0
LINE
  5
134C
330
1F
100
AcDbEntity
  8
SANINDUSA
100
AcDbLine
 10
4158.422823853932
 20
1400.760181495055
 30
0.0
 11
4158.422823853932
 21
1400.764181495055
 31
0.0
  0
LINE
  5
134D
330
1F
100
AcDbEntity
  8
SANINDUSA
100
AcDbLine
 10
4158.422823853932
 20
1400.752481495055
 30
0.0
 11
4158.422823853932
 21
1400.751481495055
 31
0.0
1001
GENIUS_GENREC_14
1002
{
1000
PYDIR
1011
4158.286823853933
1021
1400.752481495055
1031
0.0
1002
}
1002
{
1000
PXDIR
1011
4158.339823853933
1021
1400.751481495055
1031
0.0
1002
}
1002
{
1000
PORI
1011
4158.286823853933
1021
1400.751481495055
1031
0.0
1002
}
1002
{
1000
PINS
1011
4158.286823853933
1021
1400.751481495055
1031
0.0
1002
}
1002
{
1000
PINS2
1011
4158.339823853933
1021
1400.752481495055
1031
0.0
1002
}
1002
{
1000
C
1070
     1
1002
}
1001
GENIUS_GENODEF_13
1002
{
1000
HIER
1070
     0
1002
}
1002
{
1000
MANEDIT
1070
     0
1002
}
1002
{
1000
NOSEL
1070
     0
1002
}
1002
{
1000
BEHIND
1070
     0
1002
}
1002
{
1000
REACTOR
1002
}
1001
GENIUS_GENOBJ-N-REC_13
1002
{
1000
OWNER
1000
GEN
1002
}
  0
ARC
  5
134E
330
1F
100
AcDbEntity
  8
SANINDUSA
100
AcDbCircle
 10
4158.421823853934
 20
1400.764181495055
 30
0.0
 40
0.001
100
AcDbArc
 50
0.0
 51
90.0
  0
LINE
  5
148C
330
1F
100
AcDbEntity
  8
SANINDUSA
100
AcDbLine
 10
4158.669348546907
 20
1400.752781495055
 30
-0.0000000000545587
 11
4158.669348546907
 21
1400.758781495055
 31
-0.0000000000545587
  0
LINE
  5
2257
330
1F
100
AcDbEntity
  8
SANINDUSA
100
AcDbLine
 10
4159.353661894793
 20
1400.139349876449
 30
0.0
 11
4159.353661894793
 21
1401.35134987644
 31
0.0
  0
LINE
  5
2258
330
1F
100
AcDbEntity
  8
SANINDUSA
100
AcDbLine
 10
4159.356661894793
 20
1400.139349876449
 30
0.0
 11
4159.356661894793
 21
1401.35134987644
 31
0.0
  0
LINE
  5
225A
330
1F
100
AcDbEntity
  8
SANINDUSA
100
AcDbLine
 10
4158.853661894794
 20
1399.830349876449
 30
0.0
 11
4158.853661894794
 21
1401.670349876449
 31
0.0
  0
LINE
  5
225B
330
1F
100
AcDbEntity
  8
SANINDUSA
100
AcDbLine
 10
4158.848161894794
 20
1399.830349876449
 30
0.0
 11
4158.848161894794
 21
1401.670349876449
 31
0.0
  0
LINE
  5
225C
330
1F
100
AcDbEntity
  8
SANINDUSA
100
AcDbLine
 10
4158.842161894793
 20
1399.830349876449
 30
0.0
 11
4158.842161894793
 21
1401.670349876449
 31
0.0
  0
LINE
  5
225D
330
1F
100
AcDbEntity
  8
SANINDUSA
100
AcDbLine
 10
4158.829861894793
 20
1399.820349876449
 30
0.0
 11
4158.829861894793
 21
1401.670349876449
 31
0.0
  0
LINE
  5
225E
330
1F
100
AcDbEntity
  8
SANINDUSA
100
AcDbLine
 10
4159.665811894793
 20
1399.820349876449
 30
0.0
 11
4159.665811894793
 21
1401.670349876449
 31
0.0
  0
LINE
  5
225F
330
1F
100
AcDbEntity
  8
SANINDUSA
100
AcDbLine
 10
4159.720661894794
 20
1399.820349876449
 30
0.0
 11
4159.720661894794
 21
1401.670349876449
 31
0.0
  0
LINE
  5
2264
330
1F
100
AcDbEntity
  8
SANINDUSA
100
AcDbLine
 10
4159.708661894793
 20
1399.820349876449
 30
0.0
 11
4158.829861894793
 21
1399.820349876449
 31
0.0
  0
LINE
  5
2266
330
1F
100
AcDbEntity
  8
SANINDUSA
100
AcDbLine
 10
4159.680661894793
 20
1399.820349876449
 30
0.0
 11
4159.720661894794
 21
1399.820349876449
 31
0.0
  0
LINE
  5
2267
330
1F
100
AcDbEntity
  8
SANINDUSA
100
AcDbLine
 10
4159.720661894794
 20
1399.832349876449
 30
0.0
 11
4159.720661894794
 21
1400.111538943031
 31
0.0
  0
LINE
  5
226D
330
1F
100
AcDbEntity
  8
SANINDUSA
100
AcDbLine
 10
4159.356661894793
 20
1399.820349876449
 30
0.0
 11
4159.356661894793
 21
1400.091349876449
 31
0.0
  0
LINE
  5
226E
330
1F
100
AcDbEntity
  8
SANINDUSA
100
AcDbLine
 10
4159.353661894793
 20
1399.830349876449
 30
0.0
 11
4159.353661894793
 21
1400.091349876449
 31
0.0
  0
LINE
  5
226F
330
1F
100
AcDbEntity
  8
SANINDUSA
100
AcDbLine
 10
4159.353661894793
 20
1399.830349876449
 30
0.0
 11
4158.853661894794
 21
1399.830349876449
 31
0.0
  0
LINE
  5
2272
330
1F
100
AcDbEntity
  8
SANINDUSA
100
AcDbLine
 10
4158.848161894794
 20
1399.830349876449
 30
0.0
 11
4158.842161894793
 21
1399.830349876449
 31
0.0
  0
CIRCLE
  5
229F
330
1F
100
AcDbEntity
  8
SANINDUSA
100
AcDbCircle
 10
4158.903661894793
 20
1400.750349108502
 30
0.0
 40
0.004
  0
LINE
  5
2359
330
1F
100
AcDbEntity
  8
SANINDUSA
100
AcDbLine
 10
4159.720661894794
 20
1401.670349876449
 30
0.0
 11
4159.356661894793
 21
1401.670349876449
 31
0.0
  0
LINE
  5
235B
330
1F
100
AcDbEntity
  8
SANINDUSA
100
AcDbLine
 10
4159.353661894793
 20
1401.670349876449
 30
0.0
 11
4158.829861894793
 21
1401.670349876449
 31
0.0
  0
LINE
  5
235C
330
1F
100
AcDbEntity
  8
SANINDUSA
100
AcDbLine
 10
4159.356661894793
 20
1401.399349876439
 30
0.0
 11
4159.356661894793
 21
1401.670349876449
 31
0.0
  0
LINE
  5
235D
330
1F
100
AcDbEntity
  8
SANINDUSA
100
AcDbLine
 10
4159.353661894793
 20
1401.399349876439
 30
0.0
 11
4159.353661894793
 21
1401.670349876449
 31
0.0
  0
LINE
  5
27C4
330
1F
100
AcDbEntity
  8
SANINDUSA
100
AcDbLine
 10
4158.714320570667
 20
1400.74055499982
 30
-0.0000000000545587
 11
4158.714320570667
 21
1400.764481495055
 31
-0.0000000000545587
  0
LINE
  5
27C5
330
1F
100
AcDbEntity
  8
SANINDUSA
100
AcDbLine
 10
4158.713320570667
 20
1400.764481495055
 30
-0.0000000000545587
 11
4158.714320570667
 21
1400.764481495055
 31
-0.0000000000545587
  0
LINE
  5
27C6
330
1F
100
AcDbEntity
  8
SANINDUSA
100
AcDbLine
 10
4158.714320570667
 20
1400.74055499982
 30
-0.0000000000545587
 11
4158.713321689755
 21
1400.74055499982
 31
-0.0000000000545587
  0
ARC
  5
27C7
330
1F
100
AcDbEntity
  8
SANINDUSA
100
AcDbCircle
 10
4158.713320570667
 20
1400.763481495055
 30
-0.0000000000545587
 40
0.0009999999999999
100
AcDbArc
 50
90.0
 51
180.0
  0
ARC
  5
27C8
330
1F
100
AcDbEntity
  8
SANINDUSA
100
AcDbCircle
 10
4158.713321689755
 20
1400.74155499982
 30
-0.0000000000545587
 40
0.0009999999999999
100
AcDbArc
 50
180.5340991040368
 51
270.0
  0
LINE
  5
27C9
330
1F
100
AcDbEntity
  8
SANINDUSA
100
AcDbLine
 10
4158.712320570667
 20
1400.762495708617
 30
-0.0000000000545587
 11
4158.712320570667
 21
1400.763481495055
 31
-0.0000000000545587
  0
LINE
  5
27CA
330
1F
100
AcDbEntity
  8
SANINDUSA
100
AcDbLine
 10
4158.712321733202
 20
1400.741545678167
 30
-0.0000000000545587
 11
4158.712314943541
 21
1400.742274021654
 31
-0.0000000000545587
  0
ARC
  5
27CB
330
1F
100
AcDbEntity
  8
SANINDUSA
100
AcDbCircle
 10
4158.710970570667
 20
1400.762495708617
 30
-0.0000000000545587
 40
0.0013499999999998
100
AcDbArc
 50
315.0
 51
0.0
  0
ARC
  5
27CC
330
1F
100
AcDbEntity
  8
SANINDUSA
100
AcDbCircle
 10
4158.710965002195
 20
1400.742261437423
 30
-0.0000000000545587
 40
0.00135
100
AcDbArc
 50
0.5340991040368256
 51
45.08930406185324
  0
LINE
  5
27CD
330
1F
100
AcDbEntity
  8
SANINDUSA
100
AcDbLine
 10
4158.711010951258
 20
1400.7606269009
 30
-0.0000000000545587
 11
4158.711925164821
 21
1400.761541114463
 31
-0.0000000000545587
  0
LINE
  5
27CE
330
1F
100
AcDbEntity
  8
SANINDUSA
100
AcDbLine
 10
4158.711918107313
 20
1400.743217518295
 30
-0.0000000000545587
 11
4158.711011668202
 21
1400.744121136159
 31
-0.0000000000545587
  0
ARC
  5
27CF
330
1F
100
AcDbEntity
  8
SANINDUSA
100
AcDbCircle
 10
4158.711470570666
 20
1400.760167281493
 30
-0.0000000000545587
 40
0.0006500000000003
100
AcDbArc
 50
135.0
 51
180.0
  0
ARC
  5
27D0
330
1F
100
AcDbEntity
  8
SANINDUSA
100
AcDbCircle
 10
4158.711470570666
 20
1400.744581471394
 30
-0.0000000000545587
 40
0.0006500000000003
100
AcDbArc
 50
180.0
 51
225.0893040618533
  0
LINE
  5
27D1
330
1F
100
AcDbEntity
  8
SANINDUSA
100
AcDbLine
 10
4158.710820570666
 20
1400.744581471394
 30
-0.0000000000545587
 11
4158.710820570666
 21
1400.760167281493
 31
-0.0000000000545587
  0
ARC
  5
27D2
330
1F
100
AcDbEntity
  8
SANINDUSA
100
AcDbCircle
 10
4158.710970570667
 20
1400.763481495055
 30
-0.0000000000545587
 40
0.0009999999999999
100
AcDbArc
 50
0.0
 51
90.0
  0
LINE
  5
27D3
330
1F
100
AcDbEntity
  8
SANINDUSA
100
AcDbLine
 10
4158.710970570667
 20
1400.764481495055
 30
-0.0000000000545587
 11
4158.675947266534
 21
1400.764481495055
 31
-0.0000000000545587
  0
LINE
  5
27D4
330
1F
100
AcDbEntity
  8
SANINDUSA
100
AcDbLine
 10
4158.711970570666
 20
1400.762495708617
 30
-0.0000000000545587
 11
4158.711970570666
 21
1400.763481495055
 31
-0.0000000000545587
  0
ARC
  5
27D5
330
1F
100
AcDbEntity
  8
SANINDUSA
100
AcDbCircle
 10
4158.675947266534
 20
1400.763481495055
 30
-0.0000000000545587
 40
0.001
100
AcDbArc
 50
90.0
 51
270.0
  0
ARC
  5
27D6
330
1F
100
AcDbEntity
  8
SANINDUSA
100
AcDbCircle
 10
4158.710970570667
 20
1400.762495708617
 30
-0.0000000000545587
 40
0.0010000000000003
100
AcDbArc
 50
315.0
 51
0.0
  0
LINE
  5
27D7
330
1F
100
AcDbEntity
  8
SANINDUSA
100
AcDbLine
 10
4158.675947266534
 20
1400.762481495055
 30
-0.0000000000545587
 11
4158.707470570666
 21
1400.762481495055
 31
-0.0000000000545587
  0
LINE
  5
27D8
330
1F
100
AcDbEntity
  8
SANINDUSA
100
AcDbLine
 10
4158.710763463886
 20
1400.760874388274
 30
-0.0000000000545587
 11
4158.711677677448
 21
1400.761788601836
 31
-0.0000000000545587
  0
ARC
  5
27D9
330
1F
100
AcDbEntity
  8
SANINDUSA
100
AcDbCircle
 10
4158.707470570666
 20
1400.761481495055
 30
-0.0000000000545587
 40
0.001
100
AcDbArc
 50
0.0
 51
90.0
  0
ARC
  5
27DA
330
1F
100
AcDbEntity
  8
SANINDUSA
100
AcDbCircle
 10
4158.711470570666
 20
1400.760167281493
 30
-0.0000000000545587
 40
0.0010000000000003
100
AcDbArc
 50
135.0
 51
180.0
  0
LINE
  5
27DB
330
1F
100
AcDbEntity
  8
SANINDUSA
100
AcDbLine
 10
4158.708470570666
 20
1400.761481495055
 30
-0.0000000000545587
 11
4158.708470570666
 21
1400.743622308778
 31
-0.0000000000545587
  0
LINE
  5
27DC
330
1F
100
AcDbEntity
  8
SANINDUSA
100
AcDbLine
 10
4158.710470570667
 20
1400.756792155227
 30
-0.0000000000545587
 11
4158.710470570667
 21
1400.760167281493
 31
-0.0000000000545587
  0
ARC
  5
27DD
330
1F
100
AcDbEntity
  8
SANINDUSA
100
AcDbCircle
 10
4158.707470570666
 20
1400.743622308778
 30
-0.0000000000545587
 40
0.001
100
AcDbArc
 50
267.8505420588376
 51
0.0
  0
ARC
  5
27DE
330
1F
100
AcDbEntity
  8
SANINDUSA
100
AcDbCircle
 10
4158.710220570667
 20
1400.756792155227
 30
-0.0000000000545587
 40
0.0002500000000003
100
AcDbArc
 50
315.0
 51
0.0
  0
ARC
  5
27DF
330
1F
100
AcDbEntity
  8
SANINDUSA
100
AcDbCircle
 10
4158.711060679105
 20
1400.8392750547
 30
-0.0000000000545587
 40
0.0967200954923435
100
AcDbArc
 50
254.439830383021
 51
267.8505420588376
  0
LINE
  5
27E0
330
1F
100
AcDbEntity
  8
SANINDUSA
100
AcDbLine
 10
4158.709917017276
 20
1400.756135048446
 30
-0.0000000000545587
 11
4158.710397347362
 21
1400.756615378532
 31
-0.0000000000545587
  0
ARC
  5
27E1
330
1F
100
AcDbEntity
  8
SANINDUSA
100
AcDbCircle
 10
4158.685249619907
 20
1400.746581495055
 30
-0.0000000000545587
 40
0.0005
100
AcDbArc
 50
90.0
 51
254.439830383021
  0
ARC
  5
27E2
330
1F
100
AcDbEntity
  8
SANINDUSA
100
AcDbCircle
 10
4158.710270570667
 20
1400.755781495055
 30
-0.0000000000545587
 40
0.0005
100
AcDbArc
 50
135.0
 51
225.0
  0
LINE
  5
27E3
330
1F
100
AcDbEntity
  8
SANINDUSA
100
AcDbLine
 10
4158.685249619907
 20
1400.747081495055
 30
-0.0000000000545587
 11
4158.697947266534
 21
1400.747081495055
 31
-0.0000000000545587
  0
LINE
  5
27E4
330
1F
100
AcDbEntity
  8
SANINDUSA
100
AcDbLine
 10
4158.710397347362
 20
1400.754947611579
 30
-0.0000000000545587
 11
4158.709917017276
 21
1400.755427941664
 31
-0.0000000000545587
  0
ARC
  5
27E5
330
1F
100
AcDbEntity
  8
SANINDUSA
100
AcDbCircle
 10
4158.697947266534
 20
1400.748081495055
 30
-0.0000000000545587
 40
0.001
100
AcDbArc
 50
270.0
 51
90.0
  0
ARC
  5
27E6
330
1F
100
AcDbEntity
  8
SANINDUSA
100
AcDbCircle
 10
4158.710220570667
 20
1400.754770834883
 30
-0.0000000000545587
 40
0.00025
100
AcDbArc
 50
0.0
 51
45.0
  0
LINE
  5
27E7
330
1F
100
AcDbEntity
  8
SANINDUSA
100
AcDbLine
 10
4158.697947266534
 20
1400.749081495055
 30
-0.0000000000545587
 11
4158.675947266534
 21
1400.749081495055
 31
-0.0000000000545587
  0
LINE
  5
27E8
330
1F
100
AcDbEntity
  8
SANINDUSA
100
AcDbLine
 10
4158.710470570667
 20
1400.744581471394
 30
-0.0000000000545587
 11
4158.710470570667
 21
1400.754770834883
 31
-0.0000000000545587
  0
ARC
  5
27E9
330
1F
100
AcDbEntity
  8
SANINDUSA
100
AcDbCircle
 10
4158.675947266534
 20
1400.748081495055
 30
-0.0000000000545587
 40
0.001
100
AcDbArc
 50
90.0
 51
248.9411647286947
  0
ARC
  5
27EA
330
1F
100
AcDbEntity
  8
SANINDUSA
100
AcDbCircle
 10
4158.711470570666
 20
1400.744581471394
 30
-0.0000000000545587
 40
0.0010000000000003
100
AcDbArc
 50
180.0
 51
225.0893040618533
  0
ARC
  5
27EB
330
1F
100
AcDbEntity
  8
SANINDUSA
100
AcDbCircle
 10
4158.711060679105
 20
1400.8392750547
 30
-0.0000000000545587
 40
0.0987200954923432
100
AcDbArc
 50
248.9411647286947
 51
269.947763417605
  0
LINE
  5
27EC
330
1F
100
AcDbEntity
  8
SANINDUSA
100
AcDbLine
 10
4158.711671005987
 20
1400.742969645476
 30
-0.0000000000545587
 11
4158.710764566875
 21
1400.74387326334
 31
-0.0000000000545587
  0
ARC
  5
27ED
330
1F
100
AcDbEntity
  8
SANINDUSA
100
AcDbCircle
 10
4158.710971587647
 20
1400.74155499982
 30
-0.0000000000545587
 40
0.001
100
AcDbArc
 50
269.947763417605
 51
0.5340991040368256
  0
ARC
  5
27EE
330
1F
100
AcDbEntity
  8
SANINDUSA
100
AcDbCircle
 10
4158.710965002195
 20
1400.742261437423
 30
-0.0000000000545587
 40
0.0010000000000003
100
AcDbArc
 50
0.5340991040368256
 51
45.08930406185324
  0
LINE
  5
27EF
330
1F
100
AcDbEntity
  8
SANINDUSA
100
AcDbLine
 10
4158.7119715442
 20
1400.741564321473
 30
-0.0000000000545587
 11
4158.711964958748
 21
1400.742270759076
 31
-0.0000000000545587
  0
LINE
  5
27F0
330
1F
100
AcDbEntity
  8
SANINDUSA
100
AcDbLine
 10
4158.661845343375
 20
1400.759781495055
 30
-0.0000000000545587
 11
4158.664533956526
 21
1400.759781495055
 31
-0.0000000000545587
  0
ARC
  5
27F1
330
1F
100
AcDbEntity
  8
SANINDUSA
100
AcDbCircle
 10
4158.664533956526
 20
1400.759281495055
 30
-0.0000000000545587
 40
0.0005
100
AcDbArc
 50
19.47122063801706
 51
90.0
  0
ARC
  5
27F2
330
1F
100
AcDbEntity
  8
SANINDUSA
100
AcDbCircle
 10
4158.661845343375
 20
1400.759281495055
 30
-0.0000000000545587
 40
0.0005000000000001
100
AcDbArc
 50
90.0
 51
156.4218215197019
  0
ARC
  5
27F3
330
1F
100
AcDbEntity
  8
SANINDUSA
100
AcDbCircle
 10
4158.665948170088
 20
1400.759781495055
 30
-0.0000000000545587
 40
0.001
100
AcDbArc
 50
199.471220638017
 51
340.5287793619829
  0
ARC
  5
27F4
330
1F
100
AcDbEntity
  8
SANINDUSA
100
AcDbCircle
 10
4158.660470570667
 20
1400.759881495055
 30
-0.0000000000545587
 40
0.0009999999999999
100
AcDbArc
 50
180.0
 51
336.4218215197019
  0
ARC
  5
27F5
330
1F
100
AcDbEntity
  8
SANINDUSA
100
AcDbCircle
 10
4158.66736238365
 20
1400.759281495055
 30
-0.0000000000545587
 40
0.0004999999999999
100
AcDbArc
 50
90.0
 51
160.5287793619829
  0
LINE
  5
27F6
330
1F
100
AcDbEntity
  8
SANINDUSA
100
AcDbLine
 10
4158.659470570666
 20
1400.759881495055
 30
-0.0000000000545587
 11
4158.659470570666
 21
1400.760781495055
 31
-0.0000000000545587
  0
LINE
  5
27F7
330
1F
100
AcDbEntity
  8
SANINDUSA
100
AcDbLine
 10
4158.66736238365
 20
1400.759781495055
 30
-0.0000000000545587
 11
4158.668948546907
 21
1400.759781495055
 31
-0.0000000000545587
  0
ARC
  5
27F8
330
1F
100
AcDbEntity
  8
SANINDUSA
100
AcDbCircle
 10
4158.660470570667
 20
1400.760781495055
 30
-0.0000000000545587
 40
0.0009999999999999
100
AcDbArc
 50
90.0
 51
180.0
  0
ARC
  5
27F9
330
1F
100
AcDbEntity
  8
SANINDUSA
100
AcDbCircle
 10
4158.668948546907
 20
1400.759281495055
 30
-0.0000000000545587
 40
0.0005
100
AcDbArc
 50
0.0
 51
90.0
  0
LINE
  5
27FA
330
1F
100
AcDbEntity
  8
SANINDUSA
100
AcDbLine
 10
4158.660470570667
 20
1400.761781495055
 30
-0.0000000000545587
 11
4158.691970570667
 21
1400.761781495055
 31
-0.0000000000545587
  0
LINE
  5
27FB
330
1F
100
AcDbEntity
  8
SANINDUSA
100
AcDbLine
 10
4158.669448546907
 20
1400.759281495055
 30
-0.0000000000545587
 11
4158.669448546907
 21
1400.752281495055
 31
-0.0000000000545587
  0
ARC
  5
27FC
330
1F
100
AcDbEntity
  8
SANINDUSA
100
AcDbCircle
 10
4158.691970570667
 20
1400.760781495055
 30
-0.0000000000545587
 40
0.001
100
AcDbArc
 50
270.0
 51
90.0
  0
ARC
  5
27FD
330
1F
100
AcDbEntity
  8
SANINDUSA
100
AcDbCircle
 10
4158.668948546907
 20
1400.752281495055
 30
-0.0000000000545587
 40
0.0005
100
AcDbArc
 50
270.0
 51
0.0
  0
LINE
  5
27FE
330
1F
100
AcDbEntity
  8
SANINDUSA
100
AcDbLine
 10
4158.691970570667
 20
1400.759781495055
 30
-0.0000000000545587
 11
4158.671948546906
 21
1400.759781495055
 31
-0.0000000000545587
  0
LINE
  5
27FF
330
1F
100
AcDbEntity
  8
SANINDUSA
100
AcDbLine
 10
4158.668948546907
 20
1400.751781495055
 30
-0.0000000000545587
 11
4158.66736238365
 21
1400.751781495055
 31
-0.0000000000545587
  0
ARC
  5
2800
330
1F
100
AcDbEntity
  8
SANINDUSA
100
AcDbCircle
 10
4158.671948546906
 20
1400.759281495055
 30
-0.0000000000545587
 40
0.0005000000000001
100
AcDbArc
 50
90.0
 51
180.0
  0
ARC
  5
2801
330
1F
100
AcDbEntity
  8
SANINDUSA
100
AcDbCircle
 10
4158.66736238365
 20
1400.752281495055
 30
-0.0000000000545587
 40
0.0005
100
AcDbArc
 50
199.471220638017
 51
270.0
  0
LINE
  5
2802
330
1F
100
AcDbEntity
  8
SANINDUSA
100
AcDbLine
 10
4158.671448546907
 20
1400.759281495055
 30
-0.0000000000545587
 11
4158.671448546907
 21
1400.752281495055
 31
-0.0000000000545587
  0
ARC
  5
2803
330
1F
100
AcDbEntity
  8
SANINDUSA
100
AcDbCircle
 10
4158.665948170088
 20
1400.751781495055
 30
-0.0000000000545587
 40
0.001
100
AcDbArc
 50
19.47122063801706
 51
160.5287793619829
  0
ARC
  5
2804
330
1F
100
AcDbEntity
  8
SANINDUSA
100
AcDbCircle
 10
4158.671948546906
 20
1400.752281495055
 30
-0.0000000000545587
 40
0.0005000000000001
100
AcDbArc
 50
180.0
 51
270.0
  0
ARC
  5
2805
330
1F
100
AcDbEntity
  8
SANINDUSA
100
AcDbCircle
 10
4158.664533956526
 20
1400.752281495055
 30
-0.0000000000545587
 40
0.0005
100
AcDbArc
 50
270.0
 51
340.5287793619829
  0
LINE
  5
2806
330
1F
100
AcDbEntity
  8
SANINDUSA
100
AcDbLine
 10
4158.671948546906
 20
1400.751781495055
 30
-0.0000000000545587
 11
4158.691970570667
 21
1400.751781495055
 31
-0.0000000000545587
  0
LINE
  5
2807
330
1F
100
AcDbEntity
  8
SANINDUSA
100
AcDbLine
 10
4158.664533956526
 20
1400.751781495055
 30
-0.0000000000545587
 11
4158.661845343375
 21
1400.751781495055
 31
-0.0000000000545587
  0
ARC
  5
2808
330
1F
100
AcDbEntity
  8
SANINDUSA
100
AcDbCircle
 10
4158.691970570667
 20
1400.750781495055
 30
-0.0000000000545587
 40
0.001
100
AcDbArc
 50
270.0
 51
90.0
  0
ARC
  5
2809
330
1F
100
AcDbEntity
  8
SANINDUSA
100
AcDbCircle
 10
4158.661845343375
 20
1400.752281495055
 30
-0.0000000000545587
 40
0.0005000000000001
100
AcDbArc
 50
203.5781784802981
 51
270.0
  0
LINE
  5
280A
330
1F
100
AcDbEntity
  8
SANINDUSA
100
AcDbLine
 10
4158.691970570667
 20
1400.749781495055
 30
-0.0000000000545587
 11
4158.660470570667
 21
1400.749781495055
 31
-0.0000000000545587
  0
ARC
  5
280B
330
1F
100
AcDbEntity
  8
SANINDUSA
100
AcDbCircle
 10
4158.660470570667
 20
1400.751681495055
 30
-0.0000000000545587
 40
0.0009999999999999
100
AcDbArc
 50
23.57817848029807
 51
180.0
  0
ARC
  5
280C
330
1F
100
AcDbEntity
  8
SANINDUSA
100
AcDbCircle
 10
4158.660470570667
 20
1400.750781495055
 30
-0.0000000000545587
 40
0.0010000000000001
100
AcDbArc
 50
180.0
 51
270.0
  0
LINE
  5
280D
330
1F
100
AcDbEntity
  8
SANINDUSA
100
AcDbLine
 10
4158.659470570666
 20
1400.750781495055
 30
-0.0000000000545587
 11
4158.659470570666
 21
1400.751681495055
 31
-0.0000000000545587
  0
ARC
  5
2850
330
1F
100
AcDbEntity
  8
SANINDUSA
100
AcDbCircle
 10
4159.422161894793
 20
1400.131849876449
 30
-0.0000000017937957
 40
0.001
100
AcDbArc
 50
0.0
 51
90.0
  0
LINE
  5
2851
330
1F
100
AcDbEntity
  8
SANINDUSA
100
AcDbLine
 10
4159.362161894793
 20
1400.139349876449
 30
-0.0000000017937957
 11
4159.348161894793
 21
1400.139349876449
 31
-0.0000000017937957
  0
LINE
  5
2852
330
1F
100
AcDbEntity
  8
SANINDUSA
100
AcDbLine
 10
4159.363161894793
 20
1400.113349876449
 30
-0.0000000017937957
 11
4159.347161894793
 21
1400.113349876449
 31
-0.0000000017937957
  0
LINE
  5
2853
330
1F
100
AcDbEntity
  8
SANINDUSA
100
AcDbLine
 10
4159.346273005904
 20
1400.117349876449
 30
-0.0000000017937957
 11
4159.363161894794
 21
1400.117349876449
 31
-0.0000000017937957
  0
ARC
  5
2854
330
1F
100
AcDbEntity
  8
SANINDUSA
100
AcDbCircle
 10
4159.362161894793
 20
1400.138349876449
 30
-0.0000000017937957
 40
0.001
100
AcDbArc
 50
0.0
 51
90.0
  0
LINE
  5
2855
330
1F
100
AcDbEntity
  8
SANINDUSA
100
AcDbLine
 10
4159.363161894793
 20
1400.113349876449
 30
-0.0000000017937957
 11
4159.364050783682
 21
1400.113349876449
 31
-0.0000000017937957
  0
LINE
  5
2856
330
1F
100
AcDbEntity
  8
SANINDUSA
100
AcDbLine
 10
4159.362661894793
 20
1400.117349876449
 30
-0.0000000017937957
 11
4159.362661894793
 21
1400.113349876449
 31
-0.0000000017937957
  0
LINE
  5
2857
330
1F
100
AcDbEntity
  8
SANINDUSA
100
AcDbLine
 10
4159.364050783682
 20
1400.113349876449
 30
-0.0000000017937957
 11
4159.364050783682
 21
1400.132849876449
 31
-0.0000000017937957
  0
LINE
  5
2858
330
1F
100
AcDbEntity
  8
SANINDUSA
100
AcDbLine
 10
4159.363161894794
 20
1400.117349876449
 30
-0.0000000017937957
 11
4159.363161894794
 21
1400.138349876449
 31
-0.0000000017937957
  0
LINE
  5
2859
330
1F
100
AcDbEntity
  8
SANINDUSA
100
AcDbLine
 10
4159.364050783682
 20
1400.132849876449
 30
-0.0000000017937957
 11
4159.422161894793
 21
1400.132849876449
 31
-0.0000000017937957
  0
ARC
  5
285A
330
1F
100
AcDbEntity
  8
SANINDUSA
100
AcDbCircle
 10
4159.422161894793
 20
1400.098849876449
 30
-0.0000000017937957
 40
0.001
100
AcDbArc
 50
270.0
 51
0.0
  0
LINE
  5
285B
330
1F
100
AcDbEntity
  8
SANINDUSA
100
AcDbLine
 10
4159.348161894793
 20
1400.091349876449
 30
-0.0000000017937957
 11
4159.362161894793
 21
1400.091349876449
 31
-0.0000000017937957
  0
ARC
  5
285C
330
1F
100
AcDbEntity
  8
SANINDUSA
100
AcDbCircle
 10
4159.362161894793
 20
1400.092349876449
 30
-0.0000000017937957
 40
0.001
100
AcDbArc
 50
270.0
 51
0.0
  0
LINE
  5
285D
330
1F
100
AcDbEntity
  8
SANINDUSA
100
AcDbLine
 10
4159.422161894793
 20
1400.097849876449
 30
-0.0000000017937957
 11
4159.363161894793
 21
1400.097849876449
 31
-0.0000000017937957
  0
LINE
  5
285E
330
1F
100
AcDbEntity
  8
SANINDUSA
100
AcDbLine
 10
4159.363161894793
 20
1400.092349876449
 30
-0.0000000017937957
 11
4159.363161894793
 21
1400.113349876449
 31
-0.0000000017937957
  0
LINE
  5
285F
330
1F
100
AcDbEntity
  8
SANINDUSA
100
AcDbLine
 10
4159.423161894793
 20
1400.131849876449
 30
-0.0000000017937957
 11
4159.423161894793
 21
1400.098849876449
 31
-0.0000000017937957
  0
LINE
  5
2860
330
1F
100
AcDbEntity
  8
SANINDUSA
100
AcDbLine
 10
4159.347661894793
 20
1400.117349876449
 30
-0.0000000017937957
 11
4159.347661894793
 21
1400.113349876449
 31
-0.0000000017937957
  0
LINE
  5
2861
330
1F
100
AcDbEntity
  8
SANINDUSA
100
AcDbLine
 10
4159.347161894793
 20
1400.138349876449
 30
-0.0000000017937957
 11
4159.347161894793
 21
1400.132849876449
 31
-0.0000000017937957
  0
LINE
  5
2862
330
1F
100
AcDbEntity
  8
SANINDUSA
100
AcDbLine
 10
4159.347161894793
 20
1400.132849876449
 30
-0.0000000017937957
 11
4159.347161894793
 21
1400.117349876449
 31
-0.0000000017937957
  0
ARC
  5
2863
330
1F
100
AcDbEntity
  8
SANINDUSA
100
AcDbCircle
 10
4159.348161894793
 20
1400.138349876449
 30
-0.0000000017937957
 40
0.001
100
AcDbArc
 50
90.0
 51
180.0
  0
ARC
  5
2864
330
1F
100
AcDbEntity
  8
SANINDUSA
100
AcDbCircle
 10
4159.288161894793
 20
1400.131849876449
 30
-0.0000000017937957
 40
0.001
100
AcDbArc
 50
90.0
 51
180.0
  0
LINE
  5
2865
330
1F
100
AcDbEntity
  8
SANINDUSA
100
AcDbLine
 10
4159.347161894793
 20
1400.132849876449
 30
-0.0000000017937957
 11
4159.288161894793
 21
1400.132849876449
 31
-0.0000000017937957
  0
ARC
  5
2866
330
1F
100
AcDbEntity
  8
SANINDUSA
100
AcDbCircle
 10
4159.348161894793
 20
1400.092349876449
 30
-0.0000000017937957
 40
0.001
100
AcDbArc
 50
180.0
 51
270.0
  0
ARC
  5
2867
330
1F
100
AcDbEntity
  8
SANINDUSA
100
AcDbCircle
 10
4159.288161894793
 20
1400.098849876449
 30
-0.0000000017937957
 40
0.001
100
AcDbArc
 50
180.0
 51
270.0
  0
LINE
  5
2868
330
1F
100
AcDbEntity
  8
SANINDUSA
100
AcDbLine
 10
4159.288161894793
 20
1400.097849876449
 30
-0.0000000017937957
 11
4159.346273005904
 21
1400.097849876449
 31
-0.0000000017937957
  0
LINE
  5
2869
330
1F
100
AcDbEntity
  8
SANINDUSA
100
AcDbLine
 10
4159.287161894794
 20
1400.131849876449
 30
-0.0000000017937957
 11
4159.287161894794
 21
1400.098849876449
 31
-0.0000000017937957
  0
LINE
  5
286A
330
1F
100
AcDbEntity
  8
SANINDUSA
100
AcDbLine
 10
4159.346273005904
 20
1400.097849876449
 30
-0.0000000017937957
 11
4159.346273005904
 21
1400.117349876449
 31
-0.0000000017937957
  0
LINE
  5
286B
330
1F
100
AcDbEntity
  8
SANINDUSA
100
AcDbLine
 10
4159.347161894793
 20
1400.113349876449
 30
-0.0000000017937957
 11
4159.347161894793
 21
1400.092349876449
 31
-0.0000000017937957
  0
ARC
  5
286C
330
1F
100
AcDbEntity
  8
SANINDUSA
100
AcDbCircle
 10
4159.422161894793
 20
1401.391849876439
 30
-0.0000000017937957
 40
0.001
100
AcDbArc
 50
0.0
 51
90.0
  0
LINE
  5
286D
330
1F
100
AcDbEntity
  8
SANINDUSA
100
AcDbLine
 10
4159.362161894793
 20
1401.399349876439
 30
-0.0000000017937957
 11
4159.348161894793
 21
1401.399349876439
 31
-0.0000000017937957
  0
LINE
  5
286E
330
1F
100
AcDbEntity
  8
SANINDUSA
100
AcDbLine
 10
4159.363161894793
 20
1401.373349876439
 30
-0.0000000017937957
 11
4159.347161894793
 21
1401.373349876439
 31
-0.0000000017937957
  0
LINE
  5
286F
330
1F
100
AcDbEntity
  8
SANINDUSA
100
AcDbLine
 10
4159.346273005904
 20
1401.37734987644
 30
-0.0000000017937957
 11
4159.363161894794
 21
1401.37734987644
 31
-0.0000000017937957
  0
ARC
  5
2870
330
1F
100
AcDbEntity
  8
SANINDUSA
100
AcDbCircle
 10
4159.362161894793
 20
1401.39834987644
 30
-0.0000000017937957
 40
0.001
100
AcDbArc
 50
0.0
 51
90.0
  0
LINE
  5
2871
330
1F
100
AcDbEntity
  8
SANINDUSA
100
AcDbLine
 10
4159.363161894793
 20
1401.373349876439
 30
-0.0000000017937957
 11
4159.364050783682
 21
1401.373349876439
 31
-0.0000000017937957
  0
LINE
  5
2872
330
1F
100
AcDbEntity
  8
SANINDUSA
100
AcDbLine
 10
4159.362661894793
 20
1401.37734987644
 30
-0.0000000017937957
 11
4159.362661894793
 21
1401.373349876439
 31
-0.0000000017937957
  0
LINE
  5
2873
330
1F
100
AcDbEntity
  8
SANINDUSA
100
AcDbLine
 10
4159.364050783682
 20
1401.373349876439
 30
-0.0000000017937957
 11
4159.364050783682
 21
1401.39284987644
 31
-0.0000000017937957
  0
LINE
  5
2874
330
1F
100
AcDbEntity
  8
SANINDUSA
100
AcDbLine
 10
4159.363161894794
 20
1401.37734987644
 30
-0.0000000017937957
 11
4159.363161894794
 21
1401.39834987644
 31
-0.0000000017937957
  0
LINE
  5
2875
330
1F
100
AcDbEntity
  8
SANINDUSA
100
AcDbLine
 10
4159.364050783682
 20
1401.39284987644
 30
-0.0000000017937957
 11
4159.422161894793
 21
1401.39284987644
 31
-0.0000000017937957
  0
ARC
  5
2876
330
1F
100
AcDbEntity
  8
SANINDUSA
100
AcDbCircle
 10
4159.422161894793
 20
1401.358849876439
 30
-0.0000000017937957
 40
0.001
100
AcDbArc
 50
270.0
 51
0.0
  0
LINE
  5
2877
330
1F
100
AcDbEntity
  8
SANINDUSA
100
AcDbLine
 10
4159.348161894793
 20
1401.35134987644
 30
-0.0000000017937957
 11
4159.362161894793
 21
1401.35134987644
 31
-0.0000000017937957
  0
ARC
  5
2878
330
1F
100
AcDbEntity
  8
SANINDUSA
100
AcDbCircle
 10
4159.362161894793
 20
1401.352349876439
 30
-0.0000000017937957
 40
0.001
100
AcDbArc
 50
270.0
 51
0.0
  0
LINE
  5
2879
330
1F
100
AcDbEntity
  8
SANINDUSA
100
AcDbLine
 10
4159.422161894793
 20
1401.357849876439
 30
-0.0000000017937957
 11
4159.363161894793
 21
1401.357849876439
 31
-0.0000000017937957
  0
LINE
  5
287A
330
1F
100
AcDbEntity
  8
SANINDUSA
100
AcDbLine
 10
4159.363161894793
 20
1401.352349876439
 30
-0.0000000017937957
 11
4159.363161894793
 21
1401.373349876439
 31
-0.0000000017937957
  0
LINE
  5
287B
330
1F
100
AcDbEntity
  8
SANINDUSA
100
AcDbLine
 10
4159.423161894793
 20
1401.391849876439
 30
-0.0000000017937957
 11
4159.423161894793
 21
1401.358849876439
 31
-0.0000000017937957
  0
LINE
  5
287C
330
1F
100
AcDbEntity
  8
SANINDUSA
100
AcDbLine
 10
4159.347661894793
 20
1401.37734987644
 30
-0.0000000017937957
 11
4159.347661894793
 21
1401.373349876439
 31
-0.0000000017937957
  0
LINE
  5
287D
330
1F
100
AcDbEntity
  8
SANINDUSA
100
AcDbLine
 10
4159.347161894793
 20
1401.39834987644
 30
-0.0000000017937957
 11
4159.347161894793
 21
1401.39284987644
 31
-0.0000000017937957
  0
LINE
  5
287E
330
1F
100
AcDbEntity
  8
SANINDUSA
100
AcDbLine
 10
4159.347161894793
 20
1401.39284987644
 30
-0.0000000017937957
 11
4159.347161894793
 21
1401.37734987644
 31
-0.0000000017937957
  0
ARC
  5
287F
330
1F
100
AcDbEntity
  8
SANINDUSA
100
AcDbCircle
 10
4159.348161894793
 20
1401.39834987644
 30
-0.0000000017937957
 40
0.001
100
AcDbArc
 50
90.0
 51
180.0
  0
ARC
  5
2880
330
1F
100
AcDbEntity
  8
SANINDUSA
100
AcDbCircle
 10
4159.288161894793
 20
1401.391849876439
 30
-0.0000000017937957
 40
0.001
100
AcDbArc
 50
90.0
 51
180.0
  0
LINE
  5
2881
330
1F
100
AcDbEntity
  8
SANINDUSA
100
AcDbLine
 10
4159.347161894793
 20
1401.39284987644
 30
-0.0000000017937957
 11
4159.288161894793
 21
1401.39284987644
 31
-0.0000000017937957
  0
ARC
  5
2882
330
1F
100
AcDbEntity
  8
SANINDUSA
100
AcDbCircle
 10
4159.348161894793
 20
1401.352349876439
 30
-0.0000000017937957
 40
0.001
100
AcDbArc
 50
180.0
 51
270.0
  0
ARC
  5
2883
330
1F
100
AcDbEntity
  8
SANINDUSA
100
AcDbCircle
 10
4159.288161894793
 20
1401.358849876439
 30
-0.0000000017937957
 40
0.001
100
AcDbArc
 50
180.0
 51
270.0
  0
LINE
  5
2884
330
1F
100
AcDbEntity
  8
SANINDUSA
100
AcDbLine
 10
4159.288161894793
 20
1401.357849876439
 30
-0.0000000017937957
 11
4159.346273005904
 21
1401.357849876439
 31
-0.0000000017937957
  0
LINE
  5
2885
330
1F
100
AcDbEntity
  8
SANINDUSA
100
AcDbLine
 10
4159.287161894794
 20
1401.391849876439
 30
-0.0000000017937957
 11
4159.287161894794
 21
1401.358849876439
 31
-0.0000000017937957
  0
LINE
  5
2886
330
1F
100
AcDbEntity
  8
SANINDUSA
100
AcDbLine
 10
4159.346273005904
 20
1401.357849876439
 30
-0.0000000017937957
 11
4159.346273005904
 21
1401.37734987644
 31
-0.0000000017937957
  0
LINE
  5
2887
330
1F
100
AcDbEntity
  8
SANINDUSA
100
AcDbLine
 10
4159.347161894793
 20
1401.373349876439
 30
-0.0000000017937957
 11
4159.347161894793
 21
1401.352349876439
 31
-0.0000000017937957
  0
ENDSEC
  0
SECTION
  2
OBJECTS
  0
DICTIONARY
  5
C
330
0
100
AcDbDictionary
281
     1
  3
ACAD_COLOR
350
2911
  3
ACAD_GROUP
350
D
  3
ACAD_LAYOUT
350
1A
  3
ACAD_MATERIAL
350
28E4
  3
ACAD_MLEADERSTYLE
350
2926
  3
ACAD_MLINESTYLE
350
17
  3
ACAD_PLOTSETTINGS
350
19
  3
ACAD_PLOTSTYLENAME
350
E
  3
ACAD_SCALELIST
350
2914
  3
ACAD_TABLESTYLE
350
2912
  3
ACAD_VISUALSTYLE
350
28FD
  3
ACDB_RECOMPOSE_DATA
350
29F2
  3
AcDbVariableDictionary
350
3D
  3
ASE_INDEX_DICTIONARY
350
28E0
  3
DWGPROPS
350
29F3
  0
DICTIONARY
  5
2973
330
8
100
AcDbDictionary
280
     1
281
     1
  0
DICTIONARY
  5
294F
330
10
100
AcDbDictionary
280
     1
281
     1
  3
ADSK_XREC_LAYER_RECONCILED
360
2950
  0
DICTIONARY
  5
2951
330
2F
100
AcDbDictionary
280
     1
281
     1
  3
ADSK_XREC_LAYER_RECONCILED
360
2952
  0
DICTIONARY
  5
2953
330
30
100
AcDbDictionary
280
     1
281
     1
  3
ADSK_XREC_LAYER_RECONCILED
360
2954
  0
DICTIONARY
  5
2955
330
31
100
AcDbDictionary
280
     1
281
     1
  3
ADSK_XREC_LAYER_RECONCILED
360
2956
  0
DICTIONARY
  5
2957
330
32
100
AcDbDictionary
280
     1
281
     1
  3
ADSK_XREC_LAYER_RECONCILED
360
2958
  0
DICTIONARY
  5
2959
330
33
100
AcDbDictionary
280
     1
281
     1
  3
ADSK_XREC_LAYER_RECONCILED
360
295A
  0
DICTIONARY
  5
295B
330
34
100
AcDbDictionary
280
     1
281
     1
  3
ADSK_XREC_LAYER_RECONCILED
360
295C
  0
DICTIONARY
  5
295D
330
35
100
AcDbDictionary
280
     1
281
     1
  3
ADSK_XREC_LAYER_RECONCILED
360
295E
  0
DICTIONARY
  5
295F
330
36
100
AcDbDictionary
280
     1
281
     1
  3
ADSK_XREC_LAYER_RECONCILED
360
2960
  0
DICTIONARY
  5
2961
330
37
100
AcDbDictionary
280
     1
281
     1
  3
ADSK_XREC_LAYER_RECONCILED
360
2962
  0
DICTIONARY
  5
2963
330
5D6
100
AcDbDictionary
280
     1
281
     1
  3
ADSK_XREC_LAYER_RECONCILED
360
2964
  0
DICTIONARY
  5
2965
330
8AF
100
AcDbDictionary
280
     1
281
     1
  3
ADSK_XREC_LAYER_RECONCILED
360
2966
  0
DICTIONARY
  5
2967
330
8F8
100
AcDbDictionary
280
     1
281
     1
  3
ADSK_XREC_LAYER_RECONCILED
360
2968
  0
DICTIONARY
  5
2969
330
91D
100
AcDbDictionary
280
     1
281
     1
  3
ADSK_XREC_LAYER_RECONCILED
360
296A
  0
DICTIONARY
  5
296B
330
D1F
100
AcDbDictionary
280
     1
281
     1
  3
ADSK_XREC_LAYER_RECONCILED
360
296C
  0
DICTIONARY
  5
296D
330
294E
100
AcDbDictionary
280
     1
281
     1
  3
ADSK_XREC_LAYER_RECONCILED
360
296E
  0
DICTIONARY
  5
2911
102
{ACAD_REACTORS
330
C
102
}
330
C
100
AcDbDictionary
281
     1
  0
DICTIONARY
  5
D
102
{ACAD_REACTORS
330
C
102
}
330
C
100
AcDbDictionary
281
     1
  0
DICTIONARY
  5
1A
102
{ACAD_REACTORS
330
C
102
}
330
C
100
AcDbDictionary
281
     1
  3
Layout1
350
1E
  3
Layout2
350
26
  3
Model
350
22
  0
DICTIONARY
  5
28E4
102
{ACAD_REACTORS
330
C
102
}
330
C
100
AcDbDictionary
281
     1
  3
ByBlock
350
28ED
  3
ByLayer
350
28E5
  3
Global
350
28F5
  0
DICTIONARY
  5
2926
102
{ACAD_REACTORS
330
C
102
}
330
C
100
AcDbDictionary
281
     1
  3
Standard
350
2927
  0
DICTIONARY
  5
17
102
{ACAD_REACTORS
330
C
102
}
330
C
100
AcDbDictionary
281
     1
  3
Standard
350
18
  0
DICTIONARY
  5
19
102
{ACAD_REACTORS
330
C
102
}
330
C
100
AcDbDictionary
281
     1
  0
ACDBDICTIONARYWDFLT
  5
E
102
{ACAD_REACTORS
330
C
102
}
330
C
100
AcDbDictionary
281
     1
  3
Normal
350
F
100
AcDbDictionaryWithDefault
340
F
  0
DICTIONARY
  5
2914
102
{ACAD_REACTORS
330
C
102
}
330
C
100
AcDbDictionary
281
     1
  3
A0
350
2915
  3
A1
350
2916
  3
A2
350
2917
  3
A3
350
2918
  3
A4
350
2919
  3
A5
350
291A
  3
A6
350
291B
  3
A7
350
291C
  3
A8
350
291D
  3
A9
350
291E
  3
B0
350
291F
  3
B1
350
2920
  3
B2
350
2921
  3
B3
350
2922
  3
B4
350
2923
  3
B5
350
2924
  3
B6
350
2925
  0
DICTIONARY
  5
2912
102
{ACAD_REACTORS
330
C
102
}
330
C
100
AcDbDictionary
281
     1
  3
Standard
350
2913
  0
DICTIONARY
  5
28FD
102
{ACAD_REACTORS
330
C
102
}
330
C
100
AcDbDictionary
281
     1
  3
2dWireframe
350
2903
  3
3D Hidden
350
2905
  3
3dWireframe
350
2904
  3
Basic
350
2902
  3
Brighten
350
2909
  3
ColorChange
350
290D
  3
Conceptual
350
2906
  3
Dim
350
2908
  3
EdgeColorOff
350
2910
  3
Facepattern
350
290C
  3
Flat
350
28FE
  3
FlatWithEdges
350
28FF
  3
Gouraud
350
2900
  3
GouraudWithEdges
350
2901
  3
JitterOff
350
290E
  3
Linepattern
350
290B
  3
OverhangOff
350
290F
  3
Realistic
350
2907
  3
Thicken
350
290A
  0
XRECORD
  5
29F2
102
{ACAD_REACTORS
330
C
102
}
330
C
100
AcDbXrecord
280
     1
 90
        1
330
2913
  0
DICTIONARY
  5
3D
102
{ACAD_REACTORS
330
C
102
}
330
C
100
AcDbDictionary
281
     1
  3
CANNOSCALE
350
29AE
  3
CMLEADERSTYLE
350
29AD
  3
CTABLESTYLE
350
29AC
  3
DIMASSOC
350
3F
  3
HIDETEXT
350
3E
  3
INDEXCTL
350
29B0
  3
SORTENTS
350
29AF
  3
XCLIPFRAME
350
29F0
  0
DICTIONARY
  5
28E0
102
{ACAD_REACTORS
330
C
102
}
330
C
100
AcDbDictionary
281
     1
  3
ASEBlockHierarchyIndexRecord
350
28E1
1001
DCO15
1040
1508237274.015
  0
XRECORD
  5
29F3
102
{ACAD_REACTORS
330
C
102
}
330
C
100
AcDbXrecord
280
     1
  1
DWGPROPS COOKIE
  2

  3

  4

  6

  7

  8
Julio
  9

300
=
301
=
302
=
303
=
304
=
305
=
306
=
307
=
308
=
309
=
 40
0.0506146990740741
 41
2453259.383573669
 42
2455817.503568067
  1

 90
        0
  0
XRECORD
  5
2950
102
{ACAD_REACTORS
330
294F
102
}
330
294F
100
AcDbXrecord
280
     1
290
     1
  0
XRECORD
  5
2952
102
{ACAD_REACTORS
330
2951
102
}
330
2951
100
AcDbXrecord
280
     1
290
     1
  0
XRECORD
  5
2954
102
{ACAD_REACTORS
330
2953
102
}
330
2953
100
AcDbXrecord
280
     1
290
     1
  0
XRECORD
  5
2956
102
{ACAD_REACTORS
330
2955
102
}
330
2955
100
AcDbXrecord
280
     1
290
     1
  0
XRECORD
  5
2958
102
{ACAD_REACTORS
330
2957
102
}
330
2957
100
AcDbXrecord
280
     1
290
     1
  0
XRECORD
  5
295A
102
{ACAD_REACTORS
330
2959
102
}
330
2959
100
AcDbXrecord
280
     1
290
     1
  0
XRECORD
  5
295C
102
{ACAD_REACTORS
330
295B
102
}
330
295B
100
AcDbXrecord
280
     1
290
     1
  0
XRECORD
  5
295E
102
{ACAD_REACTORS
330
295D
102
}
330
295D
100
AcDbXrecord
280
     1
290
     1
  0
XRECORD
  5
2960
102
{ACAD_REACTORS
330
295F
102
}
330
295F
100
AcDbXrecord
280
     1
290
     1
  0
XRECORD
  5
2962
102
{ACAD_REACTORS
330
2961
102
}
330
2961
100
AcDbXrecord
280
     1
290
     1
  0
XRECORD
  5
2964
102
{ACAD_REACTORS
330
2963
102
}
330
2963
100
AcDbXrecord
280
     1
290
     1
  0
XRECORD
  5
2966
102
{ACAD_REACTORS
330
2965
102
}
330
2965
100
AcDbXrecord
280
     1
290
     1
  0
XRECORD
  5
2968
102
{ACAD_REACTORS
330
2967
102
}
330
2967
100
AcDbXrecord
280
     1
290
     1
  0
XRECORD
  5
296A
102
{ACAD_REACTORS
330
2969
102
}
330
2969
100
AcDbXrecord
280
     1
290
     1
  0
XRECORD
  5
296C
102
{ACAD_REACTORS
330
296B
102
}
330
296B
100
AcDbXrecord
280
     1
290
     1
  0
XRECORD
  5
296E
102
{ACAD_REACTORS
330
296D
102
}
330
296D
100
AcDbXrecord
280
     1
290
     1
  0
LAYOUT
  5
1E
102
{ACAD_XDICTIONARY
360
29F4
102
}
102
{ACAD_REACTORS
330
1A
102
}
330
1A
100
AcDbPlotSettings
  1

  2
Ploter HP500
  4

  6

 40
0.0
 41
0.0
 42
0.0
 43
0.0
 44
0.0
 45
0.0
 46
0.0
 47
0.0
 48
0.0
 49
0.0
140
0.0
141
0.0
142
1.0
143
1.0
 70
   688
 72
     0
 73
     0
 74
     5
  7
monochrome.ctb
 75
    16
147
1.0
148
0.0
149
0.0
100
AcDbLayout
  1
Layout1
 70
     1
 71
     1
 10
0.0
 20
0.0
 11
420.0
 21
297.0
 12
0.0
 22
0.0
 32
0.0
 14
1.000000000000000E+20
 24
1.000000000000000E+20
 34
1.000000000000000E+20
 15
-1.000000000000000E+20
 25
-1.000000000000000E+20
 35
-1.000000000000000E+20
146
0.0
 13
0.0
 23
0.0
 33
0.0
 16
1.0
 26
0.0
 36
0.0
 17
0.0
 27
1.0
 37
0.0
 76
     0
330
1B
  0
LAYOUT
  5
26
102
{ACAD_XDICTIONARY
360
29F8
102
}
102
{ACAD_REACTORS
330
1A
102
}
330
1A
100
AcDbPlotSettings
  1

  2
Ploter HP500
  4

  6

 40
0.0
 41
0.0
 42
0.0
 43
0.0
 44
0.0
 45
0.0
 46
0.0
 47
0.0
 48
0.0
 49
0.0
140
0.0
141
0.0
142
1.0
143
1.0
 70
   688
 72
     0
 73
     0
 74
     5
  7
monochrome.ctb
 75
    16
147
1.0
148
0.0
149
0.0
100
AcDbLayout
  1
Layout2
 70
     1
 71
     2
 10
0.0
 20
0.0
 11
12.0
 21
9.0
 12
0.0
 22
0.0
 32
0.0
 14
0.0
 24
0.0
 34
0.0
 15
0.0
 25
0.0
 35
0.0
146
0.0
 13
0.0
 23
0.0
 33
0.0
 16
1.0
 26
0.0
 36
0.0
 17
0.0
 27
1.0
 37
0.0
 76
     0
330
23
  0
LAYOUT
  5
22
102
{ACAD_XDICTIONARY
360
29F6
102
}
102
{ACAD_REACTORS
330
1A
102
}
330
1A
100
AcDbPlotSettings
  1

  2
Ploter HP500
  4
User268
  6

 40
4.995333194732666
 41
16.97565841674804
 42
4.995330810546875
 43
16.97567749023437
 44
209.9733276367187
 45
296.9259948730469
 46
0.0
 47
0.0
 48
0.0
 49
0.0
140
0.0
141
0.0
142
1.0
143
1.0
 70
 11952
 72
     1
 73
     1
 74
     0
  7

 75
     0
147
1.0
148
-427.5957866592534
149
7.362384574453926
100
AcDbLayout
  1
Model
 70
     1
 71
     0
 10
0.0
 20
0.0
 11
12.0
 21
9.0
 12
0.0
 22
0.0
 32
0.0
 14
0.0
 24
0.0
 34
0.0
 15
0.0
 25
0.0
 35
0.0
146
0.0
 13
0.0
 23
0.0
 33
0.0
 16
1.0
 26
0.0
 36
0.0
 17
0.0
 27
1.0
 37
0.0
 76
     0
330
1F
331
28E2
  0
MATERIAL
  5
28ED
102
{ACAD_XDICTIONARY
360
28EE
102
}
102
{ACAD_REACTORS
330
28E4
102
}
330
28E4
100
AcDbMaterial
  1
ByBlock
 72
     0
 43
0.0008202099737533
 43
0.0
 43
0.0
 43
0.0
 43
0.0
 43
0.0008202099737533
 43
0.0
 43
0.0
 43
0.0
 43
0.0
 43
1.0
 43
0.0
 43
0.0
 43
0.0
 43
0.0
 43
1.0
 77
     0
 47
0.0008202099737533
 47
0.0
 47
0.0
 47
0.0
 47
0.0
 47
0.0008202099737533
 47
0.0
 47
0.0
 47
0.0
 47
0.0
 47
1.0
 47
0.0
 47
0.0
 47
0.0
 47
0.0
 47
1.0
171
     0
 49
0.0008202099737533
 49
0.0
 49
0.0
 49
0.0
 49
0.0
 49
0.0008202099737533
 49
0.0
 49
0.0
 49
0.0
 49
0.0
 49
1.0
 49
0.0
 49
0.0
 49
0.0
 49
0.0
 49
1.0
175
     0
142
0.0008202099737533
142
0.0
142
0.0
142
0.0
142
0.0
142
0.0008202099737533
142
0.0
142
0.0
142
0.0
142
0.0
142
1.0
142
0.0
142
0.0
142
0.0
142
0.0
142
1.0
179
     0
144
0.0008202099737533
144
0.0
144
0.0
144
0.0
144
0.0
144
0.0008202099737533
144
0.0
144
0.0
144
0.0
144
0.0
144
1.0
144
0.0
144
0.0
144
0.0
144
0.0
144
1.0
147
0.0008202099737533
147
0.0
147
0.0
147
0.0
147
0.0
147
0.0008202099737533
147
0.0
147
0.0
147
0.0
147
0.0
147
1.0
147
0.0
147
0.0
147
0.0
147
0.0
147
1.0
  0
MATERIAL
  5
28E5
102
{ACAD_XDICTIONARY
360
28E6
102
}
102
{ACAD_REACTORS
330
28E4
102
}
330
28E4
100
AcDbMaterial
  1
ByLayer
 72
     0
 43
0.0008202099737533
 43
0.0
 43
0.0
 43
0.0
 43
0.0
 43
0.0008202099737533
 43
0.0
 43
0.0
 43
0.0
 43
0.0
 43
1.0
 43
0.0
 43
0.0
 43
0.0
 43
0.0
 43
1.0
 77
     0
 47
0.0008202099737533
 47
0.0
 47
0.0
 47
0.0
 47
0.0
 47
0.0008202099737533
 47
0.0
 47
0.0
 47
0.0
 47
0.0
 47
1.0
 47
0.0
 47
0.0
 47
0.0
 47
0.0
 47
1.0
171
     0
 49
0.0008202099737533
 49
0.0
 49
0.0
 49
0.0
 49
0.0
 49
0.0008202099737533
 49
0.0
 49
0.0
 49
0.0
 49
0.0
 49
1.0
 49
0.0
 49
0.0
 49
0.0
 49
0.0
 49
1.0
175
     0
142
0.0008202099737533
142
0.0
142
0.0
142
0.0
142
0.0
142
0.0008202099737533
142
0.0
142
0.0
142
0.0
142
0.0
142
1.0
142
0.0
142
0.0
142
0.0
142
0.0
142
1.0
179
     0
144
0.0008202099737533
144
0.0
144
0.0
144
0.0
144
0.0
144
0.0008202099737533
144
0.0
144
0.0
144
0.0
144
0.0
144
1.0
144
0.0
144
0.0
144
0.0
144
0.0
144
1.0
147
0.0008202099737533
147
0.0
147
0.0
147
0.0
147
0.0
147
0.0008202099737533
147
0.0
147
0.0
147
0.0
147
0.0
147
1.0
147
0.0
147
0.0
147
0.0
147
0.0
147
1.0
  0
MATERIAL
  5
28F5
102
{ACAD_XDICTIONARY
360
28F6
102
}
102
{ACAD_REACTORS
330
28E4
102
}
330
28E4
100
AcDbMaterial
  1
Global
 72
     0
 43
0.0008202099737533
 43
0.0
 43
0.0
 43
0.0
 43
0.0
 43
0.0008202099737533
 43
0.0
 43
0.0
 43
0.0
 43
0.0
 43
1.0
 43
0.0
 43
0.0
 43
0.0
 43
0.0
 43
1.0
 77
     0
 47
0.0008202099737533
 47
0.0
 47
0.0
 47
0.0
 47
0.0
 47
0.0008202099737533
 47
0.0
 47
0.0
 47
0.0
 47
0.0
 47
1.0
 47
0.0
 47
0.0
 47
0.0
 47
0.0
 47
1.0
171
     0
 49
0.0008202099737533
 49
0.0
 49
0.0
 49
0.0
 49
0.0
 49
0.0008202099737533
 49
0.0
 49
0.0
 49
0.0
 49
0.0
 49
1.0
 49
0.0
 49
0.0
 49
0.0
 49
0.0
 49
1.0
175
     0
142
0.0008202099737533
142
0.0
142
0.0
142
0.0
142
0.0
142
0.0008202099737533
142
0.0
142
0.0
142
0.0
142
0.0
142
1.0
142
0.0
142
0.0
142
0.0
142
0.0
142
1.0
179
     0
144
0.0008202099737533
144
0.0
144
0.0
144
0.0
144
0.0
144
0.0008202099737533
144
0.0
144
0.0
144
0.0
144
0.0
144
1.0
144
0.0
144
0.0
144
0.0
144
0.0
144
1.0
147
0.0008202099737533
147
0.0
147
0.0
147
0.0
147
0.0
147
0.0008202099737533
147
0.0
147
0.0
147
0.0
147
0.0
147
1.0
147
0.0
147
0.0
147
0.0
147
0.0
147
1.0
  0
MLEADERSTYLE
  5
2927
102
{ACAD_REACTORS
330
2926
102
}
330
2926
100
AcDbMLeaderStyle
170
     2
171
     1
172
     0
 90
        2
 40
0.0
 41
0.0
173
     1
 91
-1056964608
340
14
 92
       -2
290
     1
 42
2.0
291
     1
 43
0.36
  3
Standard
 44
4.0
300

342
11
174
     1
178
     6
175
     1
176
     0
 93
-1056964608
 45
4.0
292
     0
297
     0
 46
4.0
 94
-1056964608
 47
1.0
 49
1.0
140
1.0
293
     1
141
0.0
294
     1
177
     0
142
1.0
295
     0
296
     0
143
0.125
1001
ACAD_MLEADERVER
1070
     2
  0
MLINESTYLE
  5
18
102
{ACAD_REACTORS
330
17
102
}
330
17
100
AcDbMlineStyle
  2
STANDARD
 70
     0
  3

 62
   256
 51
90.0
 52
90.0
 71
     2
 49
0.5
 62
   256
  6
BYLAYER
 49
-0.5
 62
   256
  6
BYLAYER
  0
ACDBPLACEHOLDER
  5
F
102
{ACAD_REACTORS
330
E
102
}
330
E
  0
SCALE
  5
2915
102
{ACAD_REACTORS
330
2914
102
}
330
2914
100
AcDbScale
 70
     0
300
1:1
140
1.0
141
1.0
290
     1
  0
SCALE
  5
2916
102
{ACAD_REACTORS
330
2914
102
}
330
2914
100
AcDbScale
 70
     0
300
1:2
140
1.0
141
2.0
290
     0
  0
SCALE
  5
2917
102
{ACAD_REACTORS
330
2914
102
}
330
2914
100
AcDbScale
 70
     0
300
1:4
140
1.0
141
4.0
290
     0
  0
SCALE
  5
2918
102
{ACAD_REACTORS
330
2914
102
}
330
2914
100
AcDbScale
 70
     0
300
1:5
140
1.0
141
5.0
290
     0
  0
SCALE
  5
2919
102
{ACAD_REACTORS
330
2914
102
}
330
2914
100
AcDbScale
 70
     0
300
1:8
140
1.0
141
8.0
290
     0
  0
SCALE
  5
291A
102
{ACAD_REACTORS
330
2914
102
}
330
2914
100
AcDbScale
 70
     0
300
1:10
140
1.0
141
10.0
290
     0
  0
SCALE
  5
291B
102
{ACAD_REACTORS
330
2914
102
}
330
2914
100
AcDbScale
 70
     0
300
1:16
140
1.0
141
16.0
290
     0
  0
SCALE
  5
291C
102
{ACAD_REACTORS
330
2914
102
}
330
2914
100
AcDbScale
 70
     0
300
1:20
140
1.0
141
20.0
290
     0
  0
SCALE
  5
291D
102
{ACAD_REACTORS
330
2914
102
}
330
2914
100
AcDbScale
 70
     0
300
1:30
140
1.0
141
30.0
290
     0
  0
SCALE
  5
291E
102
{ACAD_REACTORS
330
2914
102
}
330
2914
100
AcDbScale
 70
     0
300
1:40
140
1.0
141
40.0
290
     0
  0
SCALE
  5
291F
102
{ACAD_REACTORS
330
2914
102
}
330
2914
100
AcDbScale
 70
     0
300
1:50
140
1.0
141
50.0
290
     0
  0
SCALE
  5
2920
102
{ACAD_REACTORS
330
2914
102
}
330
2914
100
AcDbScale
 70
     0
300
1:100
140
1.0
141
100.0
290
     0
  0
SCALE
  5
2921
102
{ACAD_REACTORS
330
2914
102
}
330
2914
100
AcDbScale
 70
     0
300
2:1
140
2.0
141
1.0
290
     0
  0
SCALE
  5
2922
102
{ACAD_REACTORS
330
2914
102
}
330
2914
100
AcDbScale
 70
     0
300
4:1
140
4.0
141
1.0
290
     0
  0
SCALE
  5
2923
102
{ACAD_REACTORS
330
2914
102
}
330
2914
100
AcDbScale
 70
     0
300
8:1
140
8.0
141
1.0
290
     0
  0
SCALE
  5
2924
102
{ACAD_REACTORS
330
2914
102
}
330
2914
100
AcDbScale
 70
     0
300
10:1
140
10.0
141
1.0
290
     0
  0
SCALE
  5
2925
102
{ACAD_REACTORS
330
2914
102
}
330
2914
100
AcDbScale
 70
     0
300
100:1
140
100.0
141
1.0
290
     0
  0
TABLESTYLE
  5
2913
102
{ACAD_XDICTIONARY
360
296F
102
}
102
{ACAD_REACTORS
330
2912
102
}
330
2912
100
AcDbTableStyle
  3
Standard
 70
     0
 71
     0
 40
1.5
 41
1.5
280
     0
281
     0
  7
Standard
140
4.5
170
     2
 62
     0
 63
     7
283
     0
274
    -2
284
     1
 64
     0
275
    -2
285
     1
 65
     0
276
    -2
286
     1
 66
     0
277
    -2
287
     1
 67
     0
278
    -2
288
     1
 68
     0
279
    -2
289
     1
 69
     0
  7
Standard
140
6.0
170
     5
 62
     0
 63
     7
283
     0
274
    -2
284
     1
 64
     0
275
    -2
285
     1
 65
     0
276
    -2
286
     1
 66
     0
277
    -2
287
     1
 67
     0
278
    -2
288
     1
 68
     0
279
    -2
289
     1
 69
     0
  7
Standard
140
4.5
170
     5
 62
     0
 63
     7
283
     0
274
    -2
284
     1
 64
     0
275
    -2
285
     1
 65
     0
276
    -2
286
     1
 66
     0
277
    -2
287
     1
 67
     0
278
    -2
288
     1
 68
     0
279
    -2
289
     1
 69
     0
  0
VISUALSTYLE
  5
2903
102
{ACAD_XDICTIONARY
360
2A09
102
}
102
{ACAD_REACTORS
330
28FD
102
}
330
28FD
100
AcDbVisualStyle
  2
2dWireframe
 70
     4
 71
     0
 72
     2
 73
     0
 90
        0
 40
-0.6
 41
-30.0
 62
     5
 63
     7
 74
     1
 91
        4
 64
     7
 65
   257
 75
     1
175
     1
 42
1.0
 92
        0
 66
   257
 43
1.0
 76
     1
 77
     6
 78
     2
 67
     7
 79
     5
170
     0
171
     0
290
     0
174
     0
 93
        1
 44
0.0
173
     0
291
     0
 45
0.0
1001
ACAD
1000
AcDbSavedByObjectVersion
1070
     0
  0
VISUALSTYLE
  5
2905
102
{ACAD_XDICTIONARY
360
2A0D
102
}
102
{ACAD_REACTORS
330
28FD
102
}
330
28FD
100
AcDbVisualStyle
  2
3D Hidden
 70
     6
 71
     1
 72
     2
 73
     2
 90
        0
 40
-0.6
 41
-30.0
 62
     5
 63
     7
 74
     2
 91
        2
 64
     7
 65
   257
 75
     2
175
     1
 42
179.0
 92
        0
 66
   257
 43
1.0
 76
     1
 77
     6
 78
     2
 67
     7
 79
     3
170
     0
171
     0
290
     0
174
     0
 93
        1
 44
0.0
173
     0
291
     0
 45
0.0
1001
ACAD
1000
AcDbSavedByObjectVersion
1070
     0
  0
VISUALSTYLE
  5
2904
102
{ACAD_XDICTIONARY
360
2A0B
102
}
102
{ACAD_REACTORS
330
28FD
102
}
330
28FD
100
AcDbVisualStyle
  2
3dWireframe
 70
     5
 71
     0
 72
     2
 73
     0
 90
        0
 40
-0.6
 41
-30.0
 62
     5
 63
     7
 74
     1
 91
        4
 64
     7
 65
   257
 75
     1
175
     1
 42
1.0
 92
        0
 66
   257
 43
1.0
 76
     1
 77
     6
 78
     2
 67
     7
 79
     5
170
     0
171
     0
290
     0
174
     0
 93
        1
 44
0.0
173
     0
291
     0
 45
0.0
1001
ACAD
1000
AcDbSavedByObjectVersion
1070
     0
  0
VISUALSTYLE
  5
2902
102
{ACAD_XDICTIONARY
360
2A07
102
}
102
{ACAD_REACTORS
330
28FD
102
}
330
28FD
100
AcDbVisualStyle
  2
Basic
 70
     7
 71
     1
 72
     0
 73
     1
 90
        0
 40
-0.6
 41
-30.0
 62
     5
 63
     7
 74
     0
 91
        4
 64
     7
 65
   257
 75
     1
175
     1
 42
1.0
 92
        8
 66
     7
 43
1.0
 76
     1
 77
     6
 78
     2
 67
     7
 79
     5
170
     0
171
     0
290
     0
174
     0
 93
        1
 44
0.0
173
     0
291
     1
 45
0.0
1001
ACAD
1000
AcDbSavedByObjectVersion
1070
     0
  0
VISUALSTYLE
  5
2909
102
{ACAD_XDICTIONARY
360
2A15
102
}
102
{ACAD_REACTORS
330
28FD
102
}
330
28FD
100
AcDbVisualStyle
  2
Brighten
 70
    12
 71
     2
 72
     2
 73
     0
 90
        0
 40
-0.6
 41
-30.0
 62
     5
 63
     7
 74
     1
 91
        4
 64
     7
 65
   257
 75
     1
175
     1
 42
1.0
 92
        8
 66
     7
 43
1.0
 76
     1
 77
     6
 78
     2
 67
     7
 79
     5
170
     0
171
     0
290
     0
174
     0
 93
        1
 44
50.0
173
     0
291
     1
 45
0.0
1001
ACAD
1000
AcDbSavedByObjectVersion
1070
     0
  0
VISUALSTYLE
  5
290D
102
{ACAD_XDICTIONARY
360
2A1D
102
}
102
{ACAD_REACTORS
330
28FD
102
}
330
28FD
100
AcDbVisualStyle
  2
ColorChange
 70
    16
 71
     2
 72
     2
 73
     3
 90
        0
 40
-0.6
 41
-30.0
 62
     5
 63
     8
 74
     1
 91
        4
 64
     7
 65
   257
 75
     1
175
     1
 42
1.0
 92
        8
 66
     8
 43
1.0
 76
     1
 77
     6
 78
     2
 67
     7
 79
     5
170
     0
171
     0
290
     0
174
     0
 93
        1
 44
0.0
173
     0
291
     1
 45
0.0
1001
ACAD
1000
AcDbSavedByObjectVersion
1070
     0
  0
VISUALSTYLE
  5
2906
102
{ACAD_XDICTIONARY
360
2A0F
102
}
102
{ACAD_REACTORS
330
28FD
102
}
330
28FD
100
AcDbVisualStyle
  2
Conceptual
 70
     9
 71
     3
 72
     2
 73
     0
 90
        0
 40
-0.6
 41
-30.0
 62
     5
 63
     7
 74
     2
 91
        2
 64
     7
 65
   257
 75
     1
175
     1
 42
179.0
 92
        8
 66
     7
 43
1.0
 76
     1
 77
     6
 78
     2
 67
     7
 79
     3
170
     0
171
     0
290
     0
174
     0
 93
        1
 44
0.0
173
     0
291
     0
 45
0.0
1001
ACAD
1000
AcDbSavedByObjectVersion
1070
     0
  0
VISUALSTYLE
  5
2908
102
{ACAD_XDICTIONARY
360
2A13
102
}
102
{ACAD_REACTORS
330
28FD
102
}
330
28FD
100
AcDbVisualStyle
  2
Dim
 70
    11
 71
     2
 72
     2
 73
     0
 90
        0
 40
-0.6
 41
-30.0
 62
     5
 63
     7
 74
     1
 91
        4
 64
     7
 65
   257
 75
     1
175
     1
 42
1.0
 92
        8
 66
     7
 43
1.0
 76
     1
 77
     6
 78
     2
 67
     7
 79
     5
170
     0
171
     0
290
     0
174
     0
 93
        1
 44
-50.0
173
     0
291
     1
 45
0.0
1001
ACAD
1000
AcDbSavedByObjectVersion
1070
     0
  0
VISUALSTYLE
  5
2910
102
{ACAD_XDICTIONARY
360
2A23
102
}
102
{ACAD_REACTORS
330
28FD
102
}
330
28FD
100
AcDbVisualStyle
  2
EdgeColorOff
 70
    22
 71
     2
 72
     2
 73
     0
 90
        0
 40
-0.6
 41
-30.0
 62
     5
 63
     7
 74
     1
 91
        4
 64
     7
 65
   257
 75
     1
175
     1
 42
1.0
 92
        8
 66
     7
 43
1.0
 76
     1
 77
     6
 78
     2
 67
     7
 79
     5
170
     0
171
     0
290
     0
174
     0
 93
        1
 44
0.0
173
     0
291
     1
 45
0.0
1001
ACAD
1000
AcDbSavedByObjectVersion
1070
     0
  0
VISUALSTYLE
  5
290C
102
{ACAD_XDICTIONARY
360
2A1B
102
}
102
{ACAD_REACTORS
330
28FD
102
}
330
28FD
100
AcDbVisualStyle
  2
Facepattern
 70
    15
 71
     2
 72
     2
 73
     0
 90
        0
 40
-0.6
 41
-30.0
 62
     5
 63
     7
 74
     1
 91
        4
 64
     7
 65
   257
 75
     1
175
     1
 42
1.0
 92
        8
 66
     7
 43
1.0
 76
     1
 77
     6
 78
     2
 67
     7
 79
     5
170
     0
171
     0
290
     0
174
     0
 93
        1
 44
0.0
173
     0
291
     1
 45
0.0
1001
ACAD
1000
AcDbSavedByObjectVersion
1070
     0
  0
VISUALSTYLE
  5
28FE
102
{ACAD_XDICTIONARY
360
29FF
102
}
102
{ACAD_REACTORS
330
28FD
102
}
330
28FD
100
AcDbVisualStyle
  2
Flat
 70
     0
 71
     2
 72
     1
 73
     1
 90
        2
 40
-0.6
 41
30.0
 62
     5
 63
     7
 74
     0
 91
        4
 64
     7
 65
   257
 75
     1
175
     1
 42
1.0
 92
        8
 66
     7
 43
1.0
 76
     1
 77
     6
 78
     2
 67
     7
 79
     5
170
     0
171
     0
290
     0
174
     0
 93
       13
 44
0.0
173
     0
291
     1
 45
0.0
1001
ACAD
1000
AcDbSavedByObjectVersion
1070
     0
  0
VISUALSTYLE
  5
28FF
102
{ACAD_XDICTIONARY
360
2A01
102
}
102
{ACAD_REACTORS
330
28FD
102
}
330
28FD
100
AcDbVisualStyle
  2
FlatWithEdges
 70
     1
 71
     2
 72
     1
 73
     1
 90
        2
 40
-0.6
 41
30.0
 62
     5
 63
     7
 74
     1
 91
        4
 64
     7
 65
   257
 75
     1
175
     1
 42
1.0
 92
        0
 66
   257
 43
1.0
 76
     1
 77
     6
 78
     2
 67
     7
 79
     5
170
     0
171
     0
290
     0
174
     0
 93
       13
 44
0.0
173
     0
291
     1
 45
0.0
1001
ACAD
1000
AcDbSavedByObjectVersion
1070
     0
  0
VISUALSTYLE
  5
2900
102
{ACAD_XDICTIONARY
360
2A03
102
}
102
{ACAD_REACTORS
330
28FD
102
}
330
28FD
100
AcDbVisualStyle
  2
Gouraud
 70
     2
 71
     2
 72
     2
 73
     1
 90
        2
 40
-0.6
 41
30.0
 62
     5
 63
     7
 74
     0
 91
        4
 64
     7
 65
   257
 75
     1
175
     1
 42
1.0
 92
        0
 66
     7
 43
1.0
 76
     1
 77
     6
 78
     2
 67
     7
 79
     5
170
     0
171
     0
290
     0
174
     0
 93
       13
 44
0.0
173
     0
291
     1
 45
0.0
1001
ACAD
1000
AcDbSavedByObjectVersion
1070
     0
  0
VISUALSTYLE
  5
2901
102
{ACAD_XDICTIONARY
360
2A05
102
}
102
{ACAD_REACTORS
330
28FD
102
}
330
28FD
100
AcDbVisualStyle
  2
GouraudWithEdges
 70
     3
 71
     2
 72
     2
 73
     1
 90
        2
 40
-0.6
 41
30.0
 62
     5
 63
     7
 74
     1
 91
        4
 64
     7
 65
   257
 75
     1
175
     1
 42
1.0
 92
        0
 66
   257
 43
1.0
 76
     1
 77
     6
 78
     2
 67
     7
 79
     5
170
     0
171
     0
290
     0
174
     0
 93
       13
 44
0.0
173
     0
291
     1
 45
0.0
1001
ACAD
1000
AcDbSavedByObjectVersion
1070
     0
  0
VISUALSTYLE
  5
290E
102
{ACAD_XDICTIONARY
360
2A1F
102
}
102
{ACAD_REACTORS
330
28FD
102
}
330
28FD
100
AcDbVisualStyle
  2
JitterOff
 70
    20
 71
     2
 72
     2
 73
     0
 90
        0
 40
-0.6
 41
-30.0
 62
     5
 63
     7
 74
     1
 91
        4
 64
     7
 65
   257
 75
     1
175
     1
 42
1.0
 92
       10
 66
     7
 43
1.0
 76
     1
 77
     6
 78
     2
 67
     7
 79
     5
170
     0
171
     0
290
     0
174
     0
 93
        1
 44
0.0
173
     0
291
     1
 45
0.0
1001
ACAD
1000
AcDbSavedByObjectVersion
1070
     0
  0
VISUALSTYLE
  5
290B
102
{ACAD_XDICTIONARY
360
2A19
102
}
102
{ACAD_REACTORS
330
28FD
102
}
330
28FD
100
AcDbVisualStyle
  2
Linepattern
 70
    14
 71
     2
 72
     2
 73
     0
 90
        0
 40
-0.6
 41
-30.0
 62
     5
 63
     7
 74
     1
 91
        4
 64
     7
 65
   257
 75
     7
175
     7
 42
1.0
 92
        8
 66
     7
 43
1.0
 76
     1
 77
     6
 78
     2
 67
     7
 79
     5
170
     0
171
     0
290
     0
174
     0
 93
        1
 44
0.0
173
     0
291
     1
 45
0.0
1001
ACAD
1000
AcDbSavedByObjectVersion
1070
     0
  0
VISUALSTYLE
  5
290F
102
{ACAD_XDICTIONARY
360
2A21
102
}
102
{ACAD_REACTORS
330
28FD
102
}
330
28FD
100
AcDbVisualStyle
  2
OverhangOff
 70
    21
 71
     2
 72
     2
 73
     0
 90
        0
 40
-0.6
 41
-30.0
 62
     5
 63
     7
 74
     1
 91
        4
 64
     7
 65
   257
 75
     1
175
     1
 42
1.0
 92
        9
 66
     7
 43
1.0
 76
     1
 77
     6
 78
     2
 67
     7
 79
     5
170
     0
171
     0
290
     0
174
     0
 93
        1
 44
0.0
173
     0
291
     1
 45
0.0
1001
ACAD
1000
AcDbSavedByObjectVersion
1070
     0
  0
VISUALSTYLE
  5
2907
102
{ACAD_XDICTIONARY
360
2A11
102
}
102
{ACAD_REACTORS
330
28FD
102
}
330
28FD
100
AcDbVisualStyle
  2
Realistic
 70
     8
 71
     2
 72
     2
 73
     0
 90
        0
 40
-0.6
 41
-30.0
 62
     5
 63
     7
 74
     1
 91
        0
 64
     7
 65
   257
 75
     1
175
     1
 42
1.0
 92
        8
 66
     8
 43
1.0
 76
     1
 77
     6
 78
     2
 67
     7
 79
     5
170
     0
171
     0
290
     0
174
     0
 93
       13
 44
0.0
173
     0
291
     0
 45
0.0
1001
ACAD
1000
AcDbSavedByObjectVersion
1070
     0
  0
VISUALSTYLE
  5
290A
102
{ACAD_XDICTIONARY
360
2A17
102
}
102
{ACAD_REACTORS
330
28FD
102
}
330
28FD
100
AcDbVisualStyle
  2
Thicken
 70
    13
 71
     2
 72
     2
 73
     0
 90
        0
 40
-0.6
 41
-30.0
 62
     5
 63
     7
 74
     1
 91
        4
 64
     7
 65
   257
 75
     1
175
     1
 42
1.0
 92
       12
 66
     7
 43
1.0
 76
     1
 77
     6
 78
     2
 67
     7
 79
     5
170
     0
171
     0
290
     0
174
     0
 93
        1
 44
0.0
173
     0
291
     1
 45
0.0
1001
ACAD
1000
AcDbSavedByObjectVersion
1070
     0
  0
DICTIONARYVAR
  5
29AE
102
{ACAD_REACTORS
330
3D
102
}
330
3D
100
DictionaryVariables
280
     0
  1
1:1
  0
DICTIONARYVAR
  5
29AD
102
{ACAD_REACTORS
330
3D
102
}
330
3D
100
DictionaryVariables
280
     0
  1
STANDARD
  0
DICTIONARYVAR
  5
29AC
102
{ACAD_REACTORS
330
3D
102
}
330
3D
100
DictionaryVariables
280
     0
  1
STANDARD
  0
DICTIONARYVAR
  5
3F
102
{ACAD_REACTORS
330
3D
102
}
330
3D
100
DictionaryVariables
280
     0
  1
2
  0
DICTIONARYVAR
  5
3E
102
{ACAD_REACTORS
330
3D
102
}
330
3D
100
DictionaryVariables
280
     0
  1
1
  0
DICTIONARYVAR
  5
29B0
102
{ACAD_REACTORS
330
3D
102
}
330
3D
100
DictionaryVariables
280
     0
  1
0
  0
DICTIONARYVAR
  5
29AF
102
{ACAD_REACTORS
330
3D
102
}
330
3D
100
DictionaryVariables
280
     0
  1
127
  0
DICTIONARYVAR
  5
29F0
102
{ACAD_REACTORS
330
3D
102
}
330
3D
100
DictionaryVariables
280
     0
  1
2
  0
XRECORD
  5
28E1
102
{ACAD_REACTORS
330
28E0
102
}
330
28E0
100
AcDbXrecord
280
     1
330
0
330
1257
  0
DICTIONARY
  5
29F4
330
1E
100
AcDbDictionary
280
     1
281
     1
  3
ACAD_XREC_ROUNDTRIP
360
29F5
  0
DICTIONARY
  5
29F8
330
26
100
AcDbDictionary
280
     1
281
     1
  3
ACAD_XREC_ROUNDTRIP
360
29F9
  0
DICTIONARY
  5
29F6
330
22
100
AcDbDictionary
280
     1
281
     1
  3
ACAD_XREC_ROUNDTRIP
360
29F7
  0
DICTIONARY
  5
28EE
330
28ED
100
AcDbDictionary
280
     1
281
     1
  3
ACAD_XREC_ROUNDTRIP
360
29FD
  3
BUMPTILE
360
28F0
  3
DIFFUSETILE
360
28EF
  3
OPACITYTILE
360
28F3
  3
REFLECTIONTILE
360
28F2
  3
REFRACTIONTILE
360
28F4
  3
SPECULARTILE
360
28F1
  0
DICTIONARY
  5
28E6
330
28E5
100
AcDbDictionary
280
     1
281
     1
  3
ACAD_XREC_ROUNDTRIP
360
29FC
  3
BUMPTILE
360
28E8
  3
DIFFUSETILE
360
28E7
  3
OPACITYTILE
360
28EB
  3
REFLECTIONTILE
360
28EA
  3
REFRACTIONTILE
360
28EC
  3
SPECULARTILE
360
28E9
  0
DICTIONARY
  5
28F6
330
28F5
100
AcDbDictionary
280
     1
281
     1
  3
ACAD_XREC_ROUNDTRIP
360
29FE
  3
BUMPTILE
360
28F8
  3
DIFFUSETILE
360
28F7
  3
OPACITYTILE
360
28FB
  3
REFLECTIONTILE
360
28FA
  3
REFRACTIONTILE
360
28FC
  3
SPECULARTILE
360
28F9
  0
DICTIONARY
  5
296F
330
2913
100
AcDbDictionary
280
     1
281
     1
  3
ACAD_ROUNDTRIP_2008_TABLESTYLE_CELLSTYLEMAP
360
29F1
  3
ACAD_XREC_ROUNDTRIP
360
2A25
  0
DICTIONARY
  5
2A09
330
2903
100
AcDbDictionary
280
     1
281
     1
  3
ACAD_XREC_ROUNDTRIP
360
2A0A
  0
DICTIONARY
  5
2A0D
330
2905
100
AcDbDictionary
280
     1
281
     1
  3
ACAD_XREC_ROUNDTRIP
360
2A0E
  0
DICTIONARY
  5
2A0B
330
2904
100
AcDbDictionary
280
     1
281
     1
  3
ACAD_XREC_ROUNDTRIP
360
2A0C
  0
DICTIONARY
  5
2A07
330
2902
100
AcDbDictionary
280
     1
281
     1
  3
ACAD_XREC_ROUNDTRIP
360
2A08
  0
DICTIONARY
  5
2A15
330
2909
100
AcDbDictionary
280
     1
281
     1
  3
ACAD_XREC_ROUNDTRIP
360
2A16
  0
DICTIONARY
  5
2A1D
330
290D
100
AcDbDictionary
280
     1
281
     1
  3
ACAD_XREC_ROUNDTRIP
360
2A1E
  0
DICTIONARY
  5
2A0F
330
2906
100
AcDbDictionary
280
     1
281
     1
  3
ACAD_XREC_ROUNDTRIP
360
2A10
  0
DICTIONARY
  5
2A13
330
2908
100
AcDbDictionary
280
     1
281
     1
  3
ACAD_XREC_ROUNDTRIP
360
2A14
  0
DICTIONARY
  5
2A23
330
2910
100
AcDbDictionary
280
     1
281
     1
  3
ACAD_XREC_ROUNDTRIP
360
2A24
  0
DICTIONARY
  5
2A1B
330
290C
100
AcDbDictionary
280
     1
281
     1
  3
ACAD_XREC_ROUNDTRIP
360
2A1C
  0
DICTIONARY
  5
29FF
330
28FE
100
AcDbDictionary
280
     1
281
     1
  3
ACAD_XREC_ROUNDTRIP
360
2A00
  0
DICTIONARY
  5
2A01
330
28FF
100
AcDbDictionary
280
     1
281
     1
  3
ACAD_XREC_ROUNDTRIP
360
2A02
  0
DICTIONARY
  5
2A03
330
2900
100
AcDbDictionary
280
     1
281
     1
  3
ACAD_XREC_ROUNDTRIP
360
2A04
  0
DICTIONARY
  5
2A05
330
2901
100
AcDbDictionary
280
     1
281
     1
  3
ACAD_XREC_ROUNDTRIP
360
2A06
  0
DICTIONARY
  5
2A1F
330
290E
100
AcDbDictionary
280
     1
281
     1
  3
ACAD_XREC_ROUNDTRIP
360
2A20
  0
DICTIONARY
  5
2A19
330
290B
100
AcDbDictionary
280
     1
281
     1
  3
ACAD_XREC_ROUNDTRIP
360
2A1A
  0
DICTIONARY
  5
2A21
330
290F
100
AcDbDictionary
280
     1
281
     1
  3
ACAD_XREC_ROUNDTRIP
360
2A22
  0
DICTIONARY
  5
2A11
330
2907
100
AcDbDictionary
280
     1
281
     1
  3
ACAD_XREC_ROUNDTRIP
360
2A12
  0
DICTIONARY
  5
2A17
330
290A
100
AcDbDictionary
280
     1
281
     1
  3
ACAD_XREC_ROUNDTRIP
360
2A18
  0
XRECORD
  5
29F5
102
{ACAD_REACTORS
330
29F4
102
}
330
29F4
100
AcDbXrecord
280
     1
102
SHADEPLOT
 70
     0
102
SHADEPLOTRESLEVEL
 70
     2
102
SHADEPLOTCUSTOMDPI
 70
   300
  0
XRECORD
  5
29F9
102
{ACAD_REACTORS
330
29F8
102
}
330
29F8
100
AcDbXrecord
280
     1
102
SHADEPLOT
 70
     0
102
SHADEPLOTRESLEVEL
 70
     2
102
SHADEPLOTCUSTOMDPI
 70
   300
  0
XRECORD
  5
29F7
102
{ACAD_REACTORS
330
29F6
102
}
330
29F6
100
AcDbXrecord
280
     1
102
SHADEPLOT
 70
     0
102
SHADEPLOTRESLEVEL
 70
     2
102
SHADEPLOTCUSTOMDPI
 70
   300
  0
XRECORD
  5
29FD
102
{ACAD_REACTORS
330
28EE
102
}
330
28EE
100
AcDbXrecord
280
     1
102
MATERIAL
148
0.0
149
0.0
149
0.0
 93
        0
 94
      127
282
     0
 72
     0
 77
     0
171
     0
175
     0
179
     0
273
     0
  0
XRECORD
  5
28F0
102
{ACAD_REACTORS
330
28EE
102
}
330
28EE
100
AcDbXrecord
280
     1
270
     1
271
     1
  0
XRECORD
  5
28EF
102
{ACAD_REACTORS
330
28EE
102
}
330
28EE
100
AcDbXrecord
280
     1
270
     1
271
     1
  0
XRECORD
  5
28F3
102
{ACAD_REACTORS
330
28EE
102
}
330
28EE
100
AcDbXrecord
280
     1
270
     1
271
     1
  0
XRECORD
  5
28F2
102
{ACAD_REACTORS
330
28EE
102
}
330
28EE
100
AcDbXrecord
280
     1
270
     1
271
     1
  0
XRECORD
  5
28F4
102
{ACAD_REACTORS
330
28EE
102
}
330
28EE
100
AcDbXrecord
280
     1
270
     1
271
     1
  0
XRECORD
  5
28F1
102
{ACAD_REACTORS
330
28EE
102
}
330
28EE
100
AcDbXrecord
280
     1
270
     1
271
     1
  0
XRECORD
  5
29FC
102
{ACAD_REACTORS
330
28E6
102
}
330
28E6
100
AcDbXrecord
280
     1
102
MATERIAL
148
0.0
149
0.0
149
0.0
 93
        0
 94
      127
282
     0
 72
     0
 77
     0
171
     0
175
     0
179
     0
273
     0
  0
XRECORD
  5
28E8
102
{ACAD_REACTORS
330
28E6
102
}
330
28E6
100
AcDbXrecord
280
     1
270
     1
271
     1
  0
XRECORD
  5
28E7
102
{ACAD_REACTORS
330
28E6
102
}
330
28E6
100
AcDbXrecord
280
     1
270
     1
271
     1
  0
XRECORD
  5
28EB
102
{ACAD_REACTORS
330
28E6
102
}
330
28E6
100
AcDbXrecord
280
     1
270
     1
271
     1
  0
XRECORD
  5
28EA
102
{ACAD_REACTORS
330
28E6
102
}
330
28E6
100
AcDbXrecord
280
     1
270
     1
271
     1
  0
XRECORD
  5
28EC
102
{ACAD_REACTORS
330
28E6
102
}
330
28E6
100
AcDbXrecord
280
     1
270
     1
271
     1
  0
XRECORD
  5
28E9
102
{ACAD_REACTORS
330
28E6
102
}
330
28E6
100
AcDbXrecord
280
     1
270
     1
271
     1
  0
XRECORD
  5
29FE
102
{ACAD_REACTORS
330
28F6
102
}
330
28F6
100
AcDbXrecord
280
     1
102
MATERIAL
148
0.0
149
0.0
149
0.0
 93
        0
 94
      127
282
     0
 72
     0
 77
     0
171
     0
175
     0
179
     0
273
     0
  0
XRECORD
  5
28F8
102
{ACAD_REACTORS
330
28F6
102
}
330
28F6
100
AcDbXrecord
280
     1
270
     1
271
     1
  0
XRECORD
  5
28F7
102
{ACAD_REACTORS
330
28F6
102
}
330
28F6
100
AcDbXrecord
280
     1
270
     1
271
     1
  0
XRECORD
  5
28FB
102
{ACAD_REACTORS
330
28F6
102
}
330
28F6
100
AcDbXrecord
280
     1
270
     1
271
     1
  0
XRECORD
  5
28FA
102
{ACAD_REACTORS
330
28F6
102
}
330
28F6
100
AcDbXrecord
280
     1
270
     1
271
     1
  0
XRECORD
  5
28FC
102
{ACAD_REACTORS
330
28F6
102
}
330
28F6
100
AcDbXrecord
280
     1
270
     1
271
     1
  0
XRECORD
  5
28F9
102
{ACAD_REACTORS
330
28F6
102
}
330
28F6
100
AcDbXrecord
280
     1
270
     1
271
     1
  0
CELLSTYLEMAP
  5
29F1
102
{ACAD_REACTORS
330
296F
102
}
330
296F
100
AcDbCellStyleMap
 90
        3
300
CELLSTYLE
  1
TABLEFORMAT_BEGIN
 90
        5
170
     1
 91
        0
 92
    32768
 62
   257
 93
        1
300
CONTENTFORMAT
  1
CONTENTFORMAT_BEGIN
 90
        0
 91
        0
 92
      512
 93
        0
300

 40
0.0
140
1.0
 94
        5
 62
     0
340
11
144
6.0
309
CONTENTFORMAT_END
171
     1
301
MARGIN
  1
CELLMARGIN_BEGIN
 40
1.5
 40
1.5
 40
1.5
 40
1.5
 40
4.5
 40
4.5
309
CELLMARGIN_END
 94
        6
 95
        1
302
GRIDFORMAT
  1
GRIDFORMAT_BEGIN
 90
        0
 91
        1
 62
     0
 92
       -2
340
0
 93
        0
 40
1.125
309
GRIDFORMAT_END
 95
        2
302
GRIDFORMAT
  1
GRIDFORMAT_BEGIN
 90
        0
 91
        1
 62
     0
 92
       -2
340
0
 93
        0
 40
1.125
309
GRIDFORMAT_END
 95
        4
302
GRIDFORMAT
  1
GRIDFORMAT_BEGIN
 90
        0
 91
        1
 62
     0
 92
       -2
340
0
 93
        0
 40
1.125
309
GRIDFORMAT_END
 95
        8
302
GRIDFORMAT
  1
GRIDFORMAT_BEGIN
 90
        0
 91
        1
 62
     0
 92
       -2
340
0
 93
        0
 40
1.125
309
GRIDFORMAT_END
 95
       16
302
GRIDFORMAT
  1
GRIDFORMAT_BEGIN
 90
        0
 91
        1
 62
     0
 92
       -2
340
0
 93
        0
 40
1.125
309
GRIDFORMAT_END
 95
       32
302
GRIDFORMAT
  1
GRIDFORMAT_BEGIN
 90
        0
 91
        1
 62
     0
 92
       -2
340
0
 93
        0
 40
1.125
309
GRIDFORMAT_END
309
TABLEFORMAT_END
  1
CELLSTYLE_BEGIN
 90
        1
 91
        1
300
_TITLE
309
CELLSTYLE_END
300
CELLSTYLE
  1
TABLEFORMAT_BEGIN
 90
        5
170
     1
 91
        0
 92
        0
 62
   257
 93
        1
300
CONTENTFORMAT
  1
CONTENTFORMAT_BEGIN
 90
        0
 91
        0
 92
      512
 93
        0
300

 40
0.0
140
1.0
 94
        5
 62
     0
340
11
144
4.5
309
CONTENTFORMAT_END
171
     1
301
MARGIN
  1
CELLMARGIN_BEGIN
 40
1.5
 40
1.5
 40
1.5
 40
1.5
 40
4.5
 40
4.5
309
CELLMARGIN_END
 94
        6
 95
        1
302
GRIDFORMAT
  1
GRIDFORMAT_BEGIN
 90
        0
 91
        1
 62
     0
 92
       -2
340
0
 93
        0
 40
1.125
309
GRIDFORMAT_END
 95
        2
302
GRIDFORMAT
  1
GRIDFORMAT_BEGIN
 90
        0
 91
        1
 62
     0
 92
       -2
340
0
 93
        0
 40
1.125
309
GRIDFORMAT_END
 95
        4
302
GRIDFORMAT
  1
GRIDFORMAT_BEGIN
 90
        0
 91
        1
 62
     0
 92
       -2
340
0
 93
        0
 40
1.125
309
GRIDFORMAT_END
 95
        8
302
GRIDFORMAT
  1
GRIDFORMAT_BEGIN
 90
        0
 91
        1
 62
     0
 92
       -2
340
0
 93
        0
 40
1.125
309
GRIDFORMAT_END
 95
       16
302
GRIDFORMAT
  1
GRIDFORMAT_BEGIN
 90
        0
 91
        1
 62
     0
 92
       -2
340
0
 93
        0
 40
1.125
309
GRIDFORMAT_END
 95
       32
302
GRIDFORMAT
  1
GRIDFORMAT_BEGIN
 90
        0
 91
        1
 62
     0
 92
       -2
340
0
 93
        0
 40
1.125
309
GRIDFORMAT_END
309
TABLEFORMAT_END
  1
CELLSTYLE_BEGIN
 90
        2
 91
        1
300
_HEADER
309
CELLSTYLE_END
300
CELLSTYLE
  1
TABLEFORMAT_BEGIN
 90
        5
170
     1
 91
        0
 92
        0
 62
   257
 93
        1
300
CONTENTFORMAT
  1
CONTENTFORMAT_BEGIN
 90
        0
 91
        0
 92
      512
 93
        0
300

 40
0.0
140
1.0
 94
        2
 62
     0
340
11
144
4.5
309
CONTENTFORMAT_END
171
     1
301
MARGIN
  1
CELLMARGIN_BEGIN
 40
1.5
 40
1.5
 40
1.5
 40
1.5
 40
4.5
 40
4.5
309
CELLMARGIN_END
 94
        6
 95
        1
302
GRIDFORMAT
  1
GRIDFORMAT_BEGIN
 90
        0
 91
        1
 62
     0
 92
       -2
340
0
 93
        0
 40
1.125
309
GRIDFORMAT_END
 95
        2
302
GRIDFORMAT
  1
GRIDFORMAT_BEGIN
 90
        0
 91
        1
 62
     0
 92
       -2
340
0
 93
        0
 40
1.125
309
GRIDFORMAT_END
 95
        4
302
GRIDFORMAT
  1
GRIDFORMAT_BEGIN
 90
        0
 91
        1
 62
     0
 92
       -2
340
0
 93
        0
 40
1.125
309
GRIDFORMAT_END
 95
        8
302
GRIDFORMAT
  1
GRIDFORMAT_BEGIN
 90
        0
 91
        1
 62
     0
 92
       -2
340
0
 93
        0
 40
1.125
309
GRIDFORMAT_END
 95
       16
302
GRIDFORMAT
  1
GRIDFORMAT_BEGIN
 90
        0
 91
        1
 62
     0
 92
       -2
340
0
 93
        0
 40
1.125
309
GRIDFORMAT_END
 95
       32
302
GRIDFORMAT
  1
GRIDFORMAT_BEGIN
 90
        0
 91
        1
 62
     0
 92
       -2
340
0
 93
        0
 40
1.125
309
GRIDFORMAT_END
309
TABLEFORMAT_END
  1
CELLSTYLE_BEGIN
 90
        3
 91
        2
300
_DATA
309
CELLSTYLE_END
  0
XRECORD
  5
2A25
102
{ACAD_REACTORS
330
296F
102
}
330
296F
100
AcDbXrecord
280
     1
102
ACAD_ROUNDTRIP_PRE2007_TABLESTYLE
 90
      512
 91
        0
  1

 92
      512
 93
        0
  2

 94
      512
 95
        0
  3

  0
XRECORD
  5
2A0A
102
{ACAD_REACTORS
330
2A09
102
}
330
2A09
100
AcDbXrecord
280
     1
102
RTVSPropertyOp0
 70
     1
102
RTVSPropertyOp1
 70
     1
102
RTVSPropertyOp2
 70
     1
102
RTVSPropertyOp3
 70
     1
102
RTVSPropertyOp4
 70
     1
102
RTVSPropertyOp5
 70
     1
102
RTVSPropertyOp6
 70
     1
102
RTVSPropertyOp7
 70
     1
102
RTVSPropertyOp8
 70
     1
102
RTVSPropertyOp9
 70
     1
102
RTVSPropertyOp10
 70
     1
102
RTVSPropertyOp11
 70
     1
102
RTVSPropertyOp12
 70
     1
102
RTVSPropertyOp13
 70
     1
102
RTVSPropertyOp14
 70
     1
102
RTVSPropertyOp15
 70
     1
102
RTVSPropertyOp16
 70
     1
102
RTVSPropertyOp17
 70
     1
102
RTVSPropertyOp18
 70
     1
102
RTVSPropertyOp19
 70
     1
102
RTVSPropertyOp20
 70
     1
102
RTVSPropertyOp21
 70
     1
102
RTVSPropertyOp22
 70
     1
102
RTVSPropertyOp23
 70
     1
102
RTVSPropertyOp24
 70
     1
102
RTVSPropertyOp25
 70
     1
102
RTVSPropertyOp26
 70
     1
102
RTVSPropertyOp27
 70
     1
  0
XRECORD
  5
2A0E
102
{ACAD_REACTORS
330
2A0D
102
}
330
2A0D
100
AcDbXrecord
280
     1
102
RTVSPropertyOp0
 70
     1
102
RTVSPropertyOp1
 70
     1
102
RTVSPropertyOp2
 70
     1
102
RTVSPropertyOp3
 70
     1
102
RTVSPropertyOp4
 70
     1
102
RTVSPropertyOp5
 70
     1
102
RTVSPropertyOp6
 70
     1
102
RTVSPropertyOp7
 70
     1
102
RTVSPropertyOp8
 70
     1
102
RTVSPropertyOp9
 70
     1
102
RTVSPropertyOp10
 70
     1
102
RTVSPropertyOp11
 70
     1
102
RTVSPropertyOp12
 70
     1
102
RTVSPropertyOp13
 70
     1
102
RTVSPropertyOp14
 70
     1
102
RTVSPropertyOp15
 70
     1
102
RTVSPropertyOp16
 70
     1
102
RTVSPropertyOp17
 70
     1
102
RTVSPropertyOp18
 70
     1
102
RTVSPropertyOp19
 70
     1
102
RTVSPropertyOp20
 70
     1
102
RTVSPropertyOp21
 70
     1
102
RTVSPropertyOp22
 70
     1
102
RTVSPropertyOp23
 70
     1
102
RTVSPropertyOp24
 70
     1
102
RTVSPropertyOp25
 70
     1
102
RTVSPropertyOp26
 70
     1
102
RTVSPropertyOp27
 70
     1
  0
XRECORD
  5
2A0C
102
{ACAD_REACTORS
330
2A0B
102
}
330
2A0B
100
AcDbXrecord
280
     1
102
RTVSPropertyOp0
 70
     1
102
RTVSPropertyOp1
 70
     1
102
RTVSPropertyOp2
 70
     1
102
RTVSPropertyOp3
 70
     1
102
RTVSPropertyOp4
 70
     1
102
RTVSPropertyOp5
 70
     1
102
RTVSPropertyOp6
 70
     1
102
RTVSPropertyOp7
 70
     1
102
RTVSPropertyOp8
 70
     1
102
RTVSPropertyOp9
 70
     1
102
RTVSPropertyOp10
 70
     1
102
RTVSPropertyOp11
 70
     1
102
RTVSPropertyOp12
 70
     1
102
RTVSPropertyOp13
 70
     1
102
RTVSPropertyOp14
 70
     1
102
RTVSPropertyOp15
 70
     1
102
RTVSPropertyOp16
 70
     1
102
RTVSPropertyOp17
 70
     1
102
RTVSPropertyOp18
 70
     1
102
RTVSPropertyOp19
 70
     1
102
RTVSPropertyOp20
 70
     1
102
RTVSPropertyOp21
 70
     1
102
RTVSPropertyOp22
 70
     1
102
RTVSPropertyOp23
 70
     1
102
RTVSPropertyOp24
 70
     1
102
RTVSPropertyOp25
 70
     1
102
RTVSPropertyOp26
 70
     1
102
RTVSPropertyOp27
 70
     1
  0
XRECORD
  5
2A08
102
{ACAD_REACTORS
330
2A07
102
}
330
2A07
100
AcDbXrecord
280
     1
102
RTVSPropertyOp0
 70
     1
102
RTVSPropertyOp1
 70
     1
102
RTVSPropertyOp2
 70
     1
102
RTVSPropertyOp3
 70
     1
102
RTVSPropertyOp4
 70
     1
102
RTVSPropertyOp5
 70
     1
102
RTVSPropertyOp6
 70
     1
102
RTVSPropertyOp7
 70
     1
102
RTVSPropertyOp8
 70
     1
102
RTVSPropertyOp9
 70
     1
102
RTVSPropertyOp10
 70
     1
102
RTVSPropertyOp11
 70
     1
102
RTVSPropertyOp12
 70
     1
102
RTVSPropertyOp13
 70
     1
102
RTVSPropertyOp14
 70
     1
102
RTVSPropertyOp15
 70
     1
102
RTVSPropertyOp16
 70
     1
102
RTVSPropertyOp17
 70
     1
102
RTVSPropertyOp18
 70
     1
102
RTVSPropertyOp19
 70
     1
102
RTVSPropertyOp20
 70
     1
102
RTVSPropertyOp21
 70
     1
102
RTVSPropertyOp22
 70
     1
102
RTVSPropertyOp23
 70
     1
102
RTVSPropertyOp24
 70
     1
102
RTVSPropertyOp25
 70
     1
102
RTVSPropertyOp26
 70
     1
102
RTVSPropertyOp27
 70
     1
  0
XRECORD
  5
2A16
102
{ACAD_REACTORS
330
2A15
102
}
330
2A15
100
AcDbXrecord
280
     1
102
RTVSPropertyOp0
 70
     1
102
RTVSPropertyOp1
 70
     1
102
RTVSPropertyOp2
 70
     1
102
RTVSPropertyOp3
 70
     1
102
RTVSPropertyOp4
 70
     1
102
RTVSPropertyOp5
 70
     1
102
RTVSPropertyOp6
 70
     1
102
RTVSPropertyOp7
 70
     1
102
RTVSPropertyOp8
 70
     1
102
RTVSPropertyOp9
 70
     1
102
RTVSPropertyOp10
 70
     1
102
RTVSPropertyOp11
 70
     1
102
RTVSPropertyOp12
 70
     1
102
RTVSPropertyOp13
 70
     1
102
RTVSPropertyOp14
 70
     1
102
RTVSPropertyOp15
 70
     1
102
RTVSPropertyOp16
 70
     1
102
RTVSPropertyOp17
 70
     1
102
RTVSPropertyOp18
 70
     1
102
RTVSPropertyOp19
 70
     1
102
RTVSPropertyOp20
 70
     1
102
RTVSPropertyOp21
 70
     1
102
RTVSPropertyOp22
 70
     1
102
RTVSPropertyOp23
 70
     1
102
RTVSPropertyOp24
 70
     1
102
RTVSPropertyOp25
 70
     1
102
RTVSPropertyOp26
 70
     1
102
RTVSPropertyOp27
 70
     1
  0
XRECORD
  5
2A1E
102
{ACAD_REACTORS
330
2A1D
102
}
330
2A1D
100
AcDbXrecord
280
     1
102
RTVSPropertyOp0
 70
     1
102
RTVSPropertyOp1
 70
     1
102
RTVSPropertyOp2
 70
     1
102
RTVSPropertyOp3
 70
     1
102
RTVSPropertyOp4
 70
     1
102
RTVSPropertyOp5
 70
     1
102
RTVSPropertyOp6
 70
     1
102
RTVSPropertyOp7
 70
     1
102
RTVSPropertyOp8
 70
     1
102
RTVSPropertyOp9
 70
     1
102
RTVSPropertyOp10
 70
     1
102
RTVSPropertyOp11
 70
     1
102
RTVSPropertyOp12
 70
     1
102
RTVSPropertyOp13
 70
     1
102
RTVSPropertyOp14
 70
     1
102
RTVSPropertyOp15
 70
     1
102
RTVSPropertyOp16
 70
     1
102
RTVSPropertyOp17
 70
     1
102
RTVSPropertyOp18
 70
     1
102
RTVSPropertyOp19
 70
     1
102
RTVSPropertyOp20
 70
     1
102
RTVSPropertyOp21
 70
     1
102
RTVSPropertyOp22
 70
     1
102
RTVSPropertyOp23
 70
     1
102
RTVSPropertyOp24
 70
     1
102
RTVSPropertyOp25
 70
     1
102
RTVSPropertyOp26
 70
     1
102
RTVSPropertyOp27
 70
     1
  0
XRECORD
  5
2A10
102
{ACAD_REACTORS
330
2A0F
102
}
330
2A0F
100
AcDbXrecord
280
     1
102
RTVSPropertyOp0
 70
     1
102
RTVSPropertyOp1
 70
     1
102
RTVSPropertyOp2
 70
     1
102
RTVSPropertyOp3
 70
     1
102
RTVSPropertyOp4
 70
     1
102
RTVSPropertyOp5
 70
     1
102
RTVSPropertyOp6
 70
     1
102
RTVSPropertyOp7
 70
     1
102
RTVSPropertyOp8
 70
     1
102
RTVSPropertyOp9
 70
     1
102
RTVSPropertyOp10
 70
     1
102
RTVSPropertyOp11
 70
     1
102
RTVSPropertyOp12
 70
     1
102
RTVSPropertyOp13
 70
     1
102
RTVSPropertyOp14
 70
     1
102
RTVSPropertyOp15
 70
     1
102
RTVSPropertyOp16
 70
     1
102
RTVSPropertyOp17
 70
     1
102
RTVSPropertyOp18
 70
     1
102
RTVSPropertyOp19
 70
     1
102
RTVSPropertyOp20
 70
     1
102
RTVSPropertyOp21
 70
     1
102
RTVSPropertyOp22
 70
     1
102
RTVSPropertyOp23
 70
     1
102
RTVSPropertyOp24
 70
     1
102
RTVSPropertyOp25
 70
     1
102
RTVSPropertyOp26
 70
     1
102
RTVSPropertyOp27
 70
     1
  0
XRECORD
  5
2A14
102
{ACAD_REACTORS
330
2A13
102
}
330
2A13
100
AcDbXrecord
280
     1
102
RTVSPropertyOp0
 70
     1
102
RTVSPropertyOp1
 70
     1
102
RTVSPropertyOp2
 70
     1
102
RTVSPropertyOp3
 70
     1
102
RTVSPropertyOp4
 70
     1
102
RTVSPropertyOp5
 70
     1
102
RTVSPropertyOp6
 70
     1
102
RTVSPropertyOp7
 70
     1
102
RTVSPropertyOp8
 70
     1
102
RTVSPropertyOp9
 70
     1
102
RTVSPropertyOp10
 70
     1
102
RTVSPropertyOp11
 70
     1
102
RTVSPropertyOp12
 70
     1
102
RTVSPropertyOp13
 70
     1
102
RTVSPropertyOp14
 70
     1
102
RTVSPropertyOp15
 70
     1
102
RTVSPropertyOp16
 70
     1
102
RTVSPropertyOp17
 70
     1
102
RTVSPropertyOp18
 70
     1
102
RTVSPropertyOp19
 70
     1
102
RTVSPropertyOp20
 70
     1
102
RTVSPropertyOp21
 70
     1
102
RTVSPropertyOp22
 70
     1
102
RTVSPropertyOp23
 70
     1
102
RTVSPropertyOp24
 70
     1
102
RTVSPropertyOp25
 70
     1
102
RTVSPropertyOp26
 70
     1
102
RTVSPropertyOp27
 70
     1
  0
XRECORD
  5
2A24
102
{ACAD_REACTORS
330
2A23
102
}
330
2A23
100
AcDbXrecord
280
     1
102
RTVSPropertyOp0
 70
     0
102
RTVSPropertyOp1
 70
     0
102
RTVSPropertyOp2
 70
     0
102
RTVSPropertyOp3
 70
     0
102
RTVSPropertyOp4
 70
     0
102
RTVSPropertyOp5
 70
     0
102
RTVSPropertyOp6
 70
     0
102
RTVSPropertyOp7
 70
     0
102
RTVSPropertyOp8
 70
     0
102
RTVSPropertyOp9
 70
     0
102
RTVSPropertyOp10
 70
     0
102
RTVSPropertyOp11
 70
     0
102
RTVSPropertyOp12
 70
     0
102
RTVSPropertyOp13
 70
     0
102
RTVSPropertyOp14
 70
     2
102
RTVSPropertyOp15
 70
     0
102
RTVSPropertyOp16
 70
     0
102
RTVSPropertyOp17
 70
     0
102
RTVSPropertyOp18
 70
     0
102
RTVSPropertyOp19
 70
     0
102
RTVSPropertyOp20
 70
     0
102
RTVSPropertyOp21
 70
     0
102
RTVSPropertyOp22
 70
     0
102
RTVSPropertyOp23
 70
     0
102
RTVSPropertyOp24
 70
     0
102
RTVSPropertyOp25
 70
     0
102
RTVSPropertyOp26
 70
     0
102
RTVSPropertyOp27
 70
     0
  0
XRECORD
  5
2A1C
102
{ACAD_REACTORS
330
2A1B
102
}
330
2A1B
100
AcDbXrecord
280
     1
102
RTVSPropertyOp0
 70
     1
102
RTVSPropertyOp1
 70
     1
102
RTVSPropertyOp2
 70
     1
102
RTVSPropertyOp3
 70
     1
102
RTVSPropertyOp4
 70
     1
102
RTVSPropertyOp5
 70
     1
102
RTVSPropertyOp6
 70
     1
102
RTVSPropertyOp7
 70
     1
102
RTVSPropertyOp8
 70
     1
102
RTVSPropertyOp9
 70
     1
102
RTVSPropertyOp10
 70
     1
102
RTVSPropertyOp11
 70
     1
102
RTVSPropertyOp12
 70
     1
102
RTVSPropertyOp13
 70
     1
102
RTVSPropertyOp14
 70
     1
102
RTVSPropertyOp15
 70
     1
102
RTVSPropertyOp16
 70
     1
102
RTVSPropertyOp17
 70
     1
102
RTVSPropertyOp18
 70
     1
102
RTVSPropertyOp19
 70
     1
102
RTVSPropertyOp20
 70
     1
102
RTVSPropertyOp21
 70
     1
102
RTVSPropertyOp22
 70
     1
102
RTVSPropertyOp23
 70
     1
102
RTVSPropertyOp24
 70
     1
102
RTVSPropertyOp25
 70
     1
102
RTVSPropertyOp26
 70
     1
102
RTVSPropertyOp27
 70
     1
  0
XRECORD
  5
2A00
102
{ACAD_REACTORS
330
29FF
102
}
330
29FF
100
AcDbXrecord
280
     1
102
RTVSPropertyOp0
 70
     1
102
RTVSPropertyOp1
 70
     1
102
RTVSPropertyOp2
 70
     1
102
RTVSPropertyOp3
 70
     1
102
RTVSPropertyOp4
 70
     1
102
RTVSPropertyOp5
 70
     1
102
RTVSPropertyOp6
 70
     1
102
RTVSPropertyOp7
 70
     1
102
RTVSPropertyOp8
 70
     1
102
RTVSPropertyOp9
 70
     1
102
RTVSPropertyOp10
 70
     1
102
RTVSPropertyOp11
 70
     1
102
RTVSPropertyOp12
 70
     1
102
RTVSPropertyOp13
 70
     1
102
RTVSPropertyOp14
 70
     1
102
RTVSPropertyOp15
 70
     1
102
RTVSPropertyOp16
 70
     1
102
RTVSPropertyOp17
 70
     1
102
RTVSPropertyOp18
 70
     1
102
RTVSPropertyOp19
 70
     1
102
RTVSPropertyOp20
 70
     1
102
RTVSPropertyOp21
 70
     1
102
RTVSPropertyOp22
 70
     1
102
RTVSPropertyOp23
 70
     1
102
RTVSPropertyOp24
 70
     1
102
RTVSPropertyOp25
 70
     1
102
RTVSPropertyOp26
 70
     1
102
RTVSPropertyOp27
 70
     1
  0
XRECORD
  5
2A02
102
{ACAD_REACTORS
330
2A01
102
}
330
2A01
100
AcDbXrecord
280
     1
102
RTVSPropertyOp0
 70
     1
102
RTVSPropertyOp1
 70
     1
102
RTVSPropertyOp2
 70
     1
102
RTVSPropertyOp3
 70
     1
102
RTVSPropertyOp4
 70
     1
102
RTVSPropertyOp5
 70
     1
102
RTVSPropertyOp6
 70
     1
102
RTVSPropertyOp7
 70
     1
102
RTVSPropertyOp8
 70
     1
102
RTVSPropertyOp9
 70
     1
102
RTVSPropertyOp10
 70
     1
102
RTVSPropertyOp11
 70
     1
102
RTVSPropertyOp12
 70
     1
102
RTVSPropertyOp13
 70
     1
102
RTVSPropertyOp14
 70
     1
102
RTVSPropertyOp15
 70
     1
102
RTVSPropertyOp16
 70
     1
102
RTVSPropertyOp17
 70
     1
102
RTVSPropertyOp18
 70
     1
102
RTVSPropertyOp19
 70
     1
102
RTVSPropertyOp20
 70
     1
102
RTVSPropertyOp21
 70
     1
102
RTVSPropertyOp22
 70
     1
102
RTVSPropertyOp23
 70
     1
102
RTVSPropertyOp24
 70
     1
102
RTVSPropertyOp25
 70
     1
102
RTVSPropertyOp26
 70
     1
102
RTVSPropertyOp27
 70
     1
  0
XRECORD
  5
2A04
102
{ACAD_REACTORS
330
2A03
102
}
330
2A03
100
AcDbXrecord
280
     1
102
RTVSPropertyOp0
 70
     1
102
RTVSPropertyOp1
 70
     1
102
RTVSPropertyOp2
 70
     1
102
RTVSPropertyOp3
 70
     1
102
RTVSPropertyOp4
 70
     1
102
RTVSPropertyOp5
 70
     1
102
RTVSPropertyOp6
 70
     1
102
RTVSPropertyOp7
 70
     1
102
RTVSPropertyOp8
 70
     1
102
RTVSPropertyOp9
 70
     1
102
RTVSPropertyOp10
 70
     1
102
RTVSPropertyOp11
 70
     1
102
RTVSPropertyOp12
 70
     1
102
RTVSPropertyOp13
 70
     1
102
RTVSPropertyOp14
 70
     1
102
RTVSPropertyOp15
 70
     1
102
RTVSPropertyOp16
 70
     1
102
RTVSPropertyOp17
 70
     1
102
RTVSPropertyOp18
 70
     1
102
RTVSPropertyOp19
 70
     1
102
RTVSPropertyOp20
 70
     1
102
RTVSPropertyOp21
 70
     1
102
RTVSPropertyOp22
 70
     1
102
RTVSPropertyOp23
 70
     1
102
RTVSPropertyOp24
 70
     1
102
RTVSPropertyOp25
 70
     1
102
RTVSPropertyOp26
 70
     1
102
RTVSPropertyOp27
 70
     1
  0
XRECORD
  5
2A06
102
{ACAD_REACTORS
330
2A05
102
}
330
2A05
100
AcDbXrecord
280
     1
102
RTVSPropertyOp0
 70
     1
102
RTVSPropertyOp1
 70
     1
102
RTVSPropertyOp2
 70
     1
102
RTVSPropertyOp3
 70
     1
102
RTVSPropertyOp4
 70
     1
102
RTVSPropertyOp5
 70
     1
102
RTVSPropertyOp6
 70
     1
102
RTVSPropertyOp7
 70
     1
102
RTVSPropertyOp8
 70
     1
102
RTVSPropertyOp9
 70
     1
102
RTVSPropertyOp10
 70
     1
102
RTVSPropertyOp11
 70
     1
102
RTVSPropertyOp12
 70
     1
102
RTVSPropertyOp13
 70
     1
102
RTVSPropertyOp14
 70
     1
102
RTVSPropertyOp15
 70
     1
102
RTVSPropertyOp16
 70
     1
102
RTVSPropertyOp17
 70
     1
102
RTVSPropertyOp18
 70
     1
102
RTVSPropertyOp19
 70
     1
102
RTVSPropertyOp20
 70
     1
102
RTVSPropertyOp21
 70
     1
102
RTVSPropertyOp22
 70
     1
102
RTVSPropertyOp23
 70
     1
102
RTVSPropertyOp24
 70
     1
102
RTVSPropertyOp25
 70
     1
102
RTVSPropertyOp26
 70
     1
102
RTVSPropertyOp27
 70
     1
  0
XRECORD
  5
2A20
102
{ACAD_REACTORS
330
2A1F
102
}
330
2A1F
100
AcDbXrecord
280
     1
102
RTVSPropertyOp0
 70
     0
102
RTVSPropertyOp1
 70
     0
102
RTVSPropertyOp2
 70
     0
102
RTVSPropertyOp3
 70
     0
102
RTVSPropertyOp4
 70
     0
102
RTVSPropertyOp5
 70
     0
102
RTVSPropertyOp6
 70
     0
102
RTVSPropertyOp7
 70
     0
102
RTVSPropertyOp8
 70
     0
102
RTVSPropertyOp9
 70
     0
102
RTVSPropertyOp10
 70
     0
102
RTVSPropertyOp11
 70
     0
102
RTVSPropertyOp12
 70
     0
102
RTVSPropertyOp13
 70
     0
102
RTVSPropertyOp14
 70
     2
102
RTVSPropertyOp15
 70
     0
102
RTVSPropertyOp16
 70
     0
102
RTVSPropertyOp17
 70
     0
102
RTVSPropertyOp18
 70
     0
102
RTVSPropertyOp19
 70
     0
102
RTVSPropertyOp20
 70
     0
102
RTVSPropertyOp21
 70
     0
102
RTVSPropertyOp22
 70
     0
102
RTVSPropertyOp23
 70
     0
102
RTVSPropertyOp24
 70
     0
102
RTVSPropertyOp25
 70
     0
102
RTVSPropertyOp26
 70
     0
102
RTVSPropertyOp27
 70
     0
  0
XRECORD
  5
2A1A
102
{ACAD_REACTORS
330
2A19
102
}
330
2A19
100
AcDbXrecord
280
     1
102
RTVSPropertyOp0
 70
     1
102
RTVSPropertyOp1
 70
     1
102
RTVSPropertyOp2
 70
     1
102
RTVSPropertyOp3
 70
     1
102
RTVSPropertyOp4
 70
     1
102
RTVSPropertyOp5
 70
     1
102
RTVSPropertyOp6
 70
     1
102
RTVSPropertyOp7
 70
     1
102
RTVSPropertyOp8
 70
     1
102
RTVSPropertyOp9
 70
     1
102
RTVSPropertyOp10
 70
     1
102
RTVSPropertyOp11
 70
     1
102
RTVSPropertyOp12
 70
     1
102
RTVSPropertyOp13
 70
     1
102
RTVSPropertyOp14
 70
     1
102
RTVSPropertyOp15
 70
     1
102
RTVSPropertyOp16
 70
     1
102
RTVSPropertyOp17
 70
     1
102
RTVSPropertyOp18
 70
     1
102
RTVSPropertyOp19
 70
     1
102
RTVSPropertyOp20
 70
     1
102
RTVSPropertyOp21
 70
     1
102
RTVSPropertyOp22
 70
     1
102
RTVSPropertyOp23
 70
     1
102
RTVSPropertyOp24
 70
     1
102
RTVSPropertyOp25
 70
     1
102
RTVSPropertyOp26
 70
     1
102
RTVSPropertyOp27
 70
     1
  0
XRECORD
  5
2A22
102
{ACAD_REACTORS
330
2A21
102
}
330
2A21
100
AcDbXrecord
280
     1
102
RTVSPropertyOp0
 70
     0
102
RTVSPropertyOp1
 70
     0
102
RTVSPropertyOp2
 70
     0
102
RTVSPropertyOp3
 70
     0
102
RTVSPropertyOp4
 70
     0
102
RTVSPropertyOp5
 70
     0
102
RTVSPropertyOp6
 70
     0
102
RTVSPropertyOp7
 70
     0
102
RTVSPropertyOp8
 70
     0
102
RTVSPropertyOp9
 70
     0
102
RTVSPropertyOp10
 70
     0
102
RTVSPropertyOp11
 70
     0
102
RTVSPropertyOp12
 70
     0
102
RTVSPropertyOp13
 70
     0
102
RTVSPropertyOp14
 70
     2
102
RTVSPropertyOp15
 70
     0
102
RTVSPropertyOp16
 70
     0
102
RTVSPropertyOp17
 70
     0
102
RTVSPropertyOp18
 70
     0
102
RTVSPropertyOp19
 70
     0
102
RTVSPropertyOp20
 70
     0
102
RTVSPropertyOp21
 70
     0
102
RTVSPropertyOp22
 70
     0
102
RTVSPropertyOp23
 70
     0
102
RTVSPropertyOp24
 70
     0
102
RTVSPropertyOp25
 70
     0
102
RTVSPropertyOp26
 70
     0
102
RTVSPropertyOp27
 70
     0
  0
XRECORD
  5
2A12
102
{ACAD_REACTORS
330
2A11
102
}
330
2A11
100
AcDbXrecord
280
     1
102
RTVSPropertyOp0
 70
     1
102
RTVSPropertyOp1
 70
     1
102
RTVSPropertyOp2
 70
     1
102
RTVSPropertyOp3
 70
     1
102
RTVSPropertyOp4
 70
     1
102
RTVSPropertyOp5
 70
     1
102
RTVSPropertyOp6
 70
     1
102
RTVSPropertyOp7
 70
     1
102
RTVSPropertyOp8
 70
     1
102
RTVSPropertyOp9
 70
     1
102
RTVSPropertyOp10
 70
     1
102
RTVSPropertyOp11
 70
     1
102
RTVSPropertyOp12
 70
     1
102
RTVSPropertyOp13
 70
     1
102
RTVSPropertyOp14
 70
     1
102
RTVSPropertyOp15
 70
     1
102
RTVSPropertyOp16
 70
     1
102
RTVSPropertyOp17
 70
     1
102
RTVSPropertyOp18
 70
     1
102
RTVSPropertyOp19
 70
     1
102
RTVSPropertyOp20
 70
     1
102
RTVSPropertyOp21
 70
     1
102
RTVSPropertyOp22
 70
     1
102
RTVSPropertyOp23
 70
     1
102
RTVSPropertyOp24
 70
     1
102
RTVSPropertyOp25
 70
     1
102
RTVSPropertyOp26
 70
     1
102
RTVSPropertyOp27
 70
     1
  0
XRECORD
  5
2A18
102
{ACAD_REACTORS
330
2A17
102
}
330
2A17
100
AcDbXrecord
280
     1
102
RTVSPropertyOp0
 70
     1
102
RTVSPropertyOp1
 70
     1
102
RTVSPropertyOp2
 70
     1
102
RTVSPropertyOp3
 70
     1
102
RTVSPropertyOp4
 70
     1
102
RTVSPropertyOp5
 70
     1
102
RTVSPropertyOp6
 70
     1
102
RTVSPropertyOp7
 70
     1
102
RTVSPropertyOp8
 70
     1
102
RTVSPropertyOp9
 70
     1
102
RTVSPropertyOp10
 70
     1
102
RTVSPropertyOp11
 70
     1
102
RTVSPropertyOp12
 70
     1
102
RTVSPropertyOp13
 70
     1
102
RTVSPropertyOp14
 70
     1
102
RTVSPropertyOp15
 70
     1
102
RTVSPropertyOp16
 70
     1
102
RTVSPropertyOp17
 70
     1
102
RTVSPropertyOp18
 70
     1
102
RTVSPropertyOp19
 70
     1
102
RTVSPropertyOp20
 70
     1
102
RTVSPropertyOp21
 70
     1
102
RTVSPropertyOp22
 70
     1
102
RTVSPropertyOp23
 70
     1
102
RTVSPropertyOp24
 70
     1
102
RTVSPropertyOp25
 70
     1
102
RTVSPropertyOp26
 70
     1
102
RTVSPropertyOp27
 70
     1
  0
ENDSEC
  0
EOF
