  0
SECTION
  2
HEADER
  9
$ACADVER
  1
AC1015
  9
$ACADMAINTVER
 70
    20
  9
$DWGCODEPAGE
  3
ANSI_1252
  9
$INSBASE
 10
0.0
 20
0.0
 30
0.0
  9
$EXTMIN
 10
2526.272904733233
 20
2995.788618514568
 30
-0.0000000017937957
  9
$EXTMAX
 10
2528.50606054248
 20
2997.638618514569
 30
0.000000000088514
  9
$LIMMIN
 10
0.0
 20
0.0
  9
$LIMMAX
 10
420.0
 20
297.0
  9
$ORTHOMODE
 70
     1
  9
$REGENMODE
 70
     1
  9
$FILLMODE
 70
     1
  9
$QTEXTMODE
 70
     0
  9
$MIRRTEXT
 70
     1
  9
$LTSCALE
 40
1.0
  9
$ATTMODE
 70
     1
  9
$TEXTSIZE
 40
2.5
  9
$TRACEWID
 40
1.0
  9
$TEXTSTYLE
  7
SANINDUSA
  9
$CLAYER
  8
cotas
  9
$CELTYPE
  6
ByLayer
  9
$CECOLOR
 62
   256
  9
$CELTSCALE
 40
1.0
  9
$DISPSILH
 70
     0
  9
$DIMSCALE
 40
1.0
  9
$DIMASZ
 40
3.0
  9
$DIMEXO
 40
1.0
  9
$DIMDLI
 40
1.0
  9
$DIMRND
 40
0.0
  9
$DIMDLE
 40
0.0
  9
$DIMEXE
 40
1.0
  9
$DIMTP
 40
0.0
  9
$DIMTM
 40
0.0
  9
$DIMTXT
 40
2.0
  9
$DIMCEN
 40
0.0
  9
$DIMTSZ
 40
0.0
  9
$DIMTOL
 70
     0
  9
$DIMLIM
 70
     0
  9
$DIMTIH
 70
     0
  9
$DIMTOH
 70
     0
  9
$DIMSE1
 70
     0
  9
$DIMSE2
 70
     0
  9
$DIMTAD
 70
     1
  9
$DIMZIN
 70
     8
  9
$DIMBLK
  1

  9
$DIMASO
 70
     1
  9
$DIMSHO
 70
     1
  9
$DIMPOST
  1

  9
$DIMAPOST
  1

  9
$DIMALT
 70
     0
  9
$DIMALTD
 70
     3
  9
$DIMALTF
 40
0.03937007874016
  9
$DIMLFAC
 40
1.0
  9
$DIMTOFL
 70
     1
  9
$DIMTVP
 40
0.0
  9
$DIMTIX
 70
     0
  9
$DIMSOXD
 70
     0
  9
$DIMSAH
 70
     0
  9
$DIMBLK1
  1

  9
$DIMBLK2
  1

  9
$DIMSTYLE
  2
SANINDUSA
  9
$DIMCLRD
 70
   256
  9
$DIMCLRE
 70
   256
  9
$DIMCLRT
 70
   256
  9
$DIMTFAC
 40
1.0
  9
$DIMGAP
 40
1.0
  9
$DIMJUST
 70
     0
  9
$DIMSD1
 70
     0
  9
$DIMSD2
 70
     0
  9
$DIMTOLJ
 70
     0
  9
$DIMTZIN
 70
     8
  9
$DIMALTZ
 70
     0
  9
$DIMALTTZ
 70
     0
  9
$DIMUPT
 70
     0
  9
$DIMDEC
 70
     1
  9
$DIMTDEC
 70
     1
  9
$DIMALTU
 70
     2
  9
$DIMALTTD
 70
     3
  9
$DIMTXSTY
  7
SANINDUSA
  9
$DIMAUNIT
 70
     0
  9
$DIMADEC
 70
     1
  9
$DIMALTRND
 40
0.0
  9
$DIMAZIN
 70
     0
  9
$DIMDSEP
 70
    44
  9
$DIMATFIT
 70
     3
  9
$DIMFRAC
 70
     0
  9
$DIMLDRBLK
  1

  9
$DIMLUNIT
 70
     2
  9
$DIMLWD
 70
    -1
  9
$DIMLWE
 70
    -1
  9
$DIMTMOVE
 70
     0
  9
$LUNITS
 70
     2
  9
$LUPREC
 70
     4
  9
$SKETCHINC
 40
1.0
  9
$FILLETRAD
 40
0.0
  9
$AUNITS
 70
     0
  9
$AUPREC
 70
     0
  9
$MENU
  1
.
  9
$ELEVATION
 40
0.0
  9
$PELEVATION
 40
0.0
  9
$THICKNESS
 40
0.0
  9
$LIMCHECK
 70
     0
  9
$CHAMFERA
 40
10.0
  9
$CHAMFERB
 40
10.0
  9
$CHAMFERC
 40
20.0
  9
$CHAMFERD
 40
0.0
  9
$SKPOLY
 70
     0
  9
$TDCREATE
 40
2453257.703894306
  9
$TDUCREATE
 40
2453257.662227639
  9
$TDUPDATE
 40
2455817.483593021
  9
$TDUUPDATE
 40
2455817.441926354
  9
$TDINDWG
 40
0.0146862269
  9
$TDUSRTIMER
 40
0.0146862269
  9
$USRTIMER
 70
     1
  9
$ANGBASE
 50
0.0
  9
$ANGDIR
 70
     0
  9
$PDMODE
 70
     0
  9
$PDSIZE
 40
0.0
  9
$PLINEWID
 40
0.0
  9
$SPLFRAME
 70
     0
  9
$SPLINETYPE
 70
     6
  9
$SPLINESEGS
 70
     8
  9
$HANDSEED
  5
2129
  9
$SURFTAB1
 70
     6
  9
$SURFTAB2
 70
     6
  9
$SURFTYPE
 70
     6
  9
$SURFU
 70
     6
  9
$SURFV
 70
     6
  9
$UCSBASE
  2

  9
$UCSNAME
  2

  9
$UCSORG
 10
0.0
 20
0.0
 30
0.0
  9
$UCSXDIR
 10
1.0
 20
0.0
 30
0.0
  9
$UCSYDIR
 10
0.0
 20
1.0
 30
0.0
  9
$UCSORTHOREF
  2

  9
$UCSORTHOVIEW
 70
     0
  9
$UCSORGTOP
 10
0.0
 20
0.0
 30
0.0
  9
$UCSORGBOTTOM
 10
0.0
 20
0.0
 30
0.0
  9
$UCSORGLEFT
 10
0.0
 20
0.0
 30
0.0
  9
$UCSORGRIGHT
 10
0.0
 20
0.0
 30
0.0
  9
$UCSORGFRONT
 10
0.0
 20
0.0
 30
0.0
  9
$UCSORGBACK
 10
0.0
 20
0.0
 30
0.0
  9
$PUCSBASE
  2

  9
$PUCSNAME
  2

  9
$PUCSORG
 10
0.0
 20
0.0
 30
0.0
  9
$PUCSXDIR
 10
1.0
 20
0.0
 30
0.0
  9
$PUCSYDIR
 10
0.0
 20
1.0
 30
0.0
  9
$PUCSORTHOREF
  2

  9
$PUCSORTHOVIEW
 70
     0
  9
$PUCSORGTOP
 10
0.0
 20
0.0
 30
0.0
  9
$PUCSORGBOTTOM
 10
0.0
 20
0.0
 30
0.0
  9
$PUCSORGLEFT
 10
0.0
 20
0.0
 30
0.0
  9
$PUCSORGRIGHT
 10
0.0
 20
0.0
 30
0.0
  9
$PUCSORGFRONT
 10
0.0
 20
0.0
 30
0.0
  9
$PUCSORGBACK
 10
0.0
 20
0.0
 30
0.0
  9
$USERI1
 70
     0
  9
$USERI2
 70
     0
  9
$USERI3
 70
     0
  9
$USERI4
 70
     0
  9
$USERI5
 70
     0
  9
$USERR1
 40
0.0
  9
$USERR2
 40
0.0
  9
$USERR3
 40
0.0
  9
$USERR4
 40
0.0
  9
$USERR5
 40
0.0
  9
$WORLDVIEW
 70
     1
  9
$SHADEDGE
 70
     3
  9
$SHADEDIF
 70
    70
  9
$TILEMODE
 70
     1
  9
$MAXACTVP
 70
    64
  9
$PINSBASE
 10
0.0
 20
0.0
 30
0.0
  9
$PLIMCHECK
 70
     0
  9
$PEXTMIN
 10
1.000000000000000E+20
 20
1.000000000000000E+20
 30
1.000000000000000E+20
  9
$PEXTMAX
 10
-1.000000000000000E+20
 20
-1.000000000000000E+20
 30
-1.000000000000000E+20
  9
$PLIMMIN
 10
0.0
 20
0.0
  9
$PLIMMAX
 10
420.0
 20
297.0
  9
$UNITMODE
 70
     0
  9
$VISRETAIN
 70
     1
  9
$PLINEGEN
 70
     0
  9
$PSLTSCALE
 70
     1
  9
$TREEDEPTH
 70
  3020
  9
$CMLSTYLE
  2
Standard
  9
$CMLJUST
 70
     0
  9
$CMLSCALE
 40
20.0
  9
$PROXYGRAPHICS
 70
     1
  9
$MEASUREMENT
 70
     1
  9
$CELWEIGHT
370
    -1
  9
$ENDCAPS
280
     0
  9
$JOINSTYLE
280
     0
  9
$LWDISPLAY
290
     0
  9
$INSUNITS
 70
     4
  9
$HYPERLINKBASE
  1

  9
$STYLESHEET
  1
monochrome.ctb
  9
$XEDIT
290
     1
  9
$CEPSNTYPE
380
     0
  9
$PSTYLEMODE
290
     1
  9
$FINGERPRINTGUID
  2
{B98A73AA-52AA-4C10-B469-C0E7150AC31F}
  9
$VERSIONGUID
  2
{D1FBE83C-42B0-41EB-A06B-2127FEF036E3}
  9
$EXTNAMES
290
     1
  9
$PSVPSCALE
 40
0.0
  9
$OLESTARTUP
290
     0
  0
ENDSEC
  0
SECTION
  2
CLASSES
  0
CLASS
  1
ACDBDICTIONARYWDFLT
  2
AcDbDictionaryWithDefault
  3
ObjectDBX Classes
 90
        0
280
     0
281
     0
  0
CLASS
  1
ACDBPLACEHOLDER
  2
AcDbPlaceHolder
  3
ObjectDBX Classes
 90
        0
280
     0
281
     0
  0
CLASS
  1
LAYOUT
  2
AcDbLayout
  3
ObjectDBX Classes
 90
        0
280
     0
281
     0
  0
CLASS
  1
DICTIONARYVAR
  2
AcDbDictionaryVar
  3
ObjectDBX Classes
 90
        0
280
     0
281
     0
  0
CLASS
  1
DIMASSOC
  2
AcDbDimAssoc
  3
"AcDbDimAssoc|Product Desc:     AcDim ARX App For Dimension|Company:          Autodesk, Inc.|WEB Address:      www.autodesk.com"
 90
    32768
280
     0
281
     0
  0
CLASS
  1
MATERIAL
  2
AcDbMaterial
  3
ObjectDBX Classes
 90
     1153
280
     0
281
     0
  0
CLASS
  1
VISUALSTYLE
  2
AcDbVisualStyle
  3
ObjectDBX Classes
 90
     4095
280
     0
281
     0
  0
CLASS
  1
TABLESTYLE
  2
AcDbTableStyle
  3
ObjectDBX Classes
 90
     4095
280
     0
281
     0
  0
CLASS
  1
SCALE
  2
AcDbScale
  3
ObjectDBX Classes
 90
     1153
280
     0
281
     0
  0
CLASS
  1
MLEADERSTYLE
  2
AcDbMLeaderStyle
  3
ACDB_MLEADERSTYLE_CLASS
 90
     4095
280
     0
281
     0
  0
CLASS
  1
CELLSTYLEMAP
  2
AcDbCellStyleMap
  3
ObjectDBX Classes
 90
     1152
280
     0
281
     0
  0
ENDSEC
  0
SECTION
  2
TABLES
  0
TABLE
  2
VPORT
  5
8
102
{ACAD_XDICTIONARY
360
20AA
102
}
330
0
100
AcDbSymbolTable
 70
     1
  0
VPORT
  5
2019
330
8
100
AcDbSymbolTableRecord
100
AcDbViewportTableRecord
  2
*Active
 70
     0
 10
0.0
 20
0.0
 11
1.0
 21
1.0
 12
2527.406952983737
 22
2996.700917395163
 13
0.0
 23
0.0
 14
10.0
 24
10.0
 15
10.0
 25
10.0
 16
0.0
 26
0.0
 36
1.0
 17
0.0
 27
0.0
 37
0.0
 40
2.977556244688102
 41
1.645464025026068
 42
50.0
 43
0.0
 44
0.0
 50
0.0
 51
0.0
 71
     0
 72
   100
 73
     1
 74
     2
 75
     0
 76
     0
 77
     0
 78
     0
281
     0
 65
     1
110
0.0
120
0.0
130
0.0
111
1.0
121
0.0
131
0.0
112
0.0
122
1.0
132
0.0
 79
     0
146
0.0
  0
ENDTAB
  0
TABLE
  2
LTYPE
  5
5
330
0
100
AcDbSymbolTable
 70
     4
  0
LTYPE
  5
14
330
5
100
AcDbSymbolTableRecord
100
AcDbLinetypeTableRecord
  2
ByBlock
 70
     0
  3

 72
    65
 73
     0
 40
0.0
  0
LTYPE
  5
15
330
5
100
AcDbSymbolTableRecord
100
AcDbLinetypeTableRecord
  2
ByLayer
 70
     0
  3

 72
    65
 73
     0
 40
0.0
  0
LTYPE
  5
16
330
5
100
AcDbSymbolTableRecord
100
AcDbLinetypeTableRecord
  2
Continuous
 70
     0
  3
Solid line
 72
    65
 73
     0
 40
0.0
  0
LTYPE
  5
2D
330
5
100
AcDbSymbolTableRecord
100
AcDbLinetypeTableRecord
  2
DASHDOT
 70
     0
  3
Dash dot __ . __ . __ . __ . __ . __ . __ . __
 72
    65
 73
     4
 40
25.4
 49
12.7
 74
     0
 49
-6.349999999999999
 74
     0
 49
0.0
 74
     0
 49
-6.349999999999999
 74
     0
  0
LTYPE
  5
2E
330
5
100
AcDbSymbolTableRecord
100
AcDbLinetypeTableRecord
  2
HIDDEN
 70
     0
  3
Hidden __ __ __ __ __ __ __ __ __ __ __ __ __ _
 72
    65
 73
     2
 40
9.524999999999998
 49
6.349999999999999
 74
     0
 49
-3.174999999999999
 74
     0
  0
LTYPE
  5
D16
330
5
100
AcDbSymbolTableRecord
100
AcDbLinetypeTableRecord
  2
CENTER
 70
     0
  3
____ _ ____ _ ____ _ ____ _ ____ _ ____ _ ____ 
 72
    65
 73
     4
 40
2.0
 49
1.25
 74
     0
 49
-0.25
 74
     0
 49
0.25
 74
     0
 49
-0.25
 74
     0
  0
ENDTAB
  0
TABLE
  2
LAYER
  5
2
330
0
100
AcDbSymbolTable
 70
    17
  0
LAYER
  5
10
102
{ACAD_XDICTIONARY
360
2086
102
}
330
2
100
AcDbSymbolTableRecord
100
AcDbLayerTableRecord
  2
0
 70
     0
 62
     7
  6
Continuous
370
    -3
390
F
  0
LAYER
  5
2F
102
{ACAD_XDICTIONARY
360
2088
102
}
330
2
100
AcDbSymbolTableRecord
100
AcDbLayerTableRecord
  2
1
 70
     0
 62
     1
  6
Continuous
370
    -3
390
F
  0
LAYER
  5
30
102
{ACAD_XDICTIONARY
360
208A
102
}
330
2
100
AcDbSymbolTableRecord
100
AcDbLayerTableRecord
  2
2
 70
     0
 62
     2
  6
Continuous
370
    -3
390
F
  0
LAYER
  5
31
102
{ACAD_XDICTIONARY
360
208C
102
}
330
2
100
AcDbSymbolTableRecord
100
AcDbLayerTableRecord
  2
3
 70
     0
 62
     3
  6
Continuous
370
    -3
390
F
  0
LAYER
  5
32
102
{ACAD_XDICTIONARY
360
208E
102
}
330
2
100
AcDbSymbolTableRecord
100
AcDbLayerTableRecord
  2
4
 70
     0
 62
     4
  6
Continuous
370
    -3
390
F
  0
LAYER
  5
33
102
{ACAD_XDICTIONARY
360
2090
102
}
330
2
100
AcDbSymbolTableRecord
100
AcDbLayerTableRecord
  2
5
 70
     0
 62
     5
  6
Continuous
370
    -3
390
F
  0
LAYER
  5
34
102
{ACAD_XDICTIONARY
360
2092
102
}
330
2
100
AcDbSymbolTableRecord
100
AcDbLayerTableRecord
  2
6
 70
     0
 62
     6
  6
Continuous
370
    -3
390
F
  0
LAYER
  5
35
102
{ACAD_XDICTIONARY
360
2094
102
}
330
2
100
AcDbSymbolTableRecord
100
AcDbLayerTableRecord
  2
7
 70
     0
 62
     7
  6
Continuous
370
    -3
390
F
  0
LAYER
  5
36
102
{ACAD_XDICTIONARY
360
2096
102
}
330
2
100
AcDbSymbolTableRecord
100
AcDbLayerTableRecord
  2
cen
 70
     0
 62
     7
  6
DASHDOT
370
    -3
390
F
  0
LAYER
  5
37
102
{ACAD_XDICTIONARY
360
2098
102
}
330
2
100
AcDbSymbolTableRecord
100
AcDbLayerTableRecord
  2
hid
 70
     0
 62
     7
  6
HIDDEN
370
    -3
390
F
  0
LAYER
  5
5D6
102
{ACAD_XDICTIONARY
360
209A
102
}
330
2
100
AcDbSymbolTableRecord
100
AcDbLayerTableRecord
  2
hatch
 70
     0
 62
     9
  6
Continuous
370
    -3
390
F
  0
LAYER
  5
8AF
102
{ACAD_XDICTIONARY
360
209C
102
}
330
2
100
AcDbSymbolTableRecord
100
AcDbLayerTableRecord
  2
9
 70
     0
 62
     9
  6
Continuous
370
    -3
390
F
  0
LAYER
  5
8F8
102
{ACAD_XDICTIONARY
360
209E
102
}
330
2
100
AcDbSymbolTableRecord
100
AcDbLayerTableRecord
  2
leg fin
 70
     0
 62
     9
  6
Continuous
370
    -3
390
F
  0
LAYER
  5
91D
102
{ACAD_XDICTIONARY
360
20A0
102
}
330
2
100
AcDbSymbolTableRecord
100
AcDbLayerTableRecord
  2
cotas
 70
     0
 62
     1
  6
Continuous
370
    -3
390
F
  0
LAYER
  5
92F
330
2
100
AcDbSymbolTableRecord
100
AcDbLayerTableRecord
  2
Defpoints
 70
     0
 62
     7
  6
Continuous
290
     0
370
    -3
390
F
  0
LAYER
  5
D17
102
{ACAD_XDICTIONARY
360
20A2
102
}
330
2
100
AcDbSymbolTableRecord
100
AcDbLayerTableRecord
  2
QUOTE
 70
     0
 62
     7
  6
Continuous
370
    18
390
F
  0
LAYER
  5
2085
102
{ACAD_XDICTIONARY
360
20A4
102
}
330
2
100
AcDbSymbolTableRecord
100
AcDbLayerTableRecord
  2
SANINDUSA
 70
     0
 62
     3
  6
Continuous
370
    -3
390
F
  0
ENDTAB
  0
TABLE
  2
STYLE
  5
3
330
0
100
AcDbSymbolTable
 70
     3
  0
STYLE
  5
11
330
3
100
AcDbSymbolTableRecord
100
AcDbTextStyleTableRecord
  2
Standard
 70
     0
 40
0.0
 41
1.0
 50
0.0
 71
     0
 42
2.5
  3
Avgardn.ttf
  4

1001
ACAD
1000
AvantGarde Bk BT
1071
       34
  0
STYLE
  5
2C
330
3
100
AcDbSymbolTableRecord
100
AcDbTextStyleTableRecord
  2

 70
     1
 40
0.0
 41
1.0
 50
0.0
 71
     0
 42
2.5
  3
ltypeshp.shx
  4

  0
STYLE
  5
91F
330
3
100
AcDbSymbolTableRecord
100
AcDbTextStyleTableRecord
  2
SANINDUSA
 70
     0
 40
0.0
 41
1.0
 50
0.0
 71
     0
 42
2.5
  3
verdana.TTF
  4

1001
ACAD
1000
Verdana
1071
       34
  0
ENDTAB
  0
TABLE
  2
VIEW
  5
6
330
0
100
AcDbSymbolTable
 70
     0
  0
ENDTAB
  0
TABLE
  2
UCS
  5
7
330
0
100
AcDbSymbolTable
 70
     0
  0
ENDTAB
  0
TABLE
  2
APPID
  5
9
330
0
100
AcDbSymbolTable
 70
     9
  0
APPID
  5
12
330
9
100
AcDbSymbolTableRecord
100
AcDbRegAppTableRecord
  2
ACAD
 70
     0
  0
APPID
  5
3A
330
9
100
AcDbSymbolTableRecord
100
AcDbRegAppTableRecord
  2
DCO15
 70
     0
  0
APPID
  5
D19
330
9
100
AcDbSymbolTableRecord
100
AcDbRegAppTableRecord
  2
GENIUS_GENDTOL_13
 70
     0
  0
APPID
  5
D1A
330
9
100
AcDbSymbolTableRecord
100
AcDbRegAppTableRecord
  2
GENIUS_GENREC_14
 70
     0
  0
APPID
  5
D1B
330
9
100
AcDbSymbolTableRecord
100
AcDbRegAppTableRecord
  2
GENIUS_GENODEF_13
 70
     0
  0
APPID
  5
D1C
330
9
100
AcDbSymbolTableRecord
100
AcDbRegAppTableRecord
  2
GENIUS_GENOBJ-N-REC_13
 70
     0
  0
APPID
  5
206B
330
9
100
AcDbSymbolTableRecord
100
AcDbRegAppTableRecord
  2
ACAD_DSTYLE_DIMJAG
 70
     0
  0
APPID
  5
206C
330
9
100
AcDbSymbolTableRecord
100
AcDbRegAppTableRecord
  2
ACAD_DSTYLE_DIMTALN
 70
     0
  0
APPID
  5
20E4
330
9
100
AcDbSymbolTableRecord
100
AcDbRegAppTableRecord
  2
ACAD_MLEADERVER
 70
     0
  0
ENDTAB
  0
TABLE
  2
DIMSTYLE
  5
A
330
0
100
AcDbSymbolTable
 70
     3
100
AcDbDimStyleTable
 71
     1
340
921
  0
DIMSTYLE
105
45
330
A
100
AcDbSymbolTableRecord
100
AcDbDimStyleTableRecord
  2
STANDARD
 70
     0
289
     0
340
11
  0
DIMSTYLE
105
921
330
A
100
AcDbSymbolTableRecord
100
AcDbDimStyleTableRecord
  2
SANINDUSA
 70
     0
 41
3.0
 42
1.0
 43
1.0
 44
1.0
 73
     0
 74
     0
 77
     1
 78
     8
140
2.0
141
0.0
143
0.03937007874016
147
1.0
171
     3
172
     1
176
   256
177
   256
178
   256
179
     1
271
     1
272
     1
274
     3
278
    44
283
     0
284
     8
340
91F
371
    -1
372
    -1
  0
DIMSTYLE
105
D18
330
A
100
AcDbSymbolTableRecord
100
AcDbDimStyleTableRecord
  2
ISO-35
 70
     0
 41
3.5
 42
0.5
 43
5.25
 44
1.75
 73
     0
 74
     0
 77
     1
 78
     8
140
3.5
141
3.5
143
0.0394
147
0.875
171
     4
172
     1
176
   256
177
   256
178
   256
271
     1
272
     1
273
     8
274
     4
340
11
371
    -1
372
    -1
  0
ENDTAB
  0
TABLE
  2
BLOCK_RECORD
  5
1
330
0
100
AcDbSymbolTable
 70
    26
  0
BLOCK_RECORD
  5
1F
330
1
100
AcDbSymbolTableRecord
100
AcDbBlockTableRecord
  2
*Model_Space
340
22
  0
BLOCK_RECORD
  5
1B
330
1
100
AcDbSymbolTableRecord
100
AcDbBlockTableRecord
  2
*Paper_Space
340
1E
  0
BLOCK_RECORD
  5
23
330
1
100
AcDbSymbolTableRecord
100
AcDbBlockTableRecord
  2
*Paper_Space0
340
26
  0
BLOCK_RECORD
  5
919
330
1
100
AcDbSymbolTableRecord
100
AcDbBlockTableRecord
  2
_DotSmall
340
0
  0
BLOCK_RECORD
  5
922
330
1
100
AcDbSymbolTableRecord
100
AcDbBlockTableRecord
  2
base para cotas
340
0
310
2800000020000000200000000100080000000000000400000000000000000000000000000000000000000000000080000080000000808000800000008000800080800000C0C0C000C0DCC000F0CAA6000020400000206000002080000020A0000020C0000020E00000400000004020000040400000406000004080000040A0
310
000040C0000040E00000600000006020000060400000606000006080000060A0000060C0000060E00000800000008020000080400000806000008080000080A0000080C0000080E00000A0000000A0200000A0400000A0600000A0800000A0A00000A0C00000A0E00000C0000000C0200000C0400000C0600000C0800000C0
310
A00000C0C00000C0E00000E0000000E0200000E0400000E0600000E0800000E0A00000E0C00000E0E00040000000400020004000400040006000400080004000A0004000C0004000E00040200000402020004020400040206000402080004020A0004020C0004020E000404000004040200040404000404060004040800040
310
40A0004040C0004040E00040600000406020004060400040606000406080004060A0004060C0004060E00040800000408020004080400040806000408080004080A0004080C0004080E00040A0000040A0200040A0400040A0600040A0800040A0A00040A0C00040A0E00040C0000040C0200040C0400040C0600040C08000
310
40C0A00040C0C00040C0E00040E0000040E0200040E0400040E0600040E0800040E0A00040E0C00040E0E00080000000800020008000400080006000800080008000A0008000C0008000E00080200000802020008020400080206000802080008020A0008020C0008020E00080400000804020008040400080406000804080
310
008040A0008040C0008040E00080600000806020008060400080606000806080008060A0008060C0008060E00080800000808020008080400080806000808080008080A0008080C0008080E00080A0000080A0200080A0400080A0600080A0800080A0A00080A0C00080A0E00080C0000080C0200080C0400080C0600080C0
310
800080C0A00080C0C00080C0E00080E0000080E0200080E0400080E0600080E0800080E0A00080E0C00080E0E000C0000000C0002000C0004000C0006000C0008000C000A000C000C000C000E000C0200000C0202000C0204000C0206000C0208000C020A000C020C000C020E000C0400000C0402000C0404000C0406000C0
310
408000C040A000C040C000C040E000C0600000C0602000C0604000C0606000C0608000C060A000C060C000C060E000C0800000C0802000C0804000C0806000C0808000C080A000C080C000C080E000C0A00000C0A02000C0A04000C0A06000C0A08000C0A0A000C0A0C000C0A0E000C0C00000C0C02000C0C04000C0C06000
310
C0C08000C0C0A000F0FBFF00A4A0A000808080000000FF0000FF000000FFFF00FF000000FF00FF00FFFF0000FFFFFF00A4A4A4A4A4A4A4A4A4A4A4A4A4A4A4A4A4A4A4A4A4A4A4A4A4A4A4A4A4A4A4A4A4A4A4A4A4A4A4A4A4A4A4A4A4A4A4A4A4A4A4A4A4A4A4A4A4A4A4A4A4A4A4A4A4A4A4A4A4A4A4A4A4A4A4A4A4A4A4
310
A4A4A4A4A4A4A4A4A4A4A4A4A4A4A4A4A4A4A4A4A4A4A4A4A4A4A4A4A4A4A4A4A4A4A4A4A4A4A4A4A4A4A4A4A4A4A4A4A4A4A4A4A4A4A4A4A4A4A4A4A4A4A4A4A4A4A4A4A4A4A4A4A4A4A4A4A4A4A4A4A4A4A4A4A4A4A4A4A4A4A4A4A4A4A4A4A4A4A4A4A4A4A4A4A4A4A4A4A4A4A4A4A4A4A4A4A4A4A4A4A4A4A4A4A4A4A4
310
A4A4A4A4A4A4A4A4A4A4A4A4A4A4A4A4A4A4A4A4A4A4A4A4A4A4A4A4A4A4A4A4A4A4A4A4A4A4A4A4A4A4A4A4A4A4A4A4A4A4A4A4A4A4A4A4A4A4A4A4A4A4A4A4A4A4A4A4A4A4A4A4A4A4A4A4A4A4A4A4A4A4A4A4A4A4A4A4A4A4A4A4A4A4A4A4A4A4A4A4A4A4A4A4A4A4A4A4A4A4A4A4A4A4A4A4A4A4A4A4A4A4A4A4A4A4A4
310
A4A4A4A4A4A4A4A4A4A4A4A4A4A4A4A4A4A4A4A4A4A4A4A4A4A4A4A4A4A4A4A4A4A4A4A4A4A4A4A4A4A4A4A4A4A4A4A4A4A4A4A4A4A4A4A4A4A4A4A4A4A4A4A4A4A4A4A4A4A4A4A4A4A4A4A4A4A4A4A4A4A4A4A4A4A4A4A4A4A4A4A4A4A4A4A4A4A4A4A4A4A4A4A4A4A4A4A4A4A4A4A4A4A4A4A4F9F9F9F9F9F9F9F9F9F9F9
310
F9F9F9F9F9F9F9F9F9F9F9F9F9F9F9F9F9F9F9A4A4F9F9F9F9F9F9F9F9F9F9F9F9F9F9F9F9F9F9F9F9F9F9F9F9F9F9F9F9F9F9A4A4F9F9F9F9F9F9F9F9F9F9F9F9F9F9F9F9F9F9F9F9F9F9F9F9F9F9F9F9F9F9A4A4F9A4A4A4A4A4A4A4A4A4A4A4A4A4A4A4A4A4A4A4A4A4A4A4A4A4A4A4A4F9A4A4A4A4A4A4A4A4A4A4A4A4
310
A4A4A4A4A4A4A4A4A4A4A4A4A4A4A4A4A4A4A4A4A4A4A4A4A4A4A4A4A4A4A4A4A4A4A4A4A4A4A4A4A4A4A4A4A4A4A4A4A4A4A4A4A4A4A4A4A4A4A4A4A4A4A4A4A4A4A4A4A4A4A4A4A4A4A4A4A4A4A4A4A4A4A4A4A4A4A4A4A4A4A4A4A4A4A4A4A4A4A4A4A4A4A4A4A4A4A4A4A4A4A4A4A4A4A4A4A4A4A4A4A4A4A4A4A4A4A4
310
A4A4A4A4A4A4A4A4A4A4A4A4A4A4A4A4A4A4A4A4A4A4A4A4A4A4A4A4A4A4A4A4A4A4A4A4A4A4A4A4A4A4A4A4A4A4A4A4A4A4A4A4A4A4A4A4A4A4A4A4A4A4A4A4A4A4A4A4A4A4A4A4A4A4A4A4A4A4A4A4A4A4A4A4A4A4A4A4A4A4A4A4A4A4A4A4A4A4A4A4A4A4A4A4A4A4A4A4A4A4A4A4A4A4A4A4A4A4A4A4A4A4A4A4A4A4A4
310
A4A4A4A4A4A4A4A4A4A4A4A4A4A4A4A4A4A4A4A4A4A4A4A4A4A4A4A4A4A4A4A4A4A4A4A4A4A4A4A4A4A4A4A4A4A4A4A4A4A4A4A4A4A4A4A4A4A4A4A4A4A4A4A4A4A4A4A4A4A4A4A4A4A4A4A4A4A4A4A4A4A4A4A4A4A4A4A4A4A4A4A4A4A4A4A4A4A4A4A4A4A4A4A4A4A4A4A4A4A4A4A4A4A4A4A4A4A4A4A4A4A4A4A4A4A4A4
310
A4A4A4A4A4A4A4A4A4A4A4A4A4A4A4A4A4A4A4A4A4A4A4A4A4A4A4A4A4A4A4A4A4A4A4A4A4A4A4A4A4A4A4A4A4A4A4A4A4A4A4A4A4A4A4A4
1001
ACAD
1000
DesignCenter Data
1002
{
1070
     1
1070
     4
1002
}
  0
BLOCK_RECORD
  5
AA8
330
1
100
AcDbSymbolTableRecord
100
AcDbBlockTableRecord
  2
_CLOSED
340
0
  0
BLOCK_RECORD
  5
CAF
330
1
100
AcDbSymbolTableRecord
100
AcDbBlockTableRecord
  2
guarnizione
340
0
102
{BLKREFS
331
12F2
331
12F3
102
}
  0
ENDTAB
  0
ENDSEC
  0
SECTION
  2
BLOCKS
  0
BLOCK
  5
20
330
1F
100
AcDbEntity
  8
0
100
AcDbBlockBegin
  2
*Model_Space
 70
     0
 10
0.0
 20
0.0
 30
0.0
  3
*Model_Space
  1

  0
ENDBLK
  5
21
330
1F
100
AcDbEntity
  8
0
100
AcDbBlockEnd
  0
BLOCK
  5
1C
330
1B
100
AcDbEntity
 67
     1
  8
0
100
AcDbBlockBegin
  2
*Paper_Space
 70
     0
 10
0.0
 20
0.0
 30
0.0
  3
*Paper_Space
  1

  0
ENDBLK
  5
1D
330
1B
100
AcDbEntity
 67
     1
  8
0
100
AcDbBlockEnd
  0
BLOCK
  5
24
330
23
100
AcDbEntity
 67
     1
  8
0
100
AcDbBlockBegin
  2
*Paper_Space0
 70
     0
 10
0.0
 20
0.0
 30
0.0
  3
*Paper_Space0
  1

  0
ENDBLK
  5
25
330
23
100
AcDbEntity
 67
     1
  8
0
100
AcDbBlockEnd
  0
BLOCK
  5
91B
330
919
100
AcDbEntity
  8
0
100
AcDbBlockBegin
  2
_DotSmall
 70
     0
 10
0.0
 20
0.0
 30
0.0
  3
_DotSmall
  1

  0
LWPOLYLINE
  5
91A
330
919
100
AcDbEntity
  8
0
  6
ByBlock
 62
     0
100
AcDbPolyline
 90
        2
 70
     1
 43
0.5
 10
-0.0625
 20
0.0
 42
1.0
 10
0.0625
 20
0.0
 42
1.0
  0
ENDBLK
  5
91C
330
919
100
AcDbEntity
  8
0
100
AcDbBlockEnd
  0
BLOCK
  5
92A
330
922
100
AcDbEntity
  8
0
100
AcDbBlockBegin
  2
base para cotas
 70
     0
 10
0.0
 20
0.0
 30
0.0
  3
base para cotas
  1

  0
LINE
  5
B36
330
922
100
AcDbEntity
  8
cotas
100
AcDbLine
 10
0.0
 20
-30.0
 30
0.0
 11
327.1260136525398
 21
-30.0
 31
0.0
  0
LINE
  5
B37
330
922
100
AcDbEntity
  8
cotas
100
AcDbLine
 10
0.0
 20
-25.0
 30
0.0
 11
327.1260136525398
 21
-25.0
 31
0.0
  0
LINE
  5
B38
330
922
100
AcDbEntity
  8
cotas
100
AcDbLine
 10
0.0
 20
-20.0
 30
0.0
 11
327.1260136525398
 21
-20.0
 31
0.0
  0
LINE
  5
B39
330
922
100
AcDbEntity
  8
cotas
100
AcDbLine
 10
0.0
 20
-15.0
 30
0.0
 11
327.1260136525398
 21
-15.0
 31
0.0
  0
LINE
  5
B3A
330
922
100
AcDbEntity
  8
cotas
100
AcDbLine
 10
0.0
 20
-10.0
 30
0.0
 11
327.1260136525398
 21
-10.0
 31
0.0
  0
LINE
  5
B3B
330
922
100
AcDbEntity
  8
cotas
100
AcDbLine
 10
0.0
 20
0.0
 30
0.0
 11
0.0
 21
-30.0
 31
0.0
  0
LINE
  5
B3C
330
922
100
AcDbEntity
  8
cotas
100
AcDbLine
 10
327.1260136525398
 20
-30.0
 30
0.0
 11
327.1260136525398
 21
0.0
 31
0.0
  0
ENDBLK
  5
92B
330
922
100
AcDbEntity
  8
0
100
AcDbBlockEnd
  0
BLOCK
  5
AAD
330
AA8
100
AcDbEntity
  8
0
100
AcDbBlockBegin
  2
_CLOSED
 70
     0
 10
0.0
 20
0.0
 30
0.0
  3
_CLOSED
  1

  0
LINE
  5
AA9
330
AA8
100
AcDbEntity
  8
0
100
AcDbLine
 10
-1.0
 20
0.166667
 30
0.0
 11
0.0
 21
0.0
 31
0.0
  0
LINE
  5
AAA
330
AA8
100
AcDbEntity
  8
0
100
AcDbLine
 10
0.0
 20
0.0
 30
0.0
 11
-1.0
 21
-0.166667
 31
0.0
  0
LINE
  5
AAB
330
AA8
100
AcDbEntity
  8
0
100
AcDbLine
 10
-1.0
 20
0.166667
 30
0.0
 11
-1.0
 21
-0.166667
 31
0.0
  0
LINE
  5
AAC
330
AA8
100
AcDbEntity
  8
0
100
AcDbLine
 10
0.0
 20
0.0
 30
0.0
 11
-1.0
 21
0.0
 31
0.0
  0
ENDBLK
  5
AAE
330
AA8
100
AcDbEntity
  8
0
100
AcDbBlockEnd
  0
BLOCK
  5
CFA
330
CAF
100
AcDbEntity
  8
0
100
AcDbBlockBegin
  2
guarnizione
 70
     0
 10
0.0
 20
0.0
 30
0.0
  3
guarnizione
  1

  0
LINE
  5
CB0
330
CAF
100
AcDbEntity
  8
0
100
AcDbLine
 10
12.0
 20
3.179312414488776
 30
0.0
 11
12.0
 21
2.699999999999818
 31
0.0
  0
LINE
  5
CB1
330
CAF
100
AcDbEntity
  8
0
100
AcDbLine
 10
9.5
 20
3.130475008156281
 30
0.0
 11
9.440776269158959
 21
2.734883615801663
 31
0.0
  0
ARC
  5
CB2
330
CAF
100
AcDbEntity
  8
0
100
AcDbCircle
 10
11.19999999999891
 20
3.179312414488776
 30
0.0
 40
0.8
100
AcDbArc
 50
0.0
 51
81.48552156587461
  0
ARC
  5
CB3
330
CAF
100
AcDbEntity
  8
0
100
AcDbCircle
 10
8.753809903480942
 20
1.523241254200002
 30
0.0
 40
0.1999999999999504
100
AcDbArc
 50
171.485521565823
 51
351.485521565823
  0
LINE
  5
CB4
330
CAF
100
AcDbEntity
  8
0
100
AcDbLine
 10
11.65558220186904
 20
-2.403306455734309
 30
0.0
 11
9.440776269158959
 21
-2.734883615802573
 31
0.0
  0
ARC
  5
CB5
330
CAF
100
AcDbEntity
  8
0
100
AcDbCircle
 10
8.753809903480942
 20
-1.523241254200911
 30
0.0
 40
0.1999999999999504
100
AcDbArc
 50
8.514478434176927
 51
188.5144784341769
  0
LINE
  5
CB6
330
CAF
100
AcDbEntity
  8
0
100
AcDbLine
 10
9.5
 20
-3.130475008157191
 30
0.0
 11
9.440776269158959
 21
-2.734883615802573
 31
0.0
  0
ARC
  5
CB7
330
CAF
100
AcDbEntity
  8
0
100
AcDbCircle
 10
11.69999999999891
 20
-2.699999999999818
 30
0.0
 40
0.3
100
AcDbArc
 50
0.0
 51
98.51447843412536
  0
ARC
  5
CB8
330
CAF
100
AcDbEntity
  8
0
100
AcDbCircle
 10
11.69999999999891
 20
2.699999999999818
 30
0.0
 40
0.3
100
AcDbArc
 50
261.4855215658746
 51
0.0
  0
LINE
  5
CB9
330
CAF
100
AcDbEntity
  8
0
100
AcDbLine
 10
11.65558220186904
 20
2.4033064557334
 30
0.0
 11
9.440776269158959
 21
2.734883615801663
 31
0.0
  0
LINE
  5
CBA
330
CAF
100
AcDbEntity
  8
0
100
AcDbLine
 10
8.807715063378054
 20
3.234116537129011
 30
0.0
 11
8.556014207302723
 21
1.552853119620522
 31
0.0
  0
LINE
  5
CBB
330
CAF
100
AcDbEntity
  8
0
100
AcDbLine
 10
9.203306455732672
 20
3.174892806287971
 30
0.0
 11
8.951605599657341
 21
1.493629388779481
 31
0.0
  0
LINE
  5
CBC
330
CAF
100
AcDbEntity
  8
0
100
AcDbLine
 10
6.681411329471302
 20
3.552444090400967
 30
0.0
 11
6.622187598630262
 21
3.15685269804544
 31
0.0
  0
ARC
  5
CBD
330
CAF
100
AcDbEntity
  8
0
100
AcDbCircle
 10
0.2999999999992724
 20
3.800000000000181
 30
0.0
 40
0.3
100
AcDbArc
 50
81.48552156587461
 51
180.0
  0
ARC
  5
CBE
330
CAF
100
AcDbEntity
  8
0
100
AcDbCircle
 10
1.042400829128382
 20
4.699999999999818
 30
0.0
 40
0.8
100
AcDbArc
 50
81.48552156587461
 51
90.0
  0
LINE
  5
CBF
330
CAF
100
AcDbEntity
  8
0
100
AcDbLine
 10
1.5
 20
3.923692082123125
 30
0.0
 11
0.3444177981309622
 21
4.09669354426569
 31
0.0
  0
LINE
  5
CC0
330
CAF
100
AcDbEntity
  8
0
100
AcDbLine
 10
1.5
 20
3.923692082123125
 30
0.0
 11
1.5
 21
3.099999999999454
 31
0.0
  0
LINE
  5
CC1
330
CAF
100
AcDbEntity
  8
0
100
AcDbLine
 10
1.5
 20
3.099999999999454
 30
0.0
 11
2.699999999998908
 21
3.099999999999454
 31
0.0
  0
LINE
  5
CC2
330
CAF
100
AcDbEntity
  8
0
100
AcDbLine
 10
2.699999999998908
 20
3.744040860223321
 30
0.0
 11
2.699999999998908
 21
3.099999999999454
 31
0.0
  0
LINE
  5
CC3
330
CAF
100
AcDbEntity
  8
0
100
AcDbLine
 10
6.622187598630262
 20
3.15685269804544
 30
0.0
 11
2.699999999998908
 21
3.744040860223321
 31
0.0
  0
LINE
  5
CC4
330
CAF
100
AcDbEntity
  8
0
100
AcDbLine
 10
1.5
 20
-3.100000000000363
 30
0.0
 11
2.699999999998908
 21
-3.100000000000363
 31
0.0
  0
LINE
  5
CC5
330
CAF
100
AcDbEntity
  8
0
100
AcDbLine
 10
11.31844746168099
 20
3.970495199198012
 30
0.0
 11
1.160848290810463
 21
5.491182784709053
 31
0.0
  0
LINE
  5
CC6
330
CAF
100
AcDbEntity
  8
0
100
AcDbLine
 10
9.5
 20
3.130475008156281
 30
0.0
 11
6.681411329471302
 21
3.552444090400967
 31
0.0
  0
ARC
  5
CC7
330
CAF
100
AcDbEntity
  8
0
100
AcDbCircle
 10
11.19999999999891
 20
-3.179312414488776
 30
0.0
 40
0.8
100
AcDbArc
 50
278.5144784341254
 51
0.0
  0
LINE
  5
CC8
330
CAF
100
AcDbEntity
  8
0
100
AcDbLine
 10
6.681411329471302
 20
-3.552444090400967
 30
0.0
 11
6.622187598630262
 21
-3.15685269804635
 31
0.0
  0
ARC
  5
CC9
330
CAF
100
AcDbEntity
  8
0
100
AcDbCircle
 10
0.2999999999992724
 20
-3.800000000000181
 30
0.0
 40
0.3
100
AcDbArc
 50
180.0
 51
278.5144784341254
  0
ARC
  5
CCA
330
CAF
100
AcDbEntity
  8
0
100
AcDbCircle
 10
1.042400829128382
 20
-4.699999999999818
 30
0.0
 40
0.8
100
AcDbArc
 50
270.0
 51
278.5144784341254
  0
LINE
  5
CCB
330
CAF
100
AcDbEntity
  8
0
100
AcDbLine
 10
0.3444177981309622
 20
-4.096693544266599
 30
0.0
 11
1.5
 21
-3.923692082124034
 31
0.0
  0
LINE
  5
CCC
330
CAF
100
AcDbEntity
  8
0
100
AcDbLine
 10
6.622187598630262
 20
-3.15685269804635
 30
0.0
 11
2.699999999998908
 21
-3.744040860224231
 31
0.0
  0
LINE
  5
CCD
330
CAF
100
AcDbEntity
  8
0
100
AcDbLine
 10
1.160848290810463
 20
-5.491182784709963
 30
0.0
 11
11.31844746168099
 21
-3.970495199198921
 31
0.0
  0
LINE
  5
CCE
330
CAF
100
AcDbEntity
  8
0
100
AcDbLine
 10
0.0
 20
3.800000000000181
 30
0.0
 11
0.0
 21
-3.800000000000181
 31
0.0
  0
LINE
  5
CCF
330
CAF
100
AcDbEntity
  8
0
100
AcDbLine
 10
12.0
 20
-2.699999999999818
 30
0.0
 11
12.0
 21
-3.179312414488776
 31
0.0
  0
LINE
  5
CD0
330
CAF
100
AcDbEntity
  8
0
100
AcDbLine
 10
2.699999999998908
 20
-3.100000000000363
 30
0.0
 11
2.699999999998908
 21
-3.744040860224231
 31
0.0
  0
LINE
  5
CD1
330
CAF
100
AcDbEntity
  8
0
100
AcDbLine
 10
1.5
 20
-3.100000000000363
 30
0.0
 11
1.5
 21
-3.923692082124034
 31
0.0
  0
LINE
  5
CD2
330
CAF
100
AcDbEntity
  8
0
100
AcDbLine
 10
9.5
 20
-3.130475008157191
 30
0.0
 11
6.681411329471302
 21
-3.552444090400967
 31
0.0
  0
LINE
  5
CD3
330
CAF
100
AcDbEntity
  8
0
100
AcDbLine
 10
9.203306455732672
 20
-3.174892806287971
 30
0.0
 11
8.951605599657341
 21
-1.493629388780391
 31
0.0
  0
LINE
  5
CD4
330
CAF
100
AcDbEntity
  8
0
100
AcDbLine
 10
8.807715063378054
 20
-3.234116537129011
 30
0.0
 11
8.556014207302723
 21
-1.552853119621431
 31
0.0
  0
LINE
  5
CD5
330
CAF
100
AcDbEntity
  8
0
100
AcDbLine
 10
-1.5
 20
5.5
 30
0.0
 11
-3.757359312881817
 21
5.5
 31
0.0
  0
ARC
  5
CD6
330
CAF
100
AcDbEntity
  8
0
100
AcDbCircle
 10
-2.5
 20
3.5
 30
0.0
 40
1.0
100
AcDbArc
 50
0.0
 51
90.0
  0
ARC
  5
CD7
330
CAF
100
AcDbEntity
  8
0
100
AcDbCircle
 10
-3.769781102879278
 20
4.149978862833449
 30
0.0
 40
0.75
100
AcDbArc
 50
47.16775949949599
 51
90.19499109987526
  0
ARC
  5
CD8
330
CAF
100
AcDbEntity
  8
0
100
AcDbCircle
 10
-2.75
 20
5.25
 30
0.0
 40
0.75
100
AcDbArc
 50
227.167759499496
 51
270.0
  0
LINE
  5
CD9
330
CAF
100
AcDbEntity
  8
0
100
AcDbLine
 10
-2.75
 20
4.5
 30
0.0
 11
-2.5
 21
4.5
 31
0.0
  0
LINE
  5
CDA
330
CAF
100
AcDbEntity
  8
0
100
AcDbLine
 10
-7.415254325502246
 20
3.064644661409147
 30
0.0
 11
-6.868629150101696
 21
3.611269837220788
 31
0.0
  0
ARC
  5
CDB
102
{ACAD_REACTORS
330
CF5
102
}
330
CAF
100
AcDbEntity
  8
0
100
AcDbCircle
 10
-7.980939750059405
 20
2.569669913566031
 30
0.0
 40
0.2
100
AcDbArc
 50
45.0000001037625
 51
135.0000000719631
  0
ARC
  5
CDC
330
CAF
100
AcDbEntity
  8
0
100
AcDbCircle
 10
-3.757359312881817
 20
0.5
 30
0.0
 40
5.0
100
AcDbArc
 50
90.0
 51
135.0
  0
ARC
  5
CDD
330
CAF
100
AcDbEntity
  8
0
100
AcDbCircle
 10
-3.757359312881817
 20
0.5
 30
0.0
 40
4.4
100
AcDbArc
 50
90.19499109987526
 51
135.0
  0
ARC
  5
CDE
330
CAF
100
AcDbEntity
  8
0
100
AcDbCircle
 10
-6.814213563102384
 20
0.9786796633270569
 30
0.0
 40
0.75
100
AcDbArc
 50
314.9999999676111
 51
45.0
  0
ARC
  5
CDF
102
{ACAD_REACTORS
330
CF5
102
}
330
CAF
100
AcDbEntity
  8
0
100
AcDbCircle
 10
-6.814213563102384
 20
0.9786796633270569
 30
0.0
 40
0.5
100
AcDbArc
 50
314.9999999676111
 51
45.0
  0
ARC
  5
CE0
330
CAF
100
AcDbEntity
  8
0
100
AcDbCircle
 10
-7.203122291144609
 20
2.852512627053329
 30
0.0
 40
0.3
100
AcDbArc
 50
135.0
 51
225.0000001112794
  0
LINE
  5
CE1
330
CAF
100
AcDbEntity
  8
0
100
AcDbLine
 10
-8.051650430128574
 20
3.276776694619002
 30
0.0
 11
-6.283883477519339
 21
1.509009749524921
 31
0.0
  0
LINE
  5
CE2
102
{ACAD_REACTORS
330
CF5
102
}
330
CAF
100
AcDbEntity
  8
0
100
AcDbLine
 10
-7.839518394079277
 20
2.711091270059114
 30
0.0
 11
-6.460660172508141
 21
1.33223305392039
 31
0.0
  0
ARC
  5
CE3
330
CAF
100
AcDbEntity
  8
0
100
AcDbCircle
 10
-12.57713383280133
 20
-2.521498914058611
 30
0.0
 40
0.3
100
AcDbArc
 50
45.00000003552097
 51
135.0
  0
ARC
  5
CE4
102
{ACAD_REACTORS
330
CF5
102
}
330
CAF
100
AcDbEntity
  8
0
100
AcDbCircle
 10
-12.29429112059733
 20
-1.743681468243266
 30
0.0
 40
0.2
100
AcDbArc
 50
135.0000000660675
 51
225.0000002990173
  0
LINE
  5
CE5
330
CAF
100
AcDbEntity
  8
0
100
AcDbLine
 10
-12.9899494936617
 20
-2.510050506339212
 30
0.0
 11
-12.78926586715715
 21
-2.309366879702793
 31
0.0
  0
LINE
  5
CE6
330
CAF
100
AcDbEntity
  8
0
100
AcDbLine
 10
-13.41421356237333
 20
-2.085786437626666
 30
0.0
 11
-7.292893218815152
 21
4.035533905932425
 31
0.0
  0
LINE
  5
CE7
102
{ACAD_REACTORS
330
CF5
102
}
330
CAF
100
AcDbEntity
  8
0
100
AcDbLine
 10
-12.43571247699765
 20
-1.602260112168551
 30
0.0
 11
-8.122361106474272
 21
2.711091269625285
 31
0.0
  0
ARC
  5
CE8
330
CAF
100
AcDbEntity
  8
0
100
AcDbCircle
 10
-2.5
 20
-3.5
 30
0.0
 40
1.0
100
AcDbArc
 50
270.0
 51
0.0
  0
ARC
  5
CE9
330
CAF
100
AcDbEntity
  8
0
100
AcDbCircle
 10
-7.519803902720013
 20
-4.150000000000545
 30
0.0
 40
0.75
100
AcDbArc
 50
270.0
 51
312.8334280660476
  0
ARC
  5
CEA
330
CAF
100
AcDbEntity
  8
0
100
AcDbCircle
 10
-6.5
 20
-5.25
 30
0.0
 40
0.75
100
AcDbArc
 50
90.0
 51
132.8334280660476
  0
LINE
  5
CEB
330
CAF
100
AcDbEntity
  8
0
100
AcDbLine
 10
-2.5
 20
-4.5
 30
0.0
 11
-6.5
 21
-4.5
 31
0.0
  0
ARC
  5
CEC
330
CAF
100
AcDbEntity
  8
0
100
AcDbCircle
 10
-10.7033008647486
 20
-2.910407640086305
 30
0.0
 40
0.75
100
AcDbArc
 50
225.0
 51
315.0
  0
ARC
  5
CED
102
{ACAD_REACTORS
330
CF5
102
}
330
CAF
100
AcDbEntity
  8
0
100
AcDbCircle
 10
-10.7033008647486
 20
-2.910407640086305
 30
0.0
 40
0.5
100
AcDbArc
 50
225.0
 51
315.0
  0
LINE
  5
CEE
330
CAF
100
AcDbEntity
  8
0
100
AcDbLine
 10
-1.5
 20
-5.5
 30
0.0
 11
-12.0
 21
-5.5
 31
0.0
  0
LINE
  5
CEF
330
CAF
100
AcDbEntity
  8
0
100
AcDbLine
 10
-7.519803902720013
 20
-4.900000000000545
 30
0.0
 11
-12.0
 21
-4.900000000000545
 31
0.0
  0
ARC
  5
CF0
330
CAF
100
AcDbEntity
  8
0
100
AcDbCircle
 10
-12.0
 20
-3.5
 30
0.0
 40
2.0
100
AcDbArc
 50
135.0
 51
270.0
  0
LINE
  5
CF1
330
CAF
100
AcDbEntity
  8
0
100
AcDbLine
 10
-10.17297077881812
 20
-3.440737725935832
 30
0.0
 11
-6.283883477372
 21
0.4483495772774404
 31
0.0
  0
ARC
  5
CF2
330
CAF
100
AcDbEntity
  8
0
100
AcDbCircle
 10
-12.0
 20
-3.5
 30
0.0
 40
1.399999999999999
100
AcDbArc
 50
135.0
 51
270.0
  0
LINE
  5
CF3
330
CAF
100
AcDbEntity
  8
0
100
AcDbLine
 10
-13.00139790187859
 20
-1.672970777132832
 30
0.0
 11
-11.23363095093009
 21
-3.440737725682993
 31
0.0
  0
LINE
  5
CF4
330
CAF
100
AcDbEntity
  8
0
100
AcDbLine
 10
-1.5
 20
3.5
 30
0.0
 11
-1.5
 21
-3.5
 31
0.0
  0
HATCH
  5
CF5
330
CAF
100
AcDbEntity
  8
0
100
AcDbHatch
 10
0.0
 20
0.0
 30
0.0
210
0.0
220
0.0
230
1.0
  2
ANSI31
 70
     0
 71
     1
 91
        1
 92
        7
 72
     1
 73
     1
 93
        8
 10
-6.460660173204814
 20
1.332233054616153
 42
0.0
 10
-7.839518394101105
 20
2.711091270081851
 42
0.414213562178905
 10
-8.122361106481548
 20
2.711091269618009
 42
0.0
 10
-12.43571247701766
 20
-1.602260112190379
 42
0.4142135636146872
 10
-12.43571247604996
 20
-1.885102825264766
 42
0.0
 10
-11.05685425338015
 20
-3.263961032639599
 42
0.4142135608152901
 10
-10.34974747407432
 20
-3.263961030598693
 42
0.0
 10
-6.460660172428106
 20
0.625126272813759
 42
0.4142135628833784
 97
        8
330
CE2
330
CDB
330
CE7
330
CE4
330
CF7
330
CED
330
CF6
330
CDF
 75
     0
 76
     1
 52
45.0
 41
0.25
 77
     0
 78
     1
 53
90.0
 43
-276.1145346408611
 44
-395.2719013892401
 45
-0.79375
 46
0.0000000000000002
 79
     0
 47
0.0364805528584695
 98
        1
 10
-7.399477738399582
 20
0.8532363732892918
  0
LINE
  5
CF6
102
{ACAD_REACTORS
330
CF5
102
}
330
CAF
100
AcDbEntity
  8
0
100
AcDbLine
 10
-10.34974747415435
 20
-3.263961030678729
 30
0.0
 11
-6.46066017270823
 21
0.6251262725336347
 31
0.0
  0
LINE
  5
CF7
102
{ACAD_REACTORS
330
CF5
102
}
330
CAF
100
AcDbEntity
  8
0
100
AcDbLine
 10
-12.43571247609543
 20
-1.885102825218382
 30
0.0
 11
-11.05685425534102
 21
-3.263961030678729
 31
0.0
  0
LINE
  5
CF8
330
CAF
100
AcDbEntity
  8
0
100
AcDbLine
 10
-1.5
 20
5.5
 30
0.0
 11
1.042400829128382
 21
5.5
 31
0.0
  0
LINE
  5
CF9
330
CAF
100
AcDbEntity
  8
0
100
AcDbLine
 10
-1.5
 20
-5.5
 30
0.0
 11
1.042400829128382
 21
-5.5
 31
0.0
  0
ENDBLK
  5
CFB
330
CAF
100
AcDbEntity
  8
0
100
AcDbBlockEnd
  0
ENDSEC
  0
SECTION
  2
ENTITIES
  0
LINE
  5
126B
330
1F
100
AcDbEntity
  8
SANINDUSA
100
AcDbLine
 10
2527.629060794068
 20
2997.053074250138
 30
0.0000000000769735
 11
2527.629060794068
 21
2996.770050946006
 31
0.0000000000737103
  0
LINE
  5
126C
330
1F
100
AcDbEntity
  8
SANINDUSA
100
AcDbLine
 10
2527.635060794068
 20
2997.053074250138
 30
0.0000000000768823
 11
2527.635060794068
 21
2996.770050946006
 31
0.0000000000834807
  0
LINE
  5
127E
330
1F
100
AcDbEntity
  8
SANINDUSA
100
AcDbLine
 10
2527.635060818792
 20
2996.697764794544
 30
0.0000000000168985
 11
2527.635060818792
 21
2996.766146273899
 31
-0.0000000005608733
  0
LINE
  5
127F
330
1F
100
AcDbEntity
  8
SANINDUSA
100
AcDbLine
 10
2527.629060818792
 20
2996.697764794544
 30
0.0000000000056103
 11
2527.629060818792
 21
2996.766146273899
 31
-0.0000000001862093
  0
LINE
  5
1280
330
1F
100
AcDbEntity
  8
SANINDUSA
100
AcDbLine
 10
2528.102873192066
 20
2996.227046550197
 30
-0.0000000001862093
 11
2528.174160542481
 21
2996.227046550195
 31
-0.0000000005608733
  0
LINE
  5
1281
330
1F
100
AcDbEntity
  8
SANINDUSA
100
AcDbLine
 10
2528.102873192065
 20
2996.221046550197
 30
-0.0000000001862093
 11
2528.174160542481
 21
2996.221046550195
 31
-0.0000000001862093
  0
ARC
  5
1284
330
1F
100
AcDbEntity
  8
SANINDUSA
100
AcDbCircle
 10
2528.105779063139
 20
2996.697764794534
 30
0.0
 40
0.4707182443368447
100
AcDbArc
 50
226.3909796187521
 51
270.0
  0
ARC
  5
1285
330
1F
100
AcDbEntity
  8
SANINDUSA
100
AcDbCircle
 10
2528.105779063139
 20
2996.697764794534
 30
0.0
 40
0.4767182443368446
100
AcDbArc
 50
226.3909796187521
 51
270.0
  0
LINE
  5
1290
330
1F
100
AcDbEntity
  8
SANINDUSA
100
AcDbLine
 10
2527.625660809183
 20
2996.753550946006
 30
-0.0000000001555548
 11
2527.625660756889
 21
2996.768550946006
 31
-0.0000000001555548
  0
LINE
  5
1291
330
1F
100
AcDbEntity
  8
SANINDUSA
100
AcDbLine
 10
2527.617660756889
 20
2996.759662057117
 30
-0.0000000001555548
 11
2527.617660756889
 21
2996.701550946006
 31
-0.0000000001555548
  0
LINE
  5
1292
330
1F
100
AcDbEntity
  8
SANINDUSA
100
AcDbLine
 10
2527.627660809183
 20
2996.753550946006
 30
-0.0000000001555548
 11
2527.625660809183
 21
2996.753550946006
 31
-0.0000000001555548
  0
LINE
  5
1293
330
1F
100
AcDbEntity
  8
SANINDUSA
100
AcDbLine
 10
2527.627860809183
 20
2996.753550946006
 30
-0.0000000001555548
 11
2527.628860809183
 21
2996.753550946006
 31
-0.0000000001555548
1001
GENIUS_GENREC_14
1002
{
1000
PYDIR
1011
2527.628860809183
1021
2996.700550946006
1031
-0.0000000001555548
1002
}
1002
{
1000
PXDIR
1011
2527.627860809183
1021
2996.753550946006
1031
-0.0000000001555548
1002
}
1002
{
1000
PORI
1011
2527.627860809183
1021
2996.700550946006
1031
-0.0000000001555548
1002
}
1002
{
1000
PINS
1011
2527.627860809183
1021
2996.700550946006
1031
-0.0000000001555548
1002
}
1002
{
1000
PINS2
1011
2527.628860809183
1021
2996.753550946006
1031
-0.0000000001555548
1002
}
1002
{
1000
C
1070
     1
1002
}
1001
GENIUS_GENODEF_13
1002
{
1000
HIER
1070
     0
1002
}
1002
{
1000
MANEDIT
1070
     0
1002
}
1002
{
1000
NOSEL
1070
     0
1002
}
1002
{
1000
BEHIND
1070
     0
1002
}
1002
{
1000
REACTOR
1002
}
1001
GENIUS_GENOBJ-N-REC_13
1002
{
1000
OWNER
1000
GEN
1002
}
  0
LINE
  5
1294
330
1F
100
AcDbEntity
  8
SANINDUSA
100
AcDbLine
 10
2527.636460809183
 20
2996.753550946006
 30
-0.0000000001555548
 11
2527.640460809183
 21
2996.753550946006
 31
-0.0000000001555548
  0
ARC
  5
1295
330
1F
100
AcDbEntity
  8
SANINDUSA
100
AcDbCircle
 10
2527.640460809183
 20
2996.752550946006
 30
-0.0000000001555548
 40
0.001
100
AcDbArc
 50
0.0
 51
90.0
  0
LINE
  5
1296
330
1F
100
AcDbEntity
  8
SANINDUSA
100
AcDbLine
 10
2527.628860809183
 20
2996.700550946006
 30
-0.0000000001555548
 11
2527.627860809183
 21
2996.700550946006
 31
-0.0000000001555548
1001
GENIUS_GENREC_14
1002
{
1000
PYDIR
1011
2527.628860809183
1021
2996.700550946006
1031
-0.0000000001555548
1002
}
1002
{
1000
PXDIR
1011
2527.627860809183
1021
2996.753550946006
1031
-0.0000000001555548
1002
}
1002
{
1000
PORI
1011
2527.627860809183
1021
2996.700550946006
1031
-0.0000000001555548
1002
}
1002
{
1000
PINS
1011
2527.627860809183
1021
2996.700550946006
1031
-0.0000000001555548
1002
}
1002
{
1000
PINS2
1011
2527.628860809183
1021
2996.753550946006
1031
-0.0000000001555548
1002
}
1002
{
1000
C
1070
     1
1002
}
1001
GENIUS_GENODEF_13
1002
{
1000
HIER
1070
     0
1002
}
1002
{
1000
MANEDIT
1070
     0
1002
}
1002
{
1000
NOSEL
1070
     0
1002
}
1002
{
1000
BEHIND
1070
     0
1002
}
1002
{
1000
REACTOR
1002
}
1001
GENIUS_GENOBJ-N-REC_13
1002
{
1000
OWNER
1000
GEN
1002
}
  0
LINE
  5
1297
330
1F
100
AcDbEntity
  8
SANINDUSA
100
AcDbLine
 10
2527.636460809183
 20
2996.700550946006
 30
-0.0000000001555548
 11
2527.640460809183
 21
2996.700550946006
 31
-0.0000000001555548
  0
ARC
  5
1298
330
1F
100
AcDbEntity
  8
SANINDUSA
100
AcDbCircle
 10
2527.640460809183
 20
2996.701550946006
 30
-0.0000000001555548
 40
0.001
100
AcDbArc
 50
270.0
 51
0.0
  0
ARC
  5
1299
330
1F
100
AcDbEntity
  8
SANINDUSA
100
AcDbCircle
 10
2527.618660756889
 20
2996.701550946006
 30
-0.0000000001555548
 40
0.001
100
AcDbArc
 50
180.0
 51
270.0
  0
LINE
  5
129A
330
1F
100
AcDbEntity
  8
SANINDUSA
100
AcDbLine
 10
2527.627660809183
 20
2996.700550946006
 30
-0.0000000001555548
 11
2527.618660756889
 21
2996.700550946006
 31
-0.0000000001555548
  0
LWPOLYLINE
  5
129B
330
1F
100
AcDbEntity
  8
SANINDUSA
100
AcDbPolyline
 90
        2
 70
     0
 43
0.0
 38
-0.0000000001555548
 10
2527.627860809183
 20
2996.700550946006
 10
2527.627860809183
 20
2996.753550946006
1001
GENIUS_GENREC_14
1002
{
1000
PYDIR
1011
2527.465900003952
1021
2996.999833203085
1031
-0.0000000001555548
1002
}
1002
{
1000
PXDIR
1011
2527.466900003953
1021
2997.052833203085
1031
-0.0000000001555548
1002
}
1002
{
1000
PORI
1011
2527.466900003953
1021
2996.999833203085
1031
-0.0000000001555548
1002
}
1002
{
1000
PINS
1011
2527.466900003953
1021
2996.999833203085
1031
-0.0000000001555548
1002
}
1002
{
1000
PINS2
1011
2527.465900003952
1021
2997.052833203085
1031
-0.0000000001555548
1002
}
1002
{
1000
C
1070
     1
1002
}
1001
GENIUS_GENODEF_13
1002
{
1000
HIER
1070
     0
1002
}
1002
{
1000
MANEDIT
1070
     0
1002
}
1002
{
1000
NOSEL
1070
     0
1002
}
1002
{
1000
BEHIND
1070
     0
1002
}
1002
{
1000
REACTOR
1002
}
1001
GENIUS_GENOBJ-N-REC_13
1002
{
1000
OWNER
1000
GEN
1002
}
  0
LWPOLYLINE
  5
129C
330
1F
100
AcDbEntity
  8
SANINDUSA
100
AcDbPolyline
 90
        2
 70
     0
 43
0.0
 38
-0.0000000001555548
 10
2527.628860809183
 20
2996.753550946006
 10
2527.628860809183
 20
2996.700550946006
1001
GENIUS_GENREC_14
1002
{
1000
PYDIR
1011
2527.465900003952
1021
2996.999833203085
1031
-0.0000000001555548
1002
}
1002
{
1000
PXDIR
1011
2527.466900003953
1021
2997.052833203085
1031
-0.0000000001555548
1002
}
1002
{
1000
PORI
1011
2527.466900003953
1021
2996.999833203085
1031
-0.0000000001555548
1002
}
1002
{
1000
PINS
1011
2527.466900003953
1021
2996.999833203085
1031
-0.0000000001555548
1002
}
1002
{
1000
PINS2
1011
2527.465900003952
1021
2997.052833203085
1031
-0.0000000001555548
1002
}
1002
{
1000
C
1070
     1
1002
}
1001
GENIUS_GENODEF_13
1002
{
1000
HIER
1070
     0
1002
}
1002
{
1000
MANEDIT
1070
     0
1002
}
1002
{
1000
NOSEL
1070
     0
1002
}
1002
{
1000
BEHIND
1070
     0
1002
}
1002
{
1000
REACTOR
1002
}
1001
GENIUS_GENOBJ-N-REC_13
1002
{
1000
OWNER
1000
GEN
1002
}
  0
LWPOLYLINE
  5
129D
330
1F
100
AcDbEntity
  8
SANINDUSA
100
AcDbPolyline
 90
        4
 70
     1
 43
0.0
 38
-0.0000000001555548
 10
2527.636260809183
 20
2996.700550946006
 10
2527.636260809183
 20
2996.753550946006
 10
2527.635260809183
 20
2996.753550946006
 10
2527.635260809183
 20
2996.700550946006
1001
GENIUS_GENREC_14
1002
{
1000
PYDIR
1011
2527.465700003953
1021
2996.999833203085
1031
-0.0000000001555548
1002
}
1002
{
1000
PXDIR
1011
2527.466700003952
1021
2997.052833203085
1031
-0.0000000001555548
1002
}
1002
{
1000
PORI
1011
2527.466700003952
1021
2996.999833203085
1031
-0.0000000001555548
1002
}
1002
{
1000
PINS
1011
2527.466700003952
1021
2996.999833203085
1031
-0.0000000001555548
1002
}
1002
{
1000
PINS2
1011
2527.465700003953
1021
2997.052833203085
1031
-0.0000000001555548
1002
}
1002
{
1000
C
1070
     1
1002
}
1001
GENIUS_GENODEF_13
1002
{
1000
HIER
1070
     0
1002
}
1002
{
1000
MANEDIT
1070
     0
1002
}
1002
{
1000
NOSEL
1070
     0
1002
}
1002
{
1000
BEHIND
1070
     0
1002
}
1002
{
1000
REACTOR
1002
}
1001
GENIUS_GENOBJ-N-REC_13
1002
{
1000
OWNER
1000
GEN
1002
}
  0
LINE
  5
129E
330
1F
100
AcDbEntity
  8
SANINDUSA
100
AcDbLine
 10
2527.627660809183
 20
2996.700550946006
 30
-0.0000000001555548
 11
2527.627660809183
 21
2996.753550946006
 31
-0.0000000001555548
  0
LINE
  5
129F
330
1F
100
AcDbEntity
  8
SANINDUSA
100
AcDbLine
 10
2527.636460809183
 20
2996.753550946006
 30
-0.0000000001555548
 11
2527.636460809183
 21
2996.700550946006
 31
-0.0000000001555548
  0
LINE
  5
12A0
330
1F
100
AcDbEntity
  8
SANINDUSA
100
AcDbLine
 10
2527.641460809183
 20
2996.701550946006
 30
-0.0000000001555548
 11
2527.641460809183
 21
2996.752550946006
 31
-0.0000000001555548
  0
LINE
  5
12A1
330
1F
100
AcDbEntity
  8
SANINDUSA
100
AcDbLine
 10
2527.629060794068
 20
2996.770050946006
 30
-0.0000000001555548
 11
2527.635060794068
 21
2996.770050946006
 31
-0.0000000001555548
  0
LINE
  5
12A2
330
1F
100
AcDbEntity
  8
SANINDUSA
100
AcDbLine
 10
2527.627660756889
 20
2996.836550946006
 30
-0.0000000001555548
 11
2527.618660756889
 21
2996.836550946006
 31
-0.0000000001555548
  0
LINE
  5
12A3
330
1F
100
AcDbEntity
  8
SANINDUSA
100
AcDbLine
 10
2527.628760809183
 20
2996.836550946006
 30
-0.0000000001555548
 11
2527.627760809183
 21
2996.836550946006
 31
-0.0000000001555548
1001
GENIUS_GENREC_14
1002
{
1000
PYDIR
1011
2527.628760809183
1021
2996.700550946006
1031
-0.0000000001555548
1002
}
1002
{
1000
PXDIR
1011
2527.627760809183
1021
2996.753550946006
1031
-0.0000000001555548
1002
}
1002
{
1000
PORI
1011
2527.627760809183
1021
2996.700550946006
1031
-0.0000000001555548
1002
}
1002
{
1000
PINS
1011
2527.627760809183
1021
2996.700550946006
1031
-0.0000000001555548
1002
}
1002
{
1000
PINS2
1011
2527.628760809183
1021
2996.753550946006
1031
-0.0000000001555548
1002
}
1002
{
1000
C
1070
     1
1002
}
1001
GENIUS_GENODEF_13
1002
{
1000
HIER
1070
     0
1002
}
1002
{
1000
MANEDIT
1070
     0
1002
}
1002
{
1000
NOSEL
1070
     0
1002
}
1002
{
1000
BEHIND
1070
     0
1002
}
1002
{
1000
REACTOR
1002
}
1001
GENIUS_GENOBJ-N-REC_13
1002
{
1000
OWNER
1000
GEN
1002
}
  0
ARC
  5
12A4
330
1F
100
AcDbEntity
  8
SANINDUSA
100
AcDbCircle
 10
2527.618660756889
 20
2996.835550946006
 30
-0.0000000001555548
 40
0.001
100
AcDbArc
 50
90.0
 51
180.0
  0
LINE
  5
12A5
330
1F
100
AcDbEntity
  8
SANINDUSA
100
AcDbLine
 10
2527.636460809183
 20
2996.836550946006
 30
-0.0000000001555548
 11
2527.640460809183
 21
2996.836550946006
 31
-0.0000000001555548
  0
ARC
  5
12A6
330
1F
100
AcDbEntity
  8
SANINDUSA
100
AcDbCircle
 10
2527.640460809183
 20
2996.835550946006
 30
-0.0000000001555548
 40
0.001
100
AcDbArc
 50
0.0
 51
90.0
  0
LINE
  5
12A7
330
1F
100
AcDbEntity
  8
SANINDUSA
100
AcDbLine
 10
2527.625660756889
 20
2996.783550946006
 30
-0.0000000001555548
 11
2527.625660756889
 21
2996.76855090041
 31
-0.0000000001555548
  0
LINE
  5
12A8
330
1F
100
AcDbEntity
  8
SANINDUSA
100
AcDbLine
 10
2527.617660756888
 20
2996.777439834895
 30
-0.0000000001555548
 11
2527.625660756889
 21
2996.777439834895
 31
-0.0000000001555548
  0
LINE
  5
12A9
330
1F
100
AcDbEntity
  8
SANINDUSA
100
AcDbLine
 10
2527.625660756889
 20
2996.783550946006
 30
-0.0000000001555548
 11
2527.627660756889
 21
2996.783550946006
 31
-0.0000000001555548
  0
LINE
  5
12AA
330
1F
100
AcDbEntity
  8
SANINDUSA
100
AcDbLine
 10
2527.627760809183
 20
2996.783550946006
 30
-0.0000000001555548
 11
2527.628760809183
 21
2996.783550946006
 31
-0.0000000001555548
1001
GENIUS_GENREC_14
1002
{
1000
PYDIR
1011
2527.628760809183
1021
2996.700550946006
1031
-0.0000000001555548
1002
}
1002
{
1000
PXDIR
1011
2527.627760809183
1021
2996.753550946006
1031
-0.0000000001555548
1002
}
1002
{
1000
PORI
1011
2527.627760809183
1021
2996.700550946006
1031
-0.0000000001555548
1002
}
1002
{
1000
PINS
1011
2527.627760809183
1021
2996.700550946006
1031
-0.0000000001555548
1002
}
1002
{
1000
PINS2
1011
2527.628760809183
1021
2996.753550946006
1031
-0.0000000001555548
1002
}
1002
{
1000
C
1070
     1
1002
}
1001
GENIUS_GENODEF_13
1002
{
1000
HIER
1070
     0
1002
}
1002
{
1000
MANEDIT
1070
     0
1002
}
1002
{
1000
NOSEL
1070
     0
1002
}
1002
{
1000
BEHIND
1070
     0
1002
}
1002
{
1000
REACTOR
1002
}
1001
GENIUS_GENOBJ-N-REC_13
1002
{
1000
OWNER
1000
GEN
1002
}
  0
LINE
  5
12AB
330
1F
100
AcDbEntity
  8
SANINDUSA
100
AcDbLine
 10
2527.636460809183
 20
2996.783550946006
 30
-0.0000000001555548
 11
2527.640460809183
 21
2996.783550946006
 31
-0.0000000001555548
  0
ARC
  5
12AC
330
1F
100
AcDbEntity
  8
SANINDUSA
100
AcDbCircle
 10
2527.640460809183
 20
2996.784550946006
 30
-0.0000000001555548
 40
0.001
100
AcDbArc
 50
270.0
 51
0.0
  0
LINE
  5
12AD
330
1F
100
AcDbEntity
  8
SANINDUSA
100
AcDbLine
 10
2527.617660756889
 20
2996.759662057117
 30
-0.0000000001555548
 11
2527.625660809183
 21
2996.759662057117
 31
-0.0000000001555548
  0
LWPOLYLINE
  5
12AE
330
1F
100
AcDbEntity
  8
SANINDUSA
100
AcDbPolyline
 90
        2
 70
     0
 43
0.0
 38
-0.0000000001555548
 10
2527.628760809183
 20
2996.783550946006
 10
2527.628760809183
 20
2996.836550946006
1001
GENIUS_GENREC_14
1002
{
1000
PYDIR
1011
2527.765282261032
1021
2996.700550946006
1031
-0.0000000001555548
1002
}
1002
{
1000
PXDIR
1011
2527.766282261032
1021
2996.753550946006
1031
-0.0000000001555548
1002
}
1002
{
1000
PORI
1011
2527.766282261032
1021
2996.700550946006
1031
-0.0000000001555548
1002
}
1002
{
1000
PINS
1011
2527.766282261032
1021
2996.700550946006
1031
-0.0000000001555548
1002
}
1002
{
1000
PINS2
1011
2527.765282261032
1021
2996.753550946006
1031
-0.0000000001555548
1002
}
1002
{
1000
C
1070
     1
1002
}
1001
GENIUS_GENODEF_13
1002
{
1000
HIER
1070
     0
1002
}
1002
{
1000
MANEDIT
1070
     0
1002
}
1002
{
1000
NOSEL
1070
     0
1002
}
1002
{
1000
BEHIND
1070
     0
1002
}
1002
{
1000
REACTOR
1002
}
1001
GENIUS_GENOBJ-N-REC_13
1002
{
1000
OWNER
1000
GEN
1002
}
  0
LWPOLYLINE
  5
12AF
330
1F
100
AcDbEntity
  8
SANINDUSA
100
AcDbPolyline
 90
        2
 70
     0
 43
0.0
 38
-0.0000000001555548
 10
2527.627760809183
 20
2996.836550946006
 10
2527.627760809183
 20
2996.783550946006
1001
GENIUS_GENREC_14
1002
{
1000
PYDIR
1011
2527.765282261032
1021
2996.700550946006
1031
-0.0000000001555548
1002
}
1002
{
1000
PXDIR
1011
2527.766282261032
1021
2996.753550946006
1031
-0.0000000001555548
1002
}
1002
{
1000
PORI
1011
2527.766282261032
1021
2996.700550946006
1031
-0.0000000001555548
1002
}
1002
{
1000
PINS
1011
2527.766282261032
1021
2996.700550946006
1031
-0.0000000001555548
1002
}
1002
{
1000
PINS2
1011
2527.765282261032
1021
2996.753550946006
1031
-0.0000000001555548
1002
}
1002
{
1000
C
1070
     1
1002
}
1001
GENIUS_GENODEF_13
1002
{
1000
HIER
1070
     0
1002
}
1002
{
1000
MANEDIT
1070
     0
1002
}
1002
{
1000
NOSEL
1070
     0
1002
}
1002
{
1000
BEHIND
1070
     0
1002
}
1002
{
1000
REACTOR
1002
}
1001
GENIUS_GENOBJ-N-REC_13
1002
{
1000
OWNER
1000
GEN
1002
}
  0
LWPOLYLINE
  5
12B0
330
1F
100
AcDbEntity
  8
SANINDUSA
100
AcDbPolyline
 90
        4
 70
     1
 43
0.0
 38
-0.0000000001555548
 10
2527.636260809183
 20
2996.836550946006
 10
2527.636260809183
 20
2996.783550946006
 10
2527.635260809183
 20
2996.783550946006
 10
2527.635260809183
 20
2996.836550946006
1001
GENIUS_GENREC_14
1002
{
1000
PYDIR
1011
2527.764982261031
1021
2996.700550946006
1031
-0.0000000001555548
1002
}
1002
{
1000
PXDIR
1011
2527.765982261032
1021
2996.753550946006
1031
-0.0000000001555548
1002
}
1002
{
1000
PORI
1011
2527.765982261032
1021
2996.700550946006
1031
-0.0000000001555548
1002
}
1002
{
1000
PINS
1011
2527.765982261032
1021
2996.700550946006
1031
-0.0000000001555548
1002
}
1002
{
1000
PINS2
1011
2527.764982261031
1021
2996.753550946006
1031
-0.0000000001555548
1002
}
1002
{
1000
C
1070
     1
1002
}
1001
GENIUS_GENODEF_13
1002
{
1000
HIER
1070
     0
1002
}
1002
{
1000
MANEDIT
1070
     0
1002
}
1002
{
1000
NOSEL
1070
     0
1002
}
1002
{
1000
BEHIND
1070
     0
1002
}
1002
{
1000
REACTOR
1002
}
1001
GENIUS_GENOBJ-N-REC_13
1002
{
1000
OWNER
1000
GEN
1002
}
  0
LINE
  5
12B1
330
1F
100
AcDbEntity
  8
SANINDUSA
100
AcDbLine
 10
2527.617660756888
 20
2996.835550946006
 30
-0.0000000001555548
 11
2527.617660756888
 21
2996.776550946006
 31
-0.0000000001555548
  0
LINE
  5
12B2
330
1F
100
AcDbEntity
  8
SANINDUSA
100
AcDbLine
 10
2527.627660756889
 20
2996.783550946006
 30
-0.0000000001555548
 11
2527.627660756889
 21
2996.836550946006
 31
-0.0000000001555548
  0
LINE
  5
12B3
330
1F
100
AcDbEntity
  8
SANINDUSA
100
AcDbLine
 10
2527.636460809183
 20
2996.783550946006
 30
-0.0000000001555548
 11
2527.636460809183
 21
2996.836550946006
 31
-0.0000000001555548
  0
LINE
  5
12B4
330
1F
100
AcDbEntity
  8
SANINDUSA
100
AcDbLine
 10
2527.641460809183
 20
2996.835550946006
 30
-0.0000000001555548
 11
2527.641460809183
 21
2996.784550946006
 31
-0.0000000001555548
  0
CIRCLE
  5
12B5
330
1F
100
AcDbEntity
  8
SANINDUSA
100
AcDbCircle
 10
2527.617660756889
 20
2996.768550946006
 30
-0.0000000001555548
 40
0.008
  0
ARC
  5
12B6
330
1F
100
AcDbEntity
  8
SANINDUSA
100
AcDbCircle
 10
2527.632060818792
 20
2996.768131826861
 30
-0.0000000000492531
 40
0.0056623076923077
100
AcDbArc
 50
351.4923271320942
 51
188.5076728679059
  0
ARC
  5
12B7
330
1F
100
AcDbEntity
  8
SANINDUSA
100
AcDbCircle
 10
2527.632060818792
 20
2996.768131826861
 30
-0.0000000000492531
 40
0.0052623076923077
100
AcDbArc
 50
351.4923271320942
 51
188.5076728679059
  0
LINE
  5
12B8
330
1F
100
AcDbEntity
  8
SANINDUSA
100
AcDbLine
 10
2527.637660818792
 20
2996.766301051975
 30
-0.0000000000492531
 11
2527.6357684973
 21
2996.754796750292
 31
-0.0000000000492531
  0
LINE
  5
12B9
330
1F
100
AcDbEntity
  8
SANINDUSA
100
AcDbLine
 10
2527.637660818792
 20
2996.767294134553
 30
-0.0000000000492531
 11
2527.626460818793
 21
2996.767294134553
 31
-0.0000000000492531
  0
ARC
  5
12BA
330
1F
100
AcDbEntity
  8
SANINDUSA
100
AcDbCircle
 10
2527.635760117603
 20
2996.76494759601
 30
-0.0000000000492531
 40
0.0005
100
AcDbArc
 50
260.6591659035288
 51
350.6591659035287
  0
LINE
  5
12BB
330
1F
100
AcDbEntity
  8
SANINDUSA
100
AcDbLine
 10
2527.637660818792
 20
2996.766301051975
 30
-0.0000000000492531
 11
2527.637660818792
 21
2996.767294134553
 31
-0.0000000000492531
  0
LINE
  5
12BC
330
1F
100
AcDbEntity
  8
SANINDUSA
100
AcDbLine
 10
2527.636253487749
 20
2996.764866442459
 30
-0.0000000000492531
 11
2527.636349293418
 21
2996.765448889638
 31
-0.0000000000492531
  0
ARC
  5
12BD
330
1F
100
AcDbEntity
  8
SANINDUSA
100
AcDbCircle
 10
2527.635757249242
 20
2996.7655462739
 30
-0.0000000000492531
 40
0.0006
100
AcDbArc
 50
350.6591659035287
 51
90.0
  0
LINE
  5
12BE
330
1F
100
AcDbEntity
  8
SANINDUSA
100
AcDbLine
 10
2527.628353140286
 20
2996.754796750292
 30
-0.0000000000492531
 11
2527.626460818793
 21
2996.766301051975
 31
-0.0000000000492531
  0
LINE
  5
12BF
330
1F
100
AcDbEntity
  8
SANINDUSA
100
AcDbLine
 10
2527.628765228481
 20
2996.757220402547
 30
-0.0000000000492531
 11
2527.629057037402
 21
2996.759296730903
 31
-0.0000000000492531
  0
LINE
  5
12C0
330
1F
100
AcDbEntity
  8
SANINDUSA
100
AcDbLine
 10
2527.628374347397
 20
2996.759596750292
 30
-0.0000000000492531
 11
2527.628765228481
 21
2996.757220402547
 31
-0.0000000000492531
  0
LINE
  5
12C1
330
1F
100
AcDbEntity
  8
SANINDUSA
100
AcDbLine
 10
2527.635356409103
 20
2996.757220402547
 30
-0.0000000000492531
 11
2527.635747290188
 21
2996.759596750292
 31
-0.0000000000492531
  0
LINE
  5
12C2
330
1F
100
AcDbEntity
  8
SANINDUSA
100
AcDbLine
 10
2527.635064600183
 20
2996.759296730903
 30
-0.0000000000492531
 11
2527.635356409103
 21
2996.757220402547
 31
-0.0000000000492531
  0
LINE
  5
12C3
330
1F
100
AcDbEntity
  8
SANINDUSA
100
AcDbLine
 10
2527.635017174987
 20
2996.757119324918
 30
-0.0000000000492531
 11
2527.634718006359
 21
2996.759248020318
 31
-0.0000000000492531
  0
LINE
  5
12C4
330
1F
100
AcDbEntity
  8
SANINDUSA
100
AcDbLine
 10
2527.629403631226
 20
2996.759248020318
 30
-0.0000000000492531
 11
2527.629104462598
 21
2996.757119324918
 31
-0.0000000000492531
  0
LINE
  5
12C5
330
1F
100
AcDbEntity
  8
SANINDUSA
100
AcDbLine
 10
2527.634469697489
 20
2996.754294134553
 30
-0.0000000000492531
 11
2527.634746855318
 21
2996.755979105785
 31
-0.0000000000492531
  0
LINE
  5
12C6
330
1F
100
AcDbEntity
  8
SANINDUSA
100
AcDbLine
 10
2527.635176453123
 20
2996.754294134553
 30
-0.0000000000492531
 11
2527.634469697489
 21
2996.754294134553
 31
-0.0000000000492531
  0
ARC
  5
12C7
330
1F
100
AcDbEntity
  8
SANINDUSA
100
AcDbCircle
 10
2527.635176453123
 20
2996.754894134553
 30
-0.0000000000492531
 40
0.0006
100
AcDbArc
 50
270.0
 51
350.6591659035287
  0
ARC
  5
12C8
330
1F
100
AcDbEntity
  8
SANINDUSA
100
AcDbCircle
 10
2527.635512309022
 20
2996.757188911468
 30
-0.0000000000492531
 40
0.0004999999999883
100
AcDbArc
 50
188.0000000128182
 51
241.8736260327467
  0
ARC
  5
12C9
330
1F
100
AcDbEntity
  8
SANINDUSA
100
AcDbCircle
 10
2527.634694679145
 20
2996.756894134553
 30
-0.0000000000492531
 40
0.0006000000000005
100
AcDbArc
 50
302.4694807866477
 51
345.8991081879715
  0
ARC
  5
12CA
330
1F
100
AcDbEntity
  8
SANINDUSA
100
AcDbCircle
 10
2527.635338899494
 20
2996.755881721524
 30
-0.0000000000492531
 40
0.0006
100
AcDbArc
 50
122.4694807866476
 51
170.6591659035287
  0
ARC
  5
12CB
330
1F
100
AcDbEntity
  8
SANINDUSA
100
AcDbCircle
 10
2527.628945184461
 20
2996.754894134553
 30
-0.0000000000492531
 40
0.0006
100
AcDbArc
 50
189.3408340964712
 51
270.0
  0
ARC
  5
12CC
330
1F
100
AcDbEntity
  8
SANINDUSA
100
AcDbCircle
 10
2527.62942695844
 20
2996.756894134553
 30
-0.0000000000492531
 40
0.0005999999999989
100
AcDbArc
 50
194.1008918120285
 51
237.5305192133523
  0
LINE
  5
12CD
330
1F
100
AcDbEntity
  8
SANINDUSA
100
AcDbLine
 10
2527.629374782266
 20
2996.755979105785
 30
-0.0000000000492531
 11
2527.629651940095
 21
2996.754294134553
 31
-0.0000000000492531
  0
LINE
  5
12CE
330
1F
100
AcDbEntity
  8
SANINDUSA
100
AcDbLine
 10
2527.629651940095
 20
2996.754294134553
 30
-0.0000000000492531
 11
2527.628945184461
 21
2996.754294134553
 31
-0.0000000000492531
  0
ARC
  5
12CF
330
1F
100
AcDbEntity
  8
SANINDUSA
100
AcDbCircle
 10
2527.628782738091
 20
2996.755881721524
 30
-0.0000000000492531
 40
0.0006
100
AcDbArc
 50
9.340834096471271
 51
57.53051921335232
  0
ARC
  5
12D0
330
1F
100
AcDbEntity
  8
SANINDUSA
100
AcDbCircle
 10
2527.628609328563
 20
2996.757188911468
 30
-0.0000000000492531
 40
0.0005
100
AcDbArc
 50
298.1263739672534
 51
351.9999999871818
  0
LINE
  5
12D1
330
1F
100
AcDbEntity
  8
SANINDUSA
100
AcDbLine
 10
2527.635432278979
 20
2996.76449480264
 30
-0.0000000000492531
 11
2527.635678964052
 21
2996.764454225864
 31
-0.0000000000492531
  0
ARC
  5
12D2
330
1F
100
AcDbEntity
  8
SANINDUSA
100
AcDbCircle
 10
2527.635310548653
 20
2996.76375474742
 30
-0.0000000000492531
 40
0.00075
100
AcDbArc
 50
80.65916590352873
 51
260.6591659035288
  0
LINE
  5
12D3
330
1F
100
AcDbEntity
  8
SANINDUSA
100
AcDbLine
 10
2527.635391912107
 20
2996.762981285677
 30
-0.0000000000492531
 11
2527.635188818326
 21
2996.763014692201
 31
-0.0000000000492531
  0
LINE
  5
12D4
330
1F
100
AcDbEntity
  8
SANINDUSA
100
AcDbLine
 10
2527.635497765956
 20
2996.760544240481
 30
-0.0000000000492531
 11
2527.635804128702
 21
2996.76240676198
 31
-0.0000000000492531
  0
ARC
  5
12D5
330
1F
100
AcDbEntity
  8
SANINDUSA
100
AcDbCircle
 10
2527.636089810131
 20
2996.76044685622
 30
-0.0000000000492531
 40
0.0006000000000005
100
AcDbArc
 50
170.6591659035287
 51
218.8488510053605
  0
ARC
  5
12D6
330
1F
100
AcDbEntity
  8
SANINDUSA
100
AcDbCircle
 10
2527.635310758556
 20
2996.762487915531
 30
-0.0000000000492531
 40
0.0005
100
AcDbArc
 50
350.6591659035287
 51
80.65916590352873
  0
ARC
  5
12D7
330
1F
100
AcDbEntity
  8
SANINDUSA
100
AcDbCircle
 10
2527.634891303271
 20
2996.75927237561
 30
-0.0000000000492531
 40
0.000175
100
AcDbArc
 50
8.000000012818244
 51
188.0000000128182
  0
ARC
  5
12D8
330
1F
100
AcDbEntity
  8
SANINDUSA
100
AcDbCircle
 10
2527.635155246012
 20
2996.759694134553
 30
-0.0000000000492531
 40
0.0006
100
AcDbArc
 50
350.6591659035287
 51
38.84885100536046
  0
ARC
  5
12D9
330
1F
100
AcDbEntity
  8
SANINDUSA
100
AcDbCircle
 10
2527.628361519982
 20
2996.76494759601
 30
-0.0000000000492531
 40
0.0005
100
AcDbArc
 50
189.3408340964712
 51
279.3408340964713
  0
ARC
  5
12DA
330
1F
100
AcDbEntity
  8
SANINDUSA
100
AcDbCircle
 10
2527.628031827453
 20
2996.76044685622
 30
-0.0000000000492531
 40
0.0006000000000005
100
AcDbArc
 50
321.1511489946395
 51
9.340834096471271
  0
LINE
  5
12DB
330
1F
100
AcDbEntity
  8
SANINDUSA
100
AcDbLine
 10
2527.628314739652
 20
2996.76242359742
 30
-0.0000000000492531
 11
2527.628623871629
 21
2996.760544240481
 31
-0.0000000000492531
  0
LINE
  5
12DC
330
1F
100
AcDbEntity
  8
SANINDUSA
100
AcDbLine
 10
2527.628932819258
 20
2996.763014692201
 30
-0.0000000000492531
 11
2527.628686134185
 21
2996.762974115426
 31
-0.0000000000492531
  0
LINE
  5
12DD
330
1F
100
AcDbEntity
  8
SANINDUSA
100
AcDbLine
 10
2527.628442673532
 20
2996.764454225864
 30
-0.0000000000492531
 11
2527.628689358606
 21
2996.76449480264
 31
-0.0000000000492531
  0
ARC
  5
12DE
330
1F
100
AcDbEntity
  8
SANINDUSA
100
AcDbCircle
 10
2527.628808109798
 20
2996.76250475097
 30
-0.0000000000492531
 40
0.0005
100
AcDbArc
 50
89.86344642577694
 51
189.3408340964712
  0
ARC
  5
12DF
330
1F
100
AcDbEntity
  8
SANINDUSA
100
AcDbCircle
 10
2527.628811088932
 20
2996.76375474742
 30
-0.0000000000492531
 40
0.00075
100
AcDbArc
 50
269.8634464257769
 51
99.34083409647127
  0
ARC
  5
12E0
330
1F
100
AcDbEntity
  8
SANINDUSA
100
AcDbCircle
 10
2527.629230334313
 20
2996.75927237561
 30
-0.0000000000492531
 40
0.000175
100
AcDbArc
 50
351.9999999871818
 51
171.9999999871817
  0
ARC
  5
12E1
330
1F
100
AcDbEntity
  8
SANINDUSA
100
AcDbCircle
 10
2527.628966391573
 20
2996.759694134553
 30
-0.0000000000492531
 40
0.0006
100
AcDbArc
 50
141.1511489946395
 51
189.3408340964712
  0
LINE
  5
12E2
330
1F
100
AcDbEntity
  8
SANINDUSA
100
AcDbLine
 10
2527.626460818793
 20
2996.766301051975
 30
-0.0000000000492531
 11
2527.626460818793
 21
2996.767294134553
 31
-0.0000000000492531
  0
LINE
  5
12E3
330
1F
100
AcDbEntity
  8
SANINDUSA
100
AcDbLine
 10
2527.627772344167
 20
2996.765448889638
 30
-0.0000000000492531
 11
2527.627868149835
 21
2996.764866442459
 31
-0.0000000000492531
  0
ARC
  5
12E4
330
1F
100
AcDbEntity
  8
SANINDUSA
100
AcDbCircle
 10
2527.628364388342
 20
2996.7655462739
 30
-0.0000000000492531
 40
0.0006
100
AcDbArc
 50
90.0
 51
189.3408340964712
  0
LINE
  5
12E5
330
1F
100
AcDbEntity
  8
SANINDUSA
100
AcDbLine
 10
2527.635757249242
 20
2996.766146273899
 30
-0.0000000000492531
 11
2527.628364388342
 21
2996.766146273899
 31
-0.0000000000492531
  0
LINE
  5
12E6
330
1F
100
AcDbEntity
  8
SANINDUSA
100
AcDbLine
 10
2527.629060818792
 20
2996.766146273899
 30
-0.0000000000492531
 11
2527.635060818792
 21
2996.766146273899
 31
-0.0000000000492529
  0
ARC
  5
12E7
330
1F
100
AcDbEntity
  8
SANINDUSA
100
AcDbCircle
 10
2528.105779063129
 20
2996.697764794544
 30
0.0
 40
0.4767182443368446
100
AcDbArc
 50
180.0
 51
223.6090203812479
  0
ARC
  5
12E8
330
1F
100
AcDbEntity
  8
SANINDUSA
100
AcDbCircle
 10
2528.105779063129
 20
2996.697764794544
 30
0.0
 40
0.4707182443368447
100
AcDbArc
 50
180.0
 51
223.6090203812479
  0
LINE
  5
12F0
330
1F
100
AcDbEntity
  8
SANINDUSA
100
AcDbLine
 10
2527.781108899564
 20
2996.356934997663
 30
0.0
 11
2527.77697049829
 21
2996.352590617971
 31
0.0
  0
LINE
  5
12F1
330
1F
100
AcDbEntity
  8
SANINDUSA
100
AcDbLine
 10
2527.764949266249
 20
2996.373094630977
 30
0.0
 11
2527.760604886557
 21
2996.368956229705
 31
0.0
  0
INSERT
  5
12F2
330
1F
100
AcDbEntity
  8
SANINDUSA
100
AcDbBlockReference
  2
guarnizione
 10
2527.778986957895
 20
2996.354813055994
 30
0.0
 41
0.001
 42
0.001
 43
0.001
 50
315.0
  0
INSERT
  5
12F3
330
1F
100
AcDbEntity
  8
SANINDUSA
100
AcDbBlockReference
  2
guarnizione
 10
2527.76282732458
 20
2996.370972689309
 30
0.0
 41
0.001
 42
0.001
 43
0.001
 50
135.0
  0
REGION
  5
1394
330
1F
100
AcDbEntity
  8
SANINDUSA
100
AcDbModelerGeometry
 70
     1
  1
koo hi n o          
  1
ni ^ *+0;:,4 ^ *+0\^ [ nf ^ LR mnjqoqoqkmnk QK o  
  1
n fqfffffffffffffffj:rooh n:rono 
  1
=0;& {rn {n {rn {rn |
  1
3*2/ {rn {rn {m {o |
  1
,7:33 {rn {rn {rn {l {rn {n |
  1
9><: {rn {rn {k {m {rn {j -:):-,:; ;0*=3: 0*+ |
  1
300/ {rn {rn {i {l |
  1
/3>1:r,*-9><: {rn mjmgqjolfnllmhkfkj mffiqmmoifgjiifhmh rnqjjjjjmgjmhhfjiji:rono o o rn oqoon rmqgmfholnlgkhlgiol:ronk o 90-(>-;@) V V V V |
  1
<0:;8: {rn {h {g {rn {f 90-(>-; {k {rn |
  1
<0:;8: {rn {no {i {rn {nn -:):-,:; {k {rn |
  1
<0:;8: {rn {i {nm {rn {nl -:):-,:; {k {rn |
  1
:;8: {rn {nk {nj {i {ni 90-(>-; |
  1
<0:;8: {rn {nh {h {rn {ng 90-(>-; {k {rn |
  1
:;8: {rn {nf {nj {h {mo 90-(>-; |
  1
<0:;8: {rn {g {mn {rn {mm 90-(>-; {k {rn |
  1
:;8: {rn {nk {ml {g {mk 90-(>-; |
  1
):-+:' {rn {f {mj |
  1
):-+:' {rn {f {mi |
  1
,+->687+r<*-): {rn mjmgqjoioiojkmkhfm mffiqmoggmoolommik rnqjjjjkglojloiojig:rono mqgloiknmhifmfiigj:ronk oqoon o V V |
  1
<0:;8: {rn {mh {no {rn {mg -:):-,:; {k {rn |
  1
:;8: {rn {nf {mf {no {lo 90-(>-; |
  1
):-+:' {rn {nn {ln |
  1
,+->687+r<*-): {rn mjmgqjojoiojkmkhff mffiqmlmhkijmjkinm rnqjjjjkglojloiojig:rono oqoon rmqgmigiijngikjfkmf:ronk o V V |
  1
<0:;8: {rn {nm {lm {rn {ll -:):-,:; {k {rn |
  1
:;8: {rn {lk {ml {nm {lj 90-(>-; |
  1
):-+:' {rn {mm {li |
  1
,+->687+r<*-): {rn mjmgqjoioiojkmkhfm mffiqmoggmoolommik rnqjjjjkglojloiojig:rono roqoon mqgknofkomihoijnkf:ronk o V V |
  1
/061+ {rn mjmgqjoioiojkmkhfm mffiqmoggmoolommik rnqjjjjkglojloiojig:rono |
  1
/061+ {rn mjmgqjoioiojkmkgon mffiqmlmhkijmjkinm rnqjjjjkglojloiojig:rono |
  1
<0:;8: {rn {lh {nh {rn {lg -:):-,:; {k {rn |
  1
:;8: {rn {lf {mf {nh {ko 90-(>-; |
  1
):-+:' {rn {ng {kn |
  1
:336/,:r<*-): {rn mjmgqjojoiojkmkhff mffiqmlnhkijmjkink rnqjjjjkglojloiojig:rono o o n roqoooffffffffffffggiin mqgmfholnlgkhljlgg:ronk o n V V |
  1
/061+ {rn mjmgqjojoiojkmkhff mffiqmlmhkijmjkinm rnqjjjjkglojloiojig:rono |
  1
<0:;8: {rn {mn {km {rn {kl -:):-,:; {k {rn |
  1
:;8: {rn {lk {kk {mn {kj 90-(>-; |
  1
):-+:' {rn {ll {ki |
  1
:336/,:r<*-): {rn mjmgqjojoiniinjiih mffiqmofgmoolommim rnqjjjjkglojloiojig:rono o o n roqoooffffffffffffggiin mqgmfholnlgkhljlgg:ronk o n V V |
  1
/061+ {rn mjmgqjojoiniinjiih mffiqmoggmoolommik rnqjjjjkglojloiojig:rono |
  1
<0:;8: {rn {kh {mh {rn {kg -:):-,:; {k {rn |
  1
:;8: {rn {kf {lf {mh {jo 90-(>-; |
  1
):-+:' {rn {mg {jn |
  1
,+->687+r<*-): {rn mjmgqjokoiojkmkgon mffiqmlohiohlfomlj rnqjjjjkglojloiojig:rono mqgmfifmolimklinkh:ronk oqoonoooooooooooooooj o V V |
  1
/061+ {rn mjmgqjokoiojkmkgon mffiqmlnhkijmjkink rnqjjjjkglojloiojig:rono |
  1
<0:;8: {rn {lm {jm {rn {jl -:):-,:; {k {rn |
  1
:;8: {rn {kk {jk {lm {jj 90-(>-; |
  1
):-+:' {rn {kl {ji |
  1
,+->687+r<*-): {rn mjmgqjokoinhojonkj mffiqmofgnohogjhln rnqjjjjkglojloiojig:rono rfqlmnijmfhglmklggi:rooi oqoooffffjijjmkkfolnni o V V |
  1
/061+ {rn mjmgqjokoinhojonkj mffiqmofgnohogjhln rnqjjjjkglojloiojig:rono |
  1
<0:;8: {rn {jh {lh {rn {jg 90-(>-; {k {rn |
  1
:;8: {rn {jf {kf {lh {io 90-(>-; |
  1
):-+:' {rn {lg {in |
  1
:336/,:r<*-): {rn mjmgqjomhnojkmkgon mffiqmlohiohlfomlj rnqjjjjkglojloiojig:rono o o n roqoonlkffffffffffhjlh lqgmonnliifglglljn:ronk o n V V |
  1
/061+ {rn mjmgqjokoiojkmkgon mffiqmlohiohlfomlj rnqjjjjkglojloiojig:rono |
  1
<0:;8: {rn {km {jh {rn {im 90-(>-; {k {rn |
  1
:;8: {rn {jk {il {km {ik 90-(>-; |
  1
):-+:' {rn {jl {ij |
  1
:336/,:r<*-): {rn mjmgqjomhokfhkoogl mffiqmnojmikihgmgj rnqjjjjkglojloiojig:rono o o n roqoonlkfffffffffffiff lqgmonnliifglgfki:ronk o n V V |
  1
/061+ {rn mjmgqjokojkfnjljkn mffiqmnojlfojmoion rnqjjjjkglojloiojig:rono |
  1
<0:;8: {rn {jm {kh {rn {ii -:):-,:; {k {rn |
  1
:;8: {rn {jf {ih {kh {ig 90-(>-; |
  1
):-+:' {rn {kg {if |
  1
,+->687+r<*-): {rn mjmgqjomhjofmlohmm mffiqmmggfnflnloif rnqjjjjkglojloiojig:rono oqooohohnoihgnmoijgfjl oqooohohnoihgnniijoji o V V |
  1
/061+ {rn mjmgqjoliijnliilkj mffiqmmfgoinkkgifn rnqjjjjkglojloiojig:rono |
  1
:;8: {rn {ho {il {jm {hn 90-(>-; |
  1
):-+:' {rn {im {hm |
  1
,+->687+r<*-): {rn mjmgqjolijgohfnmin mffiqmnnkgmjkghon rnqjjjjkglojloiojig:rono roqooohogmogojljhkmikjf oqooohoioolhfofinggklf o V V |
  1
/061+ {rn mjmgqjolijgohfnmin mffiqmnnkgmjkghon rnqjjjjkglojloiojig:rono |
  1
:;8: {rn {ho {ih {jh {hl 90-(>-; |
  1
):-+:' {rn {jg {hk |
  1
:336/,:r<*-): {rn mjmgqjolmnojkmkhfg mffiqmmgklmlnngfgg rnqjjjjkglojloiojig:rono o o n roqoooijoooooooooominjf nqglflofmiokjkhffn:ronk o n V V |
  1
/061+ {rn mjmgqjomhjofmlohmm mffiqmmggfnflnloif rnqjjjjkglojloiojig:rono |
  1
):-+:' {rn {ii {hj |
  1
:336/,:r<*-): {rn mjmgqjolmnojkmkhfl mffiqmnmgkijonhffj rnqjjjjkglojloiojig:rono o o n roqoooijoooooooooolnhmn nqglflnkgnnjhoohfm:ronk o n V V |
  1
/061+ {rn mjmgqjomhjnikoonjj mffiqmnmlginiijij rnqjjjjkglojloiojig:rono |
  1
,+->687+r<*-): {rn mjmgqjomjiojkmkhfk mffiqmnmgkijonhffj rnqjjjjkglojloiojig:rono mqgmfifmolimklinkh:ronk oqoonoooooooooooooooj o V V |
  1
/061+ {rn mjmgqjomjiojkmkhfg mffiqmmgklmlnngfgg rnqjjjjkglojloiojig:rono |
  1
/061+ {rn mjmgqjomjiojkmkhfk mffiqmnmgkijonhffj rnqjjjjkglojloiojig:rono |
  0
REGION
  5
1395
330
1F
100
AcDbEntity
  8
SANINDUSA
100
AcDbModelerGeometry
 70
     1
  1
koo nji n o         
  1
ni ^ *+0;:,4 ^ *+0\^ [ nf ^ LR mnjqoqoqkmnk QK o  
  1
n fqfffffffffffffffj:rooh n:rono 
  1
=0;& {rn {n {rn {rn |
  1
3*2/ {rn {rn {m {o |
  1
,7:33 {rn {rn {rn {l {rn {n |
  1
9><: {rn {rn {k {m {rn {j 90-(>-; ;0*=3: 0*+ |
  1
300/ {rn {rn {i {l |
  1
/3>1:r,*-9><: {rn mjmgqkfkikfjfknhkf mffiqmmohlnihlfgof rnqjjjjkglojloiojig:rono o o n roqoon mqgmfholnlgkhlgiol:ronk o 90-(>-;@) V V V V |
  1
<0:;8: {rn {h {g {rn {f 90-(>-; {k {rn |
  1
<0:;8: {rn {no {i {rn {nn 90-(>-; {k {rn |
  1
<0:;8: {rn {i {nm {rn {nl 90-(>-; {k {rn |
  1
:;8: {rn {nk {nj {i {ni 90-(>-; |
  1
<0:;8: {rn {nh {h {rn {ng 90-(>-; {k {rn |
  1
:;8: {rn {nj {nf {h {mo 90-(>-; |
  1
<0:;8: {rn {g {mn {rn {mm 90-(>-; {k {rn |
  1
:;8: {rn {ml {nk {g {mk 90-(>-; |
  1
):-+:' {rn {f {mj |
  1
):-+:' {rn {f {mi |
  1
:336/,:r<*-): {rn mjmgqjomhnojkmkgon mffiqmlnhkijmjkink rnqjjjjkglojloiojig:rono o o n oqooohohnoihgnmoilfjhf oqooohohnoihgnniijlgih o n V V |
  1
<0:;8: {rn {mh {no {rn {mg 90-(>-; {k {rn |
  1
:;8: {rn {nf {mf {no {lo 90-(>-; |
  1
):-+:' {rn {nn {ln |
  1
,+->687+r<*-): {rn mjmgqjomhnojkmkgon mffiqmlmhkijmjkinm rnqjjjjkglojloiojig:rono roqoon mqgmfholnlgkhlgiol:ronk o V V |
  1
<0:;8: {rn {nm {lm {rn {ll 90-(>-; {k {rn |
  1
:;8: {rn {lk {ml {nm {lj 90-(>-; |
  1
):-+:' {rn {mm {li |
  1
,+->687+r<*-): {rn mjmgqjolhnojkmkhff mffiqmlohiohlfomlj rnqjjjjkglojloiojig:rono mqgmfifmolimklinkh:ronk oqoonoooooooooooooooj o V V |
  1
/061+ {rn mjmgqjolhnojkmkhff mffiqmlnhkijmjkink rnqjjjjkglojloiojig:rono |
  1
/061+ {rn mjmgqjomhnojkmkgon mffiqmlmhkijmjkinm rnqjjjjkglojloiojig:rono |
  1
<0:;8: {rn {lh {nh {rn {lg 90-(>-; {k {rn |
  1
:;8: {rn {mf {lf {nh {ko 90-(>-; |
  1
):-+:' {rn {ng {kn |
  1
:336/,:r<*-): {rn mjmgqkihighmlglkhf mffiqmlnhkijmjkiml rnqjjjjkglojloiojig:rono o o n roqoon mqgmfholnlgkhlgiol:ronk o n V V |
  1
/061+ {rn mjmgqkihighmlglkhf mffiqmlmhkijmjkimn rnqjjjjkglojloiojig:rono |
  1
<0:;8: {rn {mn {km {rn {kl 90-(>-; {k {rn |
  1
:;8: {rn {kk {lk {mn {kj 90-(>-; |
  1
):-+:' {rn {ll {ki |
  1
:336/,:r<*-): {rn mjmgqjomhnojkmkgon mffiqmlohiohlfomlj rnqjjjjkglojloiojig:rono o o n oqooofmlghfjlmjoohkgln roqooolgmiglklmlfnljmhf o n V V |
  1
/061+ {rn mjmgqjolhnojkmkhff mffiqmlohiohlfomlj rnqjjjjkglojloiojig:rono |
  1
<0:;8: {rn {kh {mh {rn {kg 90-(>-; {k {rn |
  1
:;8: {rn {lf {kf {mh {jo 90-(>-; |
  1
):-+:' {rn {mg {jn |
  1
,+->687+r<*-): {rn mjmgqkihighmlglkhf mffiqmlohkijmjkimn rnqjjjjkglojloiojig:rono oqoonoooooooooooooooj rmqgmggfgmmihgnoogm:ronk o V V |
  1
/061+ {rn mjmgqkihighmlglkhf mffiqmlohkijmjkimn rnqjjjjkglojloiojig:rono |
  1
<0:;8: {rn {lm {jm {rn {jl 90-(>-; {k {rn |
  1
:;8: {rn {jk {kk {lm {jj 90-(>-; |
  1
):-+:' {rn {kl {ji |
  1
,+->687+r<*-): {rn mjmgqjomjolkljifgi mffiqmmfnlfkngig rnqjjjjkglojloiojig:rono oqooohohnoihgnmoiilljj oqooohohnoihgnniikinjg o V V |
  1
/061+ {rn mjmgqjolknhikfminl mffiqmloojlilmmkml rnqjjjjkglojloiojig:rono |
  1
<0:;8: {rn {jh {lh {rn {jg 90-(>-; {k {rn |
  1
:;8: {rn {kf {jf {lh {io 90-(>-; |
  1
):-+:' {rn {lg {in |
  1
:336/,:r<*-): {rn mjmgqkffmnojkmkhff mffiqmmfhkijmjkinj rnqjjjjkglojloiojig:rono o o rn oqooohohnoihgnmoijjijh oqooohohnoihgnniijlgih o n V V |
  1
/061+ {rn mjmgqkffmnojkmkhff mffiqmlohkijmjkinm rnqjjjjkglojloiojig:rono |
  1
<0:;8: {rn {km {im {rn {il 90-(>-; {k {rn |
  1
:;8: {rn {ik {jk {km {ij 90-(>-; |
  1
):-+:' {rn {jl {ii |
  1
:336/,:r<*-): {rn mjmgqjolmnojkmkhfg mffiqmmgklmlnngfgg rnqjjjjkglojloiojig:rono o o rn roqooofmlghfjlmjoohioji oqooolgmiglklmlfnljhim o n V V |
  1
/061+ {rn mjmgqjomjolkljifgi mffiqmmfnlfkngig rnqjjjjkglojloiojig:rono |
  1
<0:;8: {rn {ih {kh {rn {ig 90-(>-; {k {rn |
  1
:;8: {rn {jf {if {kh {ho 90-(>-; |
  1
):-+:' {rn {kg {hn |
  1
,+->687+r<*-): {rn mjmgqjoomnojkmkgon mffiqmmfhkijmjkinj rnqjjjjkglojloiojig:rono rmqgmfifmolimklinkh:ronk roqoonoooooooooooooooj o V V |
  1
/061+ {rn mjmgqjoomnojkmkgon mffiqmmfhkijmjkinj rnqjjjjkglojloiojig:rono |
  1
<0:;8: {rn {jm {hm {rn {hl 90-(>-; {k {rn |
  1
:;8: {rn {hk {ik {jm {hj 90-(>-; |
  1
):-+:' {rn {il {hi |
  1
,+->687+r<*-): {rn mjmgqjommnojkmkg mffiqmmjojhngjill rnqjjjjkglojloiojig:rono mqgmfifmolimklinkh:ronk oqoonoooooooooooooooj o V V |
  1
/061+ {rn mjmgqjommnojkmkg mffiqmmgklmlnngfgg rnqjjjjkglojloiojig:rono |
  1
<0:;8: {rn {hh {jh {rn {hg 90-(>-; {k {rn |
  1
:;8: {rn {if {hf {jh {go 90-(>-; |
  1
):-+:' {rn {jg {gn |
  1
:336/,:r<*-): {rn mjmgqkffmnojkmkhfk mffiqmnngghllfngkm rnqjjjjkglojloiojig:rono o o rn oqoooiflhnfjifoljiflgh roqooohmomkjmohfmljgofn o n V V |
  1
/061+ {rn mjmgqjoomnojkmkhfi mffiqmnngghllfngkm rnqjjjjkglojloiojig:rono |
  1
<0:;8: {rn {im {gm {rn {gl 90-(>-; {k {rn |
  1
:;8: {rn {gk {hk {im {gj 90-(>-; |
  1
):-+:' {rn {hl {gi |
  1
:336/,:r<*-): {rn mjmgqjonfiojkmkg mffiqmmjojhngjill rnqjjjjkglojloiojig:rono o o n oqooomlofifgglnmjkofon rfqjihogjgofhhihk:rooj o n V V |
  1
/061+ {rn mjmgqjommnojkmkg mffiqmmjojhngjill rnqjjjjkglojloiojig:rono |
  1
<0:;8: {rn {gh {ih {rn {gg 90-(>-; {k {rn |
  1
:;8: {rn {hf {gf {ih {fo 90-(>-; |
  1
):-+:' {rn {ig {fn |
  1
:336/,:r<*-): {rn mjmgqjomgooijofmon mffiqlohjkoogjnoim rnqjjjjkglojloiojig:rono o o rn roqonkgggmlgfiikjjgkf roqofjjihlklgiolihjfi o n V V |
  1
/061+ {rn mjmgqkffnhloliniol mffiqmnogggokmhfli rnqjjjjkglojloiojig:rono |
  1
<0:;8: {rn {hm {fm {rn {fl 90-(>-; {k {rn |
  1
:;8: {rn {fk {gk {hm {fj 90-(>-; |
  1
):-+:' {rn {gl {fi |
  1
,+->687+r<*-): {rn mjmgqjonijifgfogf mffiqmmkkooohggjnf rnqjjjjkglojloiojig:rono oqooohohnoihgnmoiinfki oqooohohnoihgnniikhi o V V |
  1
/061+ {rn mjmgqjomnlhlnfnhjl mffiqmmkggokogflhh rnqjjjjkglojloiojig:rono |
  1
<0:;8: {rn {fh {hh {rn {fg 90-(>-; {k {rn |
  1
:;8: {rn {gf {ff {hh {noo 90-(>-; |
  1
):-+:' {rn {hg {non |
  1
:336/,:r<*-): {rn mjmgqkhifgfjfnhmom mffiqmnkgkijmjking rnqjjjjkglojloiojig:rono o o rn roqoookfjlfhkhiighjjknf iqhigjjfhlhmnnhnhm:rooj o n V V |
  1
/061+ {rn mjmgqkhigjjkiiimlk mffiqmnklikgjogmmm rnqjjjjkglojloiojig:rono |
  1
<0:;8: {rn {gm {nom {rn {nol 90-(>-; {k {rn |
  1
:;8: {rn {nok {fk {gm {noj 90-(>-; |
  1
):-+:' {rn {fl {noi |
  1
:336/,:r<*-): {rn mjmgqjomonojkmkhfi mffiqmmkokijmjkinl rnqjjjjkglojloiojig:rono o o rn roqoookffffffffffffhkn nqkoignilloofinlml:ronk o n V V |
  1
/061+ {rn mjmgqjonijifgfogf mffiqmmkkooohggjnf rnqjjjjkglojloiojig:rono |
  1
<0:;8: {rn {noh {gh {rn {nog 90-(>-; {k {rn |
  1
:;8: {rn {ff {nof {gh {nno 90-(>-; |
  1
):-+:' {rn {gg {nnn |
  1
,+->687+r<*-): {rn mjmgqkhifgfjfnhmom mffiqmnjlkijmjkinf rnqjjjjkglojloiojig:rono oqoon rmqgmfholnlgkhlgiol:ronk o V V |
  1
/061+ {rn mjmgqkhifgfjfnhmom mffiqmnjlkijmjkinf rnqjjjjkglojloiojig:rono |
  1
<0:;8: {rn {fm {nnm {rn {nnl 90-(>-; {k {rn |
  1
:;8: {rn {nnk {nok {fm {nnj 90-(>-; |
  1
):-+:' {rn {nol {nni |
  1
,+->687+r<*-): {rn mjmgqjomnlhlnfnhkg mffiqmmlmnmiknfgkf rnqjjjjkglojloiojig:rono roqooohohnoihgnniiimmkg oqooohohnoihgnmoikhmfg o V V |
  1
/061+ {rn mjmgqjonijifgfogf mffiqmmlifmfhmohoh rnqjjjjkglojloiojig:rono |
  1
<0:;8: {rn {nnh {fh {rn {nng 90-(>-; {k {rn |
  1
:;8: {rn {nof {nnf {fh {nmo 90-(>-; |
  1
):-+:' {rn {fg {nmn |
  1
:336/,:r<*-): {rn mjmgqkgfighmlglkhk mffiqmnilkijmjkini rnqjjjjkglojloiojig:rono o o n oqoon rmqgmfholnlgkhlgiol:ronk o n V V |
  1
/061+ {rn mjmgqkgfighmlglkhk mffiqmnjlkijmjkink rnqjjjjkglojloiojig:rono |
  1
<0:;8: {rn {nom {nmm {rn {nml 90-(>-; {k {rn |
  1
:;8: {rn {nmk {nnk {nom {nmj 90-(>-; |
  1
):-+:' {rn {nnl {nmi |
  1
:336/,:r<*-): {rn mjmgqjonfiojkmkhfj mffiqmmloljgijmgfi rnqjjjjkglojloiojig:rono o o n oqooomlofifgglnlojlogn fqjihogjgogkifhiig:rooj o n V V |
  1
/061+ {rn mjmgqjomnlhlnfnhkg mffiqmmlmnmiknfgkf rnqjjjjkglojloiojig:rono |
  1
<0:;8: {rn {nmh {noh {rn {nmg 90-(>-; {k {rn |
  1
:;8: {rn {nnf {nmf {noh {nlo 90-(>-; |
  1
):-+:' {rn {nog {nln |
  1
,+->687+r<*-): {rn mjmgqkgfighmlglkhk mffiqmnhlkijmjking rnqjjjjkglojloiojig:rono roqoon mqgmfgknfniljnflgk:ronk o V V |
  1
/061+ {rn mjmgqkgfighmlglkhk mffiqmnhlkijmjking rnqjjjjkglojloiojig:rono |
  1
<0:;8: {rn {nnm {nlm {rn {nll 90-(>-; {k {rn |
  1
:;8: {rn {nlk {nmk {nnm {nlj 90-(>-; |
  1
):-+:' {rn {nml {nli |
  1
,+->687+r<*-): {rn mjmgqjommnojkmkhfi mffiqmnmgkijonhffj rnqjjjjkglojloiojig:rono mqgmfifmolimklinkh:ronk oqoonoooooooooooooooj o V V |
  1
/061+ {rn mjmgqjommnojkmkhfi mffiqmmloljgijmgfi rnqjjjjkglojloiojig:rono |
  1
<0:;8: {rn {nlh {nnh {rn {nlg 90-(>-; {k {rn |
  1
:;8: {rn {nmf {nlf {nnh {nko 90-(>-; |
  1
):-+:' {rn {nng {nkn |
  1
:336/,:r<*-): {rn mjmgqkihighmlglkhj mffiqmnilkijmjkimn rnqjjjjkglojloiojig:rono o o n roqooofglninmnnfhljojhg oqooongmhkollglhggnjg o n V V |
  1
/061+ {rn mjmgqkihighmlglkhj mffiqmnhlkijmjkiml rnqjjjjkglojloiojig:rono |
  1
<0:;8: {rn {nmm {nlh {rn {nkm 90-(>-; {k {rn |
  1
:;8: {rn {nkl {nlk {nmm {nkk 90-(>-; |
  1
):-+:' {rn {nll {nkj |
  1
:336/,:r<*-): {rn mjmgqjolmnojkmkhfl mffiqmnmgkijonhffj rnqjjjjkglojloiojig:rono o o rn roqooofmljgnonhmgimjgj roqooolglkollnglllknlkf o n V V |
  1
/061+ {rn mjmgqjommnojkmkhfi mffiqmnmgkijonhffj rnqjjjjkglojloiojig:rono |
  1
<0:;8: {rn {nlm {nmh {rn {nki 90-(>-; {k {rn |
  1
:;8: {rn {nlf {nkh {nmh {nkg 90-(>-; |
  1
):-+:' {rn {nmg {nkf |
  1
:336/,:r<*-): {rn mjmgqjomgooijofmon mffiqlohjkoogjnoim rnqjjjjkglojloiojig:rono o o n roqongogklgjjfnhjkhhj roqofhokfjljoknjhioig o n V V |
  1
/061+ {rn mjmgqkihlmhfnnfmmk mffiqmnjknllnljmj rnqjjjjkglojloiojig:rono |
  1
:;8: {rn {njo {nkl {nlm {njn 90-(>-; |
  1
):-+:' {rn {nkm {njm |
  1
,+->687+r<*-): {rn mjmgqjolknofhhhffk mffiqmnnmlkihjggmm rnqjjjjkglojloiojig:rono roqooohogmogojljhkmmonk oqooohoioolhfofinfmggk o V V |
  1
/061+ {rn mjmgqjomjokjlgiggl mffiqmnmnlgmflhkim rnqjjjjkglojloiojig:rono |
  1
:;8: {rn {nkh {njo {nlh {njl 90-(>-; |
  1
):-+:' {rn {nlg {njk |
  1
:336/,:r<*-): {rn mjmgqjomhnnjjfkioh mffiqmofgmoolommim rnqjjjjkglojloiojig:rono o o n oqooohnoohlfljiijogogh roqooohoknmhnmllgifkokj o n V V |
  1
/061+ {rn mjmgqjomhnoikhhion mffiqmoggmooloikmn rnqjjjjkglojloiojig:rono |
  1
):-+:' {rn {nki {njj |
  1
:336/,:r<*-): {rn mjmgqjomhokfhkoogl mffiqmnojmikihgmgj rnqjjjjkglojloiojig:rono o o n oqooofmnhglfgfikojggmj oqooolghholgjnkihhffgk o n V V |
  1
/061+ {rn mjmgqjolknofhhhffk mffiqmnnmlkihjggmm rnqjjjjkglojloiojig:rono |
  1
,+->687+r<*-): {rn mjmgqjolhnnjnionl mffiqmofgmfljnghfl rnqjjjjkglojloiojig:rono rfqlmnijmfhglhjnmkn:rooi oqoooffffjijjmkkfolohl o V V |
  1
/061+ {rn mjmgqjolhnnjnionl mffiqmofgmfljnghfl rnqjjjjkglojloiojig:rono |
  1
/061+ {rn mjmgqjolhokflojinn mffiqmnojljhgfkgni rnqjjjjkglojloiojig:rono |
  0
LINE
  5
1396
330
1F
100
AcDbEntity
  8
SANINDUSA
100
AcDbLine
 10
2528.191565214588
 20
2996.228446540585
 30
-0.0000000001555548
 11
2528.191565214588
 21
2996.232446540585
 31
-0.0000000001555548
  0
LINE
  5
1397
330
1F
100
AcDbEntity
  8
SANINDUSA
100
AcDbLine
 10
2528.161565214588
 20
2996.228446540586
 30
-0.0000000001555548
 11
2528.161565214589
 21
2996.232446540586
 31
-0.0000000001555548
  0
LINE
  5
1398
330
1F
100
AcDbEntity
  8
SANINDUSA
100
AcDbLine
 10
2528.244565214588
 20
2996.228446540584
 30
-0.0000000001555548
 11
2528.244565214588
 21
2996.232446540583
 31
-0.0000000001555548
  0
LINE
  5
1399
330
1F
100
AcDbEntity
  8
SANINDUSA
100
AcDbLine
 10
2528.108565214588
 20
2996.228446540587
 30
-0.0000000001555548
 11
2528.108565214588
 21
2996.232446540588
 31
-0.0000000001555548
  0
LINE
  5
139A
330
1F
100
AcDbEntity
  8
SANINDUSA
100
AcDbLine
 10
2528.46108851872
 20
2996.227046525462
 30
-0.0000000001555548
 11
2528.178065214588
 21
2996.227046525471
 31
0.000000000088514
  0
LWPOLYLINE
  5
139B
330
1F
100
AcDbEntity
  8
SANINDUSA
100
AcDbPolyline
 90
        2
 70
     0
 43
0.0
 38
-0.0000000001555548
 10
2528.191565214588
 20
2996.220746540585
 10
2528.244565214588
 20
2996.220746540583
1001
GENIUS_GENREC_14
1002
{
1000
PYDIR
1011
2527.762376389971
1021
2996.703456817066
1031
-0.0000000001555548
1002
}
1002
{
1000
PXDIR
1011
2527.763376389971
1021
2996.756456817067
1031
-0.0000000001555548
1002
}
1002
{
1000
PORI
1011
2527.763376389971
1021
2996.703456817066
1031
-0.0000000001555548
1002
}
1002
{
1000
PINS
1011
2527.763376389971
1021
2996.703456817066
1031
-0.0000000001555548
1002
}
1002
{
1000
PINS2
1011
2527.762376389971
1021
2996.756456817067
1031
-0.0000000001555548
1002
}
1002
{
1000
C
1070
     1
1002
}
1001
GENIUS_GENODEF_13
1002
{
1000
HIER
1070
     0
1002
}
1002
{
1000
MANEDIT
1070
     0
1002
}
1002
{
1000
NOSEL
1070
     0
1002
}
1002
{
1000
BEHIND
1070
     0
1002
}
1002
{
1000
REACTOR
1002
}
1001
GENIUS_GENOBJ-N-REC_13
1002
{
1000
OWNER
1000
GEN
1002
}
  0
LWPOLYLINE
  5
139C
330
1F
100
AcDbEntity
  8
SANINDUSA
100
AcDbPolyline
 90
        2
 70
     0
 43
0.0
 38
-0.0000000001555548
 10
2528.244565214588
 20
2996.219746540584
 10
2528.191565214588
 20
2996.219746540585
1001
GENIUS_GENREC_14
1002
{
1000
PYDIR
1011
2527.762376389971
1021
2996.703456817066
1031
-0.0000000001555548
1002
}
1002
{
1000
PXDIR
1011
2527.763376389971
1021
2996.756456817067
1031
-0.0000000001555548
1002
}
1002
{
1000
PORI
1011
2527.763376389971
1021
2996.703456817066
1031
-0.0000000001555548
1002
}
1002
{
1000
PINS
1011
2527.763376389971
1021
2996.703456817066
1031
-0.0000000001555548
1002
}
1002
{
1000
PINS2
1011
2527.762376389971
1021
2996.756456817067
1031
-0.0000000001555548
1002
}
1002
{
1000
C
1070
     1
1002
}
1001
GENIUS_GENODEF_13
1002
{
1000
HIER
1070
     0
1002
}
1002
{
1000
MANEDIT
1070
     0
1002
}
1002
{
1000
NOSEL
1070
     0
1002
}
1002
{
1000
BEHIND
1070
     0
1002
}
1002
{
1000
REACTOR
1002
}
1001
GENIUS_GENOBJ-N-REC_13
1002
{
1000
OWNER
1000
GEN
1002
}
  0
LWPOLYLINE
  5
139D
330
1F
100
AcDbEntity
  8
SANINDUSA
100
AcDbPolyline
 90
        4
 70
     1
 43
0.0
 38
-0.0000000001555548
 10
2528.244565214588
 20
2996.228246540584
 10
2528.191565214588
 20
2996.228246540585
 10
2528.191565214588
 20
2996.227246540584
 10
2528.244565214588
 20
2996.227246540583
1001
GENIUS_GENREC_14
1002
{
1000
PYDIR
1011
2527.762076389971
1021
2996.703456817066
1031
-0.0000000001555548
1002
}
1002
{
1000
PXDIR
1011
2527.763076389971
1021
2996.756456817067
1031
-0.0000000001555548
1002
}
1002
{
1000
PORI
1011
2527.763076389971
1021
2996.703456817066
1031
-0.0000000001555548
1002
}
1002
{
1000
PINS
1011
2527.763076389971
1021
2996.703456817066
1031
-0.0000000001555548
1002
}
1002
{
1000
PINS2
1011
2527.762076389971
1021
2996.756456817067
1031
-0.0000000001555548
1002
}
1002
{
1000
C
1070
     1
1002
}
1001
GENIUS_GENODEF_13
1002
{
1000
HIER
1070
     0
1002
}
1002
{
1000
MANEDIT
1070
     0
1002
}
1002
{
1000
NOSEL
1070
     0
1002
}
1002
{
1000
BEHIND
1070
     0
1002
}
1002
{
1000
REACTOR
1002
}
1001
GENIUS_GENOBJ-N-REC_13
1002
{
1000
OWNER
1000
GEN
1002
}
  0
LINE
  5
139E
330
1F
100
AcDbEntity
  8
SANINDUSA
100
AcDbLine
 10
2528.243565214588
 20
2996.209646488289
 30
-0.0000000001555548
 11
2528.184565214588
 21
2996.209646488291
 31
-0.0000000001555548
  0
LINE
  5
139F
330
1F
100
AcDbEntity
  8
SANINDUSA
100
AcDbLine
 10
2528.191565214588
 20
2996.219646488291
 30
-0.0000000001555548
 11
2528.244565214588
 21
2996.21964648829
 31
-0.0000000001555548
  0
LINE
  5
13A0
330
1F
100
AcDbEntity
  8
SANINDUSA
100
AcDbLine
 10
2528.191565214588
 20
2996.228446540585
 30
-0.0000000001555548
 11
2528.244565214588
 21
2996.228446540584
 31
-0.0000000001555548
  0
LINE
  5
13A1
330
1F
100
AcDbEntity
  8
SANINDUSA
100
AcDbLine
 10
2528.178065214588
 20
2996.221046525471
 30
-0.0000000001555548
 11
2528.178065214588
 21
2996.227046525471
 31
-0.0000000001555548
  0
LINE
  5
13A2
330
1F
100
AcDbEntity
  8
SANINDUSA
100
AcDbLine
 10
2528.191565214588
 20
2996.217646488291
 30
-0.0000000001555548
 11
2528.176565168992
 21
2996.217646488292
 31
-0.0000000001555548
  0
LINE
  5
13A3
330
1F
100
AcDbEntity
  8
SANINDUSA
100
AcDbLine
 10
2528.185454103477
 20
2996.209646488291
 30
-0.0000000001555548
 11
2528.185454103477
 21
2996.217646488291
 31
-0.0000000001555548
  0
LINE
  5
13A4
330
1F
100
AcDbEntity
  8
SANINDUSA
100
AcDbLine
 10
2528.191565214588
 20
2996.217646488291
 30
-0.0000000001555548
 11
2528.191565214588
 21
2996.219646488291
 31
-0.0000000001555548
  0
LINE
  5
13A5
330
1F
100
AcDbEntity
  8
SANINDUSA
100
AcDbLine
 10
2528.191565214588
 20
2996.219746540585
 30
-0.0000000001555548
 11
2528.191565214588
 21
2996.220746540585
 31
-0.0000000001555548
1001
GENIUS_GENREC_14
1002
{
1000
PYDIR
1011
2528.108565214588
1021
2996.220746540587
1031
-0.0000000001555548
1002
}
1002
{
1000
PXDIR
1011
2528.161565214588
1021
2996.219746540586
1031
-0.0000000001555548
1002
}
1002
{
1000
PORI
1011
2528.108565214588
1021
2996.219746540587
1031
-0.0000000001555548
1002
}
1002
{
1000
PINS
1011
2528.108565214588
1021
2996.219746540587
1031
-0.0000000001555548
1002
}
1002
{
1000
PINS2
1011
2528.161565214588
1021
2996.220746540585
1031
-0.0000000001555548
1002
}
1002
{
1000
C
1070
     1
1002
}
1001
GENIUS_GENODEF_13
1002
{
1000
HIER
1070
     0
1002
}
1002
{
1000
MANEDIT
1070
     0
1002
}
1002
{
1000
NOSEL
1070
     0
1002
}
1002
{
1000
BEHIND
1070
     0
1002
}
1002
{
1000
REACTOR
1002
}
1001
GENIUS_GENOBJ-N-REC_13
1002
{
1000
OWNER
1000
GEN
1002
}
  0
LINE
  5
13A6
330
1F
100
AcDbEntity
  8
SANINDUSA
100
AcDbLine
 10
2528.167676325698
 20
2996.209646488292
 30
-0.0000000001555548
 11
2528.167676325699
 21
2996.217646540586
 31
-0.0000000001555548
  0
LINE
  5
13A7
330
1F
100
AcDbEntity
  8
SANINDUSA
100
AcDbLine
 10
2528.161565214588
 20
2996.219646540586
 30
-0.0000000001555548
 11
2528.161565214588
 21
2996.217646540586
 31
-0.0000000001555548
  0
LINE
  5
13A8
330
1F
100
AcDbEntity
  8
SANINDUSA
100
AcDbLine
 10
2528.161565214588
 20
2996.219846540586
 30
-0.0000000001555548
 11
2528.161565214588
 21
2996.220846540586
 31
-0.0000000001555548
1001
GENIUS_GENREC_14
1002
{
1000
PYDIR
1011
2528.108565214588
1021
2996.220846540587
1031
-0.0000000001555548
1002
}
1002
{
1000
PXDIR
1011
2528.161565214588
1021
2996.219846540586
1031
-0.0000000001555548
1002
}
1002
{
1000
PORI
1011
2528.108565214588
1021
2996.219846540587
1031
-0.0000000001555548
1002
}
1002
{
1000
PINS
1011
2528.108565214588
1021
2996.219846540587
1031
-0.0000000001555548
1002
}
1002
{
1000
PINS2
1011
2528.161565214588
1021
2996.220846540586
1031
-0.0000000001555548
1002
}
1002
{
1000
C
1070
     1
1002
}
1001
GENIUS_GENODEF_13
1002
{
1000
HIER
1070
     0
1002
}
1002
{
1000
MANEDIT
1070
     0
1002
}
1002
{
1000
NOSEL
1070
     0
1002
}
1002
{
1000
BEHIND
1070
     0
1002
}
1002
{
1000
REACTOR
1002
}
1001
GENIUS_GENOBJ-N-REC_13
1002
{
1000
OWNER
1000
GEN
1002
}
  0
LINE
  5
13A9
330
1F
100
AcDbEntity
  8
SANINDUSA
100
AcDbLine
 10
2528.161565214588
 20
2996.217646540586
 30
-0.0000000001555548
 11
2528.176565214588
 21
2996.217646488292
 31
-0.0000000001555548
  0
CIRCLE
  5
13AA
330
1F
100
AcDbEntity
  8
SANINDUSA
100
AcDbCircle
 10
2528.176565214588
 20
2996.209646488292
 30
-0.0000000001555548
 40
0.008
  0
LINE
  5
13AB
330
1F
100
AcDbEntity
  8
SANINDUSA
100
AcDbLine
 10
2528.108565214588
 20
2996.220846540587
 30
-0.0000000001555548
 11
2528.108565214588
 21
2996.219846540587
 31
-0.0000000001555548
1001
GENIUS_GENREC_14
1002
{
1000
PYDIR
1011
2528.108565214588
1021
2996.220846540587
1031
-0.0000000001555548
1002
}
1002
{
1000
PXDIR
1011
2528.161565214588
1021
2996.219846540586
1031
-0.0000000001555548
1002
}
1002
{
1000
PORI
1011
2528.108565214588
1021
2996.219846540587
1031
-0.0000000001555548
1002
}
1002
{
1000
PINS
1011
2528.108565214588
1021
2996.219846540587
1031
-0.0000000001555548
1002
}
1002
{
1000
PINS2
1011
2528.161565214588
1021
2996.220846540586
1031
-0.0000000001555548
1002
}
1002
{
1000
C
1070
     1
1002
}
1001
GENIUS_GENODEF_13
1002
{
1000
HIER
1070
     0
1002
}
1002
{
1000
MANEDIT
1070
     0
1002
}
1002
{
1000
NOSEL
1070
     0
1002
}
1002
{
1000
BEHIND
1070
     0
1002
}
1002
{
1000
REACTOR
1002
}
1001
GENIUS_GENOBJ-N-REC_13
1002
{
1000
OWNER
1000
GEN
1002
}
  0
ARC
  5
13AC
330
1F
100
AcDbEntity
  8
SANINDUSA
100
AcDbCircle
 10
2528.109565214587
 20
2996.210646488293
 30
-0.0000000001555548
 40
0.001
100
AcDbArc
 50
180.0
 51
270.0
  0
LINE
  5
13AD
330
1F
100
AcDbEntity
  8
SANINDUSA
100
AcDbLine
 10
2528.108565214588
 20
2996.219646540587
 30
-0.0000000001555548
 11
2528.108565214588
 21
2996.210646488293
 31
-0.0000000001555548
  0
LWPOLYLINE
  5
13AE
330
1F
100
AcDbEntity
  8
SANINDUSA
100
AcDbPolyline
 90
        2
 70
     0
 43
0.0
 38
-0.0000000001555548
 10
2528.108565214588
 20
2996.219846540587
 10
2528.161565214588
 20
2996.219846540586
1001
GENIUS_GENREC_14
1002
{
1000
PYDIR
1011
2527.462994132892
1021
2997.002739074146
1031
-0.0000000001555548
1002
}
1002
{
1000
PXDIR
1011
2527.463994132892
1021
2997.055739074145
1031
-0.0000000001555548
1002
}
1002
{
1000
PORI
1011
2527.463994132892
1021
2997.002739074146
1031
-0.0000000001555548
1002
}
1002
{
1000
PINS
1011
2527.463994132892
1021
2997.002739074146
1031
-0.0000000001555548
1002
}
1002
{
1000
PINS2
1011
2527.462994132892
1021
2997.055739074145
1031
-0.0000000001555548
1002
}
1002
{
1000
C
1070
     1
1002
}
1001
GENIUS_GENODEF_13
1002
{
1000
HIER
1070
     0
1002
}
1002
{
1000
MANEDIT
1070
     0
1002
}
1002
{
1000
NOSEL
1070
     0
1002
}
1002
{
1000
BEHIND
1070
     0
1002
}
1002
{
1000
REACTOR
1002
}
1001
GENIUS_GENOBJ-N-REC_13
1002
{
1000
OWNER
1000
GEN
1002
}
  0
LWPOLYLINE
  5
13AF
330
1F
100
AcDbEntity
  8
SANINDUSA
100
AcDbPolyline
 90
        2
 70
     0
 43
0.0
 38
-0.0000000001555548
 10
2528.161565214588
 20
2996.220846540586
 10
2528.108565214588
 20
2996.220846540587
1001
GENIUS_GENREC_14
1002
{
1000
PYDIR
1011
2527.462994132892
1021
2997.002739074146
1031
-0.0000000001555548
1002
}
1002
{
1000
PXDIR
1011
2527.463994132892
1021
2997.055739074145
1031
-0.0000000001555548
1002
}
1002
{
1000
PORI
1011
2527.463994132892
1021
2997.002739074146
1031
-0.0000000001555548
1002
}
1002
{
1000
PINS
1011
2527.463994132892
1021
2997.002739074146
1031
-0.0000000001555548
1002
}
1002
{
1000
PINS2
1011
2527.462994132892
1021
2997.055739074145
1031
-0.0000000001555548
1002
}
1002
{
1000
C
1070
     1
1002
}
1001
GENIUS_GENODEF_13
1002
{
1000
HIER
1070
     0
1002
}
1002
{
1000
MANEDIT
1070
     0
1002
}
1002
{
1000
NOSEL
1070
     0
1002
}
1002
{
1000
BEHIND
1070
     0
1002
}
1002
{
1000
REACTOR
1002
}
1001
GENIUS_GENOBJ-N-REC_13
1002
{
1000
OWNER
1000
GEN
1002
}
  0
LWPOLYLINE
  5
13B0
330
1F
100
AcDbEntity
  8
SANINDUSA
100
AcDbPolyline
 90
        4
 70
     1
 43
0.0
 38
-0.0000000001555548
 10
2528.108565214588
 20
2996.228246540587
 10
2528.161565214588
 20
2996.228246540585
 10
2528.161565214588
 20
2996.227246540586
 10
2528.108565214588
 20
2996.227246540588
1001
GENIUS_GENREC_14
1002
{
1000
PYDIR
1011
2527.462794132893
1021
2997.002739074146
1031
-0.0000000001555548
1002
}
1002
{
1000
PXDIR
1011
2527.463794132892
1021
2997.055739074145
1031
-0.0000000001555548
1002
}
1002
{
1000
PORI
1011
2527.463794132892
1021
2997.002739074146
1031
-0.0000000001555548
1002
}
1002
{
1000
PINS
1011
2527.463794132892
1021
2997.002739074146
1031
-0.0000000001555548
1002
}
1002
{
1000
PINS2
1011
2527.462794132893
1021
2997.055739074145
1031
-0.0000000001555548
1002
}
1002
{
1000
C
1070
     1
1002
}
1001
GENIUS_GENODEF_13
1002
{
1000
HIER
1070
     0
1002
}
1002
{
1000
MANEDIT
1070
     0
1002
}
1002
{
1000
NOSEL
1070
     0
1002
}
1002
{
1000
BEHIND
1070
     0
1002
}
1002
{
1000
REACTOR
1002
}
1001
GENIUS_GENOBJ-N-REC_13
1002
{
1000
OWNER
1000
GEN
1002
}
  0
LINE
  5
13B1
330
1F
100
AcDbEntity
  8
SANINDUSA
100
AcDbLine
 10
2528.108565214588
 20
2996.219646540587
 30
-0.0000000001555548
 11
2528.161565214588
 21
2996.219646540586
 31
-0.0000000001555548
  0
LINE
  5
13B2
330
1F
100
AcDbEntity
  8
SANINDUSA
100
AcDbLine
 10
2528.161565214588
 20
2996.228446540586
 30
-0.0000000001555548
 11
2528.108565214588
 21
2996.228446540587
 31
-0.0000000001555548
  0
LINE
  5
13B3
330
1F
100
AcDbEntity
  8
SANINDUSA
100
AcDbLine
 10
2528.167676325698
 20
2996.209646488292
 30
-0.0000000001555548
 11
2528.109565214587
 21
2996.209646488293
 31
-0.0000000001555548
  0
LINE
  5
13B4
330
1F
100
AcDbEntity
  8
SANINDUSA
100
AcDbLine
 10
2528.244565214588
 20
2996.21964648829
 30
-0.0000000001555548
 11
2528.244565214587
 21
2996.210646488289
 31
-0.0000000001555548
  0
LINE
  5
13B5
330
1F
100
AcDbEntity
  8
SANINDUSA
100
AcDbLine
 10
2528.244565214588
 20
2996.220746540583
 30
-0.0000000001555548
 11
2528.244565214588
 21
2996.219746540584
 31
-0.0000000001555548
1001
GENIUS_GENREC_14
1002
{
1000
PYDIR
1011
2528.108565214588
1021
2996.220746540587
1031
-0.0000000001555548
1002
}
1002
{
1000
PXDIR
1011
2528.161565214588
1021
2996.219746540586
1031
-0.0000000001555548
1002
}
1002
{
1000
PORI
1011
2528.108565214588
1021
2996.219746540587
1031
-0.0000000001555548
1002
}
1002
{
1000
PINS
1011
2528.108565214588
1021
2996.219746540587
1031
-0.0000000001555548
1002
}
1002
{
1000
PINS2
1011
2528.161565214588
1021
2996.220746540585
1031
-0.0000000001555548
1002
}
1002
{
1000
C
1070
     1
1002
}
1001
GENIUS_GENODEF_13
1002
{
1000
HIER
1070
     0
1002
}
1002
{
1000
MANEDIT
1070
     0
1002
}
1002
{
1000
NOSEL
1070
     0
1002
}
1002
{
1000
BEHIND
1070
     0
1002
}
1002
{
1000
REACTOR
1002
}
1001
GENIUS_GENOBJ-N-REC_13
1002
{
1000
OWNER
1000
GEN
1002
}
  0
ARC
  5
13B6
330
1F
100
AcDbEntity
  8
SANINDUSA
100
AcDbCircle
 10
2528.243565214588
 20
2996.210646488289
 30
-0.0000000001555548
 40
0.001
100
AcDbArc
 50
270.0
 51
0.0
  0
REGION
  5
13B7
330
1F
100
AcDbEntity
  8
SANINDUSA
100
AcDbModelerGeometry
 70
     1
  1
koo nji n o         
  1
ni ^ *+0;:,4 ^ *+0\^ [ nf ^ LR mnjqoqoqkmnk QK o  
  1
n fqfffffffffffffffj:rooh n:rono 
  1
=0;& {rn {n {rn {rn |
  1
3*2/ {rn {rn {m {o |
  1
,7:33 {rn {rn {rn {l {rn {n |
  1
9><: {rn {rn {k {m {rn {j 90-(>-; ;0*=3: 0*+ |
  1
300/ {rn {rn {i {l |
  1
/3>1:r,*-9><: {rn mjmgqkiolongigff mffiqmmkokijmjkimm rnqjjjjkglojloiojig:rono o o n roqoon mqgmfholnlgkhlgiol:ronk o 90-(>-;@) V V V V |
  1
<0:;8: {rn {h {g {rn {f 90-(>-; {k {rn |
  1
<0:;8: {rn {no {i {rn {nn -:):-,:; {k {rn |
  1
<0:;8: {rn {i {nm {rn {nl -:):-,:; {k {rn |
  1
:;8: {rn {nk {nj {i {ni 90-(>-; |
  1
<0:;8: {rn {nh {h {rn {ng 90-(>-; {k {rn |
  1
:;8: {rn {nf {nj {h {mo 90-(>-; |
  1
<0:;8: {rn {g {mn {rn {mm 90-(>-; {k {rn |
  1
:;8: {rn {nk {ml {g {mk 90-(>-; |
  1
):-+:' {rn {f {mj |
  1
):-+:' {rn {f {mi |
  1
,+->687+r<*-): {rn mjmgqkjljgjlnjnggl mffiqmmgokijmjkimn rnqjjjjkglojloiojig:rono oqoon rmqgmgijlfhhhnjjgfk:ronk o V V |
  1
<0:;8: {rn {mh {no {rn {mg -:):-,:; {k {rn |
  1
:;8: {rn {nf {mf {no {lo 90-(>-; |
  1
):-+:' {rn {nn {ln |
  1
:336/,:r<*-): {rn mjmgqkjimhlfmgllgg mffiqmmhjkijmjkim rnqjjjjkglojloiojig:rono o o n roqooojoooooooooooomgjm nqknkgjnjifmlhonn:ronk o n V V |
  1
<0:;8: {rn {nm {lm {rn {ll -:):-,:; {k {rn |
  1
:;8: {rn {lk {ml {nm {lj 90-(>-; |
  1
):-+:' {rn {mm {li |
  1
:336/,:r<*-): {rn mjmgqkjljgjlnjnggl mffiqmmhjkijmjkimj rnqjjjjkglojloiojig:rono o o n roqooojooooooooooonligk nqknkgjnjifmlhlnhm:ronk o n V V |
  1
/061+ {rn mjmgqkjljgjlnjnggl mffiqmmgokijmjkimn rnqjjjjkglojloiojig:rono |
  1
/061+ {rn mjmgqkjimhlfmgllgg mffiqmmgokijmjkimn rnqjjjjkglojloiojig:rono |
  1
<0:;8: {rn {lh {nh {rn {lg 90-(>-; {k {rn |
  1
:;8: {rn {lf {mf {nh {ko 90-(>-; |
  1
):-+:' {rn {ng {kn |
  1
:336/,:r<*-): {rn mjmgqkjhiggnknfonn mffiqmmgokijmjkimn rnqjjjjkglojloiojig:rono o o n roqooofffffffffffffhlhg mqgmfhnkmkohokolmm:ronk o n V V |
  1
/061+ {rn mjmgqkjihkjllmgjfi mffiqmmhhnlnfmnmgh rnqjjjjkglojloiojig:rono |
  1
<0:;8: {rn {mn {km {rn {kl 90-(>-; {k {rn |
  1
:;8: {rn {lk {kk {mn {kj 90-(>-; |
  1
):-+:' {rn {ll {ki |
  1
:336/,:r<*-): {rn mjmgqkjmmnojkmkhff mffiqmmgnkijmjkiml rnqjjjjkglojloiojig:rono o o n roqoooffffffffffffghjlk mqgmfholnlgkhljohi:ronk o n V V |
  1
/061+ {rn mjmgqkjlnmhojhinf mffiqmmhhkijmjkimk rnqjjjjkglojloiojig:rono |
  1
<0:;8: {rn {kh {mh {rn {kg -:):-,:; {k {rn |
  1
:;8: {rn {lf {kf {mh {jo 90-(>-; |
  1
):-+:' {rn {mg {jn |
  1
:336/,:r<*-): {rn mjmgqkjfnomljjkilj mffiqmmhjkijmjkim rnqjjjjkglojloiojig:rono o o n roqoookffffffffffffkjg nqknkgjnjifmlihhh:ronk o n V V |
  1
/061+ {rn mjmgqkjgilofjofkmh mffiqmmhhnlnfmnmgh rnqjjjjkglojloiojig:rono |
  1
<0:;8: {rn {lm {jm {rn {jl -:):-,:; {k {rn |
  1
:;8: {rn {jk {kk {lm {jj 90-(>-; |
  1
):-+:' {rn {kl {ji |
  1
,+->687+r<*-): {rn mjmgqkjnmnojkmkgon mffiqmmgnkijmjkiml rnqjjjjkglojloiojig:rono mqgmfifmolimklinkh:ronk oqoonoooooooooooooooj o V V |
  1
/061+ {rn mjmgqkjnmnojkmkgon mffiqmmgnkijmjkiml rnqjjjjkglojloiojig:rono |
  1
<0:;8: {rn {jh {lh {rn {jg 90-(>-; {k {rn |
  1
:;8: {rn {jf {kf {lh {io 90-(>-; |
  1
):-+:' {rn {lg {in |
  1
,+->687+r<*-): {rn mjmgqkjfnomljjkilj mffiqmmgokijmjkimn rnqjjjjkglojloiojig:rono oqoon rmqgmfholnlgkhlgiol:ronk o V V |
  1
/061+ {rn mjmgqkjfnomljjkilj mffiqmmgokijmjkimn rnqjjjjkglojloiojig:rono |
  1
<0:;8: {rn {km {im {rn {il 90-(>-; {k {rn |
  1
:;8: {rn {jk {ik {km {ij 90-(>-; |
  1
):-+:' {rn {jl {ii |
  1
:336/,:r<*-): {rn mjmgqkjmmnojkmkhff mffiqmmfokijmjkiml rnqjjjjkglojloiojig:rono o o n roqoooffffffffffffghfmk mqgmfholnlgkhljngi:ronk o n V V |
  1
/061+ {rn mjmgqkjnmnojkmkgon mffiqmmfokijmjkiml rnqjjjjkglojloiojig:rono |
  1
<0:;8: {rn {ih {kh {rn {ig -:):-,:; {k {rn |
  1
:;8: {rn {jf {if {kh {ho 90-(>-; |
  1
):-+:' {rn {kg {hn |
  1
:336/,:r<*-): {rn mjmgqkioiggjnghm mffiqmmhjkijmjkim rnqjjjjkglojloiojig:rono o o n roqooojooooooooooooooon nqknkgjnjifmliflom:ronk o n V V |
  1
/061+ {rn mjmgqkioiggjnghm mffiqmmgokijmjkimn rnqjjjjkglojloiojig:rono |
  1
<0:;8: {rn {jm {hm {rn {hl -:):-,:; {k {rn |
  1
:;8: {rn {hk {ik {jm {hj 90-(>-; |
  1
):-+:' {rn {il {hi |
  1
,+->687+r<*-): {rn mjmgqkjmmnojkmkhff mffiqmlookijmjkimj rnqjjjjkglojloiojig:rono oqoon rmqgmfhfnfjilnjgloj:ronk o V V |
  1
/061+ {rn mjmgqkjmmnojkmkhff mffiqmlookijmjkimj rnqjjjjkglojloiojig:rono |
  1
<0:;8: {rn {hh {jh {rn {hg 90-(>-; {k {rn |
  1
:;8: {rn {hf {if {jh {go 90-(>-; |
  1
):-+:' {rn {jg {gn |
  1
,+->687+r<*-): {rn mjmgqkinnggjnghmon mffiqmmhjkijmjkim rnqjjjjkglojloiojig:rono rmqglmfkkfgfhojhiig:ronk roqoonoooooooooooooooj o V V |
  1
/061+ {rn mjmgqkinnggjnghmon mffiqmmhjkijmjkim rnqjjjjkglojloiojig:rono |
  1
<0:;8: {rn {im {gm {rn {gl -:):-,:; {k {rn |
  1
:;8: {rn {hk {gk {im {gj 90-(>-; |
  1
):-+:' {rn {hl {gi |
  1
:336/,:r<*-): {rn mjmgqkglhnojkmkhff mffiqmmfokijmjkink rnqjjjjkglojloiojig:rono o o n roqoon mqgmfholnlgkhlgiol:ronk o n V V |
  1
/061+ {rn mjmgqkglhnojkmkhff mffiqmlookijmjkini rnqjjjjkglojloiojig:rono |
  1
<0:;8: {rn {gh {ih {rn {gg -:):-,:; {k {rn |
  1
:;8: {rn {hf {gf {ih {fo 90-(>-; |
  1
):-+:' {rn {ig {fn |
  1
:336/,:r<*-): {rn mjmgqkioiggjnghm mffiqmmojkijmjkinf rnqjjjjkglojloiojig:rono o o n roqooojooooooooooooooon nqknkgjnjifmliflom:ronk o n V V |
  1
/061+ {rn mjmgqkinnggjnghnfi mffiqmmojkijmjkinf rnqjjjjkglojloiojig:rono |
  1
<0:;8: {rn {hm {fm {rn {fl -:):-,:; {k {rn |
  1
:;8: {rn {gk {fk {hm {fj 90-(>-; |
  1
):-+:' {rn {gl {fi |
  1
,+->687+r<*-): {rn mjmgqkglhnojkmkhff mffiqmmgokijmjkinm rnqjjjjkglojloiojig:rono roqoon mqglogkiiigngfmmkl:ronk o V V |
  1
/061+ {rn mjmgqkglhnojkmkhff mffiqmmgokijmjkinm rnqjjjjkglojloiojig:rono |
  1
<0:;8: {rn {fh {hh {rn {fg 90-(>-; {k {rn |
  1
:;8: {rn {ff {gf {hh {noo 90-(>-; |
  1
):-+:' {rn {hg {non |
  1
,+->687+r<*-): {rn mjmgqkioiggjnghm mffiqmmookijmjkiml rnqjjjjkglojloiojig:rono roqoonoooooooooooooooj mqgmhfmnmlojnfllhg:ronk o V V |
  1
/061+ {rn mjmgqkioiggjnghm mffiqmmookijmjkiml rnqjjjjkglojloiojig:rono |
  1
<0:;8: {rn {gm {nom {rn {nol -:):-,:; {k {rn |
  1
:;8: {rn {fk {nok {gm {noj 90-(>-; |
  1
):-+:' {rn {fl {noi |
  1
:336/,:r<*-): {rn mjmgqkiliggjnghmon mffiqmmhjkijmjkim rnqjjjjkglojloiojig:rono o o n roqooojooooooooooonnfni nqknkgjnjifmlhmihm:ronk o n V V |
  1
/061+ {rn mjmgqkiliggjnghmon mffiqmmgokijmjkimn rnqjjjjkglojloiojig:rono |
  1
<0:;8: {rn {noh {gh {rn {nog -:):-,:; {k {rn |
  1
:;8: {rn {ff {nof {gh {nno 90-(>-; |
  1
):-+:' {rn {gg {nnn |
  1
:336/,:r<*-): {rn mjmgqkjfnomljjkiln mffiqmmojkijmjkinf rnqjjjjkglojloiojig:rono o o n roqooojoooooooooooomgjm nqknkgjnjifmlhonn:ronk o n V V |
  1
/061+ {rn mjmgqkjfnomljjkiln mffiqmmookijmjkiml rnqjjjjkglojloiojig:rono |
  1
<0:;8: {rn {fm {nnm {rn {nnl -:):-,:; {k {rn |
  1
:;8: {rn {nok {nnk {fm {nnj 90-(>-; |
  1
):-+:' {rn {nol {nni |
  1
,+->687+r<*-): {rn mjmgqkilnggjnghm mffiqmmhjkijmjkim rnqjjjjkglojloiojig:rono rmqglnlohknohkkkkki:ronk roqoonoooooooooooooooj o V V |
  1
/061+ {rn mjmgqkilnggjnghm mffiqmmhjkijmjkim rnqjjjjkglojloiojig:rono |
  1
<0:;8: {rn {nnh {fh {rn {nng 90-(>-; {k {rn |
  1
:;8: {rn {nnf {nof {fh {nmo 90-(>-; |
  1
):-+:' {rn {fg {nmn |
  1
:336/,:r<*-): {rn mjmgqkjhiggnknfooh mffiqmmookijmjkiml rnqjjjjkglojloiojig:rono o o n roqoooffffffffffffffmij mqgmfhogigfjggfimg:ronk o n V V |
  1
/061+ {rn mjmgqkjgilofjofkml mffiqmmolhfgjghfjm rnqjjjjkglojloiojig:rono |
  1
<0:;8: {rn {nom {nmm {rn {nml 90-(>-; {k {rn |
  1
:;8: {rn {nnk {nmk {nom {nmj 90-(>-; |
  1
):-+:' {rn {nnl {nmi |
  1
:336/,:r<*-): {rn mjmgqkiliggjnghnfh mffiqmmojkijmjkinf rnqjjjjkglojloiojig:rono o o n roqooojooooooooooonoig nqknkgjklkkhfkhflg:ronk o n V V |
  1
/061+ {rn mjmgqkilnggjnghm mffiqmmojkijmjkinf rnqjjjjkglojloiojig:rono |
  1
<0:;8: {rn {nmh {noh {rn {nmg -:):-,:; {k {rn |
  1
:;8: {rn {nnf {nmf {noh {nlo 90-(>-; |
  1
):-+:' {rn {nog {nln |
  1
:336/,:r<*-): {rn mjmgqkjimhlfmgllgl mffiqmmojkijmjkimk rnqjjjjkglojloiojig:rono o o n roqoookffffffffffffikhh nqknkgkghflihfmif:ronk o n V V |
  1
/061+ {rn mjmgqkjihkjllmgjfn mffiqmmolhfgjghfjh rnqjjjjkglojloiojig:rono |
  1
<0:;8: {rn {nnm {nlm {rn {nll -:):-,:; {k {rn |
  1
:;8: {rn {nlk {nmk {nnm {nlj 90-(>-; |
  1
):-+:' {rn {nml {nli |
  1
,+->687+r<*-): {rn mjmgqkiliggjnghnfh mffiqmmookijmjking rnqjjjjkglojloiojig:rono oqoonoooooooooooooooj rmqgmfgkhkihkihoiml:ronk o V V |
  1
/061+ {rn mjmgqkiliggjnghnfh mffiqmmookijmjking rnqjjjjkglojloiojig:rono |
  1
<0:;8: {rn {nlh {nnh {rn {nlg 90-(>-; {k {rn |
  1
:;8: {rn {nlf {nmf {nnh {nko 90-(>-; |
  1
):-+:' {rn {nng {nkn |
  1
,+->687+r<*-): {rn mjmgqkjimhlfmgllgl mffiqmmookijmjkiml rnqjjjjkglojloiojig:rono roqoonoooooooooooooooj mqgloiljhmjgnkjkin:ronk o V V |
  1
/061+ {rn mjmgqkjimhlfmgllgl mffiqmmookijmjkiml rnqjjjjkglojloiojig:rono |
  1
<0:;8: {rn {nmm {nlh {rn {nkm 90-(>-; {k {rn |
  1
:;8: {rn {nlk {nkl {nmm {nkk 90-(>-; |
  1
):-+:' {rn {nll {nkj |
  1
:336/,:r<*-): {rn mjmgqkglhnojkmkhfj mffiqmnfokijmjkini rnqjjjjkglojloiojig:rono o o n roqoon mqgmfholnlgkhlgiol:ronk o n V V |
  1
/061+ {rn mjmgqkglhnojkmkhff mffiqmmookijmjkink rnqjjjjkglojloiojig:rono |
  1
<0:;8: {rn {nlm {nmh {rn {nki -:):-,:; {k {rn |
  1
:;8: {rn {nlf {nkh {nmh {nkg 90-(>-; |
  1
):-+:' {rn {nmg {nkf |
  1
:336/,:r<*-): {rn mjmgqkjljgjlnjnggl mffiqmmojkijmjkimk rnqjjjjkglojloiojig:rono o o n roqooojoooooooooooognnn nqknkgkghflihfjfgn:ronk o n V V |
  1
/061+ {rn mjmgqkjljgjlnjnggl mffiqmmookijmjkiml rnqjjjjkglojloiojig:rono |
  1
:;8: {rn {njo {nkl {nlm {njn 90-(>-; |
  1
):-+:' {rn {nkm {njm |
  1
,+->687+r<*-): {rn mjmgqkglhnojkmkhfj mffiqmngokijmjkink rnqjjjjkglojloiojig:rono roqoon mqgmfhfnfjilnjgloj:ronk o V V |
  1
/061+ {rn mjmgqkglhnojkmkhfj mffiqmngokijmjkink rnqjjjjkglojloiojig:rono |
  1
:;8: {rn {njo {nkh {nlh {njl 90-(>-; |
  1
):-+:' {rn {nlg {njk |
  1
:336/,:r<*-): {rn mjmgqkjmmnojkmkhff mffiqmnffkijmjkimn rnqjjjjkglojloiojig:rono o o n roqoooffffffffffffflioj mqgmfholnlgkhlihfm:ronk o n V V |
  1
/061+ {rn mjmgqkjlnmhojhingj mffiqmmolkijmjkimk rnqjjjjkglojloiojig:rono |
  1
):-+:' {rn {nki {njj |
  1
:336/,:r<*-): {rn mjmgqkjmmnojkmkhff mffiqmnfokijmjkimn rnqjjjjkglojloiojig:rono o o n roqoonoooooooooooonnli mqgmfholnlgkhkngmm:ronk o n V V |
  1
/061+ {rn mjmgqkjmmnojkmkhff mffiqmngokijmjkiml rnqjjjjkglojloiojig:rono |
  1
,+->687+r<*-): {rn mjmgqkjnmnojkmkhfh mffiqmnfokijmjkimj rnqjjjjkglojloiojig:rono mqgmfifmolimklinkh:ronk oqoonoooooooooooooooj o V V |
  1
/061+ {rn mjmgqkjnmnojkmkhfh mffiqmnffkijmjkimj rnqjjjjkglojloiojig:rono |
  1
/061+ {rn mjmgqkjnmnojkmkhfh mffiqmnfokijmjkimj rnqjjjjkglojloiojig:rono |
  0
LINE
  5
13B8
330
1F
100
AcDbEntity
  8
SANINDUSA
100
AcDbLine
 10
2528.46108851872
 20
2996.221046525463
 30
-0.0000000001555548
 11
2528.46108851872
 21
2996.227046525462
 31
-0.0000000001555548
  0
ARC
  5
13B9
330
1F
100
AcDbEntity
  8
SANINDUSA
100
AcDbCircle
 10
2528.176146095443
 20
2996.224046550194
 30
-0.0000000000492531
 40
0.0056623076923077
100
AcDbArc
 50
261.4923271320941
 51
98.5076728679059
  0
ARC
  5
13BA
330
1F
100
AcDbEntity
  8
SANINDUSA
100
AcDbCircle
 10
2528.176146095443
 20
2996.224046550194
 30
-0.0000000000492531
 40
0.0052623076923077
100
AcDbArc
 50
261.4923271320941
 51
98.5076728679059
  0
LINE
  5
13BB
330
1F
100
AcDbEntity
  8
SANINDUSA
100
AcDbLine
 10
2528.174315320557
 20
2996.229646550195
 30
-0.0000000000492531
 11
2528.162811018874
 21
2996.227754228702
 31
-0.0000000000492531
  0
LINE
  5
13BC
330
1F
100
AcDbEntity
  8
SANINDUSA
100
AcDbLine
 10
2528.175308403135
 20
2996.229646550195
 30
-0.0000000000492531
 11
2528.175308403135
 21
2996.218446550195
 31
-0.0000000000492531
  0
ARC
  5
13BD
330
1F
100
AcDbEntity
  8
SANINDUSA
100
AcDbCircle
 10
2528.172961864592
 20
2996.227745849006
 30
-0.0000000000492531
 40
0.0005
100
AcDbArc
 50
99.34083409647127
 51
189.3408340964712
  0
LINE
  5
13BE
330
1F
100
AcDbEntity
  8
SANINDUSA
100
AcDbLine
 10
2528.174315320557
 20
2996.229646550195
 30
-0.0000000000492531
 11
2528.175308403135
 21
2996.229646550195
 31
-0.0000000000492531
  0
LINE
  5
13BF
330
1F
100
AcDbEntity
  8
SANINDUSA
100
AcDbLine
 10
2528.172880711042
 20
2996.228239219152
 30
-0.0000000000492531
 11
2528.17346315822
 21
2996.228335024821
 31
-0.0000000000492531
  0
ARC
  5
13C0
330
1F
100
AcDbEntity
  8
SANINDUSA
100
AcDbCircle
 10
2528.173560542481
 20
2996.227742980645
 30
-0.0000000000492531
 40
0.0006
100
AcDbArc
 50
0.0
 51
99.34083409647127
  0
LINE
  5
13C1
330
1F
100
AcDbEntity
  8
SANINDUSA
100
AcDbLine
 10
2528.162811018874
 20
2996.220338871689
 30
-0.0000000000492531
 11
2528.174315320557
 21
2996.218446550195
 31
-0.0000000000492531
  0
LINE
  5
13C2
330
1F
100
AcDbEntity
  8
SANINDUSA
100
AcDbLine
 10
2528.16523467113
 20
2996.220750959885
 30
-0.0000000000492531
 11
2528.167310999485
 21
2996.221042768804
 31
-0.0000000000492531
  0
LINE
  5
13C3
330
1F
100
AcDbEntity
  8
SANINDUSA
100
AcDbLine
 10
2528.167611018874
 20
2996.2203600788
 30
-0.0000000000492531
 11
2528.16523467113
 21
2996.220750959885
 31
-0.0000000000492531
  0
LINE
  5
13C4
330
1F
100
AcDbEntity
  8
SANINDUSA
100
AcDbLine
 10
2528.16523467113
 20
2996.227342140506
 30
-0.0000000000492531
 11
2528.167611018874
 21
2996.22773302159
 31
-0.0000000000492531
  0
LINE
  5
13C5
330
1F
100
AcDbEntity
  8
SANINDUSA
100
AcDbLine
 10
2528.167310999485
 20
2996.227050331586
 30
-0.0000000000492531
 11
2528.16523467113
 21
2996.227342140506
 31
-0.0000000000492531
  0
LINE
  5
13C6
330
1F
100
AcDbEntity
  8
SANINDUSA
100
AcDbLine
 10
2528.1651335935
 20
2996.22700290639
 30
-0.0000000000492531
 11
2528.1672622889
 21
2996.226703737762
 31
-0.0000000000492531
  0
LINE
  5
13C7
330
1F
100
AcDbEntity
  8
SANINDUSA
100
AcDbLine
 10
2528.1672622889
 20
2996.221389362628
 30
-0.0000000000492531
 11
2528.1651335935
 21
2996.221090194
 31
-0.0000000000492531
  0
LINE
  5
13C8
330
1F
100
AcDbEntity
  8
SANINDUSA
100
AcDbLine
 10
2528.162308403135
 20
2996.226455428892
 30
-0.0000000000492531
 11
2528.163993374367
 21
2996.226732586721
 31
-0.0000000000492531
  0
LINE
  5
13C9
330
1F
100
AcDbEntity
  8
SANINDUSA
100
AcDbLine
 10
2528.162308403135
 20
2996.227162184527
 30
-0.0000000000492531
 11
2528.162308403135
 21
2996.226455428892
 31
-0.0000000000492531
  0
ARC
  5
13CA
330
1F
100
AcDbEntity
  8
SANINDUSA
100
AcDbCircle
 10
2528.162908403135
 20
2996.227162184527
 30
-0.0000000000492531
 40
0.0006
100
AcDbArc
 50
99.34083409647127
 51
180.0
  0
ARC
  5
13CB
330
1F
100
AcDbEntity
  8
SANINDUSA
100
AcDbCircle
 10
2528.165203180051
 20
2996.227498040425
 30
-0.0000000000492531
 40
0.0004999999999883
100
AcDbArc
 50
208.1263739672534
 51
261.9999999871818
  0
ARC
  5
13CC
330
1F
100
AcDbEntity
  8
SANINDUSA
100
AcDbCircle
 10
2528.164908403135
 20
2996.226680410548
 30
-0.0000000000492531
 40
0.0006000000000005
100
AcDbArc
 50
104.1008918120285
 51
147.5305192133523
  0
ARC
  5
13CD
330
1F
100
AcDbEntity
  8
SANINDUSA
100
AcDbCircle
 10
2528.163895990106
 20
2996.227324630897
 30
-0.0000000000492531
 40
0.0006
100
AcDbArc
 50
279.3408340964713
 51
327.5305192133523
  0
ARC
  5
13CE
330
1F
100
AcDbEntity
  8
SANINDUSA
100
AcDbCircle
 10
2528.162908403135
 20
2996.220930915864
 30
-0.0000000000492531
 40
0.0006
100
AcDbArc
 50
180.0
 51
260.6591659035288
  0
ARC
  5
13CF
330
1F
100
AcDbEntity
  8
SANINDUSA
100
AcDbCircle
 10
2528.164908403135
 20
2996.221412689843
 30
-0.0000000000492531
 40
0.0005999999999989
100
AcDbArc
 50
212.4694807866477
 51
255.8991081879715
  0
LINE
  5
13D0
330
1F
100
AcDbEntity
  8
SANINDUSA
100
AcDbLine
 10
2528.163993374367
 20
2996.221360513669
 30
-0.0000000000492531
 11
2528.162308403135
 21
2996.221637671498
 31
-0.0000000000492531
  0
LINE
  5
13D1
330
1F
100
AcDbEntity
  8
SANINDUSA
100
AcDbLine
 10
2528.162308403135
 20
2996.221637671498
 30
-0.0000000000492531
 11
2528.162308403135
 21
2996.220930915864
 31
-0.0000000000492531
  0
ARC
  5
13D2
330
1F
100
AcDbEntity
  8
SANINDUSA
100
AcDbCircle
 10
2528.163895990106
 20
2996.220768469493
 30
-0.0000000000492531
 40
0.0006
100
AcDbArc
 50
32.46948078664768
 51
80.65916590352873
  0
ARC
  5
13D3
330
1F
100
AcDbEntity
  8
SANINDUSA
100
AcDbCircle
 10
2528.165203180051
 20
2996.220595059966
 30
-0.0000000000492531
 40
0.0005
100
AcDbArc
 50
97.99999998701672
 51
151.8736260327466
  0
LINE
  5
13D4
330
1F
100
AcDbEntity
  8
SANINDUSA
100
AcDbLine
 10
2528.172509071222
 20
2996.227418010382
 30
-0.0000000000492531
 11
2528.172468494446
 21
2996.227664695455
 31
-0.0000000000492531
  0
ARC
  5
13D5
330
1F
100
AcDbEntity
  8
SANINDUSA
100
AcDbCircle
 10
2528.171769016002
 20
2996.227296280056
 30
-0.0000000000492531
 40
0.00075
100
AcDbArc
 50
189.3408340964712
 51
9.340834096471271
  0
LINE
  5
13D6
330
1F
100
AcDbEntity
  8
SANINDUSA
100
AcDbLine
 10
2528.170995554259
 20
2996.22737764351
 30
-0.0000000000492531
 11
2528.171028960783
 21
2996.22717454973
 31
-0.0000000000492531
  0
LINE
  5
13D7
330
1F
100
AcDbEntity
  8
SANINDUSA
100
AcDbLine
 10
2528.168558509063
 20
2996.227483497359
 30
-0.0000000000492531
 11
2528.170421030562
 21
2996.227789860105
 31
-0.0000000000492531
  0
ARC
  5
13D8
330
1F
100
AcDbEntity
  8
SANINDUSA
100
AcDbCircle
 10
2528.168461124802
 20
2996.228075541534
 30
-0.0000000000492531
 40
0.0006000000000005
100
AcDbArc
 50
231.1511489946395
 51
279.3408340964713
  0
ARC
  5
13D9
330
1F
100
AcDbEntity
  8
SANINDUSA
100
AcDbCircle
 10
2528.170502184113
 20
2996.227296489959
 30
-0.0000000000492531
 40
0.0005
100
AcDbArc
 50
9.340834096471271
 51
99.34083409647127
  0
ARC
  5
13DA
330
1F
100
AcDbEntity
  8
SANINDUSA
100
AcDbCircle
 10
2528.167286644193
 20
2996.226877034674
 30
-0.0000000000492531
 40
0.000175
100
AcDbArc
 50
261.9999999871818
 51
81.99999998718174
  0
ARC
  5
13DB
330
1F
100
AcDbEntity
  8
SANINDUSA
100
AcDbCircle
 10
2528.167708403135
 20
2996.227140977414
 30
-0.0000000000492531
 40
0.0006
100
AcDbArc
 50
51.15114899463955
 51
99.34083409647127
  0
ARC
  5
13DC
330
1F
100
AcDbEntity
  8
SANINDUSA
100
AcDbCircle
 10
2528.172961864592
 20
2996.220347251384
 30
-0.0000000000492531
 40
0.0005
100
AcDbArc
 50
170.6591659035287
 51
260.6591659035288
  0
ARC
  5
13DD
330
1F
100
AcDbEntity
  8
SANINDUSA
100
AcDbCircle
 10
2528.168461124801
 20
2996.220017558857
 30
-0.0000000000492531
 40
0.0006000000000005
100
AcDbArc
 50
80.65916590352873
 51
128.8488510053604
  0
LINE
  5
13DE
330
1F
100
AcDbEntity
  8
SANINDUSA
100
AcDbLine
 10
2528.170437866001
 20
2996.220300471055
 30
-0.0000000000492531
 11
2528.168558509063
 21
2996.220609603032
 31
-0.0000000000492531
  0
LINE
  5
13DF
330
1F
100
AcDbEntity
  8
SANINDUSA
100
AcDbLine
 10
2528.171028960783
 20
2996.220918550661
 30
-0.0000000000492531
 11
2528.170988384007
 21
2996.220671865588
 31
-0.0000000000492531
  0
LINE
  5
13E0
330
1F
100
AcDbEntity
  8
SANINDUSA
100
AcDbLine
 10
2528.172468494446
 20
2996.220428404935
 30
-0.0000000000492531
 11
2528.172509071221
 21
2996.220675090008
 31
-0.0000000000492531
  0
ARC
  5
13E1
330
1F
100
AcDbEntity
  8
SANINDUSA
100
AcDbCircle
 10
2528.170519019552
 20
2996.220793841201
 30
-0.0000000000492531
 40
0.0005
100
AcDbArc
 50
260.6591659035288
 51
0.1365535742230598
  0
ARC
  5
13E2
330
1F
100
AcDbEntity
  8
SANINDUSA
100
AcDbCircle
 10
2528.171769016002
 20
2996.220796820335
 30
-0.0000000000492531
 40
0.00075
100
AcDbArc
 50
350.6591659035287
 51
180.136553574223
  0
ARC
  5
13E3
330
1F
100
AcDbEntity
  8
SANINDUSA
100
AcDbCircle
 10
2528.167286644193
 20
2996.221216065717
 30
-0.0000000000492531
 40
0.000175
100
AcDbArc
 50
277.9999999870167
 51
97.99999998701672
  0
ARC
  5
13E4
330
1F
100
AcDbEntity
  8
SANINDUSA
100
AcDbCircle
 10
2528.167708403135
 20
2996.220952122976
 30
-0.0000000000492531
 40
0.0006
100
AcDbArc
 50
260.6591659035288
 51
308.8488510053605
  0
LINE
  5
13E5
330
1F
100
AcDbEntity
  8
SANINDUSA
100
AcDbLine
 10
2528.174315320557
 20
2996.218446550195
 30
-0.0000000000492531
 11
2528.175308403135
 21
2996.218446550195
 31
-0.0000000000492531
  0
LINE
  5
13E6
330
1F
100
AcDbEntity
  8
SANINDUSA
100
AcDbLine
 10
2528.17346315822
 20
2996.219758075569
 30
-0.0000000000492531
 11
2528.172880711041
 21
2996.219853881238
 31
-0.0000000000492531
  0
ARC
  5
13E7
330
1F
100
AcDbEntity
  8
SANINDUSA
100
AcDbCircle
 10
2528.173560542481
 20
2996.220350119745
 30
-0.0000000000492531
 40
0.0006
100
AcDbArc
 50
260.6591659035288
 51
0.0
  0
LINE
  5
13E8
330
1F
100
AcDbEntity
  8
SANINDUSA
100
AcDbLine
 10
2528.174160542481
 20
2996.227742980645
 30
-0.0000000000492531
 11
2528.174160542481
 21
2996.220350119745
 31
-0.0000000000492531
  0
LINE
  5
13E9
330
1F
100
AcDbEntity
  8
SANINDUSA
100
AcDbLine
 10
2528.174160542481
 20
2996.221046550195
 30
-0.0000000000492531
 11
2528.174160542481
 21
2996.227046550195
 31
-0.0000000000492529
  0
LINE
  5
13F0
330
1F
100
AcDbEntity
  8
SANINDUSA
100
AcDbLine
 10
2528.46108851872
 20
2996.221046525463
 30
0.0000000000769735
 11
2528.178065214588
 21
2996.221046525471
 31
0.0000000000737103
  0
LINE
  5
13F1
330
1F
100
AcDbEntity
  8
SANINDUSA
100
AcDbLine
 10
2528.243565214588
 20
2996.233446540584
 30
-0.0000000001555548
 11
2528.192565214589
 21
2996.233446540585
 31
-0.0000000001555548
  0
ARC
  5
13F2
330
1F
100
AcDbEntity
  8
SANINDUSA
100
AcDbCircle
 10
2528.192565214589
 20
2996.232446540585
 30
-0.0000000001555548
 40
0.001
100
AcDbArc
 50
90.0
 51
180.0
  0
ARC
  5
13F3
330
1F
100
AcDbEntity
  8
SANINDUSA
100
AcDbCircle
 10
2528.160565214588
 20
2996.232446540586
 30
-0.0000000001555548
 40
0.001
100
AcDbArc
 50
0.0
 51
90.0
  0
ARC
  5
13F4
330
1F
100
AcDbEntity
  8
SANINDUSA
100
AcDbCircle
 10
2528.109565214589
 20
2996.232446540587
 30
-0.0000000001555548
 40
0.001
100
AcDbArc
 50
90.0
 51
180.0
  0
LINE
  5
13F5
330
1F
100
AcDbEntity
  8
SANINDUSA
100
AcDbLine
 10
2528.109565214589
 20
2996.233446540587
 30
-0.0000000001555548
 11
2528.160565214588
 21
2996.233446540586
 31
-0.0000000001555548
  0
ARC
  5
13F6
330
1F
100
AcDbEntity
  8
SANINDUSA
100
AcDbCircle
 10
2528.243565214588
 20
2996.232446540583
 30
-0.0000000001555548
 40
0.001
100
AcDbArc
 50
0.0
 51
90.0
  0
REGION
  5
14EF
330
1F
100
AcDbEntity
  8
SANINDUSA
100
AcDbModelerGeometry
 70
     1
  1
koo nji n o         
  1
ni ^ *+0;:,4 ^ *+0\^ [ nf ^ LR mnjqoqoqkmnk QK o  
  1
n fqfffffffffffffffj:rooh n:rono 
  1
=0;& {rn {n {rn {rn |
  1
3*2/ {rn {rn {m {o |
  1
,7:33 {rn {rn {rn {l {rn {n |
  1
9><: {rn {rn {k {m {rn {j 90-(>-; ;0*=3: 0*+ |
  1
300/ {rn {rn {i {l |
  1
/3>1:r,*-9><: {rn mjmhqimghkjfkmjghi mffhqogiiljlmjjfmf rnqjjjjkglojloiojig:rono o o n mqmmokkiokfmjolnln:ronf roqoon o -:):-,:@) V V V V |
  1
<0:;8: {rn {h {g {rn {f -:):-,:; {k {rn |
  1
<0:;8: {rn {no {i {rn {nn -:):-,:; {k {rn |
  1
<0:;8: {rn {i {nm {rn {nl -:):-,:; {k {rn |
  1
:;8: {rn {nk {nj {i {ni 90-(>-; |
  1
<0:;8: {rn {nh {h {rn {ng -:):-,:; {k {rn |
  1
:;8: {rn {nf {nk {h {mo 90-(>-; |
  1
<0:;8: {rn {g {mn {rn {mm -:):-,:; {k {rn |
  1
:;8: {rn {nj {ml {g {mk 90-(>-; |
  1
):-+:' {rn {f {mj |
  1
):-+:' {rn {f {mi |
  1
:336/,:r<*-): {rn mjmhqilfhiohfkoig mffhqofkifimhlgfhi rnqjjjjkglojloiojig:rono o o rn oqooohohnoihgnngijkhhl oqooohohnoihgnngilgifk o n V V |
  1
<0:;8: {rn {mh {no {rn {mg -:):-,:; {k {rn |
  1
:;8: {rn {mf {nf {no {lo 90-(>-; |
  1
):-+:' {rn {ng {ln |
  1
,+->687+r<*-): {rn mjmhqilghhjoohilon mffhqofjifimhlgfhg rnqjjjjkglojloiojig:rono oqoonoooooooooooooooj nqnnommlomkimjnjii:ronf o V V |
  1
<0:;8: {rn {nm {lm {rn {ll -:):-,:; {k {rn |
  1
:;8: {rn {ml {lk {nm {lj 90-(>-; |
  1
):-+:' {rn {nl {li |
  1
,+->687+r<*-): {rn mjmhqikohiohfkoihg mffhqofkifimhlgfhi rnqjjjjkglojloiojig:rono mqmmokkiokfmjolnln:ronf roqoon o V V |
  1
/061+ {rn mjmhqilfhiohfkoig mffhqofjifimhlgfhg rnqjjjjkglojloiojig:rono |
  1
/061+ {rn mjmhqikohiohfkoihg mffhqofkifimhlgfhi rnqjjjjkglojloiojig:rono |
  1
<0:;8: {rn {lh {nh {rn {lg -:):-,:; {k {rn |
  1
:;8: {rn {lf {mf {nh {ko 90-(>-; |
  1
):-+:' {rn {mg {kn |
  1
:336/,:r<*-): {rn mjmhqilghhjoohilon mffhqofkifimhlgfhi rnqjjjjkglojloiojig:rono o o rn roqooolgmiglklmlijmofgi oqooofmlghfjlmjnnjhh o n V V |
  1
/061+ {rn mjmhqilghhjoohilon mffhqofjifimhlgfhg rnqjjjjkglojloiojig:rono |
  1
<0:;8: {rn {mn {km {rn {kl -:):-,:; {k {rn |
  1
:;8: {rn {lk {kk {mn {kj 90-(>-; |
  1
):-+:' {rn {mm {ki |
  1
:336/,:r<*-): {rn mjmhqilfhiohfkoig mffhqojfihmfifhijf rnqjjjjkglojloiojig:rono o o rn mqmmokkiokfmjolnln:ronf roqoon o n V V |
  1
/061+ {rn mjmhqikohiohfkoihg mffhqojfihmfifhijf rnqjjjjkglojloiojig:rono |
  1
<0:;8: {rn {kh {mh {rn {kg -:):-,:; {k {rn |
  1
:;8: {rn {kf {lf {mh {jo 90-(>-; |
  1
):-+:' {rn {lg {jn |
  1
,+->687+r<*-): {rn mjmhqilhnjlighmgii mffhqofkkgfnihnnij rnqjjjjkglojloiojig:rono oqooohohnoihgnngikhojl oqooohohnoihgnngiimkhn o V V |
  1
/061+ {rn mjmhqilgoihfoogkgf mffhqofjkollgoihgg rnqjjjjkglojloiojig:rono |
  1
<0:;8: {rn {lm {jm {rn {jl -:):-,:; {k {rn |
  1
:;8: {rn {kk {jk {lm {jj 90-(>-; |
  1
):-+:' {rn {ll {ji |
  1
,+->687+r<*-): {rn mjmhqilghiohfkoihg mffhqojfihmfifhijf rnqjjjjkglojloiojig:rono hqgmhohmlmliohljkk:rong oqoonoooooooooooooooj o V V |
  1
/061+ {rn mjmhqilghiohfkoihg mffhqojfihmfifhijf rnqjjjjkglojloiojig:rono |
  1
<0:;8: {rn {jh {lh {rn {jg -:):-,:; {k {rn |
  1
:;8: {rn {jf {kf {lh {io 90-(>-; |
  1
):-+:' {rn {kg {in |
  1
:336/,:r<*-): {rn mjmhqilikkijgojojk mffhqofjnfimhlgfhh rnqjjjjkglojloiojig:rono o o n oqooolgmiglklmlijmnkhf roqooofmlghfjlmjnnjgfnk o n V V |
  1
/061+ {rn mjmhqilhnjlighmgii mffhqofkkgfnihnnij rnqjjjjkglojloiojig:rono |
  1
<0:;8: {rn {km {im {rn {il -:):-,:; {k {rn |
  1
:;8: {rn {jk {ik {km {ij 90-(>-; |
  1
):-+:' {rn {kl {ii |
  1
:336/,:r<*-): {rn mjmhqilhhiohfkoign mffhqofnnfimhlgfhg rnqjjjjkglojloiojig:rono o o n oqooohohnoihgnngijkhjn oqooohohnoihgnngijkhhl o n V V |
  1
/061+ {rn mjmhqilghiohfkoihg mffhqofnnfimhlgfhg rnqjjjjkglojloiojig:rono |
  1
<0:;8: {rn {ih {kh {rn {ig -:):-,:; {k {rn |
  1
:;8: {rn {if {jf {kh {ho 90-(>-; |
  1
):-+:' {rn {jg {hn |
  1
,+->687+r<*-): {rn mjmhqillohnkjkmlfi mffhqofknfimhlgfg rnqjjjjkglojloiojig:rono oqoonoooooooooooooooj nqnnommlomkimjnjii:ronf o V V |
  1
/061+ {rn mjmhqilikkijgojojk mffhqofknfimhlgfg rnqjjjjkglojloiojig:rono |
  1
<0:;8: {rn {jm {hm {rn {hl -:):-,:; {k {rn |
  1
:;8: {rn {ik {hk {jm {hj 90-(>-; |
  1
):-+:' {rn {jl {hi |
  1
,+->687+r<*-): {rn mjmhqilhhiohfkoign mffhqofmnfimhlgfhi rnqjjjjkglojloiojig:rono roqoonoooooooooooooooj rnqnnommlomkimjnjii:ronf o V V |
  1
/061+ {rn mjmhqilhhiohfkoign mffhqofmnfimhlgfhi rnqjjjjkglojloiojig:rono |
  1
<0:;8: {rn {hh {jh {rn {hg -:):-,:; {k {rn |
  1
:;8: {rn {hf {if {jh {go 90-(>-; |
  1
):-+:' {rn {ig {gn |
  1
:336/,:r<*-): {rn mjmhqillohnkjkmlfi mffhqoflfkimhlgfhf rnqjjjjkglojloiojig:rono o o rn rfqjihogjgofnmlnig:rooj oqooomlofifgglnmgnnimn o n V V |
  1
/061+ {rn mjmhqillohnkjkmlfi mffhqofknfimhlgfg rnqjjjjkglojloiojig:rono |
  1
<0:;8: {rn {im {gm {rn {gl -:):-,:; {k {rn |
  1
:;8: {rn {hk {gk {im {gj 90-(>-; |
  1
):-+:' {rn {il {gi |
  1
:336/,:r<*-): {rn mjmhqinffoniohhfog mffhqofnnfimhlgfhg rnqjjjjkglojloiojig:rono o o n roqooohmomkjmohfolfjohg oqoooiflhnfjifojiohkkg o n V V |
  1
/061+ {rn mjmhqinffoniohhfog mffhqofmnfimhlgfhi rnqjjjjkglojloiojig:rono |
  1
<0:;8: {rn {gh {ih {rn {gg -:):-,:; {k {rn |
  1
:;8: {rn {gf {hf {ih {fo 90-(>-; |
  1
):-+:' {rn {hg {fn |
  1
,+->687+r<*-): {rn mjmhqilmknklkhkjgj mffhqoflikmhmojoh rnqjjjjkglojloiojig:rono oqooohohnoihgnngikgkfj oqooohohnoihgnngiinok o V V |
  1
/061+ {rn mjmhqilmgfkihhjkkl mffhqofknmlojojflm rnqjjjjkglojloiojig:rono |
  1
<0:;8: {rn {hm {fm {rn {fl -:):-,:; {k {rn |
  1
:;8: {rn {gk {fk {hm {fj 90-(>-; |
  1
):-+:' {rn {hl {fi |
  1
:336/,:r<*-): {rn mjmhqhnjjjkljlhnmg mffhqofkhgilgmlljg rnqjjjjkglojloiojig:rono o o n roqofjjihlklgiohgggfg roqonkgggmlgfilhjnjff o n V V |
  1
/061+ {rn mjmhqingfomlnnkoom mffhqofnnjghihjhgh rnqjjjjkglojloiojig:rono |
  1
<0:;8: {rn {fh {hh {rn {fg -:):-,:; {k {rn |
  1
:;8: {rn {ff {gf {hh {noo 90-(>-; |
  1
):-+:' {rn {gg {non |
  1
:336/,:r<*-): {rn mjmhqilmoiohfkoihf mffhqoflffimhlgfhi rnqjjjjkglojloiojig:rono o o n rgqomknlifnokhglngf:ronh roqoookffffffffffffhkn o n V V |
  1
/061+ {rn mjmhqilmknklkhkjgj mffhqoflikmhmojoh rnqjjjjkglojloiojig:rono |
  1
<0:;8: {rn {gm {nom {rn {nol -:):-,:; {k {rn |
  1
:;8: {rn {fk {nok {gm {noj 90-(>-; |
  1
):-+:' {rn {gl {noi |
  1
:336/,:r<*-): {rn mjmhqimmgiohfkoihf mffhqoigfhjlmlnlgn rnqjjjjkglojloiojig:rono o o n iqhigjjfhljgoffooh:rooj roqoookfjlfhkhiigfkifjk o n V V |
  1
/061+ {rn mjmhqimmlhfnnfkmgk mffhqoiggknnfgokng rnqjjjjkglojloiojig:rono |
  1
<0:;8: {rn {noh {gh {rn {nog -:):-,:; {k {rn |
  1
:;8: {rn {nof {ff {gh {nno 90-(>-; |
  1
):-+:' {rn {fg {nnn |
  1
,+->687+r<*-): {rn mjmhqilnmmifnojfnj mffhqofknmlojojflm rnqjjjjkglojloiojig:rono oqooohohnoihgnngikiknk roqooohohnoihgnngiilnjk o V V |
  1
/061+ {rn mjmhqilnhohmkoihhl mffhqoflikmhmojoh rnqjjjjkglojloiojig:rono |
  1
<0:;8: {rn {fm {nnm {rn {nnl -:):-,:; {k {rn |
  1
:;8: {rn {nok {nnk {fm {nnj 90-(>-; |
  1
):-+:' {rn {fl {nni |
  1
,+->687+r<*-): {rn mjmhqimlliohfkoig mffhqoigfhjlmlnlgn rnqjjjjkglojloiojig:rono rmqmmokkiokfmjolnln:ronf oqoon o V V |
  1
/061+ {rn mjmhqimlliohfkoig mffhqoigfhjlmlnlgn rnqjjjjkglojloiojig:rono |
  1
<0:;8: {rn {nnh {fh {rn {nng -:):-,:; {k {rn |
  1
:;8: {rn {nnf {nof {fh {nmo 90-(>-; |
  1
):-+:' {rn {nog {nmn |
  1
:336/,:r<*-): {rn mjmhqilnojonllgfim mffhqoflfkimhlgfhf rnqjjjjkglojloiojig:rono o o rn fqjihogjgofnmllkon:rooj oqooomlofifgglnmhgmlik o n V V |
  1
/061+ {rn mjmhqilnmmifnojfnj mffhqofknmlojojflm rnqjjjjkglojloiojig:rono |
  1
<0:;8: {rn {nom {nmm {rn {nml -:):-,:; {k {rn |
  1
:;8: {rn {nnk {nmk {nom {nmj 90-(>-; |
  1
):-+:' {rn {nol {nmi |
  1
:336/,:r<*-): {rn mjmhqimkliohfkoihg mffhqognihmfifhijg rnqjjjjkglojloiojig:rono o o rn rmqmmokkiokfmjolnln:ronf oqoon o n V V |
  1
/061+ {rn mjmhqimlliohfkoig mffhqognihmfifhijg rnqjjjjkglojloiojig:rono |
  1
<0:;8: {rn {nmh {noh {rn {nmg -:):-,:; {k {rn |
  1
:;8: {rn {nmf {nnf {noh {nlo 90-(>-; |
  1
):-+:' {rn {nng {nln |
  1
,+->687+r<*-): {rn mjmhqimogiohhokoin mffhqofknfimhlgfg rnqjjjjkglojloiojig:rono oqoonoooooooooooooooj nqnnommlomkimjnjii:ronf o V V |
  1
/061+ {rn mjmhqilnojonllgfim mffhqofknfimhlgfg rnqjjjjkglojloiojig:rono |
  1
<0:;8: {rn {nnm {nlm {rn {nll -:):-,:; {k {rn |
  1
:;8: {rn {nmk {nlk {nnm {nlj 90-(>-; |
  1
):-+:' {rn {nnl {nli |
  1
,+->687+r<*-): {rn mjmhqimjliohfkoig mffhqognihmfifhijg rnqjjjjkglojloiojig:rono nqiofgmllgjhoikhhl:rong roqoon o V V |
  1
/061+ {rn mjmhqimjliohfkoig mffhqognihmfifhijg rnqjjjjkglojloiojig:rono |
  1
<0:;8: {rn {nlh {nnh {rn {nlg -:):-,:; {k {rn |
  1
:;8: {rn {nlf {nmf {nnh {nko 90-(>-; |
  1
):-+:' {rn {nmg {nkn |
  1
:336/,:r<*-): {rn mjmhqimogiohhokoin mffhqofjnfimhlgfhh rnqjjjjkglojloiojig:rono o o n roqooolglkollngljfjkhgi roqooofmljgnonhmhjkofkl o n V V |
  1
/061+ {rn mjmhqimogiohhokoin mffhqofknfimhlgfg rnqjjjjkglojloiojig:rono |
  1
<0:;8: {rn {nmm {nlh {rn {nkm -:):-,:; {k {rn |
  1
:;8: {rn {nlk {nkl {nmm {nkk 90-(>-; |
  1
):-+:' {rn {nml {nkj |
  1
:336/,:r<*-): {rn mjmhqimkliohfkoihg mffhqojfihmfifhijf rnqjjjjkglojloiojig:rono o o rn oqooongmhkollgljoffjkh roqooofglninmnnfhgihiff o n V V |
  1
/061+ {rn mjmhqimjliohfkoig mffhqojfihmfifhijf rnqjjjjkglojloiojig:rono |
  1
<0:;8: {rn {nlm {nmh {rn {nki -:):-,:; {k {rn |
  1
:;8: {rn {nkh {nlf {nmh {nkg 90-(>-; |
  1
):-+:' {rn {nlg {nkf |
  1
,+->687+r<*-): {rn mjmhqinfmkgfkkkggg mffhqofjlfihofmnhg rnqjjjjkglojloiojig:rono oqooohoioolhfofkngggih roqooohogmogojljfknfhfh o V V |
  1
/061+ {rn mjmhqimonjmjimljmg mffhqofkkfomhonoih rnqjjjjkglojloiojig:rono |
  1
:;8: {rn {nkl {njo {nlm {njn 90-(>-; |
  1
):-+:' {rn {nll {njm |
  1
:336/,:r<*-): {rn mjmhqhnjjjkljlhnmg mffhqofkhgilgmlljg rnqjjjjkglojloiojig:rono o o rn roqofhokfjljokmoghhfg roqongogklgjjgfoogjgl o n V V |
  1
/061+ {rn mjmhqimlkmhjgmnlol mffhqojflnlikllkog rnqjjjjkglojloiojig:rono |
  1
:;8: {rn {njo {nkh {nlh {njl 90-(>-; |
  1
):-+:' {rn {nki {njk |
  1
:336/,:r<*-): {rn mjmhqingjkohlikljn mffhqofkifohojkmih rnqjjjjkglojloiojig:rono o o rn oqooolghholgjnkflgglln oqooofmnhglfgfimfinhjl o n V V |
  1
/061+ {rn mjmhqinfmkgfkkkggg mffhqofjlfihofmnhg rnqjjjjkglojloiojig:rono |
  1
):-+:' {rn {nkm {njj |
  1
:336/,:r<*-): {rn mjmhqinhglkmfgglmg mffhqofkifhmfoghfn rnqjjjjkglojloiojig:rono o o rn roqooohoknmhnmlliigkhjg oqooohnoohlfljigjoojmi o n V V |
  1
/061+ {rn mjmhqiniglkmffmkgh mffhqofkifilhfnhgj rnqjjjjkglojloiojig:rono |
  1
,+->687+r<*-): {rn mjmhqinhgklimokgjf mffhqofjifhmkhklnk rnqjjjjkglojloiojig:rono oqoooffffjijjmkkghihoj rfqlmnijlooiihohoh:rooi o V V |
  1
/061+ {rn mjmhqingjjoojgoggm mffhqofjifoiinfhfj rnqjjjjkglojloiojig:rono |
  1
/061+ {rn mjmhqinhgklimokgjf mffhqofjifhmkhklnk rnqjjjjkglojloiojig:rono |
  0
REGION
  5
14F0
330
1F
100
AcDbEntity
  8
SANINDUSA
100
AcDbModelerGeometry
 70
     1
  1
koo hi n o          
  1
ni ^ *+0;:,4 ^ *+0\^ [ nf ^ LR mnjqoqoqkmnk QK o  
  1
n fqfffffffffffffffj:rooh n:rono 
  1
=0;& {rn {n {rn {rn |
  1
3*2/ {rn {rn {m {o |
  1
,7:33 {rn {rn {rn {l {rn {n |
  1
9><: {rn {rn {k {m {rn {j -:):-,:; ;0*=3: 0*+ |
  1
300/ {rn {rn {i {l |
  1
/3>1:r,*-9><: {rn mjmhqimghnmgljjhfl mffhqofjgffojgfnmk rnqjjjjjmgjmhhfjiji:rono o o rn rmqmmokkiokfmjolnln:ronf oqoon o -:):-,:@) V V V V |
  1
<0:;8: {rn {h {g {rn {f -:):-,:; {k {rn |
  1
<0:;8: {rn {no {i {rn {nn 90-(>-; {k {rn |
  1
<0:;8: {rn {i {nm {rn {nl 90-(>-; {k {rn |
  1
:;8: {rn {nk {nj {i {ni 90-(>-; |
  1
<0:;8: {rn {nh {h {rn {ng -:):-,:; {k {rn |
  1
:;8: {rn {nk {nf {h {mo 90-(>-; |
  1
<0:;8: {rn {g {mn {rn {mm -:):-,:; {k {rn |
  1
:;8: {rn {ml {nj {g {mk 90-(>-; |
  1
):-+:' {rn {f {mj |
  1
):-+:' {rn {f {mi |
  1
,+->687+r<*-): {rn mjmhqiniglkmfgglln mffhqofgokimhlgfhi rnqjjjjkglojloiojig:rono oqoon fqiolkmfniloohiokf:rong o V V |
  1
<0:;8: {rn {mh {no {rn {mg 90-(>-; {k {rn |
  1
:;8: {rn {mf {nf {no {lo 90-(>-; |
  1
):-+:' {rn {ng {ln |
  1
,+->687+r<*-): {rn mjmhqiniglkmfgglln mffhqofgokimhlgfhi rnqjjjjkglojloiojig:rono nqnknlofmiflnkiin:roni roqoon o V V |
  1
<0:;8: {rn {nm {lm {rn {ll 90-(>-; {k {rn |
  1
:;8: {rn {ml {lk {nm {lj 90-(>-; |
  1
):-+:' {rn {nl {li |
  1
,+->687+r<*-): {rn mjmhqikohiohfkoihg mffhqofhokimhlgfhg rnqjjjjkglojloiojig:rono mqgnkknjlihkmkhhnf:ronh oqoon o V V |
  1
/061+ {rn mjmhqiniglkmfgglln mffhqofgokimhlgfhi rnqjjjjkglojloiojig:rono |
  1
/061+ {rn mjmhqikohiohfkoihg mffhqofgokimhlgfhi rnqjjjjkglojloiojig:rono |
  1
<0:;8: {rn {lh {nh {rn {lg 90-(>-; {k {rn |
  1
:;8: {rn {mf {lf {nh {ko 90-(>-; |
  1
):-+:' {rn {mg {kn |
  1
:336/,:r<*-): {rn mjmhqinhglkmfgglmg mffhqofhokhlfmfgjn rnqjjjjkglojloiojig:rono o o rn mqmmokkiokfmjolnln:ronf roqoooffffffffffffggiin o n V V |
  1
/061+ {rn mjmhqiniglkmfgglln mffhqofhokhlfmfgjn rnqjjjjkglojloiojig:rono |
  1
<0:;8: {rn {mn {km {rn {kl 90-(>-; {k {rn |
  1
:;8: {rn {kk {lk {mn {kj 90-(>-; |
  1
):-+:' {rn {mm {ki |
  1
:336/,:r<*-): {rn mjmhqilfhiohfkoig mffhqofhokimhlgfhg rnqjjjjkglojloiojig:rono o o rn mqmmokkiokfmjolnln:ronf roqoooffffffffffffggiin o n V V |
  1
/061+ {rn mjmhqikohiohfkoihg mffhqofhokimhlgfhg rnqjjjjkglojloiojig:rono |
  1
<0:;8: {rn {kh {mh {rn {kg 90-(>-; {k {rn |
  1
:;8: {rn {lf {kf {mh {jo 90-(>-; |
  1
):-+:' {rn {lg {jn |
  1
,+->687+r<*-): {rn mjmhqinhgmkfhhngon mffhqofiokhkliklmf rnqjjjjkglojloiojig:rono oqoooffffjijjmkkghihkg rfqlmnijlooiinffig:rooi o V V |
  1
/061+ {rn mjmhqinhgmkfhhngon mffhqofiokhkliklmf rnqjjjjkglojloiojig:rono |
  1
<0:;8: {rn {lm {jm {rn {jl 90-(>-; {k {rn |
  1
:;8: {rn {jk {kk {lm {jj 90-(>-; |
  1
):-+:' {rn {ll {ji |
  1
,+->687+r<*-): {rn mjmhqilghhjoohilon mffhqofiokimhlgfhi rnqjjjjkglojloiojig:rono oqoonoooooooooooooooj nqnnommlomkimjnjii:ronf o V V |
  1
/061+ {rn mjmhqilfhiohfkoig mffhqofiokimhlgfhi rnqjjjjkglojloiojig:rono |
  1
<0:;8: {rn {jh {lh {rn {jg -:):-,:; {k {rn |
  1
:;8: {rn {kf {jf {lh {io 90-(>-; |
  1
):-+:' {rn {kg {in |
  1
:336/,:r<*-): {rn mjmhqingjkohlikljn mffhqofkifohojkmih rnqjjjjkglojloiojig:rono o o rn kqkkogfmofgjooimil:ronf roqoonlkfffffffffffiff o n V V |
  1
/061+ {rn mjmhqingjjllmoiiih mffhqofiokoikihhmj rnqjjjjkglojloiojig:rono |
  1
<0:;8: {rn {km {jh {rn {im -:):-,:; {k {rn |
  1
:;8: {rn {il {jk {km {ik 90-(>-; |
  1
):-+:' {rn {kl {ij |
  1
:336/,:r<*-): {rn mjmhqilghhjoohilon mffhqofkifimhlgfhi rnqjjjjkglojloiojig:rono o o rn kqkkogfmofgjooimil:ronf roqoonlkffffffffffhjlh o n V V |
  1
/061+ {rn mjmhqilghhjoohilon mffhqofiokimhlgfhi rnqjjjjkglojloiojig:rono |
  1
<0:;8: {rn {jm {kh {rn {ii 90-(>-; {k {rn |
  1
:;8: {rn {ih {jf {kh {ig 90-(>-; |
  1
):-+:' {rn {jg {if |
  1
,+->687+r<*-): {rn mjmhqinfkfignhlohh mffhqofjiklgnojkkj rnqjjjjkglojloiojig:rono oqooohoioolhfofkngkklm roqooohogmogojljfkmkmn o V V |
  1
/061+ {rn mjmhqinfkfignhlohh mffhqofjiklgnojkkj rnqjjjjkglojloiojig:rono |
  1
:;8: {rn {il {ho {jm {hn 90-(>-; |
  1
):-+:' {rn {jl {hm |
  1
,+->687+r<*-): {rn mjmhqilifoinfffnlj mffhqofkhliijkkfon rnqjjjjkglojloiojig:rono oqooohohnoihgnngijnkjj oqooohohnoihgnngijgoif o V V |
  1
/061+ {rn mjmhqilhgmoknlkhjg mffhqofjijogigojmk rnqjjjjkglojloiojig:rono |
  1
:;8: {rn {ih {ho {jh {hl 90-(>-; |
  1
):-+:' {rn {ii {hk |
  1
:336/,:r<*-): {rn mjmhqimogiohhokoin mffhqofjnfimhlgfhh rnqjjjjkglojloiojig:rono o o rn mqmmokkiokfmjolnln:ronf roqoooijoooooooooolnhmn o n V V |
  1
/061+ {rn mjmhqimokookljnhni mffhqofkhlhlhnkllf rnqjjjjkglojloiojig:rono |
  1
):-+:' {rn {im {hj |
  1
:336/,:r<*-): {rn mjmhqilikkijgojojk mffhqofjnfimhlgfhh rnqjjjjkglojloiojig:rono o o rn nqiijllkjliflhhljn:ronf roqoooijoooooooooominjf o n V V |
  1
/061+ {rn mjmhqilifoinfffnlj mffhqofkhliijkkfon rnqjjjjkglojloiojig:rono |
  1
,+->687+r<*-): {rn mjmhqimogiohhokoin mffhqofkjkimhlgfhg rnqjjjjkglojloiojig:rono oqoonoooooooooooooooj nqnnommlomkimjnjii:ronf o V V |
  1
/061+ {rn mjmhqimogiohhokoin mffhqofkjkimhlgfhg rnqjjjjkglojloiojig:rono |
  1
/061+ {rn mjmhqilikkijgojojk mffhqofkjkimhlgfhg rnqjjjjkglojloiojig:rono |
  0
LINE
  5
14F1
330
1F
100
AcDbEntity
  8
SANINDUSA
100
AcDbLine
 10
2527.629060794068
 20
2997.053074250138
 30
-0.0000000001555548
 11
2527.635060794068
 21
2997.053074250138
 31
-0.0000000001555548
  0
REGION
  5
14F2
330
1F
100
AcDbEntity
  8
SANINDUSA
100
AcDbModelerGeometry
 70
     1
  1
koo nji n o         
  1
ni ^ *+0;:,4 ^ *+0\^ [ nf ^ LR mnjqoqoqkmnk QK o  
  1
n fqfffffffffffffffj:rooh n:rono 
  1
=0;& {rn {n {rn {rn |
  1
3*2/ {rn {rn {m {o |
  1
,7:33 {rn {rn {rn {l {rn {n |
  1
9><: {rn {rn {k {m {rn {j 90-(>-; ;0*=3: 0*+ |
  1
300/ {rn {rn {i {l |
  1
/3>1:r,*-9><: {rn mjmhqilmoiohfkoihf mffhqojmmghiookohf rnqjjjjkglojloiojig:rono o o n mqmmokkiokfmjolnln:ronf roqoon o -:):-,:@) V V V V |
  1
<0:;8: {rn {h {g {rn {f -:):-,:; {k {rn |
  1
<0:;8: {rn {no {i {rn {nn 90-(>-; {k {rn |
  1
<0:;8: {rn {i {nm {rn {nl 90-(>-; {k {rn |
  1
:;8: {rn {nk {nj {i {ni 90-(>-; |
  1
<0:;8: {rn {nh {h {rn {ng -:):-,:; {k {rn |
  1
:;8: {rn {nk {nf {h {mo 90-(>-; |
  1
<0:;8: {rn {g {mn {rn {mm -:):-,:; {k {rn |
  1
:;8: {rn {ml {nj {g {mk 90-(>-; |
  1
):-+:' {rn {f {mj |
  1
):-+:' {rn {f {mi |
  1
,+->687+r<*-): {rn mjmhqilioiohfkoihg mffhqokjjhnokiioil rnqjjjjkglojloiojig:rono nqomifjimfhhhgmifg:ronh oqoon o V V |
  1
<0:;8: {rn {mh {no {rn {mg 90-(>-; {k {rn |
  1
:;8: {rn {mf {nf {no {lo 90-(>-; |
  1
):-+:' {rn {ng {ln |
  1
:336/,:r<*-): {rn mjmhqiljjiohfkoihh mffhqokjjhnokiioil rnqjjjjkglojloiojig:rono o o rn nqnnommlomkimjnjii:ronf roqooojooooooooooonligk o n V V |
  1
<0:;8: {rn {nm {lm {rn {ll 90-(>-; {k {rn |
  1
:;8: {rn {ml {lk {nm {lj 90-(>-; |
  1
):-+:' {rn {nl {li |
  1
:336/,:r<*-): {rn mjmhqiljjiohfkoihh mffhqokgmjfijfhjih rnqjjjjkglojloiojig:rono o o rn nqnnommlomkimjnjii:ronf roqooojoooooooooooomgjm o n V V |
  1
/061+ {rn mjmhqilioiohfkoihg mffhqokjjhnokiioil rnqjjjjkglojloiojig:rono |
  1
/061+ {rn mjmhqilioiohfkoihg mffhqokgmjfijfhjih rnqjjjjkglojloiojig:rono |
  1
<0:;8: {rn {lh {nh {rn {lg -:):-,:; {k {rn |
  1
:;8: {rn {mf {lf {nh {ko 90-(>-; |
  1
):-+:' {rn {mg {kn |
  1
:336/,:r<*-): {rn mjmhqiliniohfkoig mffhqokknfimhlgfhg rnqjjjjkglojloiojig:rono o o rn mqmmokkiokfmjolnln:ronf roqoooffffffffffffghjlk o n V V |
  1
/061+ {rn mjmhqiljhiohfkoign mffhqokjnnmhgfolif rnqjjjjkglojloiojig:rono |
  1
<0:;8: {rn {mn {km {rn {kl -:):-,:; {k {rn |
  1
:;8: {rn {kk {lk {mn {kj 90-(>-; |
  1
):-+:' {rn {mm {ki |
  1
:336/,:r<*-): {rn mjmhqilioiohfkoihg mffhqokfihlghllnfn rnqjjjjkglojloiojig:rono o o rn lqlloiifohlghjkhom:ronf roqooofffffffffffffhlhg o n V V |
  1
/061+ {rn mjmhqiljhmhkiohlkk mffhqokghlnoikmhhj rnqjjjjkglojloiojig:rono |
  1
<0:;8: {rn {kh {mh {rn {kg 90-(>-; {k {rn |
  1
:;8: {rn {kf {lf {mh {jo 90-(>-; |
  1
):-+:' {rn {lg {jn |
  1
,+->687+r<*-): {rn mjmhqiliniohfkoig mffhqoklnfimhlgfhi rnqjjjjkglojloiojig:rono oqoonoooooooooooooooj nqnnommlomkimjnjii:ronf o V V |
  1
/061+ {rn mjmhqiliniohfkoig mffhqoklnfimhlgfhi rnqjjjjkglojloiojig:rono |
  1
<0:;8: {rn {lm {jm {rn {jl 90-(>-; {k {rn |
  1
:;8: {rn {kk {jk {lm {jj 90-(>-; |
  1
):-+:' {rn {ll {ji |
  1
:336/,:r<*-): {rn mjmhqiljjiohfkoihh mffhqojnoggogiggnj rnqjjjjkglojloiojig:rono o o rn nqnnommlomkimjnjii:ronf roqoookffffffffffffkjg o n V V |
  1
/061+ {rn mjmhqiljhmhkiohlkk mffhqojoiniigmlioh rnqjjjjkglojloiojig:rono |
  1
<0:;8: {rn {jh {lh {rn {jg -:):-,:; {k {rn |
  1
:;8: {rn {kf {jf {lh {io 90-(>-; |
  1
):-+:' {rn {kg {in |
  1
:336/,:r<*-): {rn mjmhqilhoiohfkoig mffhqokknfimhlgfhg rnqjjjjkglojloiojig:rono o o rn mqmmokkiokfmjolnln:ronf roqoooffffffffffffghfmk o n V V |
  1
/061+ {rn mjmhqilhoiohfkoig mffhqoklnfimhlgfhi rnqjjjjkglojloiojig:rono |
  1
<0:;8: {rn {km {im {rn {il -:):-,:; {k {rn |
  1
:;8: {rn {ik {jk {km {ij 90-(>-; |
  1
):-+:' {rn {kl {ii |
  1
,+->687+r<*-): {rn mjmhqilioiohfkoihg mffhqojnoggogiggnj rnqjjjjkglojloiojig:rono rmqmmokkiokfmjolnln:ronf oqoon o V V |
  1
/061+ {rn mjmhqilioiohfkoihg mffhqojnoggogiggnj rnqjjjjkglojloiojig:rono |
  1
<0:;8: {rn {ih {kh {rn {ig 90-(>-; {k {rn |
  1
:;8: {rn {if {jf {kh {ho 90-(>-; |
  1
):-+:' {rn {jg {hn |
  1
,+->687+r<*-): {rn mjmhqilgoiohfkoihg mffhqokknfimhlgfhg rnqjjjjkglojloiojig:rono rnqnnommlomkimjnjii:rong oqoon o V V |
  1
/061+ {rn mjmhqilgoiohfkoihg mffhqokknfimhlgfhg rnqjjjjkglojloiojig:rono |
  1
<0:;8: {rn {jm {hm {rn {hl 90-(>-; {k {rn |
  1
:;8: {rn {ik {hk {jm {hj 90-(>-; |
  1
):-+:' {rn {jl {hi |
  1
:336/,:r<*-): {rn mjmhqiljjiohfkoihh mffhqojmihkmjonlhf rnqjjjjkglojloiojig:rono o o rn nqnnommlomkimjnjii:ronf roqooojooooooooooooooon o n V V |
  1
/061+ {rn mjmhqilioiohfkoihg mffhqojmihkmjonlhf rnqjjjjkglojloiojig:rono |
  1
<0:;8: {rn {hh {jh {rn {hg 90-(>-; {k {rn |
  1
:;8: {rn {if {hf {jh {go 90-(>-; |
  1
):-+:' {rn {ig {gn |
  1
:336/,:r<*-): {rn mjmhqilhoiohfkoig mffhqohjifimhlgfhg rnqjjjjkglojloiojig:rono o o rn mqmmokkiokfmjolnln:ronf roqoon o n V V |
  1
/061+ {rn mjmhqilgoiohfkoihg mffhqohjifimhlgfhg rnqjjjjkglojloiojig:rono |
  1
<0:;8: {rn {im {gm {rn {gl -:):-,:; {k {rn |
  1
:;8: {rn {gk {hk {im {gj 90-(>-; |
  1
):-+:' {rn {il {gi |
  1
,+->687+r<*-): {rn mjmhqiljjiohfkoihh mffhqojlnhkmjonlg rnqjjjjkglojloiojig:rono roqoonoooooooooooooooj rlqmikojjifmlfhfioh:ronh o V V |
  1
/061+ {rn mjmhqiljjiohfkoihh mffhqojlnhkmjonlg rnqjjjjkglojloiojig:rono |
  1
<0:;8: {rn {gh {ih {rn {gg 90-(>-; {k {rn |
  1
:;8: {rn {hf {gf {ih {fo 90-(>-; |
  1
):-+:' {rn {hg {fn |
  1
,+->687+r<*-): {rn mjmhqilioiohfkoihg mffhqohjifimhlgfhg rnqjjjjkglojloiojig:rono nqnijhlknhjgjiknkl:ronh roqoon o V V |
  1
/061+ {rn mjmhqilioiohfkoihg mffhqohjifimhlgfhg rnqjjjjkglojloiojig:rono |
  1
<0:;8: {rn {hm {fm {rn {fl 90-(>-; {k {rn |
  1
:;8: {rn {gk {fk {hm {fj 90-(>-; |
  1
):-+:' {rn {hl {fi |
  1
:336/,:r<*-): {rn mjmhqimgjiohfkoign mffhqojmihkmjonlhf rnqjjjjkglojloiojig:rono o o rn nqnnommlomkimjnjii:ronf roqooojooooooooooooooon o n V V |
  1
/061+ {rn mjmhqimgjiohfkoign mffhqojlnhkmjonlg rnqjjjjkglojloiojig:rono |
  1
<0:;8: {rn {fh {hh {rn {fg 90-(>-; {k {rn |
  1
:;8: {rn {gf {ff {hh {noo 90-(>-; |
  1
):-+:' {rn {gg {non |
  1
:336/,:r<*-): {rn mjmhqiljjiohfkoihh mffhqojjihkmjonlgn rnqjjjjkglojloiojig:rono o o rn nqnnommlomkimjnjii:ronf roqooojooooooooooonnfni o n V V |
  1
/061+ {rn mjmhqilioiohfkoihg mffhqojjihkmjonlgn rnqjjjjkglojloiojig:rono |
  1
<0:;8: {rn {gm {nom {rn {nol -:):-,:; {k {rn |
  1
:;8: {rn {nok {fk {gm {noj 90-(>-; |
  1
):-+:' {rn {gl {noi |
  1
,+->687+r<*-): {rn mjmhqimgoiohfkoig mffhqojmihkmjonlhf rnqjjjjkglojloiojig:rono rnqhjfholkfkologhlk:ronh roqoonoooooooooooooooj o V V |
  1
/061+ {rn mjmhqimgoiohfkoig mffhqojmihkmjonlhf rnqjjjjkglojloiojig:rono |
  1
<0:;8: {rn {noh {gh {rn {nog 90-(>-; {k {rn |
  1
:;8: {rn {ff {nof {gh {nno 90-(>-; |
  1
):-+:' {rn {fg {nnn |
  1
,+->687+r<*-): {rn mjmhqiljjiohfkoihh mffhqojjnhkmjonlg rnqjjjjkglojloiojig:rono roqoonoooooooooooooooj rnqimikhihlnohjgjkm:ronh o V V |
  1
/061+ {rn mjmhqiljjiohfkoihh mffhqojjnhkmjonlg rnqjjjjkglojloiojig:rono |
  1
<0:;8: {rn {fm {nnm {rn {nnl 90-(>-; {k {rn |
  1
:;8: {rn {nok {nnk {fm {nnj 90-(>-; |
  1
):-+:' {rn {fl {nni |
  1
:336/,:r<*-): {rn mjmhqimgjiohfkoign mffhqojnoggogiggnj rnqjjjjkglojloiojig:rono o o rn nqnnommlomkimjnjii:ronf roqooojoooooooooooomgjm o n V V |
  1
/061+ {rn mjmhqimgoiohfkoig mffhqojnoggogiggnj rnqjjjjkglojloiojig:rono |
  1
<0:;8: {rn {nnh {fh {rn {nng -:):-,:; {k {rn |
  1
:;8: {rn {nof {nnf {fh {nmo 90-(>-; |
  1
):-+:' {rn {nog {nmn |
  1
:336/,:r<*-): {rn mjmhqimgjiohfkoign mffhqojjihkmjonlgn rnqjjjjkglojloiojig:rono o o rn nqlghhhghgohgnkkjh:ronf roqooojooooooooooonoig o n V V |
  1
/061+ {rn mjmhqimgjiohfkoign mffhqojjnhkmjonlg rnqjjjjkglojloiojig:rono |
  1
<0:;8: {rn {nom {nmm {rn {nml -:):-,:; {k {rn |
  1
:;8: {rn {nmk {nnk {nom {nmj 90-(>-; |
  1
):-+:' {rn {nol {nmi |
  1
:336/,:r<*-): {rn mjmhqimgoiohfkoig mffhqokfihlghllnfn rnqjjjjkglojloiojig:rono o o rn mqhhjjjhjinjimgfnk:ronf roqoooffffffffffffffmij o n V V |
  1
/061+ {rn mjmhqimglfknmhkonk mffhqojoiniigmlioh rnqjjjjkglojloiojig:rono |
  1
<0:;8: {rn {nmh {noh {rn {nmg 90-(>-; {k {rn |
  1
:;8: {rn {nmf {nnf {noh {nlo 90-(>-; |
  1
):-+:' {rn {nng {nln |
  1
,+->687+r<*-): {rn mjmhqimgoiohfkoig mffhqojjihkmjonlgn rnqjjjjkglojloiojig:rono rnqiijllkjliflhhlkh:rong oqoonoooooooooooooooj o V V |
  1
/061+ {rn mjmhqimgoiohfkoig mffhqojjihkmjonlgn rnqjjjjkglojloiojig:rono |
  1
<0:;8: {rn {nnm {nlm {rn {nll 90-(>-; {k {rn |
  1
:;8: {rn {nmk {nlk {nnm {nlj 90-(>-; |
  1
):-+:' {rn {nnl {nli |
  1
:336/,:r<*-): {rn mjmhqimgjiohfkoign mffhqokgmjfijfhjih rnqjjjjkglojloiojig:rono o o rn gqlmiihmigkiggihjk:romo roqoookffffffffffffikhh o n V V |
  1
/061+ {rn mjmhqimglfknmhkonk mffhqokghlnoikmhhj rnqjjjjkglojloiojig:rono |
  1
<0:;8: {rn {nlh {nnh {rn {nlg -:):-,:; {k {rn |
  1
:;8: {rn {nmf {nlf {nnh {nko 90-(>-; |
  1
):-+:' {rn {nmg {nkn |
  1
:336/,:r<*-): {rn mjmhqimhoiohfkoihg mffhqohjifimhlgfhg rnqjjjjkglojloiojig:rono o o rn mqmmokkiokfmjolnln:ronf roqoon o n V V |
  1
/061+ {rn mjmhqimgoiohfkoig mffhqohjifimhlgfhg rnqjjjjkglojloiojig:rono |
  1
<0:;8: {rn {nmm {nlh {rn {nkm -:):-,:; {k {rn |
  1
:;8: {rn {nkl {nlk {nmm {nkk 90-(>-; |
  1
):-+:' {rn {nml {nkj |
  1
,+->687+r<*-): {rn mjmhqimgoiohfkoig mffhqokgmjfijfhjih rnqjjjjkglojloiojig:rono fqjkhfngonnhhilkh:rong roqoonoooooooooooooooj o V V |
  1
/061+ {rn mjmhqimgoiohfkoig mffhqokgmjfijfhjih rnqjjjjkglojloiojig:rono |
  1
<0:;8: {rn {nlm {nmh {rn {nki 90-(>-; {k {rn |
  1
:;8: {rn {nkh {nlf {nmh {nkg 90-(>-; |
  1
):-+:' {rn {nlg {nkf |
  1
,+->687+r<*-): {rn mjmhqimioiohfkoign mffhqohjifimhlgfhg rnqjjjjkglojloiojig:rono nqnnommlomkimjnjii:rong roqoon o V V |
  1
/061+ {rn mjmhqimioiohfkoign mffhqohjifimhlgfhg rnqjjjjkglojloiojig:rono |
  1
:;8: {rn {nkl {njo {nlm {njn 90-(>-; |
  1
):-+:' {rn {nll {njm |
  1
:336/,:r<*-): {rn mjmhqimgjiohfkoign mffhqokjjhnokiioil rnqjjjjkglojloiojig:rono o o rn gqlmiihmigkiggihjk:romo roqooojoooooooooooognnn o n V V |
  1
/061+ {rn mjmhqimgoiohfkoig mffhqokjjhnokiioil rnqjjjjkglojloiojig:rono |
  1
:;8: {rn {nkh {njo {nlh {njl 90-(>-; |
  1
):-+:' {rn {nki {njk |
  1
:336/,:r<*-): {rn mjmhqimhoiohfkoihg mffhqokknfimhlgfhg rnqjjjjkglojloiojig:rono o o rn mqmmokkiokfmjolnln:ronf roqoonoooooooooooonnli o n V V |
  1
/061+ {rn mjmhqimioiohfkoign mffhqokknfimhlgfhg rnqjjjjkglojloiojig:rono |
  1
):-+:' {rn {nkm {njj |
  1
:336/,:r<*-): {rn mjmhqimhfiohfkoihg mffhqokknfimhlgfhg rnqjjjjkglojloiojig:rono o o rn mqmmokkiokfmjolnln:ronf roqoooffffffffffffflioj o n V V |
  1
/061+ {rn mjmhqimgliohfkoihh mffhqokjnnmhgfolif rnqjjjjkglojloiojig:rono |
  1
,+->687+r<*-): {rn mjmhqimhoiohfkoihg mffhqoklnfimhlgfhi rnqjjjjkglojloiojig:rono oqoonoooooooooooooooj nqnnommlomkimjnjii:ronf o V V |
  1
/061+ {rn mjmhqimhoiohfkoihg mffhqoklnfimhlgfhi rnqjjjjkglojloiojig:rono |
  1
/061+ {rn mjmhqimhfiohfkoihg mffhqoklnfimhlgfhi rnqjjjjkglojloiojig:rono |
  0
LINE
  5
1768
330
1F
100
AcDbEntity
  8
SANINDUSA
100
AcDbLine
 10
2526.835144733234
 20
2996.107618514569
 30
0.0
 11
2526.835144733234
 21
2997.319618514568
 31
0.0
  0
LINE
  5
1769
330
1F
100
AcDbEntity
  8
SANINDUSA
100
AcDbLine
 10
2526.832144733234
 20
2996.107618514569
 30
0.0
 11
2526.832144733234
 21
2997.319618514568
 31
0.0
  0
LINE
  5
176A
330
1F
100
AcDbEntity
  8
SANINDUSA
100
AcDbLine
 10
2526.284904733234
 20
2997.638618514569
 30
0.0
 11
2526.284904733234
 21
2995.798618514568
 31
0.0
  0
LINE
  5
176B
330
1F
100
AcDbEntity
  8
SANINDUSA
100
AcDbLine
 10
2526.272904733233
 20
2997.638618514569
 30
0.0
 11
2526.272904733233
 21
2995.788618514568
 31
0.0
  0
LINE
  5
176D
330
1F
100
AcDbEntity
  8
SANINDUSA
100
AcDbLine
 10
2526.423944733233
 20
2995.798618514568
 30
0.0
 11
2526.423944733233
 21
2997.638618514569
 31
0.0
  0
LINE
  5
176E
330
1F
100
AcDbEntity
  8
SANINDUSA
100
AcDbLine
 10
2526.432444733234
 20
2995.798618514568
 30
0.0
 11
2526.432444733234
 21
2997.638618514569
 31
0.0
  0
LINE
  5
1770
330
1F
100
AcDbEntity
  8
SANINDUSA
100
AcDbLine
 10
2527.163144733234
 20
2995.788618514568
 30
0.0
 11
2527.163144733234
 21
2997.638618514569
 31
0.0
  0
LINE
  5
1771
330
1F
100
AcDbEntity
  8
SANINDUSA
100
AcDbLine
 10
2527.112244733233
 20
2995.788618514568
 30
0.0
 11
2527.112244733233
 21
2997.638618514569
 31
0.0
  0
LINE
  5
1777
330
1F
100
AcDbEntity
  8
SANINDUSA
100
AcDbLine
 10
2526.832144733234
 20
2995.798618514568
 30
0.0
 11
2526.432444733234
 21
2995.798618514568
 31
0.0
  0
LINE
  5
1778
330
1F
100
AcDbEntity
  8
SANINDUSA
100
AcDbLine
 10
2526.423944733233
 20
2995.798618514568
 30
0.0
 11
2526.284904733234
 21
2995.798618514568
 31
0.0
  0
LINE
  5
177A
330
1F
100
AcDbEntity
  8
SANINDUSA
100
AcDbLine
 10
2526.296904733233
 20
2995.798618514568
 30
0.0
 11
2526.296904733233
 21
2995.788618514568
 31
0.0
  0
LINE
  5
177B
330
1F
100
AcDbEntity
  8
SANINDUSA
100
AcDbLine
 10
2526.832144733234
 20
2995.798618514568
 30
0.0
 11
2526.832144733234
 21
2996.059618514568
 31
0.0
  0
LINE
  5
177C
330
1F
100
AcDbEntity
  8
SANINDUSA
100
AcDbLine
 10
2526.835144733234
 20
2995.788618514568
 30
0.0
 11
2526.835144733234
 21
2996.059618514568
 31
0.0
  0
LINE
  5
1781
330
1F
100
AcDbEntity
  8
SANINDUSA
100
AcDbLine
 10
2527.163144733234
 20
2995.788618514568
 30
0.0
 11
2527.163144733234
 21
2996.07980758115
 31
0.0
  0
LINE
  5
1783
330
1F
100
AcDbEntity
  8
SANINDUSA
100
AcDbLine
 10
2526.272904733233
 20
2995.788618514568
 30
0.0
 11
2527.163144733234
 21
2995.788618514568
 31
0.0
  0
LINE
  5
1785
330
1F
100
AcDbEntity
  8
SANINDUSA
100
AcDbLine
 10
2527.163144733234
 20
2997.638618514569
 30
0.0
 11
2526.835144733234
 21
2997.638618514569
 31
0.0
  0
CIRCLE
  5
178D
330
1F
100
AcDbEntity
  8
SANINDUSA
100
AcDbCircle
 10
2526.373944733233
 20
2996.718617746621
 30
0.0
 40
0.004
  0
CIRCLE
  5
178E
330
1F
100
AcDbEntity
  8
SANINDUSA
100
AcDbCircle
 10
2526.482444733233
 20
2996.718617746621
 30
0.0
 40
0.004
  0
LINE
  5
178F
330
1F
100
AcDbEntity
  8
SANINDUSA
100
AcDbLine
 10
2526.832144733234
 20
2997.638618514569
 30
0.0
 11
2526.432444733234
 21
2997.638618514569
 31
0.0
  0
LINE
  5
1790
330
1F
100
AcDbEntity
  8
SANINDUSA
100
AcDbLine
 10
2526.423944733233
 20
2997.638618514569
 30
0.0
 11
2526.272904733233
 21
2997.638618514569
 31
0.0
  0
LINE
  5
1791
330
1F
100
AcDbEntity
  8
SANINDUSA
100
AcDbLine
 10
2526.832144733234
 20
2997.367618514568
 30
0.0
 11
2526.832144733234
 21
2997.638618514569
 31
0.0
  0
LINE
  5
1792
330
1F
100
AcDbEntity
  8
SANINDUSA
100
AcDbLine
 10
2526.835144733234
 20
2997.367618514568
 30
0.0
 11
2526.835144733234
 21
2997.638618514569
 31
0.0
  0
LINE
  5
1FE1
330
1F
100
AcDbEntity
  8
SANINDUSA
100
AcDbLine
 10
2526.841644733234
 20
2996.085618514569
 30
-0.0000000017937957
 11
2526.841644733234
 21
2996.106618514568
 31
-0.0000000017937957
  0
LINE
  5
1FE2
330
1F
100
AcDbEntity
  8
SANINDUSA
100
AcDbLine
 10
2526.825644733234
 20
2996.101118514569
 30
-0.0000000017937957
 11
2526.825644733234
 21
2996.085618514569
 31
-0.0000000017937957
  0
LINE
  5
1FE3
330
1F
100
AcDbEntity
  8
SANINDUSA
100
AcDbLine
 10
2526.842533622122
 20
2996.081618514568
 30
-0.0000000017937957
 11
2526.842533622122
 21
2996.101118514569
 31
-0.0000000017937957
  0
LINE
  5
1FE4
330
1F
100
AcDbEntity
  8
SANINDUSA
100
AcDbLine
 10
2526.765644733234
 20
2996.100118514569
 30
-0.0000000017937957
 11
2526.765644733234
 21
2996.067118514569
 31
-0.0000000017937957
  0
LINE
  5
1FE5
330
1F
100
AcDbEntity
  8
SANINDUSA
100
AcDbLine
 10
2526.901644733233
 20
2996.100118514569
 30
-0.0000000017937957
 11
2526.901644733233
 21
2996.067118514569
 31
-0.0000000017937957
  0
LINE
  5
1FE6
330
1F
100
AcDbEntity
  8
SANINDUSA
100
AcDbLine
 10
2526.824755844344
 20
2996.085618514569
 30
-0.0000000017937957
 11
2526.841644733234
 21
2996.085618514569
 31
-0.0000000017937957
  0
LINE
  5
1FE7
330
1F
100
AcDbEntity
  8
SANINDUSA
100
AcDbLine
 10
2526.826144733233
 20
2996.085618514569
 30
-0.0000000017937957
 11
2526.826144733233
 21
2996.081618514568
 31
-0.0000000017937957
  0
LINE
  5
1FE8
330
1F
100
AcDbEntity
  8
SANINDUSA
100
AcDbLine
 10
2526.841144733233
 20
2996.085618514569
 30
-0.0000000017937957
 11
2526.841144733233
 21
2996.081618514568
 31
-0.0000000017937957
  0
LINE
  5
1FE9
330
1F
100
AcDbEntity
  8
SANINDUSA
100
AcDbLine
 10
2526.841644733233
 20
2996.081618514568
 30
-0.0000000017937957
 11
2526.842533622122
 21
2996.081618514568
 31
-0.0000000017937957
  0
LINE
  5
1FEA
330
1F
100
AcDbEntity
  8
SANINDUSA
100
AcDbLine
 10
2526.841644733233
 20
2996.081618514568
 30
-0.0000000017937957
 11
2526.825644733234
 21
2996.081618514568
 31
-0.0000000017937957
  0
LINE
  5
1FEB
330
1F
100
AcDbEntity
  8
SANINDUSA
100
AcDbLine
 10
2526.766644733233
 20
2996.066118514568
 30
-0.0000000017937957
 11
2526.824755844344
 21
2996.066118514568
 31
-0.0000000017937957
  0
LINE
  5
1FEC
330
1F
100
AcDbEntity
  8
SANINDUSA
100
AcDbLine
 10
2526.824755844344
 20
2996.066118514568
 30
-0.0000000017937957
 11
2526.824755844344
 21
2996.085618514569
 31
-0.0000000017937957
  0
LINE
  5
1FED
330
1F
100
AcDbEntity
  8
SANINDUSA
100
AcDbLine
 10
2526.825644733234
 20
2996.081618514568
 30
-0.0000000017937957
 11
2526.825644733234
 21
2996.060618514569
 31
-0.0000000017937957
  0
ARC
  5
1FEE
330
1F
100
AcDbEntity
  8
SANINDUSA
100
AcDbCircle
 10
2526.766644733233
 20
2996.067118514569
 30
-0.0000000017937957
 40
0.001
100
AcDbArc
 50
180.0
 51
270.0
  0
ARC
  5
1FEF
330
1F
100
AcDbEntity
  8
SANINDUSA
100
AcDbCircle
 10
2526.826644733233
 20
2996.060618514569
 30
-0.0000000017937957
 40
0.001
100
AcDbArc
 50
180.0
 51
270.0
  0
LINE
  5
1FF0
330
1F
100
AcDbEntity
  8
SANINDUSA
100
AcDbLine
 10
2526.841644733233
 20
2996.060618514569
 30
-0.0000000017937957
 11
2526.841644733233
 21
2996.081618514568
 31
-0.0000000017937957
  0
LINE
  5
1FF1
330
1F
100
AcDbEntity
  8
SANINDUSA
100
AcDbLine
 10
2526.900644733233
 20
2996.066118514568
 30
-0.0000000017937957
 11
2526.841644733233
 21
2996.066118514568
 31
-0.0000000017937957
  0
ARC
  5
1FF2
330
1F
100
AcDbEntity
  8
SANINDUSA
100
AcDbCircle
 10
2526.900644733233
 20
2996.067118514569
 30
-0.0000000017937957
 40
0.001
100
AcDbArc
 50
270.0
 51
0.0
  0
ARC
  5
1FF3
330
1F
100
AcDbEntity
  8
SANINDUSA
100
AcDbCircle
 10
2526.840644733233
 20
2996.060618514569
 30
-0.0000000017937957
 40
0.001
100
AcDbArc
 50
270.0
 51
0.0
  0
LINE
  5
1FF4
330
1F
100
AcDbEntity
  8
SANINDUSA
100
AcDbLine
 10
2526.825644733234
 20
2996.106618514568
 30
-0.0000000017937957
 11
2526.825644733234
 21
2996.101118514569
 31
-0.0000000017937957
  0
LINE
  5
1FF5
330
1F
100
AcDbEntity
  8
SANINDUSA
100
AcDbLine
 10
2526.825644733234
 20
2996.101118514569
 30
-0.0000000017937957
 11
2526.766644733233
 21
2996.101118514569
 31
-0.0000000017937957
  0
ARC
  5
1FF6
330
1F
100
AcDbEntity
  8
SANINDUSA
100
AcDbCircle
 10
2526.766644733233
 20
2996.100118514569
 30
-0.0000000017937957
 40
0.001
100
AcDbArc
 50
90.0
 51
180.0
  0
ARC
  5
1FF7
330
1F
100
AcDbEntity
  8
SANINDUSA
100
AcDbCircle
 10
2526.826644733233
 20
2996.106618514568
 30
-0.0000000017937957
 40
0.001
100
AcDbArc
 50
90.0
 51
180.0
  0
LINE
  5
1FF8
330
1F
100
AcDbEntity
  8
SANINDUSA
100
AcDbLine
 10
2526.840644733233
 20
2996.107618514569
 30
-0.0000000017937957
 11
2526.826644733233
 21
2996.107618514569
 31
-0.0000000017937957
  0
LINE
  5
1FF9
330
1F
100
AcDbEntity
  8
SANINDUSA
100
AcDbLine
 10
2526.842533622122
 20
2996.101118514569
 30
-0.0000000017937957
 11
2526.900644733233
 21
2996.101118514569
 31
-0.0000000017937957
  0
ARC
  5
1FFA
330
1F
100
AcDbEntity
  8
SANINDUSA
100
AcDbCircle
 10
2526.840644733233
 20
2996.106618514568
 30
-0.0000000017937957
 40
0.001
100
AcDbArc
 50
0.0
 51
90.0
  0
ARC
  5
1FFB
330
1F
100
AcDbEntity
  8
SANINDUSA
100
AcDbCircle
 10
2526.900644733233
 20
2996.100118514569
 30
-0.0000000017937957
 40
0.001
100
AcDbArc
 50
0.0
 51
90.0
  0
LINE
  5
1FFC
330
1F
100
AcDbEntity
  8
SANINDUSA
100
AcDbLine
 10
2526.826644733233
 20
2996.059618514568
 30
-0.0000000017937957
 11
2526.840644733233
 21
2996.059618514568
 31
-0.0000000017937957
  0
LINE
  5
1FFD
330
1F
100
AcDbEntity
  8
SANINDUSA
100
AcDbLine
 10
2526.841644733234
 20
2997.345618514568
 30
-0.0000000017937957
 11
2526.841644733234
 21
2997.366618514569
 31
-0.0000000017937957
  0
LINE
  5
1FFE
330
1F
100
AcDbEntity
  8
SANINDUSA
100
AcDbLine
 10
2526.825644733234
 20
2997.361118514568
 30
-0.0000000017937957
 11
2526.825644733234
 21
2997.345618514568
 31
-0.0000000017937957
  0
LINE
  5
1FFF
330
1F
100
AcDbEntity
  8
SANINDUSA
100
AcDbLine
 10
2526.842533622122
 20
2997.341618514568
 30
-0.0000000017937957
 11
2526.842533622122
 21
2997.361118514568
 31
-0.0000000017937957
  0
LINE
  5
2000
330
1F
100
AcDbEntity
  8
SANINDUSA
100
AcDbLine
 10
2526.765644733234
 20
2997.360118514569
 30
-0.0000000017937957
 11
2526.765644733234
 21
2997.327118514568
 31
-0.0000000017937957
  0
LINE
  5
2001
330
1F
100
AcDbEntity
  8
SANINDUSA
100
AcDbLine
 10
2526.901644733233
 20
2997.360118514569
 30
-0.0000000017937957
 11
2526.901644733233
 21
2997.327118514568
 31
-0.0000000017937957
  0
LINE
  5
2002
330
1F
100
AcDbEntity
  8
SANINDUSA
100
AcDbLine
 10
2526.824755844344
 20
2997.345618514568
 30
-0.0000000017937957
 11
2526.841644733234
 21
2997.345618514568
 31
-0.0000000017937957
  0
LINE
  5
2003
330
1F
100
AcDbEntity
  8
SANINDUSA
100
AcDbLine
 10
2526.826144733233
 20
2997.345618514568
 30
-0.0000000017937957
 11
2526.826144733233
 21
2997.341618514568
 31
-0.0000000017937957
  0
LINE
  5
2004
330
1F
100
AcDbEntity
  8
SANINDUSA
100
AcDbLine
 10
2526.841144733233
 20
2997.345618514568
 30
-0.0000000017937957
 11
2526.841144733233
 21
2997.341618514568
 31
-0.0000000017937957
  0
LINE
  5
2005
330
1F
100
AcDbEntity
  8
SANINDUSA
100
AcDbLine
 10
2526.841644733233
 20
2997.341618514568
 30
-0.0000000017937957
 11
2526.842533622122
 21
2997.341618514568
 31
-0.0000000017937957
  0
LINE
  5
2006
330
1F
100
AcDbEntity
  8
SANINDUSA
100
AcDbLine
 10
2526.841644733233
 20
2997.341618514568
 30
-0.0000000017937957
 11
2526.825644733234
 21
2997.341618514568
 31
-0.0000000017937957
  0
LINE
  5
2007
330
1F
100
AcDbEntity
  8
SANINDUSA
100
AcDbLine
 10
2526.766644733233
 20
2997.326118514568
 30
-0.0000000017937957
 11
2526.824755844344
 21
2997.326118514568
 31
-0.0000000017937957
  0
LINE
  5
2008
330
1F
100
AcDbEntity
  8
SANINDUSA
100
AcDbLine
 10
2526.824755844344
 20
2997.326118514568
 30
-0.0000000017937957
 11
2526.824755844344
 21
2997.345618514568
 31
-0.0000000017937957
  0
LINE
  5
2009
330
1F
100
AcDbEntity
  8
SANINDUSA
100
AcDbLine
 10
2526.825644733234
 20
2997.341618514568
 30
-0.0000000017937957
 11
2526.825644733234
 21
2997.320618514568
 31
-0.0000000017937957
  0
ARC
  5
200A
330
1F
100
AcDbEntity
  8
SANINDUSA
100
AcDbCircle
 10
2526.766644733233
 20
2997.327118514568
 30
-0.0000000017937957
 40
0.001
100
AcDbArc
 50
180.0
 51
270.0
  0
ARC
  5
200B
330
1F
100
AcDbEntity
  8
SANINDUSA
100
AcDbCircle
 10
2526.826644733233
 20
2997.320618514568
 30
-0.0000000017937957
 40
0.001
100
AcDbArc
 50
180.0
 51
270.0
  0
LINE
  5
200C
330
1F
100
AcDbEntity
  8
SANINDUSA
100
AcDbLine
 10
2526.841644733233
 20
2997.320618514568
 30
-0.0000000017937957
 11
2526.841644733233
 21
2997.341618514568
 31
-0.0000000017937957
  0
LINE
  5
200D
330
1F
100
AcDbEntity
  8
SANINDUSA
100
AcDbLine
 10
2526.900644733233
 20
2997.326118514568
 30
-0.0000000017937957
 11
2526.841644733233
 21
2997.326118514568
 31
-0.0000000017937957
  0
ARC
  5
200E
330
1F
100
AcDbEntity
  8
SANINDUSA
100
AcDbCircle
 10
2526.900644733233
 20
2997.327118514568
 30
-0.0000000017937957
 40
0.001
100
AcDbArc
 50
270.0
 51
0.0
  0
ARC
  5
200F
330
1F
100
AcDbEntity
  8
SANINDUSA
100
AcDbCircle
 10
2526.840644733233
 20
2997.320618514568
 30
-0.0000000017937957
 40
0.001
100
AcDbArc
 50
270.0
 51
0.0
  0
LINE
  5
2010
330
1F
100
AcDbEntity
  8
SANINDUSA
100
AcDbLine
 10
2526.825644733234
 20
2997.366618514569
 30
-0.0000000017937957
 11
2526.825644733234
 21
2997.361118514568
 31
-0.0000000017937957
  0
LINE
  5
2011
330
1F
100
AcDbEntity
  8
SANINDUSA
100
AcDbLine
 10
2526.825644733234
 20
2997.361118514568
 30
-0.0000000017937957
 11
2526.766644733233
 21
2997.361118514568
 31
-0.0000000017937957
  0
ARC
  5
2012
330
1F
100
AcDbEntity
  8
SANINDUSA
100
AcDbCircle
 10
2526.766644733233
 20
2997.360118514569
 30
-0.0000000017937957
 40
0.001
100
AcDbArc
 50
90.0
 51
180.0
  0
ARC
  5
2013
330
1F
100
AcDbEntity
  8
SANINDUSA
100
AcDbCircle
 10
2526.826644733233
 20
2997.366618514569
 30
-0.0000000017937957
 40
0.001
100
AcDbArc
 50
90.0
 51
180.0
  0
LINE
  5
2014
330
1F
100
AcDbEntity
  8
SANINDUSA
100
AcDbLine
 10
2526.840644733233
 20
2997.367618514568
 30
-0.0000000017937957
 11
2526.826644733233
 21
2997.367618514568
 31
-0.0000000017937957
  0
LINE
  5
2015
330
1F
100
AcDbEntity
  8
SANINDUSA
100
AcDbLine
 10
2526.842533622122
 20
2997.361118514568
 30
-0.0000000017937957
 11
2526.900644733233
 21
2997.361118514568
 31
-0.0000000017937957
  0
ARC
  5
2016
330
1F
100
AcDbEntity
  8
SANINDUSA
100
AcDbCircle
 10
2526.840644733233
 20
2997.366618514569
 30
-0.0000000017937957
 40
0.001
100
AcDbArc
 50
0.0
 51
90.0
  0
ARC
  5
2017
330
1F
100
AcDbEntity
  8
SANINDUSA
100
AcDbCircle
 10
2526.900644733233
 20
2997.360118514569
 30
-0.0000000017937957
 40
0.001
100
AcDbArc
 50
0.0
 51
90.0
  0
LINE
  5
2018
330
1F
100
AcDbEntity
  8
SANINDUSA
100
AcDbLine
 10
2526.826644733233
 20
2997.319618514568
 30
-0.0000000017937957
 11
2526.840644733233
 21
2997.319618514568
 31
-0.0000000017937957
  0
ENDSEC
  0
SECTION
  2
OBJECTS
  0
DICTIONARY
  5
C
330
0
100
AcDbDictionary
281
     1
  3
ACAD_COLOR
350
2048
  3
ACAD_GROUP
350
D
  3
ACAD_LAYOUT
350
1A
  3
ACAD_MATERIAL
350
201B
  3
ACAD_MLEADERSTYLE
350
205D
  3
ACAD_MLINESTYLE
350
17
  3
ACAD_PLOTSETTINGS
350
19
  3
ACAD_PLOTSTYLENAME
350
E
  3
ACAD_SCALELIST
350
204B
  3
ACAD_TABLESTYLE
350
2049
  3
ACAD_VISUALSTYLE
350
2034
  3
ACDB_RECOMPOSE_DATA
350
20F3
  3
AcDbVariableDictionary
350
3D
  3
ASE_INDEX_DICTIONARY
350
B91
  3
DWGPROPS
350
20F4
  0
DICTIONARY
  5
20AA
330
8
100
AcDbDictionary
280
     1
281
     1
  0
DICTIONARY
  5
2086
330
10
100
AcDbDictionary
280
     1
281
     1
  3
ADSK_XREC_LAYER_RECONCILED
360
2087
  0
DICTIONARY
  5
2088
330
2F
100
AcDbDictionary
280
     1
281
     1
  3
ADSK_XREC_LAYER_RECONCILED
360
2089
  0
DICTIONARY
  5
208A
330
30
100
AcDbDictionary
280
     1
281
     1
  3
ADSK_XREC_LAYER_RECONCILED
360
208B
  0
DICTIONARY
  5
208C
330
31
100
AcDbDictionary
280
     1
281
     1
  3
ADSK_XREC_LAYER_RECONCILED
360
208D
  0
DICTIONARY
  5
208E
330
32
100
AcDbDictionary
280
     1
281
     1
  3
ADSK_XREC_LAYER_RECONCILED
360
208F
  0
DICTIONARY
  5
2090
330
33
100
AcDbDictionary
280
     1
281
     1
  3
ADSK_XREC_LAYER_RECONCILED
360
2091
  0
DICTIONARY
  5
2092
330
34
100
AcDbDictionary
280
     1
281
     1
  3
ADSK_XREC_LAYER_RECONCILED
360
2093
  0
DICTIONARY
  5
2094
330
35
100
AcDbDictionary
280
     1
281
     1
  3
ADSK_XREC_LAYER_RECONCILED
360
2095
  0
DICTIONARY
  5
2096
330
36
100
AcDbDictionary
280
     1
281
     1
  3
ADSK_XREC_LAYER_RECONCILED
360
2097
  0
DICTIONARY
  5
2098
330
37
100
AcDbDictionary
280
     1
281
     1
  3
ADSK_XREC_LAYER_RECONCILED
360
2099
  0
DICTIONARY
  5
209A
330
5D6
100
AcDbDictionary
280
     1
281
     1
  3
ADSK_XREC_LAYER_RECONCILED
360
209B
  0
DICTIONARY
  5
209C
330
8AF
100
AcDbDictionary
280
     1
281
     1
  3
ADSK_XREC_LAYER_RECONCILED
360
209D
  0
DICTIONARY
  5
209E
330
8F8
100
AcDbDictionary
280
     1
281
     1
  3
ADSK_XREC_LAYER_RECONCILED
360
209F
  0
DICTIONARY
  5
20A0
330
91D
100
AcDbDictionary
280
     1
281
     1
  3
ADSK_XREC_LAYER_RECONCILED
360
20A1
  0
DICTIONARY
  5
20A2
330
D17
100
AcDbDictionary
280
     1
281
     1
  3
ADSK_XREC_LAYER_RECONCILED
360
20A3
  0
DICTIONARY
  5
20A4
330
2085
100
AcDbDictionary
280
     1
281
     1
  3
ADSK_XREC_LAYER_RECONCILED
360
20A5
  0
DICTIONARY
  5
2048
102
{ACAD_REACTORS
330
C
102
}
330
C
100
AcDbDictionary
281
     1
  0
DICTIONARY
  5
D
102
{ACAD_REACTORS
330
C
102
}
330
C
100
AcDbDictionary
281
     1
  0
DICTIONARY
  5
1A
102
{ACAD_REACTORS
330
C
102
}
330
C
100
AcDbDictionary
281
     1
  3
Layout1
350
1E
  3
Layout2
350
26
  3
Model
350
22
  0
DICTIONARY
  5
201B
102
{ACAD_REACTORS
330
C
102
}
330
C
100
AcDbDictionary
281
     1
  3
ByBlock
350
2024
  3
ByLayer
350
201C
  3
Global
350
202C
  0
DICTIONARY
  5
205D
102
{ACAD_REACTORS
330
C
102
}
330
C
100
AcDbDictionary
281
     1
  3
Standard
350
205E
  0
DICTIONARY
  5
17
102
{ACAD_REACTORS
330
C
102
}
330
C
100
AcDbDictionary
281
     1
  3
Standard
350
18
  0
DICTIONARY
  5
19
102
{ACAD_REACTORS
330
C
102
}
330
C
100
AcDbDictionary
281
     1
  0
ACDBDICTIONARYWDFLT
  5
E
102
{ACAD_REACTORS
330
C
102
}
330
C
100
AcDbDictionary
281
     1
  3
Normal
350
F
100
AcDbDictionaryWithDefault
340
F
  0
DICTIONARY
  5
204B
102
{ACAD_REACTORS
330
C
102
}
330
C
100
AcDbDictionary
281
     1
  3
A0
350
204C
  3
A1
350
204D
  3
A2
350
204E
  3
A3
350
204F
  3
A4
350
2050
  3
A5
350
2051
  3
A6
350
2052
  3
A7
350
2053
  3
A8
350
2054
  3
A9
350
2055
  3
B0
350
2056
  3
B1
350
2057
  3
B2
350
2058
  3
B3
350
2059
  3
B4
350
205A
  3
B5
350
205B
  3
B6
350
205C
  0
DICTIONARY
  5
2049
102
{ACAD_REACTORS
330
C
102
}
330
C
100
AcDbDictionary
281
     1
  3
Standard
350
204A
  0
DICTIONARY
  5
2034
102
{ACAD_REACTORS
330
C
102
}
330
C
100
AcDbDictionary
281
     1
  3
2dWireframe
350
203A
  3
3D Hidden
350
203C
  3
3dWireframe
350
203B
  3
Basic
350
2039
  3
Brighten
350
2040
  3
ColorChange
350
2044
  3
Conceptual
350
203D
  3
Dim
350
203F
  3
EdgeColorOff
350
2047
  3
Facepattern
350
2043
  3
Flat
350
2035
  3
FlatWithEdges
350
2036
  3
Gouraud
350
2037
  3
GouraudWithEdges
350
2038
  3
JitterOff
350
2045
  3
Linepattern
350
2042
  3
OverhangOff
350
2046
  3
Realistic
350
203E
  3
Thicken
350
2041
  0
XRECORD
  5
20F3
102
{ACAD_REACTORS
330
C
102
}
330
C
100
AcDbXrecord
280
     1
 90
        1
330
204A
  0
DICTIONARY
  5
3D
102
{ACAD_REACTORS
330
C
102
}
330
C
100
AcDbDictionary
281
     1
  3
CANNOSCALE
350
20E7
  3
CMLEADERSTYLE
350
20E6
  3
CTABLESTYLE
350
20E5
  3
DIMASSOC
350
3F
  3
HIDETEXT
350
3E
  3
INDEXCTL
350
20E9
  3
SORTENTS
350
20E8
  3
XCLIPFRAME
350
20F1
  0
DICTIONARY
  5
B91
102
{ACAD_REACTORS
330
C
102
}
330
C
100
AcDbDictionary
281
     1
  3
ASEBlockHierarchyIndexRecord
350
B92
1001
DCO15
1040
1485069952.593
  0
XRECORD
  5
20F4
102
{ACAD_REACTORS
330
C
102
}
330
C
100
AcDbXrecord
280
     1
  1
DWGPROPS COOKIE
  2

  3

  4

  6

  7

  8
Julio
  9

300
=
301
=
302
=
303
=
304
=
305
=
306
=
307
=
308
=
309
=
 40
0.0146860532407408
 41
2453257.703894306
 42
2455817.483593021
  1

 90
        0
  0
XRECORD
  5
2087
102
{ACAD_REACTORS
330
2086
102
}
330
2086
100
AcDbXrecord
280
     1
290
     1
  0
XRECORD
  5
2089
102
{ACAD_REACTORS
330
2088
102
}
330
2088
100
AcDbXrecord
280
     1
290
     1
  0
XRECORD
  5
208B
102
{ACAD_REACTORS
330
208A
102
}
330
208A
100
AcDbXrecord
280
     1
290
     1
  0
XRECORD
  5
208D
102
{ACAD_REACTORS
330
208C
102
}
330
208C
100
AcDbXrecord
280
     1
290
     1
  0
XRECORD
  5
208F
102
{ACAD_REACTORS
330
208E
102
}
330
208E
100
AcDbXrecord
280
     1
290
     1
  0
XRECORD
  5
2091
102
{ACAD_REACTORS
330
2090
102
}
330
2090
100
AcDbXrecord
280
     1
290
     1
  0
XRECORD
  5
2093
102
{ACAD_REACTORS
330
2092
102
}
330
2092
100
AcDbXrecord
280
     1
290
     1
  0
XRECORD
  5
2095
102
{ACAD_REACTORS
330
2094
102
}
330
2094
100
AcDbXrecord
280
     1
290
     1
  0
XRECORD
  5
2097
102
{ACAD_REACTORS
330
2096
102
}
330
2096
100
AcDbXrecord
280
     1
290
     1
  0
XRECORD
  5
2099
102
{ACAD_REACTORS
330
2098
102
}
330
2098
100
AcDbXrecord
280
     1
290
     1
  0
XRECORD
  5
209B
102
{ACAD_REACTORS
330
209A
102
}
330
209A
100
AcDbXrecord
280
     1
290
     1
  0
XRECORD
  5
209D
102
{ACAD_REACTORS
330
209C
102
}
330
209C
100
AcDbXrecord
280
     1
290
     1
  0
XRECORD
  5
209F
102
{ACAD_REACTORS
330
209E
102
}
330
209E
100
AcDbXrecord
280
     1
290
     1
  0
XRECORD
  5
20A1
102
{ACAD_REACTORS
330
20A0
102
}
330
20A0
100
AcDbXrecord
280
     1
290
     1
  0
XRECORD
  5
20A3
102
{ACAD_REACTORS
330
20A2
102
}
330
20A2
100
AcDbXrecord
280
     1
290
     1
  0
XRECORD
  5
20A5
102
{ACAD_REACTORS
330
20A4
102
}
330
20A4
100
AcDbXrecord
280
     1
290
     1
  0
LAYOUT
  5
1E
102
{ACAD_XDICTIONARY
360
20F5
102
}
102
{ACAD_REACTORS
330
1A
102
}
330
1A
100
AcDbPlotSettings
  1

  2
Ploter HP500
  4

  6

 40
0.0
 41
0.0
 42
0.0
 43
0.0
 44
0.0
 45
0.0
 46
0.0
 47
0.0
 48
0.0
 49
0.0
140
0.0
141
0.0
142
1.0
143
1.0
 70
   688
 72
     0
 73
     0
 74
     5
  7
monochrome.ctb
 75
    16
147
1.0
148
0.0
149
0.0
100
AcDbLayout
  1
Layout1
 70
     1
 71
     1
 10
0.0
 20
0.0
 11
420.0
 21
297.0
 12
0.0
 22
0.0
 32
0.0
 14
1.000000000000000E+20
 24
1.000000000000000E+20
 34
1.000000000000000E+20
 15
-1.000000000000000E+20
 25
-1.000000000000000E+20
 35
-1.000000000000000E+20
146
0.0
 13
0.0
 23
0.0
 33
0.0
 16
1.0
 26
0.0
 36
0.0
 17
0.0
 27
1.0
 37
0.0
 76
     0
330
1B
  0
LAYOUT
  5
26
102
{ACAD_XDICTIONARY
360
20F9
102
}
102
{ACAD_REACTORS
330
1A
102
}
330
1A
100
AcDbPlotSettings
  1

  2
Ploter HP500
  4

  6

 40
0.0
 41
0.0
 42
0.0
 43
0.0
 44
0.0
 45
0.0
 46
0.0
 47
0.0
 48
0.0
 49
0.0
140
0.0
141
0.0
142
1.0
143
1.0
 70
   688
 72
     0
 73
     0
 74
     5
  7
monochrome.ctb
 75
    16
147
1.0
148
0.0
149
0.0
100
AcDbLayout
  1
Layout2
 70
     1
 71
     2
 10
0.0
 20
0.0
 11
12.0
 21
9.0
 12
0.0
 22
0.0
 32
0.0
 14
0.0
 24
0.0
 34
0.0
 15
0.0
 25
0.0
 35
0.0
146
0.0
 13
0.0
 23
0.0
 33
0.0
 16
1.0
 26
0.0
 36
0.0
 17
0.0
 27
1.0
 37
0.0
 76
     0
330
23
  0
LAYOUT
  5
22
102
{ACAD_XDICTIONARY
360
20F7
102
}
102
{ACAD_REACTORS
330
1A
102
}
330
1A
100
AcDbPlotSettings
  1

  2
Ploter HP500
  4
User268
  6

 40
4.995333194732666
 41
16.97565841674804
 42
4.995330810546875
 43
16.97567749023437
 44
209.9733276367187
 45
296.9259948730469
 46
0.0
 47
0.0
 48
0.0
 49
0.0
140
0.0
141
0.0
142
1.0
143
1.0
 70
 11952
 72
     1
 73
     1
 74
     0
  7

 75
     0
147
1.0
148
-427.5957866592534
149
7.362384574453926
100
AcDbLayout
  1
Model
 70
     1
 71
     0
 10
0.0
 20
0.0
 11
12.0
 21
9.0
 12
0.0
 22
0.0
 32
0.0
 14
0.0
 24
0.0
 34
0.0
 15
0.0
 25
0.0
 35
0.0
146
0.0
 13
0.0
 23
0.0
 33
0.0
 16
1.0
 26
0.0
 36
0.0
 17
0.0
 27
1.0
 37
0.0
 76
     0
330
1F
331
2019
  0
MATERIAL
  5
2024
102
{ACAD_XDICTIONARY
360
2025
102
}
102
{ACAD_REACTORS
330
201B
102
}
330
201B
100
AcDbMaterial
  1
ByBlock
 72
     0
 43
0.0008202099737533
 43
0.0
 43
0.0
 43
0.0
 43
0.0
 43
0.0008202099737533
 43
0.0
 43
0.0
 43
0.0
 43
0.0
 43
1.0
 43
0.0
 43
0.0
 43
0.0
 43
0.0
 43
1.0
 77
     0
 47
0.0008202099737533
 47
0.0
 47
0.0
 47
0.0
 47
0.0
 47
0.0008202099737533
 47
0.0
 47
0.0
 47
0.0
 47
0.0
 47
1.0
 47
0.0
 47
0.0
 47
0.0
 47
0.0
 47
1.0
171
     0
 49
0.0008202099737533
 49
0.0
 49
0.0
 49
0.0
 49
0.0
 49
0.0008202099737533
 49
0.0
 49
0.0
 49
0.0
 49
0.0
 49
1.0
 49
0.0
 49
0.0
 49
0.0
 49
0.0
 49
1.0
175
     0
142
0.0008202099737533
142
0.0
142
0.0
142
0.0
142
0.0
142
0.0008202099737533
142
0.0
142
0.0
142
0.0
142
0.0
142
1.0
142
0.0
142
0.0
142
0.0
142
0.0
142
1.0
179
     0
144
0.0008202099737533
144
0.0
144
0.0
144
0.0
144
0.0
144
0.0008202099737533
144
0.0
144
0.0
144
0.0
144
0.0
144
1.0
144
0.0
144
0.0
144
0.0
144
0.0
144
1.0
147
0.0008202099737533
147
0.0
147
0.0
147
0.0
147
0.0
147
0.0008202099737533
147
0.0
147
0.0
147
0.0
147
0.0
147
1.0
147
0.0
147
0.0
147
0.0
147
0.0
147
1.0
  0
MATERIAL
  5
201C
102
{ACAD_XDICTIONARY
360
201D
102
}
102
{ACAD_REACTORS
330
201B
102
}
330
201B
100
AcDbMaterial
  1
ByLayer
 72
     0
 43
0.0008202099737533
 43
0.0
 43
0.0
 43
0.0
 43
0.0
 43
0.0008202099737533
 43
0.0
 43
0.0
 43
0.0
 43
0.0
 43
1.0
 43
0.0
 43
0.0
 43
0.0
 43
0.0
 43
1.0
 77
     0
 47
0.0008202099737533
 47
0.0
 47
0.0
 47
0.0
 47
0.0
 47
0.0008202099737533
 47
0.0
 47
0.0
 47
0.0
 47
0.0
 47
1.0
 47
0.0
 47
0.0
 47
0.0
 47
0.0
 47
1.0
171
     0
 49
0.0008202099737533
 49
0.0
 49
0.0
 49
0.0
 49
0.0
 49
0.0008202099737533
 49
0.0
 49
0.0
 49
0.0
 49
0.0
 49
1.0
 49
0.0
 49
0.0
 49
0.0
 49
0.0
 49
1.0
175
     0
142
0.0008202099737533
142
0.0
142
0.0
142
0.0
142
0.0
142
0.0008202099737533
142
0.0
142
0.0
142
0.0
142
0.0
142
1.0
142
0.0
142
0.0
142
0.0
142
0.0
142
1.0
179
     0
144
0.0008202099737533
144
0.0
144
0.0
144
0.0
144
0.0
144
0.0008202099737533
144
0.0
144
0.0
144
0.0
144
0.0
144
1.0
144
0.0
144
0.0
144
0.0
144
0.0
144
1.0
147
0.0008202099737533
147
0.0
147
0.0
147
0.0
147
0.0
147
0.0008202099737533
147
0.0
147
0.0
147
0.0
147
0.0
147
1.0
147
0.0
147
0.0
147
0.0
147
0.0
147
1.0
  0
MATERIAL
  5
202C
102
{ACAD_XDICTIONARY
360
202D
102
}
102
{ACAD_REACTORS
330
201B
102
}
330
201B
100
AcDbMaterial
  1
Global
 72
     0
 43
0.0008202099737533
 43
0.0
 43
0.0
 43
0.0
 43
0.0
 43
0.0008202099737533
 43
0.0
 43
0.0
 43
0.0
 43
0.0
 43
1.0
 43
0.0
 43
0.0
 43
0.0
 43
0.0
 43
1.0
 77
     0
 47
0.0008202099737533
 47
0.0
 47
0.0
 47
0.0
 47
0.0
 47
0.0008202099737533
 47
0.0
 47
0.0
 47
0.0
 47
0.0
 47
1.0
 47
0.0
 47
0.0
 47
0.0
 47
0.0
 47
1.0
171
     0
 49
0.0008202099737533
 49
0.0
 49
0.0
 49
0.0
 49
0.0
 49
0.0008202099737533
 49
0.0
 49
0.0
 49
0.0
 49
0.0
 49
1.0
 49
0.0
 49
0.0
 49
0.0
 49
0.0
 49
1.0
175
     0
142
0.0008202099737533
142
0.0
142
0.0
142
0.0
142
0.0
142
0.0008202099737533
142
0.0
142
0.0
142
0.0
142
0.0
142
1.0
142
0.0
142
0.0
142
0.0
142
0.0
142
1.0
179
     0
144
0.0008202099737533
144
0.0
144
0.0
144
0.0
144
0.0
144
0.0008202099737533
144
0.0
144
0.0
144
0.0
144
0.0
144
1.0
144
0.0
144
0.0
144
0.0
144
0.0
144
1.0
147
0.0008202099737533
147
0.0
147
0.0
147
0.0
147
0.0
147
0.0008202099737533
147
0.0
147
0.0
147
0.0
147
0.0
147
1.0
147
0.0
147
0.0
147
0.0
147
0.0
147
1.0
  0
MLEADERSTYLE
  5
205E
102
{ACAD_REACTORS
330
205D
102
}
330
205D
100
AcDbMLeaderStyle
170
     2
171
     1
172
     0
 90
        2
 40
0.0
 41
0.0
173
     1
 91
-1056964608
340
14
 92
       -2
290
     1
 42
2.0
291
     1
 43
0.36
  3
Standard
 44
4.0
300

342
11
174
     1
178
     6
175
     1
176
     0
 93
-1056964608
 45
4.0
292
     0
297
     0
 46
4.0
 94
-1056964608
 47
1.0
 49
1.0
140
1.0
293
     1
141
0.0
294
     1
177
     0
142
1.0
295
     0
296
     0
143
0.125
1001
ACAD_MLEADERVER
1070
     2
  0
MLINESTYLE
  5
18
102
{ACAD_REACTORS
330
17
102
}
330
17
100
AcDbMlineStyle
  2
STANDARD
 70
     0
  3

 62
   256
 51
90.0
 52
90.0
 71
     2
 49
0.5
 62
   256
  6
BYLAYER
 49
-0.5
 62
   256
  6
BYLAYER
  0
ACDBPLACEHOLDER
  5
F
102
{ACAD_REACTORS
330
E
102
}
330
E
  0
SCALE
  5
204C
102
{ACAD_REACTORS
330
204B
102
}
330
204B
100
AcDbScale
 70
     0
300
1:1
140
1.0
141
1.0
290
     1
  0
SCALE
  5
204D
102
{ACAD_REACTORS
330
204B
102
}
330
204B
100
AcDbScale
 70
     0
300
1:2
140
1.0
141
2.0
290
     0
  0
SCALE
  5
204E
102
{ACAD_REACTORS
330
204B
102
}
330
204B
100
AcDbScale
 70
     0
300
1:4
140
1.0
141
4.0
290
     0
  0
SCALE
  5
204F
102
{ACAD_REACTORS
330
204B
102
}
330
204B
100
AcDbScale
 70
     0
300
1:5
140
1.0
141
5.0
290
     0
  0
SCALE
  5
2050
102
{ACAD_REACTORS
330
204B
102
}
330
204B
100
AcDbScale
 70
     0
300
1:8
140
1.0
141
8.0
290
     0
  0
SCALE
  5
2051
102
{ACAD_REACTORS
330
204B
102
}
330
204B
100
AcDbScale
 70
     0
300
1:10
140
1.0
141
10.0
290
     0
  0
SCALE
  5
2052
102
{ACAD_REACTORS
330
204B
102
}
330
204B
100
AcDbScale
 70
     0
300
1:16
140
1.0
141
16.0
290
     0
  0
SCALE
  5
2053
102
{ACAD_REACTORS
330
204B
102
}
330
204B
100
AcDbScale
 70
     0
300
1:20
140
1.0
141
20.0
290
     0
  0
SCALE
  5
2054
102
{ACAD_REACTORS
330
204B
102
}
330
204B
100
AcDbScale
 70
     0
300
1:30
140
1.0
141
30.0
290
     0
  0
SCALE
  5
2055
102
{ACAD_REACTORS
330
204B
102
}
330
204B
100
AcDbScale
 70
     0
300
1:40
140
1.0
141
40.0
290
     0
  0
SCALE
  5
2056
102
{ACAD_REACTORS
330
204B
102
}
330
204B
100
AcDbScale
 70
     0
300
1:50
140
1.0
141
50.0
290
     0
  0
SCALE
  5
2057
102
{ACAD_REACTORS
330
204B
102
}
330
204B
100
AcDbScale
 70
     0
300
1:100
140
1.0
141
100.0
290
     0
  0
SCALE
  5
2058
102
{ACAD_REACTORS
330
204B
102
}
330
204B
100
AcDbScale
 70
     0
300
2:1
140
2.0
141
1.0
290
     0
  0
SCALE
  5
2059
102
{ACAD_REACTORS
330
204B
102
}
330
204B
100
AcDbScale
 70
     0
300
4:1
140
4.0
141
1.0
290
     0
  0
SCALE
  5
205A
102
{ACAD_REACTORS
330
204B
102
}
330
204B
100
AcDbScale
 70
     0
300
8:1
140
8.0
141
1.0
290
     0
  0
SCALE
  5
205B
102
{ACAD_REACTORS
330
204B
102
}
330
204B
100
AcDbScale
 70
     0
300
10:1
140
10.0
141
1.0
290
     0
  0
SCALE
  5
205C
102
{ACAD_REACTORS
330
204B
102
}
330
204B
100
AcDbScale
 70
     0
300
100:1
140
100.0
141
1.0
290
     0
  0
TABLESTYLE
  5
204A
102
{ACAD_XDICTIONARY
360
20A6
102
}
102
{ACAD_REACTORS
330
2049
102
}
330
2049
100
AcDbTableStyle
  3
Standard
 70
     0
 71
     0
 40
1.5
 41
1.5
280
     0
281
     0
  7
Standard
140
4.5
170
     2
 62
     0
 63
     7
283
     0
274
    -2
284
     1
 64
     0
275
    -2
285
     1
 65
     0
276
    -2
286
     1
 66
     0
277
    -2
287
     1
 67
     0
278
    -2
288
     1
 68
     0
279
    -2
289
     1
 69
     0
  7
Standard
140
6.0
170
     5
 62
     0
 63
     7
283
     0
274
    -2
284
     1
 64
     0
275
    -2
285
     1
 65
     0
276
    -2
286
     1
 66
     0
277
    -2
287
     1
 67
     0
278
    -2
288
     1
 68
     0
279
    -2
289
     1
 69
     0
  7
Standard
140
4.5
170
     5
 62
     0
 63
     7
283
     0
274
    -2
284
     1
 64
     0
275
    -2
285
     1
 65
     0
276
    -2
286
     1
 66
     0
277
    -2
287
     1
 67
     0
278
    -2
288
     1
 68
     0
279
    -2
289
     1
 69
     0
  0
VISUALSTYLE
  5
203A
102
{ACAD_XDICTIONARY
360
210C
102
}
102
{ACAD_REACTORS
330
2034
102
}
330
2034
100
AcDbVisualStyle
  2
2dWireframe
 70
     4
 71
     0
 72
     2
 73
     0
 90
        0
 40
-0.6
 41
-30.0
 62
     5
 63
     7
 74
     1
 91
        4
 64
     7
 65
   257
 75
     1
175
     1
 42
1.0
 92
        0
 66
   257
 43
1.0
 76
     1
 77
     6
 78
     2
 67
     7
 79
     5
170
     0
171
     0
290
     0
174
     0
 93
        1
 44
0.0
173
     0
291
     0
 45
0.0
1001
ACAD
1000
AcDbSavedByObjectVersion
1070
     0
  0
VISUALSTYLE
  5
203C
102
{ACAD_XDICTIONARY
360
2110
102
}
102
{ACAD_REACTORS
330
2034
102
}
330
2034
100
AcDbVisualStyle
  2
3D Hidden
 70
     6
 71
     1
 72
     2
 73
     2
 90
        0
 40
-0.6
 41
-30.0
 62
     5
 63
     7
 74
     2
 91
        2
 64
     7
 65
   257
 75
     2
175
     1
 42
179.0
 92
        0
 66
   257
 43
1.0
 76
     1
 77
     6
 78
     2
 67
     7
 79
     3
170
     0
171
     0
290
     0
174
     0
 93
        1
 44
0.0
173
     0
291
     0
 45
0.0
1001
ACAD
1000
AcDbSavedByObjectVersion
1070
     0
  0
VISUALSTYLE
  5
203B
102
{ACAD_XDICTIONARY
360
210E
102
}
102
{ACAD_REACTORS
330
2034
102
}
330
2034
100
AcDbVisualStyle
  2
3dWireframe
 70
     5
 71
     0
 72
     2
 73
     0
 90
        0
 40
-0.6
 41
-30.0
 62
     5
 63
     7
 74
     1
 91
        4
 64
     7
 65
   257
 75
     1
175
     1
 42
1.0
 92
        0
 66
   257
 43
1.0
 76
     1
 77
     6
 78
     2
 67
     7
 79
     5
170
     0
171
     0
290
     0
174
     0
 93
        1
 44
0.0
173
     0
291
     0
 45
0.0
1001
ACAD
1000
AcDbSavedByObjectVersion
1070
     0
  0
VISUALSTYLE
  5
2039
102
{ACAD_XDICTIONARY
360
210A
102
}
102
{ACAD_REACTORS
330
2034
102
}
330
2034
100
AcDbVisualStyle
  2
Basic
 70
     7
 71
     1
 72
     0
 73
     1
 90
        0
 40
-0.6
 41
-30.0
 62
     5
 63
     7
 74
     0
 91
        4
 64
     7
 65
   257
 75
     1
175
     1
 42
1.0
 92
        8
 66
     7
 43
1.0
 76
     1
 77
     6
 78
     2
 67
     7
 79
     5
170
     0
171
     0
290
     0
174
     0
 93
        1
 44
0.0
173
     0
291
     1
 45
0.0
1001
ACAD
1000
AcDbSavedByObjectVersion
1070
     0
  0
VISUALSTYLE
  5
2040
102
{ACAD_XDICTIONARY
360
2118
102
}
102
{ACAD_REACTORS
330
2034
102
}
330
2034
100
AcDbVisualStyle
  2
Brighten
 70
    12
 71
     2
 72
     2
 73
     0
 90
        0
 40
-0.6
 41
-30.0
 62
     5
 63
     7
 74
     1
 91
        4
 64
     7
 65
   257
 75
     1
175
     1
 42
1.0
 92
        8
 66
     7
 43
1.0
 76
     1
 77
     6
 78
     2
 67
     7
 79
     5
170
     0
171
     0
290
     0
174
     0
 93
        1
 44
50.0
173
     0
291
     1
 45
0.0
1001
ACAD
1000
AcDbSavedByObjectVersion
1070
     0
  0
VISUALSTYLE
  5
2044
102
{ACAD_XDICTIONARY
360
2120
102
}
102
{ACAD_REACTORS
330
2034
102
}
330
2034
100
AcDbVisualStyle
  2
ColorChange
 70
    16
 71
     2
 72
     2
 73
     3
 90
        0
 40
-0.6
 41
-30.0
 62
     5
 63
     8
 74
     1
 91
        4
 64
     7
 65
   257
 75
     1
175
     1
 42
1.0
 92
        8
 66
     8
 43
1.0
 76
     1
 77
     6
 78
     2
 67
     7
 79
     5
170
     0
171
     0
290
     0
174
     0
 93
        1
 44
0.0
173
     0
291
     1
 45
0.0
1001
ACAD
1000
AcDbSavedByObjectVersion
1070
     0
  0
VISUALSTYLE
  5
203D
102
{ACAD_XDICTIONARY
360
2112
102
}
102
{ACAD_REACTORS
330
2034
102
}
330
2034
100
AcDbVisualStyle
  2
Conceptual
 70
     9
 71
     3
 72
     2
 73
     0
 90
        0
 40
-0.6
 41
-30.0
 62
     5
 63
     7
 74
     2
 91
        2
 64
     7
 65
   257
 75
     1
175
     1
 42
179.0
 92
        8
 66
     7
 43
1.0
 76
     1
 77
     6
 78
     2
 67
     7
 79
     3
170
     0
171
     0
290
     0
174
     0
 93
        1
 44
0.0
173
     0
291
     0
 45
0.0
1001
ACAD
1000
AcDbSavedByObjectVersion
1070
     0
  0
VISUALSTYLE
  5
203F
102
{ACAD_XDICTIONARY
360
2116
102
}
102
{ACAD_REACTORS
330
2034
102
}
330
2034
100
AcDbVisualStyle
  2
Dim
 70
    11
 71
     2
 72
     2
 73
     0
 90
        0
 40
-0.6
 41
-30.0
 62
     5
 63
     7
 74
     1
 91
        4
 64
     7
 65
   257
 75
     1
175
     1
 42
1.0
 92
        8
 66
     7
 43
1.0
 76
     1
 77
     6
 78
     2
 67
     7
 79
     5
170
     0
171
     0
290
     0
174
     0
 93
        1
 44
-50.0
173
     0
291
     1
 45
0.0
1001
ACAD
1000
AcDbSavedByObjectVersion
1070
     0
  0
VISUALSTYLE
  5
2047
102
{ACAD_XDICTIONARY
360
2126
102
}
102
{ACAD_REACTORS
330
2034
102
}
330
2034
100
AcDbVisualStyle
  2
EdgeColorOff
 70
    22
 71
     2
 72
     2
 73
     0
 90
        0
 40
-0.6
 41
-30.0
 62
     5
 63
     7
 74
     1
 91
        4
 64
     7
 65
   257
 75
     1
175
     1
 42
1.0
 92
        8
 66
     7
 43
1.0
 76
     1
 77
     6
 78
     2
 67
     7
 79
     5
170
     0
171
     0
290
     0
174
     0
 93
        1
 44
0.0
173
     0
291
     1
 45
0.0
1001
ACAD
1000
AcDbSavedByObjectVersion
1070
     0
  0
VISUALSTYLE
  5
2043
102
{ACAD_XDICTIONARY
360
211E
102
}
102
{ACAD_REACTORS
330
2034
102
}
330
2034
100
AcDbVisualStyle
  2
Facepattern
 70
    15
 71
     2
 72
     2
 73
     0
 90
        0
 40
-0.6
 41
-30.0
 62
     5
 63
     7
 74
     1
 91
        4
 64
     7
 65
   257
 75
     1
175
     1
 42
1.0
 92
        8
 66
     7
 43
1.0
 76
     1
 77
     6
 78
     2
 67
     7
 79
     5
170
     0
171
     0
290
     0
174
     0
 93
        1
 44
0.0
173
     0
291
     1
 45
0.0
1001
ACAD
1000
AcDbSavedByObjectVersion
1070
     0
  0
VISUALSTYLE
  5
2035
102
{ACAD_XDICTIONARY
360
2102
102
}
102
{ACAD_REACTORS
330
2034
102
}
330
2034
100
AcDbVisualStyle
  2
Flat
 70
     0
 71
     2
 72
     1
 73
     1
 90
        2
 40
-0.6
 41
30.0
 62
     5
 63
     7
 74
     0
 91
        4
 64
     7
 65
   257
 75
     1
175
     1
 42
1.0
 92
        8
 66
     7
 43
1.0
 76
     1
 77
     6
 78
     2
 67
     7
 79
     5
170
     0
171
     0
290
     0
174
     0
 93
       13
 44
0.0
173
     0
291
     1
 45
0.0
1001
ACAD
1000
AcDbSavedByObjectVersion
1070
     0
  0
VISUALSTYLE
  5
2036
102
{ACAD_XDICTIONARY
360
2104
102
}
102
{ACAD_REACTORS
330
2034
102
}
330
2034
100
AcDbVisualStyle
  2
FlatWithEdges
 70
     1
 71
     2
 72
     1
 73
     1
 90
        2
 40
-0.6
 41
30.0
 62
     5
 63
     7
 74
     1
 91
        4
 64
     7
 65
   257
 75
     1
175
     1
 42
1.0
 92
        0
 66
   257
 43
1.0
 76
     1
 77
     6
 78
     2
 67
     7
 79
     5
170
     0
171
     0
290
     0
174
     0
 93
       13
 44
0.0
173
     0
291
     1
 45
0.0
1001
ACAD
1000
AcDbSavedByObjectVersion
1070
     0
  0
VISUALSTYLE
  5
2037
102
{ACAD_XDICTIONARY
360
2106
102
}
102
{ACAD_REACTORS
330
2034
102
}
330
2034
100
AcDbVisualStyle
  2
Gouraud
 70
     2
 71
     2
 72
     2
 73
     1
 90
        2
 40
-0.6
 41
30.0
 62
     5
 63
     7
 74
     0
 91
        4
 64
     7
 65
   257
 75
     1
175
     1
 42
1.0
 92
        0
 66
     7
 43
1.0
 76
     1
 77
     6
 78
     2
 67
     7
 79
     5
170
     0
171
     0
290
     0
174
     0
 93
       13
 44
0.0
173
     0
291
     1
 45
0.0
1001
ACAD
1000
AcDbSavedByObjectVersion
1070
     0
  0
VISUALSTYLE
  5
2038
102
{ACAD_XDICTIONARY
360
2108
102
}
102
{ACAD_REACTORS
330
2034
102
}
330
2034
100
AcDbVisualStyle
  2
GouraudWithEdges
 70
     3
 71
     2
 72
     2
 73
     1
 90
        2
 40
-0.6
 41
30.0
 62
     5
 63
     7
 74
     1
 91
        4
 64
     7
 65
   257
 75
     1
175
     1
 42
1.0
 92
        0
 66
   257
 43
1.0
 76
     1
 77
     6
 78
     2
 67
     7
 79
     5
170
     0
171
     0
290
     0
174
     0
 93
       13
 44
0.0
173
     0
291
     1
 45
0.0
1001
ACAD
1000
AcDbSavedByObjectVersion
1070
     0
  0
VISUALSTYLE
  5
2045
102
{ACAD_XDICTIONARY
360
2122
102
}
102
{ACAD_REACTORS
330
2034
102
}
330
2034
100
AcDbVisualStyle
  2
JitterOff
 70
    20
 71
     2
 72
     2
 73
     0
 90
        0
 40
-0.6
 41
-30.0
 62
     5
 63
     7
 74
     1
 91
        4
 64
     7
 65
   257
 75
     1
175
     1
 42
1.0
 92
       10
 66
     7
 43
1.0
 76
     1
 77
     6
 78
     2
 67
     7
 79
     5
170
     0
171
     0
290
     0
174
     0
 93
        1
 44
0.0
173
     0
291
     1
 45
0.0
1001
ACAD
1000
AcDbSavedByObjectVersion
1070
     0
  0
VISUALSTYLE
  5
2042
102
{ACAD_XDICTIONARY
360
211C
102
}
102
{ACAD_REACTORS
330
2034
102
}
330
2034
100
AcDbVisualStyle
  2
Linepattern
 70
    14
 71
     2
 72
     2
 73
     0
 90
        0
 40
-0.6
 41
-30.0
 62
     5
 63
     7
 74
     1
 91
        4
 64
     7
 65
   257
 75
     7
175
     7
 42
1.0
 92
        8
 66
     7
 43
1.0
 76
     1
 77
     6
 78
     2
 67
     7
 79
     5
170
     0
171
     0
290
     0
174
     0
 93
        1
 44
0.0
173
     0
291
     1
 45
0.0
1001
ACAD
1000
AcDbSavedByObjectVersion
1070
     0
  0
VISUALSTYLE
  5
2046
102
{ACAD_XDICTIONARY
360
2124
102
}
102
{ACAD_REACTORS
330
2034
102
}
330
2034
100
AcDbVisualStyle
  2
OverhangOff
 70
    21
 71
     2
 72
     2
 73
     0
 90
        0
 40
-0.6
 41
-30.0
 62
     5
 63
     7
 74
     1
 91
        4
 64
     7
 65
   257
 75
     1
175
     1
 42
1.0
 92
        9
 66
     7
 43
1.0
 76
     1
 77
     6
 78
     2
 67
     7
 79
     5
170
     0
171
     0
290
     0
174
     0
 93
        1
 44
0.0
173
     0
291
     1
 45
0.0
1001
ACAD
1000
AcDbSavedByObjectVersion
1070
     0
  0
VISUALSTYLE
  5
203E
102
{ACAD_XDICTIONARY
360
2114
102
}
102
{ACAD_REACTORS
330
2034
102
}
330
2034
100
AcDbVisualStyle
  2
Realistic
 70
     8
 71
     2
 72
     2
 73
     0
 90
        0
 40
-0.6
 41
-30.0
 62
     5
 63
     7
 74
     1
 91
        0
 64
     7
 65
   257
 75
     1
175
     1
 42
1.0
 92
        8
 66
     8
 43
1.0
 76
     1
 77
     6
 78
     2
 67
     7
 79
     5
170
     0
171
     0
290
     0
174
     0
 93
       13
 44
0.0
173
     0
291
     0
 45
0.0
1001
ACAD
1000
AcDbSavedByObjectVersion
1070
     0
  0
VISUALSTYLE
  5
2041
102
{ACAD_XDICTIONARY
360
211A
102
}
102
{ACAD_REACTORS
330
2034
102
}
330
2034
100
AcDbVisualStyle
  2
Thicken
 70
    13
 71
     2
 72
     2
 73
     0
 90
        0
 40
-0.6
 41
-30.0
 62
     5
 63
     7
 74
     1
 91
        4
 64
     7
 65
   257
 75
     1
175
     1
 42
1.0
 92
       12
 66
     7
 43
1.0
 76
     1
 77
     6
 78
     2
 67
     7
 79
     5
170
     0
171
     0
290
     0
174
     0
 93
        1
 44
0.0
173
     0
291
     1
 45
0.0
1001
ACAD
1000
AcDbSavedByObjectVersion
1070
     0
  0
DICTIONARYVAR
  5
20E7
102
{ACAD_REACTORS
330
3D
102
}
330
3D
100
DictionaryVariables
280
     0
  1
1:1
  0
DICTIONARYVAR
  5
20E6
102
{ACAD_REACTORS
330
3D
102
}
330
3D
100
DictionaryVariables
280
     0
  1
STANDARD
  0
DICTIONARYVAR
  5
20E5
102
{ACAD_REACTORS
330
3D
102
}
330
3D
100
DictionaryVariables
280
     0
  1
STANDARD
  0
DICTIONARYVAR
  5
3F
102
{ACAD_REACTORS
330
3D
102
}
330
3D
100
DictionaryVariables
280
     0
  1
2
  0
DICTIONARYVAR
  5
3E
102
{ACAD_REACTORS
330
3D
102
}
330
3D
100
DictionaryVariables
280
     0
  1
1
  0
DICTIONARYVAR
  5
20E9
102
{ACAD_REACTORS
330
3D
102
}
330
3D
100
DictionaryVariables
280
     0
  1
0
  0
DICTIONARYVAR
  5
20E8
102
{ACAD_REACTORS
330
3D
102
}
330
3D
100
DictionaryVariables
280
     0
  1
127
  0
DICTIONARYVAR
  5
20F1
102
{ACAD_REACTORS
330
3D
102
}
330
3D
100
DictionaryVariables
280
     0
  1
2
  0
XRECORD
  5
B92
102
{ACAD_REACTORS
330
B91
102
}
330
B91
100
AcDbXrecord
280
     1
  0
DICTIONARY
  5
20F5
330
1E
100
AcDbDictionary
280
     1
281
     1
  3
ACAD_XREC_ROUNDTRIP
360
20F6
  0
DICTIONARY
  5
20F9
330
26
100
AcDbDictionary
280
     1
281
     1
  3
ACAD_XREC_ROUNDTRIP
360
20FA
  0
DICTIONARY
  5
20F7
330
22
100
AcDbDictionary
280
     1
281
     1
  3
ACAD_XREC_ROUNDTRIP
360
20F8
  0
DICTIONARY
  5
2025
330
2024
100
AcDbDictionary
280
     1
281
     1
  3
ACAD_XREC_ROUNDTRIP
360
2100
  3
BUMPTILE
360
2027
  3
DIFFUSETILE
360
2026
  3
OPACITYTILE
360
202A
  3
REFLECTIONTILE
360
2029
  3
REFRACTIONTILE
360
202B
  3
SPECULARTILE
360
2028
  0
DICTIONARY
  5
201D
330
201C
100
AcDbDictionary
280
     1
281
     1
  3
ACAD_XREC_ROUNDTRIP
360
20FF
  3
BUMPTILE
360
201F
  3
DIFFUSETILE
360
201E
  3
OPACITYTILE
360
2022
  3
REFLECTIONTILE
360
2021
  3
REFRACTIONTILE
360
2023
  3
SPECULARTILE
360
2020
  0
DICTIONARY
  5
202D
330
202C
100
AcDbDictionary
280
     1
281
     1
  3
ACAD_XREC_ROUNDTRIP
360
2101
  3
BUMPTILE
360
202F
  3
DIFFUSETILE
360
202E
  3
OPACITYTILE
360
2032
  3
REFLECTIONTILE
360
2031
  3
REFRACTIONTILE
360
2033
  3
SPECULARTILE
360
2030
  0
DICTIONARY
  5
20A6
330
204A
100
AcDbDictionary
280
     1
281
     1
  3
ACAD_ROUNDTRIP_2008_TABLESTYLE_CELLSTYLEMAP
360
20F2
  3
ACAD_XREC_ROUNDTRIP
360
2128
  0
DICTIONARY
  5
210C
330
203A
100
AcDbDictionary
280
     1
281
     1
  3
ACAD_XREC_ROUNDTRIP
360
210D
  0
DICTIONARY
  5
2110
330
203C
100
AcDbDictionary
280
     1
281
     1
  3
ACAD_XREC_ROUNDTRIP
360
2111
  0
DICTIONARY
  5
210E
330
203B
100
AcDbDictionary
280
     1
281
     1
  3
ACAD_XREC_ROUNDTRIP
360
210F
  0
DICTIONARY
  5
210A
330
2039
100
AcDbDictionary
280
     1
281
     1
  3
ACAD_XREC_ROUNDTRIP
360
210B
  0
DICTIONARY
  5
2118
330
2040
100
AcDbDictionary
280
     1
281
     1
  3
ACAD_XREC_ROUNDTRIP
360
2119
  0
DICTIONARY
  5
2120
330
2044
100
AcDbDictionary
280
     1
281
     1
  3
ACAD_XREC_ROUNDTRIP
360
2121
  0
DICTIONARY
  5
2112
330
203D
100
AcDbDictionary
280
     1
281
     1
  3
ACAD_XREC_ROUNDTRIP
360
2113
  0
DICTIONARY
  5
2116
330
203F
100
AcDbDictionary
280
     1
281
     1
  3
ACAD_XREC_ROUNDTRIP
360
2117
  0
DICTIONARY
  5
2126
330
2047
100
AcDbDictionary
280
     1
281
     1
  3
ACAD_XREC_ROUNDTRIP
360
2127
  0
DICTIONARY
  5
211E
330
2043
100
AcDbDictionary
280
     1
281
     1
  3
ACAD_XREC_ROUNDTRIP
360
211F
  0
DICTIONARY
  5
2102
330
2035
100
AcDbDictionary
280
     1
281
     1
  3
ACAD_XREC_ROUNDTRIP
360
2103
  0
DICTIONARY
  5
2104
330
2036
100
AcDbDictionary
280
     1
281
     1
  3
ACAD_XREC_ROUNDTRIP
360
2105
  0
DICTIONARY
  5
2106
330
2037
100
AcDbDictionary
280
     1
281
     1
  3
ACAD_XREC_ROUNDTRIP
360
2107
  0
DICTIONARY
  5
2108
330
2038
100
AcDbDictionary
280
     1
281
     1
  3
ACAD_XREC_ROUNDTRIP
360
2109
  0
DICTIONARY
  5
2122
330
2045
100
AcDbDictionary
280
     1
281
     1
  3
ACAD_XREC_ROUNDTRIP
360
2123
  0
DICTIONARY
  5
211C
330
2042
100
AcDbDictionary
280
     1
281
     1
  3
ACAD_XREC_ROUNDTRIP
360
211D
  0
DICTIONARY
  5
2124
330
2046
100
AcDbDictionary
280
     1
281
     1
  3
ACAD_XREC_ROUNDTRIP
360
2125
  0
DICTIONARY
  5
2114
330
203E
100
AcDbDictionary
280
     1
281
     1
  3
ACAD_XREC_ROUNDTRIP
360
2115
  0
DICTIONARY
  5
211A
330
2041
100
AcDbDictionary
280
     1
281
     1
  3
ACAD_XREC_ROUNDTRIP
360
211B
  0
XRECORD
  5
20F6
102
{ACAD_REACTORS
330
20F5
102
}
330
20F5
100
AcDbXrecord
280
     1
102
SHADEPLOT
 70
     0
102
SHADEPLOTRESLEVEL
 70
     2
102
SHADEPLOTCUSTOMDPI
 70
   300
  0
XRECORD
  5
20FA
102
{ACAD_REACTORS
330
20F9
102
}
330
20F9
100
AcDbXrecord
280
     1
102
SHADEPLOT
 70
     0
102
SHADEPLOTRESLEVEL
 70
     2
102
SHADEPLOTCUSTOMDPI
 70
   300
  0
XRECORD
  5
20F8
102
{ACAD_REACTORS
330
20F7
102
}
330
20F7
100
AcDbXrecord
280
     1
102
SHADEPLOT
 70
     0
102
SHADEPLOTRESLEVEL
 70
     2
102
SHADEPLOTCUSTOMDPI
 70
   300
  0
XRECORD
  5
2100
102
{ACAD_REACTORS
330
2025
102
}
330
2025
100
AcDbXrecord
280
     1
102
MATERIAL
148
0.0
149
0.0
149
0.0
 93
        0
 94
      127
282
     0
 72
     0
 77
     0
171
     0
175
     0
179
     0
273
     0
  0
XRECORD
  5
2027
102
{ACAD_REACTORS
330
2025
102
}
330
2025
100
AcDbXrecord
280
     1
270
     1
271
     1
  0
XRECORD
  5
2026
102
{ACAD_REACTORS
330
2025
102
}
330
2025
100
AcDbXrecord
280
     1
270
     1
271
     1
  0
XRECORD
  5
202A
102
{ACAD_REACTORS
330
2025
102
}
330
2025
100
AcDbXrecord
280
     1
270
     1
271
     1
  0
XRECORD
  5
2029
102
{ACAD_REACTORS
330
2025
102
}
330
2025
100
AcDbXrecord
280
     1
270
     1
271
     1
  0
XRECORD
  5
202B
102
{ACAD_REACTORS
330
2025
102
}
330
2025
100
AcDbXrecord
280
     1
270
     1
271
     1
  0
XRECORD
  5
2028
102
{ACAD_REACTORS
330
2025
102
}
330
2025
100
AcDbXrecord
280
     1
270
     1
271
     1
  0
XRECORD
  5
20FF
102
{ACAD_REACTORS
330
201D
102
}
330
201D
100
AcDbXrecord
280
     1
102
MATERIAL
148
0.0
149
0.0
149
0.0
 93
        0
 94
      127
282
     0
 72
     0
 77
     0
171
     0
175
     0
179
     0
273
     0
  0
XRECORD
  5
201F
102
{ACAD_REACTORS
330
201D
102
}
330
201D
100
AcDbXrecord
280
     1
270
     1
271
     1
  0
XRECORD
  5
201E
102
{ACAD_REACTORS
330
201D
102
}
330
201D
100
AcDbXrecord
280
     1
270
     1
271
     1
  0
XRECORD
  5
2022
102
{ACAD_REACTORS
330
201D
102
}
330
201D
100
AcDbXrecord
280
     1
270
     1
271
     1
  0
XRECORD
  5
2021
102
{ACAD_REACTORS
330
201D
102
}
330
201D
100
AcDbXrecord
280
     1
270
     1
271
     1
  0
XRECORD
  5
2023
102
{ACAD_REACTORS
330
201D
102
}
330
201D
100
AcDbXrecord
280
     1
270
     1
271
     1
  0
XRECORD
  5
2020
102
{ACAD_REACTORS
330
201D
102
}
330
201D
100
AcDbXrecord
280
     1
270
     1
271
     1
  0
XRECORD
  5
2101
102
{ACAD_REACTORS
330
202D
102
}
330
202D
100
AcDbXrecord
280
     1
102
MATERIAL
148
0.0
149
0.0
149
0.0
 93
        0
 94
      127
282
     0
 72
     0
 77
     0
171
     0
175
     0
179
     0
273
     0
  0
XRECORD
  5
202F
102
{ACAD_REACTORS
330
202D
102
}
330
202D
100
AcDbXrecord
280
     1
270
     1
271
     1
  0
XRECORD
  5
202E
102
{ACAD_REACTORS
330
202D
102
}
330
202D
100
AcDbXrecord
280
     1
270
     1
271
     1
  0
XRECORD
  5
2032
102
{ACAD_REACTORS
330
202D
102
}
330
202D
100
AcDbXrecord
280
     1
270
     1
271
     1
  0
XRECORD
  5
2031
102
{ACAD_REACTORS
330
202D
102
}
330
202D
100
AcDbXrecord
280
     1
270
     1
271
     1
  0
XRECORD
  5
2033
102
{ACAD_REACTORS
330
202D
102
}
330
202D
100
AcDbXrecord
280
     1
270
     1
271
     1
  0
XRECORD
  5
2030
102
{ACAD_REACTORS
330
202D
102
}
330
202D
100
AcDbXrecord
280
     1
270
     1
271
     1
  0
CELLSTYLEMAP
  5
20F2
102
{ACAD_REACTORS
330
20A6
102
}
330
20A6
100
AcDbCellStyleMap
 90
        3
300
CELLSTYLE
  1
TABLEFORMAT_BEGIN
 90
        5
170
     1
 91
        0
 92
    32768
 62
   257
 93
        1
300
CONTENTFORMAT
  1
CONTENTFORMAT_BEGIN
 90
        0
 91
        0
 92
      512
 93
        0
300

 40
0.0
140
1.0
 94
        5
 62
     0
340
11
144
6.0
309
CONTENTFORMAT_END
171
     1
301
MARGIN
  1
CELLMARGIN_BEGIN
 40
1.5
 40
1.5
 40
1.5
 40
1.5
 40
4.5
 40
4.5
309
CELLMARGIN_END
 94
        6
 95
        1
302
GRIDFORMAT
  1
GRIDFORMAT_BEGIN
 90
        0
 91
        1
 62
     0
 92
       -2
340
0
 93
        0
 40
1.125
309
GRIDFORMAT_END
 95
        2
302
GRIDFORMAT
  1
GRIDFORMAT_BEGIN
 90
        0
 91
        1
 62
     0
 92
       -2
340
0
 93
        0
 40
1.125
309
GRIDFORMAT_END
 95
        4
302
GRIDFORMAT
  1
GRIDFORMAT_BEGIN
 90
        0
 91
        1
 62
     0
 92
       -2
340
0
 93
        0
 40
1.125
309
GRIDFORMAT_END
 95
        8
302
GRIDFORMAT
  1
GRIDFORMAT_BEGIN
 90
        0
 91
        1
 62
     0
 92
       -2
340
0
 93
        0
 40
1.125
309
GRIDFORMAT_END
 95
       16
302
GRIDFORMAT
  1
GRIDFORMAT_BEGIN
 90
        0
 91
        1
 62
     0
 92
       -2
340
0
 93
        0
 40
1.125
309
GRIDFORMAT_END
 95
       32
302
GRIDFORMAT
  1
GRIDFORMAT_BEGIN
 90
        0
 91
        1
 62
     0
 92
       -2
340
0
 93
        0
 40
1.125
309
GRIDFORMAT_END
309
TABLEFORMAT_END
  1
CELLSTYLE_BEGIN
 90
        1
 91
        1
300
_TITLE
309
CELLSTYLE_END
300
CELLSTYLE
  1
TABLEFORMAT_BEGIN
 90
        5
170
     1
 91
        0
 92
        0
 62
   257
 93
        1
300
CONTENTFORMAT
  1
CONTENTFORMAT_BEGIN
 90
        0
 91
        0
 92
      512
 93
        0
300

 40
0.0
140
1.0
 94
        5
 62
     0
340
11
144
4.5
309
CONTENTFORMAT_END
171
     1
301
MARGIN
  1
CELLMARGIN_BEGIN
 40
1.5
 40
1.5
 40
1.5
 40
1.5
 40
4.5
 40
4.5
309
CELLMARGIN_END
 94
        6
 95
        1
302
GRIDFORMAT
  1
GRIDFORMAT_BEGIN
 90
        0
 91
        1
 62
     0
 92
       -2
340
0
 93
        0
 40
1.125
309
GRIDFORMAT_END
 95
        2
302
GRIDFORMAT
  1
GRIDFORMAT_BEGIN
 90
        0
 91
        1
 62
     0
 92
       -2
340
0
 93
        0
 40
1.125
309
GRIDFORMAT_END
 95
        4
302
GRIDFORMAT
  1
GRIDFORMAT_BEGIN
 90
        0
 91
        1
 62
     0
 92
       -2
340
0
 93
        0
 40
1.125
309
GRIDFORMAT_END
 95
        8
302
GRIDFORMAT
  1
GRIDFORMAT_BEGIN
 90
        0
 91
        1
 62
     0
 92
       -2
340
0
 93
        0
 40
1.125
309
GRIDFORMAT_END
 95
       16
302
GRIDFORMAT
  1
GRIDFORMAT_BEGIN
 90
        0
 91
        1
 62
     0
 92
       -2
340
0
 93
        0
 40
1.125
309
GRIDFORMAT_END
 95
       32
302
GRIDFORMAT
  1
GRIDFORMAT_BEGIN
 90
        0
 91
        1
 62
     0
 92
       -2
340
0
 93
        0
 40
1.125
309
GRIDFORMAT_END
309
TABLEFORMAT_END
  1
CELLSTYLE_BEGIN
 90
        2
 91
        1
300
_HEADER
309
CELLSTYLE_END
300
CELLSTYLE
  1
TABLEFORMAT_BEGIN
 90
        5
170
     1
 91
        0
 92
        0
 62
   257
 93
        1
300
CONTENTFORMAT
  1
CONTENTFORMAT_BEGIN
 90
        0
 91
        0
 92
      512
 93
        0
300

 40
0.0
140
1.0
 94
        2
 62
     0
340
11
144
4.5
309
CONTENTFORMAT_END
171
     1
301
MARGIN
  1
CELLMARGIN_BEGIN
 40
1.5
 40
1.5
 40
1.5
 40
1.5
 40
4.5
 40
4.5
309
CELLMARGIN_END
 94
        6
 95
        1
302
GRIDFORMAT
  1
GRIDFORMAT_BEGIN
 90
        0
 91
        1
 62
     0
 92
       -2
340
0
 93
        0
 40
1.125
309
GRIDFORMAT_END
 95
        2
302
GRIDFORMAT
  1
GRIDFORMAT_BEGIN
 90
        0
 91
        1
 62
     0
 92
       -2
340
0
 93
        0
 40
1.125
309
GRIDFORMAT_END
 95
        4
302
GRIDFORMAT
  1
GRIDFORMAT_BEGIN
 90
        0
 91
        1
 62
     0
 92
       -2
340
0
 93
        0
 40
1.125
309
GRIDFORMAT_END
 95
        8
302
GRIDFORMAT
  1
GRIDFORMAT_BEGIN
 90
        0
 91
        1
 62
     0
 92
       -2
340
0
 93
        0
 40
1.125
309
GRIDFORMAT_END
 95
       16
302
GRIDFORMAT
  1
GRIDFORMAT_BEGIN
 90
        0
 91
        1
 62
     0
 92
       -2
340
0
 93
        0
 40
1.125
309
GRIDFORMAT_END
 95
       32
302
GRIDFORMAT
  1
GRIDFORMAT_BEGIN
 90
        0
 91
        1
 62
     0
 92
       -2
340
0
 93
        0
 40
1.125
309
GRIDFORMAT_END
309
TABLEFORMAT_END
  1
CELLSTYLE_BEGIN
 90
        3
 91
        2
300
_DATA
309
CELLSTYLE_END
  0
XRECORD
  5
2128
102
{ACAD_REACTORS
330
20A6
102
}
330
20A6
100
AcDbXrecord
280
     1
102
ACAD_ROUNDTRIP_PRE2007_TABLESTYLE
 90
      512
 91
        0
  1

 92
      512
 93
        0
  2

 94
      512
 95
        0
  3

  0
XRECORD
  5
210D
102
{ACAD_REACTORS
330
210C
102
}
330
210C
100
AcDbXrecord
280
     1
102
RTVSPropertyOp0
 70
     1
102
RTVSPropertyOp1
 70
     1
102
RTVSPropertyOp2
 70
     1
102
RTVSPropertyOp3
 70
     1
102
RTVSPropertyOp4
 70
     1
102
RTVSPropertyOp5
 70
     1
102
RTVSPropertyOp6
 70
     1
102
RTVSPropertyOp7
 70
     1
102
RTVSPropertyOp8
 70
     1
102
RTVSPropertyOp9
 70
     1
102
RTVSPropertyOp10
 70
     1
102
RTVSPropertyOp11
 70
     1
102
RTVSPropertyOp12
 70
     1
102
RTVSPropertyOp13
 70
     1
102
RTVSPropertyOp14
 70
     1
102
RTVSPropertyOp15
 70
     1
102
RTVSPropertyOp16
 70
     1
102
RTVSPropertyOp17
 70
     1
102
RTVSPropertyOp18
 70
     1
102
RTVSPropertyOp19
 70
     1
102
RTVSPropertyOp20
 70
     1
102
RTVSPropertyOp21
 70
     1
102
RTVSPropertyOp22
 70
     1
102
RTVSPropertyOp23
 70
     1
102
RTVSPropertyOp24
 70
     1
102
RTVSPropertyOp25
 70
     1
102
RTVSPropertyOp26
 70
     1
102
RTVSPropertyOp27
 70
     1
  0
XRECORD
  5
2111
102
{ACAD_REACTORS
330
2110
102
}
330
2110
100
AcDbXrecord
280
     1
102
RTVSPropertyOp0
 70
     1
102
RTVSPropertyOp1
 70
     1
102
RTVSPropertyOp2
 70
     1
102
RTVSPropertyOp3
 70
     1
102
RTVSPropertyOp4
 70
     1
102
RTVSPropertyOp5
 70
     1
102
RTVSPropertyOp6
 70
     1
102
RTVSPropertyOp7
 70
     1
102
RTVSPropertyOp8
 70
     1
102
RTVSPropertyOp9
 70
     1
102
RTVSPropertyOp10
 70
     1
102
RTVSPropertyOp11
 70
     1
102
RTVSPropertyOp12
 70
     1
102
RTVSPropertyOp13
 70
     1
102
RTVSPropertyOp14
 70
     1
102
RTVSPropertyOp15
 70
     1
102
RTVSPropertyOp16
 70
     1
102
RTVSPropertyOp17
 70
     1
102
RTVSPropertyOp18
 70
     1
102
RTVSPropertyOp19
 70
     1
102
RTVSPropertyOp20
 70
     1
102
RTVSPropertyOp21
 70
     1
102
RTVSPropertyOp22
 70
     1
102
RTVSPropertyOp23
 70
     1
102
RTVSPropertyOp24
 70
     1
102
RTVSPropertyOp25
 70
     1
102
RTVSPropertyOp26
 70
     1
102
RTVSPropertyOp27
 70
     1
  0
XRECORD
  5
210F
102
{ACAD_REACTORS
330
210E
102
}
330
210E
100
AcDbXrecord
280
     1
102
RTVSPropertyOp0
 70
     1
102
RTVSPropertyOp1
 70
     1
102
RTVSPropertyOp2
 70
     1
102
RTVSPropertyOp3
 70
     1
102
RTVSPropertyOp4
 70
     1
102
RTVSPropertyOp5
 70
     1
102
RTVSPropertyOp6
 70
     1
102
RTVSPropertyOp7
 70
     1
102
RTVSPropertyOp8
 70
     1
102
RTVSPropertyOp9
 70
     1
102
RTVSPropertyOp10
 70
     1
102
RTVSPropertyOp11
 70
     1
102
RTVSPropertyOp12
 70
     1
102
RTVSPropertyOp13
 70
     1
102
RTVSPropertyOp14
 70
     1
102
RTVSPropertyOp15
 70
     1
102
RTVSPropertyOp16
 70
     1
102
RTVSPropertyOp17
 70
     1
102
RTVSPropertyOp18
 70
     1
102
RTVSPropertyOp19
 70
     1
102
RTVSPropertyOp20
 70
     1
102
RTVSPropertyOp21
 70
     1
102
RTVSPropertyOp22
 70
     1
102
RTVSPropertyOp23
 70
     1
102
RTVSPropertyOp24
 70
     1
102
RTVSPropertyOp25
 70
     1
102
RTVSPropertyOp26
 70
     1
102
RTVSPropertyOp27
 70
     1
  0
XRECORD
  5
210B
102
{ACAD_REACTORS
330
210A
102
}
330
210A
100
AcDbXrecord
280
     1
102
RTVSPropertyOp0
 70
     1
102
RTVSPropertyOp1
 70
     1
102
RTVSPropertyOp2
 70
     1
102
RTVSPropertyOp3
 70
     1
102
RTVSPropertyOp4
 70
     1
102
RTVSPropertyOp5
 70
     1
102
RTVSPropertyOp6
 70
     1
102
RTVSPropertyOp7
 70
     1
102
RTVSPropertyOp8
 70
     1
102
RTVSPropertyOp9
 70
     1
102
RTVSPropertyOp10
 70
     1
102
RTVSPropertyOp11
 70
     1
102
RTVSPropertyOp12
 70
     1
102
RTVSPropertyOp13
 70
     1
102
RTVSPropertyOp14
 70
     1
102
RTVSPropertyOp15
 70
     1
102
RTVSPropertyOp16
 70
     1
102
RTVSPropertyOp17
 70
     1
102
RTVSPropertyOp18
 70
     1
102
RTVSPropertyOp19
 70
     1
102
RTVSPropertyOp20
 70
     1
102
RTVSPropertyOp21
 70
     1
102
RTVSPropertyOp22
 70
     1
102
RTVSPropertyOp23
 70
     1
102
RTVSPropertyOp24
 70
     1
102
RTVSPropertyOp25
 70
     1
102
RTVSPropertyOp26
 70
     1
102
RTVSPropertyOp27
 70
     1
  0
XRECORD
  5
2119
102
{ACAD_REACTORS
330
2118
102
}
330
2118
100
AcDbXrecord
280
     1
102
RTVSPropertyOp0
 70
     1
102
RTVSPropertyOp1
 70
     1
102
RTVSPropertyOp2
 70
     1
102
RTVSPropertyOp3
 70
     1
102
RTVSPropertyOp4
 70
     1
102
RTVSPropertyOp5
 70
     1
102
RTVSPropertyOp6
 70
     1
102
RTVSPropertyOp7
 70
     1
102
RTVSPropertyOp8
 70
     1
102
RTVSPropertyOp9
 70
     1
102
RTVSPropertyOp10
 70
     1
102
RTVSPropertyOp11
 70
     1
102
RTVSPropertyOp12
 70
     1
102
RTVSPropertyOp13
 70
     1
102
RTVSPropertyOp14
 70
     1
102
RTVSPropertyOp15
 70
     1
102
RTVSPropertyOp16
 70
     1
102
RTVSPropertyOp17
 70
     1
102
RTVSPropertyOp18
 70
     1
102
RTVSPropertyOp19
 70
     1
102
RTVSPropertyOp20
 70
     1
102
RTVSPropertyOp21
 70
     1
102
RTVSPropertyOp22
 70
     1
102
RTVSPropertyOp23
 70
     1
102
RTVSPropertyOp24
 70
     1
102
RTVSPropertyOp25
 70
     1
102
RTVSPropertyOp26
 70
     1
102
RTVSPropertyOp27
 70
     1
  0
XRECORD
  5
2121
102
{ACAD_REACTORS
330
2120
102
}
330
2120
100
AcDbXrecord
280
     1
102
RTVSPropertyOp0
 70
     1
102
RTVSPropertyOp1
 70
     1
102
RTVSPropertyOp2
 70
     1
102
RTVSPropertyOp3
 70
     1
102
RTVSPropertyOp4
 70
     1
102
RTVSPropertyOp5
 70
     1
102
RTVSPropertyOp6
 70
     1
102
RTVSPropertyOp7
 70
     1
102
RTVSPropertyOp8
 70
     1
102
RTVSPropertyOp9
 70
     1
102
RTVSPropertyOp10
 70
     1
102
RTVSPropertyOp11
 70
     1
102
RTVSPropertyOp12
 70
     1
102
RTVSPropertyOp13
 70
     1
102
RTVSPropertyOp14
 70
     1
102
RTVSPropertyOp15
 70
     1
102
RTVSPropertyOp16
 70
     1
102
RTVSPropertyOp17
 70
     1
102
RTVSPropertyOp18
 70
     1
102
RTVSPropertyOp19
 70
     1
102
RTVSPropertyOp20
 70
     1
102
RTVSPropertyOp21
 70
     1
102
RTVSPropertyOp22
 70
     1
102
RTVSPropertyOp23
 70
     1
102
RTVSPropertyOp24
 70
     1
102
RTVSPropertyOp25
 70
     1
102
RTVSPropertyOp26
 70
     1
102
RTVSPropertyOp27
 70
     1
  0
XRECORD
  5
2113
102
{ACAD_REACTORS
330
2112
102
}
330
2112
100
AcDbXrecord
280
     1
102
RTVSPropertyOp0
 70
     1
102
RTVSPropertyOp1
 70
     1
102
RTVSPropertyOp2
 70
     1
102
RTVSPropertyOp3
 70
     1
102
RTVSPropertyOp4
 70
     1
102
RTVSPropertyOp5
 70
     1
102
RTVSPropertyOp6
 70
     1
102
RTVSPropertyOp7
 70
     1
102
RTVSPropertyOp8
 70
     1
102
RTVSPropertyOp9
 70
     1
102
RTVSPropertyOp10
 70
     1
102
RTVSPropertyOp11
 70
     1
102
RTVSPropertyOp12
 70
     1
102
RTVSPropertyOp13
 70
     1
102
RTVSPropertyOp14
 70
     1
102
RTVSPropertyOp15
 70
     1
102
RTVSPropertyOp16
 70
     1
102
RTVSPropertyOp17
 70
     1
102
RTVSPropertyOp18
 70
     1
102
RTVSPropertyOp19
 70
     1
102
RTVSPropertyOp20
 70
     1
102
RTVSPropertyOp21
 70
     1
102
RTVSPropertyOp22
 70
     1
102
RTVSPropertyOp23
 70
     1
102
RTVSPropertyOp24
 70
     1
102
RTVSPropertyOp25
 70
     1
102
RTVSPropertyOp26
 70
     1
102
RTVSPropertyOp27
 70
     1
  0
XRECORD
  5
2117
102
{ACAD_REACTORS
330
2116
102
}
330
2116
100
AcDbXrecord
280
     1
102
RTVSPropertyOp0
 70
     1
102
RTVSPropertyOp1
 70
     1
102
RTVSPropertyOp2
 70
     1
102
RTVSPropertyOp3
 70
     1
102
RTVSPropertyOp4
 70
     1
102
RTVSPropertyOp5
 70
     1
102
RTVSPropertyOp6
 70
     1
102
RTVSPropertyOp7
 70
     1
102
RTVSPropertyOp8
 70
     1
102
RTVSPropertyOp9
 70
     1
102
RTVSPropertyOp10
 70
     1
102
RTVSPropertyOp11
 70
     1
102
RTVSPropertyOp12
 70
     1
102
RTVSPropertyOp13
 70
     1
102
RTVSPropertyOp14
 70
     1
102
RTVSPropertyOp15
 70
     1
102
RTVSPropertyOp16
 70
     1
102
RTVSPropertyOp17
 70
     1
102
RTVSPropertyOp18
 70
     1
102
RTVSPropertyOp19
 70
     1
102
RTVSPropertyOp20
 70
     1
102
RTVSPropertyOp21
 70
     1
102
RTVSPropertyOp22
 70
     1
102
RTVSPropertyOp23
 70
     1
102
RTVSPropertyOp24
 70
     1
102
RTVSPropertyOp25
 70
     1
102
RTVSPropertyOp26
 70
     1
102
RTVSPropertyOp27
 70
     1
  0
XRECORD
  5
2127
102
{ACAD_REACTORS
330
2126
102
}
330
2126
100
AcDbXrecord
280
     1
102
RTVSPropertyOp0
 70
     0
102
RTVSPropertyOp1
 70
     0
102
RTVSPropertyOp2
 70
     0
102
RTVSPropertyOp3
 70
     0
102
RTVSPropertyOp4
 70
     0
102
RTVSPropertyOp5
 70
     0
102
RTVSPropertyOp6
 70
     0
102
RTVSPropertyOp7
 70
     0
102
RTVSPropertyOp8
 70
     0
102
RTVSPropertyOp9
 70
     0
102
RTVSPropertyOp10
 70
     0
102
RTVSPropertyOp11
 70
     0
102
RTVSPropertyOp12
 70
     0
102
RTVSPropertyOp13
 70
     0
102
RTVSPropertyOp14
 70
     2
102
RTVSPropertyOp15
 70
     0
102
RTVSPropertyOp16
 70
     0
102
RTVSPropertyOp17
 70
     0
102
RTVSPropertyOp18
 70
     0
102
RTVSPropertyOp19
 70
     0
102
RTVSPropertyOp20
 70
     0
102
RTVSPropertyOp21
 70
     0
102
RTVSPropertyOp22
 70
     0
102
RTVSPropertyOp23
 70
     0
102
RTVSPropertyOp24
 70
     0
102
RTVSPropertyOp25
 70
     0
102
RTVSPropertyOp26
 70
     0
102
RTVSPropertyOp27
 70
     0
  0
XRECORD
  5
211F
102
{ACAD_REACTORS
330
211E
102
}
330
211E
100
AcDbXrecord
280
     1
102
RTVSPropertyOp0
 70
     1
102
RTVSPropertyOp1
 70
     1
102
RTVSPropertyOp2
 70
     1
102
RTVSPropertyOp3
 70
     1
102
RTVSPropertyOp4
 70
     1
102
RTVSPropertyOp5
 70
     1
102
RTVSPropertyOp6
 70
     1
102
RTVSPropertyOp7
 70
     1
102
RTVSPropertyOp8
 70
     1
102
RTVSPropertyOp9
 70
     1
102
RTVSPropertyOp10
 70
     1
102
RTVSPropertyOp11
 70
     1
102
RTVSPropertyOp12
 70
     1
102
RTVSPropertyOp13
 70
     1
102
RTVSPropertyOp14
 70
     1
102
RTVSPropertyOp15
 70
     1
102
RTVSPropertyOp16
 70
     1
102
RTVSPropertyOp17
 70
     1
102
RTVSPropertyOp18
 70
     1
102
RTVSPropertyOp19
 70
     1
102
RTVSPropertyOp20
 70
     1
102
RTVSPropertyOp21
 70
     1
102
RTVSPropertyOp22
 70
     1
102
RTVSPropertyOp23
 70
     1
102
RTVSPropertyOp24
 70
     1
102
RTVSPropertyOp25
 70
     1
102
RTVSPropertyOp26
 70
     1
102
RTVSPropertyOp27
 70
     1
  0
XRECORD
  5
2103
102
{ACAD_REACTORS
330
2102
102
}
330
2102
100
AcDbXrecord
280
     1
102
RTVSPropertyOp0
 70
     1
102
RTVSPropertyOp1
 70
     1
102
RTVSPropertyOp2
 70
     1
102
RTVSPropertyOp3
 70
     1
102
RTVSPropertyOp4
 70
     1
102
RTVSPropertyOp5
 70
     1
102
RTVSPropertyOp6
 70
     1
102
RTVSPropertyOp7
 70
     1
102
RTVSPropertyOp8
 70
     1
102
RTVSPropertyOp9
 70
     1
102
RTVSPropertyOp10
 70
     1
102
RTVSPropertyOp11
 70
     1
102
RTVSPropertyOp12
 70
     1
102
RTVSPropertyOp13
 70
     1
102
RTVSPropertyOp14
 70
     1
102
RTVSPropertyOp15
 70
     1
102
RTVSPropertyOp16
 70
     1
102
RTVSPropertyOp17
 70
     1
102
RTVSPropertyOp18
 70
     1
102
RTVSPropertyOp19
 70
     1
102
RTVSPropertyOp20
 70
     1
102
RTVSPropertyOp21
 70
     1
102
RTVSPropertyOp22
 70
     1
102
RTVSPropertyOp23
 70
     1
102
RTVSPropertyOp24
 70
     1
102
RTVSPropertyOp25
 70
     1
102
RTVSPropertyOp26
 70
     1
102
RTVSPropertyOp27
 70
     1
  0
XRECORD
  5
2105
102
{ACAD_REACTORS
330
2104
102
}
330
2104
100
AcDbXrecord
280
     1
102
RTVSPropertyOp0
 70
     1
102
RTVSPropertyOp1
 70
     1
102
RTVSPropertyOp2
 70
     1
102
RTVSPropertyOp3
 70
     1
102
RTVSPropertyOp4
 70
     1
102
RTVSPropertyOp5
 70
     1
102
RTVSPropertyOp6
 70
     1
102
RTVSPropertyOp7
 70
     1
102
RTVSPropertyOp8
 70
     1
102
RTVSPropertyOp9
 70
     1
102
RTVSPropertyOp10
 70
     1
102
RTVSPropertyOp11
 70
     1
102
RTVSPropertyOp12
 70
     1
102
RTVSPropertyOp13
 70
     1
102
RTVSPropertyOp14
 70
     1
102
RTVSPropertyOp15
 70
     1
102
RTVSPropertyOp16
 70
     1
102
RTVSPropertyOp17
 70
     1
102
RTVSPropertyOp18
 70
     1
102
RTVSPropertyOp19
 70
     1
102
RTVSPropertyOp20
 70
     1
102
RTVSPropertyOp21
 70
     1
102
RTVSPropertyOp22
 70
     1
102
RTVSPropertyOp23
 70
     1
102
RTVSPropertyOp24
 70
     1
102
RTVSPropertyOp25
 70
     1
102
RTVSPropertyOp26
 70
     1
102
RTVSPropertyOp27
 70
     1
  0
XRECORD
  5
2107
102
{ACAD_REACTORS
330
2106
102
}
330
2106
100
AcDbXrecord
280
     1
102
RTVSPropertyOp0
 70
     1
102
RTVSPropertyOp1
 70
     1
102
RTVSPropertyOp2
 70
     1
102
RTVSPropertyOp3
 70
     1
102
RTVSPropertyOp4
 70
     1
102
RTVSPropertyOp5
 70
     1
102
RTVSPropertyOp6
 70
     1
102
RTVSPropertyOp7
 70
     1
102
RTVSPropertyOp8
 70
     1
102
RTVSPropertyOp9
 70
     1
102
RTVSPropertyOp10
 70
     1
102
RTVSPropertyOp11
 70
     1
102
RTVSPropertyOp12
 70
     1
102
RTVSPropertyOp13
 70
     1
102
RTVSPropertyOp14
 70
     1
102
RTVSPropertyOp15
 70
     1
102
RTVSPropertyOp16
 70
     1
102
RTVSPropertyOp17
 70
     1
102
RTVSPropertyOp18
 70
     1
102
RTVSPropertyOp19
 70
     1
102
RTVSPropertyOp20
 70
     1
102
RTVSPropertyOp21
 70
     1
102
RTVSPropertyOp22
 70
     1
102
RTVSPropertyOp23
 70
     1
102
RTVSPropertyOp24
 70
     1
102
RTVSPropertyOp25
 70
     1
102
RTVSPropertyOp26
 70
     1
102
RTVSPropertyOp27
 70
     1
  0
XRECORD
  5
2109
102
{ACAD_REACTORS
330
2108
102
}
330
2108
100
AcDbXrecord
280
     1
102
RTVSPropertyOp0
 70
     1
102
RTVSPropertyOp1
 70
     1
102
RTVSPropertyOp2
 70
     1
102
RTVSPropertyOp3
 70
     1
102
RTVSPropertyOp4
 70
     1
102
RTVSPropertyOp5
 70
     1
102
RTVSPropertyOp6
 70
     1
102
RTVSPropertyOp7
 70
     1
102
RTVSPropertyOp8
 70
     1
102
RTVSPropertyOp9
 70
     1
102
RTVSPropertyOp10
 70
     1
102
RTVSPropertyOp11
 70
     1
102
RTVSPropertyOp12
 70
     1
102
RTVSPropertyOp13
 70
     1
102
RTVSPropertyOp14
 70
     1
102
RTVSPropertyOp15
 70
     1
102
RTVSPropertyOp16
 70
     1
102
RTVSPropertyOp17
 70
     1
102
RTVSPropertyOp18
 70
     1
102
RTVSPropertyOp19
 70
     1
102
RTVSPropertyOp20
 70
     1
102
RTVSPropertyOp21
 70
     1
102
RTVSPropertyOp22
 70
     1
102
RTVSPropertyOp23
 70
     1
102
RTVSPropertyOp24
 70
     1
102
RTVSPropertyOp25
 70
     1
102
RTVSPropertyOp26
 70
     1
102
RTVSPropertyOp27
 70
     1
  0
XRECORD
  5
2123
102
{ACAD_REACTORS
330
2122
102
}
330
2122
100
AcDbXrecord
280
     1
102
RTVSPropertyOp0
 70
     0
102
RTVSPropertyOp1
 70
     0
102
RTVSPropertyOp2
 70
     0
102
RTVSPropertyOp3
 70
     0
102
RTVSPropertyOp4
 70
     0
102
RTVSPropertyOp5
 70
     0
102
RTVSPropertyOp6
 70
     0
102
RTVSPropertyOp7
 70
     0
102
RTVSPropertyOp8
 70
     0
102
RTVSPropertyOp9
 70
     0
102
RTVSPropertyOp10
 70
     0
102
RTVSPropertyOp11
 70
     0
102
RTVSPropertyOp12
 70
     0
102
RTVSPropertyOp13
 70
     0
102
RTVSPropertyOp14
 70
     2
102
RTVSPropertyOp15
 70
     0
102
RTVSPropertyOp16
 70
     0
102
RTVSPropertyOp17
 70
     0
102
RTVSPropertyOp18
 70
     0
102
RTVSPropertyOp19
 70
     0
102
RTVSPropertyOp20
 70
     0
102
RTVSPropertyOp21
 70
     0
102
RTVSPropertyOp22
 70
     0
102
RTVSPropertyOp23
 70
     0
102
RTVSPropertyOp24
 70
     0
102
RTVSPropertyOp25
 70
     0
102
RTVSPropertyOp26
 70
     0
102
RTVSPropertyOp27
 70
     0
  0
XRECORD
  5
211D
102
{ACAD_REACTORS
330
211C
102
}
330
211C
100
AcDbXrecord
280
     1
102
RTVSPropertyOp0
 70
     1
102
RTVSPropertyOp1
 70
     1
102
RTVSPropertyOp2
 70
     1
102
RTVSPropertyOp3
 70
     1
102
RTVSPropertyOp4
 70
     1
102
RTVSPropertyOp5
 70
     1
102
RTVSPropertyOp6
 70
     1
102
RTVSPropertyOp7
 70
     1
102
RTVSPropertyOp8
 70
     1
102
RTVSPropertyOp9
 70
     1
102
RTVSPropertyOp10
 70
     1
102
RTVSPropertyOp11
 70
     1
102
RTVSPropertyOp12
 70
     1
102
RTVSPropertyOp13
 70
     1
102
RTVSPropertyOp14
 70
     1
102
RTVSPropertyOp15
 70
     1
102
RTVSPropertyOp16
 70
     1
102
RTVSPropertyOp17
 70
     1
102
RTVSPropertyOp18
 70
     1
102
RTVSPropertyOp19
 70
     1
102
RTVSPropertyOp20
 70
     1
102
RTVSPropertyOp21
 70
     1
102
RTVSPropertyOp22
 70
     1
102
RTVSPropertyOp23
 70
     1
102
RTVSPropertyOp24
 70
     1
102
RTVSPropertyOp25
 70
     1
102
RTVSPropertyOp26
 70
     1
102
RTVSPropertyOp27
 70
     1
  0
XRECORD
  5
2125
102
{ACAD_REACTORS
330
2124
102
}
330
2124
100
AcDbXrecord
280
     1
102
RTVSPropertyOp0
 70
     0
102
RTVSPropertyOp1
 70
     0
102
RTVSPropertyOp2
 70
     0
102
RTVSPropertyOp3
 70
     0
102
RTVSPropertyOp4
 70
     0
102
RTVSPropertyOp5
 70
     0
102
RTVSPropertyOp6
 70
     0
102
RTVSPropertyOp7
 70
     0
102
RTVSPropertyOp8
 70
     0
102
RTVSPropertyOp9
 70
     0
102
RTVSPropertyOp10
 70
     0
102
RTVSPropertyOp11
 70
     0
102
RTVSPropertyOp12
 70
     0
102
RTVSPropertyOp13
 70
     0
102
RTVSPropertyOp14
 70
     2
102
RTVSPropertyOp15
 70
     0
102
RTVSPropertyOp16
 70
     0
102
RTVSPropertyOp17
 70
     0
102
RTVSPropertyOp18
 70
     0
102
RTVSPropertyOp19
 70
     0
102
RTVSPropertyOp20
 70
     0
102
RTVSPropertyOp21
 70
     0
102
RTVSPropertyOp22
 70
     0
102
RTVSPropertyOp23
 70
     0
102
RTVSPropertyOp24
 70
     0
102
RTVSPropertyOp25
 70
     0
102
RTVSPropertyOp26
 70
     0
102
RTVSPropertyOp27
 70
     0
  0
XRECORD
  5
2115
102
{ACAD_REACTORS
330
2114
102
}
330
2114
100
AcDbXrecord
280
     1
102
RTVSPropertyOp0
 70
     1
102
RTVSPropertyOp1
 70
     1
102
RTVSPropertyOp2
 70
     1
102
RTVSPropertyOp3
 70
     1
102
RTVSPropertyOp4
 70
     1
102
RTVSPropertyOp5
 70
     1
102
RTVSPropertyOp6
 70
     1
102
RTVSPropertyOp7
 70
     1
102
RTVSPropertyOp8
 70
     1
102
RTVSPropertyOp9
 70
     1
102
RTVSPropertyOp10
 70
     1
102
RTVSPropertyOp11
 70
     1
102
RTVSPropertyOp12
 70
     1
102
RTVSPropertyOp13
 70
     1
102
RTVSPropertyOp14
 70
     1
102
RTVSPropertyOp15
 70
     1
102
RTVSPropertyOp16
 70
     1
102
RTVSPropertyOp17
 70
     1
102
RTVSPropertyOp18
 70
     1
102
RTVSPropertyOp19
 70
     1
102
RTVSPropertyOp20
 70
     1
102
RTVSPropertyOp21
 70
     1
102
RTVSPropertyOp22
 70
     1
102
RTVSPropertyOp23
 70
     1
102
RTVSPropertyOp24
 70
     1
102
RTVSPropertyOp25
 70
     1
102
RTVSPropertyOp26
 70
     1
102
RTVSPropertyOp27
 70
     1
  0
XRECORD
  5
211B
102
{ACAD_REACTORS
330
211A
102
}
330
211A
100
AcDbXrecord
280
     1
102
RTVSPropertyOp0
 70
     1
102
RTVSPropertyOp1
 70
     1
102
RTVSPropertyOp2
 70
     1
102
RTVSPropertyOp3
 70
     1
102
RTVSPropertyOp4
 70
     1
102
RTVSPropertyOp5
 70
     1
102
RTVSPropertyOp6
 70
     1
102
RTVSPropertyOp7
 70
     1
102
RTVSPropertyOp8
 70
     1
102
RTVSPropertyOp9
 70
     1
102
RTVSPropertyOp10
 70
     1
102
RTVSPropertyOp11
 70
     1
102
RTVSPropertyOp12
 70
     1
102
RTVSPropertyOp13
 70
     1
102
RTVSPropertyOp14
 70
     1
102
RTVSPropertyOp15
 70
     1
102
RTVSPropertyOp16
 70
     1
102
RTVSPropertyOp17
 70
     1
102
RTVSPropertyOp18
 70
     1
102
RTVSPropertyOp19
 70
     1
102
RTVSPropertyOp20
 70
     1
102
RTVSPropertyOp21
 70
     1
102
RTVSPropertyOp22
 70
     1
102
RTVSPropertyOp23
 70
     1
102
RTVSPropertyOp24
 70
     1
102
RTVSPropertyOp25
 70
     1
102
RTVSPropertyOp26
 70
     1
102
RTVSPropertyOp27
 70
     1
  0
ENDSEC
  0
EOF
