  0
SECTION
  2
HEADER
  9
$ACADVER
  1
AC1015
  9
$ACADMAINTVER
 70
    20
  9
$DWGCODEPAGE
  3
ANSI_1252
  9
$INSBASE
 10
0.0
 20
0.0
 30
0.0
  9
$EXTMIN
 10
216.3728862983002
 20
297.4300469810922
 30
-0.0000000017937957
  9
$EXTMAX
 10
218.0677468869527
 20
299.2800469810921
 30
0.000000000155555
  9
$LIMMIN
 10
0.0
 20
0.0
  9
$LIMMAX
 10
420.0
 20
297.0
  9
$ORTHOMODE
 70
     0
  9
$REGENMODE
 70
     1
  9
$FILLMODE
 70
     1
  9
$QTEXTMODE
 70
     0
  9
$MIRRTEXT
 70
     1
  9
$LTSCALE
 40
0.2
  9
$ATTMODE
 70
     1
  9
$TEXTSIZE
 40
2.5
  9
$TRACEWID
 40
1.0
  9
$TEXTSTYLE
  7
SANINDUSA
  9
$CLAYER
  8
cotas
  9
$CELTYPE
  6
ByLayer
  9
$CECOLOR
 62
   256
  9
$CELTSCALE
 40
1.0
  9
$DISPSILH
 70
     0
  9
$DIMSCALE
 40
1.0
  9
$DIMASZ
 40
2.0
  9
$DIMEXO
 40
1.0
  9
$DIMDLI
 40
1.0
  9
$DIMRND
 40
0.0
  9
$DIMDLE
 40
0.0
  9
$DIMEXE
 40
1.0
  9
$DIMTP
 40
0.0
  9
$DIMTM
 40
0.0
  9
$DIMTXT
 40
2.0
  9
$DIMCEN
 40
0.0
  9
$DIMTSZ
 40
0.0
  9
$DIMTOL
 70
     0
  9
$DIMLIM
 70
     0
  9
$DIMTIH
 70
     0
  9
$DIMTOH
 70
     0
  9
$DIMSE1
 70
     0
  9
$DIMSE2
 70
     0
  9
$DIMTAD
 70
     1
  9
$DIMZIN
 70
     8
  9
$DIMBLK
  1

  9
$DIMASO
 70
     1
  9
$DIMSHO
 70
     1
  9
$DIMPOST
  1

  9
$DIMAPOST
  1

  9
$DIMALT
 70
     0
  9
$DIMALTD
 70
     3
  9
$DIMALTF
 40
0.03937007874016
  9
$DIMLFAC
 40
1.0
  9
$DIMTOFL
 70
     1
  9
$DIMTVP
 40
0.0
  9
$DIMTIX
 70
     0
  9
$DIMSOXD
 70
     0
  9
$DIMSAH
 70
     0
  9
$DIMBLK1
  1

  9
$DIMBLK2
  1

  9
$DIMSTYLE
  2
SANINDUSA
  9
$DIMCLRD
 70
   256
  9
$DIMCLRE
 70
   256
  9
$DIMCLRT
 70
   256
  9
$DIMTFAC
 40
1.0
  9
$DIMGAP
 40
1.0
  9
$DIMJUST
 70
     0
  9
$DIMSD1
 70
     0
  9
$DIMSD2
 70
     0
  9
$DIMTOLJ
 70
     0
  9
$DIMTZIN
 70
     8
  9
$DIMALTZ
 70
     0
  9
$DIMALTTZ
 70
     0
  9
$DIMUPT
 70
     0
  9
$DIMDEC
 70
     1
  9
$DIMTDEC
 70
     1
  9
$DIMALTU
 70
     2
  9
$DIMALTTD
 70
     3
  9
$DIMTXSTY
  7
SANINDUSA
  9
$DIMAUNIT
 70
     0
  9
$DIMADEC
 70
     1
  9
$DIMALTRND
 40
0.0
  9
$DIMAZIN
 70
     0
  9
$DIMDSEP
 70
    44
  9
$DIMATFIT
 70
     3
  9
$DIMFRAC
 70
     0
  9
$DIMLDRBLK
  1

  9
$DIMLUNIT
 70
     2
  9
$DIMLWD
 70
    -1
  9
$DIMLWE
 70
    -1
  9
$DIMTMOVE
 70
     0
  9
$LUNITS
 70
     2
  9
$LUPREC
 70
     4
  9
$SKETCHINC
 40
1.0
  9
$FILLETRAD
 40
0.0
  9
$AUNITS
 70
     0
  9
$AUPREC
 70
     0
  9
$MENU
  1
.
  9
$ELEVATION
 40
0.0
  9
$PELEVATION
 40
0.0
  9
$THICKNESS
 40
0.0
  9
$LIMCHECK
 70
     0
  9
$CHAMFERA
 40
10.0
  9
$CHAMFERB
 40
10.0
  9
$CHAMFERC
 40
20.0
  9
$CHAMFERD
 40
0.0
  9
$SKPOLY
 70
     0
  9
$TDCREATE
 40
2453259.436054502
  9
$TDUCREATE
 40
2453259.394387836
  9
$TDUPDATE
 40
2455817.490316470
  9
$TDUUPDATE
 40
2455817.448649803
  9
$TDINDWG
 40
0.0072211343
  9
$TDUSRTIMER
 40
0.0072211343
  9
$USRTIMER
 70
     1
  9
$ANGBASE
 50
0.0
  9
$ANGDIR
 70
     0
  9
$PDMODE
 70
     0
  9
$PDSIZE
 40
0.0
  9
$PLINEWID
 40
0.0
  9
$SPLFRAME
 70
     0
  9
$SPLINETYPE
 70
     6
  9
$SPLINESEGS
 70
     8
  9
$HANDSEED
  5
1410
  9
$SURFTAB1
 70
     6
  9
$SURFTAB2
 70
     6
  9
$SURFTYPE
 70
     6
  9
$SURFU
 70
     6
  9
$SURFV
 70
     6
  9
$UCSBASE
  2

  9
$UCSNAME
  2

  9
$UCSORG
 10
0.0
 20
0.0
 30
0.0
  9
$UCSXDIR
 10
1.0
 20
0.0
 30
0.0
  9
$UCSYDIR
 10
0.0
 20
1.0
 30
0.0
  9
$UCSORTHOREF
  2

  9
$UCSORTHOVIEW
 70
     0
  9
$UCSORGTOP
 10
0.0
 20
0.0
 30
0.0
  9
$UCSORGBOTTOM
 10
0.0
 20
0.0
 30
0.0
  9
$UCSORGLEFT
 10
0.0
 20
0.0
 30
0.0
  9
$UCSORGRIGHT
 10
0.0
 20
0.0
 30
0.0
  9
$UCSORGFRONT
 10
0.0
 20
0.0
 30
0.0
  9
$UCSORGBACK
 10
0.0
 20
0.0
 30
0.0
  9
$PUCSBASE
  2

  9
$PUCSNAME
  2

  9
$PUCSORG
 10
0.0
 20
0.0
 30
0.0
  9
$PUCSXDIR
 10
1.0
 20
0.0
 30
0.0
  9
$PUCSYDIR
 10
0.0
 20
1.0
 30
0.0
  9
$PUCSORTHOREF
  2

  9
$PUCSORTHOVIEW
 70
     0
  9
$PUCSORGTOP
 10
0.0
 20
0.0
 30
0.0
  9
$PUCSORGBOTTOM
 10
0.0
 20
0.0
 30
0.0
  9
$PUCSORGLEFT
 10
0.0
 20
0.0
 30
0.0
  9
$PUCSORGRIGHT
 10
0.0
 20
0.0
 30
0.0
  9
$PUCSORGFRONT
 10
0.0
 20
0.0
 30
0.0
  9
$PUCSORGBACK
 10
0.0
 20
0.0
 30
0.0
  9
$USERI1
 70
     0
  9
$USERI2
 70
     0
  9
$USERI3
 70
     0
  9
$USERI4
 70
     0
  9
$USERI5
 70
     0
  9
$USERR1
 40
0.0
  9
$USERR2
 40
0.0
  9
$USERR3
 40
0.0
  9
$USERR4
 40
0.0
  9
$USERR5
 40
0.0
  9
$WORLDVIEW
 70
     1
  9
$SHADEDGE
 70
     3
  9
$SHADEDIF
 70
    70
  9
$TILEMODE
 70
     1
  9
$MAXACTVP
 70
    64
  9
$PINSBASE
 10
0.0
 20
0.0
 30
0.0
  9
$PLIMCHECK
 70
     0
  9
$PEXTMIN
 10
1.000000000000000E+20
 20
1.000000000000000E+20
 30
1.000000000000000E+20
  9
$PEXTMAX
 10
-1.000000000000000E+20
 20
-1.000000000000000E+20
 30
-1.000000000000000E+20
  9
$PLIMMIN
 10
0.0
 20
0.0
  9
$PLIMMAX
 10
420.0
 20
297.0
  9
$UNITMODE
 70
     0
  9
$VISRETAIN
 70
     1
  9
$PLINEGEN
 70
     0
  9
$PSLTSCALE
 70
     1
  9
$TREEDEPTH
 70
  3020
  9
$CMLSTYLE
  2
Standard
  9
$CMLJUST
 70
     0
  9
$CMLSCALE
 40
20.0
  9
$PROXYGRAPHICS
 70
     1
  9
$MEASUREMENT
 70
     1
  9
$CELWEIGHT
370
    -1
  9
$ENDCAPS
280
     0
  9
$JOINSTYLE
280
     0
  9
$LWDISPLAY
290
     0
  9
$INSUNITS
 70
     4
  9
$HYPERLINKBASE
  1

  9
$STYLESHEET
  1
monochrome.ctb
  9
$XEDIT
290
     1
  9
$CEPSNTYPE
380
     0
  9
$PSTYLEMODE
290
     1
  9
$FINGERPRINTGUID
  2
{B98A73AA-52AA-4C10-B469-C0E7150AC31F}
  9
$VERSIONGUID
  2
{B5E7D571-C2A0-42B6-9233-C686E06541FC}
  9
$EXTNAMES
290
     1
  9
$PSVPSCALE
 40
0.0
  9
$OLESTARTUP
290
     0
  0
ENDSEC
  0
SECTION
  2
CLASSES
  0
CLASS
  1
ACDBDICTIONARYWDFLT
  2
AcDbDictionaryWithDefault
  3
ObjectDBX Classes
 90
        0
280
     0
281
     0
  0
CLASS
  1
ACDBPLACEHOLDER
  2
AcDbPlaceHolder
  3
ObjectDBX Classes
 90
        0
280
     0
281
     0
  0
CLASS
  1
LAYOUT
  2
AcDbLayout
  3
ObjectDBX Classes
 90
        0
280
     0
281
     0
  0
CLASS
  1
DICTIONARYVAR
  2
AcDbDictionaryVar
  3
ObjectDBX Classes
 90
        0
280
     0
281
     0
  0
CLASS
  1
DIMASSOC
  2
AcDbDimAssoc
  3
"AcDbDimAssoc|Product Desc:     AcDim ARX App For Dimension|Company:          Autodesk, Inc.|WEB Address:      www.autodesk.com"
 90
        0
280
     0
281
     0
  0
CLASS
  1
MATERIAL
  2
AcDbMaterial
  3
ObjectDBX Classes
 90
     1153
280
     0
281
     0
  0
CLASS
  1
VISUALSTYLE
  2
AcDbVisualStyle
  3
ObjectDBX Classes
 90
     4095
280
     0
281
     0
  0
CLASS
  1
TABLESTYLE
  2
AcDbTableStyle
  3
ObjectDBX Classes
 90
     4095
280
     0
281
     0
  0
CLASS
  1
SCALE
  2
AcDbScale
  3
ObjectDBX Classes
 90
     1153
280
     0
281
     0
  0
CLASS
  1
MLEADERSTYLE
  2
AcDbMLeaderStyle
  3
ACDB_MLEADERSTYLE_CLASS
 90
     4095
280
     0
281
     0
  0
CLASS
  1
AEC_REFEDIT_STATUS_TRACKER
  2
AecDbRefEditStatusTracker
  3
AecArchBase60|Product Desc: Autodesk Architectural Desktop 2007 |Company: Autodesk,Inc. |WEB Address: www.autodesk.com
 90
      129
280
     0
281
     0
  0
CLASS
  1
NPOCOLLECTION
  2
AcDbImpNonPersistentObjectsCollection
  3
ObjectDBX Classes
 90
     1153
280
     0
281
     0
  0
CLASS
  1
CELLSTYLEMAP
  2
AcDbCellStyleMap
  3
ObjectDBX Classes
 90
     1152
280
     0
281
     0
  0
ENDSEC
  0
SECTION
  2
TABLES
  0
TABLE
  2
VPORT
  5
8
330
0
100
AcDbSymbolTable
 70
     1
  0
VPORT
  5
12E8
330
8
100
AcDbSymbolTableRecord
100
AcDbViewportTableRecord
  2
*Active
 70
     0
 10
0.0
 20
0.0
 11
1.0
 21
1.0
 12
217.2203165926265
 22
298.3550469810922
 13
0.0
 23
0.0
 14
10.0
 24
10.0
 15
10.0
 25
10.0
 16
0.0
 26
0.0
 36
1.0
 17
0.0
 27
0.0
 37
0.0
 40
1.861562499999934
 41
1.645464025026068
 42
50.0
 43
0.0
 44
0.0
 50
0.0
 51
0.0
 71
     0
 72
   100
 73
     1
 74
     2
 75
     0
 76
     0
 77
     0
 78
     0
281
     0
 65
     1
110
0.0
120
0.0
130
0.0
111
1.0
121
0.0
131
0.0
112
0.0
122
1.0
132
0.0
 79
     0
146
0.0
  0
ENDTAB
  0
TABLE
  2
LTYPE
  5
5
330
0
100
AcDbSymbolTable
 70
     4
  0
LTYPE
  5
14
330
5
100
AcDbSymbolTableRecord
100
AcDbLinetypeTableRecord
  2
ByBlock
 70
     0
  3

 72
    65
 73
     0
 40
0.0
  0
LTYPE
  5
15
330
5
100
AcDbSymbolTableRecord
100
AcDbLinetypeTableRecord
  2
ByLayer
 70
     0
  3

 72
    65
 73
     0
 40
0.0
  0
LTYPE
  5
16
330
5
100
AcDbSymbolTableRecord
100
AcDbLinetypeTableRecord
  2
Continuous
 70
     0
  3
Solid line
 72
    65
 73
     0
 40
0.0
  0
LTYPE
  5
2D
330
5
100
AcDbSymbolTableRecord
100
AcDbLinetypeTableRecord
  2
DASHDOT
 70
     0
  3
Dash dot __ . __ . __ . __ . __ . __ . __ . __
 72
    65
 73
     4
 40
25.4
 49
12.7
 74
     0
 49
-6.349999999999999
 74
     0
 49
0.0
 74
     0
 49
-6.349999999999999
 74
     0
  0
LTYPE
  5
2E
330
5
100
AcDbSymbolTableRecord
100
AcDbLinetypeTableRecord
  2
HIDDEN
 70
     0
  3
Hidden __ __ __ __ __ __ __ __ __ __ __ __ __ _
 72
    65
 73
     2
 40
9.524999999999998
 49
6.349999999999999
 74
     0
 49
-3.174999999999999
 74
     0
  0
ENDTAB
  0
TABLE
  2
LAYER
  5
2
330
0
100
AcDbSymbolTable
 70
    16
  0
LAYER
  5
10
102
{ACAD_XDICTIONARY
360
136E
102
}
330
2
100
AcDbSymbolTableRecord
100
AcDbLayerTableRecord
  2
0
 70
     0
 62
     7
  6
Continuous
370
    -3
390
F
  0
LAYER
  5
2F
102
{ACAD_XDICTIONARY
360
1370
102
}
330
2
100
AcDbSymbolTableRecord
100
AcDbLayerTableRecord
  2
1
 70
     0
 62
     1
  6
Continuous
370
    -3
390
F
  0
LAYER
  5
30
102
{ACAD_XDICTIONARY
360
1372
102
}
330
2
100
AcDbSymbolTableRecord
100
AcDbLayerTableRecord
  2
2
 70
     0
 62
     2
  6
Continuous
370
    -3
390
F
  0
LAYER
  5
31
102
{ACAD_XDICTIONARY
360
1374
102
}
330
2
100
AcDbSymbolTableRecord
100
AcDbLayerTableRecord
  2
3
 70
     0
 62
     3
  6
Continuous
370
    -3
390
F
  0
LAYER
  5
32
102
{ACAD_XDICTIONARY
360
1376
102
}
330
2
100
AcDbSymbolTableRecord
100
AcDbLayerTableRecord
  2
4
 70
     0
 62
     4
  6
Continuous
370
    -3
390
F
  0
LAYER
  5
33
102
{ACAD_XDICTIONARY
360
1378
102
}
330
2
100
AcDbSymbolTableRecord
100
AcDbLayerTableRecord
  2
5
 70
     0
 62
     5
  6
Continuous
370
    -3
390
F
  0
LAYER
  5
34
102
{ACAD_XDICTIONARY
360
137A
102
}
330
2
100
AcDbSymbolTableRecord
100
AcDbLayerTableRecord
  2
6
 70
     0
 62
     6
  6
Continuous
370
    -3
390
F
  0
LAYER
  5
35
102
{ACAD_XDICTIONARY
360
137C
102
}
330
2
100
AcDbSymbolTableRecord
100
AcDbLayerTableRecord
  2
7
 70
     0
 62
     7
  6
Continuous
370
    -3
390
F
  0
LAYER
  5
36
102
{ACAD_XDICTIONARY
360
137E
102
}
330
2
100
AcDbSymbolTableRecord
100
AcDbLayerTableRecord
  2
cen
 70
     0
 62
     7
  6
DASHDOT
370
    -3
390
F
  0
LAYER
  5
37
102
{ACAD_XDICTIONARY
360
1380
102
}
330
2
100
AcDbSymbolTableRecord
100
AcDbLayerTableRecord
  2
hid
 70
     0
 62
     7
  6
HIDDEN
370
    -3
390
F
  0
LAYER
  5
5D6
102
{ACAD_XDICTIONARY
360
1382
102
}
330
2
100
AcDbSymbolTableRecord
100
AcDbLayerTableRecord
  2
hatch
 70
     0
 62
     9
  6
Continuous
370
    -3
390
F
  0
LAYER
  5
8AF
102
{ACAD_XDICTIONARY
360
1384
102
}
330
2
100
AcDbSymbolTableRecord
100
AcDbLayerTableRecord
  2
9
 70
     0
 62
     9
  6
Continuous
370
    -3
390
F
  0
LAYER
  5
8F8
102
{ACAD_XDICTIONARY
360
1386
102
}
330
2
100
AcDbSymbolTableRecord
100
AcDbLayerTableRecord
  2
leg fin
 70
     0
 62
     9
  6
Continuous
370
    -3
390
F
  0
LAYER
  5
91D
102
{ACAD_XDICTIONARY
360
1388
102
}
330
2
100
AcDbSymbolTableRecord
100
AcDbLayerTableRecord
  2
cotas
 70
     0
 62
     1
  6
Continuous
370
    -3
390
F
  0
LAYER
  5
92F
330
2
100
AcDbSymbolTableRecord
100
AcDbLayerTableRecord
  2
Defpoints
 70
     0
 62
     7
  6
Continuous
290
     0
370
    -3
390
F
  0
LAYER
  5
136D
102
{ACAD_XDICTIONARY
360
138A
102
}
330
2
100
AcDbSymbolTableRecord
100
AcDbLayerTableRecord
  2
SANINDUSA
 70
     0
 62
     3
  6
Continuous
370
    -3
390
F
  0
ENDTAB
  0
TABLE
  2
STYLE
  5
3
330
0
100
AcDbSymbolTable
 70
     3
  0
STYLE
  5
11
330
3
100
AcDbSymbolTableRecord
100
AcDbTextStyleTableRecord
  2
Standard
 70
     0
 40
0.0
 41
1.0
 50
0.0
 71
     0
 42
2.5
  3
Avgardn.ttf
  4

1001
ACAD
1000
AvantGarde Bk BT
1071
       34
  0
STYLE
  5
2C
330
3
100
AcDbSymbolTableRecord
100
AcDbTextStyleTableRecord
  2

 70
     1
 40
0.0
 41
1.0
 50
0.0
 71
     0
 42
2.5
  3
ltypeshp.shx
  4

  0
STYLE
  5
91F
330
3
100
AcDbSymbolTableRecord
100
AcDbTextStyleTableRecord
  2
SANINDUSA
 70
     0
 40
0.0
 41
1.0
 50
0.0
 71
     0
 42
2.5
  3
verdana.TTF
  4

1001
ACAD
1000
Verdana
1071
       34
  0
ENDTAB
  0
TABLE
  2
VIEW
  5
6
330
0
100
AcDbSymbolTable
 70
     0
  0
ENDTAB
  0
TABLE
  2
UCS
  5
7
330
0
100
AcDbSymbolTable
 70
     0
  0
ENDTAB
  0
TABLE
  2
APPID
  5
9
330
0
100
AcDbSymbolTable
 70
     7
  0
APPID
  5
12
330
9
100
AcDbSymbolTableRecord
100
AcDbRegAppTableRecord
  2
ACAD
 70
     0
  0
APPID
  5
3A
330
9
100
AcDbSymbolTableRecord
100
AcDbRegAppTableRecord
  2
DCO15
 70
     0
  0
APPID
  5
C85
330
9
100
AcDbSymbolTableRecord
100
AcDbRegAppTableRecord
  2
GENIUS_GENREC_14
 70
     0
  0
APPID
  5
C86
330
9
100
AcDbSymbolTableRecord
100
AcDbRegAppTableRecord
  2
GENIUS_GENODEF_13
 70
     0
  0
APPID
  5
C87
330
9
100
AcDbSymbolTableRecord
100
AcDbRegAppTableRecord
  2
GENIUS_GENOBJ-N-REC_13
 70
     0
  0
APPID
  5
1333
330
9
100
AcDbSymbolTableRecord
100
AcDbRegAppTableRecord
  2
ACAD_EXEMPT_FROM_CAD_STANDARDS
 70
     0
  0
APPID
  5
140F
330
9
100
AcDbSymbolTableRecord
100
AcDbRegAppTableRecord
  2
ACAD_MLEADERVER
 70
     0
  0
ENDTAB
  0
TABLE
  2
DIMSTYLE
  5
A
330
0
100
AcDbSymbolTable
 70
     3
100
AcDbDimStyleTable
 71
     1
340
921
  0
DIMSTYLE
105
45
330
A
100
AcDbSymbolTableRecord
100
AcDbDimStyleTableRecord
  2
STANDARD
 70
     0
289
     0
340
11
  0
DIMSTYLE
105
921
330
A
100
AcDbSymbolTableRecord
100
AcDbDimStyleTableRecord
  2
SANINDUSA
 70
     0
 41
2.0
 42
1.0
 43
1.0
 44
1.0
 73
     0
 74
     0
 77
     1
 78
     8
140
2.0
141
0.0
143
0.03937007874016
147
1.0
171
     3
172
     1
176
   256
177
   256
178
   256
179
     1
271
     1
272
     1
274
     3
278
    44
283
     0
284
     8
340
91F
371
    -1
372
    -1
  0
ENDTAB
  0
TABLE
  2
BLOCK_RECORD
  5
1
330
0
100
AcDbSymbolTable
 70
    33
  0
BLOCK_RECORD
  5
1F
330
1
100
AcDbSymbolTableRecord
100
AcDbBlockTableRecord
  2
*Model_Space
340
22
  0
BLOCK_RECORD
  5
1B
330
1
100
AcDbSymbolTableRecord
100
AcDbBlockTableRecord
  2
*Paper_Space
340
1E
  0
BLOCK_RECORD
  5
23
330
1
100
AcDbSymbolTableRecord
100
AcDbBlockTableRecord
  2
*Paper_Space0
340
26
  0
BLOCK_RECORD
  5
919
330
1
100
AcDbSymbolTableRecord
100
AcDbBlockTableRecord
  2
_DotSmall
340
0
  0
BLOCK_RECORD
  5
922
330
1
100
AcDbSymbolTableRecord
100
AcDbBlockTableRecord
  2
base para cotas
340
0
310
2800000020000000200000000100080000000000000400000000000000000000000000000000000000000000000080000080000000808000800000008000800080800000C0C0C000C0DCC000F0CAA6000020400000206000002080000020A0000020C0000020E00000400000004020000040400000406000004080000040A0
310
000040C0000040E00000600000006020000060400000606000006080000060A0000060C0000060E00000800000008020000080400000806000008080000080A0000080C0000080E00000A0000000A0200000A0400000A0600000A0800000A0A00000A0C00000A0E00000C0000000C0200000C0400000C0600000C0800000C0
310
A00000C0C00000C0E00000E0000000E0200000E0400000E0600000E0800000E0A00000E0C00000E0E00040000000400020004000400040006000400080004000A0004000C0004000E00040200000402020004020400040206000402080004020A0004020C0004020E000404000004040200040404000404060004040800040
310
40A0004040C0004040E00040600000406020004060400040606000406080004060A0004060C0004060E00040800000408020004080400040806000408080004080A0004080C0004080E00040A0000040A0200040A0400040A0600040A0800040A0A00040A0C00040A0E00040C0000040C0200040C0400040C0600040C08000
310
40C0A00040C0C00040C0E00040E0000040E0200040E0400040E0600040E0800040E0A00040E0C00040E0E00080000000800020008000400080006000800080008000A0008000C0008000E00080200000802020008020400080206000802080008020A0008020C0008020E00080400000804020008040400080406000804080
310
008040A0008040C0008040E00080600000806020008060400080606000806080008060A0008060C0008060E00080800000808020008080400080806000808080008080A0008080C0008080E00080A0000080A0200080A0400080A0600080A0800080A0A00080A0C00080A0E00080C0000080C0200080C0400080C0600080C0
310
800080C0A00080C0C00080C0E00080E0000080E0200080E0400080E0600080E0800080E0A00080E0C00080E0E000C0000000C0002000C0004000C0006000C0008000C000A000C000C000C000E000C0200000C0202000C0204000C0206000C0208000C020A000C020C000C020E000C0400000C0402000C0404000C0406000C0
310
408000C040A000C040C000C040E000C0600000C0602000C0604000C0606000C0608000C060A000C060C000C060E000C0800000C0802000C0804000C0806000C0808000C080A000C080C000C080E000C0A00000C0A02000C0A04000C0A06000C0A08000C0A0A000C0A0C000C0A0E000C0C00000C0C02000C0C04000C0C06000
310
C0C08000C0C0A000F0FBFF00A4A0A000808080000000FF0000FF000000FFFF00FF000000FF00FF00FFFF0000FFFFFF00A4A4A4A4A4A4A4A4A4A4A4A4A4A4A4A4A4A4A4A4A4A4A4A4A4A4A4A4A4A4A4A4A4A4A4A4A4A4A4A4A4A4A4A4A4A4A4A4A4A4A4A4A4A4A4A4A4A4A4A4A4A4A4A4A4A4A4A4A4A4A4A4A4A4A4A4A4A4A4
310
A4A4A4A4A4A4A4A4A4A4A4A4A4A4A4A4A4A4A4A4A4A4A4A4A4A4A4A4A4A4A4A4A4A4A4A4A4A4A4A4A4A4A4A4A4A4A4A4A4A4A4A4A4A4A4A4A4A4A4A4A4A4A4A4A4A4A4A4A4A4A4A4A4A4A4A4A4A4A4A4A4A4A4A4A4A4A4A4A4A4A4A4A4A4A4A4A4A4A4A4A4A4A4A4A4A4A4A4A4A4A4A4A4A4A4A4A4A4A4A4A4A4A4A4A4A4A4
310
A4A4A4A4A4A4A4A4A4A4A4A4A4A4A4A4A4A4A4A4A4A4A4A4A4A4A4A4A4A4A4A4A4A4A4A4A4A4A4A4A4A4A4A4A4A4A4A4A4A4A4A4A4A4A4A4A4A4A4A4A4A4A4A4A4A4A4A4A4A4A4A4A4A4A4A4A4A4A4A4A4A4A4A4A4A4A4A4A4A4A4A4A4A4A4A4A4A4A4A4A4A4A4A4A4A4A4A4A4A4A4A4A4A4A4A4A4A4A4A4A4A4A4A4A4A4A4
310
A4A4A4A4A4A4A4A4A4A4A4A4A4A4A4A4A4A4A4A4A4A4A4A4A4A4A4A4A4A4A4A4A4A4A4A4A4A4A4A4A4A4A4A4A4A4A4A4A4A4A4A4A4A4A4A4A4A4A4A4A4A4A4A4A4A4A4A4A4A4A4A4A4A4A4A4A4A4A4A4A4A4A4A4A4A4A4A4A4A4A4A4A4A4A4A4A4A4A4A4A4A4A4A4A4A4A4A4A4A4A4A4A4A4A4A4F9F9F9F9F9F9F9F9F9F9F9
310
F9F9F9F9F9F9F9F9F9F9F9F9F9F9F9F9F9F9F9A4A4F9F9F9F9F9F9F9F9F9F9F9F9F9F9F9F9F9F9F9F9F9F9F9F9F9F9F9F9F9F9A4A4F9F9F9F9F9F9F9F9F9F9F9F9F9F9F9F9F9F9F9F9F9F9F9F9F9F9F9F9F9F9A4A4F9A4A4A4A4A4A4A4A4A4A4A4A4A4A4A4A4A4A4A4A4A4A4A4A4A4A4A4A4F9A4A4A4A4A4A4A4A4A4A4A4A4
310
A4A4A4A4A4A4A4A4A4A4A4A4A4A4A4A4A4A4A4A4A4A4A4A4A4A4A4A4A4A4A4A4A4A4A4A4A4A4A4A4A4A4A4A4A4A4A4A4A4A4A4A4A4A4A4A4A4A4A4A4A4A4A4A4A4A4A4A4A4A4A4A4A4A4A4A4A4A4A4A4A4A4A4A4A4A4A4A4A4A4A4A4A4A4A4A4A4A4A4A4A4A4A4A4A4A4A4A4A4A4A4A4A4A4A4A4A4A4A4A4A4A4A4A4A4A4A4
310
A4A4A4A4A4A4A4A4A4A4A4A4A4A4A4A4A4A4A4A4A4A4A4A4A4A4A4A4A4A4A4A4A4A4A4A4A4A4A4A4A4A4A4A4A4A4A4A4A4A4A4A4A4A4A4A4A4A4A4A4A4A4A4A4A4A4A4A4A4A4A4A4A4A4A4A4A4A4A4A4A4A4A4A4A4A4A4A4A4A4A4A4A4A4A4A4A4A4A4A4A4A4A4A4A4A4A4A4A4A4A4A4A4A4A4A4A4A4A4A4A4A4A4A4A4A4A4
310
A4A4A4A4A4A4A4A4A4A4A4A4A4A4A4A4A4A4A4A4A4A4A4A4A4A4A4A4A4A4A4A4A4A4A4A4A4A4A4A4A4A4A4A4A4A4A4A4A4A4A4A4A4A4A4A4A4A4A4A4A4A4A4A4A4A4A4A4A4A4A4A4A4A4A4A4A4A4A4A4A4A4A4A4A4A4A4A4A4A4A4A4A4A4A4A4A4A4A4A4A4A4A4A4A4A4A4A4A4A4A4A4A4A4A4A4A4A4A4A4A4A4A4A4A4A4A4
310
A4A4A4A4A4A4A4A4A4A4A4A4A4A4A4A4A4A4A4A4A4A4A4A4A4A4A4A4A4A4A4A4A4A4A4A4A4A4A4A4A4A4A4A4A4A4A4A4A4A4A4A4A4A4A4A4
1001
ACAD
1000
DesignCenter Data
1002
{
1070
     1
1070
     4
1002
}
  0
BLOCK_RECORD
  5
AA8
330
1
100
AcDbSymbolTableRecord
100
AcDbBlockTableRecord
  2
_CLOSED
340
0
  0
BLOCK_RECORD
  5
BA5
330
1
100
AcDbSymbolTableRecord
100
AcDbBlockTableRecord
  2
guarnizione
340
0
102
{BLKREFS
331
ED0
102
}
  0
BLOCK_RECORD
  5
FF8
330
1
100
AcDbSymbolTableRecord
100
AcDbBlockTableRecord
  2
*D17
340
0
  0
BLOCK_RECORD
  5
1004
330
1
100
AcDbSymbolTableRecord
100
AcDbBlockTableRecord
  2
*D18
340
0
  0
BLOCK_RECORD
  5
1010
330
1
100
AcDbSymbolTableRecord
100
AcDbBlockTableRecord
  2
*D19
340
0
  0
BLOCK_RECORD
  5
101C
330
1
100
AcDbSymbolTableRecord
100
AcDbBlockTableRecord
  2
*D20
340
0
  0
BLOCK_RECORD
  5
1028
330
1
100
AcDbSymbolTableRecord
100
AcDbBlockTableRecord
  2
*D21
340
0
  0
BLOCK_RECORD
  5
1034
330
1
100
AcDbSymbolTableRecord
100
AcDbBlockTableRecord
  2
*D22
340
0
  0
BLOCK_RECORD
  5
1040
330
1
100
AcDbSymbolTableRecord
100
AcDbBlockTableRecord
  2
*D23
340
0
  0
BLOCK_RECORD
  5
104C
330
1
100
AcDbSymbolTableRecord
100
AcDbBlockTableRecord
  2
*D24
340
0
  0
BLOCK_RECORD
  5
105A
330
1
100
AcDbSymbolTableRecord
100
AcDbBlockTableRecord
  2
*D25
340
0
  0
BLOCK_RECORD
  5
1066
330
1
100
AcDbSymbolTableRecord
100
AcDbBlockTableRecord
  2
*D26
340
0
  0
BLOCK_RECORD
  5
1072
330
1
100
AcDbSymbolTableRecord
100
AcDbBlockTableRecord
  2
*D27
340
0
  0
BLOCK_RECORD
  5
1193
330
1
100
AcDbSymbolTableRecord
100
AcDbBlockTableRecord
  2
*D29
340
0
  0
BLOCK_RECORD
  5
133E
330
1
100
AcDbSymbolTableRecord
100
AcDbBlockTableRecord
  2
*D31
340
0
  0
BLOCK_RECORD
  5
1356
330
1
100
AcDbSymbolTableRecord
100
AcDbBlockTableRecord
  2
*D32
340
0
  0
ENDTAB
  0
ENDSEC
  0
SECTION
  2
BLOCKS
  0
BLOCK
  5
20
330
1F
100
AcDbEntity
  8
0
100
AcDbBlockBegin
  2
*Model_Space
 70
     0
 10
0.0
 20
0.0
 30
0.0
  3
*Model_Space
  1

  0
ENDBLK
  5
21
330
1F
100
AcDbEntity
  8
0
100
AcDbBlockEnd
  0
BLOCK
  5
1C
330
1B
100
AcDbEntity
 67
     1
  8
0
100
AcDbBlockBegin
  2
*Paper_Space
 70
     0
 10
0.0
 20
0.0
 30
0.0
  3
*Paper_Space
  1

  0
ENDBLK
  5
1D
330
1B
100
AcDbEntity
 67
     1
  8
0
100
AcDbBlockEnd
  0
BLOCK
  5
24
330
23
100
AcDbEntity
 67
     1
  8
0
100
AcDbBlockBegin
  2
*Paper_Space0
 70
     0
 10
0.0
 20
0.0
 30
0.0
  3
*Paper_Space0
  1

  0
ENDBLK
  5
25
330
23
100
AcDbEntity
 67
     1
  8
0
100
AcDbBlockEnd
  0
BLOCK
  5
91B
330
919
100
AcDbEntity
  8
0
100
AcDbBlockBegin
  2
_DotSmall
 70
     0
 10
0.0
 20
0.0
 30
0.0
  3
_DotSmall
  1

  0
LWPOLYLINE
  5
91A
330
919
100
AcDbEntity
  8
0
  6
ByBlock
 62
     0
100
AcDbPolyline
 90
        2
 70
     1
 43
0.5
 10
-0.0625
 20
0.0
 42
1.0
 10
0.0625
 20
0.0
 42
1.0
  0
ENDBLK
  5
91C
330
919
100
AcDbEntity
  8
0
100
AcDbBlockEnd
  0
BLOCK
  5
92A
330
922
100
AcDbEntity
  8
0
100
AcDbBlockBegin
  2
base para cotas
 70
     0
 10
0.0
 20
0.0
 30
0.0
  3
base para cotas
  1

  0
LINE
  5
B36
330
922
100
AcDbEntity
  8
cotas
100
AcDbLine
 10
0.0
 20
-30.0
 30
0.0
 11
327.1260136525398
 21
-30.0
 31
0.0
  0
LINE
  5
B37
330
922
100
AcDbEntity
  8
cotas
100
AcDbLine
 10
0.0
 20
-25.0
 30
0.0
 11
327.1260136525398
 21
-25.0
 31
0.0
  0
LINE
  5
B38
330
922
100
AcDbEntity
  8
cotas
100
AcDbLine
 10
0.0
 20
-20.0
 30
0.0
 11
327.1260136525398
 21
-20.0
 31
0.0
  0
LINE
  5
B39
330
922
100
AcDbEntity
  8
cotas
100
AcDbLine
 10
0.0
 20
-15.0
 30
0.0
 11
327.1260136525398
 21
-15.0
 31
0.0
  0
LINE
  5
B3A
330
922
100
AcDbEntity
  8
cotas
100
AcDbLine
 10
0.0
 20
-10.0
 30
0.0
 11
327.1260136525398
 21
-10.0
 31
0.0
  0
LINE
  5
B3B
330
922
100
AcDbEntity
  8
cotas
100
AcDbLine
 10
0.0
 20
0.0
 30
0.0
 11
0.0
 21
-30.0
 31
0.0
  0
LINE
  5
B3C
330
922
100
AcDbEntity
  8
cotas
100
AcDbLine
 10
327.1260136525398
 20
-30.0
 30
0.0
 11
327.1260136525398
 21
0.0
 31
0.0
  0
ENDBLK
  5
92B
330
922
100
AcDbEntity
  8
0
100
AcDbBlockEnd
  0
BLOCK
  5
AAD
330
AA8
100
AcDbEntity
  8
0
100
AcDbBlockBegin
  2
_CLOSED
 70
     0
 10
0.0
 20
0.0
 30
0.0
  3
_CLOSED
  1

  0
LINE
  5
AA9
330
AA8
100
AcDbEntity
  8
0
100
AcDbLine
 10
-1.0
 20
0.166667
 30
0.0
 11
0.0
 21
0.0
 31
0.0
  0
LINE
  5
AAA
330
AA8
100
AcDbEntity
  8
0
100
AcDbLine
 10
0.0
 20
0.0
 30
0.0
 11
-1.0
 21
-0.166667
 31
0.0
  0
LINE
  5
AAB
330
AA8
100
AcDbEntity
  8
0
100
AcDbLine
 10
-1.0
 20
0.166667
 30
0.0
 11
-1.0
 21
-0.166667
 31
0.0
  0
LINE
  5
AAC
330
AA8
100
AcDbEntity
  8
0
100
AcDbLine
 10
0.0
 20
0.0
 30
0.0
 11
-1.0
 21
0.0
 31
0.0
  0
ENDBLK
  5
AAE
330
AA8
100
AcDbEntity
  8
0
100
AcDbBlockEnd
  0
BLOCK
  5
BF0
330
BA5
100
AcDbEntity
  8
0
 62
     4
100
AcDbBlockBegin
  2
guarnizione
 70
     0
 10
0.0
 20
0.0
 30
0.0
  3
guarnizione
  1

  0
LINE
  5
BA6
330
BA5
100
AcDbEntity
  8
0
100
AcDbLine
 10
12.0
 20
3.179312414488776
 30
0.0
 11
12.0
 21
2.699999999999818
 31
0.0
  0
LINE
  5
BA7
330
BA5
100
AcDbEntity
  8
0
100
AcDbLine
 10
9.5
 20
3.130475008156281
 30
0.0
 11
9.440776269158959
 21
2.734883615801663
 31
0.0
  0
ARC
  5
BA8
330
BA5
100
AcDbEntity
  8
0
100
AcDbCircle
 10
11.19999999999891
 20
3.179312414488776
 30
0.0
 40
0.8
100
AcDbArc
 50
0.0
 51
81.48552156587461
  0
ARC
  5
BA9
330
BA5
100
AcDbEntity
  8
0
100
AcDbCircle
 10
8.753809903480942
 20
1.523241254200002
 30
0.0
 40
0.1999999999999504
100
AcDbArc
 50
171.485521565823
 51
351.485521565823
  0
LINE
  5
BAA
330
BA5
100
AcDbEntity
  8
0
100
AcDbLine
 10
11.65558220186904
 20
-2.403306455734309
 30
0.0
 11
9.440776269158959
 21
-2.734883615802573
 31
0.0
  0
ARC
  5
BAB
330
BA5
100
AcDbEntity
  8
0
100
AcDbCircle
 10
8.753809903480942
 20
-1.523241254200911
 30
0.0
 40
0.1999999999999504
100
AcDbArc
 50
8.514478434176927
 51
188.5144784341769
  0
LINE
  5
BAC
330
BA5
100
AcDbEntity
  8
0
100
AcDbLine
 10
9.5
 20
-3.130475008157191
 30
0.0
 11
9.440776269158959
 21
-2.734883615802573
 31
0.0
  0
ARC
  5
BAD
330
BA5
100
AcDbEntity
  8
0
100
AcDbCircle
 10
11.69999999999891
 20
-2.699999999999818
 30
0.0
 40
0.3
100
AcDbArc
 50
0.0
 51
98.51447843412536
  0
ARC
  5
BAE
330
BA5
100
AcDbEntity
  8
0
100
AcDbCircle
 10
11.69999999999891
 20
2.699999999999818
 30
0.0
 40
0.3
100
AcDbArc
 50
261.4855215658746
 51
0.0
  0
LINE
  5
BAF
330
BA5
100
AcDbEntity
  8
0
100
AcDbLine
 10
11.65558220186904
 20
2.4033064557334
 30
0.0
 11
9.440776269158959
 21
2.734883615801663
 31
0.0
  0
LINE
  5
BB0
330
BA5
100
AcDbEntity
  8
0
100
AcDbLine
 10
8.807715063378054
 20
3.234116537129011
 30
0.0
 11
8.556014207302723
 21
1.552853119620522
 31
0.0
  0
LINE
  5
BB1
330
BA5
100
AcDbEntity
  8
0
100
AcDbLine
 10
9.203306455732672
 20
3.174892806287971
 30
0.0
 11
8.951605599657341
 21
1.493629388779481
 31
0.0
  0
LINE
  5
BB2
330
BA5
100
AcDbEntity
  8
0
100
AcDbLine
 10
6.681411329471302
 20
3.552444090400967
 30
0.0
 11
6.622187598630262
 21
3.15685269804544
 31
0.0
  0
ARC
  5
BB3
330
BA5
100
AcDbEntity
  8
0
100
AcDbCircle
 10
0.2999999999992724
 20
3.800000000000181
 30
0.0
 40
0.3
100
AcDbArc
 50
81.48552156587461
 51
180.0
  0
ARC
  5
BB4
330
BA5
100
AcDbEntity
  8
0
100
AcDbCircle
 10
1.042400829128382
 20
4.699999999999818
 30
0.0
 40
0.8
100
AcDbArc
 50
81.48552156587461
 51
90.0
  0
LINE
  5
BB5
330
BA5
100
AcDbEntity
  8
0
100
AcDbLine
 10
1.5
 20
3.923692082123125
 30
0.0
 11
0.3444177981309622
 21
4.09669354426569
 31
0.0
  0
LINE
  5
BB6
330
BA5
100
AcDbEntity
  8
0
100
AcDbLine
 10
1.5
 20
3.923692082123125
 30
0.0
 11
1.5
 21
3.099999999999454
 31
0.0
  0
LINE
  5
BB7
330
BA5
100
AcDbEntity
  8
0
100
AcDbLine
 10
1.5
 20
3.099999999999454
 30
0.0
 11
2.699999999998908
 21
3.099999999999454
 31
0.0
  0
LINE
  5
BB8
330
BA5
100
AcDbEntity
  8
0
100
AcDbLine
 10
2.699999999998908
 20
3.744040860223321
 30
0.0
 11
2.699999999998908
 21
3.099999999999454
 31
0.0
  0
LINE
  5
BB9
330
BA5
100
AcDbEntity
  8
0
100
AcDbLine
 10
6.622187598630262
 20
3.15685269804544
 30
0.0
 11
2.699999999998908
 21
3.744040860223321
 31
0.0
  0
LINE
  5
BBA
330
BA5
100
AcDbEntity
  8
0
100
AcDbLine
 10
1.5
 20
-3.100000000000363
 30
0.0
 11
2.699999999998908
 21
-3.100000000000363
 31
0.0
  0
LINE
  5
BBB
330
BA5
100
AcDbEntity
  8
0
100
AcDbLine
 10
11.31844746168099
 20
3.970495199198012
 30
0.0
 11
1.160848290810463
 21
5.491182784709053
 31
0.0
  0
LINE
  5
BBC
330
BA5
100
AcDbEntity
  8
0
100
AcDbLine
 10
9.5
 20
3.130475008156281
 30
0.0
 11
6.681411329471302
 21
3.552444090400967
 31
0.0
  0
ARC
  5
BBD
330
BA5
100
AcDbEntity
  8
0
100
AcDbCircle
 10
11.19999999999891
 20
-3.179312414488776
 30
0.0
 40
0.8
100
AcDbArc
 50
278.5144784341254
 51
0.0
  0
LINE
  5
BBE
330
BA5
100
AcDbEntity
  8
0
100
AcDbLine
 10
6.681411329471302
 20
-3.552444090400967
 30
0.0
 11
6.622187598630262
 21
-3.15685269804635
 31
0.0
  0
ARC
  5
BBF
330
BA5
100
AcDbEntity
  8
0
100
AcDbCircle
 10
0.2999999999992724
 20
-3.800000000000181
 30
0.0
 40
0.3
100
AcDbArc
 50
180.0
 51
278.5144784341254
  0
ARC
  5
BC0
330
BA5
100
AcDbEntity
  8
0
100
AcDbCircle
 10
1.042400829128382
 20
-4.699999999999818
 30
0.0
 40
0.8
100
AcDbArc
 50
270.0
 51
278.5144784341254
  0
LINE
  5
BC1
330
BA5
100
AcDbEntity
  8
0
100
AcDbLine
 10
0.3444177981309622
 20
-4.096693544266599
 30
0.0
 11
1.5
 21
-3.923692082124034
 31
0.0
  0
LINE
  5
BC2
330
BA5
100
AcDbEntity
  8
0
100
AcDbLine
 10
6.622187598630262
 20
-3.15685269804635
 30
0.0
 11
2.699999999998908
 21
-3.744040860224231
 31
0.0
  0
LINE
  5
BC3
330
BA5
100
AcDbEntity
  8
0
100
AcDbLine
 10
1.160848290810463
 20
-5.491182784709963
 30
0.0
 11
11.31844746168099
 21
-3.970495199198921
 31
0.0
  0
LINE
  5
BC4
330
BA5
100
AcDbEntity
  8
0
100
AcDbLine
 10
0.0
 20
3.800000000000181
 30
0.0
 11
0.0
 21
-3.800000000000181
 31
0.0
  0
LINE
  5
BC5
330
BA5
100
AcDbEntity
  8
0
100
AcDbLine
 10
12.0
 20
-2.699999999999818
 30
0.0
 11
12.0
 21
-3.179312414488776
 31
0.0
  0
LINE
  5
BC6
330
BA5
100
AcDbEntity
  8
0
100
AcDbLine
 10
2.699999999998908
 20
-3.100000000000363
 30
0.0
 11
2.699999999998908
 21
-3.744040860224231
 31
0.0
  0
LINE
  5
BC7
330
BA5
100
AcDbEntity
  8
0
100
AcDbLine
 10
1.5
 20
-3.100000000000363
 30
0.0
 11
1.5
 21
-3.923692082124034
 31
0.0
  0
LINE
  5
BC8
330
BA5
100
AcDbEntity
  8
0
100
AcDbLine
 10
9.5
 20
-3.130475008157191
 30
0.0
 11
6.681411329471302
 21
-3.552444090400967
 31
0.0
  0
LINE
  5
BC9
330
BA5
100
AcDbEntity
  8
0
100
AcDbLine
 10
9.203306455732672
 20
-3.174892806287971
 30
0.0
 11
8.951605599657341
 21
-1.493629388780391
 31
0.0
  0
LINE
  5
BCA
330
BA5
100
AcDbEntity
  8
0
100
AcDbLine
 10
8.807715063378054
 20
-3.234116537129011
 30
0.0
 11
8.556014207302723
 21
-1.552853119621431
 31
0.0
  0
LINE
  5
BCB
330
BA5
100
AcDbEntity
  8
0
100
AcDbLine
 10
-1.5
 20
5.5
 30
0.0
 11
-3.757359312881817
 21
5.5
 31
0.0
  0
ARC
  5
BCC
330
BA5
100
AcDbEntity
  8
0
100
AcDbCircle
 10
-2.5
 20
3.5
 30
0.0
 40
1.0
100
AcDbArc
 50
0.0
 51
90.0
  0
ARC
  5
BCD
330
BA5
100
AcDbEntity
  8
0
100
AcDbCircle
 10
-3.769781102879278
 20
4.149978862833449
 30
0.0
 40
0.75
100
AcDbArc
 50
47.16775949949599
 51
90.19499109987526
  0
ARC
  5
BCE
330
BA5
100
AcDbEntity
  8
0
100
AcDbCircle
 10
-2.75
 20
5.25
 30
0.0
 40
0.75
100
AcDbArc
 50
227.167759499496
 51
270.0
  0
LINE
  5
BCF
330
BA5
100
AcDbEntity
  8
0
100
AcDbLine
 10
-2.75
 20
4.5
 30
0.0
 11
-2.5
 21
4.5
 31
0.0
  0
LINE
  5
BD0
330
BA5
100
AcDbEntity
  8
0
100
AcDbLine
 10
-7.415254325502246
 20
3.064644661409147
 30
0.0
 11
-6.868629150101696
 21
3.611269837220788
 31
0.0
  0
ARC
  5
BD1
102
{ACAD_REACTORS
330
BEB
102
}
330
BA5
100
AcDbEntity
  8
0
100
AcDbCircle
 10
-7.980939750059405
 20
2.569669913566031
 30
0.0
 40
0.2
100
AcDbArc
 50
45.0000001037625
 51
135.0000000719631
  0
ARC
  5
BD2
330
BA5
100
AcDbEntity
  8
0
100
AcDbCircle
 10
-3.757359312881817
 20
0.5
 30
0.0
 40
5.0
100
AcDbArc
 50
90.0
 51
135.0
  0
ARC
  5
BD3
330
BA5
100
AcDbEntity
  8
0
100
AcDbCircle
 10
-3.757359312881817
 20
0.5
 30
0.0
 40
4.4
100
AcDbArc
 50
90.19499109987526
 51
135.0
  0
ARC
  5
BD4
330
BA5
100
AcDbEntity
  8
0
100
AcDbCircle
 10
-6.814213563102384
 20
0.9786796633270569
 30
0.0
 40
0.75
100
AcDbArc
 50
314.9999999676111
 51
45.0
  0
ARC
  5
BD5
102
{ACAD_REACTORS
330
BEB
102
}
330
BA5
100
AcDbEntity
  8
0
100
AcDbCircle
 10
-6.814213563102384
 20
0.9786796633270569
 30
0.0
 40
0.5
100
AcDbArc
 50
314.9999999676111
 51
45.0
  0
ARC
  5
BD6
330
BA5
100
AcDbEntity
  8
0
100
AcDbCircle
 10
-7.203122291144609
 20
2.852512627053329
 30
0.0
 40
0.3
100
AcDbArc
 50
135.0
 51
225.0000001112794
  0
LINE
  5
BD7
330
BA5
100
AcDbEntity
  8
0
100
AcDbLine
 10
-8.051650430128574
 20
3.276776694619002
 30
0.0
 11
-6.283883477519339
 21
1.509009749524921
 31
0.0
  0
LINE
  5
BD8
102
{ACAD_REACTORS
330
BEB
102
}
330
BA5
100
AcDbEntity
  8
0
100
AcDbLine
 10
-7.839518394079277
 20
2.711091270059114
 30
0.0
 11
-6.460660172508141
 21
1.33223305392039
 31
0.0
  0
ARC
  5
BD9
330
BA5
100
AcDbEntity
  8
0
100
AcDbCircle
 10
-12.57713383280133
 20
-2.521498914058611
 30
0.0
 40
0.3
100
AcDbArc
 50
45.00000003552097
 51
135.0
  0
ARC
  5
BDA
102
{ACAD_REACTORS
330
BEB
102
}
330
BA5
100
AcDbEntity
  8
0
100
AcDbCircle
 10
-12.29429112059733
 20
-1.743681468243266
 30
0.0
 40
0.2
100
AcDbArc
 50
135.0000000660675
 51
225.0000002990173
  0
LINE
  5
BDB
330
BA5
100
AcDbEntity
  8
0
100
AcDbLine
 10
-12.9899494936617
 20
-2.510050506339212
 30
0.0
 11
-12.78926586715715
 21
-2.309366879702793
 31
0.0
  0
LINE
  5
BDC
330
BA5
100
AcDbEntity
  8
0
100
AcDbLine
 10
-13.41421356237333
 20
-2.085786437626666
 30
0.0
 11
-7.292893218815152
 21
4.035533905932425
 31
0.0
  0
LINE
  5
BDD
102
{ACAD_REACTORS
330
BEB
102
}
330
BA5
100
AcDbEntity
  8
0
100
AcDbLine
 10
-12.43571247699765
 20
-1.602260112168551
 30
0.0
 11
-8.122361106474272
 21
2.711091269625285
 31
0.0
  0
ARC
  5
BDE
330
BA5
100
AcDbEntity
  8
0
100
AcDbCircle
 10
-2.5
 20
-3.5
 30
0.0
 40
1.0
100
AcDbArc
 50
270.0
 51
0.0
  0
ARC
  5
BDF
330
BA5
100
AcDbEntity
  8
0
100
AcDbCircle
 10
-7.519803902720013
 20
-4.150000000000545
 30
0.0
 40
0.75
100
AcDbArc
 50
270.0
 51
312.8334280660476
  0
ARC
  5
BE0
330
BA5
100
AcDbEntity
  8
0
100
AcDbCircle
 10
-6.5
 20
-5.25
 30
0.0
 40
0.75
100
AcDbArc
 50
90.0
 51
132.8334280660476
  0
LINE
  5
BE1
330
BA5
100
AcDbEntity
  8
0
100
AcDbLine
 10
-2.5
 20
-4.5
 30
0.0
 11
-6.5
 21
-4.5
 31
0.0
  0
ARC
  5
BE2
330
BA5
100
AcDbEntity
  8
0
100
AcDbCircle
 10
-10.7033008647486
 20
-2.910407640086305
 30
0.0
 40
0.75
100
AcDbArc
 50
225.0
 51
315.0
  0
ARC
  5
BE3
102
{ACAD_REACTORS
330
BEB
102
}
330
BA5
100
AcDbEntity
  8
0
100
AcDbCircle
 10
-10.7033008647486
 20
-2.910407640086305
 30
0.0
 40
0.5
100
AcDbArc
 50
225.0
 51
315.0
  0
LINE
  5
BE4
330
BA5
100
AcDbEntity
  8
0
100
AcDbLine
 10
-1.5
 20
-5.5
 30
0.0
 11
-12.0
 21
-5.5
 31
0.0
  0
LINE
  5
BE5
330
BA5
100
AcDbEntity
  8
0
100
AcDbLine
 10
-7.519803902720013
 20
-4.900000000000545
 30
0.0
 11
-12.0
 21
-4.900000000000545
 31
0.0
  0
ARC
  5
BE6
330
BA5
100
AcDbEntity
  8
0
100
AcDbCircle
 10
-12.0
 20
-3.5
 30
0.0
 40
2.0
100
AcDbArc
 50
135.0
 51
270.0
  0
LINE
  5
BE7
330
BA5
100
AcDbEntity
  8
0
100
AcDbLine
 10
-10.17297077881812
 20
-3.440737725935832
 30
0.0
 11
-6.283883477372
 21
0.4483495772774404
 31
0.0
  0
ARC
  5
BE8
330
BA5
100
AcDbEntity
  8
0
100
AcDbCircle
 10
-12.0
 20
-3.5
 30
0.0
 40
1.399999999999999
100
AcDbArc
 50
135.0
 51
270.0
  0
LINE
  5
BE9
330
BA5
100
AcDbEntity
  8
0
100
AcDbLine
 10
-13.00139790187859
 20
-1.672970777132832
 30
0.0
 11
-11.23363095093009
 21
-3.440737725682993
 31
0.0
  0
LINE
  5
BEA
330
BA5
100
AcDbEntity
  8
0
100
AcDbLine
 10
-1.5
 20
3.5
 30
0.0
 11
-1.5
 21
-3.5
 31
0.0
  0
HATCH
  5
BEB
330
BA5
100
AcDbEntity
  8
0
100
AcDbHatch
 10
0.0
 20
0.0
 30
0.0
210
0.0
220
0.0
230
1.0
  2
ANSI31
 70
     0
 71
     1
 91
        1
 92
        7
 72
     1
 73
     1
 93
        8
 10
-6.460660173204814
 20
1.332233054616153
 42
0.0
 10
-7.839518394101105
 20
2.711091270081851
 42
0.414213562178905
 10
-8.122361106481548
 20
2.711091269618009
 42
0.0
 10
-12.43571247701766
 20
-1.602260112190379
 42
0.4142135636146872
 10
-12.43571247604996
 20
-1.885102825264766
 42
0.0
 10
-11.05685425338015
 20
-3.263961032639599
 42
0.4142135608152901
 10
-10.34974747407432
 20
-3.263961030598693
 42
0.0
 10
-6.460660172428106
 20
0.625126272813759
 42
0.4142135628833784
 97
        8
330
BD8
330
BD1
330
BDD
330
BDA
330
BED
330
BE3
330
BEC
330
BD5
 75
     0
 76
     1
 52
45.0
 41
0.25
 77
     0
 78
     1
 53
90.0
 43
-276.1145346408611
 44
-395.2719013892401
 45
-0.79375
 46
0.0000000000000002
 79
     0
 47
0.0364805528584695
 98
        1
 10
-7.399477738399582
 20
0.8532363732892918
  0
LINE
  5
BEC
102
{ACAD_REACTORS
330
BEB
102
}
330
BA5
100
AcDbEntity
  8
0
100
AcDbLine
 10
-10.34974747415435
 20
-3.263961030678729
 30
0.0
 11
-6.46066017270823
 21
0.6251262725336347
 31
0.0
  0
LINE
  5
BED
102
{ACAD_REACTORS
330
BEB
102
}
330
BA5
100
AcDbEntity
  8
0
100
AcDbLine
 10
-12.43571247609543
 20
-1.885102825218382
 30
0.0
 11
-11.05685425534102
 21
-3.263961030678729
 31
0.0
  0
LINE
  5
BEE
330
BA5
100
AcDbEntity
  8
0
100
AcDbLine
 10
-1.5
 20
5.5
 30
0.0
 11
1.042400829128382
 21
5.5
 31
0.0
  0
LINE
  5
BEF
330
BA5
100
AcDbEntity
  8
0
100
AcDbLine
 10
-1.5
 20
-5.5
 30
0.0
 11
1.042400829128382
 21
-5.5
 31
0.0
  0
ENDBLK
  5
BF1
330
BA5
100
AcDbEntity
  8
0
 62
     4
100
AcDbBlockEnd
  0
BLOCK
  5
1002
330
FF8
100
AcDbEntity
  8
0
100
AcDbBlockBegin
  2
*D17
 70
     1
 10
0.0
 20
0.0
 30
0.0
  3
*D17
  1

  0
LINE
  5
1221
330
FF8
100
AcDbEntity
  8
7
100
AcDbLine
 10
214.87046053517
 20
364.9018180837647
 30
0.0
 11
214.87046053517
 21
369.9018180837647
 31
0.0
  0
LINE
  5
1222
330
FF8
100
AcDbEntity
  8
7
100
AcDbLine
 10
164.87046053517
 20
364.9018180837647
 30
0.0
 11
164.87046053517
 21
369.9018180837647
 31
0.0
  0
LINE
  5
1223
330
FF8
100
AcDbEntity
  8
7
100
AcDbLine
 10
212.87046053517
 20
368.9018180837647
 30
0.0
 11
166.8704605351699
 21
368.9018180837647
 31
0.0
  0
SOLID
  5
1224
330
FF8
100
AcDbEntity
  8
7
100
AcDbTrace
 10
212.87046053517
 20
369.235151417098
 30
0.0
 11
212.87046053517
 21
368.5684847504314
 31
0.0
 12
214.87046053517
 22
368.9018180837647
 32
0.0
 13
214.87046053517
 23
368.9018180837647
 33
0.0
  0
SOLID
  5
1225
330
FF8
100
AcDbEntity
  8
7
100
AcDbTrace
 10
166.8704605351699
 20
369.235151417098
 30
0.0
 11
166.8704605351699
 21
368.5684847504314
 31
0.0
 12
164.87046053517
 22
368.9018180837647
 32
0.0
 13
164.87046053517
 23
368.9018180837647
 33
0.0
  0
MTEXT
  5
1226
330
FF8
100
AcDbEntity
  8
7
100
AcDbMText
 10
189.87046053517
 20
370.9427851757727
 30
0.0
 40
2.0
 41
0.0
 71
     5
 72
     1
  1
500
  7
SANINDUSA
 73
     1
 44
1.0
1001
ACAD
1000
MTEXTBEGIN
1070
    73
1070
     1
1070
    44
1040
1.0
1070
    74
1070
     0
1000
MTEXTEND
  0
POINT
  5
1227
330
FF8
100
AcDbEntity
  8
Defpoints
 62
     0
100
AcDbPoint
 10
214.87046053517
 20
363.9018180837647
 30
0.0
  0
POINT
  5
1228
330
FF8
100
AcDbEntity
  8
Defpoints
 62
     0
100
AcDbPoint
 10
164.87046053517
 20
363.9018180837647
 30
0.0
  0
POINT
  5
1229
330
FF8
100
AcDbEntity
  8
Defpoints
 62
     0
100
AcDbPoint
 10
164.87046053517
 20
368.9018180837647
 30
0.0
  0
ENDBLK
  5
1003
330
FF8
100
AcDbEntity
  8
0
100
AcDbBlockEnd
  0
BLOCK
  5
100E
330
1004
100
AcDbEntity
  8
0
100
AcDbBlockBegin
  2
*D18
 70
     1
 10
0.0
 20
0.0
 30
0.0
  3
*D18
  1

  0
LINE
  5
120F
330
1004
100
AcDbEntity
  8
7
100
AcDbLine
 10
164.5704605351698
 20
364.9018180837645
 30
0.0
 11
164.5704605351698
 21
369.9018180837647
 31
0.0
  0
LINE
  5
1210
330
1004
100
AcDbEntity
  8
7
100
AcDbLine
 10
137.6704605351701
 20
364.9018180837647
 30
0.0
 11
137.6704605351701
 21
369.9018180837647
 31
0.0
  0
LINE
  5
1211
330
1004
100
AcDbEntity
  8
7
100
AcDbLine
 10
162.5704605351698
 20
368.9018180837647
 30
0.0
 11
139.6704605351701
 21
368.9018180837647
 31
0.0
  0
SOLID
  5
1212
330
1004
100
AcDbEntity
  8
7
100
AcDbTrace
 10
162.5704605351698
 20
369.235151417098
 30
0.0
 11
162.5704605351698
 21
368.5684847504314
 31
0.0
 12
164.5704605351698
 22
368.9018180837647
 32
0.0
 13
164.5704605351698
 23
368.9018180837647
 33
0.0
  0
SOLID
  5
1213
330
1004
100
AcDbEntity
  8
7
100
AcDbTrace
 10
139.6704605351701
 20
369.235151417098
 30
0.0
 11
139.6704605351701
 21
368.5684847504314
 31
0.0
 12
137.6704605351701
 22
368.9018180837647
 32
0.0
 13
137.6704605351701
 23
368.9018180837647
 33
0.0
  0
MTEXT
  5
1214
330
1004
100
AcDbEntity
  8
7
100
AcDbMText
 10
151.1204605351699
 20
370.943456767445
 30
0.0
 40
2.0
 41
0.0
 71
     5
 72
     1
  1
269
  7
SANINDUSA
 73
     1
 44
1.0
1001
ACAD
1000
MTEXTBEGIN
1070
    73
1070
     1
1070
    44
1040
1.0
1070
    74
1070
     0
1000
MTEXTEND
  0
POINT
  5
1215
330
1004
100
AcDbEntity
  8
Defpoints
 62
     0
100
AcDbPoint
 10
164.5704605351698
 20
363.9018180837644
 30
0.0
  0
POINT
  5
1216
330
1004
100
AcDbEntity
  8
Defpoints
 62
     0
100
AcDbPoint
 10
137.6704605351701
 20
363.9018180837647
 30
0.0
  0
POINT
  5
1217
330
1004
100
AcDbEntity
  8
Defpoints
 62
     0
100
AcDbPoint
 10
137.6704605351701
 20
368.9018180837647
 30
0.0
  0
ENDBLK
  5
100F
330
1004
100
AcDbEntity
  8
0
100
AcDbBlockEnd
  0
BLOCK
  5
101A
330
1010
100
AcDbEntity
  8
0
100
AcDbBlockBegin
  2
*D19
 70
     1
 10
0.0
 20
0.0
 30
0.0
  3
*D19
  1

  0
LINE
  5
1250
330
1010
100
AcDbEntity
  8
7
100
AcDbLine
 10
142.1676629111602
 20
148.0698200378281
 30
0.0
 11
142.1676629111602
 21
153.6398200378282
 31
0.0
  0
LINE
  5
1251
330
1010
100
AcDbEntity
  8
7
100
AcDbLine
 10
163.4701322085493
 20
148.0698200378281
 30
0.0
 11
163.4701322085493
 21
153.6398200378282
 31
0.0
  0
LINE
  5
1252
330
1010
100
AcDbEntity
  8
7
100
AcDbLine
 10
144.1676629111602
 20
152.6398200378282
 30
0.0
 11
161.4701322085493
 21
152.6398200378282
 31
0.0
  0
SOLID
  5
1253
330
1010
100
AcDbEntity
  8
7
100
AcDbTrace
 10
144.1676629111602
 20
152.9731533711616
 30
0.0
 11
144.1676629111602
 21
152.3064867044949
 31
0.0
 12
142.1676629111602
 22
152.6398200378282
 32
0.0
 13
142.1676629111602
 23
152.6398200378282
 33
0.0
  0
SOLID
  5
1254
330
1010
100
AcDbEntity
  8
7
100
AcDbTrace
 10
161.4701322085493
 20
152.9731533711616
 30
0.0
 11
161.4701322085493
 21
152.3064867044949
 31
0.0
 12
163.4701322085493
 22
152.6398200378282
 32
0.0
 13
163.4701322085493
 23
152.6398200378282
 33
0.0
  0
MTEXT
  5
1255
330
1010
100
AcDbEntity
  8
7
100
AcDbMText
 10
152.8188975598548
 20
154.6814587215086
 30
0.0
 40
2.0
 41
0.0
 71
     5
 72
     1
  1
213
  7
SANINDUSA
 73
     1
 44
1.0
1001
ACAD
1000
MTEXTBEGIN
1070
    73
1070
     1
1070
    44
1040
1.0
1070
    74
1070
     0
1000
MTEXTEND
  0
POINT
  5
1256
330
1010
100
AcDbEntity
  8
Defpoints
 62
     0
100
AcDbPoint
 10
142.1676629111602
 20
147.0698200378281
 30
0.0000000248477669
  0
POINT
  5
1257
330
1010
100
AcDbEntity
  8
Defpoints
 62
     0
100
AcDbPoint
 10
163.4701322085493
 20
147.0698200378281
 30
0.0000000256551644
  0
POINT
  5
1258
330
1010
100
AcDbEntity
  8
Defpoints
 62
     0
100
AcDbPoint
 10
163.4701322085493
 20
152.6398200378282
 30
0.0
  0
ENDBLK
  5
101B
330
1010
100
AcDbEntity
  8
0
100
AcDbBlockEnd
  0
BLOCK
  5
1026
330
101C
100
AcDbEntity
  8
0
100
AcDbBlockBegin
  2
*D20
 70
     1
 10
0.0
 20
0.0
 30
0.0
  3
*D20
  1

  0
LINE
  5
1259
330
101C
100
AcDbEntity
  8
7
100
AcDbLine
 10
163.4701322085493
 20
148.0698200378281
 30
0.0
 11
163.4701322085493
 21
158.6398200378282
 31
0.0
  0
LINE
  5
125A
330
101C
100
AcDbEntity
  8
7
100
AcDbLine
 10
137.6704605351697
 20
148.6398200378282
 30
0.0
 11
137.6704605351697
 21
158.6398200378282
 31
0.0
  0
LINE
  5
125B
330
101C
100
AcDbEntity
  8
7
100
AcDbLine
 10
161.4701322085493
 20
157.6398200378282
 30
0.0
 11
139.6704605351697
 21
157.6398200378282
 31
0.0
  0
SOLID
  5
125C
330
101C
100
AcDbEntity
  8
7
100
AcDbTrace
 10
161.4701322085493
 20
157.9731533711616
 30
0.0
 11
161.4701322085493
 21
157.3064867044949
 31
0.0
 12
163.4701322085493
 22
157.6398200378282
 32
0.0
 13
163.4701322085493
 23
157.6398200378282
 33
0.0
  0
SOLID
  5
125D
330
101C
100
AcDbEntity
  8
7
100
AcDbTrace
 10
139.6704605351697
 20
157.9731533711616
 30
0.0
 11
139.6704605351697
 21
157.3064867044949
 31
0.0
 12
137.6704605351697
 22
157.6398200378282
 32
0.0
 13
137.6704605351697
 23
157.6398200378282
 33
0.0
  0
MTEXT
  5
125E
330
101C
100
AcDbEntity
  8
7
100
AcDbMText
 10
150.5702963718595
 20
159.6854882715421
 30
0.0
 40
2.0
 41
0.0
 71
     5
 72
     1
  1
258
  7
SANINDUSA
 73
     1
 44
1.0
1001
ACAD
1000
MTEXTBEGIN
1070
    73
1070
     1
1070
    44
1040
1.0
1070
    74
1070
     0
1000
MTEXTEND
  0
POINT
  5
125F
330
101C
100
AcDbEntity
  8
Defpoints
 62
     0
100
AcDbPoint
 10
163.4701322085493
 20
147.0698200378281
 30
0.0000000256551185
  0
POINT
  5
1260
330
101C
100
AcDbEntity
  8
Defpoints
 62
     0
100
AcDbPoint
 10
137.6704605351697
 20
147.6398200378282
 30
0.0000000100996216
  0
POINT
  5
1261
330
101C
100
AcDbEntity
  8
Defpoints
 62
     0
100
AcDbPoint
 10
137.6704605351697
 20
157.6398200378282
 30
0.0
  0
ENDBLK
  5
1027
330
101C
100
AcDbEntity
  8
0
100
AcDbBlockEnd
  0
BLOCK
  5
1032
330
1028
100
AcDbEntity
  8
0
100
AcDbBlockBegin
  2
*D21
 70
     1
 10
0.0
 20
0.0
 30
0.0
  3
*D21
  1

  0
LINE
  5
1218
330
1028
100
AcDbEntity
  8
7
100
AcDbLine
 10
136.6704605351701
 20
363.9018180837647
 30
0.0
 11
131.6704605351701
 21
363.9018180837647
 31
0.0
  0
LINE
  5
1219
330
1028
100
AcDbEntity
  8
7
100
AcDbLine
 10
149.1642354028863
 20
334.4018180827981
 30
0.0
 11
131.6704605351701
 21
334.4018180827981
 31
0.0
  0
LINE
  5
121A
330
1028
100
AcDbEntity
  8
7
100
AcDbLine
 10
132.6704605351701
 20
361.9018180837647
 30
0.0
 11
132.6704605351701
 21
336.4018180827981
 31
0.0
  0
SOLID
  5
121B
330
1028
100
AcDbEntity
  8
7
100
AcDbTrace
 10
132.3371272018368
 20
361.9018180837647
 30
0.0
 11
133.0037938685035
 21
361.9018180837647
 31
0.0
 12
132.6704605351701
 22
363.9018180837647
 32
0.0
 13
132.6704605351701
 23
363.9018180837647
 33
0.0
  0
SOLID
  5
121C
330
1028
100
AcDbEntity
  8
7
100
AcDbTrace
 10
132.3371272018368
 20
336.4018180827981
 30
0.0
 11
133.0037938685035
 21
336.4018180827981
 31
0.0
 12
132.6704605351701
 22
334.4018180827981
 32
0.0
 13
132.6704605351701
 23
334.4018180827981
 33
0.0
  0
MTEXT
  5
121D
330
1028
100
AcDbEntity
  8
7
100
AcDbMText
 10
130.6288218514898
 20
349.1518180832814
 30
0.0
 40
2.0
 41
0.0
 71
     5
 72
     1
  1
295
  7
SANINDUSA
 11
0.0000000000000001
 21
1.0
 31
0.0
 73
     1
 44
1.0
1001
ACAD
1000
MTEXTBEGIN
1070
    73
1070
     1
1070
    44
1040
1.0
1070
    74
1070
     0
1000
MTEXTEND
  0
POINT
  5
121E
330
1028
100
AcDbEntity
  8
Defpoints
 62
     0
100
AcDbPoint
 10
137.6704605351701
 20
363.9018180837647
 30
0.0000001793827793
  0
POINT
  5
121F
330
1028
100
AcDbEntity
  8
Defpoints
 62
     0
100
AcDbPoint
 10
150.1642354028863
 20
334.4018180827981
 30
0.0000000000032074
  0
POINT
  5
1220
330
1028
100
AcDbEntity
  8
Defpoints
 62
     0
100
AcDbPoint
 10
132.6704605351701
 20
334.4018180827981
 30
0.0
  0
ENDBLK
  5
1033
330
1028
100
AcDbEntity
  8
0
100
AcDbBlockEnd
  0
BLOCK
  5
103E
330
1034
100
AcDbEntity
  8
0
100
AcDbBlockBegin
  2
*D22
 70
     1
 10
0.0
 20
0.0
 30
0.0
  3
*D22
  1

  0
LINE
  5
1247
330
1034
100
AcDbEntity
  8
7
100
AcDbLine
 10
149.3804257385391
 20
208.4018180837647
 30
0.0
 11
131.6704605351701
 21
208.4018180837647
 31
0.0
  0
LINE
  5
1248
330
1034
100
AcDbEntity
  8
7
100
AcDbLine
 10
136.6704605351701
 20
178.9018180837647
 30
0.0
 11
131.6704605351701
 21
178.9018180837647
 31
0.0
  0
LINE
  5
1249
330
1034
100
AcDbEntity
  8
7
100
AcDbLine
 10
132.6704605351701
 20
206.4018180837647
 30
0.0
 11
132.6704605351701
 21
180.9018180837647
 31
0.0
  0
SOLID
  5
124A
330
1034
100
AcDbEntity
  8
7
100
AcDbTrace
 10
132.3371272018368
 20
206.4018180837647
 30
0.0
 11
133.0037938685035
 21
206.4018180837647
 31
0.0
 12
132.6704605351701
 22
208.4018180837647
 32
0.0
 13
132.6704605351701
 23
208.4018180837647
 33
0.0
  0
SOLID
  5
124B
330
1034
100
AcDbEntity
  8
7
100
AcDbTrace
 10
132.3371272018368
 20
180.9018180837647
 30
0.0
 11
133.0037938685035
 21
180.9018180837647
 31
0.0
 12
132.6704605351701
 22
178.9018180837647
 32
0.0
 13
132.6704605351701
 23
178.9018180837647
 33
0.0
  0
MTEXT
  5
124C
330
1034
100
AcDbEntity
  8
7
100
AcDbMText
 10
130.6288218514898
 20
193.6518180837647
 30
0.0
 40
2.0
 41
0.0
 71
     5
 72
     1
  1
295
  7
SANINDUSA
 11
0.0000000000000001
 21
1.0
 31
0.0
 73
     1
 44
1.0
1001
ACAD
1000
MTEXTBEGIN
1070
    73
1070
     1
1070
    44
1040
1.0
1070
    74
1070
     0
1000
MTEXTEND
  0
POINT
  5
124D
330
1034
100
AcDbEntity
  8
Defpoints
 62
     0
100
AcDbPoint
 10
150.3804257385391
 20
208.4018180837647
 30
-0.0000001793795719
  0
POINT
  5
124E
330
1034
100
AcDbEntity
  8
Defpoints
 62
     0
100
AcDbPoint
 10
137.6704605351701
 20
178.9018180837647
 30
0.0
  0
POINT
  5
124F
330
1034
100
AcDbEntity
  8
Defpoints
 62
     0
100
AcDbPoint
 10
132.6704605351701
 20
178.9018180837647
 30
0.0
  0
ENDBLK
  5
103F
330
1034
100
AcDbEntity
  8
0
100
AcDbBlockEnd
  0
BLOCK
  5
104A
330
1040
100
AcDbEntity
  8
0
100
AcDbBlockBegin
  2
*D23
 70
     1
 10
0.0
 20
0.0
 30
0.0
  3
*D23
  1

  0
LINE
  5
122A
330
1040
100
AcDbEntity
  8
7
100
AcDbLine
 10
180.0910860423
 20
208.4018180837647
 30
0.0
 11
185.0910860423
 21
208.4018180837647
 31
0.0
  0
LINE
  5
122B
330
1040
100
AcDbEntity
  8
7
100
AcDbLine
 10
182.3209361141307
 20
179.9018180837649
 30
0.0
 11
185.0910860423
 21
179.9018180837649
 31
0.0
  0
LINE
  5
122C
330
1040
100
AcDbEntity
  8
7
100
AcDbLine
 10
184.0910860423
 20
206.4018180837647
 30
0.0
 11
184.0910860423
 21
181.9018180837649
 31
0.0
  0
SOLID
  5
122D
330
1040
100
AcDbEntity
  8
7
100
AcDbTrace
 10
183.7577527089667
 20
206.4018180837647
 30
0.0
 11
184.4244193756334
 21
206.4018180837647
 31
0.0
 12
184.0910860423
 22
208.4018180837647
 32
0.0
 13
184.0910860423
 23
208.4018180837647
 33
0.0
  0
SOLID
  5
122E
330
1040
100
AcDbEntity
  8
7
100
AcDbTrace
 10
183.7577527089667
 20
181.9018180837649
 30
0.0
 11
184.4244193756334
 21
181.9018180837649
 31
0.0
 12
184.0910860423
 22
179.9018180837649
 32
0.0
 13
184.0910860423
 23
179.9018180837649
 33
0.0
  0
MTEXT
  5
122F
330
1040
100
AcDbEntity
  8
7
100
AcDbMText
 10
182.0454178085861
 20
194.1518180837648
 30
0.0
 40
2.0
 41
0.0
 71
     5
 72
     1
  1
285
  7
SANINDUSA
 11
0.0000000000000001
 21
1.0
 31
0.0
 73
     1
 44
1.0
1001
ACAD
1000
MTEXTBEGIN
1070
    73
1070
     1
1070
    44
1040
1.0
1070
    74
1070
     0
1000
MTEXTEND
  0
POINT
  5
1230
330
1040
100
AcDbEntity
  8
Defpoints
 62
     0
100
AcDbPoint
 10
179.0910860423
 20
208.4018180837647
 30
-0.0000001793795719
  0
POINT
  5
1231
330
1040
100
AcDbEntity
  8
Defpoints
 62
     0
100
AcDbPoint
 10
181.3209361141307
 20
179.9018180837649
 30
-0.0000001793795719
  0
POINT
  5
1232
330
1040
100
AcDbEntity
  8
Defpoints
 62
     0
100
AcDbPoint
 10
184.0910860423
 20
179.9018180837649
 30
0.0
  0
ENDBLK
  5
104B
330
1040
100
AcDbEntity
  8
0
100
AcDbBlockEnd
  0
BLOCK
  5
1058
330
104C
100
AcDbEntity
  8
0
100
AcDbBlockBegin
  2
*D24
 70
     1
 10
0.0
 20
0.0
 30
0.0
  3
*D24
  1

  0
LINE
  5
123C
330
104C
100
AcDbEntity
  8
7
100
AcDbLine
 10
183.2625328888589
 20
179.9018180837649
 30
0.0
 11
178.0910860423
 21
179.9018180837649
 31
0.0
  0
LINE
  5
123D
330
104C
100
AcDbEntity
  8
7
100
AcDbLine
 10
186.0413673817338
 20
178.9018180837647
 30
0.0
 11
178.0910860423
 21
178.9018180837647
 31
0.0
  0
LINE
  5
123E
330
104C
100
AcDbEntity
  8
7
100
AcDbLine
 10
179.0910860423
 20
181.9018180837649
 30
0.0
 11
179.0910860423
 21
183.9018180837649
 31
0.0
  0
LINE
  5
123F
330
104C
100
AcDbEntity
  8
7
100
AcDbLine
 10
179.0910860423
 20
176.9018180837647
 30
0.0
 11
179.0910860423
 21
169.958903375907
 31
0.0
  0
LINE
  5
1240
330
104C
100
AcDbEntity
  8
7
100
AcDbLine
 10
179.0910860423
 20
179.9018180837649
 30
0.0
 11
179.0910860423
 21
178.9018180837647
 31
0.0
  0
SOLID
  5
1241
330
104C
100
AcDbEntity
  8
7
100
AcDbTrace
 10
178.7577527089667
 20
181.9018180837649
 30
0.0
 11
179.4244193756334
 21
181.9018180837649
 31
0.0
 12
179.0910860423
 22
179.9018180837649
 32
0.0
 13
179.0910860423
 23
179.9018180837649
 33
0.0
  0
SOLID
  5
1242
330
104C
100
AcDbEntity
  8
7
100
AcDbTrace
 10
178.7577527089667
 20
176.9018180837647
 30
0.0
 11
179.4244193756334
 21
176.9018180837647
 31
0.0
 12
179.0910860423
 22
178.9018180837647
 32
0.0
 13
179.0910860423
 23
178.9018180837647
 33
0.0
  0
MTEXT
  5
1243
330
104C
100
AcDbEntity
  8
7
100
AcDbMText
 10
177.0501189502919
 20
172.4303607298359
 30
0.0
 40
2.0
 41
0.0
 71
     5
 72
     1
  1
10
  7
SANINDUSA
 11
0.0000000000000001
 21
1.0
 31
0.0
 73
     1
 44
1.0
1001
ACAD
1000
MTEXTBEGIN
1070
    73
1070
     1
1070
    44
1040
1.0
1070
    74
1070
     0
1000
MTEXTEND
  0
POINT
  5
1244
330
104C
100
AcDbEntity
  8
Defpoints
 62
     0
100
AcDbPoint
 10
184.2625328888589
 20
179.9018180837649
 30
-0.0000001793795719
  0
POINT
  5
1245
330
104C
100
AcDbEntity
  8
Defpoints
 62
     0
100
AcDbPoint
 10
187.0413673817338
 20
178.9018180837647
 30
0.0
  0
POINT
  5
1246
330
104C
100
AcDbEntity
  8
Defpoints
 62
     0
100
AcDbPoint
 10
179.0910860423
 20
178.9018180837647
 30
0.0
  0
ENDBLK
  5
1059
330
104C
100
AcDbEntity
  8
0
100
AcDbBlockEnd
  0
BLOCK
  5
1064
330
105A
100
AcDbEntity
  8
0
100
AcDbBlockBegin
  2
*D25
 70
     1
 10
0.0
 20
0.0
 30
0.0
  3
*D25
  1

  0
LINE
  5
1233
330
105A
100
AcDbEntity
  8
7
100
AcDbLine
 10
195.7283442296152
 20
363.9018180837647
 30
0.0
 11
188.0910860423
 21
363.9018180837647
 31
0.0
  0
LINE
  5
1234
330
105A
100
AcDbEntity
  8
7
100
AcDbLine
 10
195.7283442296152
 20
179.9018180837647
 30
0.0
 11
188.0910860423
 21
179.9018180837647
 31
0.0
  0
LINE
  5
1235
330
105A
100
AcDbEntity
  8
7
100
AcDbLine
 10
189.0910860423
 20
361.9018180837647
 30
0.0
 11
189.0910860423
 21
181.9018180837647
 31
0.0
  0
SOLID
  5
1236
330
105A
100
AcDbEntity
  8
7
100
AcDbTrace
 10
188.7577527089667
 20
361.9018180837647
 30
0.0
 11
189.4244193756334
 21
361.9018180837647
 31
0.0
 12
189.0910860423
 22
363.9018180837647
 32
0.0
 13
189.0910860423
 23
363.9018180837647
 33
0.0
  0
SOLID
  5
1237
330
105A
100
AcDbEntity
  8
7
100
AcDbTrace
 10
188.7577527089667
 20
181.9018180837647
 30
0.0
 11
189.4244193756334
 21
181.9018180837647
 31
0.0
 12
189.0910860423
 22
179.9018180837647
 32
0.0
 13
189.0910860423
 23
179.9018180837647
 33
0.0
  0
MTEXT
  5
1238
330
105A
100
AcDbEntity
  8
7
100
AcDbMText
 10
187.0454178085861
 20
271.9018180837647
 30
0.0
 40
2.0
 41
0.0
 71
     5
 72
     1
  1
1840
  7
SANINDUSA
 11
0.0000000000000001
 21
1.0
 31
0.0
 73
     1
 44
1.0
1001
ACAD
1000
MTEXTBEGIN
1070
    73
1070
     1
1070
    44
1040
1.0
1070
    74
1070
     0
1000
MTEXTEND
  0
POINT
  5
1239
330
105A
100
AcDbEntity
  8
Defpoints
 62
     0
100
AcDbPoint
 10
196.7283442296152
 20
363.9018180837647
 30
0.0
  0
POINT
  5
123A
330
105A
100
AcDbEntity
  8
Defpoints
 62
     0
100
AcDbPoint
 10
196.7283442296152
 20
179.9018180837647
 30
0.0
  0
POINT
  5
123B
330
105A
100
AcDbEntity
  8
Defpoints
 62
     0
100
AcDbPoint
 10
189.0910860423
 20
179.9018180837647
 30
0.0
  0
ENDBLK
  5
1065
330
105A
100
AcDbEntity
  8
0
100
AcDbBlockEnd
  0
BLOCK
  5
1070
330
1066
100
AcDbEntity
  8
0
100
AcDbBlockBegin
  2
*D26
 70
     1
 10
0.0
 20
0.0
 30
0.0
  3
*D26
  1

  0
LINE
  5
1206
330
1066
100
AcDbEntity
  8
7
100
AcDbLine
 10
217.7504605351701
 20
363.9018180837604
 30
0.0
 11
223.5504605351698
 21
363.9018180837604
 31
0.0
  0
LINE
  5
1207
330
1066
100
AcDbEntity
  8
7
100
AcDbLine
 10
218.39744616181
 20
178.9018180837647
 30
0.0
 11
223.5504605351698
 21
178.9018180837647
 31
0.0
  0
LINE
  5
1208
330
1066
100
AcDbEntity
  8
7
100
AcDbLine
 10
222.5504605351698
 20
361.9018180837604
 30
0.0
 11
222.5504605351698
 21
180.9018180837647
 31
0.0
  0
SOLID
  5
1209
330
1066
100
AcDbEntity
  8
7
100
AcDbTrace
 10
222.2171272018365
 20
361.9018180837604
 30
0.0
 11
222.8837938685032
 21
361.9018180837604
 31
0.0
 12
222.5504605351698
 22
363.9018180837604
 32
0.0
 13
222.5504605351698
 23
363.9018180837604
 33
0.0
  0
SOLID
  5
120A
330
1066
100
AcDbEntity
  8
7
100
AcDbTrace
 10
222.2171272018365
 20
180.9018180837647
 30
0.0
 11
222.8837938685031
 21
180.9018180837647
 31
0.0
 12
222.5504605351698
 22
178.9018180837647
 32
0.0
 13
222.5504605351698
 23
178.9018180837647
 33
0.0
  0
MTEXT
  5
120B
330
1066
100
AcDbEntity
  8
7
100
AcDbMText
 10
220.5047923014559
 20
271.4018180837626
 30
0.0
 40
2.0
 41
0.0
 71
     5
 72
     1
  1
1850
  7
SANINDUSA
 11
0.0000000000000001
 21
1.0
 31
0.0
 73
     1
 44
1.0
1001
ACAD
1000
MTEXTBEGIN
1070
    73
1070
     1
1070
    44
1040
1.0
1070
    74
1070
     0
1000
MTEXTEND
  0
POINT
  5
120C
330
1066
100
AcDbEntity
  8
Defpoints
 62
     0
100
AcDbPoint
 10
216.7504605351701
 20
363.9018180837604
 30
0.0
  0
POINT
  5
120D
330
1066
100
AcDbEntity
  8
Defpoints
 62
     0
100
AcDbPoint
 10
217.39744616181
 20
178.9018180837647
 30
0.0
  0
POINT
  5
120E
330
1066
100
AcDbEntity
  8
Defpoints
 62
     0
100
AcDbPoint
 10
222.5504605351698
 20
178.9018180837647
 30
0.0
  0
ENDBLK
  5
1071
330
1066
100
AcDbEntity
  8
0
100
AcDbBlockEnd
  0
BLOCK
  5
107C
330
1072
100
AcDbEntity
  8
0
100
AcDbBlockBegin
  2
*D27
 70
     1
 10
0.0
 20
0.0
 30
0.0
  3
*D27
  1

  0
LINE
  5
1262
330
1072
100
AcDbEntity
  8
7
100
AcDbLine
 10
163.7701322085495
 20
148.0698204187872
 30
0.0
 11
163.7701322085495
 21
158.6398200378282
 31
0.0
  0
LINE
  5
1263
330
1072
100
AcDbEntity
  8
7
100
AcDbLine
 10
213.793147360451
 20
148.0698204187872
 30
0.0
 11
213.793147360451
 21
158.6398200378282
 31
0.0
  0
LINE
  5
1264
330
1072
100
AcDbEntity
  8
7
100
AcDbLine
 10
165.7701322085495
 20
157.6398200378282
 30
0.0
 11
211.793147360451
 21
157.6398200378282
 31
0.0
  0
SOLID
  5
1265
330
1072
100
AcDbEntity
  8
7
100
AcDbTrace
 10
165.7701322085495
 20
157.9731533711616
 30
0.0
 11
165.7701322085495
 21
157.3064867044949
 31
0.0
 12
163.7701322085495
 22
157.6398200378282
 32
0.0
 13
163.7701322085495
 23
157.6398200378282
 33
0.0
  0
SOLID
  5
1266
330
1072
100
AcDbEntity
  8
7
100
AcDbTrace
 10
211.793147360451
 20
157.9731533711616
 30
0.0
 11
211.793147360451
 21
157.3064867044949
 31
0.0
 12
213.793147360451
 22
157.6398200378282
 32
0.0
 13
213.793147360451
 23
157.6398200378282
 33
0.0
  0
MTEXT
  5
1267
330
1072
100
AcDbEntity
  8
7
100
AcDbMText
 10
188.7816397845002
 20
159.9091282984058
 30
0.0
 40
2.0
 41
0.0
 71
     5
 72
     1
  1
500,2
  7
SANINDUSA
 73
     1
 44
1.0
1001
ACAD
1000
MTEXTBEGIN
1070
    73
1070
     1
1070
    44
1040
1.0
1070
    74
1070
     0
1000
MTEXTEND
  0
POINT
  5
1268
330
1072
100
AcDbEntity
  8
Defpoints
 62
     0
100
AcDbPoint
 10
163.7701322085495
 20
147.0698204187872
 30
0.0000000155554831
  0
POINT
  5
1269
330
1072
100
AcDbEntity
  8
Defpoints
 62
     0
100
AcDbPoint
 10
213.793147360451
 20
147.0698204187872
 30
0.0000000155554831
  0
POINT
  5
126A
330
1072
100
AcDbEntity
  8
Defpoints
 62
     0
100
AcDbPoint
 10
213.793147360451
 20
157.6398200378282
 30
0.0
  0
ENDBLK
  5
107D
330
1072
100
AcDbEntity
  8
0
100
AcDbBlockEnd
  0
BLOCK
  5
119E
330
1193
100
AcDbEntity
  8
0
100
AcDbBlockBegin
  2
*D29
 70
     1
 10
0.0
 20
0.0
 30
0.0
  3
*D29
  1

  0
LINE
  5
11D9
330
1193
100
AcDbEntity
  8
hid
100
AcDbLine
 10
141.16766291116
 20
146.4698200378286
 30
0.0
 11
133.9408928292689
 21
146.4698200378288
 31
0.0
  0
ARC
  5
11DA
330
1193
100
AcDbEntity
  8
hid
100
AcDbCircle
 10
164.7601378188664
 20
146.4698200378281
 30
0.0
 40
29.8192449895976
100
AcDbArc
 50
183.8435932448408
 51
266.1564067551583
  0
SOLID
  5
11DB
330
1193
100
AcDbEntity
  8
hid
100
AcDbTrace
 10
134.6748177650378
 20
144.459766513341
 30
0.0
 11
135.3411094521274
 21
144.482123439779
 31
0.0
 12
134.9408928292689
 22
146.4698200378288
 32
0.0
 13
134.9408928292689
 23
146.4698200378288
 33
0.0
  0
SOLID
  5
11DC
330
1193
100
AcDbEntity
  8
hid
100
AcDbTrace
 10
162.7724412208168
 20
117.0507916710891
 30
0.0
 11
162.7500842943789
 21
116.3844999839995
 31
0.0
 12
164.7601378188666
 22
116.6505750482305
 32
0.0
 13
164.7601378188666
 23
116.6505750482305
 33
0.0
  0
MTEXT
  5
11DD
102
{ACAD_XDICTIONARY
360
13E3
102
}
330
1193
100
AcDbEntity
  8
hid
100
AcDbMText
 10
145.2789158494903
 20
126.9885980684523
 30
0.0
 40
2.0
 41
0.0
 71
     5
 72
     1
  1
90,0\U+00B0
  7
SANINDUSA
 11
0.7071067811865422
 21
-0.7071067811865529
 31
0.0
 73
     1
 44
1.0
1001
ACAD
1000
MTEXTBEGIN
1070
    73
1070
     1
1070
    44
1040
1.0
1070
    74
1070
     0
1000
MTEXTEND
  0
POINT
  5
11DE
330
1193
100
AcDbEntity
  8
Defpoints
 62
     0
100
AcDbPoint
 10
138.9359141362029
 20
131.5601975430297
 30
0.0
  0
POINT
  5
11DF
330
1193
100
AcDbEntity
  8
Defpoints
 62
     0
100
AcDbPoint
 10
142.16766291116
 20
146.4698200378286
 30
0.000000014787744
  0
POINT
  5
11E0
330
1193
100
AcDbEntity
  8
Defpoints
 62
     0
100
AcDbPoint
 10
164.7601378188665
 20
145.1798148084706
 30
0.0000000155554831
  0
POINT
  5
11E1
330
1193
100
AcDbEntity
  8
Defpoints
 62
     0
100
AcDbPoint
 10
164.7601378188667
 20
95.15679965656886
 30
0.0000000155554831
  0
POINT
  5
11E2
330
1193
100
AcDbEntity
  8
Defpoints
 62
     0
100
AcDbPoint
 10
163.4701322085493
 20
146.4698200378282
 30
0.0000000155554969
  0
ENDBLK
  5
119F
330
1193
100
AcDbEntity
  8
0
100
AcDbBlockEnd
  0
BLOCK
  5
133F
330
133E
100
AcDbEntity
  8
0
100
AcDbBlockBegin
  2
*D31
 70
     1
 10
0.0
 20
0.0
 30
0.0
  3
*D31
  1

  0
LINE
  5
134B
330
133E
100
AcDbEntity
  8
cotas
100
AcDbLine
 10
217.7504605351696
 20
363.9018180837647
 30
0.0
 11
226.4756254710144
 21
363.9018180837647
 31
0.0
  0
LINE
  5
134C
330
133E
100
AcDbEntity
  8
cotas
100
AcDbLine
 10
217.7504605351701
 20
178.9018180837647
 30
0.0
 11
226.4756254710143
 21
178.9018180837647
 31
0.0
  0
LINE
  5
134D
330
133E
100
AcDbEntity
  8
cotas
100
AcDbLine
 10
225.4756254710144
 20
361.9018180837647
 30
0.0
 11
225.4756254710144
 21
180.9018180837647
 31
0.0
  0
SOLID
  5
134E
330
133E
100
AcDbEntity
  8
cotas
100
AcDbTrace
 10
225.1422921376811
 20
361.9018180837647
 30
0.0
 11
225.8089588043477
 21
361.9018180837647
 31
0.0
 12
225.4756254710144
 22
363.9018180837647
 32
0.0
 13
225.4756254710144
 23
363.9018180837647
 33
0.0
  0
SOLID
  5
134F
330
133E
100
AcDbEntity
  8
cotas
100
AcDbTrace
 10
225.142292137681
 20
180.9018180837647
 30
0.0
 11
225.8089588043477
 21
180.9018180837647
 31
0.0
 12
225.4756254710144
 22
178.9018180837647
 32
0.0
 13
225.4756254710144
 23
178.9018180837647
 33
0.0
  0
MTEXT
  5
1350
330
133E
100
AcDbEntity
  8
cotas
100
AcDbMText
 10
223.4299572373005
 20
271.4018180837647
 30
0.0
 40
2.0
 41
0.0
 71
     5
 72
     1
  1
185
  7
SANINDUSA
 11
0.0000000000000001
 21
1.0
 31
0.0
 73
     1
 44
1.0
1001
ACAD
1000
MTEXTBEGIN
1070
    73
1070
     1
1070
    44
1040
1.0
1070
    74
1070
     0
1000
MTEXTEND
  0
POINT
  5
1351
330
133E
100
AcDbEntity
  8
Defpoints
 62
     0
100
AcDbPoint
 10
216.7504605351696
 20
363.9018180837647
 30
0.0
  0
POINT
  5
1352
330
133E
100
AcDbEntity
  8
Defpoints
 62
     0
100
AcDbPoint
 10
216.7504605351701
 20
178.9018180837647
 30
0.0
  0
POINT
  5
1353
330
133E
100
AcDbEntity
  8
Defpoints
 62
     0
100
AcDbPoint
 10
225.4756254710144
 20
178.9018180837647
 30
0.0
  0
ENDBLK
  5
1340
330
133E
100
AcDbEntity
  8
0
100
AcDbBlockEnd
  0
BLOCK
  5
1357
330
1356
100
AcDbEntity
  8
0
100
AcDbBlockBegin
  2
*D32
 70
     1
 10
0.0
 20
0.0
 30
0.0
  3
*D32
  1

  0
LINE
  5
1363
330
1356
100
AcDbEntity
  8
cotas
100
AcDbLine
 10
458.0147715441308
 20
1161.583155665046
 30
0.0
 11
571.1343982014234
 21
1161.583155665045
 31
0.0
  0
LINE
  5
1364
330
1356
100
AcDbEntity
  8
cotas
100
AcDbLine
 10
458.0147715441353
 20
-688.416844334954
 30
0.0
 11
571.1343982014231
 21
-688.416844334954
 31
0.0
  0
LINE
  5
1365
330
1356
100
AcDbEntity
  8
cotas
100
AcDbLine
 10
570.1343982014234
 20
1159.583155665045
 30
0.0
 11
570.1343982014231
 21
-686.416844334954
 31
0.0
  0
SOLID
  5
1366
330
1356
100
AcDbEntity
  8
cotas
100
AcDbTrace
 10
569.8010648680901
 20
1159.583155665045
 30
0.0
 11
570.4677315347567
 21
1159.583155665045
 31
0.0
 12
570.1343982014234
 22
1161.583155665045
 32
0.0
 13
570.1343982014234
 23
1161.583155665045
 33
0.0
  0
SOLID
  5
1367
330
1356
100
AcDbEntity
  8
cotas
100
AcDbTrace
 10
569.8010648680897
 20
-686.416844334954
 30
0.0
 11
570.4677315347565
 21
-686.416844334954
 31
0.0
 12
570.1343982014231
 22
-688.416844334954
 32
0.0
 13
570.1343982014231
 23
-688.416844334954
 33
0.0
  0
MTEXT
  5
1368
330
1356
100
AcDbEntity
  8
cotas
100
AcDbMText
 10
568.0887299677094
 20
236.583155665046
 30
0.0
 40
2.0
 41
0.0
 71
     5
 72
     1
  1
1850
  7
SANINDUSA
 11
0.0000000000000001
 21
1.0
 31
0.0
 73
     1
 44
1.0
1001
ACAD
1000
MTEXTBEGIN
1070
    73
1070
     1
1070
    44
1040
1.0
1070
    74
1070
     0
1000
MTEXTEND
  0
POINT
  5
1369
330
1356
100
AcDbEntity
  8
Defpoints
 62
     0
100
AcDbPoint
 10
457.0147715441307
 20
1161.583155665046
 30
0.0
  0
POINT
  5
136A
330
1356
100
AcDbEntity
  8
Defpoints
 62
     0
100
AcDbPoint
 10
457.0147715441353
 20
-688.416844334954
 30
0.0
  0
POINT
  5
136B
330
1356
100
AcDbEntity
  8
Defpoints
 62
     0
100
AcDbPoint
 10
570.1343982014231
 20
-688.416844334954
 30
0.0
  0
ENDBLK
  5
1358
330
1356
100
AcDbEntity
  8
0
100
AcDbBlockEnd
  0
ENDSEC
  0
SECTION
  2
ENTITIES
  0
LINE
  5
E49
330
1F
100
AcDbEntity
  8
SANINDUSA
100
AcDbLine
 10
216.4277362983002
 20
297.4300469810922
 30
0.0
 11
216.4277362983002
 21
299.2800469810921
 31
0.0
  0
LINE
  5
E4A
330
1F
100
AcDbEntity
  8
SANINDUSA
100
AcDbLine
 10
216.3728862983002
 20
297.4300469810922
 30
0.0
 11
216.3728862983002
 21
299.2800469810921
 31
0.0
  0
LINE
  5
E4C
330
1F
100
AcDbEntity
  8
SANINDUSA
100
AcDbLine
 10
217.1448862983002
 20
297.4400469810922
 30
0.0
 11
217.1448862983002
 21
299.2800469810921
 31
0.0
  0
LINE
  5
E4D
330
1F
100
AcDbEntity
  8
SANINDUSA
100
AcDbLine
 10
217.1453862983002
 20
297.4400469810922
 30
0.0
 11
217.1453862983002
 21
299.2800469810921
 31
0.0
  0
LINE
  5
E4E
330
1F
100
AcDbEntity
  8
SANINDUSA
100
AcDbLine
 10
217.1513862983002
 20
297.4400469810922
 30
0.0
 11
217.1513862983002
 21
299.2800469810921
 31
0.0
  0
LINE
  5
E4F
330
1F
100
AcDbEntity
  8
SANINDUSA
100
AcDbLine
 10
217.1636862983002
 20
297.4300469810922
 30
0.0
 11
217.1636862983002
 21
299.2800469810921
 31
0.0
  0
LINE
  5
E50
330
1F
100
AcDbEntity
  8
SANINDUSA
100
AcDbLine
 10
216.6448862983002
 20
297.7490469810921
 30
0.0
 11
216.6448862983002
 21
298.9610469810825
 31
0.0
  0
LINE
  5
E51
330
1F
100
AcDbEntity
  8
SANINDUSA
100
AcDbLine
 10
216.6418862983002
 20
297.7490469810921
 30
0.0
 11
216.6418862983002
 21
298.9610469810825
 31
0.0
  0
LINE
  5
E53
330
1F
100
AcDbEntity
  8
SANINDUSA
100
AcDbLine
 10
217.5535167354337
 20
298.3692177036449
 30
0.0000000001555548
 11
218.0537468869527
 21
298.3692177036449
 31
0.0000000001555548
  0
LINE
  5
E54
330
1F
100
AcDbEntity
  8
SANINDUSA
100
AcDbLine
 10
217.5535167354337
 20
298.3752177036449
 30
0.0000000001555548
 11
218.0537468869527
 21
298.3752177036449
 31
0.0000000001555548
  0
LINE
  5
E56
330
1F
100
AcDbEntity
  8
SANINDUSA
100
AcDbLine
 10
216.6418862983002
 20
297.4300469810922
 30
0.0
 11
216.6418862983002
 21
297.7010469810921
 31
0.0
  0
LINE
  5
E57
330
1F
100
AcDbEntity
  8
SANINDUSA
100
AcDbLine
 10
216.6448862983002
 20
297.4400469810922
 30
0.0
 11
216.6448862983002
 21
297.7010469810921
 31
0.0
  0
LINE
  5
E58
330
1F
100
AcDbEntity
  8
SANINDUSA
100
AcDbLine
 10
216.3728862983002
 20
297.4420469810922
 30
0.0
 11
216.3728862983002
 21
297.7212360476743
 31
0.0
  0
LINE
  5
E59
330
1F
100
AcDbEntity
  8
SANINDUSA
100
AcDbLine
 10
216.6448862983002
 20
297.4400469810922
 30
0.0
 11
217.1448862983002
 21
297.4400469810922
 31
0.0
  0
LINE
  5
E61
330
1F
100
AcDbEntity
  8
SANINDUSA
100
AcDbLine
 10
217.1453862983002
 20
297.4400469810922
 30
0.0
 11
217.1513862983002
 21
297.4400469810922
 31
0.0
  0
CIRCLE
  5
E83
330
1F
100
AcDbEntity
  8
SANINDUSA
100
AcDbCircle
 10
217.0948862983002
 20
298.3600462131451
 30
0.0
 40
0.004
  0
LINE
  5
ECF
330
1F
100
AcDbEntity
  8
SANINDUSA
100
AcDbLine
 10
218.0537468869527
 20
298.3752177036449
 30
0.0000000001555548
 11
218.0537468869527
 21
298.3692177036449
 31
0.0000000001555548
  0
INSERT
  5
ED0
330
1F
100
AcDbEntity
  8
SANINDUSA
100
AcDbBlockReference
  2
guarnizione
 10
218.0537468869527
 20
298.3722177036449
 30
0.0000000001555548
 41
-0.001
 42
0.001
 43
0.001
  0
LINE
  5
F31
330
1F
100
AcDbEntity
  8
SANINDUSA
100
AcDbLine
 10
216.6448862983002
 20
299.2800469810921
 30
0.0
 11
217.1636862983002
 21
299.2800469810921
 31
0.0
  0
LINE
  5
F32
330
1F
100
AcDbEntity
  8
SANINDUSA
100
AcDbLine
 10
216.6418862983002
 20
299.0090469810825
 30
0.0
 11
216.6418862983002
 21
299.2800469810921
 31
0.0
  0
LINE
  5
F33
330
1F
100
AcDbEntity
  8
SANINDUSA
100
AcDbLine
 10
216.6448862983002
 20
299.0090469810825
 30
0.0
 11
216.6448862983002
 21
299.2800469810921
 31
0.0
  0
LINE
  5
F4D
330
1F
100
AcDbEntity
  8
SANINDUSA
100
AcDbLine
 10
216.3728862983002
 20
299.2800469810921
 30
0.0
 11
216.6418862983002
 21
299.2800469810921
 31
0.0
  0
LINE
  5
F54
330
1F
100
AcDbEntity
  8
SANINDUSA
100
AcDbLine
 10
217.3148700186999
 20
298.3662176998353
 30
0.0
 11
217.3463700186999
 21
298.3662176998353
 31
0.0
  0
LINE
  5
F55
330
1F
100
AcDbEntity
  8
SANINDUSA
100
AcDbLine
 10
217.3423066328412
 20
298.3682176998353
 30
0.0
 11
217.3449952459914
 21
298.3682176998353
 31
0.0
  0
LINE
  5
F56
330
1F
100
AcDbEntity
  8
SANINDUSA
100
AcDbLine
 10
217.3463700186999
 20
298.3782176998353
 30
0.0
 11
217.3148700186999
 21
298.3782176998353
 31
0.0
  0
LINE
  5
F57
330
1F
100
AcDbEntity
  8
SANINDUSA
100
AcDbLine
 10
217.3449952459914
 20
298.3762176998353
 30
0.0
 11
217.3423066328412
 21
298.3762176998353
 31
0.0
  0
LINE
  5
F58
330
1F
100
AcDbEntity
  8
SANINDUSA
100
AcDbLine
 10
217.3473700186999
 20
298.3672176998354
 30
0.0
 11
217.3473700186999
 21
298.3681176998354
 31
0.0
  0
ARC
  5
F59
330
1F
100
AcDbEntity
  8
SANINDUSA
100
AcDbCircle
 10
217.3463700186999
 20
298.3681176998354
 30
0.0
 40
0.0009999999999999
100
AcDbArc
 50
0.0
 51
156.4218215208971
  0
ARC
  5
F5A
330
1F
100
AcDbEntity
  8
SANINDUSA
100
AcDbCircle
 10
217.3463700186999
 20
298.3672176998354
 30
0.0
 40
0.0010000000000001
100
AcDbArc
 50
270.0
 51
0.0
  0
ARC
  5
F5B
330
1F
100
AcDbEntity
  8
SANINDUSA
100
AcDbCircle
 10
217.3449952459914
 20
298.3687176998353
 30
0.0
 40
0.0005000000000001
100
AcDbArc
 50
270.0
 51
336.4218215208971
  0
ARC
  5
F5C
330
1F
100
AcDbEntity
  8
SANINDUSA
100
AcDbCircle
 10
217.3463700186999
 20
298.3772176998353
 30
0.0
 40
0.0009999999999999
100
AcDbArc
 50
0.0
 51
90.0
  0
LINE
  5
F5D
330
1F
100
AcDbEntity
  8
SANINDUSA
100
AcDbLine
 10
217.3473700186999
 20
298.3763176998353
 30
0.0
 11
217.3473700186999
 21
298.3772176998353
 31
0.0
  0
ARC
  5
F5E
330
1F
100
AcDbEntity
  8
SANINDUSA
100
AcDbCircle
 10
217.3463700186999
 20
298.3763176998353
 30
0.0
 40
0.0009999999999999
100
AcDbArc
 50
203.5781784791029
 51
0.0
  0
ARC
  5
F5F
330
1F
100
AcDbEntity
  8
SANINDUSA
100
AcDbCircle
 10
217.3449952459914
 20
298.3757176998353
 30
0.0
 40
0.0005000000000001
100
AcDbArc
 50
23.5781784791029
 51
90.0
  0
ARC
  5
F60
330
1F
100
AcDbEntity
  8
SANINDUSA
100
AcDbCircle
 10
217.3148700186999
 20
298.3672176998354
 30
0.0
 40
0.001
100
AcDbArc
 50
90.0
 51
270.0
  0
ARC
  5
F61
330
1F
100
AcDbEntity
  8
SANINDUSA
100
AcDbCircle
 10
217.3423066328412
 20
298.3687176998353
 30
0.0
 40
0.0005
100
AcDbArc
 50
199.4712206349464
 51
270.0
  0
LINE
  5
F62
330
1F
100
AcDbEntity
  8
SANINDUSA
100
AcDbLine
 10
217.3348920424598
 20
298.3682176998353
 30
0.0
 11
217.3148700186999
 21
298.3682176998353
 31
0.0
  0
ARC
  5
F63
330
1F
100
AcDbEntity
  8
SANINDUSA
100
AcDbCircle
 10
217.3408924192788
 20
298.3682176998353
 30
0.0
 40
0.001
100
AcDbArc
 50
19.47122063494644
 51
160.5287793650535
  0
ARC
  5
F64
330
1F
100
AcDbEntity
  8
SANINDUSA
100
AcDbCircle
 10
217.3348920424598
 20
298.3687176998353
 30
0.0
 40
0.0005000000000001
100
AcDbArc
 50
270.0
 51
0.0
  0
ARC
  5
F65
330
1F
100
AcDbEntity
  8
SANINDUSA
100
AcDbCircle
 10
217.3394782057164
 20
298.3687176998353
 30
0.0
 40
0.0005
100
AcDbArc
 50
270.0
 51
340.5287793650535
  0
LINE
  5
F66
330
1F
100
AcDbEntity
  8
SANINDUSA
100
AcDbLine
 10
217.3353920424598
 20
298.3757176998353
 30
0.0
 11
217.3353920424598
 21
298.3687176998353
 31
0.0
  0
LINE
  5
F67
330
1F
100
AcDbEntity
  8
SANINDUSA
100
AcDbLine
 10
217.3378920424598
 20
298.3682176998353
 30
0.0
 11
217.3394782057164
 21
298.3682176998353
 31
0.0
  0
ARC
  5
F68
330
1F
100
AcDbEntity
  8
SANINDUSA
100
AcDbCircle
 10
217.3348920424598
 20
298.3757176998353
 30
0.0
 40
0.0005000000000001
100
AcDbArc
 50
0.0
 51
90.0
  0
ARC
  5
F69
330
1F
100
AcDbEntity
  8
SANINDUSA
100
AcDbCircle
 10
217.3378920424598
 20
298.3687176998353
 30
0.0
 40
0.0005
100
AcDbArc
 50
180.0
 51
270.0
  0
LINE
  5
F6A
330
1F
100
AcDbEntity
  8
SANINDUSA
100
AcDbLine
 10
217.3148700186999
 20
298.3762176998353
 30
0.0
 11
217.3348920424598
 21
298.3762176998354
 31
0.0
  0
LINE
  5
F6B
330
1F
100
AcDbEntity
  8
SANINDUSA
100
AcDbLine
 10
217.3373920424598
 20
298.3757176998353
 30
0.0
 11
217.3373920424598
 21
298.3687176998353
 31
0.0
  0
ARC
  5
F6C
330
1F
100
AcDbEntity
  8
SANINDUSA
100
AcDbCircle
 10
217.3148700186999
 20
298.3772176998353
 30
0.0
 40
0.001
100
AcDbArc
 50
90.0
 51
270.0
  0
ARC
  5
F6D
330
1F
100
AcDbEntity
  8
SANINDUSA
100
AcDbCircle
 10
217.3378920424598
 20
298.3757176998353
 30
0.0
 40
0.0005
100
AcDbArc
 50
90.0
 51
180.0
  0
LINE
  5
F6E
330
1F
100
AcDbEntity
  8
SANINDUSA
100
AcDbLine
 10
217.3394782057164
 20
298.3762176998353
 30
0.0
 11
217.3378920424598
 21
298.3762176998353
 31
0.0
  0
ARC
  5
F6F
330
1F
100
AcDbEntity
  8
SANINDUSA
100
AcDbCircle
 10
217.3394782057164
 20
298.3757176998353
 30
0.0
 40
0.0004999999999999
100
AcDbArc
 50
19.47122063494644
 51
90.0
  0
ARC
  5
F70
330
1F
100
AcDbEntity
  8
SANINDUSA
100
AcDbCircle
 10
217.3408924192788
 20
298.3762176998353
 30
0.0
 40
0.001
100
AcDbArc
 50
199.4712206349464
 51
340.5287793650535
  0
ARC
  5
F71
330
1F
100
AcDbEntity
  8
SANINDUSA
100
AcDbCircle
 10
217.3423066328412
 20
298.3757176998353
 30
0.0
 40
0.0005
100
AcDbArc
 50
90.0
 51
160.5287793650535
  0
LINE
  5
F72
330
1F
100
AcDbEntity
  8
SANINDUSA
100
AcDbLine
 10
217.2948690451661
 20
298.3580005262534
 30
0.0
 11
217.2948756306184
 21
298.3587069638558
 31
0.0
  0
ARC
  5
F73
330
1F
100
AcDbEntity
  8
SANINDUSA
100
AcDbCircle
 10
217.2958690017186
 20
298.3579912046004
 30
0.0
 40
0.001
100
AcDbArc
 50
179.4659008892979
 51
270.0522365954197
  0
ARC
  5
F74
330
1F
100
AcDbEntity
  8
SANINDUSA
100
AcDbCircle
 10
217.2958755871709
 20
298.3586976422028
 30
0.0
 40
0.0010000000000003
100
AcDbArc
 50
134.91069595084
 51
179.4659008892979
  0
ARC
  5
F75
330
1F
100
AcDbEntity
  8
SANINDUSA
100
AcDbCircle
 10
217.295779910262
 20
298.4557112594803
 30
0.0
 40
0.0987200954923432
100
AcDbArc
 50
270.0522365954197
 51
291.0588352496803
  0
LINE
  5
F76
330
1F
100
AcDbEntity
  8
SANINDUSA
100
AcDbLine
 10
217.2951695833799
 20
298.3594058502563
 30
0.0
 11
217.2960760224909
 21
298.3603094681202
 31
0.0
  0
ARC
  5
F77
330
1F
100
AcDbEntity
  8
SANINDUSA
100
AcDbCircle
 10
217.3308933228319
 20
298.3645176998353
 30
0.0
 40
0.001
100
AcDbArc
 50
291.0588352496803
 51
90.0
  0
ARC
  5
F78
330
1F
100
AcDbEntity
  8
SANINDUSA
100
AcDbCircle
 10
217.2953700186999
 20
298.3610176761738
 30
0.0
 40
0.0010000000000003
100
AcDbArc
 50
314.91069595084
 51
0.0
  0
LINE
  5
F79
330
1F
100
AcDbEntity
  8
SANINDUSA
100
AcDbLine
 10
217.3088933228319
 20
298.3655176998354
 30
0.0
 11
217.3308933228319
 21
298.3655176998354
 31
0.0
  0
LINE
  5
F7A
330
1F
100
AcDbEntity
  8
SANINDUSA
100
AcDbLine
 10
217.2963700186999
 20
298.3610176761738
 30
0.0
 11
217.2963700186999
 21
298.3712070396635
 31
0.0
  0
ARC
  5
F7B
330
1F
100
AcDbEntity
  8
SANINDUSA
100
AcDbCircle
 10
217.3088933228319
 20
298.3645176998353
 30
0.0
 40
0.001
100
AcDbArc
 50
90.0
 51
270.0
  0
ARC
  5
F7C
330
1F
100
AcDbEntity
  8
SANINDUSA
100
AcDbCircle
 10
217.2966200186999
 20
298.3712070396635
 30
0.0
 40
0.00025
100
AcDbArc
 50
135.0
 51
180.0
  0
LINE
  5
F7D
330
1F
100
AcDbEntity
  8
SANINDUSA
100
AcDbLine
 10
217.3215909694594
 20
298.3635176998353
 30
0.0
 11
217.3088933228319
 21
298.3635176998353
 31
0.0
  0
LINE
  5
F7E
330
1F
100
AcDbEntity
  8
SANINDUSA
100
AcDbLine
 10
217.2964432420046
 20
298.3713838163589
 30
0.0
 11
217.2969235720905
 21
298.3718641464447
 31
0.0
  0
ARC
  5
F7F
330
1F
100
AcDbEntity
  8
SANINDUSA
100
AcDbCircle
 10
217.3215909694594
 20
298.3630176998353
 30
0.0
 40
0.0005
100
AcDbArc
 50
285.560169641384
 51
90.0
  0
ARC
  5
F80
330
1F
100
AcDbEntity
  8
SANINDUSA
100
AcDbCircle
 10
217.2965700186999
 20
298.3722176998353
 30
0.0
 40
0.0005
100
AcDbArc
 50
315.0
 51
45.0
  0
ARC
  5
F81
330
1F
100
AcDbEntity
  8
SANINDUSA
100
AcDbCircle
 10
217.295779910262
 20
298.4557112594804
 30
0.0
 40
0.0967200954923435
100
AcDbArc
 50
272.1494579347754
 51
285.560169641384
  0
LINE
  5
F82
330
1F
100
AcDbEntity
  8
SANINDUSA
100
AcDbLine
 10
217.2969235720905
 20
298.372571253226
 30
0.0
 11
217.2964432420046
 21
298.3730515833118
 31
0.0
  0
ARC
  5
F83
330
1F
100
AcDbEntity
  8
SANINDUSA
100
AcDbCircle
 10
217.2993700186999
 20
298.3600585135581
 30
0.0
 40
0.001
100
AcDbArc
 50
180.0
 51
272.1494579347754
  0
ARC
  5
F84
330
1F
100
AcDbEntity
  8
SANINDUSA
100
AcDbCircle
 10
217.2966200186999
 20
298.3732283600071
 30
0.0
 40
0.0002500000000003
100
AcDbArc
 50
180.0
 51
225.0
  0
LINE
  5
F85
330
1F
100
AcDbEntity
  8
SANINDUSA
100
AcDbLine
 10
217.2983700186999
 20
298.3779176998353
 30
0.0
 11
217.2983700186999
 21
298.3600585135581
 31
0.0
  0
LINE
  5
F86
330
1F
100
AcDbEntity
  8
SANINDUSA
100
AcDbLine
 10
217.2963700186999
 20
298.3732283600071
 30
0.0
 11
217.2963700186999
 21
298.376603486273
 31
0.0
  0
ARC
  5
F87
330
1F
100
AcDbEntity
  8
SANINDUSA
100
AcDbCircle
 10
217.2993700186999
 20
298.3779176998353
 30
0.0
 40
0.001
100
AcDbArc
 50
90.0
 51
180.0
  0
ARC
  5
F88
330
1F
100
AcDbEntity
  8
SANINDUSA
100
AcDbCircle
 10
217.2953700186999
 20
298.376603486273
 30
0.0
 40
0.0010000000000003
100
AcDbArc
 50
0.0
 51
45.0
  0
LINE
  5
F89
330
1F
100
AcDbEntity
  8
SANINDUSA
100
AcDbLine
 10
217.3308933228319
 20
298.3789176998353
 30
0.0
 11
217.2993700186999
 21
298.3789176998353
 31
0.0
  0
LINE
  5
F8A
330
1F
100
AcDbEntity
  8
SANINDUSA
100
AcDbLine
 10
217.2960771254811
 20
298.3773105930542
 30
0.0
 11
217.2951629119187
 21
298.3782248066165
 31
0.0
  0
ARC
  5
F8B
330
1F
100
AcDbEntity
  8
SANINDUSA
100
AcDbCircle
 10
217.3308933228319
 20
298.3799176998354
 30
0.0
 40
0.001
100
AcDbArc
 50
270.0
 51
90.0
  0
ARC
  5
F8C
330
1F
100
AcDbEntity
  8
SANINDUSA
100
AcDbCircle
 10
217.2958700186999
 20
298.3789319133977
 30
0.0
 40
0.0010000000000003
100
AcDbArc
 50
180.0
 51
225.0
  0
LINE
  5
F8D
330
1F
100
AcDbEntity
  8
SANINDUSA
100
AcDbLine
 10
217.2958700186999
 20
298.3809176998353
 30
0.0
 11
217.3308933228319
 21
298.3809176998353
 31
0.0
  0
LINE
  5
F8E
330
1F
100
AcDbEntity
  8
SANINDUSA
100
AcDbLine
 10
217.2948700186999
 20
298.3789319133977
 30
0.0
 11
217.2948700186999
 21
298.3799176998354
 31
0.0
  0
ARC
  5
F8F
330
1F
100
AcDbEntity
  8
SANINDUSA
100
AcDbCircle
 10
217.2958700186999
 20
298.3799176998354
 30
0.0
 40
0.0009999999999999
100
AcDbArc
 50
90.0
 51
180.0
  0
LINE
  5
F90
330
1F
100
AcDbEntity
  8
SANINDUSA
100
AcDbLine
 10
217.2960200186999
 20
298.3610176761738
 30
0.0
 11
217.2960200186999
 21
298.376603486273
 31
0.0
  0
ARC
  5
F91
330
1F
100
AcDbEntity
  8
SANINDUSA
100
AcDbCircle
 10
217.2953700186999
 20
298.376603486273
 30
0.0
 40
0.0006500000000003
100
AcDbArc
 50
0.0
 51
45.0
  0
ARC
  5
F92
330
1F
100
AcDbEntity
  8
SANINDUSA
100
AcDbCircle
 10
217.2953700186999
 20
298.3610176761738
 30
0.0
 40
0.0006500000000003
100
AcDbArc
 50
314.91069595084
 51
0.0
  0
LINE
  5
F93
330
1F
100
AcDbEntity
  8
SANINDUSA
100
AcDbLine
 10
217.2958296381077
 20
298.3770631056808
 30
0.0
 11
217.2949154245453
 21
298.3779773192431
 31
0.0
  0
LINE
  5
F94
330
1F
100
AcDbEntity
  8
SANINDUSA
100
AcDbLine
 10
217.2949224820531
 20
298.3596537230751
 30
0.0
 11
217.295828921164
 21
298.360557340939
 31
0.0
  0
ARC
  5
F95
330
1F
100
AcDbEntity
  8
SANINDUSA
100
AcDbCircle
 10
217.2958700186999
 20
298.3789319133977
 30
0.0
 40
0.0013499999999998
100
AcDbArc
 50
180.0
 51
225.0
  0
ARC
  5
F96
330
1F
100
AcDbEntity
  8
SANINDUSA
100
AcDbCircle
 10
217.2958755871709
 20
298.3586976422028
 30
0.0
 40
0.00135
100
AcDbArc
 50
134.91069595084
 51
179.4659008892979
  0
LINE
  5
F97
330
1F
100
AcDbEntity
  8
SANINDUSA
100
AcDbLine
 10
217.2945200186999
 20
298.3789319133977
 30
0.0
 11
217.2945200186999
 21
298.3799176998354
 31
0.0
  0
LINE
  5
F98
330
1F
100
AcDbEntity
  8
SANINDUSA
100
AcDbLine
 10
217.2945188561648
 20
298.3579818829474
 30
0.0
 11
217.2945256458251
 21
298.3587102264343
 31
0.0
  0
ARC
  5
F99
330
1F
100
AcDbEntity
  8
SANINDUSA
100
AcDbCircle
 10
217.2935200186999
 20
298.3799176998354
 30
0.0
 40
0.0009999999999999
100
AcDbArc
 50
0.0
 51
90.0
  0
ARC
  5
F9A
330
1F
100
AcDbEntity
  8
SANINDUSA
100
AcDbCircle
 10
217.2935188996124
 20
298.3579912046003
 30
0.0
 40
0.0009999999999999
100
AcDbArc
 50
270.0
 51
359.4659008892979
  0
LINE
  5
F9B
330
1F
100
AcDbEntity
  8
SANINDUSA
100
AcDbLine
 10
217.2935200186999
 20
298.3809176998353
 30
0.0
 11
217.2925200186999
 21
298.3809176998353
 31
0.0
  0
LINE
  5
F9C
330
1F
100
AcDbEntity
  8
SANINDUSA
100
AcDbLine
 10
217.2925200186999
 20
298.3569912046004
 30
0.0
 11
217.2935188996124
 21
298.3569912046004
 31
0.0
  0
LINE
  5
F9D
330
1F
100
AcDbEntity
  8
SANINDUSA
100
AcDbLine
 10
217.2925200186999
 20
298.3569912046004
 30
0.0
 11
217.2925200186999
 21
298.3809176998353
 31
0.0
  0
LINE
  5
F9E
330
1F
100
AcDbEntity
  8
SANINDUSA
100
AcDbLine
 10
217.3374920424598
 20
298.3752176998353
 30
0.000000000146627
 11
217.5505167354337
 21
298.3752176998353
 31
0.000000000155555
  0
LINE
  5
F9F
330
1F
100
AcDbEntity
  8
SANINDUSA
100
AcDbLine
 10
217.3374920424598
 20
298.3692176998354
 30
0.0000000001478774
 11
217.5505167354337
 21
298.3692176998354
 31
0.000000000155555
  0
LINE
  5
FA0
330
1F
100
AcDbEntity
  8
SANINDUSA
100
AcDbLine
 10
217.4840167354337
 20
298.3766176998353
 30
0.000000000155555
 11
217.4840167354337
 21
298.3806176998353
 31
0.000000000155555
  0
LINE
  5
FA1
330
1F
100
AcDbEntity
  8
SANINDUSA
100
AcDbLine
 10
217.4840167354337
 20
298.3689176998353
 30
0.000000000155555
 11
217.4840167354337
 21
298.3679176998354
 31
0.000000000155555
1001
GENIUS_GENREC_14
1002
{
1000
PYDIR
1011
217.6200167354337
1021
298.3689176998353
1031
0.000000000155555
1002
}
1002
{
1000
PXDIR
1011
217.5670167354337
1021
298.3679176998354
1031
0.000000000155555
1002
}
1002
{
1000
PORI
1011
217.6200167354337
1021
298.3679176998354
1031
0.000000000155555
1002
}
1002
{
1000
PINS
1011
217.6200167354337
1021
298.3679176998354
1031
0.000000000155555
1002
}
1002
{
1000
PINS2
1011
217.5670167354337
1021
298.3689176998353
1031
0.000000000155555
1002
}
1002
{
1000
C
1070
     1
1002
}
1001
GENIUS_GENODEF_13
1002
{
1000
HIER
1070
     0
1002
}
1002
{
1000
MANEDIT
1070
     0
1002
}
1002
{
1000
NOSEL
1070
     0
1002
}
1002
{
1000
BEHIND
1070
     0
1002
}
1002
{
1000
REACTOR
1002
}
1001
GENIUS_GENOBJ-N-REC_13
1002
{
1000
OWNER
1000
GEN
1002
}
  0
ARC
  5
FA2
330
1F
100
AcDbEntity
  8
SANINDUSA
100
AcDbCircle
 10
217.4850167354337
 20
298.3806176998353
 30
0.000000000155555
 40
0.001
100
AcDbArc
 50
90.0
 51
180.0
  0
ARC
  5
FA3
330
1F
100
AcDbEntity
  8
SANINDUSA
100
AcDbCircle
 10
217.4850167354337
 20
298.3588176475412
 30
0.000000000155555
 40
0.001
100
AcDbArc
 50
180.0
 51
270.0
  0
LINE
  5
FA4
330
1F
100
AcDbEntity
  8
SANINDUSA
100
AcDbLine
 10
217.4840167354336
 20
298.3678176475416
 30
0.000000000155555
 11
217.4840167354337
 21
298.3588176475412
 31
0.000000000155555
  0
ARC
  5
FA5
330
1F
100
AcDbEntity
  8
SANINDUSA
100
AcDbCircle
 10
217.5515311824723
 20
298.3722177036449
 30
0.0000000001555548
 40
0.0052623076923077
100
AcDbArc
 50
81.4923271282262
 51
278.5076728717738
  0
LINE
  5
FA6
330
1F
100
AcDbEntity
  8
SANINDUSA
100
AcDbLine
 10
217.5535167354337
 20
298.375914134095
 30
0.0000000001555548
 11
217.5535167354337
 21
298.3685212731948
 31
0.0000000001555548
  0
LINE
  5
FA7
330
1F
100
AcDbEntity
  8
SANINDUSA
100
AcDbLine
 10
217.55236887478
 20
298.377817703645
 30
0.0000000001555548
 11
217.55236887478
 21
298.3666177036449
 31
0.0000000001555548
  0
ARC
  5
FA8
330
1F
100
AcDbEntity
  8
SANINDUSA
100
AcDbCircle
 10
217.5541167354337
 20
298.3685212731948
 30
0.0000000001555548
 40
0.0006
100
AcDbArc
 50
180.0
 51
279.3408341018414
  0
LINE
  5
FA9
330
1F
100
AcDbEntity
  8
SANINDUSA
100
AcDbLine
 10
217.5542141196947
 20
298.3679292290194
 30
0.0000000001555548
 11
217.5547965668737
 21
298.3680250346881
 31
0.0000000001555548
  0
LINE
  5
FAA
330
1F
100
AcDbEntity
  8
SANINDUSA
100
AcDbLine
 10
217.5533619573585
 20
298.3666177036449
 30
0.0000000001555548
 11
217.55236887478
 21
298.3666177036449
 31
0.0000000001555548
  0
ARC
  5
FAB
330
1F
100
AcDbEntity
  8
SANINDUSA
100
AcDbCircle
 10
217.555908261913
 20
298.3689679737846
 30
0.0000000001555548
 40
0.00075
100
AcDbArc
 50
359.8634464290416
 51
189.3408341018414
  0
LINE
  5
FAC
330
1F
100
AcDbEntity
  8
SANINDUSA
100
AcDbLine
 10
217.5552087834691
 20
298.3685995583851
 30
0.0000000001555548
 11
217.5551682066936
 21
298.3688462434582
 31
0.0000000001555548
  0
LINE
  5
FAD
330
1F
100
AcDbEntity
  8
SANINDUSA
100
AcDbLine
 10
217.5566483171323
 20
298.3690897041109
 30
0.0000000001555548
 11
217.5566888939077
 21
298.3688430190377
 31
0.0000000001555548
  0
ARC
  5
FAE
330
1F
100
AcDbEntity
  8
SANINDUSA
100
AcDbCircle
 10
217.5547154133228
 20
298.3685184048343
 30
0.0000000001555548
 40
0.0005
100
AcDbArc
 50
279.3408341018414
 51
9.340834101841444
  0
LINE
  5
FAF
330
1F
100
AcDbEntity
  8
SANINDUSA
100
AcDbLine
 10
217.556681723656
 20
298.3755487969596
 30
0.0000000001555548
 11
217.5566483171323
 21
298.375345703179
 31
0.0000000001555548
  0
ARC
  5
FB0
330
1F
100
AcDbEntity
  8
SANINDUSA
100
AcDbCircle
 10
217.555908261913
 20
298.3754674335053
 30
0.0000000001555548
 40
0.00075
100
AcDbArc
 50
170.6591658981585
 51
350.6591658981585
  0
LINE
  5
FB1
330
1F
100
AcDbEntity
  8
SANINDUSA
100
AcDbLine
 10
217.5551682066936
 20
298.3755891638316
 30
0.0000000001555548
 11
217.5552087834691
 21
298.3758358489047
 31
0.0000000001555548
  0
ARC
  5
FB2
330
1F
100
AcDbEntity
  8
SANINDUSA
100
AcDbCircle
 10
217.5541167354337
 20
298.375914134095
 30
0.0000000001555548
 40
0.0006
100
AcDbArc
 50
80.65916589815856
 51
180.0
  0
LINE
  5
FB3
330
1F
100
AcDbEntity
  8
SANINDUSA
100
AcDbLine
 10
217.5547965668737
 20
298.3764103726018
 30
0.0000000001555548
 11
217.5542141196947
 21
298.3765061782705
 31
0.0000000001555548
  0
LINE
  5
FB4
330
1F
100
AcDbEntity
  8
SANINDUSA
100
AcDbLine
 10
217.5533619573585
 20
298.377817703645
 30
0.0000000001555548
 11
217.55236887478
 21
298.377817703645
 31
0.0000000001555548
  0
ARC
  5
FB5
330
1F
100
AcDbEntity
  8
SANINDUSA
100
AcDbCircle
 10
217.5547154133228
 20
298.3759170024556
 30
0.0000000001555548
 40
0.0005
100
AcDbArc
 50
350.6591658981585
 51
80.65916589815856
  0
ARC
  5
FB6
330
1F
100
AcDbEntity
  8
SANINDUSA
100
AcDbCircle
 10
217.5360167354337
 20
298.3806176998353
 30
0.000000000155555
 40
0.001
100
AcDbArc
 50
0.0
 51
90.0
  0
LINE
  5
FB7
330
1F
100
AcDbEntity
  8
SANINDUSA
100
AcDbLine
 10
217.5370167354337
 20
298.3766176998353
 30
0.000000000155555
 11
217.5370167354337
 21
298.3806176998353
 31
0.000000000155555
  0
LINE
  5
FB8
330
1F
100
AcDbEntity
  8
SANINDUSA
100
AcDbLine
 10
217.5370167354337
 20
298.3658176475416
 30
0.000000000155555
 11
217.5370167354336
 21
298.3678176475416
 31
0.000000000155555
  0
LINE
  5
FB9
330
1F
100
AcDbEntity
  8
SANINDUSA
100
AcDbLine
 10
217.5370167354337
 20
298.3679176998354
 30
0.000000000155555
 11
217.5370167354337
 21
298.3689176998353
 31
0.000000000155555
1001
GENIUS_GENREC_14
1002
{
1000
PYDIR
1011
217.6200167354337
1021
298.3689176998353
1031
0.000000000155555
1002
}
1002
{
1000
PXDIR
1011
217.5670167354337
1021
298.3679176998354
1031
0.000000000155555
1002
}
1002
{
1000
PORI
1011
217.6200167354337
1021
298.3679176998354
1031
0.000000000155555
1002
}
1002
{
1000
PINS
1011
217.6200167354337
1021
298.3679176998354
1031
0.000000000155555
1002
}
1002
{
1000
PINS2
1011
217.5670167354337
1021
298.3689176998353
1031
0.000000000155555
1002
}
1002
{
1000
C
1070
     1
1002
}
1001
GENIUS_GENODEF_13
1002
{
1000
HIER
1070
     0
1002
}
1002
{
1000
MANEDIT
1070
     0
1002
}
1002
{
1000
NOSEL
1070
     0
1002
}
1002
{
1000
BEHIND
1070
     0
1002
}
1002
{
1000
REACTOR
1002
}
1001
GENIUS_GENOBJ-N-REC_13
1002
{
1000
OWNER
1000
GEN
1002
}
  0
LINE
  5
FBA
330
1F
100
AcDbEntity
  8
SANINDUSA
100
AcDbLine
 10
217.5370167354337
 20
298.3658176475416
 30
0.000000000155555
 11
217.55201678103
 21
298.3658176475416
 31
0.000000000155555
  0
LINE
  5
FBB
330
1F
100
AcDbEntity
  8
SANINDUSA
100
AcDbLine
 10
217.5505167354337
 20
298.3752176998353
 30
0.000000000155555
 11
217.5505167354337
 21
298.3692176998354
 31
0.000000000155555
1001
GENIUS_GENREC_14
1002
{
1000
PYDIR
1011
217.7035167354337
1021
298.3690176998353
1031
0.000000000155555
1002
}
1002
{
1000
PXDIR
1011
217.5535167354337
1021
298.3750176998353
1031
0.000000000155555
1002
}
1002
{
1000
PORI
1011
217.7035167354337
1021
298.3750176998353
1031
0.000000000155555
1002
}
1002
{
1000
PINS
1011
217.7035167354337
1021
298.3750176998353
1031
0.000000000155555
1002
}
1002
{
1000
PINS2
1011
217.5535167354337
1021
298.3692176998354
1031
0.000000000155555
1002
}
1002
{
1000
C
1070
     1
1002
}
1001
GENIUS_GENODEF_13
1002
{
1000
HIER
1070
     0
1002
}
1002
{
1000
MANEDIT
1070
     0
1002
}
1002
{
1000
NOSEL
1070
     0
1002
}
1002
{
1000
BEHIND
1070
     0
1002
}
1002
{
1000
REACTOR
1002
}
1001
GENIUS_GENOBJ-N-REC_13
1002
{
1000
OWNER
1000
GEN
1002
}
  0
LINE
  5
FBC
330
1F
100
AcDbEntity
  8
SANINDUSA
100
AcDbLine
 10
217.5535167354337
 20
298.3752177036449
 30
0.0000000001555548
 11
217.5535167354337
 21
298.3692177036449
 31
0.0000000001555548
  0
LINE
  5
FBD
330
1F
100
AcDbEntity
  8
SANINDUSA
100
AcDbLine
 10
217.5431278465447
 20
298.3578176475412
 30
0.000000000155555
 11
217.5431278465447
 21
298.3658176475416
 31
0.000000000155555
  0
LINE
  5
FBE
330
1F
100
AcDbEntity
  8
SANINDUSA
100
AcDbLine
 10
217.4850167354337
 20
298.3816176998353
 30
0.000000000155555
 11
217.5360167354337
 21
298.3816176998353
 31
0.000000000155555
  0
LINE
  5
FBF
330
1F
100
AcDbEntity
  8
SANINDUSA
100
AcDbLine
 10
217.4850167354337
 20
298.3578176475412
 30
0.000000000155555
 11
217.5440167354337
 21
298.3578176475412
 31
0.000000000155555
  0
LWPOLYLINE
  5
FC0
330
1F
100
AcDbEntity
  8
SANINDUSA
100
AcDbPolyline
 90
        2
 70
     0
 43
0.0
 38
0.0000000001555548
 10
217.5370167354337
 20
298.3689176998353
 10
217.4840167354337
 20
298.3689176998353
1001
GENIUS_GENREC_14
1002
{
1000
PYDIR
1011
217.6200167354337
1021
297.6341701009022
1031
0.000000000155555
1002
}
1002
{
1000
PXDIR
1011
217.5670167354337
1021
297.6351701009022
1031
0.000000000155555
1002
}
1002
{
1000
PORI
1011
217.6200167354337
1021
297.6351701009022
1031
0.000000000155555
1002
}
1002
{
1000
PINS
1011
217.6200167354337
1021
297.6351701009022
1031
0.000000000155555
1002
}
1002
{
1000
PINS2
1011
217.5670167354337
1021
297.6341701009022
1031
0.000000000155555
1002
}
1002
{
1000
C
1070
     1
1002
}
1001
GENIUS_GENODEF_13
1002
{
1000
HIER
1070
     0
1002
}
1002
{
1000
MANEDIT
1070
     0
1002
}
1002
{
1000
NOSEL
1070
     0
1002
}
1002
{
1000
BEHIND
1070
     0
1002
}
1002
{
1000
REACTOR
1002
}
1001
GENIUS_GENOBJ-N-REC_13
1002
{
1000
OWNER
1000
GEN
1002
}
  0
LWPOLYLINE
  5
FC1
330
1F
100
AcDbEntity
  8
SANINDUSA
100
AcDbPolyline
 90
        2
 70
     0
 43
0.0
 38
0.0000000001555548
 10
217.4840167354337
 20
298.3679176998354
 10
217.5370167354337
 20
298.3679176998354
1001
GENIUS_GENREC_14
1002
{
1000
PYDIR
1011
217.6200167354337
1021
297.6341701009022
1031
0.000000000155555
1002
}
1002
{
1000
PXDIR
1011
217.5670167354337
1021
297.6351701009022
1031
0.000000000155555
1002
}
1002
{
1000
PORI
1011
217.6200167354337
1021
297.6351701009022
1031
0.000000000155555
1002
}
1002
{
1000
PINS
1011
217.6200167354337
1021
297.6351701009022
1031
0.000000000155555
1002
}
1002
{
1000
PINS2
1011
217.5670167354337
1021
297.6341701009022
1031
0.000000000155555
1002
}
1002
{
1000
C
1070
     1
1002
}
1001
GENIUS_GENODEF_13
1002
{
1000
HIER
1070
     0
1002
}
1002
{
1000
MANEDIT
1070
     0
1002
}
1002
{
1000
NOSEL
1070
     0
1002
}
1002
{
1000
BEHIND
1070
     0
1002
}
1002
{
1000
REACTOR
1002
}
1001
GENIUS_GENOBJ-N-REC_13
1002
{
1000
OWNER
1000
GEN
1002
}
  0
LWPOLYLINE
  5
FC2
330
1F
100
AcDbEntity
  8
SANINDUSA
100
AcDbPolyline
 90
        4
 70
     1
 43
0.0
 38
0.0000000001555548
 10
217.4840167354337
 20
298.3764176998353
 10
217.5370167354337
 20
298.3764176998353
 10
217.5370167354337
 20
298.3754176998353
 10
217.4840167354337
 20
298.3754176998353
1001
GENIUS_GENREC_14
1002
{
1000
PYDIR
1011
217.6200167354337
1021
297.6338701009023
1031
0.000000000155555
1002
}
1002
{
1000
PXDIR
1011
217.5670167354337
1021
297.6348701009022
1031
0.000000000155555
1002
}
1002
{
1000
PORI
1011
217.6200167354337
1021
297.6348701009022
1031
0.000000000155555
1002
}
1002
{
1000
PINS
1011
217.6200167354337
1021
297.6348701009022
1031
0.000000000155555
1002
}
1002
{
1000
PINS2
1011
217.5670167354337
1021
297.6338701009023
1031
0.000000000155555
1002
}
1002
{
1000
C
1070
     1
1002
}
1001
GENIUS_GENODEF_13
1002
{
1000
HIER
1070
     0
1002
}
1002
{
1000
MANEDIT
1070
     0
1002
}
1002
{
1000
NOSEL
1070
     0
1002
}
1002
{
1000
BEHIND
1070
     0
1002
}
1002
{
1000
REACTOR
1002
}
1001
GENIUS_GENOBJ-N-REC_13
1002
{
1000
OWNER
1000
GEN
1002
}
  0
LINE
  5
FC3
330
1F
100
AcDbEntity
  8
SANINDUSA
100
AcDbLine
 10
217.5370167354336
 20
298.3678176475416
 30
0.000000000155555
 11
217.4840167354336
 21
298.3678176475416
 31
0.000000000155555
  0
LINE
  5
FC4
330
1F
100
AcDbEntity
  8
SANINDUSA
100
AcDbLine
 10
217.5370167354337
 20
298.3766176998353
 30
0.000000000155555
 11
217.4840167354337
 21
298.3766176998353
 31
0.000000000155555
  0
ARC
  5
FC5
330
1F
100
AcDbEntity
  8
SANINDUSA
100
AcDbCircle
 10
217.55996887478
 20
298.3691232764254
 30
0.0000000001555548
 40
0.0006
100
AcDbArc
 50
231.1511489973884
 51
279.3408341018414
  0
ARC
  5
FC6
330
1F
100
AcDbEntity
  8
SANINDUSA
100
AcDbCircle
 10
217.5603906337229
 20
298.3693872191662
 30
0.0000000001555548
 40
0.000175
100
AcDbArc
 50
81.99999999982974
 51
261.9999999998297
  0
LINE
  5
FC7
330
1F
100
AcDbEntity
  8
SANINDUSA
100
AcDbLine
 10
217.5572394119137
 20
298.3684716245043
 30
0.0000000001555548
 11
217.5591187688523
 21
298.3687807564818
 31
0.0000000001555548
  0
ARC
  5
FC8
330
1F
100
AcDbEntity
  8
SANINDUSA
100
AcDbCircle
 10
217.5592161531133
 20
298.3681887123063
 30
0.0000000001555548
 40
0.0006000000000005
100
AcDbArc
 50
51.15114899738838
 51
99.34083410184145
  0
ARC
  5
FC9
330
1F
100
AcDbEntity
  8
SANINDUSA
100
AcDbCircle
 10
217.55996887478
 20
298.3753121308645
 30
0.0000000001555548
 40
0.0006
100
AcDbArc
 50
80.65916589815856
 51
128.8488510026116
  0
ARC
  5
FCA
330
1F
100
AcDbEntity
  8
SANINDUSA
100
AcDbCircle
 10
217.5603906337229
 20
298.3750481881237
 30
0.0000000001555548
 40
0.000175
100
AcDbArc
 50
98.00000000017027
 51
278.0000000001703
  0
ARC
  5
FCB
330
1F
100
AcDbEntity
  8
SANINDUSA
100
AcDbCircle
 10
217.5592161531133
 20
298.3762466949835
 30
0.0000000001555548
 40
0.0006000000000005
100
AcDbArc
 50
260.6591658981585
 51
308.8488510026116
  0
LINE
  5
FCC
330
1F
100
AcDbEntity
  8
SANINDUSA
100
AcDbLine
 10
217.5591187688523
 20
298.375654650808
 30
0.0000000001555548
 11
217.557256247353
 21
298.375961013555
 31
0.0000000001555548
  0
ARC
  5
FCD
330
1F
100
AcDbEntity
  8
SANINDUSA
100
AcDbCircle
 10
217.5624740978647
 20
298.3687662134155
 30
0.0000000001555548
 40
0.0005
100
AcDbArc
 50
28.12637396571802
 51
81.99999999982974
  0
ARC
  5
FCE
330
1F
100
AcDbEntity
  8
SANINDUSA
100
AcDbCircle
 10
217.5637812878094
 20
298.3689396229433
 30
0.0000000001555548
 40
0.0006
100
AcDbArc
 50
99.34083410184145
 51
147.5305192072327
  0
LINE
  5
FCF
330
1F
100
AcDbEntity
  8
SANINDUSA
100
AcDbLine
 10
217.56536887478
 20
298.3698088249477
 30
0.0000000001555548
 11
217.56536887478
 21
298.3691020693136
 31
0.0000000001555548
  0
LINE
  5
FD0
330
1F
100
AcDbEntity
  8
SANINDUSA
100
AcDbLine
 10
217.5636839035483
 20
298.3695316671188
 30
0.0000000001555548
 11
217.56536887478
 21
298.3698088249477
 31
0.0000000001555548
  0
ARC
  5
FD1
330
1F
100
AcDbEntity
  8
SANINDUSA
100
AcDbCircle
 10
217.56276887478
 20
298.3695838432922
 30
0.0000000001555548
 40
0.0005999999999989
100
AcDbArc
 50
284.1008918065045
 51
327.5305192072327
  0
ARC
  5
FD2
330
1F
100
AcDbEntity
  8
SANINDUSA
100
AcDbCircle
 10
217.56476887478
 20
298.3691020693136
 30
0.0000000001555548
 40
0.0006
100
AcDbArc
 50
279.3408341018414
 51
0.0
  0
ARC
  5
FD3
330
1F
100
AcDbEntity
  8
SANINDUSA
100
AcDbCircle
 10
217.5637812878094
 20
298.3754957843465
 30
0.0000000001555548
 40
0.0006
100
AcDbArc
 50
212.4694807927673
 51
260.6591658981585
  0
ARC
  5
FD4
330
1F
100
AcDbEntity
  8
SANINDUSA
100
AcDbCircle
 10
217.56276887478
 20
298.3748515639977
 30
0.0000000001555548
 40
0.0006000000000005
100
AcDbArc
 50
32.46948079276729
 51
75.89910819349554
  0
ARC
  5
FD5
330
1F
100
AcDbEntity
  8
SANINDUSA
100
AcDbCircle
 10
217.5624740978647
 20
298.3756691938743
 30
0.0000000001555548
 40
0.0004999999999883
100
AcDbArc
 50
278.0000000001703
 51
331.873626034282
  0
ARC
  5
FD6
330
1F
100
AcDbEntity
  8
SANINDUSA
100
AcDbCircle
 10
217.56476887478
 20
298.3753333379763
 30
0.0000000001555548
 40
0.0006
100
AcDbArc
 50
0.0
 51
80.65916589815856
  0
LINE
  5
FD7
330
1F
100
AcDbEntity
  8
SANINDUSA
100
AcDbLine
 10
217.56536887478
 20
298.3753333379763
 30
0.0000000001555548
 11
217.56536887478
 21
298.3746265823421
 31
0.0000000001555548
  0
LINE
  5
FD8
330
1F
100
AcDbEntity
  8
SANINDUSA
100
AcDbLine
 10
217.56536887478
 20
298.3746265823421
 30
0.0000000001555548
 11
217.5636839035483
 21
298.374903740171
 31
0.0000000001555548
  0
LINE
  5
FD9
330
1F
100
AcDbEntity
  8
SANINDUSA
100
AcDbLine
 10
217.5604149890156
 20
298.3695605160782
 30
0.0000000001555548
 11
217.5625436844152
 21
298.3692613474499
 31
0.0000000001555548
  0
LINE
  5
FDA
330
1F
100
AcDbEntity
  8
SANINDUSA
100
AcDbLine
 10
217.5625436844152
 20
298.3751740598399
 30
0.0000000001555548
 11
217.5604149890156
 21
298.3748748912116
 31
0.0000000001555548
  0
LINE
  5
FDB
330
1F
100
AcDbEntity
  8
SANINDUSA
100
AcDbLine
 10
217.5603662784302
 20
298.3752214850357
 30
0.0000000001555548
 11
217.5624426067857
 21
298.3755132939559
 31
0.0000000001555548
  0
LINE
  5
FDC
330
1F
100
AcDbEntity
  8
SANINDUSA
100
AcDbLine
 10
217.5624426067857
 20
298.3755132939559
 30
0.0000000001555548
 11
217.560066259041
 21
298.3759041750399
 31
0.0000000001555548
  0
LINE
  5
FDD
330
1F
100
AcDbEntity
  8
SANINDUSA
100
AcDbLine
 10
217.560066259041
 20
298.3685312322499
 30
0.0000000001555548
 11
217.5624426067857
 21
298.368922113334
 31
0.0000000001555548
  0
LINE
  5
FDE
330
1F
100
AcDbEntity
  8
SANINDUSA
100
AcDbLine
 10
217.5624426067857
 20
298.368922113334
 30
0.0000000001555548
 11
217.5603662784302
 21
298.3692139222542
 31
0.0000000001555548
  0
ARC
  5
FDF
330
1F
100
AcDbEntity
  8
SANINDUSA
100
AcDbCircle
 10
217.5680167354337
 20
298.3806176998353
 30
0.000000000155555
 40
0.001
100
AcDbArc
 50
90.0
 51
180.0
  0
LINE
  5
FE0
330
1F
100
AcDbEntity
  8
SANINDUSA
100
AcDbLine
 10
217.5670167354337
 20
298.3766176998353
 30
0.000000000155555
 11
217.5670167354337
 21
298.3806176998353
 31
0.000000000155555
  0
LINE
  5
FE1
330
1F
100
AcDbEntity
  8
SANINDUSA
100
AcDbLine
 10
217.5670167354337
 20
298.3678176998353
 30
0.000000000155555
 11
217.5670167354337
 21
298.3658176998353
 31
0.000000000155555
  0
LINE
  5
FE2
330
1F
100
AcDbEntity
  8
SANINDUSA
100
AcDbLine
 10
217.5670167354337
 20
298.3680176998353
 30
0.000000000155555
 11
217.5670167354337
 21
298.3690176998353
 31
0.000000000155555
1001
GENIUS_GENREC_14
1002
{
1000
PYDIR
1011
217.6200167354337
1021
298.3690176998353
1031
0.000000000155555
1002
}
1002
{
1000
PXDIR
1011
217.5670167354337
1021
298.3680176998353
1031
0.000000000155555
1002
}
1002
{
1000
PORI
1011
217.6200167354337
1021
298.3680176998353
1031
0.000000000155555
1002
}
1002
{
1000
PINS
1011
217.6200167354337
1021
298.3680176998353
1031
0.000000000155555
1002
}
1002
{
1000
PINS2
1011
217.5670167354337
1021
298.3690176998353
1031
0.000000000155555
1002
}
1002
{
1000
C
1070
     1
1002
}
1001
GENIUS_GENODEF_13
1002
{
1000
HIER
1070
     0
1002
}
1002
{
1000
MANEDIT
1070
     0
1002
}
1002
{
1000
NOSEL
1070
     0
1002
}
1002
{
1000
BEHIND
1070
     0
1002
}
1002
{
1000
REACTOR
1002
}
1001
GENIUS_GENOBJ-N-REC_13
1002
{
1000
OWNER
1000
GEN
1002
}
  0
LINE
  5
FE3
330
1F
100
AcDbEntity
  8
SANINDUSA
100
AcDbLine
 10
217.5609056243227
 20
298.3578176475418
 30
0.000000000155555
 11
217.5609056243227
 21
298.3658176998353
 31
0.000000000155555
  0
ARC
  5
FE4
330
1F
100
AcDbEntity
  8
SANINDUSA
100
AcDbCircle
 10
217.6190167354337
 20
298.3806176998353
 30
0.000000000155555
 40
0.001
100
AcDbArc
 50
0.0
 51
90.0
  0
LINE
  5
FE5
330
1F
100
AcDbEntity
  8
SANINDUSA
100
AcDbLine
 10
217.6200167354337
 20
298.3766176998353
 30
0.000000000155555
 11
217.6200167354337
 21
298.3806176998353
 31
0.000000000155555
  0
LINE
  5
FE6
330
1F
100
AcDbEntity
  8
SANINDUSA
100
AcDbLine
 10
217.6200167354337
 20
298.3690176998353
 30
0.000000000155555
 11
217.6200167354337
 21
298.3680176998353
 31
0.000000000155555
1001
GENIUS_GENREC_14
1002
{
1000
PYDIR
1011
217.6200167354337
1021
298.3690176998353
1031
0.000000000155555
1002
}
1002
{
1000
PXDIR
1011
217.5670167354337
1021
298.3680176998353
1031
0.000000000155555
1002
}
1002
{
1000
PORI
1011
217.6200167354337
1021
298.3680176998353
1031
0.000000000155555
1002
}
1002
{
1000
PINS
1011
217.6200167354337
1021
298.3680176998353
1031
0.000000000155555
1002
}
1002
{
1000
PINS2
1011
217.5670167354337
1021
298.3690176998353
1031
0.000000000155555
1002
}
1002
{
1000
C
1070
     1
1002
}
1001
GENIUS_GENODEF_13
1002
{
1000
HIER
1070
     0
1002
}
1002
{
1000
MANEDIT
1070
     0
1002
}
1002
{
1000
NOSEL
1070
     0
1002
}
1002
{
1000
BEHIND
1070
     0
1002
}
1002
{
1000
REACTOR
1002
}
1001
GENIUS_GENOBJ-N-REC_13
1002
{
1000
OWNER
1000
GEN
1002
}
  0
ARC
  5
FE7
330
1F
100
AcDbEntity
  8
SANINDUSA
100
AcDbCircle
 10
217.6190167354337
 20
298.3588176475418
 30
0.000000000155555
 40
0.001
100
AcDbArc
 50
270.0
 51
0.0
  0
LINE
  5
FE8
330
1F
100
AcDbEntity
  8
SANINDUSA
100
AcDbLine
 10
217.6200167354337
 20
298.3678176998353
 30
0.000000000155555
 11
217.6200167354337
 21
298.3588176475418
 31
0.000000000155555
  0
LWPOLYLINE
  5
FE9
330
1F
100
AcDbEntity
  8
SANINDUSA
100
AcDbPolyline
 90
        4
 70
     1
 43
0.0
 38
0.0000000001555548
 10
217.6200167354337
 20
298.3764176998353
 10
217.5670167354337
 20
298.3764176998353
 10
217.5670167354337
 20
298.3754176998353
 10
217.6200167354337
 20
298.3754176998353
1001
GENIUS_GENREC_14
1002
{
1000
PYDIR
1011
217.3207344783545
1021
297.3345878438231
1031
0.000000000155555
1002
}
1002
{
1000
PXDIR
1011
217.2677344783545
1021
297.3355878438231
1031
0.000000000155555
1002
}
1002
{
1000
PORI
1011
217.3207344783545
1021
297.3355878438231
1031
0.000000000155555
1002
}
1002
{
1000
PINS
1011
217.3207344783545
1021
297.3355878438231
1031
0.000000000155555
1002
}
1002
{
1000
PINS2
1011
217.2677344783545
1021
297.3345878438231
1031
0.000000000155555
1002
}
1002
{
1000
C
1070
     1
1002
}
1001
GENIUS_GENODEF_13
1002
{
1000
HIER
1070
     0
1002
}
1002
{
1000
MANEDIT
1070
     0
1002
}
1002
{
1000
NOSEL
1070
     0
1002
}
1002
{
1000
BEHIND
1070
     0
1002
}
1002
{
1000
REACTOR
1002
}
1001
GENIUS_GENOBJ-N-REC_13
1002
{
1000
OWNER
1000
GEN
1002
}
  0
LINE
  5
FEA
330
1F
100
AcDbEntity
  8
SANINDUSA
100
AcDbLine
 10
217.5670167354337
 20
298.3766176998353
 30
0.000000000155555
 11
217.6200167354337
 21
298.3766176998353
 31
0.000000000155555
  0
LINE
  5
FEB
330
1F
100
AcDbEntity
  8
SANINDUSA
100
AcDbLine
 10
217.6190167354337
 20
298.3816176998353
 30
0.000000000155555
 11
217.5680167354337
 21
298.3816176998353
 31
0.000000000155555
  0
LWPOLYLINE
  5
FEC
330
1F
100
AcDbEntity
  8
SANINDUSA
100
AcDbPolyline
 90
        2
 70
     0
 43
0.0
 38
0.0000000001555548
 10
217.6200167354337
 20
298.3680176998353
 10
217.5670167354337
 20
298.3680176998353
1001
GENIUS_GENREC_14
1002
{
1000
PYDIR
1011
217.3207344783545
1021
297.3347878438231
1031
0.000000000155555
1002
}
1002
{
1000
PXDIR
1011
217.2677344783545
1021
297.3357878438231
1031
0.000000000155555
1002
}
1002
{
1000
PORI
1011
217.3207344783545
1021
297.3357878438231
1031
0.000000000155555
1002
}
1002
{
1000
PINS
1011
217.3207344783545
1021
297.3357878438231
1031
0.000000000155555
1002
}
1002
{
1000
PINS2
1011
217.2677344783545
1021
297.3347878438231
1031
0.000000000155555
1002
}
1002
{
1000
C
1070
     1
1002
}
1001
GENIUS_GENODEF_13
1002
{
1000
HIER
1070
     0
1002
}
1002
{
1000
MANEDIT
1070
     0
1002
}
1002
{
1000
NOSEL
1070
     0
1002
}
1002
{
1000
BEHIND
1070
     0
1002
}
1002
{
1000
REACTOR
1002
}
1001
GENIUS_GENOBJ-N-REC_13
1002
{
1000
OWNER
1000
GEN
1002
}
  0
LWPOLYLINE
  5
FED
330
1F
100
AcDbEntity
  8
SANINDUSA
100
AcDbPolyline
 90
        2
 70
     0
 43
0.0
 38
0.0000000001555548
 10
217.5670167354337
 20
298.3690176998353
 10
217.6200167354337
 20
298.3690176998353
1001
GENIUS_GENREC_14
1002
{
1000
PYDIR
1011
217.3207344783545
1021
297.3347878438231
1031
0.000000000155555
1002
}
1002
{
1000
PXDIR
1011
217.2677344783545
1021
297.3357878438231
1031
0.000000000155555
1002
}
1002
{
1000
PORI
1011
217.3207344783545
1021
297.3357878438231
1031
0.000000000155555
1002
}
1002
{
1000
PINS
1011
217.3207344783545
1021
297.3357878438231
1031
0.000000000155555
1002
}
1002
{
1000
PINS2
1011
217.2677344783545
1021
297.3347878438231
1031
0.000000000155555
1002
}
1002
{
1000
C
1070
     1
1002
}
1001
GENIUS_GENODEF_13
1002
{
1000
HIER
1070
     0
1002
}
1002
{
1000
MANEDIT
1070
     0
1002
}
1002
{
1000
NOSEL
1070
     0
1002
}
1002
{
1000
BEHIND
1070
     0
1002
}
1002
{
1000
REACTOR
1002
}
1001
GENIUS_GENOBJ-N-REC_13
1002
{
1000
OWNER
1000
GEN
1002
}
  0
LINE
  5
FEE
330
1F
100
AcDbEntity
  8
SANINDUSA
100
AcDbLine
 10
217.6200167354337
 20
298.3678176998353
 30
0.000000000155555
 11
217.5670167354337
 21
298.3678176998353
 31
0.000000000155555
  0
LINE
  5
FEF
330
1F
100
AcDbEntity
  8
SANINDUSA
100
AcDbLine
 10
217.5609056243227
 20
298.3578176475418
 30
0.000000000155555
 11
217.6190167354337
 21
298.3578176475418
 31
0.000000000155555
  0
ARC
  5
FF0
330
1F
100
AcDbEntity
  8
SANINDUSA
100
AcDbCircle
 10
217.5515311824723
 20
298.3722177036449
 30
0.0000000001555548
 40
0.0056623076923077
100
AcDbArc
 50
81.4923271282262
 51
278.5076728717738
  0
LINE
  5
FF1
330
1F
100
AcDbEntity
  8
SANINDUSA
100
AcDbLine
 10
217.5533619573585
 20
298.377817703645
 30
0.0000000001555548
 11
217.564866259041
 21
298.3759253821517
 31
0.0000000001555548
  0
ARC
  5
FF2
330
1F
100
AcDbEntity
  8
SANINDUSA
100
AcDbCircle
 10
217.5571582583629
 20
298.3689649946506
 30
0.0000000001555548
 40
0.0005
100
AcDbArc
 50
179.8634464290415
 51
279.3408341018414
  0
ARC
  5
FF3
330
1F
100
AcDbEntity
  8
SANINDUSA
100
AcDbCircle
 10
217.5571750938022
 20
298.3754676434088
 30
0.0000000001555548
 40
0.0005
100
AcDbArc
 50
80.65916589815856
 51
170.6591658981585
  0
LINE
  5
FF4
330
1F
100
AcDbEntity
  8
SANINDUSA
100
AcDbLine
 10
217.564866259041
 20
298.3685100251382
 30
0.0000000001555548
 11
217.5533619573585
 21
298.3666177036449
 31
0.0000000001555548
  0
CIRCLE
  5
FF5
330
1F
100
AcDbEntity
  8
SANINDUSA
100
AcDbCircle
 10
217.5520167354337
 20
298.3578176475418
 30
0.000000000155555
 40
0.008
  0
LINE
  5
FF6
330
1F
100
AcDbEntity
  8
SANINDUSA
100
AcDbLine
 10
217.5670167354337
 20
298.3658176998353
 30
0.000000000155555
 11
217.5520167354337
 21
298.3658176475417
 31
0.000000000155555
  0
LINE
  5
FF7
330
1F
100
AcDbEntity
  8
SANINDUSA
100
AcDbLine
 10
217.3374920424598
 20
298.3692176998354
 30
0.000000000147481
 11
217.3374920424598
 21
298.3752176998353
 31
0.000000000147481
  0
LINE
  5
12B0
330
1F
100
AcDbEntity
  8
SANINDUSA
100
AcDbLine
 10
216.6522751871891
 20
297.7425469810922
 30
-0.0000000017937957
 11
216.7103862983001
 21
297.7425469810922
 31
-0.0000000017937957
  0
LINE
  5
12B1
330
1F
100
AcDbEntity
  8
SANINDUSA
100
AcDbLine
 10
216.7103862983001
 20
297.7075469810921
 30
-0.0000000017937957
 11
216.6513862983001
 21
297.7075469810921
 31
-0.0000000017937957
  0
LINE
  5
12B2
330
1F
100
AcDbEntity
  8
SANINDUSA
100
AcDbLine
 10
216.6503862983002
 20
297.7490469810921
 30
-0.0000000017937957
 11
216.6363862983002
 21
297.7490469810921
 31
-0.0000000017937957
  0
LINE
  5
12B3
330
1F
100
AcDbEntity
  8
SANINDUSA
100
AcDbLine
 10
216.6513862983001
 20
297.7230469810922
 30
-0.0000000017937957
 11
216.6353862983001
 21
297.7230469810922
 31
-0.0000000017937957
  0
LINE
  5
12B4
330
1F
100
AcDbEntity
  8
SANINDUSA
100
AcDbLine
 10
216.6344974094112
 20
297.7270469810921
 30
-0.0000000017937957
 11
216.6513862983002
 21
297.7270469810921
 31
-0.0000000017937957
  0
ARC
  5
12B5
330
1F
100
AcDbEntity
  8
SANINDUSA
100
AcDbCircle
 10
216.6503862983002
 20
297.7480469810922
 30
-0.0000000017937957
 40
0.001
100
AcDbArc
 50
0.0
 51
90.0
  0
LINE
  5
12B6
330
1F
100
AcDbEntity
  8
SANINDUSA
100
AcDbLine
 10
216.6513862983001
 20
297.7230469810922
 30
-0.0000000017937957
 11
216.6522751871891
 21
297.7230469810922
 31
-0.0000000017937957
  0
LINE
  5
12B7
330
1F
100
AcDbEntity
  8
SANINDUSA
100
AcDbLine
 10
216.6508862983001
 20
297.7270469810921
 30
-0.0000000017937957
 11
216.6508862983001
 21
297.7230469810922
 31
-0.0000000017937957
  0
LINE
  5
12B8
330
1F
100
AcDbEntity
  8
SANINDUSA
100
AcDbLine
 10
216.6522751871891
 20
297.7230469810922
 30
-0.0000000017937957
 11
216.6522751871891
 21
297.7425469810922
 31
-0.0000000017937957
  0
LINE
  5
12B9
330
1F
100
AcDbEntity
  8
SANINDUSA
100
AcDbLine
 10
216.6513862983002
 20
297.7270469810921
 30
-0.0000000017937957
 11
216.6513862983002
 21
297.7480469810922
 31
-0.0000000017937957
  0
LINE
  5
12BA
330
1F
100
AcDbEntity
  8
SANINDUSA
100
AcDbLine
 10
216.6363862983001
 20
297.7010469810921
 30
-0.0000000017937957
 11
216.6503862983001
 21
297.7010469810922
 31
-0.0000000017937957
  0
ARC
  5
12BB
330
1F
100
AcDbEntity
  8
SANINDUSA
100
AcDbCircle
 10
216.6503862983001
 20
297.7020469810922
 30
-0.0000000017937957
 40
0.001
100
AcDbArc
 50
270.0
 51
0.0
  0
LINE
  5
12BC
330
1F
100
AcDbEntity
  8
SANINDUSA
100
AcDbLine
 10
216.6513862983001
 20
297.7020469810922
 30
-0.0000000017937957
 11
216.6513862983001
 21
297.7230469810922
 31
-0.0000000017937957
  0
ARC
  5
12BD
330
1F
100
AcDbEntity
  8
SANINDUSA
100
AcDbCircle
 10
216.7103862983001
 20
297.7415469810921
 30
-0.0000000017937957
 40
0.001
100
AcDbArc
 50
0.0
 51
90.0
  0
ARC
  5
12BE
330
1F
100
AcDbEntity
  8
SANINDUSA
100
AcDbCircle
 10
216.7103862983001
 20
297.7085469810922
 30
-0.0000000017937957
 40
0.001
100
AcDbArc
 50
270.0
 51
0.0
  0
LINE
  5
12BF
330
1F
100
AcDbEntity
  8
SANINDUSA
100
AcDbLine
 10
216.7113862983001
 20
297.7415469810921
 30
-0.0000000017937957
 11
216.7113862983001
 21
297.7085469810922
 31
-0.0000000017937957
  0
LINE
  5
12C0
330
1F
100
AcDbEntity
  8
SANINDUSA
100
AcDbLine
 10
216.6353862983002
 20
297.7425469810922
 30
-0.0000000017937957
 11
216.5763862983002
 21
297.7425469810922
 31
-0.0000000017937957
  0
LINE
  5
12C1
330
1F
100
AcDbEntity
  8
SANINDUSA
100
AcDbLine
 10
216.5763862983002
 20
297.7075469810921
 30
-0.0000000017937957
 11
216.6344974094112
 21
297.7075469810921
 31
-0.0000000017937957
  0
ARC
  5
12C2
330
1F
100
AcDbEntity
  8
SANINDUSA
100
AcDbCircle
 10
216.5763862983002
 20
297.7415469810921
 30
-0.0000000017937957
 40
0.001
100
AcDbArc
 50
90.0
 51
180.0
  0
ARC
  5
12C3
330
1F
100
AcDbEntity
  8
SANINDUSA
100
AcDbCircle
 10
216.5763862983002
 20
297.7085469810922
 30
-0.0000000017937957
 40
0.001
100
AcDbArc
 50
180.0
 51
270.0
  0
LINE
  5
12C4
330
1F
100
AcDbEntity
  8
SANINDUSA
100
AcDbLine
 10
216.5753862983002
 20
297.7415469810921
 30
-0.0000000017937957
 11
216.5753862983002
 21
297.7085469810922
 31
-0.0000000017937957
  0
LINE
  5
12C5
330
1F
100
AcDbEntity
  8
SANINDUSA
100
AcDbLine
 10
216.6358862983001
 20
297.7270469810921
 30
-0.0000000017937957
 11
216.6358862983001
 21
297.7230469810922
 31
-0.0000000017937957
  0
LINE
  5
12C6
330
1F
100
AcDbEntity
  8
SANINDUSA
100
AcDbLine
 10
216.6353862983002
 20
297.7480469810922
 30
-0.0000000017937957
 11
216.6353862983002
 21
297.7425469810922
 31
-0.0000000017937957
  0
LINE
  5
12C7
330
1F
100
AcDbEntity
  8
SANINDUSA
100
AcDbLine
 10
216.6353862983002
 20
297.7425469810922
 30
-0.0000000017937957
 11
216.6353862983002
 21
297.7270469810921
 31
-0.0000000017937957
  0
ARC
  5
12C8
330
1F
100
AcDbEntity
  8
SANINDUSA
100
AcDbCircle
 10
216.6363862983002
 20
297.7480469810922
 30
-0.0000000017937957
 40
0.001
100
AcDbArc
 50
90.0
 51
180.0
  0
ARC
  5
12C9
330
1F
100
AcDbEntity
  8
SANINDUSA
100
AcDbCircle
 10
216.6363862983001
 20
297.7020469810922
 30
-0.0000000017937957
 40
0.001
100
AcDbArc
 50
180.0
 51
270.0
  0
LINE
  5
12CA
330
1F
100
AcDbEntity
  8
SANINDUSA
100
AcDbLine
 10
216.6344974094112
 20
297.7075469810921
 30
-0.0000000017937957
 11
216.6344974094112
 21
297.7270469810921
 31
-0.0000000017937957
  0
LINE
  5
12CB
330
1F
100
AcDbEntity
  8
SANINDUSA
100
AcDbLine
 10
216.6353862983001
 20
297.7230469810922
 30
-0.0000000017937957
 11
216.6353862983001
 21
297.7020469810922
 31
-0.0000000017937957
  0
LINE
  5
12CC
330
1F
100
AcDbEntity
  8
SANINDUSA
100
AcDbLine
 10
216.6522751871891
 20
299.0025469810825
 30
-0.0000000017937957
 11
216.7103862983001
 21
299.0025469810825
 31
-0.0000000017937957
  0
LINE
  5
12CD
330
1F
100
AcDbEntity
  8
SANINDUSA
100
AcDbLine
 10
216.7103862983001
 20
298.9675469810825
 30
-0.0000000017937957
 11
216.6513862983001
 21
298.9675469810825
 31
-0.0000000017937957
  0
LINE
  5
12CE
330
1F
100
AcDbEntity
  8
SANINDUSA
100
AcDbLine
 10
216.6503862983002
 20
299.0090469810825
 30
-0.0000000017937957
 11
216.6363862983002
 21
299.0090469810825
 31
-0.0000000017937957
  0
LINE
  5
12CF
330
1F
100
AcDbEntity
  8
SANINDUSA
100
AcDbLine
 10
216.6513862983001
 20
298.9830469810825
 30
-0.0000000017937957
 11
216.6353862983001
 21
298.9830469810825
 31
-0.0000000017937957
  0
LINE
  5
12D0
330
1F
100
AcDbEntity
  8
SANINDUSA
100
AcDbLine
 10
216.6344974094112
 20
298.9870469810825
 30
-0.0000000017937957
 11
216.6513862983002
 21
298.9870469810825
 31
-0.0000000017937957
  0
ARC
  5
12D1
330
1F
100
AcDbEntity
  8
SANINDUSA
100
AcDbCircle
 10
216.6503862983002
 20
299.0080469810825
 30
-0.0000000017937957
 40
0.001
100
AcDbArc
 50
0.0
 51
90.0
  0
LINE
  5
12D2
330
1F
100
AcDbEntity
  8
SANINDUSA
100
AcDbLine
 10
216.6513862983001
 20
298.9830469810825
 30
-0.0000000017937957
 11
216.6522751871891
 21
298.9830469810825
 31
-0.0000000017937957
  0
LINE
  5
12D3
330
1F
100
AcDbEntity
  8
SANINDUSA
100
AcDbLine
 10
216.6508862983
 20
298.9870469810825
 30
-0.0000000017937957
 11
216.6508862983
 21
298.9830469810825
 31
-0.0000000017937957
  0
LINE
  5
12D4
330
1F
100
AcDbEntity
  8
SANINDUSA
100
AcDbLine
 10
216.6522751871891
 20
298.9830469810825
 30
-0.0000000017937957
 11
216.6522751871891
 21
299.0025469810825
 31
-0.0000000017937957
  0
LINE
  5
12D5
330
1F
100
AcDbEntity
  8
SANINDUSA
100
AcDbLine
 10
216.6513862983002
 20
298.9870469810825
 30
-0.0000000017937957
 11
216.6513862983002
 21
299.0080469810825
 31
-0.0000000017937957
  0
LINE
  5
12D6
330
1F
100
AcDbEntity
  8
SANINDUSA
100
AcDbLine
 10
216.6363862983001
 20
298.9610469810825
 30
-0.0000000017937957
 11
216.6503862983001
 21
298.9610469810825
 31
-0.0000000017937957
  0
ARC
  5
12D7
330
1F
100
AcDbEntity
  8
SANINDUSA
100
AcDbCircle
 10
216.6503862983001
 20
298.9620469810825
 30
-0.0000000017937957
 40
0.001
100
AcDbArc
 50
270.0
 51
0.0
  0
LINE
  5
12D8
330
1F
100
AcDbEntity
  8
SANINDUSA
100
AcDbLine
 10
216.6513862983001
 20
298.9620469810825
 30
-0.0000000017937957
 11
216.6513862983001
 21
298.9830469810825
 31
-0.0000000017937957
  0
ARC
  5
12D9
330
1F
100
AcDbEntity
  8
SANINDUSA
100
AcDbCircle
 10
216.7103862983001
 20
299.0015469810824
 30
-0.0000000017937957
 40
0.001
100
AcDbArc
 50
0.0
 51
90.0
  0
ARC
  5
12DA
330
1F
100
AcDbEntity
  8
SANINDUSA
100
AcDbCircle
 10
216.7103862983001
 20
298.9685469810825
 30
-0.0000000017937957
 40
0.001
100
AcDbArc
 50
270.0
 51
0.0
  0
LINE
  5
12DB
330
1F
100
AcDbEntity
  8
SANINDUSA
100
AcDbLine
 10
216.7113862983001
 20
299.0015469810824
 30
-0.0000000017937957
 11
216.7113862983001
 21
298.9685469810825
 31
-0.0000000017937957
  0
LINE
  5
12DC
330
1F
100
AcDbEntity
  8
SANINDUSA
100
AcDbLine
 10
216.6353862983002
 20
299.0025469810825
 30
-0.0000000017937957
 11
216.5763862983002
 21
299.0025469810825
 31
-0.0000000017937957
  0
LINE
  5
12DD
330
1F
100
AcDbEntity
  8
SANINDUSA
100
AcDbLine
 10
216.5763862983002
 20
298.9675469810825
 30
-0.0000000017937957
 11
216.6344974094112
 21
298.9675469810825
 31
-0.0000000017937957
  0
ARC
  5
12DE
330
1F
100
AcDbEntity
  8
SANINDUSA
100
AcDbCircle
 10
216.5763862983002
 20
299.0015469810824
 30
-0.0000000017937957
 40
0.001
100
AcDbArc
 50
90.0
 51
180.0
  0
ARC
  5
12DF
330
1F
100
AcDbEntity
  8
SANINDUSA
100
AcDbCircle
 10
216.5763862983002
 20
298.9685469810825
 30
-0.0000000017937957
 40
0.001
100
AcDbArc
 50
180.0
 51
270.0
  0
LINE
  5
12E0
330
1F
100
AcDbEntity
  8
SANINDUSA
100
AcDbLine
 10
216.5753862983002
 20
299.0015469810824
 30
-0.0000000017937957
 11
216.5753862983002
 21
298.9685469810825
 31
-0.0000000017937957
  0
LINE
  5
12E1
330
1F
100
AcDbEntity
  8
SANINDUSA
100
AcDbLine
 10
216.6358862983001
 20
298.9870469810825
 30
-0.0000000017937957
 11
216.6358862983001
 21
298.9830469810825
 31
-0.0000000017937957
  0
LINE
  5
12E2
330
1F
100
AcDbEntity
  8
SANINDUSA
100
AcDbLine
 10
216.6353862983002
 20
299.0080469810825
 30
-0.0000000017937957
 11
216.6353862983002
 21
299.0025469810825
 31
-0.0000000017937957
  0
LINE
  5
12E3
330
1F
100
AcDbEntity
  8
SANINDUSA
100
AcDbLine
 10
216.6353862983002
 20
299.0025469810825
 30
-0.0000000017937957
 11
216.6353862983002
 21
298.9870469810825
 31
-0.0000000017937957
  0
ARC
  5
12E4
330
1F
100
AcDbEntity
  8
SANINDUSA
100
AcDbCircle
 10
216.6363862983002
 20
299.0080469810825
 30
-0.0000000017937957
 40
0.001
100
AcDbArc
 50
90.0
 51
180.0
  0
ARC
  5
12E5
330
1F
100
AcDbEntity
  8
SANINDUSA
100
AcDbCircle
 10
216.6363862983001
 20
298.9620469810825
 30
-0.0000000017937957
 40
0.001
100
AcDbArc
 50
180.0
 51
270.0
  0
LINE
  5
12E6
330
1F
100
AcDbEntity
  8
SANINDUSA
100
AcDbLine
 10
216.6344974094112
 20
298.9675469810825
 30
-0.0000000017937957
 11
216.6344974094112
 21
298.9870469810825
 31
-0.0000000017937957
  0
LINE
  5
12E7
330
1F
100
AcDbEntity
  8
SANINDUSA
100
AcDbLine
 10
216.6353862983001
 20
298.9830469810825
 30
-0.0000000017937957
 11
216.6353862983001
 21
298.9620469810825
 31
-0.0000000017937957
  0
LINE
  5
133A
330
1F
100
AcDbEntity
  8
SANINDUSA
100
AcDbLine
 10
216.3728862983002
 20
297.4300469810922
 30
0.0
 11
217.1636862983002
 21
297.4300469810922
 31
0.0
  0
ENDSEC
  0
SECTION
  2
OBJECTS
  0
DICTIONARY
  5
C
330
0
100
AcDbDictionary
281
     1
  3
ACAD_COLOR
350
1317
  3
ACAD_GROUP
350
D
  3
ACAD_LAYOUT
350
1A
  3
ACAD_MATERIAL
350
12EA
  3
ACAD_MLEADERSTYLE
350
132C
  3
ACAD_MLINESTYLE
350
17
  3
ACAD_PLOTSETTINGS
350
19
  3
ACAD_PLOTSTYLENAME
350
E
  3
ACAD_SCALELIST
350
131A
  3
ACAD_TABLESTYLE
350
1318
  3
ACAD_VISUALSTYLE
350
1303
  3
ACDB_RECOMPOSE_DATA
350
13D7
  3
AcDbVariableDictionary
350
3D
  3
ASE_INDEX_DICTIONARY
350
126B
  3
DWGPROPS
350
13D8
  0
DICTIONARY
  5
136E
330
10
100
AcDbDictionary
280
     1
281
     1
  3
ADSK_XREC_LAYER_RECONCILED
360
136F
  0
DICTIONARY
  5
1370
330
2F
100
AcDbDictionary
280
     1
281
     1
  3
ADSK_XREC_LAYER_RECONCILED
360
1371
  0
DICTIONARY
  5
1372
330
30
100
AcDbDictionary
280
     1
281
     1
  3
ADSK_XREC_LAYER_RECONCILED
360
1373
  0
DICTIONARY
  5
1374
330
31
100
AcDbDictionary
280
     1
281
     1
  3
ADSK_XREC_LAYER_RECONCILED
360
1375
  0
DICTIONARY
  5
1376
330
32
100
AcDbDictionary
280
     1
281
     1
  3
ADSK_XREC_LAYER_RECONCILED
360
1377
  0
DICTIONARY
  5
1378
330
33
100
AcDbDictionary
280
     1
281
     1
  3
ADSK_XREC_LAYER_RECONCILED
360
1379
  0
DICTIONARY
  5
137A
330
34
100
AcDbDictionary
280
     1
281
     1
  3
ADSK_XREC_LAYER_RECONCILED
360
137B
  0
DICTIONARY
  5
137C
330
35
100
AcDbDictionary
280
     1
281
     1
  3
ADSK_XREC_LAYER_RECONCILED
360
137D
  0
DICTIONARY
  5
137E
330
36
100
AcDbDictionary
280
     1
281
     1
  3
ADSK_XREC_LAYER_RECONCILED
360
137F
  0
DICTIONARY
  5
1380
330
37
100
AcDbDictionary
280
     1
281
     1
  3
ADSK_XREC_LAYER_RECONCILED
360
1381
  0
DICTIONARY
  5
1382
330
5D6
100
AcDbDictionary
280
     1
281
     1
  3
ADSK_XREC_LAYER_RECONCILED
360
1383
  0
DICTIONARY
  5
1384
330
8AF
100
AcDbDictionary
280
     1
281
     1
  3
ADSK_XREC_LAYER_RECONCILED
360
1385
  0
DICTIONARY
  5
1386
330
8F8
100
AcDbDictionary
280
     1
281
     1
  3
ADSK_XREC_LAYER_RECONCILED
360
1387
  0
DICTIONARY
  5
1388
330
91D
100
AcDbDictionary
280
     1
281
     1
  3
ADSK_XREC_LAYER_RECONCILED
360
1389
  0
DICTIONARY
  5
138A
330
136D
100
AcDbDictionary
280
     1
281
     1
  3
ADSK_XREC_LAYER_RECONCILED
360
138B
  0
DICTIONARY
  5
13E3
330
11DD
100
AcDbDictionary
280
     1
281
     1
  3
ACAD_MTEXT_RT
360
13E4
  0
DICTIONARY
  5
1317
102
{ACAD_REACTORS
330
C
102
}
330
C
100
AcDbDictionary
281
     1
  0
DICTIONARY
  5
D
102
{ACAD_REACTORS
330
C
102
}
330
C
100
AcDbDictionary
281
     1
  0
DICTIONARY
  5
1A
102
{ACAD_REACTORS
330
C
102
}
330
C
100
AcDbDictionary
281
     1
  3
Layout1
350
1E
  3
Layout2
350
26
  3
Model
350
22
  0
DICTIONARY
  5
12EA
102
{ACAD_REACTORS
330
C
102
}
330
C
100
AcDbDictionary
281
     1
  3
ByBlock
350
12F3
  3
ByLayer
350
12EB
  3
Global
350
12FB
  0
DICTIONARY
  5
132C
102
{ACAD_REACTORS
330
C
102
}
330
C
100
AcDbDictionary
281
     1
  3
Standard
350
132D
  0
DICTIONARY
  5
17
102
{ACAD_REACTORS
330
C
102
}
330
C
100
AcDbDictionary
281
     1
  3
Standard
350
18
  0
DICTIONARY
  5
19
102
{ACAD_REACTORS
330
C
102
}
330
C
100
AcDbDictionary
281
     1
  0
ACDBDICTIONARYWDFLT
  5
E
102
{ACAD_REACTORS
330
C
102
}
330
C
100
AcDbDictionary
281
     1
  3
Normal
350
F
100
AcDbDictionaryWithDefault
340
F
  0
DICTIONARY
  5
131A
102
{ACAD_REACTORS
330
C
102
}
330
C
100
AcDbDictionary
281
     1
  3
A0
350
131B
  3
A1
350
131C
  3
A2
350
131D
  3
A3
350
131E
  3
A4
350
131F
  3
A5
350
1320
  3
A6
350
1321
  3
A7
350
1322
  3
A8
350
1323
  3
A9
350
1324
  3
B0
350
1325
  3
B1
350
1326
  3
B2
350
1327
  3
B3
350
1328
  3
B4
350
1329
  3
B5
350
132A
  3
B6
350
132B
  0
DICTIONARY
  5
1318
102
{ACAD_REACTORS
330
C
102
}
330
C
100
AcDbDictionary
281
     1
  3
Standard
350
1319
  0
DICTIONARY
  5
1303
102
{ACAD_REACTORS
330
C
102
}
330
C
100
AcDbDictionary
281
     1
  3
2dWireframe
350
1309
  3
3D Hidden
350
130B
  3
3dWireframe
350
130A
  3
Basic
350
1308
  3
Brighten
350
130F
  3
ColorChange
350
1313
  3
Conceptual
350
130C
  3
Dim
350
130E
  3
EdgeColorOff
350
1316
  3
Facepattern
350
1312
  3
Flat
350
1304
  3
FlatWithEdges
350
1305
  3
Gouraud
350
1306
  3
GouraudWithEdges
350
1307
  3
JitterOff
350
1314
  3
Linepattern
350
1311
  3
OverhangOff
350
1315
  3
Realistic
350
130D
  3
Thicken
350
1310
  0
XRECORD
  5
13D7
102
{ACAD_REACTORS
330
C
102
}
330
C
100
AcDbXrecord
280
     1
 90
        1
330
1319
  0
DICTIONARY
  5
3D
102
{ACAD_REACTORS
330
C
102
}
330
C
100
AcDbDictionary
281
     1
  3
CANNOSCALE
350
13D1
  3
CMLEADERSTYLE
350
13D0
  3
CTABLESTYLE
350
13CF
  3
DIMASSOC
350
3F
  3
HIDETEXT
350
3E
  3
INDEXCTL
350
13D3
  3
SORTENTS
350
13D2
  3
XCLIPFRAME
350
13D4
  0
DICTIONARY
  5
126B
102
{ACAD_REACTORS
330
C
102
}
330
C
100
AcDbDictionary
281
     1
  3
ASEBlockHierarchyIndexRecord
350
126C
1001
DCO15
1040
1508218204.109
  0
XRECORD
  5
13D8
102
{ACAD_REACTORS
330
C
102
}
330
C
100
AcDbXrecord
280
     1
  1
DWGPROPS COOKIE
  2

  3

  4

  6

  7

  8
Julio
  9

300
=
301
=
302
=
303
=
304
=
305
=
306
=
307
=
308
=
309
=
 40
0.0072209490740741
 41
2453259.436054502
 42
2455817.49031647
  1

 90
        0
  0
XRECORD
  5
136F
102
{ACAD_REACTORS
330
136E
102
}
330
136E
100
AcDbXrecord
280
     1
290
     1
  0
XRECORD
  5
1371
102
{ACAD_REACTORS
330
1370
102
}
330
1370
100
AcDbXrecord
280
     1
290
     1
  0
XRECORD
  5
1373
102
{ACAD_REACTORS
330
1372
102
}
330
1372
100
AcDbXrecord
280
     1
290
     1
  0
XRECORD
  5
1375
102
{ACAD_REACTORS
330
1374
102
}
330
1374
100
AcDbXrecord
280
     1
290
     1
  0
XRECORD
  5
1377
102
{ACAD_REACTORS
330
1376
102
}
330
1376
100
AcDbXrecord
280
     1
290
     1
  0
XRECORD
  5
1379
102
{ACAD_REACTORS
330
1378
102
}
330
1378
100
AcDbXrecord
280
     1
290
     1
  0
XRECORD
  5
137B
102
{ACAD_REACTORS
330
137A
102
}
330
137A
100
AcDbXrecord
280
     1
290
     1
  0
XRECORD
  5
137D
102
{ACAD_REACTORS
330
137C
102
}
330
137C
100
AcDbXrecord
280
     1
290
     1
  0
XRECORD
  5
137F
102
{ACAD_REACTORS
330
137E
102
}
330
137E
100
AcDbXrecord
280
     1
290
     1
  0
XRECORD
  5
1381
102
{ACAD_REACTORS
330
1380
102
}
330
1380
100
AcDbXrecord
280
     1
290
     1
  0
XRECORD
  5
1383
102
{ACAD_REACTORS
330
1382
102
}
330
1382
100
AcDbXrecord
280
     1
290
     1
  0
XRECORD
  5
1385
102
{ACAD_REACTORS
330
1384
102
}
330
1384
100
AcDbXrecord
280
     1
290
     1
  0
XRECORD
  5
1387
102
{ACAD_REACTORS
330
1386
102
}
330
1386
100
AcDbXrecord
280
     1
290
     1
  0
XRECORD
  5
1389
102
{ACAD_REACTORS
330
1388
102
}
330
1388
100
AcDbXrecord
280
     1
290
     1
  0
XRECORD
  5
138B
102
{ACAD_REACTORS
330
138A
102
}
330
138A
100
AcDbXrecord
280
     1
290
     1
  0
XRECORD
  5
13E4
102
{ACAD_REACTORS
330
13E3
102
}
330
13E3
100
AcDbXrecord
280
     1
 40
3752.0
  1
90,0°
  0
LAYOUT
  5
1E
102
{ACAD_XDICTIONARY
360
13D9
102
}
102
{ACAD_REACTORS
330
1A
102
}
330
1A
100
AcDbPlotSettings
  1

  2
Ploter HP500
  4

  6

 40
0.0
 41
0.0
 42
0.0
 43
0.0
 44
0.0
 45
0.0
 46
0.0
 47
0.0
 48
0.0
 49
0.0
140
0.0
141
0.0
142
1.0
143
1.0
 70
   688
 72
     0
 73
     0
 74
     5
  7
monochrome.ctb
 75
    16
147
1.0
148
0.0
149
0.0
100
AcDbLayout
  1
Layout1
 70
     1
 71
     1
 10
0.0
 20
0.0
 11
420.0
 21
297.0
 12
0.0
 22
0.0
 32
0.0
 14
1.000000000000000E+20
 24
1.000000000000000E+20
 34
1.000000000000000E+20
 15
-1.000000000000000E+20
 25
-1.000000000000000E+20
 35
-1.000000000000000E+20
146
0.0
 13
0.0
 23
0.0
 33
0.0
 16
1.0
 26
0.0
 36
0.0
 17
0.0
 27
1.0
 37
0.0
 76
     0
330
1B
  0
LAYOUT
  5
26
102
{ACAD_XDICTIONARY
360
13DD
102
}
102
{ACAD_REACTORS
330
1A
102
}
330
1A
100
AcDbPlotSettings
  1

  2
Ploter HP500
  4

  6

 40
0.0
 41
0.0
 42
0.0
 43
0.0
 44
0.0
 45
0.0
 46
0.0
 47
0.0
 48
0.0
 49
0.0
140
0.0
141
0.0
142
1.0
143
1.0
 70
   688
 72
     0
 73
     0
 74
     5
  7
monochrome.ctb
 75
    16
147
1.0
148
0.0
149
0.0
100
AcDbLayout
  1
Layout2
 70
     1
 71
     2
 10
0.0
 20
0.0
 11
12.0
 21
9.0
 12
0.0
 22
0.0
 32
0.0
 14
0.0
 24
0.0
 34
0.0
 15
0.0
 25
0.0
 35
0.0
146
0.0
 13
0.0
 23
0.0
 33
0.0
 16
1.0
 26
0.0
 36
0.0
 17
0.0
 27
1.0
 37
0.0
 76
     0
330
23
  0
LAYOUT
  5
22
102
{ACAD_XDICTIONARY
360
13DB
102
}
102
{ACAD_REACTORS
330
1A
102
}
330
1A
100
AcDbPlotSettings
  1

  2
Ploter HP500
  4
User268
  6

 40
4.995333194732666
 41
16.97565841674804
 42
4.995330810546875
 43
16.97567749023437
 44
209.9733276367187
 45
296.9259948730469
 46
0.0
 47
0.0
 48
0.0
 49
0.0
140
0.0
141
0.0
142
1.0
143
1.0
 70
 11952
 72
     1
 73
     1
 74
     0
  7

 75
     0
147
1.0
148
-427.5957866592534
149
7.362384574453926
100
AcDbLayout
  1
Model
 70
     1
 71
     0
 10
0.0
 20
0.0
 11
12.0
 21
9.0
 12
0.0
 22
0.0
 32
0.0
 14
0.0
 24
0.0
 34
0.0
 15
0.0
 25
0.0
 35
0.0
146
0.0
 13
0.0
 23
0.0
 33
0.0
 16
1.0
 26
0.0
 36
0.0
 17
0.0
 27
1.0
 37
0.0
 76
     0
330
1F
331
12E8
  0
MATERIAL
  5
12F3
102
{ACAD_XDICTIONARY
360
12F4
102
}
102
{ACAD_REACTORS
330
12EA
102
}
330
12EA
100
AcDbMaterial
  1
ByBlock
 72
     0
 43
0.0008202099737533
 43
0.0
 43
0.0
 43
0.0
 43
0.0
 43
0.0008202099737533
 43
0.0
 43
0.0
 43
0.0
 43
0.0
 43
1.0
 43
0.0
 43
0.0
 43
0.0
 43
0.0
 43
1.0
 77
     0
 47
0.0008202099737533
 47
0.0
 47
0.0
 47
0.0
 47
0.0
 47
0.0008202099737533
 47
0.0
 47
0.0
 47
0.0
 47
0.0
 47
1.0
 47
0.0
 47
0.0
 47
0.0
 47
0.0
 47
1.0
171
     0
 49
0.0008202099737533
 49
0.0
 49
0.0
 49
0.0
 49
0.0
 49
0.0008202099737533
 49
0.0
 49
0.0
 49
0.0
 49
0.0
 49
1.0
 49
0.0
 49
0.0
 49
0.0
 49
0.0
 49
1.0
175
     0
142
0.0008202099737533
142
0.0
142
0.0
142
0.0
142
0.0
142
0.0008202099737533
142
0.0
142
0.0
142
0.0
142
0.0
142
1.0
142
0.0
142
0.0
142
0.0
142
0.0
142
1.0
179
     0
144
0.0008202099737533
144
0.0
144
0.0
144
0.0
144
0.0
144
0.0008202099737533
144
0.0
144
0.0
144
0.0
144
0.0
144
1.0
144
0.0
144
0.0
144
0.0
144
0.0
144
1.0
147
0.0008202099737533
147
0.0
147
0.0
147
0.0
147
0.0
147
0.0008202099737533
147
0.0
147
0.0
147
0.0
147
0.0
147
1.0
147
0.0
147
0.0
147
0.0
147
0.0
147
1.0
  0
MATERIAL
  5
12EB
102
{ACAD_XDICTIONARY
360
12EC
102
}
102
{ACAD_REACTORS
330
12EA
102
}
330
12EA
100
AcDbMaterial
  1
ByLayer
 72
     0
 43
0.0008202099737533
 43
0.0
 43
0.0
 43
0.0
 43
0.0
 43
0.0008202099737533
 43
0.0
 43
0.0
 43
0.0
 43
0.0
 43
1.0
 43
0.0
 43
0.0
 43
0.0
 43
0.0
 43
1.0
 77
     0
 47
0.0008202099737533
 47
0.0
 47
0.0
 47
0.0
 47
0.0
 47
0.0008202099737533
 47
0.0
 47
0.0
 47
0.0
 47
0.0
 47
1.0
 47
0.0
 47
0.0
 47
0.0
 47
0.0
 47
1.0
171
     0
 49
0.0008202099737533
 49
0.0
 49
0.0
 49
0.0
 49
0.0
 49
0.0008202099737533
 49
0.0
 49
0.0
 49
0.0
 49
0.0
 49
1.0
 49
0.0
 49
0.0
 49
0.0
 49
0.0
 49
1.0
175
     0
142
0.0008202099737533
142
0.0
142
0.0
142
0.0
142
0.0
142
0.0008202099737533
142
0.0
142
0.0
142
0.0
142
0.0
142
1.0
142
0.0
142
0.0
142
0.0
142
0.0
142
1.0
179
     0
144
0.0008202099737533
144
0.0
144
0.0
144
0.0
144
0.0
144
0.0008202099737533
144
0.0
144
0.0
144
0.0
144
0.0
144
1.0
144
0.0
144
0.0
144
0.0
144
0.0
144
1.0
147
0.0008202099737533
147
0.0
147
0.0
147
0.0
147
0.0
147
0.0008202099737533
147
0.0
147
0.0
147
0.0
147
0.0
147
1.0
147
0.0
147
0.0
147
0.0
147
0.0
147
1.0
  0
MATERIAL
  5
12FB
102
{ACAD_XDICTIONARY
360
12FC
102
}
102
{ACAD_REACTORS
330
12EA
102
}
330
12EA
100
AcDbMaterial
  1
Global
 72
     0
 43
0.0008202099737533
 43
0.0
 43
0.0
 43
0.0
 43
0.0
 43
0.0008202099737533
 43
0.0
 43
0.0
 43
0.0
 43
0.0
 43
1.0
 43
0.0
 43
0.0
 43
0.0
 43
0.0
 43
1.0
 77
     0
 47
0.0008202099737533
 47
0.0
 47
0.0
 47
0.0
 47
0.0
 47
0.0008202099737533
 47
0.0
 47
0.0
 47
0.0
 47
0.0
 47
1.0
 47
0.0
 47
0.0
 47
0.0
 47
0.0
 47
1.0
171
     0
 49
0.0008202099737533
 49
0.0
 49
0.0
 49
0.0
 49
0.0
 49
0.0008202099737533
 49
0.0
 49
0.0
 49
0.0
 49
0.0
 49
1.0
 49
0.0
 49
0.0
 49
0.0
 49
0.0
 49
1.0
175
     0
142
0.0008202099737533
142
0.0
142
0.0
142
0.0
142
0.0
142
0.0008202099737533
142
0.0
142
0.0
142
0.0
142
0.0
142
1.0
142
0.0
142
0.0
142
0.0
142
0.0
142
1.0
179
     0
144
0.0008202099737533
144
0.0
144
0.0
144
0.0
144
0.0
144
0.0008202099737533
144
0.0
144
0.0
144
0.0
144
0.0
144
1.0
144
0.0
144
0.0
144
0.0
144
0.0
144
1.0
147
0.0008202099737533
147
0.0
147
0.0
147
0.0
147
0.0
147
0.0008202099737533
147
0.0
147
0.0
147
0.0
147
0.0
147
1.0
147
0.0
147
0.0
147
0.0
147
0.0
147
1.0
  0
MLEADERSTYLE
  5
132D
102
{ACAD_REACTORS
330
132C
102
}
330
132C
100
AcDbMLeaderStyle
170
     2
171
     1
172
     0
 90
        2
 40
0.0
 41
0.0
173
     1
 91
-1056964608
340
14
 92
       -2
290
     1
 42
2.0
291
     1
 43
0.36
  3
Standard
 44
4.0
300

342
11
174
     1
178
     6
175
     1
176
     0
 93
-1056964608
 45
4.0
292
     0
297
     0
 46
4.0
 94
-1056964608
 47
1.0
 49
1.0
140
1.0
293
     1
141
0.0
294
     1
177
     0
142
1.0
295
     0
296
     0
143
0.125
1001
ACAD_MLEADERVER
1070
     2
  0
MLINESTYLE
  5
18
102
{ACAD_REACTORS
330
17
102
}
330
17
100
AcDbMlineStyle
  2
STANDARD
 70
     0
  3

 62
   256
 51
90.0
 52
90.0
 71
     2
 49
0.5
 62
   256
  6
BYLAYER
 49
-0.5
 62
   256
  6
BYLAYER
  0
ACDBPLACEHOLDER
  5
F
102
{ACAD_REACTORS
330
E
102
}
330
E
  0
SCALE
  5
131B
102
{ACAD_REACTORS
330
131A
102
}
330
131A
100
AcDbScale
 70
     0
300
1:1
140
1.0
141
1.0
290
     1
  0
SCALE
  5
131C
102
{ACAD_REACTORS
330
131A
102
}
330
131A
100
AcDbScale
 70
     0
300
1:2
140
1.0
141
2.0
290
     0
  0
SCALE
  5
131D
102
{ACAD_REACTORS
330
131A
102
}
330
131A
100
AcDbScale
 70
     0
300
1:4
140
1.0
141
4.0
290
     0
  0
SCALE
  5
131E
102
{ACAD_REACTORS
330
131A
102
}
330
131A
100
AcDbScale
 70
     0
300
1:5
140
1.0
141
5.0
290
     0
  0
SCALE
  5
131F
102
{ACAD_REACTORS
330
131A
102
}
330
131A
100
AcDbScale
 70
     0
300
1:8
140
1.0
141
8.0
290
     0
  0
SCALE
  5
1320
102
{ACAD_REACTORS
330
131A
102
}
330
131A
100
AcDbScale
 70
     0
300
1:10
140
1.0
141
10.0
290
     0
  0
SCALE
  5
1321
102
{ACAD_REACTORS
330
131A
102
}
330
131A
100
AcDbScale
 70
     0
300
1:16
140
1.0
141
16.0
290
     0
  0
SCALE
  5
1322
102
{ACAD_REACTORS
330
131A
102
}
330
131A
100
AcDbScale
 70
     0
300
1:20
140
1.0
141
20.0
290
     0
  0
SCALE
  5
1323
102
{ACAD_REACTORS
330
131A
102
}
330
131A
100
AcDbScale
 70
     0
300
1:30
140
1.0
141
30.0
290
     0
  0
SCALE
  5
1324
102
{ACAD_REACTORS
330
131A
102
}
330
131A
100
AcDbScale
 70
     0
300
1:40
140
1.0
141
40.0
290
     0
  0
SCALE
  5
1325
102
{ACAD_REACTORS
330
131A
102
}
330
131A
100
AcDbScale
 70
     0
300
1:50
140
1.0
141
50.0
290
     0
  0
SCALE
  5
1326
102
{ACAD_REACTORS
330
131A
102
}
330
131A
100
AcDbScale
 70
     0
300
1:100
140
1.0
141
100.0
290
     0
  0
SCALE
  5
1327
102
{ACAD_REACTORS
330
131A
102
}
330
131A
100
AcDbScale
 70
     0
300
2:1
140
2.0
141
1.0
290
     0
  0
SCALE
  5
1328
102
{ACAD_REACTORS
330
131A
102
}
330
131A
100
AcDbScale
 70
     0
300
4:1
140
4.0
141
1.0
290
     0
  0
SCALE
  5
1329
102
{ACAD_REACTORS
330
131A
102
}
330
131A
100
AcDbScale
 70
     0
300
8:1
140
8.0
141
1.0
290
     0
  0
SCALE
  5
132A
102
{ACAD_REACTORS
330
131A
102
}
330
131A
100
AcDbScale
 70
     0
300
10:1
140
10.0
141
1.0
290
     0
  0
SCALE
  5
132B
102
{ACAD_REACTORS
330
131A
102
}
330
131A
100
AcDbScale
 70
     0
300
100:1
140
100.0
141
1.0
290
     0
  0
TABLESTYLE
  5
1319
102
{ACAD_XDICTIONARY
360
13D5
102
}
102
{ACAD_REACTORS
330
1318
102
}
330
1318
100
AcDbTableStyle
  3
Standard
 70
     0
 71
     0
 40
1.5
 41
1.5
280
     0
281
     0
  7
Standard
140
4.5
170
     2
 62
     0
 63
     7
283
     0
274
    -2
284
     1
 64
     0
275
    -2
285
     1
 65
     0
276
    -2
286
     1
 66
     0
277
    -2
287
     1
 67
     0
278
    -2
288
     1
 68
     0
279
    -2
289
     1
 69
     0
  7
Standard
140
6.0
170
     5
 62
     0
 63
     7
283
     0
274
    -2
284
     1
 64
     0
275
    -2
285
     1
 65
     0
276
    -2
286
     1
 66
     0
277
    -2
287
     1
 67
     0
278
    -2
288
     1
 68
     0
279
    -2
289
     1
 69
     0
  7
Standard
140
4.5
170
     5
 62
     0
 63
     7
283
     0
274
    -2
284
     1
 64
     0
275
    -2
285
     1
 65
     0
276
    -2
286
     1
 66
     0
277
    -2
287
     1
 67
     0
278
    -2
288
     1
 68
     0
279
    -2
289
     1
 69
     0
  0
VISUALSTYLE
  5
1309
102
{ACAD_XDICTIONARY
360
13F2
102
}
102
{ACAD_REACTORS
330
1303
102
}
330
1303
100
AcDbVisualStyle
  2
2dWireframe
 70
     4
 71
     0
 72
     2
 73
     0
 90
        0
 40
-0.6
 41
-30.0
 62
     5
 63
     7
 74
     1
 91
        4
 64
     7
 65
   257
 75
     1
175
     1
 42
1.0
 92
        0
 66
   257
 43
1.0
 76
     1
 77
     6
 78
     2
 67
     7
 79
     5
170
     0
171
     0
290
     0
174
     0
 93
        1
 44
0.0
173
     0
291
     0
 45
0.0
1001
ACAD
1000
AcDbSavedByObjectVersion
1070
     0
  0
VISUALSTYLE
  5
130B
102
{ACAD_XDICTIONARY
360
13F6
102
}
102
{ACAD_REACTORS
330
1303
102
}
330
1303
100
AcDbVisualStyle
  2
3D Hidden
 70
     6
 71
     1
 72
     2
 73
     2
 90
        0
 40
-0.6
 41
-30.0
 62
     5
 63
     7
 74
     2
 91
        2
 64
     7
 65
   257
 75
     2
175
     1
 42
179.0
 92
        0
 66
   257
 43
1.0
 76
     1
 77
     6
 78
     2
 67
     7
 79
     3
170
     0
171
     0
290
     0
174
     0
 93
        1
 44
0.0
173
     0
291
     0
 45
0.0
1001
ACAD
1000
AcDbSavedByObjectVersion
1070
     0
  0
VISUALSTYLE
  5
130A
102
{ACAD_XDICTIONARY
360
13F4
102
}
102
{ACAD_REACTORS
330
1303
102
}
330
1303
100
AcDbVisualStyle
  2
3dWireframe
 70
     5
 71
     0
 72
     2
 73
     0
 90
        0
 40
-0.6
 41
-30.0
 62
     5
 63
     7
 74
     1
 91
        4
 64
     7
 65
   257
 75
     1
175
     1
 42
1.0
 92
        0
 66
   257
 43
1.0
 76
     1
 77
     6
 78
     2
 67
     7
 79
     5
170
     0
171
     0
290
     0
174
     0
 93
        1
 44
0.0
173
     0
291
     0
 45
0.0
1001
ACAD
1000
AcDbSavedByObjectVersion
1070
     0
  0
VISUALSTYLE
  5
1308
102
{ACAD_XDICTIONARY
360
13F0
102
}
102
{ACAD_REACTORS
330
1303
102
}
330
1303
100
AcDbVisualStyle
  2
Basic
 70
     7
 71
     1
 72
     0
 73
     1
 90
        0
 40
-0.6
 41
-30.0
 62
     5
 63
     7
 74
     0
 91
        4
 64
     7
 65
   257
 75
     1
175
     1
 42
1.0
 92
        8
 66
     7
 43
1.0
 76
     1
 77
     6
 78
     2
 67
     7
 79
     5
170
     0
171
     0
290
     0
174
     0
 93
        1
 44
0.0
173
     0
291
     1
 45
0.0
1001
ACAD
1000
AcDbSavedByObjectVersion
1070
     0
  0
VISUALSTYLE
  5
130F
102
{ACAD_XDICTIONARY
360
13FE
102
}
102
{ACAD_REACTORS
330
1303
102
}
330
1303
100
AcDbVisualStyle
  2
Brighten
 70
    12
 71
     2
 72
     2
 73
     0
 90
        0
 40
-0.6
 41
-30.0
 62
     5
 63
     7
 74
     1
 91
        4
 64
     7
 65
   257
 75
     1
175
     1
 42
1.0
 92
        8
 66
     7
 43
1.0
 76
     1
 77
     6
 78
     2
 67
     7
 79
     5
170
     0
171
     0
290
     0
174
     0
 93
        1
 44
50.0
173
     0
291
     1
 45
0.0
1001
ACAD
1000
AcDbSavedByObjectVersion
1070
     0
  0
VISUALSTYLE
  5
1313
102
{ACAD_XDICTIONARY
360
1406
102
}
102
{ACAD_REACTORS
330
1303
102
}
330
1303
100
AcDbVisualStyle
  2
ColorChange
 70
    16
 71
     2
 72
     2
 73
     3
 90
        0
 40
-0.6
 41
-30.0
 62
     5
 63
     8
 74
     1
 91
        4
 64
     7
 65
   257
 75
     1
175
     1
 42
1.0
 92
        8
 66
     8
 43
1.0
 76
     1
 77
     6
 78
     2
 67
     7
 79
     5
170
     0
171
     0
290
     0
174
     0
 93
        1
 44
0.0
173
     0
291
     1
 45
0.0
1001
ACAD
1000
AcDbSavedByObjectVersion
1070
     0
  0
VISUALSTYLE
  5
130C
102
{ACAD_XDICTIONARY
360
13F8
102
}
102
{ACAD_REACTORS
330
1303
102
}
330
1303
100
AcDbVisualStyle
  2
Conceptual
 70
     9
 71
     3
 72
     2
 73
     0
 90
        0
 40
-0.6
 41
-30.0
 62
     5
 63
     7
 74
     2
 91
        2
 64
     7
 65
   257
 75
     1
175
     1
 42
179.0
 92
        8
 66
     7
 43
1.0
 76
     1
 77
     6
 78
     2
 67
     7
 79
     3
170
     0
171
     0
290
     0
174
     0
 93
        1
 44
0.0
173
     0
291
     0
 45
0.0
1001
ACAD
1000
AcDbSavedByObjectVersion
1070
     0
  0
VISUALSTYLE
  5
130E
102
{ACAD_XDICTIONARY
360
13FC
102
}
102
{ACAD_REACTORS
330
1303
102
}
330
1303
100
AcDbVisualStyle
  2
Dim
 70
    11
 71
     2
 72
     2
 73
     0
 90
        0
 40
-0.6
 41
-30.0
 62
     5
 63
     7
 74
     1
 91
        4
 64
     7
 65
   257
 75
     1
175
     1
 42
1.0
 92
        8
 66
     7
 43
1.0
 76
     1
 77
     6
 78
     2
 67
     7
 79
     5
170
     0
171
     0
290
     0
174
     0
 93
        1
 44
-50.0
173
     0
291
     1
 45
0.0
1001
ACAD
1000
AcDbSavedByObjectVersion
1070
     0
  0
VISUALSTYLE
  5
1316
102
{ACAD_XDICTIONARY
360
140C
102
}
102
{ACAD_REACTORS
330
1303
102
}
330
1303
100
AcDbVisualStyle
  2
EdgeColorOff
 70
    22
 71
     2
 72
     2
 73
     0
 90
        0
 40
-0.6
 41
-30.0
 62
     5
 63
     7
 74
     1
 91
        4
 64
     7
 65
   257
 75
     1
175
     1
 42
1.0
 92
        8
 66
     7
 43
1.0
 76
     1
 77
     6
 78
     2
 67
     7
 79
     5
170
     0
171
     0
290
     0
174
     0
 93
        1
 44
0.0
173
     0
291
     1
 45
0.0
1001
ACAD
1000
AcDbSavedByObjectVersion
1070
     0
  0
VISUALSTYLE
  5
1312
102
{ACAD_XDICTIONARY
360
1404
102
}
102
{ACAD_REACTORS
330
1303
102
}
330
1303
100
AcDbVisualStyle
  2
Facepattern
 70
    15
 71
     2
 72
     2
 73
     0
 90
        0
 40
-0.6
 41
-30.0
 62
     5
 63
     7
 74
     1
 91
        4
 64
     7
 65
   257
 75
     1
175
     1
 42
1.0
 92
        8
 66
     7
 43
1.0
 76
     1
 77
     6
 78
     2
 67
     7
 79
     5
170
     0
171
     0
290
     0
174
     0
 93
        1
 44
0.0
173
     0
291
     1
 45
0.0
1001
ACAD
1000
AcDbSavedByObjectVersion
1070
     0
  0
VISUALSTYLE
  5
1304
102
{ACAD_XDICTIONARY
360
13E8
102
}
102
{ACAD_REACTORS
330
1303
102
}
330
1303
100
AcDbVisualStyle
  2
Flat
 70
     0
 71
     2
 72
     1
 73
     1
 90
        2
 40
-0.6
 41
30.0
 62
     5
 63
     7
 74
     0
 91
        4
 64
     7
 65
   257
 75
     1
175
     1
 42
1.0
 92
        8
 66
     7
 43
1.0
 76
     1
 77
     6
 78
     2
 67
     7
 79
     5
170
     0
171
     0
290
     0
174
     0
 93
       13
 44
0.0
173
     0
291
     1
 45
0.0
1001
ACAD
1000
AcDbSavedByObjectVersion
1070
     0
  0
VISUALSTYLE
  5
1305
102
{ACAD_XDICTIONARY
360
13EA
102
}
102
{ACAD_REACTORS
330
1303
102
}
330
1303
100
AcDbVisualStyle
  2
FlatWithEdges
 70
     1
 71
     2
 72
     1
 73
     1
 90
        2
 40
-0.6
 41
30.0
 62
     5
 63
     7
 74
     1
 91
        4
 64
     7
 65
   257
 75
     1
175
     1
 42
1.0
 92
        0
 66
   257
 43
1.0
 76
     1
 77
     6
 78
     2
 67
     7
 79
     5
170
     0
171
     0
290
     0
174
     0
 93
       13
 44
0.0
173
     0
291
     1
 45
0.0
1001
ACAD
1000
AcDbSavedByObjectVersion
1070
     0
  0
VISUALSTYLE
  5
1306
102
{ACAD_XDICTIONARY
360
13EC
102
}
102
{ACAD_REACTORS
330
1303
102
}
330
1303
100
AcDbVisualStyle
  2
Gouraud
 70
     2
 71
     2
 72
     2
 73
     1
 90
        2
 40
-0.6
 41
30.0
 62
     5
 63
     7
 74
     0
 91
        4
 64
     7
 65
   257
 75
     1
175
     1
 42
1.0
 92
        0
 66
     7
 43
1.0
 76
     1
 77
     6
 78
     2
 67
     7
 79
     5
170
     0
171
     0
290
     0
174
     0
 93
       13
 44
0.0
173
     0
291
     1
 45
0.0
1001
ACAD
1000
AcDbSavedByObjectVersion
1070
     0
  0
VISUALSTYLE
  5
1307
102
{ACAD_XDICTIONARY
360
13EE
102
}
102
{ACAD_REACTORS
330
1303
102
}
330
1303
100
AcDbVisualStyle
  2
GouraudWithEdges
 70
     3
 71
     2
 72
     2
 73
     1
 90
        2
 40
-0.6
 41
30.0
 62
     5
 63
     7
 74
     1
 91
        4
 64
     7
 65
   257
 75
     1
175
     1
 42
1.0
 92
        0
 66
   257
 43
1.0
 76
     1
 77
     6
 78
     2
 67
     7
 79
     5
170
     0
171
     0
290
     0
174
     0
 93
       13
 44
0.0
173
     0
291
     1
 45
0.0
1001
ACAD
1000
AcDbSavedByObjectVersion
1070
     0
  0
VISUALSTYLE
  5
1314
102
{ACAD_XDICTIONARY
360
1408
102
}
102
{ACAD_REACTORS
330
1303
102
}
330
1303
100
AcDbVisualStyle
  2
JitterOff
 70
    20
 71
     2
 72
     2
 73
     0
 90
        0
 40
-0.6
 41
-30.0
 62
     5
 63
     7
 74
     1
 91
        4
 64
     7
 65
   257
 75
     1
175
     1
 42
1.0
 92
       10
 66
     7
 43
1.0
 76
     1
 77
     6
 78
     2
 67
     7
 79
     5
170
     0
171
     0
290
     0
174
     0
 93
        1
 44
0.0
173
     0
291
     1
 45
0.0
1001
ACAD
1000
AcDbSavedByObjectVersion
1070
     0
  0
VISUALSTYLE
  5
1311
102
{ACAD_XDICTIONARY
360
1402
102
}
102
{ACAD_REACTORS
330
1303
102
}
330
1303
100
AcDbVisualStyle
  2
Linepattern
 70
    14
 71
     2
 72
     2
 73
     0
 90
        0
 40
-0.6
 41
-30.0
 62
     5
 63
     7
 74
     1
 91
        4
 64
     7
 65
   257
 75
     7
175
     7
 42
1.0
 92
        8
 66
     7
 43
1.0
 76
     1
 77
     6
 78
     2
 67
     7
 79
     5
170
     0
171
     0
290
     0
174
     0
 93
        1
 44
0.0
173
     0
291
     1
 45
0.0
1001
ACAD
1000
AcDbSavedByObjectVersion
1070
     0
  0
VISUALSTYLE
  5
1315
102
{ACAD_XDICTIONARY
360
140A
102
}
102
{ACAD_REACTORS
330
1303
102
}
330
1303
100
AcDbVisualStyle
  2
OverhangOff
 70
    21
 71
     2
 72
     2
 73
     0
 90
        0
 40
-0.6
 41
-30.0
 62
     5
 63
     7
 74
     1
 91
        4
 64
     7
 65
   257
 75
     1
175
     1
 42
1.0
 92
        9
 66
     7
 43
1.0
 76
     1
 77
     6
 78
     2
 67
     7
 79
     5
170
     0
171
     0
290
     0
174
     0
 93
        1
 44
0.0
173
     0
291
     1
 45
0.0
1001
ACAD
1000
AcDbSavedByObjectVersion
1070
     0
  0
VISUALSTYLE
  5
130D
102
{ACAD_XDICTIONARY
360
13FA
102
}
102
{ACAD_REACTORS
330
1303
102
}
330
1303
100
AcDbVisualStyle
  2
Realistic
 70
     8
 71
     2
 72
     2
 73
     0
 90
        0
 40
-0.6
 41
-30.0
 62
     5
 63
     7
 74
     1
 91
        0
 64
     7
 65
   257
 75
     1
175
     1
 42
1.0
 92
        8
 66
     8
 43
1.0
 76
     1
 77
     6
 78
     2
 67
     7
 79
     5
170
     0
171
     0
290
     0
174
     0
 93
       13
 44
0.0
173
     0
291
     0
 45
0.0
1001
ACAD
1000
AcDbSavedByObjectVersion
1070
     0
  0
VISUALSTYLE
  5
1310
102
{ACAD_XDICTIONARY
360
1400
102
}
102
{ACAD_REACTORS
330
1303
102
}
330
1303
100
AcDbVisualStyle
  2
Thicken
 70
    13
 71
     2
 72
     2
 73
     0
 90
        0
 40
-0.6
 41
-30.0
 62
     5
 63
     7
 74
     1
 91
        4
 64
     7
 65
   257
 75
     1
175
     1
 42
1.0
 92
       12
 66
     7
 43
1.0
 76
     1
 77
     6
 78
     2
 67
     7
 79
     5
170
     0
171
     0
290
     0
174
     0
 93
        1
 44
0.0
173
     0
291
     1
 45
0.0
1001
ACAD
1000
AcDbSavedByObjectVersion
1070
     0
  0
DICTIONARYVAR
  5
13D1
102
{ACAD_REACTORS
330
3D
102
}
330
3D
100
DictionaryVariables
280
     0
  1
1:1
  0
DICTIONARYVAR
  5
13D0
102
{ACAD_REACTORS
330
3D
102
}
330
3D
100
DictionaryVariables
280
     0
  1
STANDARD
  0
DICTIONARYVAR
  5
13CF
102
{ACAD_REACTORS
330
3D
102
}
330
3D
100
DictionaryVariables
280
     0
  1
STANDARD
  0
DICTIONARYVAR
  5
3F
102
{ACAD_REACTORS
330
3D
102
}
330
3D
100
DictionaryVariables
280
     0
  1
2
  0
DICTIONARYVAR
  5
3E
102
{ACAD_REACTORS
330
3D
102
}
330
3D
100
DictionaryVariables
280
     0
  1
1
  0
DICTIONARYVAR
  5
13D3
102
{ACAD_REACTORS
330
3D
102
}
330
3D
100
DictionaryVariables
280
     0
  1
0
  0
DICTIONARYVAR
  5
13D2
102
{ACAD_REACTORS
330
3D
102
}
330
3D
100
DictionaryVariables
280
     0
  1
127
  0
DICTIONARYVAR
  5
13D4
102
{ACAD_REACTORS
330
3D
102
}
330
3D
100
DictionaryVariables
280
     0
  1
2
  0
XRECORD
  5
126C
102
{ACAD_REACTORS
330
126B
102
}
330
126B
100
AcDbXrecord
280
     1
330
ED0
330
114F
  0
DICTIONARY
  5
13D9
330
1E
100
AcDbDictionary
280
     1
281
     1
  3
ACAD_XREC_ROUNDTRIP
360
13DA
  0
DICTIONARY
  5
13DD
330
26
100
AcDbDictionary
280
     1
281
     1
  3
ACAD_XREC_ROUNDTRIP
360
13DE
  0
DICTIONARY
  5
13DB
330
22
100
AcDbDictionary
280
     1
281
     1
  3
ACAD_XREC_ROUNDTRIP
360
13DC
  0
DICTIONARY
  5
12F4
330
12F3
100
AcDbDictionary
280
     1
281
     1
  3
ACAD_XREC_ROUNDTRIP
360
13E6
  3
BUMPTILE
360
12F6
  3
DIFFUSETILE
360
12F5
  3
OPACITYTILE
360
12F9
  3
REFLECTIONTILE
360
12F8
  3
REFRACTIONTILE
360
12FA
  3
SPECULARTILE
360
12F7
  0
DICTIONARY
  5
12EC
330
12EB
100
AcDbDictionary
280
     1
281
     1
  3
ACAD_XREC_ROUNDTRIP
360
13E5
  3
BUMPTILE
360
12EE
  3
DIFFUSETILE
360
12ED
  3
OPACITYTILE
360
12F1
  3
REFLECTIONTILE
360
12F0
  3
REFRACTIONTILE
360
12F2
  3
SPECULARTILE
360
12EF
  0
DICTIONARY
  5
12FC
330
12FB
100
AcDbDictionary
280
     1
281
     1
  3
ACAD_XREC_ROUNDTRIP
360
13E7
  3
BUMPTILE
360
12FE
  3
DIFFUSETILE
360
12FD
  3
OPACITYTILE
360
1301
  3
REFLECTIONTILE
360
1300
  3
REFRACTIONTILE
360
1302
  3
SPECULARTILE
360
12FF
  0
DICTIONARY
  5
13D5
330
1319
100
AcDbDictionary
280
     1
281
     1
  3
ACAD_ROUNDTRIP_2008_TABLESTYLE_CELLSTYLEMAP
360
13D6
  3
ACAD_XREC_ROUNDTRIP
360
140E
  0
DICTIONARY
  5
13F2
330
1309
100
AcDbDictionary
280
     1
281
     1
  3
ACAD_XREC_ROUNDTRIP
360
13F3
  0
DICTIONARY
  5
13F6
330
130B
100
AcDbDictionary
280
     1
281
     1
  3
ACAD_XREC_ROUNDTRIP
360
13F7
  0
DICTIONARY
  5
13F4
330
130A
100
AcDbDictionary
280
     1
281
     1
  3
ACAD_XREC_ROUNDTRIP
360
13F5
  0
DICTIONARY
  5
13F0
330
1308
100
AcDbDictionary
280
     1
281
     1
  3
ACAD_XREC_ROUNDTRIP
360
13F1
  0
DICTIONARY
  5
13FE
330
130F
100
AcDbDictionary
280
     1
281
     1
  3
ACAD_XREC_ROUNDTRIP
360
13FF
  0
DICTIONARY
  5
1406
330
1313
100
AcDbDictionary
280
     1
281
     1
  3
ACAD_XREC_ROUNDTRIP
360
1407
  0
DICTIONARY
  5
13F8
330
130C
100
AcDbDictionary
280
     1
281
     1
  3
ACAD_XREC_ROUNDTRIP
360
13F9
  0
DICTIONARY
  5
13FC
330
130E
100
AcDbDictionary
280
     1
281
     1
  3
ACAD_XREC_ROUNDTRIP
360
13FD
  0
DICTIONARY
  5
140C
330
1316
100
AcDbDictionary
280
     1
281
     1
  3
ACAD_XREC_ROUNDTRIP
360
140D
  0
DICTIONARY
  5
1404
330
1312
100
AcDbDictionary
280
     1
281
     1
  3
ACAD_XREC_ROUNDTRIP
360
1405
  0
DICTIONARY
  5
13E8
330
1304
100
AcDbDictionary
280
     1
281
     1
  3
ACAD_XREC_ROUNDTRIP
360
13E9
  0
DICTIONARY
  5
13EA
330
1305
100
AcDbDictionary
280
     1
281
     1
  3
ACAD_XREC_ROUNDTRIP
360
13EB
  0
DICTIONARY
  5
13EC
330
1306
100
AcDbDictionary
280
     1
281
     1
  3
ACAD_XREC_ROUNDTRIP
360
13ED
  0
DICTIONARY
  5
13EE
330
1307
100
AcDbDictionary
280
     1
281
     1
  3
ACAD_XREC_ROUNDTRIP
360
13EF
  0
DICTIONARY
  5
1408
330
1314
100
AcDbDictionary
280
     1
281
     1
  3
ACAD_XREC_ROUNDTRIP
360
1409
  0
DICTIONARY
  5
1402
330
1311
100
AcDbDictionary
280
     1
281
     1
  3
ACAD_XREC_ROUNDTRIP
360
1403
  0
DICTIONARY
  5
140A
330
1315
100
AcDbDictionary
280
     1
281
     1
  3
ACAD_XREC_ROUNDTRIP
360
140B
  0
DICTIONARY
  5
13FA
330
130D
100
AcDbDictionary
280
     1
281
     1
  3
ACAD_XREC_ROUNDTRIP
360
13FB
  0
DICTIONARY
  5
1400
330
1310
100
AcDbDictionary
280
     1
281
     1
  3
ACAD_XREC_ROUNDTRIP
360
1401
  0
XRECORD
  5
13DA
102
{ACAD_REACTORS
330
13D9
102
}
330
13D9
100
AcDbXrecord
280
     1
102
SHADEPLOT
 70
     0
102
SHADEPLOTRESLEVEL
 70
     2
102
SHADEPLOTCUSTOMDPI
 70
   300
  0
XRECORD
  5
13DE
102
{ACAD_REACTORS
330
13DD
102
}
330
13DD
100
AcDbXrecord
280
     1
102
SHADEPLOT
 70
     0
102
SHADEPLOTRESLEVEL
 70
     2
102
SHADEPLOTCUSTOMDPI
 70
   300
  0
XRECORD
  5
13DC
102
{ACAD_REACTORS
330
13DB
102
}
330
13DB
100
AcDbXrecord
280
     1
102
SHADEPLOT
 70
     0
102
SHADEPLOTRESLEVEL
 70
     2
102
SHADEPLOTCUSTOMDPI
 70
   300
  0
XRECORD
  5
13E6
102
{ACAD_REACTORS
330
12F4
102
}
330
12F4
100
AcDbXrecord
280
     1
102
MATERIAL
148
0.0
149
0.0
149
0.0
 93
        0
 94
      127
282
     0
 72
     0
 77
     0
171
     0
175
     0
179
     0
273
     0
  0
XRECORD
  5
12F6
102
{ACAD_REACTORS
330
12F4
102
}
330
12F4
100
AcDbXrecord
280
     1
270
     1
271
     1
  0
XRECORD
  5
12F5
102
{ACAD_REACTORS
330
12F4
102
}
330
12F4
100
AcDbXrecord
280
     1
270
     1
271
     1
  0
XRECORD
  5
12F9
102
{ACAD_REACTORS
330
12F4
102
}
330
12F4
100
AcDbXrecord
280
     1
270
     1
271
     1
  0
XRECORD
  5
12F8
102
{ACAD_REACTORS
330
12F4
102
}
330
12F4
100
AcDbXrecord
280
     1
270
     1
271
     1
  0
XRECORD
  5
12FA
102
{ACAD_REACTORS
330
12F4
102
}
330
12F4
100
AcDbXrecord
280
     1
270
     1
271
     1
  0
XRECORD
  5
12F7
102
{ACAD_REACTORS
330
12F4
102
}
330
12F4
100
AcDbXrecord
280
     1
270
     1
271
     1
  0
XRECORD
  5
13E5
102
{ACAD_REACTORS
330
12EC
102
}
330
12EC
100
AcDbXrecord
280
     1
102
MATERIAL
148
0.0
149
0.0
149
0.0
 93
        0
 94
      127
282
     0
 72
     0
 77
     0
171
     0
175
     0
179
     0
273
     0
  0
XRECORD
  5
12EE
102
{ACAD_REACTORS
330
12EC
102
}
330
12EC
100
AcDbXrecord
280
     1
270
     1
271
     1
  0
XRECORD
  5
12ED
102
{ACAD_REACTORS
330
12EC
102
}
330
12EC
100
AcDbXrecord
280
     1
270
     1
271
     1
  0
XRECORD
  5
12F1
102
{ACAD_REACTORS
330
12EC
102
}
330
12EC
100
AcDbXrecord
280
     1
270
     1
271
     1
  0
XRECORD
  5
12F0
102
{ACAD_REACTORS
330
12EC
102
}
330
12EC
100
AcDbXrecord
280
     1
270
     1
271
     1
  0
XRECORD
  5
12F2
102
{ACAD_REACTORS
330
12EC
102
}
330
12EC
100
AcDbXrecord
280
     1
270
     1
271
     1
  0
XRECORD
  5
12EF
102
{ACAD_REACTORS
330
12EC
102
}
330
12EC
100
AcDbXrecord
280
     1
270
     1
271
     1
  0
XRECORD
  5
13E7
102
{ACAD_REACTORS
330
12FC
102
}
330
12FC
100
AcDbXrecord
280
     1
102
MATERIAL
148
0.0
149
0.0
149
0.0
 93
        0
 94
      127
282
     0
 72
     0
 77
     0
171
     0
175
     0
179
     0
273
     0
  0
XRECORD
  5
12FE
102
{ACAD_REACTORS
330
12FC
102
}
330
12FC
100
AcDbXrecord
280
     1
270
     1
271
     1
  0
XRECORD
  5
12FD
102
{ACAD_REACTORS
330
12FC
102
}
330
12FC
100
AcDbXrecord
280
     1
270
     1
271
     1
  0
XRECORD
  5
1301
102
{ACAD_REACTORS
330
12FC
102
}
330
12FC
100
AcDbXrecord
280
     1
270
     1
271
     1
  0
XRECORD
  5
1300
102
{ACAD_REACTORS
330
12FC
102
}
330
12FC
100
AcDbXrecord
280
     1
270
     1
271
     1
  0
XRECORD
  5
1302
102
{ACAD_REACTORS
330
12FC
102
}
330
12FC
100
AcDbXrecord
280
     1
270
     1
271
     1
  0
XRECORD
  5
12FF
102
{ACAD_REACTORS
330
12FC
102
}
330
12FC
100
AcDbXrecord
280
     1
270
     1
271
     1
  0
CELLSTYLEMAP
  5
13D6
102
{ACAD_REACTORS
330
13D5
102
}
330
13D5
100
AcDbCellStyleMap
 90
        3
300
CELLSTYLE
  1
TABLEFORMAT_BEGIN
 90
        5
170
     1
 91
        0
 92
    32768
 62
   257
 93
        1
300
CONTENTFORMAT
  1
CONTENTFORMAT_BEGIN
 90
        0
 91
        0
 92
      512
 93
        0
300

 40
0.0
140
1.0
 94
        5
 62
     0
340
11
144
6.0
309
CONTENTFORMAT_END
171
     1
301
MARGIN
  1
CELLMARGIN_BEGIN
 40
1.5
 40
1.5
 40
1.5
 40
1.5
 40
4.5
 40
4.5
309
CELLMARGIN_END
 94
        6
 95
        1
302
GRIDFORMAT
  1
GRIDFORMAT_BEGIN
 90
        0
 91
        1
 62
     0
 92
       -2
340
0
 93
        0
 40
1.125
309
GRIDFORMAT_END
 95
        2
302
GRIDFORMAT
  1
GRIDFORMAT_BEGIN
 90
        0
 91
        1
 62
     0
 92
       -2
340
0
 93
        0
 40
1.125
309
GRIDFORMAT_END
 95
        4
302
GRIDFORMAT
  1
GRIDFORMAT_BEGIN
 90
        0
 91
        1
 62
     0
 92
       -2
340
0
 93
        0
 40
1.125
309
GRIDFORMAT_END
 95
        8
302
GRIDFORMAT
  1
GRIDFORMAT_BEGIN
 90
        0
 91
        1
 62
     0
 92
       -2
340
0
 93
        0
 40
1.125
309
GRIDFORMAT_END
 95
       16
302
GRIDFORMAT
  1
GRIDFORMAT_BEGIN
 90
        0
 91
        1
 62
     0
 92
       -2
340
0
 93
        0
 40
1.125
309
GRIDFORMAT_END
 95
       32
302
GRIDFORMAT
  1
GRIDFORMAT_BEGIN
 90
        0
 91
        1
 62
     0
 92
       -2
340
0
 93
        0
 40
1.125
309
GRIDFORMAT_END
309
TABLEFORMAT_END
  1
CELLSTYLE_BEGIN
 90
        1
 91
        1
300
_TITLE
309
CELLSTYLE_END
300
CELLSTYLE
  1
TABLEFORMAT_BEGIN
 90
        5
170
     1
 91
        0
 92
        0
 62
   257
 93
        1
300
CONTENTFORMAT
  1
CONTENTFORMAT_BEGIN
 90
        0
 91
        0
 92
      512
 93
        0
300

 40
0.0
140
1.0
 94
        5
 62
     0
340
11
144
4.5
309
CONTENTFORMAT_END
171
     1
301
MARGIN
  1
CELLMARGIN_BEGIN
 40
1.5
 40
1.5
 40
1.5
 40
1.5
 40
4.5
 40
4.5
309
CELLMARGIN_END
 94
        6
 95
        1
302
GRIDFORMAT
  1
GRIDFORMAT_BEGIN
 90
        0
 91
        1
 62
     0
 92
       -2
340
0
 93
        0
 40
1.125
309
GRIDFORMAT_END
 95
        2
302
GRIDFORMAT
  1
GRIDFORMAT_BEGIN
 90
        0
 91
        1
 62
     0
 92
       -2
340
0
 93
        0
 40
1.125
309
GRIDFORMAT_END
 95
        4
302
GRIDFORMAT
  1
GRIDFORMAT_BEGIN
 90
        0
 91
        1
 62
     0
 92
       -2
340
0
 93
        0
 40
1.125
309
GRIDFORMAT_END
 95
        8
302
GRIDFORMAT
  1
GRIDFORMAT_BEGIN
 90
        0
 91
        1
 62
     0
 92
       -2
340
0
 93
        0
 40
1.125
309
GRIDFORMAT_END
 95
       16
302
GRIDFORMAT
  1
GRIDFORMAT_BEGIN
 90
        0
 91
        1
 62
     0
 92
       -2
340
0
 93
        0
 40
1.125
309
GRIDFORMAT_END
 95
       32
302
GRIDFORMAT
  1
GRIDFORMAT_BEGIN
 90
        0
 91
        1
 62
     0
 92
       -2
340
0
 93
        0
 40
1.125
309
GRIDFORMAT_END
309
TABLEFORMAT_END
  1
CELLSTYLE_BEGIN
 90
        2
 91
        1
300
_HEADER
309
CELLSTYLE_END
300
CELLSTYLE
  1
TABLEFORMAT_BEGIN
 90
        5
170
     1
 91
        0
 92
        0
 62
   257
 93
        1
300
CONTENTFORMAT
  1
CONTENTFORMAT_BEGIN
 90
        0
 91
        0
 92
      512
 93
        0
300

 40
0.0
140
1.0
 94
        2
 62
     0
340
11
144
4.5
309
CONTENTFORMAT_END
171
     1
301
MARGIN
  1
CELLMARGIN_BEGIN
 40
1.5
 40
1.5
 40
1.5
 40
1.5
 40
4.5
 40
4.5
309
CELLMARGIN_END
 94
        6
 95
        1
302
GRIDFORMAT
  1
GRIDFORMAT_BEGIN
 90
        0
 91
        1
 62
     0
 92
       -2
340
0
 93
        0
 40
1.125
309
GRIDFORMAT_END
 95
        2
302
GRIDFORMAT
  1
GRIDFORMAT_BEGIN
 90
        0
 91
        1
 62
     0
 92
       -2
340
0
 93
        0
 40
1.125
309
GRIDFORMAT_END
 95
        4
302
GRIDFORMAT
  1
GRIDFORMAT_BEGIN
 90
        0
 91
        1
 62
     0
 92
       -2
340
0
 93
        0
 40
1.125
309
GRIDFORMAT_END
 95
        8
302
GRIDFORMAT
  1
GRIDFORMAT_BEGIN
 90
        0
 91
        1
 62
     0
 92
       -2
340
0
 93
        0
 40
1.125
309
GRIDFORMAT_END
 95
       16
302
GRIDFORMAT
  1
GRIDFORMAT_BEGIN
 90
        0
 91
        1
 62
     0
 92
       -2
340
0
 93
        0
 40
1.125
309
GRIDFORMAT_END
 95
       32
302
GRIDFORMAT
  1
GRIDFORMAT_BEGIN
 90
        0
 91
        1
 62
     0
 92
       -2
340
0
 93
        0
 40
1.125
309
GRIDFORMAT_END
309
TABLEFORMAT_END
  1
CELLSTYLE_BEGIN
 90
        3
 91
        2
300
_DATA
309
CELLSTYLE_END
  0
XRECORD
  5
140E
102
{ACAD_REACTORS
330
13D5
102
}
330
13D5
100
AcDbXrecord
280
     1
102
ACAD_ROUNDTRIP_PRE2007_TABLESTYLE
 90
      512
 91
        0
  1

 92
      512
 93
        0
  2

 94
      512
 95
        0
  3

  0
XRECORD
  5
13F3
102
{ACAD_REACTORS
330
13F2
102
}
330
13F2
100
AcDbXrecord
280
     1
102
RTVSPropertyOp0
 70
     1
102
RTVSPropertyOp1
 70
     1
102
RTVSPropertyOp2
 70
     1
102
RTVSPropertyOp3
 70
     1
102
RTVSPropertyOp4
 70
     1
102
RTVSPropertyOp5
 70
     1
102
RTVSPropertyOp6
 70
     1
102
RTVSPropertyOp7
 70
     1
102
RTVSPropertyOp8
 70
     1
102
RTVSPropertyOp9
 70
     1
102
RTVSPropertyOp10
 70
     1
102
RTVSPropertyOp11
 70
     1
102
RTVSPropertyOp12
 70
     1
102
RTVSPropertyOp13
 70
     1
102
RTVSPropertyOp14
 70
     1
102
RTVSPropertyOp15
 70
     1
102
RTVSPropertyOp16
 70
     1
102
RTVSPropertyOp17
 70
     1
102
RTVSPropertyOp18
 70
     1
102
RTVSPropertyOp19
 70
     1
102
RTVSPropertyOp20
 70
     1
102
RTVSPropertyOp21
 70
     1
102
RTVSPropertyOp22
 70
     1
102
RTVSPropertyOp23
 70
     1
102
RTVSPropertyOp24
 70
     1
102
RTVSPropertyOp25
 70
     1
102
RTVSPropertyOp26
 70
     1
102
RTVSPropertyOp27
 70
     1
  0
XRECORD
  5
13F7
102
{ACAD_REACTORS
330
13F6
102
}
330
13F6
100
AcDbXrecord
280
     1
102
RTVSPropertyOp0
 70
     1
102
RTVSPropertyOp1
 70
     1
102
RTVSPropertyOp2
 70
     1
102
RTVSPropertyOp3
 70
     1
102
RTVSPropertyOp4
 70
     1
102
RTVSPropertyOp5
 70
     1
102
RTVSPropertyOp6
 70
     1
102
RTVSPropertyOp7
 70
     1
102
RTVSPropertyOp8
 70
     1
102
RTVSPropertyOp9
 70
     1
102
RTVSPropertyOp10
 70
     1
102
RTVSPropertyOp11
 70
     1
102
RTVSPropertyOp12
 70
     1
102
RTVSPropertyOp13
 70
     1
102
RTVSPropertyOp14
 70
     1
102
RTVSPropertyOp15
 70
     1
102
RTVSPropertyOp16
 70
     1
102
RTVSPropertyOp17
 70
     1
102
RTVSPropertyOp18
 70
     1
102
RTVSPropertyOp19
 70
     1
102
RTVSPropertyOp20
 70
     1
102
RTVSPropertyOp21
 70
     1
102
RTVSPropertyOp22
 70
     1
102
RTVSPropertyOp23
 70
     1
102
RTVSPropertyOp24
 70
     1
102
RTVSPropertyOp25
 70
     1
102
RTVSPropertyOp26
 70
     1
102
RTVSPropertyOp27
 70
     1
  0
XRECORD
  5
13F5
102
{ACAD_REACTORS
330
13F4
102
}
330
13F4
100
AcDbXrecord
280
     1
102
RTVSPropertyOp0
 70
     1
102
RTVSPropertyOp1
 70
     1
102
RTVSPropertyOp2
 70
     1
102
RTVSPropertyOp3
 70
     1
102
RTVSPropertyOp4
 70
     1
102
RTVSPropertyOp5
 70
     1
102
RTVSPropertyOp6
 70
     1
102
RTVSPropertyOp7
 70
     1
102
RTVSPropertyOp8
 70
     1
102
RTVSPropertyOp9
 70
     1
102
RTVSPropertyOp10
 70
     1
102
RTVSPropertyOp11
 70
     1
102
RTVSPropertyOp12
 70
     1
102
RTVSPropertyOp13
 70
     1
102
RTVSPropertyOp14
 70
     1
102
RTVSPropertyOp15
 70
     1
102
RTVSPropertyOp16
 70
     1
102
RTVSPropertyOp17
 70
     1
102
RTVSPropertyOp18
 70
     1
102
RTVSPropertyOp19
 70
     1
102
RTVSPropertyOp20
 70
     1
102
RTVSPropertyOp21
 70
     1
102
RTVSPropertyOp22
 70
     1
102
RTVSPropertyOp23
 70
     1
102
RTVSPropertyOp24
 70
     1
102
RTVSPropertyOp25
 70
     1
102
RTVSPropertyOp26
 70
     1
102
RTVSPropertyOp27
 70
     1
  0
XRECORD
  5
13F1
102
{ACAD_REACTORS
330
13F0
102
}
330
13F0
100
AcDbXrecord
280
     1
102
RTVSPropertyOp0
 70
     1
102
RTVSPropertyOp1
 70
     1
102
RTVSPropertyOp2
 70
     1
102
RTVSPropertyOp3
 70
     1
102
RTVSPropertyOp4
 70
     1
102
RTVSPropertyOp5
 70
     1
102
RTVSPropertyOp6
 70
     1
102
RTVSPropertyOp7
 70
     1
102
RTVSPropertyOp8
 70
     1
102
RTVSPropertyOp9
 70
     1
102
RTVSPropertyOp10
 70
     1
102
RTVSPropertyOp11
 70
     1
102
RTVSPropertyOp12
 70
     1
102
RTVSPropertyOp13
 70
     1
102
RTVSPropertyOp14
 70
     1
102
RTVSPropertyOp15
 70
     1
102
RTVSPropertyOp16
 70
     1
102
RTVSPropertyOp17
 70
     1
102
RTVSPropertyOp18
 70
     1
102
RTVSPropertyOp19
 70
     1
102
RTVSPropertyOp20
 70
     1
102
RTVSPropertyOp21
 70
     1
102
RTVSPropertyOp22
 70
     1
102
RTVSPropertyOp23
 70
     1
102
RTVSPropertyOp24
 70
     1
102
RTVSPropertyOp25
 70
     1
102
RTVSPropertyOp26
 70
     1
102
RTVSPropertyOp27
 70
     1
  0
XRECORD
  5
13FF
102
{ACAD_REACTORS
330
13FE
102
}
330
13FE
100
AcDbXrecord
280
     1
102
RTVSPropertyOp0
 70
     1
102
RTVSPropertyOp1
 70
     1
102
RTVSPropertyOp2
 70
     1
102
RTVSPropertyOp3
 70
     1
102
RTVSPropertyOp4
 70
     1
102
RTVSPropertyOp5
 70
     1
102
RTVSPropertyOp6
 70
     1
102
RTVSPropertyOp7
 70
     1
102
RTVSPropertyOp8
 70
     1
102
RTVSPropertyOp9
 70
     1
102
RTVSPropertyOp10
 70
     1
102
RTVSPropertyOp11
 70
     1
102
RTVSPropertyOp12
 70
     1
102
RTVSPropertyOp13
 70
     1
102
RTVSPropertyOp14
 70
     1
102
RTVSPropertyOp15
 70
     1
102
RTVSPropertyOp16
 70
     1
102
RTVSPropertyOp17
 70
     1
102
RTVSPropertyOp18
 70
     1
102
RTVSPropertyOp19
 70
     1
102
RTVSPropertyOp20
 70
     1
102
RTVSPropertyOp21
 70
     1
102
RTVSPropertyOp22
 70
     1
102
RTVSPropertyOp23
 70
     1
102
RTVSPropertyOp24
 70
     1
102
RTVSPropertyOp25
 70
     1
102
RTVSPropertyOp26
 70
     1
102
RTVSPropertyOp27
 70
     1
  0
XRECORD
  5
1407
102
{ACAD_REACTORS
330
1406
102
}
330
1406
100
AcDbXrecord
280
     1
102
RTVSPropertyOp0
 70
     1
102
RTVSPropertyOp1
 70
     1
102
RTVSPropertyOp2
 70
     1
102
RTVSPropertyOp3
 70
     1
102
RTVSPropertyOp4
 70
     1
102
RTVSPropertyOp5
 70
     1
102
RTVSPropertyOp6
 70
     1
102
RTVSPropertyOp7
 70
     1
102
RTVSPropertyOp8
 70
     1
102
RTVSPropertyOp9
 70
     1
102
RTVSPropertyOp10
 70
     1
102
RTVSPropertyOp11
 70
     1
102
RTVSPropertyOp12
 70
     1
102
RTVSPropertyOp13
 70
     1
102
RTVSPropertyOp14
 70
     1
102
RTVSPropertyOp15
 70
     1
102
RTVSPropertyOp16
 70
     1
102
RTVSPropertyOp17
 70
     1
102
RTVSPropertyOp18
 70
     1
102
RTVSPropertyOp19
 70
     1
102
RTVSPropertyOp20
 70
     1
102
RTVSPropertyOp21
 70
     1
102
RTVSPropertyOp22
 70
     1
102
RTVSPropertyOp23
 70
     1
102
RTVSPropertyOp24
 70
     1
102
RTVSPropertyOp25
 70
     1
102
RTVSPropertyOp26
 70
     1
102
RTVSPropertyOp27
 70
     1
  0
XRECORD
  5
13F9
102
{ACAD_REACTORS
330
13F8
102
}
330
13F8
100
AcDbXrecord
280
     1
102
RTVSPropertyOp0
 70
     1
102
RTVSPropertyOp1
 70
     1
102
RTVSPropertyOp2
 70
     1
102
RTVSPropertyOp3
 70
     1
102
RTVSPropertyOp4
 70
     1
102
RTVSPropertyOp5
 70
     1
102
RTVSPropertyOp6
 70
     1
102
RTVSPropertyOp7
 70
     1
102
RTVSPropertyOp8
 70
     1
102
RTVSPropertyOp9
 70
     1
102
RTVSPropertyOp10
 70
     1
102
RTVSPropertyOp11
 70
     1
102
RTVSPropertyOp12
 70
     1
102
RTVSPropertyOp13
 70
     1
102
RTVSPropertyOp14
 70
     1
102
RTVSPropertyOp15
 70
     1
102
RTVSPropertyOp16
 70
     1
102
RTVSPropertyOp17
 70
     1
102
RTVSPropertyOp18
 70
     1
102
RTVSPropertyOp19
 70
     1
102
RTVSPropertyOp20
 70
     1
102
RTVSPropertyOp21
 70
     1
102
RTVSPropertyOp22
 70
     1
102
RTVSPropertyOp23
 70
     1
102
RTVSPropertyOp24
 70
     1
102
RTVSPropertyOp25
 70
     1
102
RTVSPropertyOp26
 70
     1
102
RTVSPropertyOp27
 70
     1
  0
XRECORD
  5
13FD
102
{ACAD_REACTORS
330
13FC
102
}
330
13FC
100
AcDbXrecord
280
     1
102
RTVSPropertyOp0
 70
     1
102
RTVSPropertyOp1
 70
     1
102
RTVSPropertyOp2
 70
     1
102
RTVSPropertyOp3
 70
     1
102
RTVSPropertyOp4
 70
     1
102
RTVSPropertyOp5
 70
     1
102
RTVSPropertyOp6
 70
     1
102
RTVSPropertyOp7
 70
     1
102
RTVSPropertyOp8
 70
     1
102
RTVSPropertyOp9
 70
     1
102
RTVSPropertyOp10
 70
     1
102
RTVSPropertyOp11
 70
     1
102
RTVSPropertyOp12
 70
     1
102
RTVSPropertyOp13
 70
     1
102
RTVSPropertyOp14
 70
     1
102
RTVSPropertyOp15
 70
     1
102
RTVSPropertyOp16
 70
     1
102
RTVSPropertyOp17
 70
     1
102
RTVSPropertyOp18
 70
     1
102
RTVSPropertyOp19
 70
     1
102
RTVSPropertyOp20
 70
     1
102
RTVSPropertyOp21
 70
     1
102
RTVSPropertyOp22
 70
     1
102
RTVSPropertyOp23
 70
     1
102
RTVSPropertyOp24
 70
     1
102
RTVSPropertyOp25
 70
     1
102
RTVSPropertyOp26
 70
     1
102
RTVSPropertyOp27
 70
     1
  0
XRECORD
  5
140D
102
{ACAD_REACTORS
330
140C
102
}
330
140C
100
AcDbXrecord
280
     1
102
RTVSPropertyOp0
 70
     0
102
RTVSPropertyOp1
 70
     0
102
RTVSPropertyOp2
 70
     0
102
RTVSPropertyOp3
 70
     0
102
RTVSPropertyOp4
 70
     0
102
RTVSPropertyOp5
 70
     0
102
RTVSPropertyOp6
 70
     0
102
RTVSPropertyOp7
 70
     0
102
RTVSPropertyOp8
 70
     0
102
RTVSPropertyOp9
 70
     0
102
RTVSPropertyOp10
 70
     0
102
RTVSPropertyOp11
 70
     0
102
RTVSPropertyOp12
 70
     0
102
RTVSPropertyOp13
 70
     0
102
RTVSPropertyOp14
 70
     2
102
RTVSPropertyOp15
 70
     0
102
RTVSPropertyOp16
 70
     0
102
RTVSPropertyOp17
 70
     0
102
RTVSPropertyOp18
 70
     0
102
RTVSPropertyOp19
 70
     0
102
RTVSPropertyOp20
 70
     0
102
RTVSPropertyOp21
 70
     0
102
RTVSPropertyOp22
 70
     0
102
RTVSPropertyOp23
 70
     0
102
RTVSPropertyOp24
 70
     0
102
RTVSPropertyOp25
 70
     0
102
RTVSPropertyOp26
 70
     0
102
RTVSPropertyOp27
 70
     0
  0
XRECORD
  5
1405
102
{ACAD_REACTORS
330
1404
102
}
330
1404
100
AcDbXrecord
280
     1
102
RTVSPropertyOp0
 70
     1
102
RTVSPropertyOp1
 70
     1
102
RTVSPropertyOp2
 70
     1
102
RTVSPropertyOp3
 70
     1
102
RTVSPropertyOp4
 70
     1
102
RTVSPropertyOp5
 70
     1
102
RTVSPropertyOp6
 70
     1
102
RTVSPropertyOp7
 70
     1
102
RTVSPropertyOp8
 70
     1
102
RTVSPropertyOp9
 70
     1
102
RTVSPropertyOp10
 70
     1
102
RTVSPropertyOp11
 70
     1
102
RTVSPropertyOp12
 70
     1
102
RTVSPropertyOp13
 70
     1
102
RTVSPropertyOp14
 70
     1
102
RTVSPropertyOp15
 70
     1
102
RTVSPropertyOp16
 70
     1
102
RTVSPropertyOp17
 70
     1
102
RTVSPropertyOp18
 70
     1
102
RTVSPropertyOp19
 70
     1
102
RTVSPropertyOp20
 70
     1
102
RTVSPropertyOp21
 70
     1
102
RTVSPropertyOp22
 70
     1
102
RTVSPropertyOp23
 70
     1
102
RTVSPropertyOp24
 70
     1
102
RTVSPropertyOp25
 70
     1
102
RTVSPropertyOp26
 70
     1
102
RTVSPropertyOp27
 70
     1
  0
XRECORD
  5
13E9
102
{ACAD_REACTORS
330
13E8
102
}
330
13E8
100
AcDbXrecord
280
     1
102
RTVSPropertyOp0
 70
     1
102
RTVSPropertyOp1
 70
     1
102
RTVSPropertyOp2
 70
     1
102
RTVSPropertyOp3
 70
     1
102
RTVSPropertyOp4
 70
     1
102
RTVSPropertyOp5
 70
     1
102
RTVSPropertyOp6
 70
     1
102
RTVSPropertyOp7
 70
     1
102
RTVSPropertyOp8
 70
     1
102
RTVSPropertyOp9
 70
     1
102
RTVSPropertyOp10
 70
     1
102
RTVSPropertyOp11
 70
     1
102
RTVSPropertyOp12
 70
     1
102
RTVSPropertyOp13
 70
     1
102
RTVSPropertyOp14
 70
     1
102
RTVSPropertyOp15
 70
     1
102
RTVSPropertyOp16
 70
     1
102
RTVSPropertyOp17
 70
     1
102
RTVSPropertyOp18
 70
     1
102
RTVSPropertyOp19
 70
     1
102
RTVSPropertyOp20
 70
     1
102
RTVSPropertyOp21
 70
     1
102
RTVSPropertyOp22
 70
     1
102
RTVSPropertyOp23
 70
     1
102
RTVSPropertyOp24
 70
     1
102
RTVSPropertyOp25
 70
     1
102
RTVSPropertyOp26
 70
     1
102
RTVSPropertyOp27
 70
     1
  0
XRECORD
  5
13EB
102
{ACAD_REACTORS
330
13EA
102
}
330
13EA
100
AcDbXrecord
280
     1
102
RTVSPropertyOp0
 70
     1
102
RTVSPropertyOp1
 70
     1
102
RTVSPropertyOp2
 70
     1
102
RTVSPropertyOp3
 70
     1
102
RTVSPropertyOp4
 70
     1
102
RTVSPropertyOp5
 70
     1
102
RTVSPropertyOp6
 70
     1
102
RTVSPropertyOp7
 70
     1
102
RTVSPropertyOp8
 70
     1
102
RTVSPropertyOp9
 70
     1
102
RTVSPropertyOp10
 70
     1
102
RTVSPropertyOp11
 70
     1
102
RTVSPropertyOp12
 70
     1
102
RTVSPropertyOp13
 70
     1
102
RTVSPropertyOp14
 70
     1
102
RTVSPropertyOp15
 70
     1
102
RTVSPropertyOp16
 70
     1
102
RTVSPropertyOp17
 70
     1
102
RTVSPropertyOp18
 70
     1
102
RTVSPropertyOp19
 70
     1
102
RTVSPropertyOp20
 70
     1
102
RTVSPropertyOp21
 70
     1
102
RTVSPropertyOp22
 70
     1
102
RTVSPropertyOp23
 70
     1
102
RTVSPropertyOp24
 70
     1
102
RTVSPropertyOp25
 70
     1
102
RTVSPropertyOp26
 70
     1
102
RTVSPropertyOp27
 70
     1
  0
XRECORD
  5
13ED
102
{ACAD_REACTORS
330
13EC
102
}
330
13EC
100
AcDbXrecord
280
     1
102
RTVSPropertyOp0
 70
     1
102
RTVSPropertyOp1
 70
     1
102
RTVSPropertyOp2
 70
     1
102
RTVSPropertyOp3
 70
     1
102
RTVSPropertyOp4
 70
     1
102
RTVSPropertyOp5
 70
     1
102
RTVSPropertyOp6
 70
     1
102
RTVSPropertyOp7
 70
     1
102
RTVSPropertyOp8
 70
     1
102
RTVSPropertyOp9
 70
     1
102
RTVSPropertyOp10
 70
     1
102
RTVSPropertyOp11
 70
     1
102
RTVSPropertyOp12
 70
     1
102
RTVSPropertyOp13
 70
     1
102
RTVSPropertyOp14
 70
     1
102
RTVSPropertyOp15
 70
     1
102
RTVSPropertyOp16
 70
     1
102
RTVSPropertyOp17
 70
     1
102
RTVSPropertyOp18
 70
     1
102
RTVSPropertyOp19
 70
     1
102
RTVSPropertyOp20
 70
     1
102
RTVSPropertyOp21
 70
     1
102
RTVSPropertyOp22
 70
     1
102
RTVSPropertyOp23
 70
     1
102
RTVSPropertyOp24
 70
     1
102
RTVSPropertyOp25
 70
     1
102
RTVSPropertyOp26
 70
     1
102
RTVSPropertyOp27
 70
     1
  0
XRECORD
  5
13EF
102
{ACAD_REACTORS
330
13EE
102
}
330
13EE
100
AcDbXrecord
280
     1
102
RTVSPropertyOp0
 70
     1
102
RTVSPropertyOp1
 70
     1
102
RTVSPropertyOp2
 70
     1
102
RTVSPropertyOp3
 70
     1
102
RTVSPropertyOp4
 70
     1
102
RTVSPropertyOp5
 70
     1
102
RTVSPropertyOp6
 70
     1
102
RTVSPropertyOp7
 70
     1
102
RTVSPropertyOp8
 70
     1
102
RTVSPropertyOp9
 70
     1
102
RTVSPropertyOp10
 70
     1
102
RTVSPropertyOp11
 70
     1
102
RTVSPropertyOp12
 70
     1
102
RTVSPropertyOp13
 70
     1
102
RTVSPropertyOp14
 70
     1
102
RTVSPropertyOp15
 70
     1
102
RTVSPropertyOp16
 70
     1
102
RTVSPropertyOp17
 70
     1
102
RTVSPropertyOp18
 70
     1
102
RTVSPropertyOp19
 70
     1
102
RTVSPropertyOp20
 70
     1
102
RTVSPropertyOp21
 70
     1
102
RTVSPropertyOp22
 70
     1
102
RTVSPropertyOp23
 70
     1
102
RTVSPropertyOp24
 70
     1
102
RTVSPropertyOp25
 70
     1
102
RTVSPropertyOp26
 70
     1
102
RTVSPropertyOp27
 70
     1
  0
XRECORD
  5
1409
102
{ACAD_REACTORS
330
1408
102
}
330
1408
100
AcDbXrecord
280
     1
102
RTVSPropertyOp0
 70
     0
102
RTVSPropertyOp1
 70
     0
102
RTVSPropertyOp2
 70
     0
102
RTVSPropertyOp3
 70
     0
102
RTVSPropertyOp4
 70
     0
102
RTVSPropertyOp5
 70
     0
102
RTVSPropertyOp6
 70
     0
102
RTVSPropertyOp7
 70
     0
102
RTVSPropertyOp8
 70
     0
102
RTVSPropertyOp9
 70
     0
102
RTVSPropertyOp10
 70
     0
102
RTVSPropertyOp11
 70
     0
102
RTVSPropertyOp12
 70
     0
102
RTVSPropertyOp13
 70
     0
102
RTVSPropertyOp14
 70
     2
102
RTVSPropertyOp15
 70
     0
102
RTVSPropertyOp16
 70
     0
102
RTVSPropertyOp17
 70
     0
102
RTVSPropertyOp18
 70
     0
102
RTVSPropertyOp19
 70
     0
102
RTVSPropertyOp20
 70
     0
102
RTVSPropertyOp21
 70
     0
102
RTVSPropertyOp22
 70
     0
102
RTVSPropertyOp23
 70
     0
102
RTVSPropertyOp24
 70
     0
102
RTVSPropertyOp25
 70
     0
102
RTVSPropertyOp26
 70
     0
102
RTVSPropertyOp27
 70
     0
  0
XRECORD
  5
1403
102
{ACAD_REACTORS
330
1402
102
}
330
1402
100
AcDbXrecord
280
     1
102
RTVSPropertyOp0
 70
     1
102
RTVSPropertyOp1
 70
     1
102
RTVSPropertyOp2
 70
     1
102
RTVSPropertyOp3
 70
     1
102
RTVSPropertyOp4
 70
     1
102
RTVSPropertyOp5
 70
     1
102
RTVSPropertyOp6
 70
     1
102
RTVSPropertyOp7
 70
     1
102
RTVSPropertyOp8
 70
     1
102
RTVSPropertyOp9
 70
     1
102
RTVSPropertyOp10
 70
     1
102
RTVSPropertyOp11
 70
     1
102
RTVSPropertyOp12
 70
     1
102
RTVSPropertyOp13
 70
     1
102
RTVSPropertyOp14
 70
     1
102
RTVSPropertyOp15
 70
     1
102
RTVSPropertyOp16
 70
     1
102
RTVSPropertyOp17
 70
     1
102
RTVSPropertyOp18
 70
     1
102
RTVSPropertyOp19
 70
     1
102
RTVSPropertyOp20
 70
     1
102
RTVSPropertyOp21
 70
     1
102
RTVSPropertyOp22
 70
     1
102
RTVSPropertyOp23
 70
     1
102
RTVSPropertyOp24
 70
     1
102
RTVSPropertyOp25
 70
     1
102
RTVSPropertyOp26
 70
     1
102
RTVSPropertyOp27
 70
     1
  0
XRECORD
  5
140B
102
{ACAD_REACTORS
330
140A
102
}
330
140A
100
AcDbXrecord
280
     1
102
RTVSPropertyOp0
 70
     0
102
RTVSPropertyOp1
 70
     0
102
RTVSPropertyOp2
 70
     0
102
RTVSPropertyOp3
 70
     0
102
RTVSPropertyOp4
 70
     0
102
RTVSPropertyOp5
 70
     0
102
RTVSPropertyOp6
 70
     0
102
RTVSPropertyOp7
 70
     0
102
RTVSPropertyOp8
 70
     0
102
RTVSPropertyOp9
 70
     0
102
RTVSPropertyOp10
 70
     0
102
RTVSPropertyOp11
 70
     0
102
RTVSPropertyOp12
 70
     0
102
RTVSPropertyOp13
 70
     0
102
RTVSPropertyOp14
 70
     2
102
RTVSPropertyOp15
 70
     0
102
RTVSPropertyOp16
 70
     0
102
RTVSPropertyOp17
 70
     0
102
RTVSPropertyOp18
 70
     0
102
RTVSPropertyOp19
 70
     0
102
RTVSPropertyOp20
 70
     0
102
RTVSPropertyOp21
 70
     0
102
RTVSPropertyOp22
 70
     0
102
RTVSPropertyOp23
 70
     0
102
RTVSPropertyOp24
 70
     0
102
RTVSPropertyOp25
 70
     0
102
RTVSPropertyOp26
 70
     0
102
RTVSPropertyOp27
 70
     0
  0
XRECORD
  5
13FB
102
{ACAD_REACTORS
330
13FA
102
}
330
13FA
100
AcDbXrecord
280
     1
102
RTVSPropertyOp0
 70
     1
102
RTVSPropertyOp1
 70
     1
102
RTVSPropertyOp2
 70
     1
102
RTVSPropertyOp3
 70
     1
102
RTVSPropertyOp4
 70
     1
102
RTVSPropertyOp5
 70
     1
102
RTVSPropertyOp6
 70
     1
102
RTVSPropertyOp7
 70
     1
102
RTVSPropertyOp8
 70
     1
102
RTVSPropertyOp9
 70
     1
102
RTVSPropertyOp10
 70
     1
102
RTVSPropertyOp11
 70
     1
102
RTVSPropertyOp12
 70
     1
102
RTVSPropertyOp13
 70
     1
102
RTVSPropertyOp14
 70
     1
102
RTVSPropertyOp15
 70
     1
102
RTVSPropertyOp16
 70
     1
102
RTVSPropertyOp17
 70
     1
102
RTVSPropertyOp18
 70
     1
102
RTVSPropertyOp19
 70
     1
102
RTVSPropertyOp20
 70
     1
102
RTVSPropertyOp21
 70
     1
102
RTVSPropertyOp22
 70
     1
102
RTVSPropertyOp23
 70
     1
102
RTVSPropertyOp24
 70
     1
102
RTVSPropertyOp25
 70
     1
102
RTVSPropertyOp26
 70
     1
102
RTVSPropertyOp27
 70
     1
  0
XRECORD
  5
1401
102
{ACAD_REACTORS
330
1400
102
}
330
1400
100
AcDbXrecord
280
     1
102
RTVSPropertyOp0
 70
     1
102
RTVSPropertyOp1
 70
     1
102
RTVSPropertyOp2
 70
     1
102
RTVSPropertyOp3
 70
     1
102
RTVSPropertyOp4
 70
     1
102
RTVSPropertyOp5
 70
     1
102
RTVSPropertyOp6
 70
     1
102
RTVSPropertyOp7
 70
     1
102
RTVSPropertyOp8
 70
     1
102
RTVSPropertyOp9
 70
     1
102
RTVSPropertyOp10
 70
     1
102
RTVSPropertyOp11
 70
     1
102
RTVSPropertyOp12
 70
     1
102
RTVSPropertyOp13
 70
     1
102
RTVSPropertyOp14
 70
     1
102
RTVSPropertyOp15
 70
     1
102
RTVSPropertyOp16
 70
     1
102
RTVSPropertyOp17
 70
     1
102
RTVSPropertyOp18
 70
     1
102
RTVSPropertyOp19
 70
     1
102
RTVSPropertyOp20
 70
     1
102
RTVSPropertyOp21
 70
     1
102
RTVSPropertyOp22
 70
     1
102
RTVSPropertyOp23
 70
     1
102
RTVSPropertyOp24
 70
     1
102
RTVSPropertyOp25
 70
     1
102
RTVSPropertyOp26
 70
     1
102
RTVSPropertyOp27
 70
     1
  0
ENDSEC
  0
EOF
