  0
SECTION
  2
HEADER
  9
$ACADVER
  1
AC1015
  9
$ACADMAINTVER
 70
    20
  9
$DWGCODEPAGE
  3
ANSI_1252
  9
$INSBASE
 10
0.0
 20
0.0
 30
0.0
  9
$EXTMIN
 10
3890.753649932669
 20
2150.664239171291
 30
0.0
  9
$EXTMAX
 10
3895.9498099398
 20
2151.36685743103
 30
0.0
  9
$LIMMIN
 10
0.0
 20
0.0
  9
$LIMMAX
 10
420.0
 20
297.0
  9
$ORTHOMODE
 70
     0
  9
$REGENMODE
 70
     1
  9
$FILLMODE
 70
     1
  9
$QTEXTMODE
 70
     0
  9
$MIRRTEXT
 70
     1
  9
$LTSCALE
 40
1.0
  9
$ATTMODE
 70
     1
  9
$TEXTSIZE
 40
2.5
  9
$TRACEWID
 40
1.0
  9
$TEXTSTYLE
  7
SANINDUSA
  9
$CLAYER
  8
0
  9
$CELTYPE
  6
ByLayer
  9
$CECOLOR
 62
   256
  9
$CELTSCALE
 40
1.0
  9
$DISPSILH
 70
     0
  9
$DIMSCALE
 40
1.0
  9
$DIMASZ
 40
2.0
  9
$DIMEXO
 40
1.0
  9
$DIMDLI
 40
1.0
  9
$DIMRND
 40
0.0
  9
$DIMDLE
 40
0.0
  9
$DIMEXE
 40
1.0
  9
$DIMTP
 40
0.0
  9
$DIMTM
 40
0.0
  9
$DIMTXT
 40
2.0
  9
$DIMCEN
 40
0.0
  9
$DIMTSZ
 40
0.0
  9
$DIMTOL
 70
     0
  9
$DIMLIM
 70
     0
  9
$DIMTIH
 70
     0
  9
$DIMTOH
 70
     0
  9
$DIMSE1
 70
     0
  9
$DIMSE2
 70
     0
  9
$DIMTAD
 70
     1
  9
$DIMZIN
 70
     8
  9
$DIMBLK
  1

  9
$DIMASO
 70
     1
  9
$DIMSHO
 70
     1
  9
$DIMPOST
  1

  9
$DIMAPOST
  1

  9
$DIMALT
 70
     0
  9
$DIMALTD
 70
     3
  9
$DIMALTF
 40
0.03937007874016
  9
$DIMLFAC
 40
1.0
  9
$DIMTOFL
 70
     1
  9
$DIMTVP
 40
0.0
  9
$DIMTIX
 70
     0
  9
$DIMSOXD
 70
     0
  9
$DIMSAH
 70
     0
  9
$DIMBLK1
  1

  9
$DIMBLK2
  1

  9
$DIMSTYLE
  2
SANINDUSA
  9
$DIMCLRD
 70
   256
  9
$DIMCLRE
 70
   256
  9
$DIMCLRT
 70
   256
  9
$DIMTFAC
 40
1.0
  9
$DIMGAP
 40
1.0
  9
$DIMJUST
 70
     0
  9
$DIMSD1
 70
     0
  9
$DIMSD2
 70
     0
  9
$DIMTOLJ
 70
     0
  9
$DIMTZIN
 70
     8
  9
$DIMALTZ
 70
     0
  9
$DIMALTTZ
 70
     0
  9
$DIMUPT
 70
     0
  9
$DIMDEC
 70
     1
  9
$DIMTDEC
 70
     1
  9
$DIMALTU
 70
     2
  9
$DIMALTTD
 70
     3
  9
$DIMTXSTY
  7
SANINDUSA
  9
$DIMAUNIT
 70
     0
  9
$DIMADEC
 70
     1
  9
$DIMALTRND
 40
0.0
  9
$DIMAZIN
 70
     0
  9
$DIMDSEP
 70
    44
  9
$DIMATFIT
 70
     3
  9
$DIMFRAC
 70
     0
  9
$DIMLDRBLK
  1

  9
$DIMLUNIT
 70
     2
  9
$DIMLWD
 70
    -1
  9
$DIMLWE
 70
    -1
  9
$DIMTMOVE
 70
     0
  9
$LUNITS
 70
     2
  9
$LUPREC
 70
     4
  9
$SKETCHINC
 40
1.0
  9
$FILLETRAD
 40
0.0
  9
$AUNITS
 70
     0
  9
$AUPREC
 70
     0
  9
$MENU
  1
.
  9
$ELEVATION
 40
0.0
  9
$PELEVATION
 40
0.0
  9
$THICKNESS
 40
0.0
  9
$LIMCHECK
 70
     0
  9
$CHAMFERA
 40
10.0
  9
$CHAMFERB
 40
10.0
  9
$CHAMFERC
 40
20.0
  9
$CHAMFERD
 40
0.0
  9
$SKPOLY
 70
     0
  9
$TDCREATE
 40
2456023.632864213
  9
$TDUCREATE
 40
2456023.591197546
  9
$TDUPDATE
 40
2456203.604785150
  9
$TDUUPDATE
 40
2456203.563118484
  9
$TDINDWG
 40
0.0058671412
  9
$TDUSRTIMER
 40
0.0058669676
  9
$USRTIMER
 70
     1
  9
$ANGBASE
 50
0.0
  9
$ANGDIR
 70
     0
  9
$PDMODE
 70
     0
  9
$PDSIZE
 40
0.0
  9
$PLINEWID
 40
0.0
  9
$SPLFRAME
 70
     0
  9
$SPLINETYPE
 70
     6
  9
$SPLINESEGS
 70
     8
  9
$HANDSEED
  5
143C
  9
$SURFTAB1
 70
     6
  9
$SURFTAB2
 70
     6
  9
$SURFTYPE
 70
     6
  9
$SURFU
 70
     6
  9
$SURFV
 70
     6
  9
$UCSBASE
  2

  9
$UCSNAME
  2

  9
$UCSORG
 10
0.0
 20
0.0
 30
0.0
  9
$UCSXDIR
 10
1.0
 20
0.0
 30
0.0
  9
$UCSYDIR
 10
0.0
 20
1.0
 30
0.0
  9
$UCSORTHOREF
  2

  9
$UCSORTHOVIEW
 70
     0
  9
$UCSORGTOP
 10
0.0
 20
0.0
 30
0.0
  9
$UCSORGBOTTOM
 10
0.0
 20
0.0
 30
0.0
  9
$UCSORGLEFT
 10
0.0
 20
0.0
 30
0.0
  9
$UCSORGRIGHT
 10
0.0
 20
0.0
 30
0.0
  9
$UCSORGFRONT
 10
0.0
 20
0.0
 30
0.0
  9
$UCSORGBACK
 10
0.0
 20
0.0
 30
0.0
  9
$PUCSBASE
  2

  9
$PUCSNAME
  2

  9
$PUCSORG
 10
0.0
 20
0.0
 30
0.0
  9
$PUCSXDIR
 10
1.0
 20
0.0
 30
0.0
  9
$PUCSYDIR
 10
0.0
 20
1.0
 30
0.0
  9
$PUCSORTHOREF
  2

  9
$PUCSORTHOVIEW
 70
     0
  9
$PUCSORGTOP
 10
0.0
 20
0.0
 30
0.0
  9
$PUCSORGBOTTOM
 10
0.0
 20
0.0
 30
0.0
  9
$PUCSORGLEFT
 10
0.0
 20
0.0
 30
0.0
  9
$PUCSORGRIGHT
 10
0.0
 20
0.0
 30
0.0
  9
$PUCSORGFRONT
 10
0.0
 20
0.0
 30
0.0
  9
$PUCSORGBACK
 10
0.0
 20
0.0
 30
0.0
  9
$USERI1
 70
     0
  9
$USERI2
 70
     0
  9
$USERI3
 70
     0
  9
$USERI4
 70
     0
  9
$USERI5
 70
     0
  9
$USERR1
 40
0.0
  9
$USERR2
 40
0.0
  9
$USERR3
 40
0.0
  9
$USERR4
 40
0.0
  9
$USERR5
 40
0.0
  9
$WORLDVIEW
 70
     1
  9
$SHADEDGE
 70
     3
  9
$SHADEDIF
 70
    70
  9
$TILEMODE
 70
     1
  9
$MAXACTVP
 70
    64
  9
$PINSBASE
 10
0.0
 20
0.0
 30
0.0
  9
$PLIMCHECK
 70
     0
  9
$PEXTMIN
 10
1.000000000000000E+20
 20
1.000000000000000E+20
 30
1.000000000000000E+20
  9
$PEXTMAX
 10
-1.000000000000000E+20
 20
-1.000000000000000E+20
 30
-1.000000000000000E+20
  9
$PLIMMIN
 10
0.0
 20
0.0
  9
$PLIMMAX
 10
420.0
 20
297.0
  9
$UNITMODE
 70
     0
  9
$VISRETAIN
 70
     1
  9
$PLINEGEN
 70
     0
  9
$PSLTSCALE
 70
     1
  9
$TREEDEPTH
 70
  3020
  9
$CMLSTYLE
  2
Standard
  9
$CMLJUST
 70
     0
  9
$CMLSCALE
 40
20.0
  9
$PROXYGRAPHICS
 70
     1
  9
$MEASUREMENT
 70
     1
  9
$CELWEIGHT
370
    -1
  9
$ENDCAPS
280
     0
  9
$JOINSTYLE
280
     0
  9
$LWDISPLAY
290
     0
  9
$INSUNITS
 70
     4
  9
$HYPERLINKBASE
  1

  9
$STYLESHEET
  1
sanindusa.ctb
  9
$XEDIT
290
     1
  9
$CEPSNTYPE
380
     0
  9
$PSTYLEMODE
290
     1
  9
$FINGERPRINTGUID
  2
{39D749D2-1BDF-4BBF-8473-92FC802D1499}
  9
$VERSIONGUID
  2
{618EAAFA-E1A3-48C7-9904-3EBB5DC00CB2}
  9
$EXTNAMES
290
     1
  9
$PSVPSCALE
 40
0.0
  9
$OLESTARTUP
290
     0
  0
ENDSEC
  0
SECTION
  2
CLASSES
  0
CLASS
  1
ACDBDICTIONARYWDFLT
  2
AcDbDictionaryWithDefault
  3
ObjectDBX Classes
 90
        0
280
     0
281
     0
  0
CLASS
  1
ACDBPLACEHOLDER
  2
AcDbPlaceHolder
  3
ObjectDBX Classes
 90
        0
280
     0
281
     0
  0
CLASS
  1
LAYOUT
  2
AcDbLayout
  3
ObjectDBX Classes
 90
        0
280
     0
281
     0
  0
CLASS
  1
DICTIONARYVAR
  2
AcDbDictionaryVar
  3
ObjectDBX Classes
 90
        0
280
     0
281
     0
  0
CLASS
  1
DIMASSOC
  2
AcDbDimAssoc
  3
"AcDbDimAssoc|Product Desc:     AcDim ARX App For Dimension|Company:          Autodesk, Inc.|WEB Address:      www.autodesk.com"
 90
    32768
280
     0
281
     0
  0
CLASS
  1
TABLESTYLE
  2
AcDbTableStyle
  3
ObjectDBX Classes
 90
     4095
280
     0
281
     0
  0
CLASS
  1
MATERIAL
  2
AcDbMaterial
  3
ObjectDBX Classes
 90
     1153
280
     0
281
     0
  0
CLASS
  1
VISUALSTYLE
  2
AcDbVisualStyle
  3
ObjectDBX Classes
 90
     4095
280
     0
281
     0
  0
CLASS
  1
SCALE
  2
AcDbScale
  3
ObjectDBX Classes
 90
     1153
280
     0
281
     0
  0
CLASS
  1
MLEADERSTYLE
  2
AcDbMLeaderStyle
  3
ACDB_MLEADERSTYLE_CLASS
 90
     4095
280
     0
281
     0
  0
CLASS
  1
AEC_REFEDIT_STATUS_TRACKER
  2
AecDbRefEditStatusTracker
  3
AecArchBase60|Product Desc: Autodesk Architectural Desktop 2007 |Company: Autodesk,Inc. |WEB Address: www.autodesk.com
 90
    32897
280
     0
281
     0
  0
CLASS
  1
NPOCOLLECTION
  2
AcDbImpNonPersistentObjectsCollection
  3
ObjectDBX Classes
 90
    33921
280
     0
281
     0
  0
CLASS
  1
CELLSTYLEMAP
  2
AcDbCellStyleMap
  3
ObjectDBX Classes
 90
     1152
280
     0
281
     0
  0
CLASS
  1
SOLID_BACKGROUND
  2
AcDbSolidBackground
  3
SCENEOE
 90
    36863
280
     0
281
     0
  0
ENDSEC
  0
SECTION
  2
TABLES
  0
TABLE
  2
VPORT
  5
8
102
{ACAD_XDICTIONARY
360
13C5
102
}
330
0
100
AcDbSymbolTable
 70
     1
  0
VPORT
  5
1068
330
8
100
AcDbSymbolTableRecord
100
AcDbViewportTableRecord
  2
*Active
 70
     0
 10
0.0
 20
0.0
 11
1.0
 21
1.0
 12
3893.351729936235
 22
2151.015548301161
 13
0.0
 23
0.0
 14
10.0
 24
10.0
 15
10.0
 25
10.0
 16
0.0
 26
0.0
 36
1.0
 17
0.0
 27
0.0
 37
0.0
 40
3.169863703919064
 41
1.645464025026068
 42
50.0
 43
0.0
 44
0.0
 50
0.0
 51
0.0
 71
     0
 72
   100
 73
     1
 74
     2
 75
     0
 76
     0
 77
     0
 78
     0
281
     0
 65
     1
110
0.0
120
0.0
130
0.0
111
1.0
121
0.0
131
0.0
112
0.0
122
1.0
132
0.0
 79
     0
146
0.0
  0
ENDTAB
  0
TABLE
  2
LTYPE
  5
5
330
0
100
AcDbSymbolTable
 70
     6
  0
LTYPE
  5
14
330
5
100
AcDbSymbolTableRecord
100
AcDbLinetypeTableRecord
  2
ByBlock
 70
     0
  3

 72
    65
 73
     0
 40
0.0
  0
LTYPE
  5
15
330
5
100
AcDbSymbolTableRecord
100
AcDbLinetypeTableRecord
  2
ByLayer
 70
     0
  3

 72
    65
 73
     0
 40
0.0
  0
LTYPE
  5
16
330
5
100
AcDbSymbolTableRecord
100
AcDbLinetypeTableRecord
  2
Continuous
 70
     0
  3
Solid line
 72
    65
 73
     0
 40
0.0
  0
LTYPE
  5
2D
330
5
100
AcDbSymbolTableRecord
100
AcDbLinetypeTableRecord
  2
DASHDOT
 70
     0
  3
Dash dot __ . __ . __ . __ . __ . __ . __ . __
 72
    65
 73
     4
 40
25.4
 49
12.7
 74
     0
 49
-6.349999999999999
 74
     0
 49
0.0
 74
     0
 49
-6.349999999999999
 74
     0
  0
LTYPE
  5
2E
330
5
100
AcDbSymbolTableRecord
100
AcDbLinetypeTableRecord
  2
HIDDEN
 70
     0
  3
Hidden __ __ __ __ __ __ __ __ __ __ __ __ __ _
 72
    65
 73
     2
 40
9.524999999999998
 49
6.349999999999999
 74
     0
 49
-3.174999999999999
 74
     0
  0
LTYPE
  5
C75
330
5
100
AcDbSymbolTableRecord
100
AcDbLinetypeTableRecord
  2
AM_ISO02W050
 70
     0
  3
__ __ __ __ __ __ __ __ __ __ __ __ __ __ __
 72
    65
 73
     2
 40
7.5
 49
6.0
 74
     0
 49
-1.5
 74
     0
  0
LTYPE
  5
C76
330
5
100
AcDbSymbolTableRecord
100
AcDbLinetypeTableRecord
  2
AM_ISO08W050
 70
     0
  3
____ . ____ . ____ . ____ . ____ . ____ . ____
 72
    65
 73
     4
 40
18.0
 49
12.0
 74
     0
 49
-1.5
 74
     0
 49
3.0
 74
     0
 49
-1.5
 74
     0
  0
LTYPE
  5
10BE
330
5
100
AcDbSymbolTableRecord
100
AcDbLinetypeTableRecord
  2
CENTER
 70
     0
  3
Center ____ _ ____ _ ____ _ ____ _ ____ _ ____
 72
    65
 73
     4
 40
10.16
 49
6.349999999999999
 74
     0
 49
-1.27
 74
     0
 49
1.27
 74
     0
 49
-1.27
 74
     0
  0
ENDTAB
  0
TABLE
  2
LAYER
  5
2
102
{ACAD_XDICTIONARY
360
1051
102
}
330
0
100
AcDbSymbolTable
 70
    17
  0
LAYER
  5
10
102
{ACAD_XDICTIONARY
360
135F
102
}
330
2
100
AcDbSymbolTableRecord
100
AcDbLayerTableRecord
  2
0
 70
     0
 62
     7
  6
Continuous
370
    -3
390
F
  0
LAYER
  5
2F
102
{ACAD_XDICTIONARY
360
1361
102
}
330
2
100
AcDbSymbolTableRecord
100
AcDbLayerTableRecord
  2
1
 70
     0
 62
     1
  6
Continuous
370
    -3
390
F
  0
LAYER
  5
30
102
{ACAD_XDICTIONARY
360
1363
102
}
330
2
100
AcDbSymbolTableRecord
100
AcDbLayerTableRecord
  2
2
 70
     0
 62
     2
  6
Continuous
370
    -3
390
F
  0
LAYER
  5
31
102
{ACAD_XDICTIONARY
360
1365
102
}
330
2
100
AcDbSymbolTableRecord
100
AcDbLayerTableRecord
  2
3
 70
     0
 62
     3
  6
Continuous
370
    -3
390
F
  0
LAYER
  5
32
102
{ACAD_XDICTIONARY
360
1367
102
}
330
2
100
AcDbSymbolTableRecord
100
AcDbLayerTableRecord
  2
4
 70
     0
 62
     4
  6
Continuous
370
    -3
390
F
  0
LAYER
  5
33
102
{ACAD_XDICTIONARY
360
1369
102
}
330
2
100
AcDbSymbolTableRecord
100
AcDbLayerTableRecord
  2
5
 70
     0
 62
     5
  6
Continuous
370
    -3
390
F
  0
LAYER
  5
34
102
{ACAD_XDICTIONARY
360
136B
102
}
330
2
100
AcDbSymbolTableRecord
100
AcDbLayerTableRecord
  2
6
 70
     0
 62
     6
  6
Continuous
370
    -3
390
F
  0
LAYER
  5
35
102
{ACAD_XDICTIONARY
360
136D
102
}
330
2
100
AcDbSymbolTableRecord
100
AcDbLayerTableRecord
  2
7
 70
     0
 62
     7
  6
Continuous
370
    -3
390
F
  0
LAYER
  5
36
102
{ACAD_XDICTIONARY
360
136F
102
}
330
2
100
AcDbSymbolTableRecord
100
AcDbLayerTableRecord
  2
cen
 70
     0
 62
     7
  6
DASHDOT
370
    -3
390
F
  0
LAYER
  5
37
102
{ACAD_XDICTIONARY
360
1371
102
}
330
2
100
AcDbSymbolTableRecord
100
AcDbLayerTableRecord
  2
hid
 70
     0
 62
     7
  6
HIDDEN
370
    -3
390
F
  0
LAYER
  5
5D6
102
{ACAD_XDICTIONARY
360
1373
102
}
330
2
100
AcDbSymbolTableRecord
100
AcDbLayerTableRecord
  2
hatch
 70
     0
 62
     9
  6
Continuous
370
    -3
390
F
  0
LAYER
  5
8AF
102
{ACAD_XDICTIONARY
360
1375
102
}
330
2
100
AcDbSymbolTableRecord
100
AcDbLayerTableRecord
  2
9
 70
     0
 62
     9
  6
Continuous
370
    -3
390
F
  0
LAYER
  5
8F8
102
{ACAD_XDICTIONARY
360
1377
102
}
330
2
100
AcDbSymbolTableRecord
100
AcDbLayerTableRecord
  2
leg fin
 70
     0
 62
     9
  6
Continuous
370
    -3
390
F
  0
LAYER
  5
91D
102
{ACAD_XDICTIONARY
360
1379
102
}
330
2
100
AcDbSymbolTableRecord
100
AcDbLayerTableRecord
  2
cotas
 70
     0
 62
     1
  6
Continuous
370
    -3
390
F
  0
LAYER
  5
92F
330
2
100
AcDbSymbolTableRecord
100
AcDbLayerTableRecord
  2
Defpoints
 70
     0
 62
     7
  6
Continuous
290
     0
370
    -3
390
F
  0
LAYER
  5
C7B
102
{ACAD_XDICTIONARY
360
137B
102
}
330
2
100
AcDbSymbolTableRecord
100
AcDbLayerTableRecord
  2
SANINDUSA
 70
     0
 62
     3
  6
Continuous
370
    -3
390
F
  0
LAYER
  5
1060
102
{ACAD_XDICTIONARY
360
137D
102
}
330
2
100
AcDbSymbolTableRecord
100
AcDbLayerTableRecord
  2
hid1
 70
     0
 62
     9
  6
HIDDEN
370
    -3
390
F
1001
AcAecLayerStandard
1000

1000

  0
ENDTAB
  0
TABLE
  2
STYLE
  5
3
330
0
100
AcDbSymbolTable
 70
     5
  0
STYLE
  5
11
330
3
100
AcDbSymbolTableRecord
100
AcDbTextStyleTableRecord
  2
Standard
 70
     0
 40
0.0
 41
1.0
 50
0.0
 71
     0
 42
2.5
  3
Avgardn.ttf
  4

1001
ACAD
1000
AvantGarde Bk BT
1071
       34
  0
STYLE
  5
2C
330
3
100
AcDbSymbolTableRecord
100
AcDbTextStyleTableRecord
  2

 70
     1
 40
0.0
 41
1.0
 50
0.0
 71
     0
 42
2.5
  3
ltypeshp.shx
  4

  0
STYLE
  5
91F
330
3
100
AcDbSymbolTableRecord
100
AcDbTextStyleTableRecord
  2
SANINDUSA
 70
     0
 40
0.0
 41
1.0
 50
0.0
 71
     0
 42
2.5
  3
verdana.TTF
  4

1001
ACAD
1000
Verdana
1071
       34
  0
STYLE
  5
C7C
330
3
100
AcDbSymbolTableRecord
100
AcDbTextStyleTableRecord
  2
futura
 70
     0
 40
0.0
 41
1.0
 50
0.0
 71
     0
 42
2.5
  3
zuricrm_.ttf
  4

1001
ACAD
1000
Zurich BT
1071
       34
  0
STYLE
  5
10BF
330
3
100
AcDbSymbolTableRecord
100
AcDbTextStyleTableRecord
  2
SLDTEXTSTYLE0
 70
     0
 40
0.0
 41
0.75
 50
0.0
 71
     0
 42
0.2
  3
TXT
  4

  0
ENDTAB
  0
TABLE
  2
VIEW
  5
6
330
0
100
AcDbSymbolTable
 70
     0
  0
ENDTAB
  0
TABLE
  2
UCS
  5
7
330
0
100
AcDbSymbolTable
 70
     0
  0
ENDTAB
  0
TABLE
  2
APPID
  5
9
330
0
100
AcDbSymbolTable
 70
    13
  0
APPID
  5
12
330
9
100
AcDbSymbolTableRecord
100
AcDbRegAppTableRecord
  2
ACAD
 70
     0
  0
APPID
  5
3A
330
9
100
AcDbSymbolTableRecord
100
AcDbRegAppTableRecord
  2
DCO15
 70
     0
  0
APPID
  5
EEE
330
9
100
AcDbSymbolTableRecord
100
AcDbRegAppTableRecord
  2
ACAD_DSTYLE_DIMTEXT_FILL
 70
     0
  0
APPID
  5
EEF
330
9
100
AcDbSymbolTableRecord
100
AcDbRegAppTableRecord
  2
ACAD_DSTYLE_DIMEXT_LENGTH
 70
     0
  0
APPID
  5
EF0
330
9
100
AcDbSymbolTableRecord
100
AcDbRegAppTableRecord
  2
ACAD_DSTYLE_DIMEXT_ENABLED
 70
     0
  0
APPID
  5
EF1
330
9
100
AcDbSymbolTableRecord
100
AcDbRegAppTableRecord
  2
ACAD_DSTYLE_DIM_LINETYPE
 70
     0
  0
APPID
  5
EF2
330
9
100
AcDbSymbolTableRecord
100
AcDbRegAppTableRecord
  2
ACAD_DSTYLE_DIM_EXT1_LINETYPE
 70
     0
  0
APPID
  5
EF3
330
9
100
AcDbSymbolTableRecord
100
AcDbRegAppTableRecord
  2
ACAD_DSTYLE_DIM_EXT2_LINETYPE
 70
     0
  0
APPID
  5
FAF
330
9
100
AcDbSymbolTableRecord
100
AcDbRegAppTableRecord
  2
ACAD_DSTYLE_DIMJOGGED_JOGANGLE_SYMBOL
 70
     0
  0
APPID
  5
1013
330
9
100
AcDbSymbolTableRecord
100
AcDbRegAppTableRecord
  2
ACAD_DSTYLE_DIMARC_LENGTH_SYMBOL
 70
     0
  0
APPID
  5
1061
330
9
100
AcDbSymbolTableRecord
100
AcDbRegAppTableRecord
  2
AcAecLayerStandard
 70
     0
  0
APPID
  5
135E
330
9
100
AcDbSymbolTableRecord
100
AcDbRegAppTableRecord
  2
ACAD_DSTYLE_DIMRADIAL_EXTENSION
 70
     0
  0
APPID
  5
13F7
330
9
100
AcDbSymbolTableRecord
100
AcDbRegAppTableRecord
  2
ACAD_MLEADERVER
 70
     0
  0
ENDTAB
  0
TABLE
  2
DIMSTYLE
  5
A
330
0
100
AcDbSymbolTable
 70
     4
100
AcDbDimStyleTable
 71
     1
340
921
  0
DIMSTYLE
105
45
330
A
100
AcDbSymbolTableRecord
100
AcDbDimStyleTableRecord
  2
STANDARD
 70
     0
289
     0
340
11
  0
DIMSTYLE
105
921
330
A
100
AcDbSymbolTableRecord
100
AcDbDimStyleTableRecord
  2
SANINDUSA
 70
     0
 41
2.0
 42
1.0
 43
1.0
 44
1.0
 73
     0
 74
     0
 77
     1
 78
     8
140
2.0
141
0.0
143
0.03937007874016
147
1.0
171
     3
172
     1
176
   256
177
   256
178
   256
179
     1
271
     1
272
     1
274
     3
278
    44
283
     0
284
     8
340
91F
371
    -1
372
    -1
1001
ACAD_DSTYLE_DIMJOGGED_JOGANGLE_SYMBOL
1070
   384
1040
1.570796326794896
  0
DIMSTYLE
105
C7D
330
A
100
AcDbSymbolTableRecord
100
AcDbDimStyleTableRecord
  2
AM_ISO
 70
     0
  4
"
 41
2.5
 42
1.0
 43
10.0
 44
1.0
 47
0.1
 48
0.1
 73
     0
 74
     0
 77
     1
 78
     8
 79
     2
140
3.5
141
0.0
143
0.0393701
146
0.71
147
1.5
172
     1
176
   256
177
   256
178
     2
271
     2
272
     3
274
     4
283
     0
284
     8
340
11
371
    -1
372
    -1
  0
DIMSTYLE
105
10C0
330
A
100
AcDbSymbolTableRecord
100
AcDbDimStyleTableRecord
  2
ISO-25
 70
     0
 41
2.5
 42
0.625
 43
3.75
 44
1.25
 73
     0
 74
     0
 77
     1
 78
     8
140
2.5
141
2.5
143
0.03937007874016
147
0.625
171
     3
172
     1
271
     2
272
     2
274
     3
278
    44
283
     0
284
     8
340
11
  0
ENDTAB
  0
TABLE
  2
BLOCK_RECORD
  5
1
330
0
100
AcDbSymbolTable
 70
     8
  0
BLOCK_RECORD
  5
1F
330
1
100
AcDbSymbolTableRecord
100
AcDbBlockTableRecord
  2
*Model_Space
340
22
  0
BLOCK_RECORD
  5
1B
330
1
100
AcDbSymbolTableRecord
100
AcDbBlockTableRecord
  2
*Paper_Space
340
1E
  0
BLOCK_RECORD
  5
23
330
1
100
AcDbSymbolTableRecord
100
AcDbBlockTableRecord
  2
*Paper_Space0
340
26
  0
BLOCK_RECORD
  5
919
330
1
100
AcDbSymbolTableRecord
100
AcDbBlockTableRecord
  2
_DotSmall
340
0
  0
BLOCK_RECORD
  5
922
330
1
100
AcDbSymbolTableRecord
100
AcDbBlockTableRecord
  2
base para cotas
340
0
310
2800000020000000200000000100080000000000000400000000000000000000000000000000000000000000000080000080000000808000800000008000800080800000C0C0C000C0DCC000F0CAA6000020400000206000002080000020A0000020C0000020E00000400000004020000040400000406000004080000040A0
310
000040C0000040E00000600000006020000060400000606000006080000060A0000060C0000060E00000800000008020000080400000806000008080000080A0000080C0000080E00000A0000000A0200000A0400000A0600000A0800000A0A00000A0C00000A0E00000C0000000C0200000C0400000C0600000C0800000C0
310
A00000C0C00000C0E00000E0000000E0200000E0400000E0600000E0800000E0A00000E0C00000E0E00040000000400020004000400040006000400080004000A0004000C0004000E00040200000402020004020400040206000402080004020A0004020C0004020E000404000004040200040404000404060004040800040
310
40A0004040C0004040E00040600000406020004060400040606000406080004060A0004060C0004060E00040800000408020004080400040806000408080004080A0004080C0004080E00040A0000040A0200040A0400040A0600040A0800040A0A00040A0C00040A0E00040C0000040C0200040C0400040C0600040C08000
310
40C0A00040C0C00040C0E00040E0000040E0200040E0400040E0600040E0800040E0A00040E0C00040E0E00080000000800020008000400080006000800080008000A0008000C0008000E00080200000802020008020400080206000802080008020A0008020C0008020E00080400000804020008040400080406000804080
310
008040A0008040C0008040E00080600000806020008060400080606000806080008060A0008060C0008060E00080800000808020008080400080806000808080008080A0008080C0008080E00080A0000080A0200080A0400080A0600080A0800080A0A00080A0C00080A0E00080C0000080C0200080C0400080C0600080C0
310
800080C0A00080C0C00080C0E00080E0000080E0200080E0400080E0600080E0800080E0A00080E0C00080E0E000C0000000C0002000C0004000C0006000C0008000C000A000C000C000C000E000C0200000C0202000C0204000C0206000C0208000C020A000C020C000C020E000C0400000C0402000C0404000C0406000C0
310
408000C040A000C040C000C040E000C0600000C0602000C0604000C0606000C0608000C060A000C060C000C060E000C0800000C0802000C0804000C0806000C0808000C080A000C080C000C080E000C0A00000C0A02000C0A04000C0A06000C0A08000C0A0A000C0A0C000C0A0E000C0C00000C0C02000C0C04000C0C06000
310
C0C08000C0C0A000F0FBFF00A4A0A000808080000000FF0000FF000000FFFF00FF000000FF00FF00FFFF0000FFFFFF00A4A4A4A4A4A4A4A4A4A4A4A4A4A4A4A4A4A4A4A4A4A4A4A4A4A4A4A4A4A4A4A4A4A4A4A4A4A4A4A4A4A4A4A4A4A4A4A4A4A4A4A4A4A4A4A4A4A4A4A4A4A4A4A4A4A4A4A4A4A4A4A4A4A4A4A4A4A4A4
310
A4A4A4A4A4A4A4A4A4A4A4A4A4A4A4A4A4A4A4A4A4A4A4A4A4A4A4A4A4A4A4A4A4A4A4A4A4A4A4A4A4A4A4A4A4A4A4A4A4A4A4A4A4A4A4A4A4A4A4A4A4A4A4A4A4A4A4A4A4A4A4A4A4A4A4A4A4A4A4A4A4A4A4A4A4A4A4A4A4A4A4A4A4A4A4A4A4A4A4A4A4A4A4A4A4A4A4A4A4A4A4A4A4A4A4A4A4A4A4A4A4A4A4A4A4A4A4
310
A4A4A4A4A4A4A4A4A4A4A4A4A4A4A4A4A4A4A4A4A4A4A4A4A4A4A4A4A4A4A4A4A4A4A4A4A4A4A4A4A4A4A4A4A4A4A4A4A4A4A4A4A4A4A4A4A4A4A4A4A4A4A4A4A4A4A4A4A4A4A4A4A4A4A4A4A4A4A4A4A4A4A4A4A4A4A4A4A4A4A4A4A4A4A4A4A4A4A4A4A4A4A4A4A4A4A4A4A4A4A4A4A4A4A4A4A4A4A4A4A4A4A4A4A4A4A4
310
A4A4A4A4A4A4A4A4A4A4A4A4A4A4A4A4A4A4A4A4A4A4A4A4A4A4A4A4A4A4A4A4A4A4A4A4A4A4A4A4A4A4A4A4A4A4A4A4A4A4A4A4A4A4A4A4A4A4A4A4A4A4A4A4A4A4A4A4A4A4A4A4A4A4A4A4A4A4A4A4A4A4A4A4A4A4A4A4A4A4A4A4A4A4A4A4A4A4A4A4A4A4A4A4A4A4A4A4A4A4A4A4A4A4A4A4F9F9F9F9F9F9F9F9F9F9F9
310
F9F9F9F9F9F9F9F9F9F9F9F9F9F9F9F9F9F9F9A4A4F9F9F9F9F9F9F9F9F9F9F9F9F9F9F9F9F9F9F9F9F9F9F9F9F9F9F9F9F9F9A4A4F9F9F9F9F9F9F9F9F9F9F9F9F9F9F9F9F9F9F9F9F9F9F9F9F9F9F9F9F9F9A4A4F9A4A4A4A4A4A4A4A4A4A4A4A4A4A4A4A4A4A4A4A4A4A4A4A4A4A4A4A4F9A4A4A4A4A4A4A4A4A4A4A4A4
310
A4A4A4A4A4A4A4A4A4A4A4A4A4A4A4A4A4A4A4A4A4A4A4A4A4A4A4A4A4A4A4A4A4A4A4A4A4A4A4A4A4A4A4A4A4A4A4A4A4A4A4A4A4A4A4A4A4A4A4A4A4A4A4A4A4A4A4A4A4A4A4A4A4A4A4A4A4A4A4A4A4A4A4A4A4A4A4A4A4A4A4A4A4A4A4A4A4A4A4A4A4A4A4A4A4A4A4A4A4A4A4A4A4A4A4A4A4A4A4A4A4A4A4A4A4A4A4
310
A4A4A4A4A4A4A4A4A4A4A4A4A4A4A4A4A4A4A4A4A4A4A4A4A4A4A4A4A4A4A4A4A4A4A4A4A4A4A4A4A4A4A4A4A4A4A4A4A4A4A4A4A4A4A4A4A4A4A4A4A4A4A4A4A4A4A4A4A4A4A4A4A4A4A4A4A4A4A4A4A4A4A4A4A4A4A4A4A4A4A4A4A4A4A4A4A4A4A4A4A4A4A4A4A4A4A4A4A4A4A4A4A4A4A4A4A4A4A4A4A4A4A4A4A4A4A4
310
A4A4A4A4A4A4A4A4A4A4A4A4A4A4A4A4A4A4A4A4A4A4A4A4A4A4A4A4A4A4A4A4A4A4A4A4A4A4A4A4A4A4A4A4A4A4A4A4A4A4A4A4A4A4A4A4A4A4A4A4A4A4A4A4A4A4A4A4A4A4A4A4A4A4A4A4A4A4A4A4A4A4A4A4A4A4A4A4A4A4A4A4A4A4A4A4A4A4A4A4A4A4A4A4A4A4A4A4A4A4A4A4A4A4A4A4A4A4A4A4A4A4A4A4A4A4A4
310
A4A4A4A4A4A4A4A4A4A4A4A4A4A4A4A4A4A4A4A4A4A4A4A4A4A4A4A4A4A4A4A4A4A4A4A4A4A4A4A4A4A4A4A4A4A4A4A4A4A4A4A4A4A4A4A4
1001
ACAD
1000
DesignCenter Data
1002
{
1070
     1
1070
     4
1002
}
  0
BLOCK_RECORD
  5
AA8
330
1
100
AcDbSymbolTableRecord
100
AcDbBlockTableRecord
  2
_CLOSED
340
0
  0
BLOCK_RECORD
  5
B79
330
1
100
AcDbSymbolTableRecord
100
AcDbBlockTableRecord
  2
nota revisoes
340
0
1001
ACAD
1000
DesignCenter Data
1002
{
1070
     1
1070
     4
1002
}
  0
BLOCK_RECORD
  5
B8E
330
1
100
AcDbSymbolTableRecord
100
AcDbBlockTableRecord
  2
a3l
340
0
1001
ACAD
1000
DesignCenter Data
1002
{
1070
     1
1070
     4
1002
}
  0
BLOCK_RECORD
  5
B9E
330
1
100
AcDbSymbolTableRecord
100
AcDbBlockTableRecord
  2
legenda desenvolvimento
340
0
1001
ACAD
1000
DesignCenter Data
1002
{
1070
     1
1070
     4
1002
}
  0
BLOCK_RECORD
  5
10B3
330
1
100
AcDbSymbolTableRecord
100
AcDbBlockTableRecord
  2
SW_CENTERMARKSYMBOL_0
340
0
  0
ENDTAB
  0
ENDSEC
  0
SECTION
  2
BLOCKS
  0
BLOCK
  5
20
330
1F
100
AcDbEntity
  8
0
100
AcDbBlockBegin
  2
*Model_Space
 70
     0
 10
0.0
 20
0.0
 30
0.0
  3
*Model_Space
  1

  0
ENDBLK
  5
21
330
1F
100
AcDbEntity
  8
0
100
AcDbBlockEnd
  0
BLOCK
  5
1C
330
1B
100
AcDbEntity
 67
     1
  8
0
100
AcDbBlockBegin
  2
*Paper_Space
 70
     0
 10
0.0
 20
0.0
 30
0.0
  3
*Paper_Space
  1

  0
ENDBLK
  5
1D
330
1B
100
AcDbEntity
 67
     1
  8
0
100
AcDbBlockEnd
  0
BLOCK
  5
24
330
23
100
AcDbEntity
 67
     1
  8
0
100
AcDbBlockBegin
  2
*Paper_Space0
 70
     0
 10
0.0
 20
0.0
 30
0.0
  3
*Paper_Space0
  1

  0
ENDBLK
  5
25
330
23
100
AcDbEntity
 67
     1
  8
0
100
AcDbBlockEnd
  0
BLOCK
  5
91B
330
919
100
AcDbEntity
  8
0
100
AcDbBlockBegin
  2
_DotSmall
 70
     0
 10
0.0
 20
0.0
 30
0.0
  3
_DotSmall
  1

  0
LWPOLYLINE
  5
91A
330
919
100
AcDbEntity
  8
0
  6
ByBlock
 62
     0
100
AcDbPolyline
 90
        2
 70
     1
 43
0.5
 10
-0.0625
 20
0.0
 42
1.0
 10
0.0625
 20
0.0
 42
1.0
  0
ENDBLK
  5
91C
330
919
100
AcDbEntity
  8
0
100
AcDbBlockEnd
  0
BLOCK
  5
92A
330
922
100
AcDbEntity
  8
0
100
AcDbBlockBegin
  2
base para cotas
 70
     0
 10
0.0
 20
0.0
 30
0.0
  3
base para cotas
  1

  0
LINE
  5
B36
330
922
100
AcDbEntity
  8
cotas
100
AcDbLine
 10
0.0
 20
-30.0
 30
0.0
 11
327.1260136525398
 21
-30.0
 31
0.0
  0
LINE
  5
B37
330
922
100
AcDbEntity
  8
cotas
100
AcDbLine
 10
0.0
 20
-25.0
 30
0.0
 11
327.1260136525398
 21
-25.0
 31
0.0
  0
LINE
  5
B38
330
922
100
AcDbEntity
  8
cotas
100
AcDbLine
 10
0.0
 20
-20.0
 30
0.0
 11
327.1260136525398
 21
-20.0
 31
0.0
  0
LINE
  5
B39
330
922
100
AcDbEntity
  8
cotas
100
AcDbLine
 10
0.0
 20
-15.0
 30
0.0
 11
327.1260136525398
 21
-15.0
 31
0.0
  0
LINE
  5
B3A
330
922
100
AcDbEntity
  8
cotas
100
AcDbLine
 10
0.0
 20
-10.0
 30
0.0
 11
327.1260136525398
 21
-10.0
 31
0.0
  0
LINE
  5
B3B
330
922
100
AcDbEntity
  8
cotas
100
AcDbLine
 10
0.0
 20
0.0
 30
0.0
 11
0.0
 21
-30.0
 31
0.0
  0
LINE
  5
B3C
330
922
100
AcDbEntity
  8
cotas
100
AcDbLine
 10
327.1260136525398
 20
-30.0
 30
0.0
 11
327.1260136525398
 21
0.0
 31
0.0
  0
ENDBLK
  5
92B
330
922
100
AcDbEntity
  8
0
100
AcDbBlockEnd
  0
BLOCK
  5
AAD
330
AA8
100
AcDbEntity
  8
0
100
AcDbBlockBegin
  2
_CLOSED
 70
     0
 10
0.0
 20
0.0
 30
0.0
  3
_CLOSED
  1

  0
LINE
  5
AA9
330
AA8
100
AcDbEntity
  8
0
100
AcDbLine
 10
-1.0
 20
0.166667
 30
0.0
 11
0.0
 21
0.0
 31
0.0
  0
LINE
  5
AAA
330
AA8
100
AcDbEntity
  8
0
100
AcDbLine
 10
0.0
 20
0.0
 30
0.0
 11
-1.0
 21
-0.166667
 31
0.0
  0
LINE
  5
AAB
330
AA8
100
AcDbEntity
  8
0
100
AcDbLine
 10
-1.0
 20
0.166667
 30
0.0
 11
-1.0
 21
-0.166667
 31
0.0
  0
LINE
  5
AAC
330
AA8
100
AcDbEntity
  8
0
100
AcDbLine
 10
0.0
 20
0.0
 30
0.0
 11
-1.0
 21
0.0
 31
0.0
  0
ENDBLK
  5
AAE
330
AA8
100
AcDbEntity
  8
0
100
AcDbBlockEnd
  0
BLOCK
  5
B7C
330
B79
100
AcDbEntity
  8
0
100
AcDbBlockBegin
  2
nota revisoes
 70
     0
 10
0.0
 20
0.0
 30
0.0
  3
nota revisoes
  1

  0
CIRCLE
  5
B7A
330
B79
100
AcDbEntity
  8
4
100
AcDbCircle
 10
0.0
 20
0.0
 30
0.0
 40
13.69426055101189
  0
TEXT
  5
B7B
330
B79
100
AcDbEntity
  8
4
100
AcDbText
 10
-5.496248358154345
 20
-5.354545554066362
 30
0.0
 40
12.0
  1
1
  7
SANINDUSA
 72
     1
 11
-0.249774214433728
 21
-5.354545554066362
 31
0.0
100
AcDbText
  0
ENDBLK
  5
B7D
330
B79
100
AcDbEntity
  8
0
100
AcDbBlockEnd
  0
BLOCK
  5
B9C
330
B8E
100
AcDbEntity
  8
0
100
AcDbBlockBegin
  2
a3l
 70
     0
 10
0.0
 20
0.0
 30
0.0
  3
a3l
  1

  0
LINE
  5
B8F
330
B8E
100
AcDbEntity
  8
1
100
AcDbLine
 10
-364.2925296599447
 20
-362.1188951399395
 30
0.0
 11
-364.2925296599447
 21
-65.11889513993946
 31
0.0
  0
LINE
  5
B90
330
B8E
100
AcDbEntity
  8
4
100
AcDbLine
 10
-369.2925296599447
 20
-357.1188951399395
 30
0.0
 11
-369.2925296599447
 21
-70.11889513993946
 31
0.0
  0
LINE
  5
B91
330
B8E
100
AcDbEntity
  8
1
100
AcDbLine
 10
-784.2925296599446
 20
-65.11889513993946
 30
0.0
 11
-784.2925296599446
 21
-362.1188951399395
 31
0.0
  0
LINE
  5
B92
330
B8E
100
AcDbEntity
  8
4
100
AcDbLine
 10
-759.2925296599446
 20
-357.1188951399395
 30
0.0
 11
-759.2925296599446
 21
-70.11889513993946
 31
0.0
  0
LINE
  5
B93
330
B8E
100
AcDbEntity
  8
1
100
AcDbLine
 10
-784.2925296599446
 20
-362.1188951399395
 30
0.0
 11
-364.2925296599447
 21
-362.1188951399395
 31
0.0
  0
LINE
  5
B94
330
B8E
100
AcDbEntity
  8
4
100
AcDbLine
 10
-759.2925296599446
 20
-357.1188951399395
 30
0.0
 11
-369.2925296599447
 21
-357.1188951399395
 31
0.0
  0
LINE
  5
B95
330
B8E
100
AcDbEntity
  8
1
100
AcDbLine
 10
-654.2925296599446
 20
-357.1188951399395
 30
0.0
 11
-654.2925296599446
 21
-362.1188951399395
 31
0.0
  0
LINE
  5
B96
330
B8E
100
AcDbEntity
  8
1
100
AcDbLine
 10
-364.2925296599447
 20
-65.11889513993946
 30
0.0
 11
-784.2925296599446
 21
-65.11889513993946
 31
0.0
  0
LINE
  5
B97
330
B8E
100
AcDbEntity
  8
4
100
AcDbLine
 10
-369.2925296599447
 20
-70.11889513993946
 30
0.0
 11
-759.2925296599446
 21
-70.11889513993946
 31
0.0
  0
LINE
  5
B98
330
B8E
100
AcDbEntity
  8
1
100
AcDbLine
 10
-654.2925296599446
 20
-65.11889513993946
 30
0.0
 11
-654.2925296599446
 21
-70.11889513993946
 31
0.0
  0
LINE
  5
B99
330
B8E
100
AcDbEntity
  8
1
100
AcDbLine
 10
-549.2925296599446
 20
-70.11889513993946
 30
0.0
 11
-549.2925296599446
 21
-65.11889513993946
 31
0.0
  0
LINE
  5
B9A
330
B8E
100
AcDbEntity
  8
1
100
AcDbLine
 10
-369.2925296599447
 20
-65.11889513993946
 30
0.0
 11
-364.2925296599447
 21
-65.11889513993946
 31
0.0
  0
LINE
  5
B9B
330
B8E
100
AcDbEntity
  8
1
100
AcDbLine
 10
-549.2925296599446
 20
-357.1188951399395
 30
0.0
 11
-549.2925296599446
 21
-362.1188951399395
 31
0.0
  0
ENDBLK
  5
B9D
330
B8E
100
AcDbEntity
  8
0
100
AcDbBlockEnd
  0
BLOCK
  5
C13
330
B9E
100
AcDbEntity
  8
0
100
AcDbBlockBegin
  2
legenda desenvolvimento
 70
     2
 10
0.0
 20
0.0
 30
0.0
  3
legenda desenvolvimento
  1

  0
ATTDEF
  5
B9F
330
B9E
100
AcDbEntity
  8
1
100
AcDbText
 10
-108.606245802552
 20
55.5
 30
0.0
 40
4.0
  1
XXXXXXXXXXXXXX
 41
0.8
  7
SANINDUSA
 72
     4
 11
-87.5
 21
57.5
 31
0.0
100
AcDbAttributeDefinition
  3
Nome do Produto:
  2
PRODUTO
 70
     0
  0
ATTDEF
  5
BA0
330
B9E
100
AcDbEntity
  8
1
100
AcDbText
 10
-97.9997966101695
 20
41.25
 30
0.0
 40
3.0
  1
XXXXXXXXX
 41
0.8
  7
futura
 72
     4
 11
-87.5
 21
42.75
 31
0.0
100
AcDbAttributeDefinition
  3
Nome da Peça:
  2
PECA
 70
     0
  0
ATTDEF
  5
BA1
330
B9E
100
AcDbEntity
  8
1
100
AcDbText
 10
-133.4422431161853
 20
21.11745296763252
 30
0.0
 40
2.5
  1
X
 41
0.8
  7
SANINDUSA
 72
     4
 11
-132.5
 21
22.36745296763252
 31
0.0
100
AcDbAttributeDefinition
  3
Cod. TESTE:
  2
TESTE
 70
     0
  0
ATTDEF
  5
BA2
330
B9E
100
AcDbEntity
  8
1
100
AcDbText
 10
-124.3844862323707
 20
21.11745296763252
 30
0.0
 40
2.5
  1
XX
 41
0.8
  7
SANINDUSA
 72
     4
 11
-122.5
 21
22.36745296763252
 31
0.0
100
AcDbAttributeDefinition
  3
Cod. Ano:
  2
ANO
 70
     0
  0
ATTDEF
  5
BA3
330
B9E
100
AcDbEntity
  8
1
100
AcDbText
 10
-112.526889953052
 20
21.11745296763252
 30
0.0
 40
2.5
  1
XXX
 41
0.8
  7
SANINDUSA
 72
     4
 11
-109.700160604496
 21
22.36745296763252
 31
0.0
100
AcDbAttributeDefinition
  3
Cod. Sequência:
  2
SEQUENCIA
 70
     0
  0
ATTDEF
  5
BA4
330
B9E
100
AcDbEntity
  8
1
100
AcDbText
 10
-99.35382430979316
 20
21.11745296763252
 30
0.0
 40
2.5
  1
XX
 41
0.8
  7
SANINDUSA
 72
     4
 11
-97.46933807742244
 21
22.36745296763252
 31
0.0
100
AcDbAttributeDefinition
  3
Cod. Tipo:
  2
TIPO
 70
     0
  0
ATTDEF
  5
BA5
330
B9E
100
AcDbEntity
  8
1
100
AcDbText
 10
-87.42035911468438
 20
21.11745296763252
 30
0.0
 40
2.5
  1
XXX
 41
0.8
  7
SANINDUSA
 72
     4
 11
-84.59362976612828
 21
22.36745296763252
 31
0.0
100
AcDbAttributeDefinition
  3
Cod. Produto:
  2
PRODUTO
 70
     0
  0
ATTDEF
  5
BA6
330
B9E
100
AcDbEntity
  8
1
100
AcDbText
 10
-74.62051971917853
 20
21.11745296763252
 30
0.0
 40
2.5
  1
XXX
 41
0.8
  7
SANINDUSA
 72
     4
 11
-71.79379037062244
 21
22.36745296763252
 31
0.0
100
AcDbAttributeDefinition
  3
Cod. Peça:
  2
PECA
 70
     0
  0
ATTDEF
  5
BA7
330
B9E
100
AcDbEntity
  8
1
100
AcDbText
 10
-61.10603446650329
 20
21.11745296763252
 30
0.0
 40
2.5
  1
XX
 41
0.8
  7
SANINDUSA
 72
     4
 11
-59.22154823413257
 21
22.36745296763252
 31
0.0
100
AcDbAttributeDefinition
  3
Cod. Revisão:
  2
REV
 70
     0
  0
ATTDEF
  5
BA8
330
B9E
100
AcDbEntity
  8
1
100
AcDbText
 10
-48.43615325006194
 20
21.11745296763252
 30
0.0
 40
2.5
  1
XX
 41
0.8
  7
SANINDUSA
 72
     4
 11
-46.55166701769121
 21
22.36745296763252
 31
0.0
100
AcDbAttributeDefinition
  3
Cod. Alteração:
  2
ALT
 70
     0
  0
ATTDEF
  5
BA9
330
B9E
100
AcDbEntity
  8
1
100
AcDbText
 10
-35.19086635325722
 20
23.98875083948959
 30
0.0
 40
3.0
  1
1/XXX
 41
0.8
  7
SANINDUSA
 72
     4
 11
-30.0
 21
25.25
 31
0.0
100
AcDbAttributeDefinition
  3
Escala geral:
  2
ESCALA
 70
     0
  0
ATTDEF
  5
BAA
330
B9E
100
AcDbEntity
  8
1
100
AcDbText
 10
-15.65345869711215
 20
23.75
 30
0.0
 40
3.0
  1
XXXXX
 41
0.8
  7
SANINDUSA
 72
     4
 11
-10.0
 21
25.25
 31
0.0
100
AcDbAttributeDefinition
  3
Folha:
  2
FOLHA
 70
     0
  0
ATTDEF
  5
BAB
330
B9E
100
AcDbEntity
  8
1
100
AcDbText
 10
-178.5146998822042
 20
56.9531347542807
 30
0.0
 40
2.0
  1
xx
 41
0.8
  7
SANINDUSA
 72
     4
 11
-177.2123493113513
 21
57.70330265219877
 31
0.0
100
AcDbAttributeDefinition
  3
revisão
  2
REV.
 70
     0
  0
ATTDEF
  5
BAC
330
B9E
100
AcDbEntity
  8
1
100
AcDbText
 10
-172.7849640077129
 20
56.9531347542807
 30
0.0
 40
2.0
  1
xx
 41
0.8
  7
SANINDUSA
 72
     4
 11
-171.48261343686
 21
57.70330265219877
 31
0.0
100
AcDbAttributeDefinition
  3
alteração
  2
ALT.
 70
     0
  0
ATTDEF
  5
BAD
330
B9E
100
AcDbEntity
  8
1
100
AcDbText
 10
-168.007199951307
 20
56.70330265219877
 30
0.0
 40
2.0
  1
xx/xx/xxxx
 41
0.8
  7
SANINDUSA
 11
-168.007199951307
 21
57.70330265219877
 31
0.0
100
AcDbAttributeDefinition
  3
data
  2
DATA
 70
     0
 74
     2
  0
ATTDEF
  5
BAE
330
B9E
100
AcDbEntity
  8
1
100
AcDbText
 10
-168.5396372253371
 20
13.15916722632639
 30
0.0
 40
2.0
  1
XX/XX/XXXX
 41
0.8
  7
SANINDUSA
 72
     4
 11
-161.5099528734231
 21
14.0
 31
0.0
100
AcDbAttributeDefinition
  3
Data projecto
  2
DATA_PROJ
 70
     0
  0
ATTDEF
  5
BAF
330
B9E
100
AcDbEntity
  8
1
100
AcDbText
 10
-150.8658110728766
 20
13.24983210208193
 30
0.0
 40
2.0
  1
xxxxxxxx
 41
0.8
  7
SANINDUSA
 72
     4
 11
-145.6564087894649
 21
14.0
 31
0.0
100
AcDbAttributeDefinition
  3
nome de quem projectou
  2
NOME
 70
     0
  0
ATTDEF
  5
BB0
330
B9E
100
AcDbEntity
  8
1
100
AcDbText
 10
-168.5396372253371
 20
9.159167226326394
 30
0.0
 40
2.0
  1
XX/XX/XXXX
 41
0.8
  7
SANINDUSA
 72
     4
 11
-161.5099528734231
 21
10.0
 31
0.0
100
AcDbAttributeDefinition
  3
Data desenhou
  2
DATA_DES
 70
     0
  0
ATTDEF
  5
BB1
330
B9E
100
AcDbEntity
  8
1
100
AcDbText
 10
-151.516986358303
 20
9.249832102081933
 30
0.0
 40
2.0
  1
xxxxxxxxx
 41
0.8
  7
SANINDUSA
 72
     4
 11
-145.6564087894649
 21
10.0
 31
0.0
100
AcDbAttributeDefinition
  3
nome
  2
NOME
 70
     0
  0
ATTDEF
  5
BB2
330
B9E
100
AcDbEntity
  8
1
100
AcDbText
 10
-127.2924214135946
 20
14.1979876583216
 30
0.0
 40
2.0
  1
Vitreous China
 41
0.8
  7
SANINDUSA
 72
     4
 11
-119.231709526422
 21
15.22216495852308
 31
0.0
100
AcDbAttributeDefinition
  3
Nome do Material:
  2
MATERIAL
 70
     0
  0
ATTDEF
  5
BB3
330
B9E
100
AcDbEntity
  8
1
100
AcDbText
 10
-103.1563452122093
 20
14.38019043949261
 30
0.0
 40
2.0
  1
Branco
 41
0.8
  7
SANINDUSA
 72
     4
 11
-99.33418268702462
 21
15.35937109765245
 31
0.0
100
AcDbAttributeDefinition
  3
cor da peça
  2
COR
 70
     0
  0
ATTDEF
  5
BB4
330
B9E
100
AcDbEntity
  8
1
100
AcDbText
 10
-116.7235057085292
 20
5.975822699798522
 30
0.0
 40
2.0
  1
Vidrado
 41
0.8
  7
SANINDUSA
 72
     4
 11
-112.5
 21
7.0
 31
0.0
100
AcDbAttributeDefinition
  3
Tipo de acabamento:
  2
ACABAMENTO
 70
     0
  0
ATTDEF
  5
BB5
330
B9E
100
AcDbEntity
  8
1
100
AcDbText
 10
-79.18527869967246
 20
16.65066409850533
 30
0.0
 40
2.0
  1
XXXXXXX
 41
0.8
  7
SANINDUSA
 72
     4
 11
-73.90871724903445
 21
17.65066409850533
 31
0.0
100
AcDbAttributeDefinition
  3
Normas
  2
NORMAS
 70
     0
  0
ATTDEF
  5
BB6
330
B9E
100
AcDbEntity
  8
1
100
AcDbText
 10
-30.55312290127603
 20
14.0
 30
0.0
 40
2.0
  1
XXXXXXXXXXXXXX
 41
0.8
  7
SANINDUSA
 72
     4
 11
-20.0
 21
15.0
 31
0.0
100
AcDbAttributeDefinition
  3
Substitui o desenho:
  2
SUBSTITUI
 70
     0
  0
ATTDEF
  5
BB7
330
B9E
100
AcDbEntity
  8
1
100
AcDbText
 10
-31.30691739422431
 20
6.0
 30
0.0
 40
2.0
  1
XXXXXXXXXXXXXXX
 41
0.8
  7
SANINDUSA
 72
     4
 11
-20.0
 21
7.0
 31
0.0
100
AcDbAttributeDefinition
  3
Substituido por:
  2
SUBSTITUIDO
 70
     0
  0
ATTDEF
  5
BB8
330
B9E
100
AcDbEntity
  8
1
100
AcDbText
 10
-110.0220608548302
 20
1.478208457928303
 30
0.0
 40
2.0
  1
XXXXXXXXXXXXXXXXXXXXXXXXXXXXXXXXXX
 41
0.8
  7
SANINDUSA
 11
-110.0220608548302
 21
2.478208457928303
 31
0.0
100
AcDbAttributeDefinition
  3
Localização do desenho:
  2
LOC-DWG
 70
     0
 74
     2
  0
LINE
  5
BB9
330
B9E
100
AcDbEntity
  8
3
100
AcDbLine
 10
-135.0
 20
4.0
 30
0.0
 11
0.0000000000004547
 21
4.0
 31
0.0
  0
LINE
  5
BBA
330
B9E
100
AcDbEntity
  8
3
100
AcDbLine
 10
-90.00000000000046
 20
12.0
 30
0.0
 11
-135.0
 21
12.0
 31
0.0
  0
LINE
  5
BBB
330
B9E
100
AcDbEntity
  8
3
100
AcDbLine
 10
-135.0
 20
32.5
 30
0.0
 11
-40.0
 21
32.5
 31
0.0
  0
TEXT
  5
BBC
330
B9E
100
AcDbEntity
  8
1
100
AcDbText
 10
-134.0
 20
1.25
 30
0.0
 40
2.0
  1
Localização do des.:
 41
0.8
  7
SANINDUSA
 11
-134.0
 21
2.25
 31
0.0
100
AcDbText
 73
     2
  0
LINE
  5
BBD
330
B9E
100
AcDbEntity
  8
3
100
AcDbLine
 10
-180.0
 20
65.0
 30
0.0
 11
0.0
 21
65.0
 31
0.0
  0
LINE
  5
BBE
330
B9E
100
AcDbEntity
  8
leg fin
100
AcDbLine
 10
-40.0
 20
25.05956924886846
 30
0.0
 11
-135.0
 21
25.05956924886846
 31
0.0
  0
LINE
  5
BBF
330
B9E
100
AcDbEntity
  8
leg fin
100
AcDbLine
 10
-40.0
 20
28.5
 30
0.0
 11
-135.0
 21
28.5
 31
0.0
  0
LINE
  5
BC0
330
B9E
100
AcDbEntity
  8
3
100
AcDbLine
 10
-135.0
 20
50.0
 30
0.0
 11
-40.0
 21
50.0
 31
0.0
  0
TEXT
  5
BC1
330
B9E
100
AcDbEntity
  8
1
100
AcDbText
 10
-134.0
 20
29.75
 30
0.0
 40
2.0
  1
Desenho nº:
 41
0.8
  7
SANINDUSA
 11
-134.0
 21
30.75
 31
0.0
100
AcDbText
 73
     2
  0
TEXT
  5
BC2
330
B9E
100
AcDbEntity
  8
1
100
AcDbText
 10
-134.0
 20
9.25
 30
0.0
 40
2.0
  1
Acabamento:
 41
0.8
  7
SANINDUSA
 11
-134.0
 21
10.25
 31
0.0
100
AcDbText
 73
     2
  0
LINE
  5
BC3
330
B9E
100
AcDbEntity
  8
3
100
AcDbLine
 10
-180.0
 20
20.0
 30
0.0
 11
0.0
 21
20.0
 31
0.0
  0
LINE
  5
BC4
330
B9E
100
AcDbEntity
  8
1
100
AcDbLine
 10
-174.5810776056337
 20
55.5
 30
0.0
 11
-174.5810776056337
 21
65.0
 31
0.0
  0
LINE
  5
BC5
330
B9E
100
AcDbEntity
  8
1
100
AcDbLine
 10
-168.9210461879161
 20
55.5
 30
0.0
 11
-168.9210461879161
 21
65.0
 31
0.0
  0
LINE
  5
BC6
330
B9E
100
AcDbEntity
  8
1
100
AcDbLine
 10
-154.0988595589306
 20
55.5
 30
0.0
 11
-154.0988595589306
 21
65.0
 31
0.0
  0
LINE
  5
BC7
330
B9E
100
AcDbEntity
  8
3
100
AcDbLine
 10
-180.0
 20
65.0
 30
0.0
 11
-180.0
 21
0.0
 31
0.0
  0
LINE
  5
BC8
330
B9E
100
AcDbEntity
  8
3
100
AcDbLine
 10
-135.0
 20
0.0
 30
0.0
 11
-135.0
 21
65.0
 31
0.0
  0
TEXT
  5
BC9
330
B9E
100
AcDbEntity
  8
1
100
AcDbText
 10
-179.0
 20
9.75
 30
0.0
 40
1.5
  1
Des.
 41
0.8
  7
SANINDUSA
 11
-179.0
 21
10.5
 31
0.0
100
AcDbText
 73
     2
  0
LINE
  5
BCA
330
B9E
100
AcDbEntity
  8
1
100
AcDbLine
 10
-168.9210461879161
 20
20.0
 30
0.0
 11
-168.9210461879161
 21
0.0
 31
0.0
  0
LINE
  5
BCB
330
B9E
100
AcDbEntity
  8
1
100
AcDbLine
 10
-154.0988595589306
 20
20.0
 30
0.0
 11
-154.0988595589306
 21
0.0
 31
0.0
  0
LINE
  5
BCC
330
B9E
100
AcDbEntity
  8
1
100
AcDbLine
 10
-180.0
 20
4.0
 30
0.0
 11
-135.0
 21
4.0
 31
0.0
  0
LINE
  5
BCD
330
B9E
100
AcDbEntity
  8
1
100
AcDbLine
 10
-180.0
 20
8.0
 30
0.0
 11
-135.0
 21
8.0
 31
0.0
  0
TEXT
  5
BCE
330
B9E
100
AcDbEntity
  8
1
100
AcDbText
 10
-179.0
 20
1.73257823687436
 30
0.0
 40
1.5
  1
Aprov.
 41
0.8
  7
SANINDUSA
 11
-179.0
 21
2.48257823687436
 31
0.0
100
AcDbText
 73
     2
  0
TEXT
  5
BCF
330
B9E
100
AcDbEntity
  8
1
100
AcDbText
 10
-179.0
 20
5.75
 30
0.0
 40
1.5
  1
Ver.
 41
0.8
  7
SANINDUSA
 11
-179.0
 21
6.5
 31
0.0
100
AcDbText
 73
     2
  0
LINE
  5
BD0
330
B9E
100
AcDbEntity
  8
1
100
AcDbLine
 10
-180.0
 20
16.0
 30
0.0
 11
-135.0
 21
16.0
 31
0.0
  0
LINE
  5
BD1
330
B9E
100
AcDbEntity
  8
1
100
AcDbLine
 10
-180.0
 20
12.0
 30
0.0
 11
-135.0
 21
12.0
 31
0.0
  0
TEXT
  5
BD2
330
B9E
100
AcDbEntity
  8
1
100
AcDbText
 10
-179.0
 20
13.75
 30
0.0
 40
1.5
  1
Proj.
 41
0.8
  7
SANINDUSA
 11
-179.0
 21
14.5
 31
0.0
100
AcDbText
 73
     2
  0
TEXT
  5
BD3
330
B9E
100
AcDbEntity
  8
1
100
AcDbText
 10
-167.9210461879161
 20
17.75
 30
0.0
 40
1.5
  1
Data
 41
0.8
  7
SANINDUSA
 11
-167.9210461879161
 21
18.5
 31
0.0
100
AcDbText
 73
     2
  0
TEXT
  5
BD4
330
B9E
100
AcDbEntity
  8
1
100
AcDbText
 10
-153.0988595589306
 20
17.75
 30
0.0
 40
1.5
  1
Nome
 41
0.8
  7
SANINDUSA
 11
-153.0988595589306
 21
18.5
 31
0.0
100
AcDbText
 73
     2
  0
LINE
  5
BD5
330
B9E
100
AcDbEntity
  8
leg fin
100
AcDbLine
 10
-130.0
 20
20.0
 30
0.0
 11
-130.0
 21
28.5
 31
0.0
  0
TEXT
  5
BD6
330
B9E
100
AcDbEntity
  8
1
100
AcDbText
 10
-134.0
 20
17.25
 30
0.0
 40
2.0
  1
Material:
 41
0.8
  7
SANINDUSA
 11
-134.0
 21
18.25
 31
0.0
100
AcDbText
 73
     2
  0
TEXT
  5
BD7
330
B9E
100
AcDbEntity
  8
1
100
AcDbText
 10
-129.0
 20
26.43288406845113
 30
0.0
 40
1.5
  1
Ano:
 41
0.8
  7
SANINDUSA
 11
-129.0
 21
27.18288406845113
 31
0.0
100
AcDbText
 73
     2
  0
LINE
  5
BD8
330
B9E
100
AcDbEntity
  8
1
100
AcDbLine
 10
-180.0
 20
55.5
 30
0.0
 11
-135.0
 21
55.5
 31
0.0
  0
TEXT
  5
BD9
330
B9E
100
AcDbEntity
  8
1
100
AcDbText
 10
-179.0
 20
52.67772246885193
 30
0.0
 40
1.5
  1
descrição
 41
0.8
  7
SANINDUSA
 11
-179.0
 21
53.42772246885193
 31
0.0
100
AcDbText
 73
     2
  0
TEXT
  5
BDA
330
B9E
100
AcDbEntity
  8
1
100
AcDbText
 10
-134.0
 20
47.25
 30
0.0
 40
2.0
  1
Peça:
 41
0.8
  7
SANINDUSA
 11
-134.0
 21
48.25
 31
0.0
100
AcDbText
 73
     2
  0
LINE
  5
BDB
330
B9E
100
AcDbEntity
  8
1
100
AcDbLine
 10
-180.0
 20
59.5
 30
0.0
 11
-135.0
 21
59.5
 31
0.0
  0
TEXT
  5
BDC
330
B9E
100
AcDbEntity
  8
1
100
AcDbText
 10
-173.5810776056337
 20
62.75
 30
0.0
 40
1.5
  1
Alt.
 41
0.8
  7
SANINDUSA
 11
-173.5810776056337
 21
63.5
 31
0.0
100
AcDbText
 73
     2
  0
TEXT
  5
BDD
330
B9E
100
AcDbEntity
  8
1
100
AcDbText
 10
-179.0
 20
62.75
 30
0.0
 40
1.5
  1
Rev.
 41
0.8
  7
SANINDUSA
 11
-179.0
 21
63.5
 31
0.0
100
AcDbText
 73
     2
  0
TEXT
  5
BDE
330
B9E
100
AcDbEntity
  8
1
100
AcDbText
 10
-167.9210461879161
 20
62.75
 30
0.0
 40
1.5
  1
Data
 41
0.8
  7
SANINDUSA
 11
-167.9210461879161
 21
63.5
 31
0.0
100
AcDbText
 73
     2
  0
TEXT
  5
BDF
330
B9E
100
AcDbEntity
  8
1
100
AcDbText
 10
-153.0988595589306
 20
62.75
 30
0.0
 40
1.5
  1
Nome
 41
0.8
  7
SANINDUSA
 11
-153.0988595589306
 21
63.5
 31
0.0
100
AcDbText
 73
     2
  0
TEXT
  5
BE0
330
B9E
100
AcDbEntity
  8
1
100
AcDbText
 10
-134.0
 20
62.25
 30
0.0
 40
2.0
  1
Produto:
 41
0.8
  7
SANINDUSA
 11
-134.0
 21
63.25
 31
0.0
100
AcDbText
 73
     2
  0
LINE
  5
BE1
330
B9E
100
AcDbEntity
  8
3
100
AcDbLine
 10
-40.0
 20
4.0
 30
0.0
 11
-40.0
 21
65.0
 31
0.0
  0
LWPOLYLINE
  5
BE2
102
{ACAD_REACTORS
330
BEC
102
}
330
B9E
100
AcDbEntity
  8
9
100
AcDbPolyline
 90
       12
 70
     1
 43
0.0
 10
-3.038714600644652
 20
58.90010174665076
 10
-5.726962862472191
 20
58.90010174665076
 10
-5.726962862472191
 20
58.5001017466509
 10
-3.038748516195028
 20
58.5001017466509
 42
-0.4142135623731731
 10
-2.638748516194482
 20
58.1001017466508
 10
-2.638748516194482
 20
57.42799728675596
 10
-5.21497371544865
 20
57.42799728675596
 42
0.4142135623731289
 10
-6.014973715448377
 20
56.627997286756
 10
-6.014973715448377
 20
55.92380871629643
 42
0.4142135623731132
 10
-5.21497371544865
 20
55.12380871629648
 10
-2.23871460064447
 20
55.12380871629648
 10
-2.23871460064447
 20
58.10010174665103
 42
0.4142135623730717
  0
LWPOLYLINE
  5
BE3
102
{ACAD_REACTORS
330
BEC
102
}
330
B9E
100
AcDbEntity
  8
9
100
AcDbPolyline
 90
       20
 70
     1
 43
0.0
 10
-10.01531287095122
 20
57.82799728675581
 10
-10.01531287095122
 20
58.10010174665103
 42
-0.4142135623730744
 10
-9.615312870951584
 20
58.5001017466509
 10
-6.92703069357276
 20
58.5001017466509
 10
-6.92703069357276
 20
58.90010174665076
 10
-9.615346786501959
 20
58.90010174665076
 42
0.4142135623730883
 10
-10.41534678650168
 20
58.1001017466508
 10
-10.41534678650168
 20
57.82796337120567
 42
0.4142135623730717
 10
-9.615346786501959
 20
57.02796337120571
 10
-7.423079531965413
 20
57.02796337120571
 42
-0.4142135623730847
 10
-7.023079531965322
 20
56.62796337120562
 10
-7.023079531965322
 20
55.90786840766487
 42
-0.4142135623730744
 10
-7.423079531965413
 20
55.507868407665
 10
-10.41534678650168
 20
55.507868407665
 10
-10.41534678650168
 20
55.12380871629648
 10
-7.445787917283723
 20
55.12380871629648
 42
0.4114777732064574
 10
-6.645822882998345
 20
55.9163291493976
 10
-6.639238813324936
 20
56.62051771985716
 42
0.4169546541682913
 10
-7.439203847610315
 20
57.42799728675596
 10
-9.615312870951584
 20
57.42799728675596
 42
-0.4142135623731576
  0
LWPOLYLINE
  5
BE4
102
{ACAD_REACTORS
330
BEC
102
}
330
B9E
100
AcDbEntity
  8
9
100
AcDbPolyline
 90
       12
 70
     1
 43
0.0
 10
-14.41561811090378
 20
58.90010174665076
 10
-14.79964388672215
 20
58.90010174665076
 10
-14.79964388672215
 20
55.92380871629643
 42
0.4142135623731133
 10
-13.99964388672242
 20
55.12380871629648
 10
-11.8233508563676
 20
55.12380871629648
 42
0.4142135623730872
 10
-11.02335085636741
 20
55.92380871629643
 10
-11.02335085636741
 20
58.90010174665076
 10
-11.42338477191788
 20
58.90010174665076
 10
-11.42338477191788
 20
55.91567577726095
 42
-0.4131711701795318
 10
-11.82196067063523
 20
55.51567831234956
 10
-14.0141940096214
 20
55.50787335710947
 42
-0.4152567234624407
 10
-14.41561811090378
 20
55.90787082202087
  0
LWPOLYLINE
  5
BE5
102
{ACAD_REACTORS
330
BEC
102
}
330
B9E
100
AcDbEntity
  8
9
100
AcDbPolyline
 90
        6
 70
     1
 43
0.0
 10
-15.80771578768872
 20
55.507868407665
 10
-18.39994912667453
 20
55.507868407665
 42
-0.4142135623731731
 10
-18.79994912667462
 20
55.90786840766487
 10
-18.79994912667462
 20
58.10010174665103
 42
-0.4142135623730744
 10
-18.39994912667453
 20
58.5001017466509
 10
-15.80771578768872
 20
58.5001017466509
  0
LWPOLYLINE
  5
BE6
102
{ACAD_REACTORS
330
BEC
102
}
330
B9E
100
AcDbEntity
  8
9
100
AcDbPolyline
 90
        8
 70
     1
 43
0.0
 10
-15.4236900118708
 20
59.87619128370352
 10
-15.80771578768872
 20
59.87619128370352
 10
-15.80771578768872
 20
58.90010174665076
 10
-18.39176256411201
 20
58.90010174665076
 42
0.4131164467977967
 10
-19.19175694739761
 20
58.1030995310698
 10
-19.1999120763262
 20
55.92680650071542
 42
0.4153115297271718
 10
-18.39991769304061
 20
55.12380871629648
 10
-15.4236900118708
 20
55.12380871629648
  0
LWPOLYLINE
  5
BE7
102
{ACAD_REACTORS
330
BEC
102
}
330
B9E
100
AcDbEntity
  8
9
100
AcDbPolyline
 90
       10
 70
     1
 43
0.0
 10
-20.59201288790928
 20
58.90010174665076
 10
-23.56830591826338
 20
58.90010174665076
 10
-23.56830591826338
 20
55.12380871629648
 10
-23.18424622689509
 20
55.12380871629648
 10
-23.18424622689509
 20
58.5001017466509
 10
-20.59204680345965
 20
58.5001017466509
 42
-0.4142135623730898
 10
-20.19204680345956
 20
58.1001017466508
 10
-20.19204680345956
 20
55.12380871629648
 10
-19.79201288790909
 20
55.12380871629648
 10
-19.79201288790909
 20
58.10010174665103
 42
0.4142135623731132
  0
LWPOLYLINE
  5
BE8
102
{ACAD_REACTORS
330
BEC
102
}
330
B9E
100
AcDbEntity
  8
9
100
AcDbPolyline
 90
        4
 70
     1
 43
0.0
 10
-24.19231812786165
 20
58.90010174665076
 10
-24.57637781922995
 20
58.90010174665076
 10
-24.57637781922995
 20
55.12380871629648
 10
-24.19231812786165
 20
55.12380871629648
  0
LWPOLYLINE
  5
BE9
102
{ACAD_REACTORS
330
BEC
102
}
330
B9E
100
AcDbEntity
  8
9
100
AcDbPolyline
 90
       10
 70
     1
 43
0.0
 10
-28.57661522808212
 20
58.5001017466509
 10
-25.98444972019706
 20
58.5001017466509
 42
-0.4142135623731731
 10
-25.58444972019652
 20
58.1001017466508
 10
-25.58444972019652
 20
55.12380871629648
 10
-25.2004239443786
 20
55.12380871629648
 10
-25.2004239443786
 20
58.10010174665103
 42
0.4142135623730717
 10
-26.00042394437833
 20
58.90010174665076
 10
-28.97664914363259
 20
58.90010174665076
 10
-28.97664914363259
 20
55.12380871629648
 10
-28.57661522808212
 20
55.12380871629648
  0
LWPOLYLINE
  5
BEA
102
{ACAD_REACTORS
330
BEC
102
}
330
B9E
100
AcDbEntity
  8
9
100
AcDbPolyline
 90
       12
 70
     1
 43
0.0
 10
-29.58465321349832
 20
58.10010174665103
 42
0.4142135623730716
 10
-30.3846532134985
 20
58.90010174665076
 10
-33.07296930642724
 20
58.90010174665076
 10
-33.07296930642724
 20
58.5001017466509
 10
-30.38468712904842
 20
58.5001017466509
 42
-0.4142135623730067
 10
-29.98468712904878
 20
58.1001017466508
 10
-29.98468712904878
 20
57.42799728675618
 10
-32.56098015940324
 20
57.42799728675596
 42
0.4142135623731289
 10
-33.36098015940343
 20
56.627997286756
 10
-33.36098015940343
 20
55.92380871629643
 42
0.4142135623731132
 10
-32.56098015940324
 20
55.12380871629648
 10
-29.58465321349832
 20
55.12380871629648
  0
LWPOLYLINE
  5
BEB
102
{ACAD_REACTORS
330
BEC
102
}
330
B9E
100
AcDbEntity
  8
9
100
AcDbPolyline
 90
       20
 70
     1
 43
0.0
 10
-34.7850262845518
 20
57.42799728675596
 10
-36.96125148380543
 20
57.42799728675596
 42
-0.4142135623730898
 10
-37.36125148380552
 20
57.82799728675604
 10
-37.36125148380552
 20
58.10010174665103
 42
-0.4142135623730744
 10
-36.96125148380543
 20
58.5001017466509
 10
-34.27303713752781
 20
58.50010174665067
 10
-34.27303713752781
 20
58.90010174665076
 10
-36.96128539935535
 20
58.90010174665076
 42
0.4142135623731289
 10
-37.76128539935553
 20
58.1001017466508
 10
-37.76128539935553
 20
57.82796337120567
 42
0.4142135623730716
 10
-36.9612853993558
 20
57.02796337120571
 10
-34.76901814481926
 20
57.02796337120571
 42
-0.414213562373168
 10
-34.36901814481962
 20
56.62796337120562
 10
-34.36901814481962
 20
55.90786840766487
 42
-0.4142135623730744
 10
-34.76901814481926
 20
55.507868407665
 10
-37.76128539935553
 20
55.507868407665
 10
-37.76128539935553
 20
55.12380871629648
 10
-34.7850262845518
 20
55.12380871629648
 42
0.4142135623731289
 10
-33.98502628455162
 20
55.92380871629643
 10
-33.98502628455162
 20
56.627997286756
 42
0.4142135623731132
  0
HATCH
  5
BEC
330
B9E
100
AcDbEntity
  8
9
100
AcDbHatch
 10
0.0
 20
0.0
 30
0.0
210
0.0
220
0.0
230
1.0
  2
SOLID
 70
     1
 71
     1
 91
       13
 92
        7
 72
     1
 73
     1
 93
       20
 10
-34.36901814481962
 20
55.90786840766487
 42
-0.414213562372991
 10
-34.76901814481926
 20
55.507868407665
 42
0.0
 10
-37.76128539935553
 20
55.507868407665
 42
0.0
 10
-37.76128539935553
 20
55.12380871629648
 42
0.0
 10
-34.7850262845518
 20
55.12380871629648
 42
0.4142135623731705
 10
-33.98502628455162
 20
55.92380871629666
 42
0.0
 10
-33.98502628455162
 20
56.627997286756
 42
0.4142135623731547
 10
-34.7850262845518
 20
57.42799728675596
 42
0.0
 10
-36.96125148380543
 20
57.42799728675596
 42
-0.4142135623730898
 10
-37.36125148380552
 20
57.82799728675604
 42
0.0
 10
-37.36125148380552
 20
58.1001017466508
 42
-0.4142135623731575
 10
-36.96125148380543
 20
58.5001017466509
 42
0.0
 10
-34.27303713752781
 20
58.50010174665067
 42
0.0
 10
-34.27303713752781
 20
58.90010174665076
 42
0.0
 10
-36.96128539935535
 20
58.90010174665076
 42
0.4142135623731705
 10
-37.76128539935553
 20
58.10010174665058
 42
0.0
 10
-37.76128539935553
 20
57.82796337120544
 42
0.4142135623730299
 10
-36.9612853993558
 20
57.02796337120571
 42
0.0
 10
-34.76901814481926
 20
57.02796337120571
 42
-0.4142135623730015
 10
-34.36901814481962
 20
56.62796337120608
 42
0.0
 97
        1
330
BEB
 92
        7
 72
     1
 73
     1
 93
       12
 10
-33.36098015940343
 20
55.92380871629666
 42
0.4142135623731547
 10
-32.56098015940324
 20
55.12380871629648
 42
0.0
 10
-29.58465321349877
 20
55.12380871629648
 42
0.0
 10
-29.58465321349832
 20
58.10010174665058
 42
0.4142135623731964
 10
-30.3846532134985
 20
58.90010174665076
 42
0.0
 10
-33.07296930642724
 20
58.90010174665076
 42
0.0
 10
-33.07296930642724
 20
58.50010174665067
 42
0.0
 10
-30.38468712904887
 20
58.5001017466509
 42
-0.4142135623732564
 10
-29.98468712904878
 20
58.10010174665103
 42
0.0
 10
-29.98468712904923
 20
57.42799728675596
 42
0.0
 10
-32.56098015940324
 20
57.42799728675596
 42
0.4142135623731705
 10
-33.36098015940343
 20
56.627997286756
 42
0.0
 97
        1
330
BEA
 92
       22
 72
     1
 73
     1
 93
        6
 10
-32.97692046803468
 20
56.62796337120562
 42
-0.4142135623731576
 10
-32.57692046803459
 20
57.02796337120571
 42
0.0
 10
-29.98468712904878
 20
57.02796337120571
 42
0.0
 10
-29.98468712904878
 20
55.507868407665
 42
0.0
 10
-32.57692046803459
 20
55.507868407665
 42
-0.4142135623731731
 10
-32.97692046803468
 20
55.90786840766487
 42
0.0
 97
        1
330
C11
 92
        7
 72
     1
 73
     1
 93
       10
 10
-28.57661522808212
 20
58.5001017466509
 42
0.0
 10
-25.98444972019661
 20
58.5001017466509
 42
-0.4142135623730067
 10
-25.58444972019652
 20
58.10010174665058
 42
0.0
 10
-25.58444972019606
 20
55.12380871629648
 42
0.0
 10
-25.20042394437906
 20
55.12380871629648
 42
0.0
 10
-25.2004239443786
 20
58.1001017466508
 42
0.4142135623731134
 10
-26.00042394437833
 20
58.90010174665076
 42
0.0
 10
-28.97664914363259
 20
58.90010174665076
 42
0.0
 10
-28.97664914363259
 20
55.12380871629648
 42
0.0
 10
-28.57661522808212
 20
55.12380871629648
 42
0.0
 97
        1
330
BE9
 92
        7
 72
     0
 73
     1
 93
        4
 10
-24.57637781922995
 20
55.12380871629648
 10
-24.19231812786165
 20
55.12380871629648
 10
-24.19231812786165
 20
58.90010174665076
 10
-24.57637781922995
 20
58.90010174665076
 97
        1
330
BE8
 92
        7
 72
     0
 73
     1
 93
        4
 10
-24.19231812786165
 20
59.87619128370352
 10
-24.5763778192304
 20
59.87619128370352
 10
-24.5763778192304
 20
59.28412752246913
 10
-24.1923181278612
 20
59.28412752246913
 97
        1
330
C12
 92
        7
 72
     1
 73
     1
 93
       10
 10
-23.18424622689509
 20
58.5001017466509
 42
0.0
 10
-20.59204680345965
 20
58.5001017466509
 42
-0.4142135623730898
 10
-20.19204680345956
 20
58.1001017466508
 42
0.0
 10
-20.19204680345956
 20
55.12380871629648
 42
0.0
 10
-19.79201288790909
 20
55.12380871629648
 42
0.0
 10
-19.79201288790909
 20
58.1001017466508
 42
0.4142135623731547
 10
-20.59201288790928
 20
58.90010174665076
 42
0.0
 10
-23.56830591826338
 20
58.90010174665076
 42
0.0
 10
-23.56830591826338
 20
55.12380871629648
 42
0.0
 10
-23.18424622689463
 20
55.12380871629648
 42
0.0
 97
        1
330
BE7
 92
        7
 72
     1
 73
     1
 93
        8
 10
-19.1999120763262
 20
55.92680650071542
 42
0.4153115297271299
 10
-18.39991769304061
 20
55.12380871629648
 42
0.0
 10
-15.4236900118708
 20
55.12380871629648
 42
0.0
 10
-15.4236900118708
 20
59.87619128370352
 42
0.0
 10
-15.80771578768872
 20
59.87619128370352
 42
0.0
 10
-15.80771578768872
 20
58.90010174665076
 42
0.0
 10
-18.39176256411201
 20
58.90010174665076
 42
0.4131164467977965
 10
-19.19175694739761
 20
58.1030995310698
 42
0.0
 97
        1
330
BE6
 92
       22
 72
     1
 73
     1
 93
        6
 10
-18.79994912667462
 20
58.1001017466508
 42
-0.4142135623731575
 10
-18.39994912667453
 20
58.5001017466509
 42
0.0
 10
-15.80771578768872
 20
58.50010174665067
 42
0.0
 10
-15.80771578768827
 20
55.507868407665
 42
0.0
 10
-18.39994912667453
 20
55.507868407665
 42
-0.4142135623731731
 10
-18.79994912667462
 20
55.90786840766487
 42
0.0
 97
        1
330
BE5
 92
        7
 72
     1
 73
     1
 93
       12
 10
-14.79964388672215
 20
55.92380871629621
 42
0.4142135623729885
 10
-13.99964388672242
 20
55.12380871629648
 42
0.0
 10
-11.8233508563676
 20
55.12380871629648
 42
0.4142135623731289
 10
-11.02335085636741
 20
55.92380871629666
 42
0.0
 10
-11.02335085636741
 20
58.90010174665076
 42
0.0
 10
-11.42338477191788
 20
58.90010174665076
 42
0.0
 10
-11.42338477191788
 20
55.91567577726095
 42
-0.4131711701795319
 10
-11.82196067063523
 20
55.51567831234956
 42
0.0
 10
-14.01419400962095
 20
55.50787335710947
 42
-0.4152567234626918
 10
-14.41561811090378
 20
55.90787082202087
 42
0.0
 10
-14.41561811090378
 20
58.90010174665076
 42
0.0
 10
-14.7996438867226
 20
58.90010174665076
 42
0.0
 97
        1
330
BE4
 92
        7
 72
     1
 73
     1
 93
       20
 10
-7.423079531965413
 20
57.02796337120571
 42
-0.414213562373168
 10
-7.023079531965322
 20
56.62796337120562
 42
0.0
 10
-7.023079531965322
 20
55.90786840766487
 42
-0.4142135623731575
 10
-7.423079531965413
 20
55.507868407665
 42
0.0
 10
-10.41534678650168
 20
55.507868407665
 42
0.0
 10
-10.41534678650168
 20
55.12380871629648
 42
0.0
 10
-7.445787917283723
 20
55.12380871629648
 42
0.4114777732065809
 10
-6.645822882998345
 20
55.91632914939783
 42
0.0
 10
-6.639238813324936
 20
56.62051771985716
 42
0.4169546541682913
 10
-7.439203847610315
 20
57.42799728675596
 42
0.0
 10
-9.615312870951584
 20
57.42799728675596
 42
-0.4142135623729911
 10
-10.01531287095122
 20
57.82799728675581
 42
0.0
 10
-10.01531287095122
 20
58.10010174665103
 42
-0.414213562372991
 10
-9.615312870951584
 20
58.5001017466509
 42
0.0
 10
-6.92703069357276
 20
58.50010174665067
 42
0.0
 10
-6.927030693572305
 20
58.90010174665076
 42
0.0
 10
-9.615346786501959
 20
58.90010174665076
 42
0.4142135623730467
 10
-10.41534678650168
 20
58.10010174665103
 42
0.0
 10
-10.41534678650168
 20
57.82796337120544
 42
0.4142135623730301
 10
-9.615346786501959
 20
57.02796337120571
 42
0.0
 97
        1
330
BE3
 92
        7
 72
     1
 73
     1
 93
       12
 10
-5.21497371544865
 20
57.42799728675596
 42
0.4142135623730871
 10
-6.014973715448377
 20
56.627997286756
 42
0.0
 10
-6.014973715448377
 20
55.92380871629621
 42
0.4142135623730715
 10
-5.21497371544865
 20
55.12380871629648
 42
0.0
 10
-2.23871460064447
 20
55.12380871629648
 42
0.0
 10
-2.23871460064447
 20
58.10010174665058
 42
0.414213562373155
 10
-3.038714600644652
 20
58.90010174665076
 42
0.0
 10
-5.726962862471737
 20
58.90010174665076
 42
0.0
 10
-5.726962862472191
 20
58.5001017466509
 42
0.0
 10
-3.038748516194573
 20
58.5001017466509
 42
-0.4142135623730067
 10
-2.638748516194482
 20
58.10010174665058
 42
0.0
 10
-2.638748516194482
 20
57.42799728675596
 42
0.0
 97
        1
330
BE2
 92
       22
 72
     1
 73
     1
 93
        6
 10
-2.638748516194937
 20
57.02796337120571
 42
0.0
 10
-2.638748516194482
 20
55.50786840766477
 42
0.0
 10
-5.21497371544865
 20
55.507868407665
 42
-0.4142135623731731
 10
-5.614973715448741
 20
55.90786840766509
 42
0.0
 10
-5.614973715448741
 20
56.62796337120562
 42
-0.4142135623731576
 10
-5.21497371544865
 20
57.02796337120571
 42
0.0
 97
        1
330
C0D
 75
     0
 76
     1
 47
0.0407044778999864
 98
       13
 10
-34.18710075113677
 20
56.16907953933765
 10
-33.12851374392494
 20
56.49471602641233
 10
-33.12851374392494
 20
56.49471602641233
 10
-28.77202873835904
 20
57.51232930166111
 10
-24.41554807250941
 20
57.91937341678636
 10
-24.41554807250941
 20
59.384734621186
 10
-23.31624584658039
 20
58.3264175319116
 10
-19.04119127844888
 20
57.75655517324913
 10
-19.04119127844888
 20
57.75655517324913
 10
-14.64399105416578
 20
57.43091868617466
 10
-8.048195057457178
 20
57.22739662861204
 10
-4.017427461911665
 20
57.18669281458665
 10
-4.017427461911665
 20
57.18669281458665
  0
TEXT
  5
BED
330
B9E
100
AcDbEntity
  8
leg fin
100
AcDbText
 10
3.391127401597259
 20
2.107634911895729
 30
0.0
 40
1.5
  1
Este desenho é propriedade da Sanindusa, S.A., e não pode ser copiado nem divulgado sem nossa autorização.
 50
90.0
 41
0.8
  7
SANINDUSA
100
AcDbText
  0
LINE
  5
BEE
330
B9E
100
AcDbEntity
  8
3
100
AcDbLine
 10
-90.0
 20
4.0
 30
0.0
 11
-90.0
 21
12.0
 31
0.0
  0
TEXT
  5
BEF
330
B9E
100
AcDbEntity
  8
1
100
AcDbText
 10
-39.0
 20
9.25
 30
0.0
 40
2.0
  1
Substituido por:
 41
0.8
  7
SANINDUSA
 11
-39.0
 21
10.25
 31
0.0
100
AcDbText
 73
     2
  0
POINT
  5
BF0
330
B9E
100
AcDbEntity
  8
SANINDUSA
100
AcDbPoint
 10
0.0
 20
0.0
 30
0.0
  0
TEXT
  5
BF1
330
B9E
100
AcDbEntity
  8
1
100
AcDbText
 10
-89.0
 20
16.74927010445663
 30
0.0
 40
2.0
  1
Normas:
 41
0.8
  7
SANINDUSA
 11
-89.0
 21
17.74927010445663
 31
0.0
100
AcDbText
 73
     2
  0
LINE
  5
BF2
330
B9E
100
AcDbEntity
  8
3
100
AcDbLine
 10
-90.0
 20
12.0
 30
0.0
 11
-90.0
 21
20.0
 31
0.0
  0
LINE
  5
BF3
330
B9E
100
AcDbEntity
  8
3
100
AcDbLine
 10
-110.546019464768
 20
12.0
 30
0.0
 11
-110.546019464768
 21
20.0
 31
0.0
  0
TEXT
  5
BF4
330
B9E
100
AcDbEntity
  8
1
100
AcDbText
 10
-109.6177520618648
 20
17.25
 30
0.0
 40
2.0
  1
Cor:
 41
0.8
  7
SANINDUSA
 11
-109.6177520618648
 21
18.25
 31
0.0
100
AcDbText
 73
     2
  0
LINE
  5
BF5
330
B9E
100
AcDbEntity
  8
leg fin
100
AcDbLine
 10
-91.42857142857156
 20
20.0
 30
0.0
 11
-91.42857142857156
 21
28.5
 31
0.0
  0
LINE
  5
BF6
330
B9E
100
AcDbEntity
  8
leg fin
100
AcDbLine
 10
-104.2857142857142
 20
20.0
 30
0.0
 11
-104.2857142857142
 21
28.5
 31
0.0
  0
LINE
  5
BF7
330
B9E
100
AcDbEntity
  8
leg fin
100
AcDbLine
 10
-117.1428571428573
 20
20.0
 30
0.0
 11
-117.1428571428573
 21
28.5
 31
0.0
  0
POINT
  5
BF8
330
B9E
100
AcDbEntity
  8
SANINDUSA
100
AcDbPoint
 10
-117.1428571428573
 20
28.5
 30
0.0
  0
POINT
  5
BF9
330
B9E
100
AcDbEntity
  8
SANINDUSA
100
AcDbPoint
 10
-104.2857142857142
 20
28.5
 30
0.0
  0
POINT
  5
BFA
330
B9E
100
AcDbEntity
  8
SANINDUSA
100
AcDbPoint
 10
-91.42857142857156
 20
28.5
 30
0.0
  0
TEXT
  5
BFB
330
B9E
100
AcDbEntity
  8
1
100
AcDbText
 10
-116.200160604496
 20
26.43288406845113
 30
0.0
 40
1.5
  1
Nº Seq.:
 41
0.8
  7
SANINDUSA
 11
-116.200160604496
 21
27.18288406845113
 31
0.0
100
AcDbText
 73
     2
  0
TEXT
  5
BFC
330
B9E
100
AcDbEntity
  8
1
100
AcDbText
 10
-103.2106584078738
 20
26.43288406845113
 30
0.0
 40
1.5
  1
Tipo:
 41
0.8
  7
SANINDUSA
 11
-103.2106584078738
 21
27.18288406845113
 31
0.0
100
AcDbText
 73
     2
  0
TEXT
  5
BFD
330
B9E
100
AcDbEntity
  8
1
100
AcDbText
 10
-90.22114672289353
 20
26.43288406845113
 30
0.0
 40
1.5
  1
Prod.:
 41
0.8
  7
SANINDUSA
 11
-90.22114672289353
 21
27.18288406845113
 31
0.0
100
AcDbText
 73
     2
  0
TEXT
  5
BFE
330
B9E
100
AcDbEntity
  8
1
100
AcDbText
 10
-64.77320576346574
 20
26.43288406845113
 30
0.0
 40
1.5
  1
Rev.:
 41
0.8
  7
SANINDUSA
 11
-64.77320576346574
 21
27.18288406845113
 31
0.0
100
AcDbText
 73
     2
  0
LINE
  5
BFF
330
B9E
100
AcDbEntity
  8
leg fin
100
AcDbLine
 10
-52.85714285714266
 20
20.0
 30
0.0
 11
-52.85714285714266
 21
28.5
 31
0.0
  0
LINE
  5
C00
330
B9E
100
AcDbEntity
  8
leg fin
100
AcDbLine
 10
-65.71428571428578
 20
20.0
 30
0.0
 11
-65.71428571428578
 21
28.5
 31
0.0
  0
LINE
  5
C01
330
B9E
100
AcDbEntity
  8
leg fin
100
AcDbLine
 10
-78.57142857142844
 20
20.0
 30
0.0
 11
-78.57142857142844
 21
28.5
 31
0.0
  0
POINT
  5
C02
330
B9E
100
AcDbEntity
  8
SANINDUSA
100
AcDbPoint
 10
-78.57142857142844
 20
28.5
 30
0.0
  0
POINT
  5
C03
330
B9E
100
AcDbEntity
  8
SANINDUSA
100
AcDbPoint
 10
-65.71428571428578
 20
28.5
 30
0.0
  0
POINT
  5
C04
330
B9E
100
AcDbEntity
  8
SANINDUSA
100
AcDbPoint
 10
-52.85714285714266
 20
28.5
 30
0.0
  0
TEXT
  5
C05
330
B9E
100
AcDbEntity
  8
1
100
AcDbText
 10
-77.61097961686573
 20
26.43288406845113
 30
0.0
 40
1.5
  1
Peça:
 41
0.8
  7
SANINDUSA
 11
-77.61097961686573
 21
27.18288406845113
 31
0.0
100
AcDbText
 73
     2
  0
TEXT
  5
C06
330
B9E
100
AcDbEntity
  8
1
100
AcDbText
 10
-52.06538060077036
 20
26.43288406845113
 30
0.0
 40
1.5
  1
Alt.:
 41
0.8
  7
SANINDUSA
 11
-52.06538060077036
 21
27.18288406845113
 31
0.0
100
AcDbText
 73
     2
  0
LINE
  5
C07
330
B9E
100
AcDbEntity
  8
3
100
AcDbLine
 10
0.0
 20
12.0
 30
0.0
 11
-40.0
 21
12.0
 31
0.0
  0
LINE
  5
C08
330
B9E
100
AcDbEntity
  8
3
100
AcDbLine
 10
-40.0
 20
32.5
 30
0.0
 11
0.0
 21
32.5
 31
0.0
  0
TEXT
  5
C09
330
B9E
100
AcDbEntity
  8
1
100
AcDbText
 10
-19.0
 20
29.75
 30
0.0
 40
2.0
  1
Folha:
 41
0.8
  7
SANINDUSA
 11
-19.0
 21
30.75
 31
0.0
100
AcDbText
 73
     2
  0
LINE
  5
C0A
330
B9E
100
AcDbEntity
  8
3
100
AcDbLine
 10
-20.0
 20
32.5
 30
0.0
 11
-20.0
 21
20.0
 31
0.0
  0
TEXT
  5
C0B
330
B9E
100
AcDbEntity
  8
1
100
AcDbText
 10
-39.0
 20
29.75
 30
0.0
 40
2.0
  1
Escala:
 41
0.8
  7
SANINDUSA
 11
-39.0
 21
30.75
 31
0.0
100
AcDbText
 73
     2
  0
TEXT
  5
C0C
330
B9E
100
AcDbEntity
  8
1
100
AcDbText
 10
-39.0
 20
17.25
 30
0.0
 40
2.0
  1
Substitui:
 41
0.8
  7
SANINDUSA
 11
-39.0
 21
18.25
 31
0.0
100
AcDbText
 73
     2
  0
LWPOLYLINE
  5
C0D
102
{ACAD_REACTORS
330
BEC
102
}
330
B9E
100
AcDbEntity
  8
9
100
AcDbPolyline
 90
        6
 70
     1
 43
0.0
 10
-2.638748516194482
 20
57.02796337120571
 10
-2.638748516194482
 20
55.50786840766477
 10
-5.21497371544865
 20
55.507868407665
 42
-0.4142135623730898
 10
-5.614973715448741
 20
55.90786840766487
 10
-5.614973715448741
 20
56.62796337120562
 42
-0.4142135623731576
 10
-5.21497371544865
 20
57.02796337120571
  0
LINE
  5
C0E
330
B9E
100
AcDbEntity
  8
3
100
AcDbLine
 10
-40.0
 20
50.0
 30
0.0
 11
0.0
 21
50.0
 31
0.0
  0
ATTDEF
  5
C0F
330
B9E
100
AcDbEntity
  8
1
100
AcDbText
 10
-31.30691739422431
 20
40.25
 30
0.0
 40
2.0
  1
XXXXXXXXXXXXXXX
 41
0.8
  7
SANINDUSA
 72
     4
 11
-20.0
 21
41.25
 31
0.0
100
AcDbAttributeDefinition
  3
Observações:
  2
OBS
 70
     0
  0
TEXT
  5
C10
330
B9E
100
AcDbEntity
  8
1
100
AcDbText
 10
-39.0
 20
47.25
 30
0.0
 40
2.0
  1
Observações:
 41
0.8
  7
SANINDUSA
 11
-39.0
 21
48.25
 31
0.0
100
AcDbText
 73
     2
  0
LWPOLYLINE
  5
C11
102
{ACAD_REACTORS
330
BEC
102
}
330
B9E
100
AcDbEntity
  8
9
100
AcDbPolyline
 90
        6
 70
     1
 43
0.0
 10
-29.98468712904878
 20
57.02796337120571
 10
-29.98468712904878
 20
55.507868407665
 10
-32.57692046803459
 20
55.507868407665
 42
-0.4142135623731731
 10
-32.97692046803468
 20
55.90786840766487
 10
-32.97692046803468
 20
56.62796337120562
 42
-0.4142135623731576
 10
-32.57692046803459
 20
57.02796337120571
  0
LWPOLYLINE
  5
C12
102
{ACAD_REACTORS
330
BEC
102
}
330
B9E
100
AcDbEntity
  8
9
100
AcDbPolyline
 90
        4
 70
     1
 43
0.0
 10
-24.19231812786165
 20
59.87619128370352
 10
-24.57637781922995
 20
59.87619128370352
 10
-24.57637781922995
 20
59.28412752246913
 10
-24.19231812786165
 20
59.28412752246913
  0
ENDBLK
  5
C14
330
B9E
100
AcDbEntity
  8
0
100
AcDbBlockEnd
  0
BLOCK
  5
10B4
330
10B3
100
AcDbEntity
  8
0
100
AcDbBlockBegin
  2
SW_CENTERMARKSYMBOL_0
 70
     0
 10
0.0
 20
0.0
 30
0.0
  3
SW_CENTERMARKSYMBOL_0
  1

  0
LINE
  5
10B5
330
10B3
100
AcDbEntity
  8
0
  6
Continuous
 62
     0
370
     0
100
AcDbLine
 10
0.0
 20
0.0
 30
0.0
 11
0.0
 21
0.2500000000000002
 31
0.0
  0
LINE
  5
10B6
330
10B3
100
AcDbEntity
  8
0
  6
Continuous
 62
     0
370
     0
100
AcDbLine
 10
0.0
 20
0.0
 30
0.0
 11
-0.2500000000000002
 21
0.0
 31
0.0
  0
LINE
  5
10B7
330
10B3
100
AcDbEntity
  8
0
  6
Continuous
 62
     0
370
     0
100
AcDbLine
 10
0.0
 20
0.0
 30
0.0
 11
0.0
 21
-0.2500000000000002
 31
0.0
  0
LINE
  5
10B8
330
10B3
100
AcDbEntity
  8
0
  6
Continuous
 62
     0
370
     0
100
AcDbLine
 10
0.0
 20
0.0
 30
0.0
 11
0.2500000000000002
 21
0.0
 31
0.0
  0
LINE
  5
10B9
330
10B3
100
AcDbEntity
  8
0
  6
Continuous
 62
     0
370
     0
100
AcDbLine
 10
0.0
 20
0.5000000000000005
 30
0.0
 11
0.0
 21
6.281250000000001
 31
0.0
  0
LINE
  5
10BA
330
10B3
100
AcDbEntity
  8
0
  6
Continuous
 62
     0
370
     0
100
AcDbLine
 10
-0.5000000000000005
 20
0.0
 30
0.0
 11
-6.281250000000015
 21
0.0
 31
0.0
  0
LINE
  5
10BB
330
10B3
100
AcDbEntity
  8
0
  6
Continuous
 62
     0
370
     0
100
AcDbLine
 10
0.0
 20
-0.5000000000000005
 30
0.0
 11
0.0
 21
-6.281250000000001
 31
0.0
  0
LINE
  5
10BC
330
10B3
100
AcDbEntity
  8
0
  6
Continuous
 62
     0
370
     0
100
AcDbLine
 10
0.5000000000000005
 20
0.0
 30
0.0
 11
6.281249999999988
 21
0.0
 31
0.0
  0
ENDBLK
  5
10BD
330
10B3
100
AcDbEntity
  8
0
100
AcDbBlockEnd
  0
ENDSEC
  0
SECTION
  2
ENTITIES
  0
LINE
  5
1214
330
1F
100
AcDbEntity
  8
SANINDUSA
100
AcDbLine
 10
3892.438986127321
 20
2150.991172483576
 30
0.0
 11
3892.440226117378
 21
2151.062211466309
 31
0.0
  0
LINE
  5
1217
330
1F
100
AcDbEntity
  8
SANINDUSA
100
AcDbLine
 10
3892.442985518102
 20
2150.991172483576
 30
0.0
 11
3892.438986127321
 21
2150.991172483576
 31
0.0
  0
LINE
  5
121C
330
1F
100
AcDbEntity
  8
SANINDUSA
100
AcDbLine
 10
3892.442985518102
 20
2150.991172483576
 30
0.0
 11
3893.83760499628
 21
2150.991172483576
 31
0.0
  0
LINE
  5
121E
330
1F
100
AcDbEntity
  8
SANINDUSA
100
AcDbLine
 10
3893.840364397005
 20
2151.062211466309
 30
0.0
 11
3893.841604387061
 21
2150.991172483576
 31
0.0
  0
LINE
  5
121F
330
1F
100
AcDbEntity
  8
SANINDUSA
100
AcDbLine
 10
3893.841604387061
 20
2150.991172483576
 30
0.0
 11
3893.83760499628
 21
2150.991172483576
 31
0.0
  0
ELLIPSE
  5
1221
330
1F
100
AcDbEntity
  8
SANINDUSA
100
AcDbEllipse
 10
3893.827569663192
 20
2151.566026521528
 30
0.0
 11
0.7098807129516759
 21
0.0000979247970662
 31
0.0
210
0.0
220
0.0
230
1.0
 40
0.7042364038113995
 41
4.712291834194569
 42
4.724632862390453
  0
ELLIPSE
  5
1224
330
1F
100
AcDbEntity
  8
SANINDUSA
100
AcDbEllipse
 10
3892.453020851191
 20
2151.566026521528
 30
0.0
 11
0.7098807129515372
 21
-0.0000979247970662
 31
0.0
210
0.0
220
0.0
230
1.0
 40
0.7042364038115375
 41
4.70014509837895
 42
4.712486126574829
  0
LINE
  5
1226
330
1F
100
AcDbEntity
  8
SANINDUSA
100
AcDbLine
 10
3892.453020851191
 20
2151.066102673951
 30
0.0
 11
3893.827569663192
 21
2151.066102673951
 31
0.0
  0
ARC
  5
1227
330
1F
100
AcDbEntity
  8
SANINDUSA
100
AcDbCircle
 10
3893.836365085251
 20
2151.062141582776
 30
0.0
 40
0.0039999222755566
100
AcDbArc
 50
1.001078256324845
 51
90.50116078617909
  0
ARC
  5
1228
330
1F
100
AcDbEntity
  8
SANINDUSA
100
AcDbCircle
 10
3892.444225429131
 20
2151.062141582776
 30
0.0
 40
0.003999922275557
100
AcDbArc
 50
89.49883921382092
 51
178.9989217436751
  0
ARC
  5
122A
330
1F
100
AcDbEntity
  8
SANINDUSA
100
AcDbCircle
 10
3892.151027384507
 20
2151.361616623129
 30
0.0
 40
0.0040008180998197
100
AcDbArc
 50
0.0204370247016366
 51
89.97956297529837
  0
ARC
  5
122E
330
1F
100
AcDbEntity
  8
SANINDUSA
100
AcDbCircle
 10
3890.758890740571
 20
2151.361616623129
 30
0.0
 40
0.0040008180998206
100
AcDbArc
 50
90.02043702470164
 51
179.9795629752983
  0
ARC
  5
1231
330
1F
100
AcDbEntity
  8
SANINDUSA
100
AcDbCircle
 10
3890.758890740571
 20
2150.669479979192
 30
0.0
 40
0.0040008180998203
100
AcDbArc
 50
180.0204370247016
 51
269.9795629752984
  0
ARC
  5
1233
330
1F
100
AcDbEntity
  8
SANINDUSA
100
AcDbCircle
 10
3892.151027384507
 20
2150.669479979192
 30
0.0
 40
0.00400081809982
100
AcDbArc
 50
270.0204370247016
 51
359.9795629752983
  0
ELLIPSE
  5
1236
330
1F
100
AcDbEntity
  8
SANINDUSA
100
AcDbEllipse
 10
3892.14623285932
 20
2151.352822707162
 30
0.0
 11
0.0
 21
0.7127093588257729
 31
0.0
210
0.0
220
0.0
230
1.0
 40
0.012341654750939
 41
4.712388980384695
 42
4.724730008580569
  0
ELLIPSE
  5
123A
330
1F
100
AcDbEntity
  8
SANINDUSA
100
AcDbEllipse
 10
3892.142233468539
 20
2151.356822097942
 30
0.0
 11
0.71270935882605
 21
0.0
 31
0.0
210
0.0
220
0.0
230
1.0
 40
0.0123416547509342
 41
1.558455298599009
 42
1.570796326794896
  0
ELLIPSE
  5
123B
330
1F
100
AcDbEntity
  8
SANINDUSA
100
AcDbEllipse
 10
3890.763685265757
 20
2151.352822707162
 30
0.0
 11
0.0
 21
0.712709358825911
 31
0.0
210
0.0
220
0.0
230
1.0
 40
0.0123416547509369
 41
1.558455298599013
 42
1.570796326794896
  0
ELLIPSE
  5
123E
330
1F
100
AcDbEntity
  8
SANINDUSA
100
AcDbEllipse
 10
3890.767684656538
 20
2151.356822097942
 30
0.0
 11
0.7127093588259113
 21
0.0
 31
0.0
210
0.0
220
0.0
230
1.0
 40
0.0123416547509366
 41
1.570796326794896
 42
1.583137354990779
  0
ELLIPSE
  5
1241
330
1F
100
AcDbEntity
  8
SANINDUSA
100
AcDbEllipse
 10
3892.142233468539
 20
2150.67427450438
 30
0.0
 11
0.7127093588259064
 21
0.0
 31
0.0
210
0.0
220
0.0
230
1.0
 40
0.0123416547509369
 41
4.712388980384695
 42
4.724730008580578
  0
ELLIPSE
  5
1246
330
1F
100
AcDbEntity
  8
SANINDUSA
100
AcDbEllipse
 10
3892.14623285932
 20
2150.67827389516
 30
0.0
 11
0.0
 21
0.7127093588259161
 31
0.0
210
0.0
220
0.0
230
0.9999999999999998
 40
0.0123416547509365
 41
4.700047952188811
 42
4.712388980384685
  0
ELLIPSE
  5
1247
330
1F
100
AcDbEntity
  8
SANINDUSA
100
AcDbEllipse
 10
3890.763685265757
 20
2150.67827389516
 30
0.0
 11
0.0
 21
0.7127093588260544
 31
0.0
210
0.0
220
0.0
230
1.0
 40
0.0123416547509344
 41
1.570796326794896
 42
1.583137354990778
  0
ELLIPSE
  5
124A
330
1F
100
AcDbEntity
  8
SANINDUSA
100
AcDbEllipse
 10
3890.767684656538
 20
2150.67427450438
 30
0.0
 11
0.712709358825768
 21
0.0000000000000001
 31
0.0
210
0.0
220
0.0
230
1.0
 40
0.0123416547509393
 41
4.700047952188805
 42
4.712388980384684
  0
LINE
  5
1262
330
1F
100
AcDbEntity
  8
SANINDUSA
100
AcDbLine
 10
3890.767684656538
 20
2151.365618110787
 30
0.0
 11
3892.142233468539
 21
2151.365618110787
 31
0.0
  0
LINE
  5
1264
330
1F
100
AcDbEntity
  8
SANINDUSA
100
AcDbLine
 10
3892.155028872164
 20
2151.352822707162
 30
0.0
 11
3892.155028872164
 21
2150.67827389516
 31
0.0
  0
LINE
  5
1265
330
1F
100
AcDbEntity
  8
SANINDUSA
100
AcDbLine
 10
3890.754889252913
 20
2150.67827389516
 30
0.0
 11
3890.754889252913
 21
2151.352822707162
 31
0.0
  0
LINE
  5
1267
330
1F
100
AcDbEntity
  8
SANINDUSA
100
AcDbLine
 10
3892.142233468539
 20
2150.665478491535
 30
0.0
 11
3890.767684656538
 21
2150.665478491535
 31
0.0
  0
SPLINE
  5
1270
330
1F
100
AcDbEntity
  8
SANINDUSA
100
AcDbSpline
210
0.0
220
0.0
230
1.0
 70
     8
 71
     3
 72
    20
 73
    16
 74
     0
 42
0.0000000001
 43
0.0000000001
 40
0.0
 40
0.0
 40
0.0
 40
0.0
 40
0.1249999999999958
 40
0.1249999999999958
 40
0.2499999999999915
 40
0.2499999999999915
 40
0.3749999999999872
 40
0.3749999999999872
 40
0.4999999999999831
 40
0.4999999999999831
 40
0.7499999999999947
 40
0.7499999999999947
 40
0.8749999999999973
 40
0.8749999999999973
 40
1.0
 40
1.0
 40
1.0
 40
1.0
 10
3890.825295440074
 20
2150.739603233134
 30
0.0
 10
3890.825295542721
 20
2150.73935812234
 30
0.0
 10
3890.825319703889
 20
2150.739115689882
 30
0.0
 10
3890.825415725587
 20
2150.738636135251
 30
0.0
 10
3890.825487105008
 20
2150.738402812141
 30
0.0
 10
3890.825672470186
 20
2150.737956532047
 30
0.0
 10
3890.825787827001
 20
2150.737740639351
 30
0.0
 10
3890.826059089945
 20
2150.737335105152
 30
0.0
 10
3890.826212618826
 20
2150.737148276843
 30
0.0
 10
3890.826725618114
 20
2150.736634468721
 30
0.0
 10
3890.827143376992
 20
2150.736354490335
 30
0.0
 10
3890.827816156728
 20
2150.736075382996
 30
0.0
 10
3890.828047317778
 20
2150.73600496727
 30
0.0
 10
3890.828523465822
 20
2150.73590945337
 30
0.0
 10
3890.828768840078
 20
2150.735884784302
 30
0.0
 10
3890.82901395002
 20
2150.735884678715
 30
0.0
  0
SPLINE
  5
1273
330
1F
100
AcDbEntity
  8
SANINDUSA
100
AcDbSpline
210
0.0
220
0.0
230
1.0
 70
     8
 71
     3
 72
    20
 73
    16
 74
     0
 42
0.0000000001
 43
0.0000000001
 40
0.0
 40
0.0
 40
0.0
 40
0.0
 40
0.1249999999999978
 40
0.1249999999999978
 40
0.2499999999999956
 40
0.2499999999999956
 40
0.3749999999999935
 40
0.3749999999999935
 40
0.4999999999999913
 40
0.4999999999999913
 40
0.7499999999999871
 40
0.7499999999999871
 40
0.8749999999999934
 40
0.8749999999999934
 40
1.0
 40
1.0
 40
1.0
 40
1.0
 10
3892.080904174522
 20
2150.73588467883
 30
0.0
 10
3892.081149285324
 20
2150.73588478438
 30
0.0
 10
3892.081391717649
 20
2150.735908948418
 30
0.0
 10
3892.081871271718
 20
2150.736004975964
 30
0.0
 10
3892.082104593194
 20
2150.736076357945
 30
0.0
 10
3892.082550871135
 20
2150.736261728408
 30
0.0
 10
3892.08276676317
 20
2150.736377088211
 30
0.0
 10
3892.083172293477
 20
2150.736648355552
 30
0.0
 10
3892.083359119919
 20
2150.736801886545
 30
0.0
 10
3892.08387292233
 20
2150.737314892285
 30
0.0
 10
3892.084152895828
 20
2150.737732654914
 30
0.0
 10
3892.084431994829
 20
2150.738405437223
 30
0.0
 10
3892.084502407849
 20
2150.738636599108
 30
0.0
 10
3892.084597916169
 20
2150.739112748873
 30
0.0
 10
3892.084622582257
 20
2150.739358123392
 30
0.0
 10
3892.084622684888
 20
2150.739603233345
 30
0.0
  0
SPLINE
  5
1277
330
1F
100
AcDbEntity
  8
SANINDUSA
100
AcDbSpline
210
0.0
220
0.0
230
1.0
 70
     8
 71
     3
 72
    20
 73
    16
 74
     0
 42
0.0000000001
 43
0.0000000001
 40
0.0
 40
0.0
 40
0.0
 40
0.0
 40
0.1249999999999949
 40
0.1249999999999949
 40
0.2499999999999899
 40
0.2499999999999899
 40
0.3749999999999849
 40
0.3749999999999849
 40
0.4999999999999798
 40
0.4999999999999798
 40
0.7499999999999899
 40
0.7499999999999899
 40
0.8749999999999948
 40
0.8749999999999948
 40
1.0
 40
1.0
 40
1.0
 40
1.0
 10
3890.829016175582
 20
2151.29521077239
 30
0.0
 10
3890.828770950527
 20
2151.295210841943
 30
0.0
 10
3890.828528399063
 20
2151.295186818537
 30
0.0
 10
3890.828048596108
 20
2151.295091012212
 30
0.0
 10
3890.827815099047
 20
2151.295019693178
 30
0.0
 10
3890.827368546522
 20
2151.294834398446
 30
0.0
 10
3890.827152534511
 20
2151.294719052325
 30
0.0
 10
3890.826746752641
 20
2151.294447728992
 30
0.0
 10
3890.826559822953
 20
2151.294294144655
 30
0.0
 10
3890.82604577289
 20
2151.293780909037
 30
0.0
 10
3890.825765721868
 20
2151.293362884809
 30
0.0
 10
3890.825486724125
 20
2151.292689718567
 30
0.0
 10
3890.825416372948
 20
2151.292458420035
 30
0.0
 10
3890.825321056132
 20
2151.291981976084
 30
0.0
 10
3890.825296525779
 20
2151.291736473382
 30
0.0
 10
3890.825296591293
 20
2151.291491249192
 30
0.0
  0
SPLINE
  5
127A
330
1F
100
AcDbEntity
  8
SANINDUSA
100
AcDbSpline
210
0.0
220
0.0
230
1.0
 70
     8
 71
     3
 72
    20
 73
    16
 74
     0
 42
0.0000000001
 43
0.0000000001
 40
0.0
 40
0.0
 40
0.0
 40
0.0
 40
0.1250000000000084
 40
0.1250000000000084
 40
0.2500000000000169
 40
0.2500000000000169
 40
0.3750000000000253
 40
0.3750000000000253
 40
0.5000000000000338
 40
0.5000000000000338
 40
0.7499999999999697
 40
0.7499999999999697
 40
0.8749999999999847
 40
0.8749999999999847
 40
1.0
 40
1.0
 40
1.0
 40
1.0
 10
3892.084621533298
 20
2151.291491253172
 30
0.0
 10
3892.08462159856
 20
2151.291736477998
 30
0.0
 10
3892.084597570954
 20
2151.291979029031
 30
0.0
 10
3892.084501756161
 20
2151.292458830692
 30
0.0
 10
3892.084430433465
 20
2151.292692325144
 30
0.0
 10
3892.084245131253
 20
2151.293138874106
 30
0.0
 10
3892.084129780937
 20
2151.293354884951
 30
0.0
 10
3892.08385845156
 20
2151.293760660832
 30
0.0
 10
3892.083704864358
 20
2151.293947587666
 30
0.0
 10
3892.083191620077
 20
2151.294461629108
 30
0.0
 10
3892.08277359101
 20
2151.294741672962
 30
0.0
 10
3892.08210042185
 20
2151.295020658817
 30
0.0
 10
3892.08186912239
 20
2151.295091006178
 30
0.0
 10
3892.081392676536
 20
2151.295186315207
 30
0.0
 10
3892.081147173728
 20
2151.295210841449
 30
0.0
 10
3892.080901949768
 20
2151.295210771903
 30
0.0
  0
SPLINE
  5
127C
330
1F
100
AcDbEntity
  8
SANINDUSA
100
AcDbSpline
210
0.0
220
0.0
230
1.0
 70
     8
 71
     3
 72
    42
 73
    38
 74
     0
 42
0.0000000001
 43
0.0000000001
 40
0.0
 40
0.0
 40
0.0
 40
0.0
 40
0.1249999999999991
 40
0.1249999999999991
 40
0.2499999999999982
 40
0.2499999999999982
 40
0.3124999999999978
 40
0.3124999999999978
 40
0.3749999999999974
 40
0.3749999999999974
 40
0.4374999999999971
 40
0.4374999999999971
 40
0.453124999999997
 40
0.453124999999997
 40
0.468749999999997
 40
0.468749999999997
 40
0.484374999999997
 40
0.484374999999997
 40
0.499999999999997
 40
0.499999999999997
 40
0.515624999999997
 40
0.515624999999997
 40
0.531249999999997
 40
0.531249999999997
 40
0.546874999999997
 40
0.546874999999997
 40
0.562499999999997
 40
0.562499999999997
 40
0.6249999999999975
 40
0.6249999999999975
 40
0.6874999999999979
 40
0.6874999999999979
 40
0.7499999999999984
 40
0.7499999999999984
 40
0.8749999999999991
 40
0.8749999999999991
 40
1.0
 40
1.0
 40
1.0
 40
1.0
 10
3890.830371988506
 20
2150.735884305354
 30
0.0
 10
3890.882420892801
 20
2150.735863068117
 30
0.0
 10
3890.934469803536
 20
2150.735846081949
 30
0.0
 10
3891.038567660723
 20
2150.735822316528
 30
0.0
 10
3891.090616606831
 20
2150.735815084162
 30
0.0
 10
3891.168690029159
 20
2150.735805378106
 30
0.0
 10
3891.194714505684
 20
2150.73580278194
 30
0.0
 10
3891.246763460344
 20
2150.735798044824
 30
0.0
 10
3891.272787938545
 20
2150.735795872832
 30
0.0
 10
3891.324836876319
 20
2150.735788209931
 30
0.0
 10
3891.350861337304
 20
2150.735782354281
 30
0.0
 10
3891.383391876192
 20
2150.735771494492
 30
0.0
 10
3891.389897977147
 20
2150.735769136219
 30
0.0
 10
3891.40291013445
 20
2150.735763300744
 30
0.0
 10
3891.409416192877
 20
2150.735759968677
 30
0.0
 10
3891.42242831657
 20
2150.735754241725
 30
0.0
 10
3891.428934384013
 20
2150.735751899284
 30
0.0
 10
3891.441946579656
 20
2150.735748910036
 30
0.0
 10
3891.448452701149
 20
2150.735748225573
 30
0.0
 10
3891.46146495652
 20
2150.735748214087
 30
0.0
 10
3891.467971072103
 20
2150.735748901465
 30
0.0
 10
3891.480983281822
 20
2150.735751910394
 30
0.0
 10
3891.487489376303
 20
2150.735754270627
 30
0.0
 10
3891.500501561658
 20
2150.735760021052
 30
0.0
 10
3891.507007653287
 20
2150.735763356011
 30
0.0
 10
3891.520019850599
 20
2150.735769154375
 30
0.0
 10
3891.526525956993
 20
2150.735771471356
 30
0.0
 10
3891.559056499814
 20
2150.735782189598
 30
0.0
 10
3891.585080968138
 20
2150.735788118332
 30
0.0
 10
3891.637129933096
 20
2150.735795879681
 30
0.0
 10
3891.663154428794
 20
2150.73579806359
 30
0.0
 10
3891.715203418175
 20
2150.735802759958
 30
0.0
 10
3891.7412279118
 20
2150.735805326078
 30
0.0
 10
3891.819301381705
 20
2150.735815088729
 30
0.0
 10
3891.871350358941
 20
2150.735822308233
 30
0.0
 10
3891.975448273388
 20
2150.735846071094
 30
0.0
 10
3892.027497209524
 20
2150.73586307293
 30
0.0
 10
3892.079546136825
 20
2150.735884305575
 30
0.0
  0
SPLINE
  5
1280
330
1F
100
AcDbEntity
  8
SANINDUSA
100
AcDbSpline
210
0.0
220
0.0
230
1.0
 70
    24
 71
     3
 72
    12
 73
     8
 74
     0
 42
0.0000000001
 43
0.0000000001
 40
0.0
 40
0.0
 40
0.0
 40
0.0
 40
0.5
 40
0.5
 40
0.75
 40
0.75
 40
1.0
 40
1.0
 40
1.0
 40
1.0
 10
3892.079545083963
 20
2151.29521073486
 30
0.0
 10
3891.975447434754
 20
2151.295221809764
 30
0.0
 10
3891.871349781409
 20
2151.295229243913
 30
0.0
 10
3891.715203300253
 20
2151.29523641565
 30
0.0
 10
3891.663154472868
 20
2151.295238116693
 30
0.0
 10
3891.559056817511
 20
2151.295240375202
 30
0.0
 10
3891.507007989746
 20
2151.295241326238
 30
0.0
 10
3891.45495916136
 20
2151.295241091611
 30
0.0
  0
SPLINE
  5
1282
330
1F
100
AcDbEntity
  8
SANINDUSA
100
AcDbSpline
210
0.0
220
0.0
230
1.0
 70
    24
 71
     3
 72
    12
 73
     8
 74
     0
 42
0.0000000001
 43
0.0000000001
 40
0.0
 40
0.0
 40
0.0
 40
0.0
 40
0.25
 40
0.25
 40
0.5
 40
0.5
 40
1.0
 40
1.0
 40
1.0
 40
1.0
 10
3891.454959183305
 20
2151.29524110881
 30
0.0
 10
3891.402910336621
 20
2151.295241285626
 30
0.0
 10
3891.350861489988
 20
2151.295240379174
 30
0.0
 10
3891.246763797008
 20
2151.295238119016
 30
0.0
 10
3891.194714950926
 20
2151.295236417753
 30
0.0
 10
3891.038568414595
 20
2151.29522924548
 30
0.0
 10
3890.934470725998
 20
2151.295221809114
 30
0.0
 10
3890.830373039905
 20
2151.295210735333
 30
0.0
  0
LWPOLYLINE
  5
1284
330
1F
100
AcDbEntity
  8
SANINDUSA
100
AcDbPolyline
 90
        5
 70
   128
 43
0.0
 10
3892.084642749097
 20
2150.840548100278
 10
3892.084642660737
 20
2150.848548100271
 10
3892.084642156464
 20
2150.880548100216
 10
3892.084639268529
 20
2151.008548099765
 10
3892.084621505462
 20
2151.290134290496
  0
SPLINE
  5
1287
330
1F
100
AcDbEntity
  8
SANINDUSA
100
AcDbSpline
210
0.0
220
0.0
230
1.0
 70
    24
 71
     3
 72
     8
 73
     4
 74
     0
 42
0.0000000001
 43
0.0000000001
 40
0.0
 40
0.0
 40
0.0
 40
0.0
 40
1.0
 40
1.0
 40
1.0
 40
1.0
 10
3892.084623048693
 20
2150.740961171727
 30
0.0
 10
3892.084636296406
 20
2150.77415680988
 30
0.0
 10
3892.084643649238
 20
2150.807352477325
 30
0.0
 10
3892.084642753297
 20
2150.840548149243
 30
0.0
  0
SPLINE
  5
128A
330
1F
100
AcDbEntity
  8
SANINDUSA
100
AcDbSpline
210
0.0
220
0.0
230
1.0
 70
    24
 71
     3
 72
    10
 73
     6
 74
     0
 42
0.0000000001
 43
0.0000000001
 40
0.0
 40
0.0
 40
0.0
 40
0.0
 40
0.5000000000000001
 40
0.5000000000000001
 40
1.0
 40
1.0
 40
1.0
 40
1.0
 10
3890.825296619692
 20
2151.290134293763
 30
0.0
 10
3890.825288214421
 20
2151.215203265528
 30
0.0
 10
3890.825283699827
 20
2151.140272232636
 30
0.0
 10
3890.825277875531
 20
2150.990410166337
 30
0.0
 10
3890.825276098303
 20
2150.915479132749
 30
0.0
 10
3890.825275376376
 20
2150.840548098726
 30
0.0
  0
SPLINE
  5
128C
330
1F
100
AcDbEntity
  8
SANINDUSA
100
AcDbSpline
210
0.0
220
0.0
230
1.0
 70
    24
 71
     3
 72
     8
 73
     4
 74
     0
 42
0.0000000001
 43
0.0000000001
 40
0.0
 40
0.0
 40
0.0
 40
0.0
 40
1.0
 40
1.0
 40
1.0
 40
1.0
 10
3890.825275372423
 20
2150.840547992477
 30
0.0
 10
3890.825274465168
 20
2150.807352371694
 30
0.0
 10
3890.825281827261
 20
2150.774156758317
 30
0.0
 10
3890.825295076224
 20
2150.740961171683
 30
0.0
  0
SPLINE
  5
128E
330
1F
100
AcDbEntity
  8
SANINDUSA
100
AcDbSpline
210
0.0
220
0.0
230
1.0
 70
    24
 71
     3
 72
     8
 73
     4
 74
     0
 42
0.0000000001
 43
0.0000000001
 40
0.0
 40
0.0
 40
0.0
 40
0.0
 40
0.0013580405823512
 40
0.0013580405823512
 40
0.0013580405823512
 40
0.0013580405823512
 10
3890.82901395002
 20
2150.735884678715
 30
0.0
 10
3890.829466629234
 20
2150.735884614549
 30
0.0
 10
3890.82991930879
 20
2150.735884490059
 30
0.0
 10
3890.830371988506
 20
2150.735884305354
 30
0.0
  0
SPLINE
  5
128F
330
1F
100
AcDbEntity
  8
SANINDUSA
100
AcDbSpline
210
0.0
220
0.0
230
1.0
 70
    24
 71
     3
 72
     8
 73
     4
 74
     0
 42
0.0000000001
 43
0.0000000001
 40
0.0
 40
0.0
 40
0.0
 40
0.0
 40
0.0013580397943477
 40
0.0013580397943477
 40
0.0013580397943477
 40
0.0013580397943477
 10
3892.079546136825
 20
2150.735884305575
 30
0.0
 10
3892.079998816278
 20
2150.735884490239
 30
0.0
 10
3892.080451495571
 20
2150.735884614694
 30
0.0
 10
3892.080904174522
 20
2150.73588467883
 30
0.0
  0
SPLINE
  5
1290
330
1F
100
AcDbEntity
  8
SANINDUSA
100
AcDbSpline
210
0.0
220
0.0
230
1.0
 70
    24
 71
     3
 72
     8
 73
     4
 74
     0
 42
0.0000000001
 43
0.0000000001
 40
0.0
 40
0.0
 40
0.0
 40
0.0
 40
0.0013579405865773
 40
0.0013579405865773
 40
0.0013579405865773
 40
0.0013579405865773
 10
3890.825295076224
 20
2150.740961171683
 30
0.0
 10
3890.825295256883
 20
2150.740508525278
 30
0.0
 10
3890.825295378209
 20
2150.740055879033
 30
0.0
 10
3890.825295440074
 20
2150.739603233134
 30
0.0
  0
SPLINE
  5
1291
330
1F
100
AcDbEntity
  8
SANINDUSA
100
AcDbSpline
210
0.0
220
0.0
230
1.0
 70
    24
 71
     3
 72
     8
 73
     4
 74
     0
 42
0.0000000001
 43
0.0000000001
 40
0.0
 40
0.0
 40
0.0
 40
0.0
 40
0.0013579404196618
 40
0.0013579404196618
 40
0.0013579404196618
 40
0.0013579404196618
 10
3892.084622684888
 20
2150.739603233345
 30
0.0
 10
3892.08462274674
 20
2150.740055879188
 30
0.0
 10
3892.084622868051
 20
2150.740508525378
 30
0.0
 10
3892.084623048693
 20
2150.740961171727
 30
0.0
  0
SPLINE
  5
1292
330
1F
100
AcDbEntity
  8
SANINDUSA
100
AcDbSpline
210
0.0
220
0.0
230
1.0
 70
    24
 71
     3
 72
     8
 73
     4
 74
     0
 42
0.0000000001
 43
0.0000000001
 40
0.0
 40
0.0
 40
0.0
 40
0.0
 40
0.0013568646567672
 40
0.0013568646567672
 40
0.0013568646567672
 40
0.0013568646567672
 10
3890.830373039905
 20
2151.295210735333
 30
0.0
 10
3890.829920751718
 20
2151.295210687219
 30
0.0
 10
3890.82946846355
 20
2151.295210699604
 30
0.0
 10
3890.829016175582
 20
2151.29521077239
 30
0.0
  0
SPLINE
  5
1293
330
1F
100
AcDbEntity
  8
SANINDUSA
100
AcDbSpline
210
0.0
220
0.0
230
1.0
 70
    24
 71
     3
 72
     8
 73
     4
 74
     0
 42
0.0000000001
 43
0.0000000001
 40
0.0
 40
0.0
 40
0.0
 40
0.0
 40
0.0013568661395905
 40
0.0013568661395905
 40
0.0013568661395905
 40
0.0013568661395905
 10
3892.080901949768
 20
2151.295210771903
 30
0.0
 10
3892.080449661306
 20
2151.295210699121
 30
0.0
 10
3892.079997372644
 20
2151.295210686742
 30
0.0
 10
3892.079545083963
 20
2151.29521073486
 30
0.0
  0
SPLINE
  5
1294
330
1F
100
AcDbEntity
  8
SANINDUSA
100
AcDbSpline
210
0.0
220
0.0
230
1.0
 70
    24
 71
     3
 72
     8
 73
     4
 74
     0
 42
0.0000000001
 43
0.0000000001
 40
0.0
 40
0.0
 40
0.0
 40
0.0
 40
0.0013569557834558
 40
0.0013569557834558
 40
0.0013569557834558
 40
0.0013569557834558
 10
3890.825296591293
 20
2151.291491249192
 30
0.0
 10
3890.825296660927
 20
2151.291038930859
 30
0.0
 10
3890.82529667043
 20
2151.290586612322
 30
0.0
 10
3890.825296619692
 20
2151.290134293763
 30
0.0
  0
SPLINE
  5
1295
330
1F
100
AcDbEntity
  8
SANINDUSA
100
AcDbSpline
210
0.0
220
0.0
230
1.0
 70
    24
 71
     3
 72
     8
 73
     4
 74
     0
 42
0.0000000001
 43
0.0000000001
 40
0.0
 40
0.0
 40
0.0
 40
0.0
 40
0.0013569630311757
 40
0.0013569630311757
 40
0.0013569630311757
 40
0.0013569630311757
 10
3892.084621505462
 20
2151.290134290496
 30
0.0
 10
3892.084621454545
 20
2151.290586611471
 30
0.0
 10
3892.08462146386
 20
2151.291038932424
 30
0.0
 10
3892.084621533298
 20
2151.291491253172
 30
0.0
  0
ELLIPSE
  5
12A8
330
1F
100
AcDbEntity
  8
SANINDUSA
100
AcDbEllipse
 10
3892.152267583096
 20
2151.362856821718
 30
0.0
 11
0.0028292887566784
 21
0.0028292887566784
 31
0.0
210
0.0
220
0.0
230
1.0
 40
0.9996954598818248
 41
5.497939437029705
 42
7.068431177329481
  0
ELLIPSE
  5
12AB
330
1F
100
AcDbEntity
  8
SANINDUSA
100
AcDbEllipse
 10
3890.757650541981
 20
2151.362856821718
 30
0.0
 11
-0.0028292887566783
 21
0.0028292887566784
 31
0.0
210
0.0
220
0.0
230
0.9999999999999998
 40
0.9996954598819256
 41
5.497939437029768
 42
7.068431177329443
  0
ELLIPSE
  5
12AE
330
1F
100
AcDbEntity
  8
SANINDUSA
100
AcDbEllipse
 10
3892.152267583096
 20
2150.668239780603
 30
0.0
 11
0.0028292887566784
 21
-0.0028292887566782
 31
0.0
210
0.0
220
0.0
230
0.9999999999999998
 40
0.9996954598819003
 41
5.497939437029716
 42
7.068431177329418
  0
ELLIPSE
  5
12B1
330
1F
100
AcDbEntity
  8
SANINDUSA
100
AcDbEllipse
 10
3890.757650541981
 20
2150.668239780603
 30
0.0
 11
-0.0028292887566783
 21
-0.0028292887566782
 31
0.0
210
0.0
220
0.0
230
1.0
 40
0.9996954598819256
 41
5.497939437029768
 42
7.068431177329443
  0
LINE
  5
12B4
330
1F
100
AcDbEntity
  8
SANINDUSA
100
AcDbLine
 10
3892.152268801627
 20
2151.36685743103
 30
0.0
 11
3890.757649323449
 21
2151.36685743103
 31
0.0
  0
LINE
  5
12B5
330
1F
100
AcDbEntity
  8
SANINDUSA
100
AcDbLine
 10
3890.753649932669
 20
2151.36285804025
 30
0.0
 11
3890.753649932669
 21
2150.668238562072
 31
0.0
  0
LINE
  5
12B6
330
1F
100
AcDbEntity
  8
SANINDUSA
100
AcDbLine
 10
3892.156268192408
 20
2150.668238562072
 30
0.0
 11
3892.156268192408
 21
2151.36285804025
 31
0.0
  0
LINE
  5
12B7
330
1F
100
AcDbEntity
  8
SANINDUSA
100
AcDbLine
 10
3890.757649323449
 20
2150.664239171291
 30
0.0
 11
3892.152268801627
 21
2150.664239171291
 31
0.0
  0
SPLINE
  5
12B8
330
1F
100
AcDbEntity
  8
SANINDUSA
100
AcDbSpline
210
0.0
220
0.0
230
1.0
 70
     8
 71
     3
 72
    71
 73
    67
 74
     0
 42
0.0000000001
 43
0.0000000001
 40
0.0
 40
0.0
 40
0.0
 40
0.0
 40
0.0071488916654291
 40
0.0142958382699898
 40
0.0214411306414095
 40
0.028585063909431
 40
0.0357279226696774
 40
0.0428699662427504
 40
0.050011420985354
 40
0.0571525025527787
 40
0.0642934278735667
 40
0.0714344152220588
 40
0.0785756842456546
 40
0.0857174559912011
 40
0.0928599529317218
 40
0.1000033989946205
 40
0.1071480195924208
 40
0.1142940416570554
 40
0.1214416936787002
 40
0.1285907114876151
 40
0.1357383607002379
 40
0.1428843775526621
 40
0.1500289910819514
 40
0.157172427381928
 40
0.1643149111399941
 40
0.1714566666586283
 40
0.1785979179698058
 40
0.1857388889501172
 40
0.1928798034399196
 40
0.2000208853664299
 40
0.2071623588706382
 40
0.214304448437978
 40
0.2214473790326386
 40
0.2285913762353924
 40
0.2357366663848678
 40
0.2428834767221398
 40
0.2500320355384862
 40
0.2812924396747633
 40
0.3125340181750981
 40
0.3437755771317219
 40
0.3750359894295576
 40
0.4375191633146149
 40
0.5000022466168162
 40
0.5624855021298327
 40
0.6249685848440883
 40
0.6562289404816046
 40
0.6874705288430764
 40
0.7187121456276936
 40
0.7499725699022332
 40
0.7646880482148289
 40
0.7793971369161819
 40
0.7941018128200849
 40
0.8088040395314115
 40
0.8235057736032489
 40
0.8382089705968848
 40
0.8529155910656834
 40
0.867627606492762
 40
0.8823449101593677
 40
0.897056932900133
 40
0.9117635665028728
 40
0.9264667797040589
 40
0.9411685295314915
 40
0.9558707678982814
 40
0.9705754483782657
 40
0.9852845331387987
 40
1.0
 40
1.0
 40
1.0
 40
1.0
 10
3891.379959062539
 20
2150.84054834135
 30
0.0
 10
3891.379959972233
 20
2150.840267640669
 30
0.0
 10
3891.379961791374
 20
2150.83970631568
 30
0.0
 10
3891.379976502886
 20
2150.838864537279
 30
0.0
 10
3891.379999977473
 20
2150.838023165642
 30
0.0
 10
3891.380033067512
 20
2150.837182272411
 30
0.0
 10
3891.380075534734
 20
2150.836341930341
 30
0.0
 10
3891.380127432978
 20
2150.835502214777
 30
0.0
 10
3891.380188737971
 20
2150.834663203715
 30
0.0
 10
3891.380259446401
 20
2150.833824976762
 30
0.0
 10
3891.380339549291
 20
2150.832987613807
 30
0.0
 10
3891.380429039177
 20
2150.832151194565
 30
0.0
 10
3891.380527908187
 20
2150.831315798599
 30
0.0
 10
3891.380636148561
 20
2150.830481505329
 30
0.0
 10
3891.380753752508
 20
2150.829648394056
 30
0.0
 10
3891.380880712244
 20
2150.828816543971
 30
0.0
 10
3891.381017019984
 20
2150.827986034179
 30
0.0
 10
3891.381162667944
 20
2150.827156943705
 30
0.0
 10
3891.38131764477
 20
2150.826329370596
 30
0.0
 10
3891.381481915408
 20
2150.825503526888
 30
0.0
 10
3891.38165543413
 20
2150.824679642314
 30
0.0
 10
3891.381838152117
 20
2150.823857926135
 30
0.0
 10
3891.382030042277
 20
2150.823038473253
 30
0.0
 10
3891.382231081568
 20
2150.822221359701
 30
0.0
 10
3891.382441246937
 20
2150.82140666159
 30
0.0
 10
3891.382660515323
 20
2150.820594455028
 30
0.0
 10
3891.382888863664
 20
2150.819784816086
 30
0.0
 10
3891.383126268897
 20
2150.818977820811
 30
0.0
 10
3891.383372707962
 20
2150.818173545227
 30
0.0
 10
3891.383628157797
 20
2150.81737206534
 30
0.0
 10
3891.38389259534
 20
2150.816573457152
 30
0.0
 10
3891.384165997541
 20
2150.815777796633
 30
0.0
 10
3891.384448341298
 20
2150.814985159853
 30
0.0
 10
3891.384739603704
 20
2150.814195622497
 30
0.0
 10
3891.385039761139
 20
2150.813409261708
 30
0.0
 10
3891.385348792626
 20
2150.81262614921
 30
0.0
 10
3891.386024027731
 20
2150.810969743288
 30
0.0
 10
3891.387132808745
 20
2150.808468409175
 30
0.0
 10
3891.388788400166
 20
2150.805179375955
 30
0.0
 10
3891.390603426638
 20
2150.801975380468
 30
0.0
 10
3891.393229719273
 20
2150.797827848113
 30
0.0
 10
3891.396890168687
 20
2150.792892120017
 30
0.0
 10
3891.401840826727
 20
2150.787430063945
 30
0.0
 10
3891.407302874156
 20
2150.782479400193
 30
0.0
 10
3891.412238609439
 20
2150.778818959663
 30
0.0
 10
3891.416386142411
 20
2150.776192673972
 30
0.0
 10
3891.419590135502
 20
2150.774377652057
 30
0.0
 10
3891.422879184434
 20
2150.772722045376
 30
0.0
 10
3891.425652214979
 20
2150.771492816978
 30
0.0
 10
3891.427864161727
 20
2150.770606402828
 30
0.0
 10
3891.429487158712
 20
2150.769999136656
 30
0.0
 10
3891.431123247905
 20
2150.76942969627
 30
0.0
 10
3891.432771778463
 20
2150.768898276893
 30
0.0
 10
3891.434432083743
 20
2150.768405081169
 30
0.0
 10
3891.436103501341
 20
2150.767950309395
 30
0.0
 10
3891.437785367721
 20
2150.767534162201
 30
0.0
 10
3891.439476939361
 20
2150.767156857715
 30
0.0
 10
3891.441176986372
 20
2150.766818702382
 30
0.0
 10
3891.442884185172
 20
2150.766519957125
 30
0.0
 10
3891.444597281989
 20
2150.766260813091
 30
0.0
 10
3891.446315505978
 20
2150.766041333112
 30
0.0
 10
3891.448038167362
 20
2150.765861655335
 30
0.0
 10
3891.449764576375
 20
2150.765721586973
 30
0.0
 10
3891.451494043264
 20
2150.765622174152
 30
0.0
 10
3891.453225878282
 20
2150.76555984211
 30
0.0
 10
3891.454381250921
 20
2150.765552133233
 30
0.0
 10
3891.454959062539
 20
2150.765548277958
 30
0.0
  0
SPLINE
  5
12B9
330
1F
100
AcDbEntity
  8
SANINDUSA
100
AcDbSpline
210
0.0
220
0.0
230
1.0
 70
     8
 71
     3
 72
    71
 73
    67
 74
     0
 42
0.0000000001
 43
0.0000000001
 40
0.0
 40
0.0
 40
0.0
 40
0.0
 40
0.0071485570619162
 40
0.0142953669252909
 40
0.0214406579969876
 40
0.0285846574351029
 40
0.0357275913373825
 40
0.0428696849296072
 40
0.0500111627534479
 40
0.0571522488534364
 40
0.0642931669627666
 40
0.0714341406875598
 40
0.0785753936894182
 40
0.0857171498660083
 40
0.0928596335295589
 40
0.1000030695831313
 40
0.1071476836945832
 40
0.1142937024681727
 40
0.1214413536138168
 40
0.1285903718513309
 40
0.1357380214684241
 40
0.1428840372606424
 40
0.1500286470879701
 40
0.1571720777730042
 40
0.1643145552613426
 40
0.1714563047818788
 40
0.1785975510072269
 40
0.1857385182145046
 40
0.1928794304465977
 40
0.2000205116742158
 40
0.2071619859589002
 40
0.2143040776171059
 40
0.221447011385489
 40
0.2285910125876034
 40
0.2357363073019117
 40
0.2428831225312448
 40
0.2500316863736073
 40
0.2812921127036983
 40
0.3125337286559244
 40
0.3437753141475416
 40
0.375035667001557
 40
0.4375187527235204
 40
0.5000020178662349
 40
0.5624850941456852
 40
0.6249682744457321
 40
0.6562286888215187
 40
0.6874702458245729
 40
0.7187118246088833
 40
0.7499722310718196
 40
0.7646877018135468
 40
0.7793967844269182
 40
0.7941014576847065
 40
0.8088036870871865
 40
0.8235054299637692
 40
0.8382086403045001
 40
0.8529152733067277
 40
0.8676272923679187
 40
0.8823445967506685
 40
0.8970566277473693
 40
0.9117632816334728
 40
0.926466522638969
 40
0.941168290800436
 40
0.9558705047072947
 40
0.9705750730885952
 40
0.9852840953361349
 40
1.0
 40
1.0
 40
1.0
 40
1.0
 10
3891.454959062543
 20
2150.765548277958
 30
0.0
 10
3891.455239750129
 20
2150.765549188226
 30
0.0
 10
3891.455801056698
 20
2150.765551008539
 30
0.0
 10
3891.456642816452
 20
2150.76556572353
 30
0.0
 10
3891.457484185126
 20
2150.765589202189
 30
0.0
 10
3891.458325083659
 20
2150.765622296781
 30
0.0
 10
3891.459165432996
 20
2150.765664768715
 30
0.0
 10
3891.460005154076
 20
2150.765716671674
 30
0.0
 10
3891.460844167844
 20
2150.765777981108
 30
0.0
 10
3891.46168239524
 20
2150.765848693485
 30
0.0
 10
3891.462519757208
 20
2150.765928799696
 30
0.0
 10
3891.463356174688
 20
2150.766018292185
 30
0.0
 10
3891.464191568623
 20
2150.766117163028
 30
0.0
 10
3891.465025859954
 20
2150.766225404444
 30
0.0
 10
3891.465858969622
 20
2150.766343008656
 30
0.0
 10
3891.466690818568
 20
2150.766469967921
 30
0.0
 10
3891.467521327734
 20
2150.766606274519
 30
0.0
 10
3891.46835041806
 20
2150.766751920747
 30
0.0
 10
3891.469177991409
 20
2150.76690689535
 30
0.0
 10
3891.470003835607
 20
2150.767071163383
 30
0.0
 10
3891.47082772075
 20
2150.767244679233
 30
0.0
 10
3891.471649437401
 20
2150.7674273942
 30
0.0
 10
3891.472468890547
 20
2150.767619281334
 30
0.0
 10
3891.473286004167
 20
2150.767820317682
 30
0.0
 10
3891.474100702243
 20
2150.768030480282
 30
0.0
 10
3891.474912908751
 20
2150.768249746163
 30
0.0
 10
3891.475722547672
 20
2150.768478092342
 30
0.0
 10
3891.476529542984
 20
2150.768715495823
 30
0.0
 10
3891.477333818666
 20
2150.76896193359
 30
0.0
 10
3891.478135298698
 20
2150.769217382617
 30
0.0
 10
3891.478933907052
 20
2150.769481819853
 30
0.0
 10
3891.479729567733
 20
2150.76975522225
 30
0.0
 10
3891.480522204632
 20
2150.770037566688
 30
0.0
 10
3891.481311742038
 20
2150.770328830223
 30
0.0
 10
3891.482098102783
 20
2150.770628989193
 30
0.0
 10
3891.482881215124
 20
2150.77093802256
 30
0.0
 10
3891.484537620494
 20
2150.771613262236
 30
0.0
 10
3891.487038953242
 20
2150.772722052431
 30
0.0
 10
3891.490327986054
 20
2150.774377651554
 30
0.0
 10
3891.493531983563
 20
2150.776192674416
 30
0.0
 10
3891.497679515472
 20
2150.77881895849
 30
0.0
 10
3891.502615251521
 20
2150.782479399761
 30
0.0
 10
3891.508077297316
 20
2150.787430064768
 30
0.0
 10
3891.513027957236
 20
2150.792892119692
 30
0.0
 10
3891.516688405494
 20
2150.797827847652
 30
0.0
 10
3891.519314698687
 20
2150.801975381567
 30
0.0
 10
3891.521129723508
 20
2150.805179372516
 30
0.0
 10
3891.522785321949
 20
2150.808468421841
 30
0.0
 10
3891.524014540383
 20
2150.811241453956
 30
0.0
 10
3891.524900949374
 20
2150.813453401348
 30
0.0
 10
3891.525508213421
 20
2150.815076398376
 30
0.0
 10
3891.526077653711
 20
2150.816712487281
 30
0.0
 10
3891.526609075125
 20
2150.81836101748
 30
0.0
 10
3891.527102274829
 20
2150.82002132253
 30
0.0
 10
3891.527557052037
 20
2150.821692740002
 30
0.0
 10
3891.527973205369
 20
2150.823374606003
 30
0.0
 10
3891.52835051602
 20
2150.825066176902
 30
0.0
 10
3891.528688676288
 20
2150.826766223401
 30
0.0
 10
3891.528987424138
 20
2150.828473422887
 30
0.0
 10
3891.52924656764
 20
2150.830186521999
 30
0.0
 10
3891.529466043557
 20
2150.831904749113
 30
0.0
 10
3891.529645713962
 20
2150.833627412095
 30
0.0
 10
3891.529785772444
 20
2150.835353817212
 30
0.0
 10
3891.529885175723
 20
2150.837083276762
 30
0.0
 10
3891.529947499365
 20
2150.838815122359
 30
0.0
 10
3891.529955207547
 20
2150.839970509597
 30
0.0
 10
3891.529959062539
 20
2150.840548338338
 30
0.0
  0
SPLINE
  5
12BC
330
1F
100
AcDbEntity
  8
SANINDUSA
100
AcDbSpline
210
0.0
220
0.0
230
1.0
 70
     8
 71
     3
 72
    33
 73
    29
 74
     0
 42
0.0000000001
 43
0.0000000001
 40
0.0
 40
0.0
 40
0.0
 40
0.0
 40
0.0384872809173131
 40
0.0769651259264616
 40
0.1154347700846224
 40
0.1538974422072501
 40
0.1923543657844153
 40
0.2308067598994101
 40
0.2692558401497386
 40
0.3077028195694755
 40
0.3461489095529675
 40
0.3845953207792789
 40
0.4230432641367989
 40
0.4614939516481029
 40
0.4999485973938209
 40
0.538408418435831
 40
0.5768746357389123
 40
0.6153484750905712
 40
0.6538311680184389
 40
0.6923208718266883
 40
0.7308028581931049
 40
0.769276082173691
 40
0.8077417747231592
 40
0.8462011610694609
 40
0.8846554616315714
 40
0.9231058929394945
 40
0.9615536685560094
 40
1.0
 40
1.0
 40
1.0
 40
1.0
 10
3891.454959053943
 20
2150.915548312811
 30
0.0
 10
3891.454677764582
 20
2150.915547399717
 30
0.0
 10
3891.454115254822
 20
2150.915545573756
 30
0.0
 10
3891.453271691378
 20
2150.915530800316
 30
0.0
 10
3891.452428521211
 20
2150.915507226156
 30
0.0
 10
3891.451585823877
 20
2150.915473995155
 30
0.0
 10
3891.450743678932
 20
2150.915431346597
 30
0.0
 10
3891.449902165933
 20
2150.915379226344
 30
0.0
 10
3891.449061364435
 20
2150.915317658855
 30
0.0
 10
3891.448221353996
 20
2150.915246647536
 30
0.0
 10
3891.447382214174
 20
2150.915166201428
 30
0.0
 10
3891.446544024527
 20
2150.915076328064
 30
0.0
 10
3891.445706864612
 20
2150.914977035379
 30
0.0
 10
3891.44487081399
 20
2150.914868331197
 30
0.0
 10
3891.444035952219
 20
2150.914750223373
 30
0.0
 10
3891.443202358861
 20
2150.914622719753
 30
0.0
 10
3891.442370113475
 20
2150.914485828182
 30
0.0
 10
3891.441539295623
 20
2150.914339556501
 30
0.0
 10
3891.440710006994
 20
2150.914183916726
 30
0.0
 10
3891.439882463583
 20
2150.914018944728
 30
0.0
 10
3891.439056896288
 20
2150.913844687066
 30
0.0
 10
3891.438233512947
 20
2150.91366119125
 30
0.0
 10
3891.437412405102
 20
2150.913468488207
 30
0.0
 10
3891.436593654044
 20
2150.913266585259
 30
0.0
 10
3891.435777318424
 20
2150.913055564945
 30
0.0
 10
3891.43496354137
 20
2150.912835229124
 30
0.0
 10
3891.434152150781
 20
2150.912606427029
 30
0.0
 10
3891.433613479735
 20
2150.912446207255
 30
0.0
 10
3891.43334414927
 20
2150.912366098872
 30
0.0
  0
SPLINE
  5
12BE
330
1F
100
AcDbEntity
  8
SANINDUSA
100
AcDbSpline
210
0.0
220
0.0
230
1.0
 70
     8
 71
     3
 72
    53
 73
    49
 74
     0
 42
0.0000000001
 43
0.0000000001
 40
0.0
 40
0.0
 40
0.0
 40
0.0
 40
0.0132496957092188
 40
0.0264999275844108
 40
0.0397511099882453
 40
0.0530036579977029
 40
0.066257987717281
 40
0.0795145165916927
 40
0.092773663717943
 40
0.1060358501565801
 40
0.119300471625618
 40
0.1325624662687908
 40
0.1458214473702593
 40
0.1590778358557605
 40
0.1723320507015313
 40
0.1855845092455412
 40
0.198835627499483
 40
0.2120858204613395
 40
0.2253355024284494
 40
0.2385850873108672
 40
0.2518349889448589
 40
0.2650856214064644
 40
0.2783373993248615
 40
0.2915907381955222
 40
0.3048460546929032
 40
0.3181037669825645
 40
0.331364295032565
 40
0.3446280609240361
 40
0.4027285539509042
 40
0.4607941021332066
 40
0.5188596500285698
 40
0.5769601422646793
 40
0.6034157764637119
 40
0.6298601952878409
 40
0.6562967260475454
 40
0.6827286723928948
 40
0.7091593241788095
 40
0.7355919673571082
 40
0.7620298938769326
 40
0.7884764115750257
 40
0.8149341958688733
 40
0.8413871584802537
 40
0.8678296143765921
 40
0.8942648850613132
 40
0.9206962705132387
 40
0.9471270590662308
 40
0.9735605373109208
 40
1.0
 40
1.0
 40
1.0
 40
1.0
 10
3891.432951105227
 20
2150.912246629367
 30
0.0
 10
3891.432683778896
 20
2150.912163626133
 30
0.0
 10
3891.432149115414
 20
2150.911997616304
 30
0.0
 10
3891.431350694618
 20
2150.911737227771
 30
0.0
 10
3891.430554978605
 20
2150.911468539824
 30
0.0
 10
3891.429762294203
 20
2150.911190757062
 30
0.0
 10
3891.428972649729
 20
2150.910904121734
 30
0.0
 10
3891.428186138858
 20
2150.910608598012
 30
0.0
 10
3891.427402832388
 20
2150.910304224591
 30
0.0
 10
3891.426622827395
 20
2150.909991028279
 30
0.0
 10
3891.425846325995
 20
2150.909669086667
 30
0.0
 10
3891.425073543895
 20
2150.909338489012
 30
0.0
 10
3891.424304673938
 20
2150.908999322983
 30
0.0
 10
3891.423539801566
 20
2150.908651632551
 30
0.0
 10
3891.42277899648
 20
2150.908295454985
 30
0.0
 10
3891.422022328386
 20
2150.90793082754
 30
0.0
 10
3891.421269866988
 20
2150.907557787479
 30
0.0
 10
3891.420521681991
 20
2150.90717637206
 30
0.0
 10
3891.4197778431
 20
2150.906786618541
 30
0.0
 10
3891.419038420021
 20
2150.906388564181
 30
0.0
 10
3891.418303482459
 20
2150.905982246236
 30
0.0
 10
3891.417573100124
 20
2150.905567701967
 30
0.0
 10
3891.416847342704
 20
2150.905144968617
 30
0.0
 10
3891.416126279977
 20
2150.904714083496
 30
0.0
 10
3891.415409981382
 20
2150.904275083659
 30
0.0
 10
3891.414698517625
 20
2150.903828007112
 30
0.0
 10
3891.413991954684
 20
2150.903372888304
 30
0.0
 10
3891.412499912448
 20
2150.90238798831
 30
0.0
 10
3891.410263348177
 20
2150.900812804341
 30
0.0
 10
3891.407360482651
 20
2150.898547342363
 30
0.0
 10
3891.404572214711
 20
2150.896142210093
 30
0.0
 10
3891.40238906787
 20
2150.894063703271
 30
0.0
 10
3891.400749437944
 20
2150.892386997986
 30
0.0
 10
3891.399604576996
 20
2150.891162670081
 30
0.0
 10
3891.398487696726
 20
2150.889913449645
 30
0.0
 10
3891.397399185333
 20
2150.888639812933
 30
0.0
 10
3891.396339443364
 20
2150.887342247223
 30
0.0
 10
3891.395308868108
 20
2150.886021236805
 30
0.0
 10
3891.394307857646
 20
2150.884677266796
 30
0.0
 10
3891.393336818309
 20
2150.883310833241
 30
0.0
 10
3891.392396384438
 20
2150.881922774035
 30
0.0
 10
3891.391487264565
 20
2150.88051410961
 30
0.0
 10
3891.39061008887
 20
2150.879085891135
 30
0.0
 10
3891.389765316194
 20
2150.877638805124
 30
0.0
 10
3891.388953019656
 20
2150.876173506348
 30
0.0
 10
3891.388174325547
 20
2150.874690169223
 30
0.0
 10
3891.387426429524
 20
2150.873190760891
 30
0.0
 10
3891.386956349502
 20
2150.872177448171
 30
0.0
 10
3891.386721282888
 20
2150.871670734464
 30
0.0
  0
SPLINE
  5
12C0
330
1F
100
AcDbEntity
  8
SANINDUSA
100
AcDbSpline
210
0.0
220
0.0
230
1.0
 70
     8
 71
     3
 72
    10
 73
     6
 74
     0
 42
0.0000000001
 43
0.0000000001
 40
0.0
 40
0.0
 40
0.0
 40
0.0
 40
0.3333333333333332
 40
0.6666666666666662
 40
0.9999999999999998
 40
0.9999999999999998
 40
0.9999999999999998
 40
0.9999999999999998
 10
3891.380077175454
 20
2150.844755751494
 30
0.0
 10
3891.380361593359
 20
2150.847809196815
 30
0.0
 10
3891.380930429168
 20
2150.853916087457
 30
0.0
 10
3891.383127314794
 20
2150.862889654042
 30
0.0
 10
3891.385443874823
 20
2150.86856867131
 30
0.0
 10
3891.386602154838
 20
2150.871408179944
 30
0.0
  0
LINE
  5
12C1
330
1F
100
AcDbEntity
  8
SANINDUSA
100
AcDbLine
 10
3891.379959064121
 20
2150.840548288895
 30
0.0
 11
3891.380077175454
 21
2150.844755751494
 31
0.0
  0
SPLINE
  5
12C3
330
1F
100
AcDbEntity
  8
SANINDUSA
100
AcDbSpline
210
0.0
220
0.0
230
1.0
 70
     8
 71
     3
 72
    12
 73
     8
 74
     0
 42
0.0000000001
 43
0.0000000001
 40
0.0
 40
0.0
 40
0.0
 40
0.0
 40
0.2000796011270709
 40
0.4001141276463149
 40
0.6001088656996395
 40
0.8000690765900037
 40
0.9999999999999998
 40
0.9999999999999998
 40
0.9999999999999998
 40
0.9999999999999998
 10
3891.529959052493
 20
2150.840548287545
 30
0.0
 10
3891.529958299848
 20
2150.840803406395
 30
0.0
 10
3891.529956794729
 20
2150.841313586622
 30
0.0
 10
3891.529944674764
 20
2150.842078699759
 30
0.0
 10
3891.529925165225
 20
2150.842843493831
 30
0.0
 10
3891.52989827053
 20
2150.84360794565
 30
0.0
 10
3891.529873779985
 20
2150.84411725528
 30
0.0
 10
3891.52986153561
 20
2150.844371891445
 30
0.0
  0
SPLINE
  5
12C4
330
1F
100
AcDbEntity
  8
SANINDUSA
100
AcDbSpline
210
0.0
220
0.0
230
1.0
 70
     8
 71
     3
 72
    39
 73
    35
 74
     0
 42
0.0000000001
 43
0.0000000001
 40
0.0
 40
0.0
 40
0.0
 40
0.0
 40
0.0314239979215896
 40
0.062844862723885
 40
0.0942635481741471
 40
0.1256810064220055
 40
0.1570981886965744
 40
0.1885160460038793
 40
0.2199355298245329
 40
0.2513575928110383
 40
0.2827831894845891
 40
0.3142132769310227
 40
0.3456488154955345
 40
0.3770907694759673
 40
0.4085401078141607
 40
0.4399921584314663
 40
0.4714367515177322
 40
0.5028745585801994
 40
0.5343065454766294
 40
0.5657336738081744
 40
0.5971569016119754
 40
0.6285771840553697
 40
0.6599954741314937
 40
0.6914127233556861
 40
0.7228298824626364
 40
0.7542479021038974
 40
0.7856677335453222
 40
0.8170903293642943
 40
0.8485166441463006
 40
0.879947635180558
 40
0.9113842631544958
 40
0.9428274928465251
 40
0.9742782938171185
 40
1.0
 40
1.0
 40
1.0
 40
1.0
 10
3891.52986153561
 20
2150.844371891445
 30
0.0
 10
3891.529846614383
 20
2150.844647011677
 30
0.0
 10
3891.529816773417
 20
2150.845197224712
 30
0.0
 10
3891.529760485112
 20
2150.846021822476
 30
0.0
 10
3891.529695770908
 20
2150.846845731757
 30
0.0
 10
3891.529621810115
 20
2150.847668835334
 30
0.0
 10
3891.529538831991
 20
2150.84849106958
 30
0.0
 10
3891.529446784485
 20
2150.849312356508
 30
0.0
 10
3891.529345690918
 20
2150.850132621977
 30
0.0
 10
3891.529235554412
 20
2150.850951790817
 30
0.0
 10
3891.529116383504
 20
2150.851769788132
 30
0.0
 10
3891.528988185278
 20
2150.852586538951
 30
0.0
 10
3891.528850967208
 20
2150.853401968324
 30
0.0
 10
3891.52870473666
 20
2150.854216001294
 30
0.0
 10
3891.528549510317
 20
2150.855028514278
 30
0.0
 10
3891.528385326681
 20
2150.855839288345
 30
0.0
 10
3891.52821223188
 20
2150.856648103381
 30
0.0
 10
3891.528030267607
 20
2150.857454788932
 30
0.0
 10
3891.527839456286
 20
2150.858259270356
 30
0.0
 10
3891.527639819795
 20
2150.859061475578
 30
0.0
 10
3891.527431380007
 20
2150.859861332521
 30
0.0
 10
3891.527214158797
 20
2150.860658769109
 30
0.0
 10
3891.526988178041
 20
2150.861453713265
 30
0.0
 10
3891.526753459604
 20
2150.862246092911
 30
0.0
 10
3891.526510025381
 20
2150.863035835977
 30
0.0
 10
3891.526257897174
 20
2150.863822870354
 30
0.0
 10
3891.525997097108
 20
2150.864607124075
 30
0.0
 10
3891.525727646103
 20
2150.865388524652
 30
0.0
 10
3891.525449569593
 20
2150.866167001526
 30
0.0
 10
3891.525162876136
 20
2150.866942476944
 30
0.0
 10
3891.524867637292
 20
2150.867714900001
 30
0.0
 10
3891.524563689429
 20
2150.868484119567
 30
0.0
 10
3891.524270716214
 20
2150.869203763581
 30
0.0
 10
3891.524075931751
 20
2150.869665656938
 30
0.0
 10
3891.523988298919
 20
2150.869873461105
 30
0.0
  0
SPLINE
  5
12C6
330
1F
100
AcDbEntity
  8
SANINDUSA
100
AcDbSpline
210
0.0
220
0.0
230
1.0
 70
     8
 71
     3
 72
    54
 73
    50
 74
     0
 42
0.0000000001
 43
0.0000000001
 40
0.0
 40
0.0
 40
0.0
 40
0.0
 40
0.0142476299337966
 40
0.0284924094528097
 40
0.0427347604829726
 40
0.0569751032354093
 40
0.0712138564995994
 40
0.0854514379371408
 40
0.099688264376068
 40
0.1139247521054695
 40
0.1281613171703923
 40
0.1423983756667901
 40
0.1566363440365245
 40
0.1708756393621381
 40
0.1851166796613705
 40
0.1993598841812593
 40
0.2136056736917321
 40
0.227854470778415
 40
0.2421066423901111
 40
0.2563579871950749
 40
0.2706060054300033
 40
0.2848511212365364
 40
0.2990937567174208
 40
0.3133343322287108
 40
0.3275732666728093
 40
0.341810977792081
 40
0.3560478824629751
 40
0.3702843969905551
 40
0.3845209374031897
 40
0.3987579197474368
 40
0.4129957603828417
 40
0.4272348762766003
 40
0.4414756852979914
 40
0.4557186065123235
 40
0.4699640604743852
 40
0.4842124695212508
 40
0.4984642580642213
 40
0.5630058342107559
 40
0.6275085911813174
 40
0.6920113470972448
 40
0.7565529202116525
 40
0.7870015140205597
 40
0.8174368771532877
 40
0.8478631187025996
 40
0.8782843184071539
 40
0.9087045397426466
 40
0.9391278430468597
 40
0.9695582986522971
 40
1.0
 40
1.0
 40
1.0
 40
1.0
 10
3891.523855907864
 20
2150.870183164348
 30
0.0
 10
3891.523748064678
 20
2150.870431737987
 30
0.0
 10
3891.523532399882
 20
2150.870928835535
 30
0.0
 10
3891.523198710859
 20
2150.871669914292
 30
0.0
 10
3891.52285764872
 20
2150.87240746304
 30
0.0
 10
3891.522508510689
 20
2150.87314110191
 30
0.0
 10
3891.522151527784
 20
2150.87387085269
 30
0.0
 10
3891.52178668087
 20
2150.874596629569
 30
0.0
 10
3891.521414017826
 20
2150.875318375562
 30
0.0
 10
3891.521033568578
 20
2150.876036025959
 30
0.0
 10
3891.52064536786
 20
2150.876749518119
 30
0.0
 10
3891.520249449119
 20
2150.877458788849
 30
0.0
 10
3891.519845846144
 20
2150.8781637751
 30
0.0
 10
3891.519434592634
 20
2150.878864413787
 30
0.0
 10
3891.519015722311
 20
2150.879560641833
 30
0.0
 10
3891.518589268889
 20
2150.880252396156
 30
0.0
 10
3891.518155266086
 20
2150.880939613679
 30
0.0
 10
3891.517713748213
 20
2150.881622230397
 30
0.0
 10
3891.517264798232
 20
2150.882300108952
 30
0.0
 10
3891.516808533974
 20
2150.882973068281
 30
0.0
 10
3891.516345078412
 20
2150.883640932097
 30
0.0
 10
3891.515874508155
 20
2150.88430359905
 30
0.0
 10
3891.515396868579
 20
2150.884961013852
 30
0.0
 10
3891.514912205062
 20
2150.885613121213
 30
0.0
 10
3891.514420562979
 20
2150.886259865844
 30
0.0
 10
3891.513921987705
 20
2150.886901192455
 30
0.0
 10
3891.513416524619
 20
2150.887537045758
 30
0.0
 10
3891.512904219092
 20
2150.888167370462
 30
0.0
 10
3891.512385116502
 20
2150.888792111274
 30
0.0
 10
3891.511859262222
 20
2150.889411212909
 30
0.0
 10
3891.51132670163
 20
2150.890024620069
 30
0.0
 10
3891.510787480083
 20
2150.89063227748
 30
0.0
 10
3891.51024164302
 20
2150.891234129793
 30
0.0
 10
3891.509689235578
 20
2150.891830121928
 30
0.0
 10
3891.50913030401
 20
2150.892420197804
 30
0.0
 10
3891.508564890401
 20
2150.893004305071
 30
0.0
 10
3891.507320501787
 20
2150.894262260481
 30
0.0
 10
3891.505345899837
 20
2150.896142219845
 30
0.0
 10
3891.502557649037
 20
2150.898547338973
 30
0.0
 10
3891.499654766959
 20
2150.900812815865
 30
0.0
 10
3891.497173801623
 20
2150.902560130145
 30
0.0
 10
3891.495175138931
 20
2150.903862368185
 30
0.0
 10
3891.493698509748
 20
2150.904776474858
 30
0.0
 10
3891.492201580826
 20
2150.905655900005
 30
0.0
 10
3891.490684928991
 20
2150.906500258253
 30
0.0
 10
3891.489149275661
 20
2150.907309460036
 30
0.0
 10
3891.487594850151
 20
2150.908082275661
 30
0.0
 10
3891.486023705939
 20
2150.908821740981
 30
0.0
 10
3891.484962205396
 20
2150.909283782592
 30
0.0
 10
3891.484431357072
 20
2150.909514846077
 30
0.0
  0
SPLINE
  5
12C8
330
1F
100
AcDbEntity
  8
SANINDUSA
100
AcDbSpline
210
0.0
220
0.0
230
1.0
 70
     8
 71
     3
 72
    33
 73
    29
 74
     0
 42
0.0000000001
 43
0.0000000001
 40
0.0
 40
0.0
 40
0.0
 40
0.0
 40
0.029797479257778
 40
0.0595935838357257
 40
0.0893823436400488
 40
0.1191647555603232
 40
0.1489418114830467
 40
0.1787144990646324
 40
0.2084838025066096
 40
0.2382507033324711
 40
0.2680161811658217
 40
0.2977812145096818
 40
0.3275467815261868
 40
0.357313860816522
 40
0.3870834322007317
 40
0.4168564774968741
 40
0.4466339812992464
 40
0.476416931755303
 40
0.5062063213407039
 40
0.5360031476324502
 40
0.5940379548033575
 40
0.6520481419426361
 40
0.7100410332332552
 40
0.7680239011385993
 40
0.8260039882013494
 40
0.88398852889948
 40
0.9419847715186493
 40
1.0
 40
1.0
 40
1.0
 40
1.0
 10
3891.484382856785
 20
2150.909535552194
 30
0.0
 10
3891.484118114096
 20
2150.909647431195
 30
0.0
 10
3891.483588640933
 20
2150.909871184035
 30
0.0
 10
3891.48278967732
 20
2150.910195179474
 30
0.0
 10
3891.481987450906
 20
2150.910510573924
 30
0.0
 10
3891.481181751667
 20
2150.910816487458
 30
0.0
 10
3891.480372756019
 20
2150.911113117609
 30
0.0
 10
3891.479560520176
 20
2150.911400380075
 30
0.0
 10
3891.478745132547
 20
2150.911678266046
 30
0.0
 10
3891.477926672918
 20
2150.911946746491
 30
0.0
 10
3891.477105223381
 20
2150.912205797793
 30
0.0
 10
3891.476280865414
 20
2150.912455394885
 30
0.0
 10
3891.475453680655
 20
2150.912695513086
 30
0.0
 10
3891.474623750704
 20
2150.912926127611
 30
0.0
 10
3891.47379115716
 20
2150.913147213705
 30
0.0
 10
3891.472955981654
 20
2150.913358746595
 30
0.0
 10
3891.472118305689
 20
2150.913560701535
 30
0.0
 10
3891.471278211243
 20
2150.913753053687
 30
0.0
 10
3891.470435778524
 20
2150.913935778556
 30
0.0
 10
3891.469324345825
 20
2150.91416350587
 30
0.0
 10
3891.467941560272
 20
2150.914422501904
 30
0.0
 10
3891.466284946995
 20
2150.91469454822
 30
0.0
 10
3891.464623153144
 20
2150.914929401129
 30
0.0
 10
3891.462956809996
 20
2150.915126931908
 30
0.0
 10
3891.461286547538
 20
2150.915287324392
 30
0.0
 10
3891.45961297741
 20
2150.915409600824
 30
0.0
 10
3891.457936785875
 20
2150.915497117945
 30
0.0
 10
3891.456818078179
 20
2150.915523733714
 30
0.0
 10
3891.45625863279
 20
2150.915537043776
 30
0.0
  0
CIRCLE
  5
12CB
330
1F
100
AcDbEntity
  8
SANINDUSA
100
AcDbCircle
 10
3891.454959062539
 20
2150.840548287977
 30
0.0
 40
0.0603125
  0
CIRCLE
  5
12CC
330
1F
100
AcDbEntity
  8
SANINDUSA
100
AcDbCircle
 10
3891.454959062539
 20
2150.840548287977
 30
0.0
 40
0.05
  0
LINE
  5
12D5
330
1F
100
AcDbEntity
  8
SANINDUSA
100
AcDbLine
 10
3894.202383601452
 20
2150.991172483576
 30
0.0
 11
3894.203623591508
 21
2151.062211466309
 31
0.0
  0
LINE
  5
12D8
330
1F
100
AcDbEntity
  8
SANINDUSA
100
AcDbLine
 10
3894.206382992233
 20
2150.991172483576
 30
0.0
 11
3894.202383601452
 21
2150.991172483576
 31
0.0
  0
LINE
  5
12DD
330
1F
100
AcDbEntity
  8
SANINDUSA
100
AcDbLine
 10
3894.206382992233
 20
2150.991172483576
 30
0.0
 11
3894.901002470412
 21
2150.991172483576
 31
0.0
  0
LINE
  5
12DF
330
1F
100
AcDbEntity
  8
SANINDUSA
100
AcDbLine
 10
3894.903761871136
 20
2151.062211466309
 30
0.0
 11
3894.905001861192
 21
2150.991172483576
 31
0.0
  0
LINE
  5
12E0
330
1F
100
AcDbEntity
  8
SANINDUSA
100
AcDbLine
 10
3894.905001861192
 20
2150.991172483576
 30
0.0
 11
3894.901002470412
 21
2150.991172483576
 31
0.0
  0
ELLIPSE
  5
12E2
330
1F
100
AcDbEntity
  8
SANINDUSA
100
AcDbEllipse
 10
3894.216418325321
 20
2151.566026521528
 30
0.0
 11
0.7098807129516804
 21
-0.0000979247970713
 31
0.0
210
0.0
220
0.0
230
1.0
 40
0.7042364038113953
 41
4.700145098378954
 42
4.712486126574838
  0
LINE
  5
12E4
330
1F
100
AcDbEntity
  8
SANINDUSA
100
AcDbLine
 10
3894.216418325321
 20
2151.066102673951
 30
0.0
 11
3894.890967137323
 21
2151.066102673951
 31
0.0
  0
ELLIPSE
  5
12E6
330
1F
100
AcDbEntity
  8
SANINDUSA
100
AcDbEllipse
 10
3894.890967137323
 20
2151.566026521528
 30
0.0
 11
0.7098807129518247
 21
0.0000979247970707
 31
0.0
210
0.0
220
0.0
230
1.0
 40
0.704236403811252
 41
4.71229183419456
 42
4.724632862390443
  0
ARC
  5
12E8
330
1F
100
AcDbEntity
  8
SANINDUSA
100
AcDbCircle
 10
3894.207622903262
 20
2151.062141582776
 30
0.0
 40
0.0039999222755558
100
AcDbArc
 50
89.49883921382092
 51
178.9989217436751
  0
ARC
  5
12E9
330
1F
100
AcDbEntity
  8
SANINDUSA
100
AcDbCircle
 10
3894.899762559382
 20
2151.062141582776
 30
0.0
 40
0.003999922275557
100
AcDbArc
 50
1.001078256324845
 51
90.50116078617909
  0
SPLINE
  5
12F0
330
1F
100
AcDbEntity
  8
SANINDUSA
100
AcDbSpline
210
0.0
220
0.0
230
1.0
 70
     8
 71
     3
 72
    47
 73
    43
 74
     0
 42
0.0000000001
 43
0.0000000001
 40
0.0
 40
0.0
 40
0.0
 40
0.0
 40
0.0249544924460744
 40
0.0499606830939441
 40
0.0750426939726988
 40
0.100201530327191
 40
0.1254209656797389
 40
0.1506737364824303
 40
0.1759268947716834
 40
0.2011473964051833
 40
0.2263077774038353
 40
0.2513918299626509
 40
0.2764002657590208
 40
0.3013562407620954
 40
0.3263003773029984
 40
0.3512445819408938
 40
0.3761889080200297
 40
0.4011334077103936
 40
0.4260781341472325
 40
0.4510231413767926
 40
0.4759684843233769
 40
0.5009142187777497
 40
0.5258604014069012
 40
0.5508070897851526
 40
0.5757543424465847
 40
0.6007022189587723
 40
0.6256507800178238
 40
0.6506000875647492
 40
0.6755502029030204
 40
0.7005011739850444
 40
0.7254530576335931
 40
0.7504059125816421
 40
0.7753597966256168
 40
0.8003147665511439
 40
0.8252708780356954
 40
0.850228185528126
 40
0.8751867421051526
 40
0.9001465993048412
 40
0.9251078069372161
 40
0.9500704128721949
 40
0.9750344628050843
 40
1.0
 40
1.0
 40
1.0
 40
1.0
 10
3895.698458799634
 20
2151.045130646173
 30
0.0
 10
3895.69532655571
 20
2151.045133198658
 30
0.0
 10
3895.689055578797
 20
2151.045138308916
 30
0.0
 10
3895.679636370689
 20
2151.045159750128
 30
0.0
 10
3895.670191551075
 20
2151.045193757707
 30
0.0
 10
3895.660720029137
 20
2151.045242639912
 30
0.0
 10
3895.651227163932
 20
2151.045306708546
 30
0.0
 10
3895.641722573884
 20
2151.045385973115
 30
0.0
 10
3895.632217986815
 20
2151.045480214796
 30
0.0
 10
3895.622725153538
 20
2151.045589084416
 30
0.0
 10
3895.613253721955
 20
2151.045712188559
 30
0.0
 10
3895.603809102304
 20
2151.045849196846
 30
0.0
 10
3895.594390352605
 20
2151.045999987188
 30
0.0
 10
3895.584989400389
 20
2151.046164677338
 30
0.0
 10
3895.575596768043
 20
2151.046343396045
 30
0.0
 10
3895.566205878233
 20
2151.046536273665
 30
0.0
 10
3895.55681524522
 20
2151.046743351392
 30
0.0
 10
3895.547424870749
 20
2151.046964637014
 30
0.0
 10
3895.538034756388
 20
2151.047200133241
 30
0.0
 10
3895.528644903271
 20
2151.047449839053
 30
0.0
 10
3895.519255312114
 20
2151.047713750696
 30
0.0
 10
3895.509865983236
 20
2151.047991862768
 30
0.0
 10
3895.500476916583
 20
2151.048284169282
 30
0.0
 10
3895.491088111739
 20
2151.048590664733
 30
0.0
 10
3895.481699567954
 20
2151.04891134518
 30
0.0
 10
3895.472311284154
 20
2151.049246209256
 30
0.0
 10
3895.462923258977
 20
2151.049595259467
 30
0.0
 10
3895.453535491004
 20
2151.049958502388
 30
0.0
 10
3895.444147980782
 20
2151.050335952876
 30
0.0
 10
3895.43476072938
 20
2151.050727621168
 30
0.0
 10
3895.42537373778
 20
2151.051133507121
 30
0.0
 10
3895.415987005947
 20
2151.051553615559
 30
0.0
 10
3895.406600533878
 20
2151.051987951538
 30
0.0
 10
3895.397214321988
 20
2151.05243652029
 30
0.0
 10
3895.387828371029
 20
2151.052899325053
 30
0.0
 10
3895.37844268224
 20
2151.053376368805
 30
0.0
 10
3895.369057256687
 20
2151.053867642488
 30
0.0
 10
3895.359672097633
 20
2151.054373163377
 30
0.0
 10
3895.350287201573
 20
2151.054892826401
 30
0.0
 10
3895.340902591604
 20
2151.055426953535
 30
0.0
 10
3895.331518192751
 20
2151.055974237781
 30
0.0
 10
3895.325262452116
 20
2151.056351008832
 30
0.0
 10
3895.322134488628
 20
2151.056539399969
 30
0.0
  0
SPLINE
  5
12F9
330
1F
100
AcDbEntity
  8
SANINDUSA
100
AcDbSpline
210
0.0
220
0.0
230
1.0
 70
     8
 71
     3
 72
    28
 73
    24
 74
     0
 42
0.0000000001
 43
0.0000000001
 40
0.0
 40
0.0
 40
0.0
 40
0.0
 40
0.0208682805876031
 40
0.0417301976005924
 40
0.0625857840313591
 40
0.0834350729023435
 40
0.1042780972659231
 40
0.1251148902042836
 40
0.1459454848293016
 40
0.1667699142824192
 40
0.1875882117345236
 40
0.2084004103858208
 40
0.2292065434657134
 40
0.2500066442326733
 40
0.3749847861820035
 40
0.5000139935683638
 40
0.6249517237564235
 40
0.7500175581584047
 40
0.8750089278652191
 40
0.9060965605744549
 40
0.9375041081842221
 40
0.9677239599310428
 40
1.0
 40
1.0
 40
1.0
 40
1.0
 10
3895.322328268328
 20
2151.059733527302
 30
0.0
 10
3895.324941811961
 20
2151.05957593675
 30
0.0
 10
3895.330168102253
 20
2151.059260803702
 30
0.0
 10
3895.338007091776
 20
2151.058800668904
 30
0.0
 10
3895.345844232839
 20
2151.058349825474
 30
0.0
 10
3895.353679579797
 20
2151.057909169492
 30
0.0
 10
3895.361513118094
 20
2151.057478460961
 30
0.0
 10
3895.369344851628
 20
2151.057057764162
 30
0.0
 10
3895.377174779356
 20
2151.056647061869
 30
0.0
 10
3895.385002901547
 20
2151.056246358734
 30
0.0
 10
3895.392829218174
 20
2151.055855653366
 30
0.0
 10
3895.400653729069
 20
2151.055474946682
 30
0.0
 10
3895.408476434942
 20
2151.055104236402
 30
0.0
 10
3895.429355159826
 20
2151.054141293989
 30
0.0
 10
3895.463303571466
 20
2151.052726057702
 30
0.0
 10
3895.510320069656
 20
2151.05112251108
 30
0.0
 10
3895.557358396735
 20
2151.049874808288
 30
0.0
 10
3895.604400050359
 20
2151.048984167971
 30
0.0
 10
3895.639672663526
 20
2151.048580676429
 30
0.0
 10
3895.663195632284
 20
2151.048427168295
 30
0.0
 10
3895.674828238792
 20
2151.048374217553
 30
0.0
 10
3895.686610026046
 20
2151.048341365478
 30
0.0
 10
3895.694451225034
 20
2151.048334282394
 30
0.0
 10
3895.698500816862
 20
2151.04833062433
 30
0.0
  0
SPLINE
  5
12FD
330
1F
100
AcDbEntity
  8
SANINDUSA
100
AcDbSpline
210
0.0
220
0.0
230
1.0
 70
     8
 71
     3
 72
    12
 73
     8
 74
     0
 42
0.0000000001
 43
0.0000000001
 40
0.0
 40
0.0
 40
0.0
 40
0.0
 40
0.5000000000000027
 40
0.5000000000000027
 40
0.7500000000000014
 40
0.7500000000000014
 40
1.0
 40
1.0
 40
1.0
 40
1.0
 10
3895.848500833134
 20
2151.048330248791
 30
0.0
 10
3895.853295141757
 20
2151.049466335257
 30
0.0
 10
3895.858002613134
 20
2151.050923736624
 30
0.0
 10
3895.864937877533
 20
2151.053575851307
 30
0.0
 10
3895.86722880719
 20
2151.054536946664
 30
0.0
 10
3895.871771213105
 20
2151.056605122707
 30
0.0
 10
3895.874013330051
 20
2151.05770798064
 30
0.0
 10
3895.876223730459
 20
2151.058870185448
 30
0.0
  0
SPLINE
  5
12FF
330
1F
100
AcDbEntity
  8
SANINDUSA
100
AcDbSpline
210
0.0
220
0.0
230
1.0
 70
     8
 71
     3
 72
    23
 73
    19
 74
     0
 42
0.0000000001
 43
0.0000000001
 40
0.0
 40
0.0
 40
0.0
 40
0.0
 40
0.0313775182665779
 40
0.0626307917706651
 40
0.0938009603002297
 40
0.1249294931421871
 40
0.1560580259845085
 40
0.1872281945151078
 40
0.2184814680209195
 40
0.2498589862899438
 40
0.3747993121190246
 40
0.4997396379579257
 40
0.6247497627724876
 40
0.7497598875982569
 40
0.81248689165167
 40
0.8748799437948967
 40
0.9372729959401377
 40
1.0
 40
1.0
 40
1.0
 40
1.0
 10
3895.322134507352
 20
2151.056539398829
 30
0.0
 10
3895.322047116279
 20
2151.056545605651
 30
0.0
 10
3895.321872680175
 20
2151.056557994719
 30
0.0
 10
3895.321612494429
 20
2151.056588484442
 30
0.0
 10
3895.321354218253
 20
2151.056627654477
 30
0.0
 10
3895.321097904563
 20
2151.056676352518
 30
0.0
 10
3895.320843540173
 20
2151.056734352701
 30
0.0
 10
3895.320591133366
 20
2151.056801712428
 30
0.0
 10
3895.32034067218
 20
2151.056878425374
 30
0.0
 10
3895.31984578135
 20
2151.057049777917
 30
0.0
 10
3895.319126769487
 20
2151.057373236609
 30
0.0
 10
3895.318242961115
 20
2151.057940546198
 30
0.0
 10
3895.317448859368
 20
2151.058628258958
 30
0.0
 10
3895.316878218255
 20
2151.059293562149
 30
0.0
 10
3895.316482493969
 20
2151.059869587912
 30
0.0
 10
3895.316218704661
 20
2151.06032223588
 30
0.0
 10
3895.315986350715
 20
2151.060792137205
 30
0.0
 10
3895.315860946267
 20
2151.061118334854
 30
0.0
 10
3895.315798076688
 20
2151.061281868999
 30
0.0
  0
SPLINE
  5
1300
330
1F
100
AcDbEntity
  8
SANINDUSA
100
AcDbSpline
210
0.0
220
0.0
230
1.0
 70
     8
 71
     3
 72
    16
 73
    12
 74
     0
 42
0.0000000001
 43
0.0000000001
 40
0.0
 40
0.0
 40
0.0
 40
0.0
 40
0.0836319956481454
 40
0.1667158896886153
 40
0.2500912008517726
 40
0.3747890834957106
 40
0.5000619175346454
 40
0.624759800148214
 40
0.7500326342163593
 40
0.8745841431643428
 40
1.0
 40
1.0
 40
1.0
 40
1.0
 10
3895.315059531332
 20
2151.061810209323
 30
0.0
 10
3895.31508642021
 20
2151.061808945296
 30
0.0
 10
3895.315140021743
 20
2151.061806425528
 30
0.0
 10
3895.315219445863
 20
2151.06179248647
 30
0.0
 10
3895.315309853828
 20
2151.061767699479
 30
0.0
 10
3895.315409276199
 20
2151.061726387842
 30
0.0
 10
3895.315512584494
 20
2151.061663535305
 30
0.0
 10
3895.315605695686
 20
2151.061585984708
 30
0.0
 10
3895.315685396217
 20
2151.061495195435
 30
0.0
 10
3895.315752110306
 20
2151.061393811009
 30
0.0
 10
3895.315782707783
 20
2151.061319300777
 30
0.0
 10
3895.315798059421
 20
2151.061281916839
 30
0.0
  0
LINE
  5
1301
330
1F
100
AcDbEntity
  8
SANINDUSA
100
AcDbLine
 10
3895.252444353011
 20
2151.062903161326
 30
0.0
 11
3895.315059489945
 21
2151.061810210045
 31
0.0
  0
ARC
  5
1302
330
1F
100
AcDbEntity
  8
SANINDUSA
100
AcDbCircle
 10
3895.252430391087
 20
2151.06210328317
 30
0.0
 40
0.0008000000000001
100
AcDbArc
 50
88.99999999027992
 51
178.9999999902799
  0
LINE
  5
1303
330
1F
100
AcDbEntity
  8
SANINDUSA
100
AcDbLine
 10
3895.25163051293
 20
2151.062117245094
 30
0.0
 11
3895.250392167511
 21
2150.991172483576
 31
0.0
  0
LINE
  5
1304
330
1F
100
AcDbEntity
  8
SANINDUSA
100
AcDbLine
 10
3895.247191680061
 20
2150.991172483576
 30
0.0
 11
3895.250392167511
 21
2150.991172483576
 31
0.0
  0
LINE
  5
1305
330
1F
100
AcDbEntity
  8
SANINDUSA
100
AcDbLine
 10
3895.248431000305
 20
2151.062173092796
 30
0.0
 11
3895.247191680061
 21
2150.991172483576
 31
0.0
  0
ARC
  5
1306
330
1F
100
AcDbEntity
  8
SANINDUSA
100
AcDbCircle
 10
3895.252430391087
 20
2151.06210328317
 30
0.0
 40
0.0040000000000002
100
AcDbArc
 50
88.99999999027992
 51
178.9999999902799
  0
LINE
  5
1307
330
1F
100
AcDbEntity
  8
SANINDUSA
100
AcDbLine
 10
3895.252500200712
 20
2151.066102673951
 30
0.0
 11
3895.315115337646
 21
2151.065009722669
 31
0.0
  0
SPLINE
  5
1308
330
1F
100
AcDbEntity
  8
SANINDUSA
100
AcDbSpline
210
0.0
220
0.0
230
1.0
 70
     8
 71
     3
 72
    14
 73
    10
 74
     0
 42
0.0000000001
 43
0.0000000001
 40
0.0
 40
0.0
 40
0.0
 40
0.0
 40
0.25
 40
0.25
 40
0.5
 40
0.5
 40
0.75
 40
0.75
 40
1.0
 40
1.0
 40
1.0
 40
1.0
 10
3895.315115379032
 20
2151.065009721947
 30
0.0
 10
3895.315517643356
 20
2151.065002700397
 30
0.0
 10
3895.31591878502
 20
2151.064934533045
 30
0.0
 10
3895.31668279132
 20
2151.064682029723
 30
0.0
 10
3895.317045550854
 20
2151.064497728491
 30
0.0
 10
3895.31769999857
 20
2151.064029581355
 30
0.0
 10
3895.317991596722
 20
2151.063745799854
 30
0.0
 10
3895.318477349422
 20
2151.063104311063
 30
0.0
 10
3895.318671437145
 20
2151.062746692022
 30
0.0
 10
3895.318808019482
 20
2151.062368259526
 30
0.0
  0
SPLINE
  5
1309
330
1F
100
AcDbEntity
  8
SANINDUSA
100
AcDbSpline
210
0.0
220
0.0
230
1.0
 70
     8
 71
     3
 72
    14
 73
    10
 74
     0
 42
0.0000000001
 43
0.0000000001
 40
0.0
 40
0.0
 40
0.0
 40
0.0
 40
0.25
 40
0.25
 40
0.5
 40
0.5
 40
0.75
 40
0.75
 40
1.0
 40
1.0
 40
1.0
 40
1.0
 10
3895.318808029074
 20
2151.062368232948
 30
0.0
 10
3895.318939732106
 20
2151.062003327747
 30
0.0
 10
3895.319124877028
 20
2151.061657760072
 30
0.0
 10
3895.319586573349
 20
2151.061034187717
 30
0.0
 10
3895.319863069822
 20
2151.06075625722
 30
0.0
 10
3895.320484245497
 20
2151.060291341361
 30
0.0
 10
3895.3208288508
 20
2151.060104411307
 30
0.0
 10
3895.321557288847
 20
2151.059837233486
 30
0.0
 10
3895.321941034931
 20
2151.059757017503
 30
0.0
 10
3895.322328268328
 20
2151.059733527302
 30
0.0
  0
LINE
  5
130A
330
1F
100
AcDbEntity
  8
SANINDUSA
100
AcDbLine
 10
3895.713188323115
 20
2151.047817584932
 30
0.0
 11
3895.698500824698
 21
2151.048330387017
 31
0.0
  0
LINE
  5
130B
330
1F
100
AcDbEntity
  8
SANINDUSA
100
AcDbLine
 10
3895.723500823115
 20
2151.036817584932
 30
0.0
 11
3895.713188323115
 21
2151.047817584932
 31
0.0
  0
LINE
  5
130C
330
1F
100
AcDbEntity
  8
SANINDUSA
100
AcDbLine
 10
3895.823500823115
 20
2151.036817584932
 30
0.0
 11
3895.723500823115
 21
2151.036817584932
 31
0.0
  0
LINE
  5
130D
330
1F
100
AcDbEntity
  8
SANINDUSA
100
AcDbLine
 10
3895.833813323115
 20
2151.047817584932
 30
0.0
 11
3895.823500823115
 21
2151.036817584932
 31
0.0
  0
LINE
  5
130E
330
1F
100
AcDbEntity
  8
SANINDUSA
100
AcDbLine
 10
3895.848500821533
 20
2151.048330387017
 30
0.0
 11
3895.833813323115
 21
2151.047817584932
 31
0.0
  0
SPLINE
  5
130F
330
1F
100
AcDbEntity
  8
SANINDUSA
100
AcDbSpline
210
0.0
220
0.0
230
1.0
 70
     8
 71
     3
 72
    14
 73
    10
 74
     0
 42
0.0000000001
 43
0.0000000001
 40
0.0
 40
0.0
 40
0.0
 40
0.0
 40
0.25
 40
0.25
 40
0.5
 40
0.5
 40
0.75
 40
0.75
 40
1.0
 40
1.0
 40
1.0
 40
1.0
 10
3895.878300891263
 20
2151.061712953244
 30
0.0
 10
3895.878248058799
 20
2151.061414689601
 30
0.0
 10
3895.87816155088
 20
2151.061122694187
 30
0.0
 10
3895.877921185049
 20
2151.060559286409
 30
0.0
 10
3895.877771200004
 20
2151.060296201149
 30
0.0
 10
3895.877413293336
 20
2151.059806226015
 30
0.0
 10
3895.877203214615
 20
2151.059578653082
 30
0.0
 10
3895.876745257927
 20
2151.059183790855
 30
0.0
 10
3895.876495412118
 20
2151.059013032748
 30
0.0
 10
3895.876223730459
 20
2151.058870185448
 30
0.0
  0
SPLINE
  5
1310
330
1F
100
AcDbEntity
  8
SANINDUSA
100
AcDbSpline
210
0.0
220
0.0
230
1.0
 70
     8
 71
     3
 72
    16
 73
    12
 74
     0
 42
0.0000000001
 43
0.0000000001
 40
0.0
 40
0.0
 40
0.0
 40
0.0
 40
0.2499999999999816
 40
0.2499999999999816
 40
0.4999999999999632
 40
0.4999999999999632
 40
0.6249999999999654
 40
0.6249999999999654
 40
0.7499999999999676
 40
0.7499999999999676
 40
1.0
 40
1.0
 40
1.0
 40
1.0
 10
3895.878300891263
 20
2151.061712953244
 30
0.0
 10
3895.878381814173
 20
2151.062169800423
 30
0.0
 10
3895.878538119461
 20
2151.062600819983
 30
0.0
 10
3895.878998653215
 20
2151.06340507895
 30
0.0
 10
3895.879292091634
 20
2151.06375873684
 30
0.0
 10
3895.879820393361
 20
2151.064209196827
 30
0.0
 10
3895.880007072383
 20
2151.064342175722
 30
0.0
 10
3895.880400855278
 20
2151.064574973134
 30
0.0
 10
3895.880609342691
 20
2151.064675298898
 30
0.0
 10
3895.881257855533
 20
2151.064920384136
 30
0.0
 10
3895.881705880015
 20
2151.065006573738
 30
0.0
 10
3895.882169768253
 20
2151.065014670937
 30
0.0
  0
LINE
  5
1311
330
1F
100
AcDbEntity
  8
SANINDUSA
100
AcDbLine
 10
3895.94450141915
 20
2151.066102673951
 30
0.0
 11
3895.882169768253
 21
2151.065014670937
 31
0.0
  0
ARC
  5
1312
330
1F
100
AcDbEntity
  8
SANINDUSA
100
AcDbCircle
 10
3895.944571228776
 20
2151.06210328317
 30
0.0
 40
0.0040000000000002
100
AcDbArc
 50
1.000000009720081
 51
91.00000000972007
  0
LINE
  5
1313
330
1F
100
AcDbEntity
  8
SANINDUSA
100
AcDbLine
 10
3895.9498099398
 20
2150.991172483576
 30
0.0
 11
3895.948570619557
 21
2151.062173092796
 31
0.0
  0
LINE
  5
1314
330
1F
100
AcDbEntity
  8
SANINDUSA
100
AcDbLine
 10
3895.946609452352
 20
2150.991172483576
 30
0.0
 11
3895.9498099398
 21
2150.991172483576
 31
0.0
  0
LINE
  5
1315
330
1F
100
AcDbEntity
  8
SANINDUSA
100
AcDbLine
 10
3895.946609452352
 20
2150.991172483576
 30
0.0
 11
3895.945371106932
 21
2151.062117245094
 31
0.0
  0
ARC
  5
1316
330
1F
100
AcDbEntity
  8
SANINDUSA
100
AcDbCircle
 10
3895.944571228776
 20
2151.06210328317
 30
0.0
 40
0.0008000000000001
100
AcDbArc
 50
1.000000009720081
 51
91.00000000972007
  0
LINE
  5
1317
330
1F
100
AcDbEntity
  8
SANINDUSA
100
AcDbLine
 10
3895.944557266851
 20
2151.062903161326
 30
0.0
 11
3895.882225615954
 21
2151.061815158312
 31
0.0
  0
ARC
  5
1318
330
1F
100
AcDbEntity
  8
SANINDUSA
100
AcDbCircle
 10
3895.882239577879
 20
2151.061015280156
 30
0.0
 40
0.0008000000000048
100
AcDbArc
 50
91.00000000972007
 51
169.9551930864372
  0
SPLINE
  5
1319
330
1F
100
AcDbEntity
  8
SANINDUSA
100
AcDbSpline
210
0.0
220
0.0
230
1.0
 70
     8
 71
     3
 72
    16
 73
    12
 74
     0
 42
0.0000000001
 43
0.0000000001
 40
0.0
 40
0.0
 40
0.0
 40
0.0
 40
0.2499999999999996
 40
0.2499999999999996
 40
0.4999999999999993
 40
0.4999999999999993
 40
0.6249999999999995
 40
0.6249999999999995
 40
0.7499999999999997
 40
0.7499999999999997
 40
1.0
 40
1.0
 40
1.0
 40
1.0
 10
3895.881451840556
 20
2151.061154814774
 30
0.0
 10
3895.881356742121
 20
2151.060617940216
 30
0.0
 10
3895.881201027867
 20
2151.060092348471
 30
0.0
 10
3895.880768369372
 20
2151.059078214472
 30
0.0
 10
3895.880498396291
 20
2151.058604661003
 30
0.0
 10
3895.88001522229
 20
2151.057943194572
 30
0.0
 10
3895.879840074178
 20
2151.057729944458
 30
0.0
 10
3895.879466539506
 20
2151.057325195863
 30
0.0
 10
3895.879269942083
 20
2151.057135386483
 30
0.0
 10
3895.878651700554
 20
2151.056602322475
 30
0.0
 10
3895.878201978098
 20
2151.056294957882
 30
0.0
 10
3895.877712951111
 20
2151.056037832741
 30
0.0
  0
SPLINE
  5
131A
330
1F
100
AcDbEntity
  8
SANINDUSA
100
AcDbSpline
210
0.0
220
0.0
230
1.0
 70
     8
 71
     3
 72
    14
 73
    10
 74
     0
 42
0.0000000001
 43
0.0000000001
 40
0.0
 40
0.0
 40
0.0
 40
0.0
 40
0.5000000000000026
 40
0.5000000000000026
 40
0.7500000000000013
 40
0.7500000000000013
 40
0.8750000000000007
 40
0.8750000000000007
 40
1.0
 40
1.0
 40
1.0
 40
1.0
 10
3895.848928183683
 20
2151.045143358212
 30
0.0
 10
3895.85391169086
 20
2151.046309541135
 30
0.0
 10
3895.858801384533
 20
2151.047811684705
 30
0.0
 10
3895.865999917998
 20
2151.05055196228
 30
0.0
 10
3895.86837693707
 20
2151.051545935764
 30
0.0
 10
3895.871910498064
 20
2151.053151376944
 30
0.0
 10
3895.873083505872
 20
2151.053705856057
 30
0.0
 10
3895.875410585182
 20
2151.054847253782
 30
0.0
 10
3895.876565739031
 20
2151.055434640943
 30
0.0
 10
3895.877712951111
 20
2151.056037832741
 30
0.0
  0
LINE
  5
131B
330
1F
100
AcDbEntity
  8
SANINDUSA
100
AcDbLine
 10
3895.848928183686
 20
2151.045143358213
 30
0.0
 11
3895.835244689158
 21
2151.044665610109
 31
0.0
  0
LINE
  5
131C
330
1F
100
AcDbEntity
  8
SANINDUSA
100
AcDbLine
 10
3895.835244689158
 20
2151.044665610109
 30
0.0
 11
3895.824887165555
 21
2151.033617584932
 31
0.0
  0
LINE
  5
131D
330
1F
100
AcDbEntity
  8
SANINDUSA
100
AcDbLine
 10
3895.824887165555
 20
2151.033617584932
 30
0.0
 11
3895.722114480675
 21
2151.033617584932
 31
0.0
  0
LINE
  5
131E
330
1F
100
AcDbEntity
  8
SANINDUSA
100
AcDbLine
 10
3895.722114480675
 20
2151.033617584932
 30
0.0
 11
3895.711756957072
 21
2151.044665610109
 31
0.0
  0
LINE
  5
131F
330
1F
100
AcDbEntity
  8
SANINDUSA
100
AcDbLine
 10
3895.711756957072
 20
2151.044665610109
 30
0.0
 11
3895.698458800389
 21
2151.045129904455
 31
0.0
  0
LINE
  5
1320
330
1F
100
AcDbEntity
  8
SANINDUSA
100
AcDbLine
 10
3895.713188323115
 20
2151.047817584932
 30
0.0
 11
3895.833813323115
 21
2151.047817584932
 31
0.0
  0
ELLIPSE
  5
1329
330
1F
100
AcDbEntity
  8
SANINDUSA
100
AcDbEllipse
 10
3895.26122640393
 20
2151.566026521528
 30
0.0
 11
-0.7098807129515422
 21
0.0000979247970662
 31
0.0
210
0.0
220
0.0
230
1.0
 40
0.7042364038115333
 41
1.558552444789151
 42
1.570893472985025
  0
SPLINE
  5
132B
330
1F
100
AcDbEntity
  8
SANINDUSA
100
AcDbSpline
210
0.0
220
0.0
230
1.0
 70
    24
 71
     3
 72
     8
 73
     4
 74
     0
 42
0.0000000001
 43
0.0000000001
 40
0.0
 40
0.0
 40
0.0
 40
0.0
 40
0.0013516014093303
 40
0.0013516014093303
 40
0.0013516014093303
 40
0.0013516014093303
 10
3895.322562249315
 20
2151.065009461069
 30
0.0
 10
3895.323012778599
 20
2151.065008823558
 30
0.0
 10
3895.32346330894
 20
2151.065008489928
 30
0.0
 10
3895.323913839629
 20
2151.06500846069
 30
0.0
  0
SPLINE
  5
132C
330
1F
100
AcDbEntity
  8
SANINDUSA
100
AcDbSpline
210
0.0
220
0.0
230
1.0
 70
    24
 71
     3
 72
    25
 73
    21
 74
     0
 42
0.0000000001
 43
0.0000000001
 40
0.0
 40
0.0
 40
0.0
 40
0.0
 40
0.1249999999999881
 40
0.1249999999999881
 40
0.2499999999999762
 40
0.2499999999999762
 40
0.3749999999999642
 40
0.3749999999999642
 40
0.4999999999999524
 40
0.4999999999999524
 40
0.6249999999999405
 40
0.6249999999999405
 40
0.6874999999999504
 40
0.6874999999999504
 40
0.7499999999999602
 40
0.8124999999999701
 40
0.8124999999999701
 40
0.8749999999999801
 40
0.8749999999999801
 40
1.0
 40
1.0
 40
1.0
 40
1.0
 10
3895.315182252348
 20
2151.065009460886
 30
0.0
 10
3895.315180173057
 20
2151.065010150473
 30
0.0
 10
3895.315226846895
 20
2151.065010415489
 30
0.0
 10
3895.315412419915
 20
2151.065010499797
 30
0.0
 10
3895.315550439707
 20
2151.065010325062
 30
0.0
 10
3895.315917099828
 20
2151.065009880013
 30
0.0
 10
3895.31614717523
 20
2151.065009609684
 30
0.0
 10
3895.316684812284
 20
2151.065009222327
 30
0.0
 10
3895.316996008532
 20
2151.065009104783
 30
0.0
 10
3895.317676901696
 20
2151.065009106562
 30
0.0
 10
3895.318048576768
 20
2151.065009222954
 30
0.0
 10
3895.318654058224
 20
2151.065009514022
 30
0.0
 10
3895.318863835893
 20
2151.065009629411
 30
0.0
 10
3895.319290150438
 20
2151.065009867215
 30
0.0
 10
3895.319725483879
 20
2151.065010113029
 30
0.0
 10
3895.320178564232
 20
2151.065010310636
 30
0.0
 10
3895.320640629748
 20
2151.065010444282
 30
0.0
 10
3895.320877207156
 20
2151.06501047903
 30
0.0
 10
3895.321592811955
 20
2151.065010414212
 30
0.0
 10
3895.322074973669
 20
2151.065010150577
 30
0.0
 10
3895.322562249315
 20
2151.065009461069
 30
0.0
  0
SPLINE
  5
132E
330
1F
100
AcDbEntity
  8
SANINDUSA
100
AcDbSpline
210
0.0
220
0.0
230
1.0
 70
    24
 71
     3
 72
     8
 73
     4
 74
     0
 42
0.0000000001
 43
0.0000000001
 40
0.0000000000000003
 40
0.0000000000000003
 40
0.0000000000000003
 40
0.0000000000000003
 40
0.0013525942275588
 40
0.0013525942275588
 40
0.0013525942275588
 40
0.0013525942275588
 10
3895.873091422101
 20
2151.065008524259
 30
0.0
 10
3895.873542284757
 20
2151.065008548195
 30
0.0
 10
3895.873993147159
 20
2151.065008877344
 30
0.0
 10
3895.87444400859
 20
2151.06500951121
 30
0.0
  0
ELLIPSE
  5
132F
330
1F
100
AcDbEntity
  8
SANINDUSA
100
AcDbEllipse
 10
3895.935775215932
 20
2151.566026521528
 30
0.0
 11
-0.7098807129516861
 21
-0.0000979247970661
 31
0.0
210
0.0
220
0.0
230
1.0
 40
0.7042364038113904
 41
1.570699180604767
 42
1.583040208800641
  0
SPLINE
  5
1331
330
1F
100
AcDbEntity
  8
SANINDUSA
100
AcDbSpline
210
0.0
220
0.0
230
1.0
 70
    24
 71
     3
 72
    25
 73
    21
 74
     0
 42
0.0000000001
 43
0.0000000001
 40
0.0
 40
0.0
 40
0.0
 40
0.0
 40
0.125000000000007
 40
0.125000000000007
 40
0.250000000000014
 40
0.250000000000014
 40
0.3750000000000211
 40
0.3750000000000211
 40
0.5000000000000281
 40
0.5000000000000281
 40
0.6250000000000351
 40
0.6250000000000351
 40
0.6875000000000387
 40
0.6875000000000387
 40
0.7500000000000422
 40
0.8125000000000456
 40
0.8125000000000456
 40
0.8750000000000492
 40
0.8750000000000492
 40
1.0
 40
1.0
 40
1.0
 40
1.0
 10
3895.87444400859
 20
2151.06500951121
 30
0.0
 10
3895.874931061008
 20
2151.065010195959
 30
0.0
 10
3895.875418857198
 20
2151.065010457415
 30
0.0
 10
3895.876365747679
 20
2151.065010536548
 30
0.0
 10
3895.876825576662
 20
2151.065010360173
 30
0.0
 10
3895.877717948703
 20
2151.065009912842
 30
0.0
 10
3895.878150800998
 20
2151.065009641905
 30
0.0
 10
3895.878956915431
 20
2151.065009253826
 30
0.0
 10
3895.879335485895
 20
2151.065009136158
 30
0.0
 10
3895.880014976366
 20
2151.065009137941
 30
0.0
 10
3895.88031966986
 20
2151.065009254459
 30
0.0
 10
3895.880722872467
 20
2151.065009546062
 30
0.0
 10
3895.880847969625
 20
2151.065009661701
 30
0.0
 10
3895.881074492003
 20
2151.065009900186
 30
0.0
 10
3895.88127893332
 20
2151.065010146863
 30
0.0
 10
3895.88143992802
 20
2151.065010345857
 30
0.0
 10
3895.881578928787
 20
2151.065010481257
 30
0.0
 10
3895.881637618844
 20
2151.065010517079
 30
0.0
 10
3895.88177784667
 20
2151.065010456179
 30
0.0
 10
3895.881823823752
 20
2151.065010196028
 30
0.0
 10
3895.881822093295
 20
2151.065009511334
 30
0.0
  0
SPLINE
  5
133E
330
1F
100
AcDbEntity
  8
SANINDUSA
100
AcDbSpline
210
0.0
220
0.0
230
1.0
 70
    24
 71
     3
 72
    10
 73
     6
 74
     0
 42
0.0000000001
 43
0.0000000001
 40
0.0
 40
0.0
 40
0.0
 40
0.0
 40
0.5
 40
0.5
 40
1.0
 40
1.0
 40
1.0
 40
1.0
 10
3895.323913839629
 20
2151.06500846069
 30
0.0
 10
3895.398845018792
 20
2151.065008807935
 30
0.0
 10
3895.47377620002
 20
2151.065008994478
 30
0.0
 10
3895.623638562454
 20
2151.065009236667
 30
0.0
 10
3895.69856974404
 20
2151.065009310991
 30
0.0
 10
3895.773500925669
 20
2151.065009340884
 30
0.0
  0
SPLINE
  5
1340
330
1F
100
AcDbEntity
  8
SANINDUSA
100
AcDbSpline
210
0.0
220
0.0
230
1.0
 70
    24
 71
     3
 72
     8
 73
     4
 74
     0
 42
0.0000000001
 43
0.0000000001
 40
0.0
 40
0.0
 40
0.0
 40
0.0
 40
1.0
 40
1.0
 40
1.0
 40
1.0
 10
3895.773500925667
 20
2151.065009341059
 30
0.0
 10
3895.80669776356
 20
2151.065009378433
 30
0.0
 10
3895.839894599069
 20
2151.065009070115
 30
0.0
 10
3895.873091422101
 20
2151.065008524259
 30
0.0
  0
LINE
  5
1342
330
1F
100
AcDbEntity
  8
SANINDUSA
100
AcDbLine
 10
3895.935775215932
 20
2151.066102673951
 30
0.0
 11
3895.26122640393
 21
2151.066102673951
 31
0.0
  0
ARC
  5
1343
330
1F
100
AcDbEntity
  8
SANINDUSA
100
AcDbCircle
 10
3895.252430981872
 20
2151.062141582776
 30
0.0
 40
0.0039999222755568
100
AcDbArc
 50
89.49883921382092
 51
178.9989217436751
  0
ARC
  5
1345
330
1F
100
AcDbEntity
  8
SANINDUSA
100
AcDbCircle
 10
3895.944570637991
 20
2151.062141582776
 30
0.0
 40
0.003999922275556
100
AcDbArc
 50
1.001078256324845
 51
90.50116078617909
  0
LINE
  5
134C
330
1F
100
AcDbEntity
  8
SANINDUSA
100
AcDbLine
 10
3895.945809574195
 20
2150.991172483576
 30
0.0
 11
3895.946609452352
 21
2150.991172483576
 31
0.0
  0
LINE
  5
134E
330
1F
100
AcDbEntity
  8
SANINDUSA
100
AcDbLine
 10
3895.250392167511
 20
2150.991172483576
 30
0.0
 11
3895.251192045667
 21
2150.991172483576
 31
0.0
  0
LINE
  5
134F
330
1F
100
AcDbEntity
  8
SANINDUSA
100
AcDbLine
 10
3895.945809574195
 20
2150.991172483576
 30
0.0
 11
3895.251192045667
 21
2150.991172483576
 31
0.0
  0
ENDSEC
  0
SECTION
  2
OBJECTS
  0
DICTIONARY
  5
C
330
0
100
AcDbDictionary
281
     1
  3
ACAD_2007HEADERVARS_RT
350
140A
  3
ACAD_BACKGROUND
350
13BD
  3
ACAD_COLOR
350
EE6
  3
ACAD_GROUP
350
D
  3
ACAD_LAYOUT
350
1A
  3
ACAD_MATERIAL
350
EE5
  3
ACAD_MLEADERSTYLE
350
10A8
  3
ACAD_MLINESTYLE
350
17
  3
ACAD_PLOTSETTINGS
350
19
  3
ACAD_PLOTSTYLENAME
350
E
  3
ACAD_SCALELIST
350
1096
  3
ACAD_TABLESTYLE
350
EE7
  3
ACAD_VISUALSTYLE
350
1082
  3
ACDB_RECOMPOSE_DATA
350
1408
  3
AcDbVariableDictionary
350
3D
  3
AEC_PROPERTY_SET_DEFS
350
120E
  3
ASE_INDEX_DICTIONARY
350
1066
  3
Autodesk_PNP
350
10B2
  3
DWGPROPS
350
1409
  0
DICTIONARY
  5
13C5
330
8
100
AcDbDictionary
280
     1
281
     1
  0
DICTIONARY
  5
1051
330
2
100
AcDbDictionary
280
     1
281
     1
  3
ACAD_LAYERFILTERS
360
1065
  3
ACLYDICTIONARY
360
1064
  0
DICTIONARY
  5
135F
330
10
100
AcDbDictionary
280
     1
281
     1
  3
ADSK_XREC_LAYER_RECONCILED
360
1360
  0
DICTIONARY
  5
1361
330
2F
100
AcDbDictionary
280
     1
281
     1
  3
ADSK_XREC_LAYER_RECONCILED
360
1362
  0
DICTIONARY
  5
1363
330
30
100
AcDbDictionary
280
     1
281
     1
  3
ADSK_XREC_LAYER_RECONCILED
360
1364
  0
DICTIONARY
  5
1365
330
31
100
AcDbDictionary
280
     1
281
     1
  3
ADSK_XREC_LAYER_RECONCILED
360
1366
  0
DICTIONARY
  5
1367
330
32
100
AcDbDictionary
280
     1
281
     1
  3
ADSK_XREC_LAYER_RECONCILED
360
1368
  0
DICTIONARY
  5
1369
330
33
100
AcDbDictionary
280
     1
281
     1
  3
ADSK_XREC_LAYER_RECONCILED
360
136A
  0
DICTIONARY
  5
136B
330
34
100
AcDbDictionary
280
     1
281
     1
  3
ADSK_XREC_LAYER_RECONCILED
360
136C
  0
DICTIONARY
  5
136D
330
35
100
AcDbDictionary
280
     1
281
     1
  3
ADSK_XREC_LAYER_RECONCILED
360
136E
  0
DICTIONARY
  5
136F
330
36
100
AcDbDictionary
280
     1
281
     1
  3
ADSK_XREC_LAYER_RECONCILED
360
1370
  0
DICTIONARY
  5
1371
330
37
100
AcDbDictionary
280
     1
281
     1
  3
ADSK_XREC_LAYER_RECONCILED
360
1372
  0
DICTIONARY
  5
1373
330
5D6
100
AcDbDictionary
280
     1
281
     1
  3
ADSK_XREC_LAYER_RECONCILED
360
1374
  0
DICTIONARY
  5
1375
330
8AF
100
AcDbDictionary
280
     1
281
     1
  3
ADSK_XREC_LAYER_RECONCILED
360
1376
  0
DICTIONARY
  5
1377
330
8F8
100
AcDbDictionary
280
     1
281
     1
  3
ADSK_XREC_LAYER_RECONCILED
360
1378
  0
DICTIONARY
  5
1379
330
91D
100
AcDbDictionary
280
     1
281
     1
  3
ADSK_XREC_LAYER_RECONCILED
360
137A
  0
DICTIONARY
  5
137B
330
C7B
100
AcDbDictionary
280
     1
281
     1
  3
ADSK_XREC_LAYER_RECONCILED
360
137C
  0
DICTIONARY
  5
137D
330
1060
100
AcDbDictionary
280
     1
281
     1
  3
ADSK_XREC_LAYER_RECONCILED
360
137E
  0
DICTIONARY
  5
140A
102
{ACAD_REACTORS
330
C
102
}
330
C
100
AcDbDictionary
281
     1
  3
DIMJOGANG
350
140B
  0
DICTIONARY
  5
13BD
102
{ACAD_REACTORS
330
C
102
}
330
C
100
AcDbDictionary
281
     1
  0
DICTIONARY
  5
EE6
102
{ACAD_REACTORS
330
C
102
}
330
C
100
AcDbDictionary
281
     1
  0
DICTIONARY
  5
D
102
{ACAD_REACTORS
330
C
102
}
330
C
100
AcDbDictionary
281
     1
  0
DICTIONARY
  5
1A
102
{ACAD_REACTORS
330
C
102
}
330
C
100
AcDbDictionary
281
     1
  3
Layout1
350
1E
  3
Layout2
350
26
  3
Model
350
22
  0
DICTIONARY
  5
EE5
102
{ACAD_REACTORS
330
C
102
}
330
C
100
AcDbDictionary
281
     1
  3
ByBlock
350
1072
  3
ByLayer
350
106A
  3
Global
350
107A
  0
DICTIONARY
  5
10A8
102
{ACAD_REACTORS
330
C
102
}
330
C
100
AcDbDictionary
281
     1
  3
Standard
350
10A9
  0
DICTIONARY
  5
17
102
{ACAD_REACTORS
330
C
102
}
330
C
100
AcDbDictionary
281
     1
  3
Standard
350
18
  0
DICTIONARY
  5
19
102
{ACAD_REACTORS
330
C
102
}
330
C
100
AcDbDictionary
281
     1
  0
ACDBDICTIONARYWDFLT
  5
E
102
{ACAD_REACTORS
330
C
102
}
330
C
100
AcDbDictionary
281
     1
  3
Normal
350
F
100
AcDbDictionaryWithDefault
340
F
  0
DICTIONARY
  5
1096
102
{ACAD_REACTORS
330
C
102
}
330
C
100
AcDbDictionary
281
     1
  3
A0
350
1097
  3
A1
350
1098
  3
A2
350
1099
  3
A3
350
109A
  3
A4
350
109B
  3
A5
350
109C
  3
A6
350
109D
  3
A7
350
109E
  3
A8
350
109F
  3
A9
350
10A0
  3
B0
350
10A1
  3
B1
350
10A2
  3
B2
350
10A3
  3
B3
350
10A4
  3
B4
350
10A5
  3
B5
350
10A6
  3
B6
350
10A7
  0
DICTIONARY
  5
EE7
102
{ACAD_REACTORS
330
C
102
}
330
C
100
AcDbDictionary
281
     1
  3
Standard
350
EE8
  0
DICTIONARY
  5
1082
102
{ACAD_REACTORS
330
C
102
}
330
C
100
AcDbDictionary
281
     1
  3
2dWireframe
350
1088
  3
3D Hidden
350
108A
  3
3dWireframe
350
1089
  3
Basic
350
1087
  3
Brighten
350
108E
  3
ColorChange
350
1092
  3
Conceptual
350
108B
  3
Dim
350
108D
  3
EdgeColorOff
350
1095
  3
Facepattern
350
1091
  3
Flat
350
1083
  3
FlatWithEdges
350
1084
  3
Gouraud
350
1085
  3
GouraudWithEdges
350
1086
  3
JitterOff
350
1093
  3
Linepattern
350
1090
  3
OverhangOff
350
1094
  3
Realistic
350
108C
  3
Thicken
350
108F
  0
XRECORD
  5
1408
102
{ACAD_REACTORS
330
C
102
}
330
C
100
AcDbXrecord
280
     1
 90
        1
330
EE8
  0
DICTIONARY
  5
3D
102
{ACAD_REACTORS
330
C
102
}
330
C
100
AcDbDictionary
281
     1
  3
CANNOSCALE
350
13F9
  3
CMLEADERSTYLE
350
13F8
  3
CTABLESTYLE
350
1049
  3
DIMASSOC
350
3F
  3
HIDETEXT
350
3E
  3
INDEXCTL
350
13FB
  3
SORTENTS
350
13FA
  3
XCLIPFRAME
350
1406
  0
DICTIONARY
  5
120E
102
{ACAD_REACTORS
330
C
102
}
330
C
100
AcDbDictionary
281
     1
  0
DICTIONARY
  5
1066
102
{ACAD_REACTORS
330
C
102
}
330
C
100
AcDbDictionary
281
     1
  3
ASEBlockHierarchyIndexRecord
350
1067
1001
DCO15
1040
1602247867.484
  0
DICTIONARY
  5
10B2
102
{ACAD_REACTORS
330
C
102
}
330
C
100
AcDbDictionary
281
     1
  0
XRECORD
  5
1409
102
{ACAD_REACTORS
330
C
102
}
330
C
100
AcDbXrecord
280
     1
  1
DWGPROPS COOKIE
  2

  3

  4

  6

  7

  8
Julio
  9

300
=
301
=
302
=
303
=
304
=
305
=
306
=
307
=
308
=
309
=
 40
0.0058669675925926
 41
2456023.632864213
 42
2456203.60478515
  1

 90
        0
  0
DICTIONARY
  5
1065
102
{ACAD_REACTORS
330
1051
102
}
330
1051
100
AcDbDictionary
281
     1
  0
DICTIONARY
  5
1064
102
{ACAD_REACTORS
330
1051
102
}
330
1051
100
AcDbDictionary
281
     1
1001
ACAD
1000
<All
  0
XRECORD
  5
1360
102
{ACAD_REACTORS
330
135F
102
}
330
135F
100
AcDbXrecord
280
     1
290
     1
  0
XRECORD
  5
1362
102
{ACAD_REACTORS
330
1361
102
}
330
1361
100
AcDbXrecord
280
     1
290
     1
  0
XRECORD
  5
1364
102
{ACAD_REACTORS
330
1363
102
}
330
1363
100
AcDbXrecord
280
     1
290
     1
  0
XRECORD
  5
1366
102
{ACAD_REACTORS
330
1365
102
}
330
1365
100
AcDbXrecord
280
     1
290
     1
  0
XRECORD
  5
1368
102
{ACAD_REACTORS
330
1367
102
}
330
1367
100
AcDbXrecord
280
     1
290
     1
  0
XRECORD
  5
136A
102
{ACAD_REACTORS
330
1369
102
}
330
1369
100
AcDbXrecord
280
     1
290
     1
  0
XRECORD
  5
136C
102
{ACAD_REACTORS
330
136B
102
}
330
136B
100
AcDbXrecord
280
     1
290
     1
  0
XRECORD
  5
136E
102
{ACAD_REACTORS
330
136D
102
}
330
136D
100
AcDbXrecord
280
     1
290
     1
  0
XRECORD
  5
1370
102
{ACAD_REACTORS
330
136F
102
}
330
136F
100
AcDbXrecord
280
     1
290
     1
  0
XRECORD
  5
1372
102
{ACAD_REACTORS
330
1371
102
}
330
1371
100
AcDbXrecord
280
     1
290
     1
  0
XRECORD
  5
1374
102
{ACAD_REACTORS
330
1373
102
}
330
1373
100
AcDbXrecord
280
     1
290
     1
  0
XRECORD
  5
1376
102
{ACAD_REACTORS
330
1375
102
}
330
1375
100
AcDbXrecord
280
     1
290
     1
  0
XRECORD
  5
1378
102
{ACAD_REACTORS
330
1377
102
}
330
1377
100
AcDbXrecord
280
     1
290
     1
  0
XRECORD
  5
137A
102
{ACAD_REACTORS
330
1379
102
}
330
1379
100
AcDbXrecord
280
     1
290
     1
  0
XRECORD
  5
137C
102
{ACAD_REACTORS
330
137B
102
}
330
137B
100
AcDbXrecord
280
     1
290
     1
  0
XRECORD
  5
137E
102
{ACAD_REACTORS
330
137D
102
}
330
137D
100
AcDbXrecord
280
     1
290
     1
  0
XRECORD
  5
140B
102
{ACAD_REACTORS
330
140A
102
}
330
140A
100
AcDbXrecord
280
     1
 40
1.570796326794896
  0
LAYOUT
  5
1E
102
{ACAD_XDICTIONARY
360
140C
102
}
102
{ACAD_REACTORS
330
1A
102
}
330
1A
100
AcDbPlotSettings
  1

  2
Ploter HP500
  4

  6

 40
0.0
 41
0.0
 42
0.0
 43
0.0
 44
0.0
 45
0.0
 46
0.0
 47
0.0
 48
0.0
 49
0.0
140
0.0
141
0.0
142
1.0
143
1.0
 70
   688
 72
     0
 73
     0
 74
     5
  7
sanindusa.ctb
 75
    16
147
1.0
148
0.0
149
0.0
100
AcDbLayout
  1
Layout1
 70
     1
 71
     1
 10
0.0
 20
0.0
 11
420.0
 21
297.0
 12
0.0
 22
0.0
 32
0.0
 14
1.000000000000000E+20
 24
1.000000000000000E+20
 34
1.000000000000000E+20
 15
-1.000000000000000E+20
 25
-1.000000000000000E+20
 35
-1.000000000000000E+20
146
0.0
 13
0.0
 23
0.0
 33
0.0
 16
1.0
 26
0.0
 36
0.0
 17
0.0
 27
1.0
 37
0.0
 76
     0
330
1B
  0
LAYOUT
  5
26
102
{ACAD_XDICTIONARY
360
1410
102
}
102
{ACAD_REACTORS
330
1A
102
}
330
1A
100
AcDbPlotSettings
  1

  2
Ploter HP500
  4

  6

 40
0.0
 41
0.0
 42
0.0
 43
0.0
 44
0.0
 45
0.0
 46
0.0
 47
0.0
 48
0.0
 49
0.0
140
0.0
141
0.0
142
1.0
143
1.0
 70
   688
 72
     0
 73
     0
 74
     5
  7
sanindusa.ctb
 75
    16
147
1.0
148
0.0
149
0.0
100
AcDbLayout
  1
Layout2
 70
     1
 71
     2
 10
0.0
 20
0.0
 11
12.0
 21
9.0
 12
0.0
 22
0.0
 32
0.0
 14
0.0
 24
0.0
 34
0.0
 15
0.0
 25
0.0
 35
0.0
146
0.0
 13
0.0
 23
0.0
 33
0.0
 16
1.0
 26
0.0
 36
0.0
 17
0.0
 27
1.0
 37
0.0
 76
     0
330
23
  0
LAYOUT
  5
22
102
{ACAD_XDICTIONARY
360
140E
102
}
102
{ACAD_REACTORS
330
1A
102
}
330
1A
100
AcDbPlotSettings
  1

  2
Ploter HP500
  4
User268
  6

 40
4.995333194732666
 41
16.97565841674804
 42
4.995330810546875
 43
16.97567749023437
 44
209.9733276367187
 45
296.9259948730469
 46
0.0
 47
0.0
 48
0.0
 49
0.0
140
0.0
141
0.0
142
1.0
143
1.0
 70
 11952
 72
     1
 73
     1
 74
     0
  7
sanindusa.ctb
 75
     0
147
1.0
148
-427.5957866592534
149
7.362384574453926
100
AcDbLayout
  1
Model
 70
     1
 71
     0
 10
0.0
 20
0.0
 11
12.0
 21
9.0
 12
0.0
 22
0.0
 32
0.0
 14
0.0
 24
0.0
 34
0.0
 15
0.0
 25
0.0
 35
0.0
146
0.0
 13
0.0
 23
0.0
 33
0.0
 16
1.0
 26
0.0
 36
0.0
 17
0.0
 27
1.0
 37
0.0
 76
     0
330
1F
331
1068
  0
MATERIAL
  5
1072
102
{ACAD_XDICTIONARY
360
1073
102
}
102
{ACAD_REACTORS
330
EE5
102
}
330
EE5
100
AcDbMaterial
  1
ByBlock
 72
     0
 43
0.0008202099737533
 43
0.0
 43
0.0
 43
0.0
 43
0.0
 43
0.0008202099737533
 43
0.0
 43
0.0
 43
0.0
 43
0.0
 43
1.0
 43
0.0
 43
0.0
 43
0.0
 43
0.0
 43
1.0
 77
     0
 47
0.0008202099737533
 47
0.0
 47
0.0
 47
0.0
 47
0.0
 47
0.0008202099737533
 47
0.0
 47
0.0
 47
0.0
 47
0.0
 47
1.0
 47
0.0
 47
0.0
 47
0.0
 47
0.0
 47
1.0
171
     0
 49
0.0008202099737533
 49
0.0
 49
0.0
 49
0.0
 49
0.0
 49
0.0008202099737533
 49
0.0
 49
0.0
 49
0.0
 49
0.0
 49
1.0
 49
0.0
 49
0.0
 49
0.0
 49
0.0
 49
1.0
175
     0
142
0.0008202099737533
142
0.0
142
0.0
142
0.0
142
0.0
142
0.0008202099737533
142
0.0
142
0.0
142
0.0
142
0.0
142
1.0
142
0.0
142
0.0
142
0.0
142
0.0
142
1.0
179
     0
144
0.0008202099737533
144
0.0
144
0.0
144
0.0
144
0.0
144
0.0008202099737533
144
0.0
144
0.0
144
0.0
144
0.0
144
1.0
144
0.0
144
0.0
144
0.0
144
0.0
144
1.0
147
0.0008202099737533
147
0.0
147
0.0
147
0.0
147
0.0
147
0.0008202099737533
147
0.0
147
0.0
147
0.0
147
0.0
147
1.0
147
0.0
147
0.0
147
0.0
147
0.0
147
1.0
  0
MATERIAL
  5
106A
102
{ACAD_XDICTIONARY
360
106B
102
}
102
{ACAD_REACTORS
330
EE5
102
}
330
EE5
100
AcDbMaterial
  1
ByLayer
 72
     0
 43
0.0008202099737533
 43
0.0
 43
0.0
 43
0.0
 43
0.0
 43
0.0008202099737533
 43
0.0
 43
0.0
 43
0.0
 43
0.0
 43
1.0
 43
0.0
 43
0.0
 43
0.0
 43
0.0
 43
1.0
 77
     0
 47
0.0008202099737533
 47
0.0
 47
0.0
 47
0.0
 47
0.0
 47
0.0008202099737533
 47
0.0
 47
0.0
 47
0.0
 47
0.0
 47
1.0
 47
0.0
 47
0.0
 47
0.0
 47
0.0
 47
1.0
171
     0
 49
0.0008202099737533
 49
0.0
 49
0.0
 49
0.0
 49
0.0
 49
0.0008202099737533
 49
0.0
 49
0.0
 49
0.0
 49
0.0
 49
1.0
 49
0.0
 49
0.0
 49
0.0
 49
0.0
 49
1.0
175
     0
142
0.0008202099737533
142
0.0
142
0.0
142
0.0
142
0.0
142
0.0008202099737533
142
0.0
142
0.0
142
0.0
142
0.0
142
1.0
142
0.0
142
0.0
142
0.0
142
0.0
142
1.0
179
     0
144
0.0008202099737533
144
0.0
144
0.0
144
0.0
144
0.0
144
0.0008202099737533
144
0.0
144
0.0
144
0.0
144
0.0
144
1.0
144
0.0
144
0.0
144
0.0
144
0.0
144
1.0
147
0.0008202099737533
147
0.0
147
0.0
147
0.0
147
0.0
147
0.0008202099737533
147
0.0
147
0.0
147
0.0
147
0.0
147
1.0
147
0.0
147
0.0
147
0.0
147
0.0
147
1.0
  0
MATERIAL
  5
107A
102
{ACAD_XDICTIONARY
360
107B
102
}
102
{ACAD_REACTORS
330
EE5
102
}
330
EE5
100
AcDbMaterial
  1
Global
 72
     0
 43
0.0008202099737533
 43
0.0
 43
0.0
 43
0.0
 43
0.0
 43
0.0008202099737533
 43
0.0
 43
0.0
 43
0.0
 43
0.0
 43
1.0
 43
0.0
 43
0.0
 43
0.0
 43
0.0
 43
1.0
 77
     0
 47
0.0008202099737533
 47
0.0
 47
0.0
 47
0.0
 47
0.0
 47
0.0008202099737533
 47
0.0
 47
0.0
 47
0.0
 47
0.0
 47
1.0
 47
0.0
 47
0.0
 47
0.0
 47
0.0
 47
1.0
171
     0
 49
0.0008202099737533
 49
0.0
 49
0.0
 49
0.0
 49
0.0
 49
0.0008202099737533
 49
0.0
 49
0.0
 49
0.0
 49
0.0
 49
1.0
 49
0.0
 49
0.0
 49
0.0
 49
0.0
 49
1.0
175
     0
142
0.0008202099737533
142
0.0
142
0.0
142
0.0
142
0.0
142
0.0008202099737533
142
0.0
142
0.0
142
0.0
142
0.0
142
1.0
142
0.0
142
0.0
142
0.0
142
0.0
142
1.0
179
     0
144
0.0008202099737533
144
0.0
144
0.0
144
0.0
144
0.0
144
0.0008202099737533
144
0.0
144
0.0
144
0.0
144
0.0
144
1.0
144
0.0
144
0.0
144
0.0
144
0.0
144
1.0
147
0.0008202099737533
147
0.0
147
0.0
147
0.0
147
0.0
147
0.0008202099737533
147
0.0
147
0.0
147
0.0
147
0.0
147
1.0
147
0.0
147
0.0
147
0.0
147
0.0
147
1.0
  0
MLEADERSTYLE
  5
10A9
102
{ACAD_REACTORS
330
10A8
102
}
330
10A8
100
AcDbMLeaderStyle
170
     2
171
     1
172
     0
 90
        2
 40
0.0
 41
0.0
173
     1
 91
-1056964608
340
14
 92
       -2
290
     1
 42
2.0
291
     1
 43
0.36
  3
Standard
 44
4.0
300

342
11
174
     1
178
     6
175
     1
176
     0
 93
-1056964608
 45
4.0
292
     0
297
     0
 46
4.0
 94
-1056964608
 47
1.0
 49
1.0
140
1.0
293
     1
141
0.0
294
     1
177
     0
142
1.0
295
     0
296
     0
143
0.125
1001
ACAD_MLEADERVER
1070
     2
  0
MLINESTYLE
  5
18
102
{ACAD_REACTORS
330
17
102
}
330
17
100
AcDbMlineStyle
  2
STANDARD
 70
     0
  3

 62
   256
 51
90.0
 52
90.0
 71
     2
 49
0.5
 62
   256
  6
BYLAYER
 49
-0.5
 62
   256
  6
BYLAYER
  0
ACDBPLACEHOLDER
  5
F
102
{ACAD_REACTORS
330
E
102
}
330
E
  0
SCALE
  5
1097
102
{ACAD_REACTORS
330
1096
102
}
330
1096
100
AcDbScale
 70
     0
300
1:1
140
1.0
141
1.0
290
     1
  0
SCALE
  5
1098
102
{ACAD_REACTORS
330
1096
102
}
330
1096
100
AcDbScale
 70
     0
300
1:2
140
1.0
141
2.0
290
     0
  0
SCALE
  5
1099
102
{ACAD_REACTORS
330
1096
102
}
330
1096
100
AcDbScale
 70
     0
300
1:4
140
1.0
141
4.0
290
     0
  0
SCALE
  5
109A
102
{ACAD_REACTORS
330
1096
102
}
330
1096
100
AcDbScale
 70
     0
300
1:5
140
1.0
141
5.0
290
     0
  0
SCALE
  5
109B
102
{ACAD_REACTORS
330
1096
102
}
330
1096
100
AcDbScale
 70
     0
300
1:8
140
1.0
141
8.0
290
     0
  0
SCALE
  5
109C
102
{ACAD_REACTORS
330
1096
102
}
330
1096
100
AcDbScale
 70
     0
300
1:10
140
1.0
141
10.0
290
     0
  0
SCALE
  5
109D
102
{ACAD_REACTORS
330
1096
102
}
330
1096
100
AcDbScale
 70
     0
300
1:16
140
1.0
141
16.0
290
     0
  0
SCALE
  5
109E
102
{ACAD_REACTORS
330
1096
102
}
330
1096
100
AcDbScale
 70
     0
300
1:20
140
1.0
141
20.0
290
     0
  0
SCALE
  5
109F
102
{ACAD_REACTORS
330
1096
102
}
330
1096
100
AcDbScale
 70
     0
300
1:30
140
1.0
141
30.0
290
     0
  0
SCALE
  5
10A0
102
{ACAD_REACTORS
330
1096
102
}
330
1096
100
AcDbScale
 70
     0
300
1:40
140
1.0
141
40.0
290
     0
  0
SCALE
  5
10A1
102
{ACAD_REACTORS
330
1096
102
}
330
1096
100
AcDbScale
 70
     0
300
1:50
140
1.0
141
50.0
290
     0
  0
SCALE
  5
10A2
102
{ACAD_REACTORS
330
1096
102
}
330
1096
100
AcDbScale
 70
     0
300
1:100
140
1.0
141
100.0
290
     0
  0
SCALE
  5
10A3
102
{ACAD_REACTORS
330
1096
102
}
330
1096
100
AcDbScale
 70
     0
300
2:1
140
2.0
141
1.0
290
     0
  0
SCALE
  5
10A4
102
{ACAD_REACTORS
330
1096
102
}
330
1096
100
AcDbScale
 70
     0
300
4:1
140
4.0
141
1.0
290
     0
  0
SCALE
  5
10A5
102
{ACAD_REACTORS
330
1096
102
}
330
1096
100
AcDbScale
 70
     0
300
8:1
140
8.0
141
1.0
290
     0
  0
SCALE
  5
10A6
102
{ACAD_REACTORS
330
1096
102
}
330
1096
100
AcDbScale
 70
     0
300
10:1
140
10.0
141
1.0
290
     0
  0
SCALE
  5
10A7
102
{ACAD_REACTORS
330
1096
102
}
330
1096
100
AcDbScale
 70
     0
300
100:1
140
100.0
141
1.0
290
     0
  0
TABLESTYLE
  5
EE8
102
{ACAD_XDICTIONARY
360
13BF
102
}
102
{ACAD_REACTORS
330
EE7
102
}
330
EE7
100
AcDbTableStyle
  3
Standard
 70
     0
 71
     0
 40
1.5
 41
1.5
280
     0
281
     0
  7
Standard
140
4.5
170
     2
 62
     0
 63
     7
283
     0
274
    -2
284
     1
 64
     0
275
    -2
285
     1
 65
     0
276
    -2
286
     1
 66
     0
277
    -2
287
     1
 67
     0
278
    -2
288
     1
 68
     0
279
    -2
289
     1
 69
     0
  7
Standard
140
6.0
170
     5
 62
     0
 63
     7
283
     0
274
    -2
284
     1
 64
     0
275
    -2
285
     1
 65
     0
276
    -2
286
     1
 66
     0
277
    -2
287
     1
 67
     0
278
    -2
288
     1
 68
     0
279
    -2
289
     1
 69
     0
  7
Standard
140
4.5
170
     5
 62
     0
 63
     7
283
     0
274
    -2
284
     1
 64
     0
275
    -2
285
     1
 65
     0
276
    -2
286
     1
 66
     0
277
    -2
287
     1
 67
     0
278
    -2
288
     1
 68
     0
279
    -2
289
     1
 69
     0
  0
VISUALSTYLE
  5
1088
102
{ACAD_XDICTIONARY
360
1420
102
}
102
{ACAD_REACTORS
330
1082
102
}
330
1082
100
AcDbVisualStyle
  2
2dWireframe
 70
     4
 71
     0
 72
     2
 73
     0
 90
        0
 40
-0.6
 41
-30.0
 62
     5
 63
     7
 74
     1
 91
        4
 64
     7
 65
   257
 75
     1
175
     1
 42
1.0
 92
        0
 66
   257
 43
1.0
 76
     1
 77
     6
 78
     2
 67
     7
 79
     5
170
     0
171
     0
290
     0
174
     0
 93
        1
 44
0.0
173
     0
291
     0
 45
0.0
1001
ACAD
1000
AcDbSavedByObjectVersion
1070
     0
  0
VISUALSTYLE
  5
108A
102
{ACAD_XDICTIONARY
360
1424
102
}
102
{ACAD_REACTORS
330
1082
102
}
330
1082
100
AcDbVisualStyle
  2
3D Hidden
 70
     6
 71
     1
 72
     2
 73
     2
 90
        0
 40
-0.6
 41
-30.0
 62
     5
 63
     7
 74
     2
 91
        2
 64
     7
 65
   257
 75
     2
175
     1
 42
179.0
 92
        0
 66
   257
 43
1.0
 76
     1
 77
     6
 78
     2
 67
     7
 79
     3
170
     0
171
     0
290
     0
174
     0
 93
        1
 44
0.0
173
     0
291
     0
 45
0.0
1001
ACAD
1000
AcDbSavedByObjectVersion
1070
     0
  0
VISUALSTYLE
  5
1089
102
{ACAD_XDICTIONARY
360
1422
102
}
102
{ACAD_REACTORS
330
1082
102
}
330
1082
100
AcDbVisualStyle
  2
3dWireframe
 70
     5
 71
     0
 72
     2
 73
     0
 90
        0
 40
-0.6
 41
-30.0
 62
     5
 63
     7
 74
     1
 91
        4
 64
     7
 65
   257
 75
     1
175
     1
 42
1.0
 92
        0
 66
   257
 43
1.0
 76
     1
 77
     6
 78
     2
 67
     7
 79
     5
170
     0
171
     0
290
     0
174
     0
 93
        1
 44
0.0
173
     0
291
     0
 45
0.0
1001
ACAD
1000
AcDbSavedByObjectVersion
1070
     0
  0
VISUALSTYLE
  5
1087
102
{ACAD_XDICTIONARY
360
141E
102
}
102
{ACAD_REACTORS
330
1082
102
}
330
1082
100
AcDbVisualStyle
  2
Basic
 70
     7
 71
     1
 72
     0
 73
     1
 90
        0
 40
-0.6
 41
-30.0
 62
     5
 63
     7
 74
     0
 91
        4
 64
     7
 65
   257
 75
     1
175
     1
 42
1.0
 92
        8
 66
     7
 43
1.0
 76
     1
 77
     6
 78
     2
 67
     7
 79
     5
170
     0
171
     0
290
     0
174
     0
 93
        1
 44
0.0
173
     0
291
     1
 45
0.0
1001
ACAD
1000
AcDbSavedByObjectVersion
1070
     0
  0
VISUALSTYLE
  5
108E
102
{ACAD_XDICTIONARY
360
142C
102
}
102
{ACAD_REACTORS
330
1082
102
}
330
1082
100
AcDbVisualStyle
  2
Brighten
 70
    12
 71
     2
 72
     2
 73
     0
 90
        0
 40
-0.6
 41
-30.0
 62
     5
 63
     7
 74
     1
 91
        4
 64
     7
 65
   257
 75
     1
175
     1
 42
1.0
 92
        8
 66
     7
 43
1.0
 76
     1
 77
     6
 78
     2
 67
     7
 79
     5
170
     0
171
     0
290
     0
174
     0
 93
        1
 44
50.0
173
     0
291
     1
 45
0.0
1001
ACAD
1000
AcDbSavedByObjectVersion
1070
     0
  0
VISUALSTYLE
  5
1092
102
{ACAD_XDICTIONARY
360
1434
102
}
102
{ACAD_REACTORS
330
1082
102
}
330
1082
100
AcDbVisualStyle
  2
ColorChange
 70
    16
 71
     2
 72
     2
 73
     3
 90
        0
 40
-0.6
 41
-30.0
 62
     5
 63
     8
 74
     1
 91
        4
 64
     7
 65
   257
 75
     1
175
     1
 42
1.0
 92
        8
 66
     8
 43
1.0
 76
     1
 77
     6
 78
     2
 67
     7
 79
     5
170
     0
171
     0
290
     0
174
     0
 93
        1
 44
0.0
173
     0
291
     1
 45
0.0
1001
ACAD
1000
AcDbSavedByObjectVersion
1070
     0
  0
VISUALSTYLE
  5
108B
102
{ACAD_XDICTIONARY
360
1426
102
}
102
{ACAD_REACTORS
330
1082
102
}
330
1082
100
AcDbVisualStyle
  2
Conceptual
 70
     9
 71
     3
 72
     2
 73
     0
 90
        0
 40
-0.6
 41
-30.0
 62
     5
 63
     7
 74
     2
 91
        2
 64
     7
 65
   257
 75
     1
175
     1
 42
179.0
 92
        8
 66
     7
 43
1.0
 76
     1
 77
     6
 78
     2
 67
     7
 79
     3
170
     0
171
     0
290
     0
174
     0
 93
        1
 44
0.0
173
     0
291
     0
 45
0.0
1001
ACAD
1000
AcDbSavedByObjectVersion
1070
     0
  0
VISUALSTYLE
  5
108D
102
{ACAD_XDICTIONARY
360
142A
102
}
102
{ACAD_REACTORS
330
1082
102
}
330
1082
100
AcDbVisualStyle
  2
Dim
 70
    11
 71
     2
 72
     2
 73
     0
 90
        0
 40
-0.6
 41
-30.0
 62
     5
 63
     7
 74
     1
 91
        4
 64
     7
 65
   257
 75
     1
175
     1
 42
1.0
 92
        8
 66
     7
 43
1.0
 76
     1
 77
     6
 78
     2
 67
     7
 79
     5
170
     0
171
     0
290
     0
174
     0
 93
        1
 44
-50.0
173
     0
291
     1
 45
0.0
1001
ACAD
1000
AcDbSavedByObjectVersion
1070
     0
  0
VISUALSTYLE
  5
1095
102
{ACAD_XDICTIONARY
360
143A
102
}
102
{ACAD_REACTORS
330
1082
102
}
330
1082
100
AcDbVisualStyle
  2
EdgeColorOff
 70
    22
 71
     2
 72
     2
 73
     0
 90
        0
 40
-0.6
 41
-30.0
 62
     5
 63
     7
 74
     1
 91
        4
 64
     7
 65
   257
 75
     1
175
     1
 42
1.0
 92
        8
 66
     7
 43
1.0
 76
     1
 77
     6
 78
     2
 67
     7
 79
     5
170
     0
171
     0
290
     0
174
     0
 93
        1
 44
0.0
173
     0
291
     1
 45
0.0
1001
ACAD
1000
AcDbSavedByObjectVersion
1070
     0
  0
VISUALSTYLE
  5
1091
102
{ACAD_XDICTIONARY
360
1432
102
}
102
{ACAD_REACTORS
330
1082
102
}
330
1082
100
AcDbVisualStyle
  2
Facepattern
 70
    15
 71
     2
 72
     2
 73
     0
 90
        0
 40
-0.6
 41
-30.0
 62
     5
 63
     7
 74
     1
 91
        4
 64
     7
 65
   257
 75
     1
175
     1
 42
1.0
 92
        8
 66
     7
 43
1.0
 76
     1
 77
     6
 78
     2
 67
     7
 79
     5
170
     0
171
     0
290
     0
174
     0
 93
        1
 44
0.0
173
     0
291
     1
 45
0.0
1001
ACAD
1000
AcDbSavedByObjectVersion
1070
     0
  0
VISUALSTYLE
  5
1083
102
{ACAD_XDICTIONARY
360
1416
102
}
102
{ACAD_REACTORS
330
1082
102
}
330
1082
100
AcDbVisualStyle
  2
Flat
 70
     0
 71
     2
 72
     1
 73
     1
 90
        2
 40
-0.6
 41
30.0
 62
     5
 63
     7
 74
     0
 91
        4
 64
     7
 65
   257
 75
     1
175
     1
 42
1.0
 92
        8
 66
     7
 43
1.0
 76
     1
 77
     6
 78
     2
 67
     7
 79
     5
170
     0
171
     0
290
     0
174
     0
 93
       13
 44
0.0
173
     0
291
     1
 45
0.0
1001
ACAD
1000
AcDbSavedByObjectVersion
1070
     0
  0
VISUALSTYLE
  5
1084
102
{ACAD_XDICTIONARY
360
1418
102
}
102
{ACAD_REACTORS
330
1082
102
}
330
1082
100
AcDbVisualStyle
  2
FlatWithEdges
 70
     1
 71
     2
 72
     1
 73
     1
 90
        2
 40
-0.6
 41
30.0
 62
     5
 63
     7
 74
     1
 91
        4
 64
     7
 65
   257
 75
     1
175
     1
 42
1.0
 92
        0
 66
   257
 43
1.0
 76
     1
 77
     6
 78
     2
 67
     7
 79
     5
170
     0
171
     0
290
     0
174
     0
 93
       13
 44
0.0
173
     0
291
     1
 45
0.0
1001
ACAD
1000
AcDbSavedByObjectVersion
1070
     0
  0
VISUALSTYLE
  5
1085
102
{ACAD_XDICTIONARY
360
141A
102
}
102
{ACAD_REACTORS
330
1082
102
}
330
1082
100
AcDbVisualStyle
  2
Gouraud
 70
     2
 71
     2
 72
     2
 73
     1
 90
        2
 40
-0.6
 41
30.0
 62
     5
 63
     7
 74
     0
 91
        4
 64
     7
 65
   257
 75
     1
175
     1
 42
1.0
 92
        0
 66
     7
 43
1.0
 76
     1
 77
     6
 78
     2
 67
     7
 79
     5
170
     0
171
     0
290
     0
174
     0
 93
       13
 44
0.0
173
     0
291
     1
 45
0.0
1001
ACAD
1000
AcDbSavedByObjectVersion
1070
     0
  0
VISUALSTYLE
  5
1086
102
{ACAD_XDICTIONARY
360
141C
102
}
102
{ACAD_REACTORS
330
1082
102
}
330
1082
100
AcDbVisualStyle
  2
GouraudWithEdges
 70
     3
 71
     2
 72
     2
 73
     1
 90
        2
 40
-0.6
 41
30.0
 62
     5
 63
     7
 74
     1
 91
        4
 64
     7
 65
   257
 75
     1
175
     1
 42
1.0
 92
        0
 66
   257
 43
1.0
 76
     1
 77
     6
 78
     2
 67
     7
 79
     5
170
     0
171
     0
290
     0
174
     0
 93
       13
 44
0.0
173
     0
291
     1
 45
0.0
1001
ACAD
1000
AcDbSavedByObjectVersion
1070
     0
  0
VISUALSTYLE
  5
1093
102
{ACAD_XDICTIONARY
360
1436
102
}
102
{ACAD_REACTORS
330
1082
102
}
330
1082
100
AcDbVisualStyle
  2
JitterOff
 70
    20
 71
     2
 72
     2
 73
     0
 90
        0
 40
-0.6
 41
-30.0
 62
     5
 63
     7
 74
     1
 91
        4
 64
     7
 65
   257
 75
     1
175
     1
 42
1.0
 92
       10
 66
     7
 43
1.0
 76
     1
 77
     6
 78
     2
 67
     7
 79
     5
170
     0
171
     0
290
     0
174
     0
 93
        1
 44
0.0
173
     0
291
     1
 45
0.0
1001
ACAD
1000
AcDbSavedByObjectVersion
1070
     0
  0
VISUALSTYLE
  5
1090
102
{ACAD_XDICTIONARY
360
1430
102
}
102
{ACAD_REACTORS
330
1082
102
}
330
1082
100
AcDbVisualStyle
  2
Linepattern
 70
    14
 71
     2
 72
     2
 73
     0
 90
        0
 40
-0.6
 41
-30.0
 62
     5
 63
     7
 74
     1
 91
        4
 64
     7
 65
   257
 75
     7
175
     7
 42
1.0
 92
        8
 66
     7
 43
1.0
 76
     1
 77
     6
 78
     2
 67
     7
 79
     5
170
     0
171
     0
290
     0
174
     0
 93
        1
 44
0.0
173
     0
291
     1
 45
0.0
1001
ACAD
1000
AcDbSavedByObjectVersion
1070
     0
  0
VISUALSTYLE
  5
1094
102
{ACAD_XDICTIONARY
360
1438
102
}
102
{ACAD_REACTORS
330
1082
102
}
330
1082
100
AcDbVisualStyle
  2
OverhangOff
 70
    21
 71
     2
 72
     2
 73
     0
 90
        0
 40
-0.6
 41
-30.0
 62
     5
 63
     7
 74
     1
 91
        4
 64
     7
 65
   257
 75
     1
175
     1
 42
1.0
 92
        9
 66
     7
 43
1.0
 76
     1
 77
     6
 78
     2
 67
     7
 79
     5
170
     0
171
     0
290
     0
174
     0
 93
        1
 44
0.0
173
     0
291
     1
 45
0.0
1001
ACAD
1000
AcDbSavedByObjectVersion
1070
     0
  0
VISUALSTYLE
  5
108C
102
{ACAD_XDICTIONARY
360
1428
102
}
102
{ACAD_REACTORS
330
1082
102
}
330
1082
100
AcDbVisualStyle
  2
Realistic
 70
     8
 71
     2
 72
     2
 73
     0
 90
        0
 40
-0.6
 41
-30.0
 62
     5
 63
     7
 74
     1
 91
        0
 64
     7
 65
   257
 75
     1
175
     1
 42
1.0
 92
        8
 66
     8
 43
1.0
 76
     1
 77
     6
 78
     2
 67
     7
 79
     5
170
     0
171
     0
290
     0
174
     0
 93
       13
 44
0.0
173
     0
291
     0
 45
0.0
1001
ACAD
1000
AcDbSavedByObjectVersion
1070
     0
  0
VISUALSTYLE
  5
108F
102
{ACAD_XDICTIONARY
360
142E
102
}
102
{ACAD_REACTORS
330
1082
102
}
330
1082
100
AcDbVisualStyle
  2
Thicken
 70
    13
 71
     2
 72
     2
 73
     0
 90
        0
 40
-0.6
 41
-30.0
 62
     5
 63
     7
 74
     1
 91
        4
 64
     7
 65
   257
 75
     1
175
     1
 42
1.0
 92
       12
 66
     7
 43
1.0
 76
     1
 77
     6
 78
     2
 67
     7
 79
     5
170
     0
171
     0
290
     0
174
     0
 93
        1
 44
0.0
173
     0
291
     1
 45
0.0
1001
ACAD
1000
AcDbSavedByObjectVersion
1070
     0
  0
DICTIONARYVAR
  5
13F9
102
{ACAD_REACTORS
330
3D
102
}
330
3D
100
DictionaryVariables
280
     0
  1
1:1
  0
DICTIONARYVAR
  5
13F8
102
{ACAD_REACTORS
330
3D
102
}
330
3D
100
DictionaryVariables
280
     0
  1
STANDARD
  0
DICTIONARYVAR
  5
1049
102
{ACAD_REACTORS
330
3D
102
}
330
3D
100
DictionaryVariables
280
     0
  1
STANDARD
  0
DICTIONARYVAR
  5
3F
102
{ACAD_REACTORS
330
3D
102
}
330
3D
100
DictionaryVariables
280
     0
  1
2
  0
DICTIONARYVAR
  5
3E
102
{ACAD_REACTORS
330
3D
102
}
330
3D
100
DictionaryVariables
280
     0
  1
1
  0
DICTIONARYVAR
  5
13FB
102
{ACAD_REACTORS
330
3D
102
}
330
3D
100
DictionaryVariables
280
     0
  1
0
  0
DICTIONARYVAR
  5
13FA
102
{ACAD_REACTORS
330
3D
102
}
330
3D
100
DictionaryVariables
280
     0
  1
127
  0
DICTIONARYVAR
  5
1406
102
{ACAD_REACTORS
330
3D
102
}
330
3D
100
DictionaryVariables
280
     0
  1
2
  0
XRECORD
  5
1067
102
{ACAD_REACTORS
330
1066
102
}
330
1066
100
AcDbXrecord
280
     1
  0
DICTIONARY
  5
140C
330
1E
100
AcDbDictionary
280
     1
281
     1
  3
ACAD_XREC_ROUNDTRIP
360
140D
  0
DICTIONARY
  5
1410
330
26
100
AcDbDictionary
280
     1
281
     1
  3
ACAD_XREC_ROUNDTRIP
360
1411
  0
DICTIONARY
  5
140E
330
22
100
AcDbDictionary
280
     1
281
     1
  3
ACAD_XREC_ROUNDTRIP
360
140F
  0
DICTIONARY
  5
1073
330
1072
100
AcDbDictionary
280
     1
281
     1
  3
ACAD_XREC_ROUNDTRIP
360
1414
  3
BUMPTILE
360
1075
  3
DIFFUSETILE
360
1074
  3
OPACITYTILE
360
1078
  3
REFLECTIONTILE
360
1077
  3
REFRACTIONTILE
360
1079
  3
SPECULARTILE
360
1076
  0
DICTIONARY
  5
106B
330
106A
100
AcDbDictionary
280
     1
281
     1
  3
ACAD_XREC_ROUNDTRIP
360
1413
  3
BUMPTILE
360
106D
  3
DIFFUSETILE
360
106C
  3
OPACITYTILE
360
1070
  3
REFLECTIONTILE
360
106F
  3
REFRACTIONTILE
360
1071
  3
SPECULARTILE
360
106E
  0
DICTIONARY
  5
107B
330
107A
100
AcDbDictionary
280
     1
281
     1
  3
ACAD_XREC_ROUNDTRIP
360
1415
  3
BUMPTILE
360
107D
  3
DIFFUSETILE
360
107C
  3
OPACITYTILE
360
1080
  3
REFLECTIONTILE
360
107F
  3
REFRACTIONTILE
360
1081
  3
SPECULARTILE
360
107E
  0
DICTIONARY
  5
13BF
330
EE8
100
AcDbDictionary
280
     1
281
     1
  3
ACAD_ROUNDTRIP_2008_TABLESTYLE_CELLSTYLEMAP
360
1407
  3
ACAD_XREC_ROUNDTRIP
360
1412
  0
DICTIONARY
  5
1420
330
1088
100
AcDbDictionary
280
     1
281
     1
  3
ACAD_XREC_ROUNDTRIP
360
1421
  0
DICTIONARY
  5
1424
330
108A
100
AcDbDictionary
280
     1
281
     1
  3
ACAD_XREC_ROUNDTRIP
360
1425
  0
DICTIONARY
  5
1422
330
1089
100
AcDbDictionary
280
     1
281
     1
  3
ACAD_XREC_ROUNDTRIP
360
1423
  0
DICTIONARY
  5
141E
330
1087
100
AcDbDictionary
280
     1
281
     1
  3
ACAD_XREC_ROUNDTRIP
360
141F
  0
DICTIONARY
  5
142C
330
108E
100
AcDbDictionary
280
     1
281
     1
  3
ACAD_XREC_ROUNDTRIP
360
142D
  0
DICTIONARY
  5
1434
330
1092
100
AcDbDictionary
280
     1
281
     1
  3
ACAD_XREC_ROUNDTRIP
360
1435
  0
DICTIONARY
  5
1426
330
108B
100
AcDbDictionary
280
     1
281
     1
  3
ACAD_XREC_ROUNDTRIP
360
1427
  0
DICTIONARY
  5
142A
330
108D
100
AcDbDictionary
280
     1
281
     1
  3
ACAD_XREC_ROUNDTRIP
360
142B
  0
DICTIONARY
  5
143A
330
1095
100
AcDbDictionary
280
     1
281
     1
  3
ACAD_XREC_ROUNDTRIP
360
143B
  0
DICTIONARY
  5
1432
330
1091
100
AcDbDictionary
280
     1
281
     1
  3
ACAD_XREC_ROUNDTRIP
360
1433
  0
DICTIONARY
  5
1416
330
1083
100
AcDbDictionary
280
     1
281
     1
  3
ACAD_XREC_ROUNDTRIP
360
1417
  0
DICTIONARY
  5
1418
330
1084
100
AcDbDictionary
280
     1
281
     1
  3
ACAD_XREC_ROUNDTRIP
360
1419
  0
DICTIONARY
  5
141A
330
1085
100
AcDbDictionary
280
     1
281
     1
  3
ACAD_XREC_ROUNDTRIP
360
141B
  0
DICTIONARY
  5
141C
330
1086
100
AcDbDictionary
280
     1
281
     1
  3
ACAD_XREC_ROUNDTRIP
360
141D
  0
DICTIONARY
  5
1436
330
1093
100
AcDbDictionary
280
     1
281
     1
  3
ACAD_XREC_ROUNDTRIP
360
1437
  0
DICTIONARY
  5
1430
330
1090
100
AcDbDictionary
280
     1
281
     1
  3
ACAD_XREC_ROUNDTRIP
360
1431
  0
DICTIONARY
  5
1438
330
1094
100
AcDbDictionary
280
     1
281
     1
  3
ACAD_XREC_ROUNDTRIP
360
1439
  0
DICTIONARY
  5
1428
330
108C
100
AcDbDictionary
280
     1
281
     1
  3
ACAD_XREC_ROUNDTRIP
360
1429
  0
DICTIONARY
  5
142E
330
108F
100
AcDbDictionary
280
     1
281
     1
  3
ACAD_XREC_ROUNDTRIP
360
142F
  0
XRECORD
  5
140D
102
{ACAD_REACTORS
330
140C
102
}
330
140C
100
AcDbXrecord
280
     1
102
SHADEPLOT
 70
     0
102
SHADEPLOTRESLEVEL
 70
     2
102
SHADEPLOTCUSTOMDPI
 70
   300
  0
XRECORD
  5
1411
102
{ACAD_REACTORS
330
1410
102
}
330
1410
100
AcDbXrecord
280
     1
102
SHADEPLOT
 70
     0
102
SHADEPLOTRESLEVEL
 70
     2
102
SHADEPLOTCUSTOMDPI
 70
   300
  0
XRECORD
  5
140F
102
{ACAD_REACTORS
330
140E
102
}
330
140E
100
AcDbXrecord
280
     1
102
SHADEPLOT
 70
     0
102
SHADEPLOTRESLEVEL
 70
     2
102
SHADEPLOTCUSTOMDPI
 70
   300
  0
XRECORD
  5
1414
102
{ACAD_REACTORS
330
1073
102
}
330
1073
100
AcDbXrecord
280
     1
102
MATERIAL
148
0.0
149
0.0
149
0.0
 93
        0
 94
      127
282
     0
 72
     0
 77
     0
171
     0
175
     0
179
     0
273
     0
  0
XRECORD
  5
1075
102
{ACAD_REACTORS
330
1073
102
}
330
1073
100
AcDbXrecord
280
     1
270
     1
271
     1
  0
XRECORD
  5
1074
102
{ACAD_REACTORS
330
1073
102
}
330
1073
100
AcDbXrecord
280
     1
270
     1
271
     1
  0
XRECORD
  5
1078
102
{ACAD_REACTORS
330
1073
102
}
330
1073
100
AcDbXrecord
280
     1
270
     1
271
     1
  0
XRECORD
  5
1077
102
{ACAD_REACTORS
330
1073
102
}
330
1073
100
AcDbXrecord
280
     1
270
     1
271
     1
  0
XRECORD
  5
1079
102
{ACAD_REACTORS
330
1073
102
}
330
1073
100
AcDbXrecord
280
     1
270
     1
271
     1
  0
XRECORD
  5
1076
102
{ACAD_REACTORS
330
1073
102
}
330
1073
100
AcDbXrecord
280
     1
270
     1
271
     1
  0
XRECORD
  5
1413
102
{ACAD_REACTORS
330
106B
102
}
330
106B
100
AcDbXrecord
280
     1
102
MATERIAL
148
0.0
149
0.0
149
0.0
 93
        0
 94
      127
282
     0
 72
     0
 77
     0
171
     0
175
     0
179
     0
273
     0
  0
XRECORD
  5
106D
102
{ACAD_REACTORS
330
106B
102
}
330
106B
100
AcDbXrecord
280
     1
270
     1
271
     1
  0
XRECORD
  5
106C
102
{ACAD_REACTORS
330
106B
102
}
330
106B
100
AcDbXrecord
280
     1
270
     1
271
     1
  0
XRECORD
  5
1070
102
{ACAD_REACTORS
330
106B
102
}
330
106B
100
AcDbXrecord
280
     1
270
     1
271
     1
  0
XRECORD
  5
106F
102
{ACAD_REACTORS
330
106B
102
}
330
106B
100
AcDbXrecord
280
     1
270
     1
271
     1
  0
XRECORD
  5
1071
102
{ACAD_REACTORS
330
106B
102
}
330
106B
100
AcDbXrecord
280
     1
270
     1
271
     1
  0
XRECORD
  5
106E
102
{ACAD_REACTORS
330
106B
102
}
330
106B
100
AcDbXrecord
280
     1
270
     1
271
     1
  0
XRECORD
  5
1415
102
{ACAD_REACTORS
330
107B
102
}
330
107B
100
AcDbXrecord
280
     1
102
MATERIAL
148
0.0
149
0.0
149
0.0
 93
        0
 94
      127
282
     0
 72
     0
 77
     0
171
     0
175
     0
179
     0
273
     0
  0
XRECORD
  5
107D
102
{ACAD_REACTORS
330
107B
102
}
330
107B
100
AcDbXrecord
280
     1
270
     1
271
     1
  0
XRECORD
  5
107C
102
{ACAD_REACTORS
330
107B
102
}
330
107B
100
AcDbXrecord
280
     1
270
     1
271
     1
  0
XRECORD
  5
1080
102
{ACAD_REACTORS
330
107B
102
}
330
107B
100
AcDbXrecord
280
     1
270
     1
271
     1
  0
XRECORD
  5
107F
102
{ACAD_REACTORS
330
107B
102
}
330
107B
100
AcDbXrecord
280
     1
270
     1
271
     1
  0
XRECORD
  5
1081
102
{ACAD_REACTORS
330
107B
102
}
330
107B
100
AcDbXrecord
280
     1
270
     1
271
     1
  0
XRECORD
  5
107E
102
{ACAD_REACTORS
330
107B
102
}
330
107B
100
AcDbXrecord
280
     1
270
     1
271
     1
  0
CELLSTYLEMAP
  5
1407
102
{ACAD_REACTORS
330
13BF
102
}
330
13BF
100
AcDbCellStyleMap
 90
        3
300
CELLSTYLE
  1
TABLEFORMAT_BEGIN
 90
        5
170
     1
 91
        0
 92
    32768
 62
   257
 93
        1
300
CONTENTFORMAT
  1
CONTENTFORMAT_BEGIN
 90
        0
 91
        0
 92
        4
 93
        0
300

 40
0.0
140
1.0
 94
        5
 62
     0
340
11
144
6.0
309
CONTENTFORMAT_END
171
     1
301
MARGIN
  1
CELLMARGIN_BEGIN
 40
1.5
 40
1.5
 40
1.5
 40
1.5
 40
0.18
 40
0.18
309
CELLMARGIN_END
 94
        6
 95
        1
302
GRIDFORMAT
  1
GRIDFORMAT_BEGIN
 90
        0
 91
        1
 62
     0
 92
       -2
340
0
 93
        0
 40
0.045
309
GRIDFORMAT_END
 95
        2
302
GRIDFORMAT
  1
GRIDFORMAT_BEGIN
 90
        0
 91
        1
 62
     0
 92
       -2
340
0
 93
        0
 40
0.045
309
GRIDFORMAT_END
 95
        4
302
GRIDFORMAT
  1
GRIDFORMAT_BEGIN
 90
        0
 91
        1
 62
     0
 92
       -2
340
0
 93
        0
 40
0.045
309
GRIDFORMAT_END
 95
        8
302
GRIDFORMAT
  1
GRIDFORMAT_BEGIN
 90
        0
 91
        1
 62
     0
 92
       -2
340
0
 93
        0
 40
0.045
309
GRIDFORMAT_END
 95
       16
302
GRIDFORMAT
  1
GRIDFORMAT_BEGIN
 90
        0
 91
        1
 62
     0
 92
       -2
340
0
 93
        0
 40
0.045
309
GRIDFORMAT_END
 95
       32
302
GRIDFORMAT
  1
GRIDFORMAT_BEGIN
 90
        0
 91
        1
 62
     0
 92
       -2
340
0
 93
        0
 40
0.045
309
GRIDFORMAT_END
309
TABLEFORMAT_END
  1
CELLSTYLE_BEGIN
 90
        1
 91
        1
300
_TITLE
309
CELLSTYLE_END
300
CELLSTYLE
  1
TABLEFORMAT_BEGIN
 90
        5
170
     1
 91
        0
 92
        0
 62
   257
 93
        1
300
CONTENTFORMAT
  1
CONTENTFORMAT_BEGIN
 90
        0
 91
        0
 92
        4
 93
        0
300

 40
0.0
140
1.0
 94
        5
 62
     0
340
11
144
4.5
309
CONTENTFORMAT_END
171
     1
301
MARGIN
  1
CELLMARGIN_BEGIN
 40
1.5
 40
1.5
 40
1.5
 40
1.5
 40
0.18
 40
0.18
309
CELLMARGIN_END
 94
        6
 95
        1
302
GRIDFORMAT
  1
GRIDFORMAT_BEGIN
 90
        0
 91
        1
 62
     0
 92
       -2
340
0
 93
        0
 40
0.045
309
GRIDFORMAT_END
 95
        2
302
GRIDFORMAT
  1
GRIDFORMAT_BEGIN
 90
        0
 91
        1
 62
     0
 92
       -2
340
0
 93
        0
 40
0.045
309
GRIDFORMAT_END
 95
        4
302
GRIDFORMAT
  1
GRIDFORMAT_BEGIN
 90
        0
 91
        1
 62
     0
 92
       -2
340
0
 93
        0
 40
0.045
309
GRIDFORMAT_END
 95
        8
302
GRIDFORMAT
  1
GRIDFORMAT_BEGIN
 90
        0
 91
        1
 62
     0
 92
       -2
340
0
 93
        0
 40
0.045
309
GRIDFORMAT_END
 95
       16
302
GRIDFORMAT
  1
GRIDFORMAT_BEGIN
 90
        0
 91
        1
 62
     0
 92
       -2
340
0
 93
        0
 40
0.045
309
GRIDFORMAT_END
 95
       32
302
GRIDFORMAT
  1
GRIDFORMAT_BEGIN
 90
        0
 91
        1
 62
     0
 92
       -2
340
0
 93
        0
 40
0.045
309
GRIDFORMAT_END
309
TABLEFORMAT_END
  1
CELLSTYLE_BEGIN
 90
        2
 91
        1
300
_HEADER
309
CELLSTYLE_END
300
CELLSTYLE
  1
TABLEFORMAT_BEGIN
 90
        5
170
     1
 91
        0
 92
        0
 62
   257
 93
        1
300
CONTENTFORMAT
  1
CONTENTFORMAT_BEGIN
 90
        0
 91
        0
 92
        4
 93
        0
300

 40
0.0
140
1.0
 94
        2
 62
     0
340
11
144
4.5
309
CONTENTFORMAT_END
171
     1
301
MARGIN
  1
CELLMARGIN_BEGIN
 40
1.5
 40
1.5
 40
1.5
 40
1.5
 40
0.18
 40
0.18
309
CELLMARGIN_END
 94
        6
 95
        1
302
GRIDFORMAT
  1
GRIDFORMAT_BEGIN
 90
        0
 91
        1
 62
     0
 92
       -2
340
0
 93
        0
 40
0.045
309
GRIDFORMAT_END
 95
        2
302
GRIDFORMAT
  1
GRIDFORMAT_BEGIN
 90
        0
 91
        1
 62
     0
 92
       -2
340
0
 93
        0
 40
0.045
309
GRIDFORMAT_END
 95
        4
302
GRIDFORMAT
  1
GRIDFORMAT_BEGIN
 90
        0
 91
        1
 62
     0
 92
       -2
340
0
 93
        0
 40
0.045
309
GRIDFORMAT_END
 95
        8
302
GRIDFORMAT
  1
GRIDFORMAT_BEGIN
 90
        0
 91
        1
 62
     0
 92
       -2
340
0
 93
        0
 40
0.045
309
GRIDFORMAT_END
 95
       16
302
GRIDFORMAT
  1
GRIDFORMAT_BEGIN
 90
        0
 91
        1
 62
     0
 92
       -2
340
0
 93
        0
 40
0.045
309
GRIDFORMAT_END
 95
       32
302
GRIDFORMAT
  1
GRIDFORMAT_BEGIN
 90
        0
 91
        1
 62
     0
 92
       -2
340
0
 93
        0
 40
0.045
309
GRIDFORMAT_END
309
TABLEFORMAT_END
  1
CELLSTYLE_BEGIN
 90
        3
 91
        2
300
_DATA
309
CELLSTYLE_END
  0
XRECORD
  5
1412
102
{ACAD_REACTORS
330
13BF
102
}
330
13BF
100
AcDbXrecord
280
     1
102
ACAD_ROUNDTRIP_PRE2007_TABLESTYLE
 90
        4
 91
        0
  1

 92
        4
 93
        0
  2

 94
        4
 95
        0
  3

  0
XRECORD
  5
1421
102
{ACAD_REACTORS
330
1420
102
}
330
1420
100
AcDbXrecord
280
     1
102
RTVSPropertyOp0
 70
     1
102
RTVSPropertyOp1
 70
     1
102
RTVSPropertyOp2
 70
     1
102
RTVSPropertyOp3
 70
     1
102
RTVSPropertyOp4
 70
     1
102
RTVSPropertyOp5
 70
     1
102
RTVSPropertyOp6
 70
     1
102
RTVSPropertyOp7
 70
     1
102
RTVSPropertyOp8
 70
     1
102
RTVSPropertyOp9
 70
     1
102
RTVSPropertyOp10
 70
     1
102
RTVSPropertyOp11
 70
     1
102
RTVSPropertyOp12
 70
     1
102
RTVSPropertyOp13
 70
     1
102
RTVSPropertyOp14
 70
     1
102
RTVSPropertyOp15
 70
     1
102
RTVSPropertyOp16
 70
     1
102
RTVSPropertyOp17
 70
     1
102
RTVSPropertyOp18
 70
     1
102
RTVSPropertyOp19
 70
     1
102
RTVSPropertyOp20
 70
     1
102
RTVSPropertyOp21
 70
     1
102
RTVSPropertyOp22
 70
     1
102
RTVSPropertyOp23
 70
     1
102
RTVSPropertyOp24
 70
     1
102
RTVSPropertyOp25
 70
     1
102
RTVSPropertyOp26
 70
     1
102
RTVSPropertyOp27
 70
     1
  0
XRECORD
  5
1425
102
{ACAD_REACTORS
330
1424
102
}
330
1424
100
AcDbXrecord
280
     1
102
RTVSPropertyOp0
 70
     1
102
RTVSPropertyOp1
 70
     1
102
RTVSPropertyOp2
 70
     1
102
RTVSPropertyOp3
 70
     1
102
RTVSPropertyOp4
 70
     1
102
RTVSPropertyOp5
 70
     1
102
RTVSPropertyOp6
 70
     1
102
RTVSPropertyOp7
 70
     1
102
RTVSPropertyOp8
 70
     1
102
RTVSPropertyOp9
 70
     1
102
RTVSPropertyOp10
 70
     1
102
RTVSPropertyOp11
 70
     1
102
RTVSPropertyOp12
 70
     1
102
RTVSPropertyOp13
 70
     1
102
RTVSPropertyOp14
 70
     1
102
RTVSPropertyOp15
 70
     1
102
RTVSPropertyOp16
 70
     1
102
RTVSPropertyOp17
 70
     1
102
RTVSPropertyOp18
 70
     1
102
RTVSPropertyOp19
 70
     1
102
RTVSPropertyOp20
 70
     1
102
RTVSPropertyOp21
 70
     1
102
RTVSPropertyOp22
 70
     1
102
RTVSPropertyOp23
 70
     1
102
RTVSPropertyOp24
 70
     1
102
RTVSPropertyOp25
 70
     1
102
RTVSPropertyOp26
 70
     1
102
RTVSPropertyOp27
 70
     1
  0
XRECORD
  5
1423
102
{ACAD_REACTORS
330
1422
102
}
330
1422
100
AcDbXrecord
280
     1
102
RTVSPropertyOp0
 70
     1
102
RTVSPropertyOp1
 70
     1
102
RTVSPropertyOp2
 70
     1
102
RTVSPropertyOp3
 70
     1
102
RTVSPropertyOp4
 70
     1
102
RTVSPropertyOp5
 70
     1
102
RTVSPropertyOp6
 70
     1
102
RTVSPropertyOp7
 70
     1
102
RTVSPropertyOp8
 70
     1
102
RTVSPropertyOp9
 70
     1
102
RTVSPropertyOp10
 70
     1
102
RTVSPropertyOp11
 70
     1
102
RTVSPropertyOp12
 70
     1
102
RTVSPropertyOp13
 70
     1
102
RTVSPropertyOp14
 70
     1
102
RTVSPropertyOp15
 70
     1
102
RTVSPropertyOp16
 70
     1
102
RTVSPropertyOp17
 70
     1
102
RTVSPropertyOp18
 70
     1
102
RTVSPropertyOp19
 70
     1
102
RTVSPropertyOp20
 70
     1
102
RTVSPropertyOp21
 70
     1
102
RTVSPropertyOp22
 70
     1
102
RTVSPropertyOp23
 70
     1
102
RTVSPropertyOp24
 70
     1
102
RTVSPropertyOp25
 70
     1
102
RTVSPropertyOp26
 70
     1
102
RTVSPropertyOp27
 70
     1
  0
XRECORD
  5
141F
102
{ACAD_REACTORS
330
141E
102
}
330
141E
100
AcDbXrecord
280
     1
102
RTVSPropertyOp0
 70
     1
102
RTVSPropertyOp1
 70
     1
102
RTVSPropertyOp2
 70
     1
102
RTVSPropertyOp3
 70
     1
102
RTVSPropertyOp4
 70
     1
102
RTVSPropertyOp5
 70
     1
102
RTVSPropertyOp6
 70
     1
102
RTVSPropertyOp7
 70
     1
102
RTVSPropertyOp8
 70
     1
102
RTVSPropertyOp9
 70
     1
102
RTVSPropertyOp10
 70
     1
102
RTVSPropertyOp11
 70
     1
102
RTVSPropertyOp12
 70
     1
102
RTVSPropertyOp13
 70
     1
102
RTVSPropertyOp14
 70
     1
102
RTVSPropertyOp15
 70
     1
102
RTVSPropertyOp16
 70
     1
102
RTVSPropertyOp17
 70
     1
102
RTVSPropertyOp18
 70
     1
102
RTVSPropertyOp19
 70
     1
102
RTVSPropertyOp20
 70
     1
102
RTVSPropertyOp21
 70
     1
102
RTVSPropertyOp22
 70
     1
102
RTVSPropertyOp23
 70
     1
102
RTVSPropertyOp24
 70
     1
102
RTVSPropertyOp25
 70
     1
102
RTVSPropertyOp26
 70
     1
102
RTVSPropertyOp27
 70
     1
  0
XRECORD
  5
142D
102
{ACAD_REACTORS
330
142C
102
}
330
142C
100
AcDbXrecord
280
     1
102
RTVSPropertyOp0
 70
     1
102
RTVSPropertyOp1
 70
     1
102
RTVSPropertyOp2
 70
     1
102
RTVSPropertyOp3
 70
     1
102
RTVSPropertyOp4
 70
     1
102
RTVSPropertyOp5
 70
     1
102
RTVSPropertyOp6
 70
     1
102
RTVSPropertyOp7
 70
     1
102
RTVSPropertyOp8
 70
     1
102
RTVSPropertyOp9
 70
     1
102
RTVSPropertyOp10
 70
     1
102
RTVSPropertyOp11
 70
     1
102
RTVSPropertyOp12
 70
     1
102
RTVSPropertyOp13
 70
     1
102
RTVSPropertyOp14
 70
     1
102
RTVSPropertyOp15
 70
     1
102
RTVSPropertyOp16
 70
     1
102
RTVSPropertyOp17
 70
     1
102
RTVSPropertyOp18
 70
     1
102
RTVSPropertyOp19
 70
     1
102
RTVSPropertyOp20
 70
     1
102
RTVSPropertyOp21
 70
     1
102
RTVSPropertyOp22
 70
     1
102
RTVSPropertyOp23
 70
     1
102
RTVSPropertyOp24
 70
     1
102
RTVSPropertyOp25
 70
     1
102
RTVSPropertyOp26
 70
     1
102
RTVSPropertyOp27
 70
     1
  0
XRECORD
  5
1435
102
{ACAD_REACTORS
330
1434
102
}
330
1434
100
AcDbXrecord
280
     1
102
RTVSPropertyOp0
 70
     1
102
RTVSPropertyOp1
 70
     1
102
RTVSPropertyOp2
 70
     1
102
RTVSPropertyOp3
 70
     1
102
RTVSPropertyOp4
 70
     1
102
RTVSPropertyOp5
 70
     1
102
RTVSPropertyOp6
 70
     1
102
RTVSPropertyOp7
 70
     1
102
RTVSPropertyOp8
 70
     1
102
RTVSPropertyOp9
 70
     1
102
RTVSPropertyOp10
 70
     1
102
RTVSPropertyOp11
 70
     1
102
RTVSPropertyOp12
 70
     1
102
RTVSPropertyOp13
 70
     1
102
RTVSPropertyOp14
 70
     1
102
RTVSPropertyOp15
 70
     1
102
RTVSPropertyOp16
 70
     1
102
RTVSPropertyOp17
 70
     1
102
RTVSPropertyOp18
 70
     1
102
RTVSPropertyOp19
 70
     1
102
RTVSPropertyOp20
 70
     1
102
RTVSPropertyOp21
 70
     1
102
RTVSPropertyOp22
 70
     1
102
RTVSPropertyOp23
 70
     1
102
RTVSPropertyOp24
 70
     1
102
RTVSPropertyOp25
 70
     1
102
RTVSPropertyOp26
 70
     1
102
RTVSPropertyOp27
 70
     1
  0
XRECORD
  5
1427
102
{ACAD_REACTORS
330
1426
102
}
330
1426
100
AcDbXrecord
280
     1
102
RTVSPropertyOp0
 70
     1
102
RTVSPropertyOp1
 70
     1
102
RTVSPropertyOp2
 70
     1
102
RTVSPropertyOp3
 70
     1
102
RTVSPropertyOp4
 70
     1
102
RTVSPropertyOp5
 70
     1
102
RTVSPropertyOp6
 70
     1
102
RTVSPropertyOp7
 70
     1
102
RTVSPropertyOp8
 70
     1
102
RTVSPropertyOp9
 70
     1
102
RTVSPropertyOp10
 70
     1
102
RTVSPropertyOp11
 70
     1
102
RTVSPropertyOp12
 70
     1
102
RTVSPropertyOp13
 70
     1
102
RTVSPropertyOp14
 70
     1
102
RTVSPropertyOp15
 70
     1
102
RTVSPropertyOp16
 70
     1
102
RTVSPropertyOp17
 70
     1
102
RTVSPropertyOp18
 70
     1
102
RTVSPropertyOp19
 70
     1
102
RTVSPropertyOp20
 70
     1
102
RTVSPropertyOp21
 70
     1
102
RTVSPropertyOp22
 70
     1
102
RTVSPropertyOp23
 70
     1
102
RTVSPropertyOp24
 70
     1
102
RTVSPropertyOp25
 70
     1
102
RTVSPropertyOp26
 70
     1
102
RTVSPropertyOp27
 70
     1
  0
XRECORD
  5
142B
102
{ACAD_REACTORS
330
142A
102
}
330
142A
100
AcDbXrecord
280
     1
102
RTVSPropertyOp0
 70
     1
102
RTVSPropertyOp1
 70
     1
102
RTVSPropertyOp2
 70
     1
102
RTVSPropertyOp3
 70
     1
102
RTVSPropertyOp4
 70
     1
102
RTVSPropertyOp5
 70
     1
102
RTVSPropertyOp6
 70
     1
102
RTVSPropertyOp7
 70
     1
102
RTVSPropertyOp8
 70
     1
102
RTVSPropertyOp9
 70
     1
102
RTVSPropertyOp10
 70
     1
102
RTVSPropertyOp11
 70
     1
102
RTVSPropertyOp12
 70
     1
102
RTVSPropertyOp13
 70
     1
102
RTVSPropertyOp14
 70
     1
102
RTVSPropertyOp15
 70
     1
102
RTVSPropertyOp16
 70
     1
102
RTVSPropertyOp17
 70
     1
102
RTVSPropertyOp18
 70
     1
102
RTVSPropertyOp19
 70
     1
102
RTVSPropertyOp20
 70
     1
102
RTVSPropertyOp21
 70
     1
102
RTVSPropertyOp22
 70
     1
102
RTVSPropertyOp23
 70
     1
102
RTVSPropertyOp24
 70
     1
102
RTVSPropertyOp25
 70
     1
102
RTVSPropertyOp26
 70
     1
102
RTVSPropertyOp27
 70
     1
  0
XRECORD
  5
143B
102
{ACAD_REACTORS
330
143A
102
}
330
143A
100
AcDbXrecord
280
     1
102
RTVSPropertyOp0
 70
     0
102
RTVSPropertyOp1
 70
     0
102
RTVSPropertyOp2
 70
     0
102
RTVSPropertyOp3
 70
     0
102
RTVSPropertyOp4
 70
     0
102
RTVSPropertyOp5
 70
     0
102
RTVSPropertyOp6
 70
     0
102
RTVSPropertyOp7
 70
     0
102
RTVSPropertyOp8
 70
     0
102
RTVSPropertyOp9
 70
     0
102
RTVSPropertyOp10
 70
     0
102
RTVSPropertyOp11
 70
     0
102
RTVSPropertyOp12
 70
     0
102
RTVSPropertyOp13
 70
     0
102
RTVSPropertyOp14
 70
     2
102
RTVSPropertyOp15
 70
     0
102
RTVSPropertyOp16
 70
     0
102
RTVSPropertyOp17
 70
     0
102
RTVSPropertyOp18
 70
     0
102
RTVSPropertyOp19
 70
     0
102
RTVSPropertyOp20
 70
     0
102
RTVSPropertyOp21
 70
     0
102
RTVSPropertyOp22
 70
     0
102
RTVSPropertyOp23
 70
     0
102
RTVSPropertyOp24
 70
     0
102
RTVSPropertyOp25
 70
     0
102
RTVSPropertyOp26
 70
     0
102
RTVSPropertyOp27
 70
     0
  0
XRECORD
  5
1433
102
{ACAD_REACTORS
330
1432
102
}
330
1432
100
AcDbXrecord
280
     1
102
RTVSPropertyOp0
 70
     1
102
RTVSPropertyOp1
 70
     1
102
RTVSPropertyOp2
 70
     1
102
RTVSPropertyOp3
 70
     1
102
RTVSPropertyOp4
 70
     1
102
RTVSPropertyOp5
 70
     1
102
RTVSPropertyOp6
 70
     1
102
RTVSPropertyOp7
 70
     1
102
RTVSPropertyOp8
 70
     1
102
RTVSPropertyOp9
 70
     1
102
RTVSPropertyOp10
 70
     1
102
RTVSPropertyOp11
 70
     1
102
RTVSPropertyOp12
 70
     1
102
RTVSPropertyOp13
 70
     1
102
RTVSPropertyOp14
 70
     1
102
RTVSPropertyOp15
 70
     1
102
RTVSPropertyOp16
 70
     1
102
RTVSPropertyOp17
 70
     1
102
RTVSPropertyOp18
 70
     1
102
RTVSPropertyOp19
 70
     1
102
RTVSPropertyOp20
 70
     1
102
RTVSPropertyOp21
 70
     1
102
RTVSPropertyOp22
 70
     1
102
RTVSPropertyOp23
 70
     1
102
RTVSPropertyOp24
 70
     1
102
RTVSPropertyOp25
 70
     1
102
RTVSPropertyOp26
 70
     1
102
RTVSPropertyOp27
 70
     1
  0
XRECORD
  5
1417
102
{ACAD_REACTORS
330
1416
102
}
330
1416
100
AcDbXrecord
280
     1
102
RTVSPropertyOp0
 70
     1
102
RTVSPropertyOp1
 70
     1
102
RTVSPropertyOp2
 70
     1
102
RTVSPropertyOp3
 70
     1
102
RTVSPropertyOp4
 70
     1
102
RTVSPropertyOp5
 70
     1
102
RTVSPropertyOp6
 70
     1
102
RTVSPropertyOp7
 70
     1
102
RTVSPropertyOp8
 70
     1
102
RTVSPropertyOp9
 70
     1
102
RTVSPropertyOp10
 70
     1
102
RTVSPropertyOp11
 70
     1
102
RTVSPropertyOp12
 70
     1
102
RTVSPropertyOp13
 70
     1
102
RTVSPropertyOp14
 70
     1
102
RTVSPropertyOp15
 70
     1
102
RTVSPropertyOp16
 70
     1
102
RTVSPropertyOp17
 70
     1
102
RTVSPropertyOp18
 70
     1
102
RTVSPropertyOp19
 70
     1
102
RTVSPropertyOp20
 70
     1
102
RTVSPropertyOp21
 70
     1
102
RTVSPropertyOp22
 70
     1
102
RTVSPropertyOp23
 70
     1
102
RTVSPropertyOp24
 70
     1
102
RTVSPropertyOp25
 70
     1
102
RTVSPropertyOp26
 70
     1
102
RTVSPropertyOp27
 70
     1
  0
XRECORD
  5
1419
102
{ACAD_REACTORS
330
1418
102
}
330
1418
100
AcDbXrecord
280
     1
102
RTVSPropertyOp0
 70
     1
102
RTVSPropertyOp1
 70
     1
102
RTVSPropertyOp2
 70
     1
102
RTVSPropertyOp3
 70
     1
102
RTVSPropertyOp4
 70
     1
102
RTVSPropertyOp5
 70
     1
102
RTVSPropertyOp6
 70
     1
102
RTVSPropertyOp7
 70
     1
102
RTVSPropertyOp8
 70
     1
102
RTVSPropertyOp9
 70
     1
102
RTVSPropertyOp10
 70
     1
102
RTVSPropertyOp11
 70
     1
102
RTVSPropertyOp12
 70
     1
102
RTVSPropertyOp13
 70
     1
102
RTVSPropertyOp14
 70
     1
102
RTVSPropertyOp15
 70
     1
102
RTVSPropertyOp16
 70
     1
102
RTVSPropertyOp17
 70
     1
102
RTVSPropertyOp18
 70
     1
102
RTVSPropertyOp19
 70
     1
102
RTVSPropertyOp20
 70
     1
102
RTVSPropertyOp21
 70
     1
102
RTVSPropertyOp22
 70
     1
102
RTVSPropertyOp23
 70
     1
102
RTVSPropertyOp24
 70
     1
102
RTVSPropertyOp25
 70
     1
102
RTVSPropertyOp26
 70
     1
102
RTVSPropertyOp27
 70
     1
  0
XRECORD
  5
141B
102
{ACAD_REACTORS
330
141A
102
}
330
141A
100
AcDbXrecord
280
     1
102
RTVSPropertyOp0
 70
     1
102
RTVSPropertyOp1
 70
     1
102
RTVSPropertyOp2
 70
     1
102
RTVSPropertyOp3
 70
     1
102
RTVSPropertyOp4
 70
     1
102
RTVSPropertyOp5
 70
     1
102
RTVSPropertyOp6
 70
     1
102
RTVSPropertyOp7
 70
     1
102
RTVSPropertyOp8
 70
     1
102
RTVSPropertyOp9
 70
     1
102
RTVSPropertyOp10
 70
     1
102
RTVSPropertyOp11
 70
     1
102
RTVSPropertyOp12
 70
     1
102
RTVSPropertyOp13
 70
     1
102
RTVSPropertyOp14
 70
     1
102
RTVSPropertyOp15
 70
     1
102
RTVSPropertyOp16
 70
     1
102
RTVSPropertyOp17
 70
     1
102
RTVSPropertyOp18
 70
     1
102
RTVSPropertyOp19
 70
     1
102
RTVSPropertyOp20
 70
     1
102
RTVSPropertyOp21
 70
     1
102
RTVSPropertyOp22
 70
     1
102
RTVSPropertyOp23
 70
     1
102
RTVSPropertyOp24
 70
     1
102
RTVSPropertyOp25
 70
     1
102
RTVSPropertyOp26
 70
     1
102
RTVSPropertyOp27
 70
     1
  0
XRECORD
  5
141D
102
{ACAD_REACTORS
330
141C
102
}
330
141C
100
AcDbXrecord
280
     1
102
RTVSPropertyOp0
 70
     1
102
RTVSPropertyOp1
 70
     1
102
RTVSPropertyOp2
 70
     1
102
RTVSPropertyOp3
 70
     1
102
RTVSPropertyOp4
 70
     1
102
RTVSPropertyOp5
 70
     1
102
RTVSPropertyOp6
 70
     1
102
RTVSPropertyOp7
 70
     1
102
RTVSPropertyOp8
 70
     1
102
RTVSPropertyOp9
 70
     1
102
RTVSPropertyOp10
 70
     1
102
RTVSPropertyOp11
 70
     1
102
RTVSPropertyOp12
 70
     1
102
RTVSPropertyOp13
 70
     1
102
RTVSPropertyOp14
 70
     1
102
RTVSPropertyOp15
 70
     1
102
RTVSPropertyOp16
 70
     1
102
RTVSPropertyOp17
 70
     1
102
RTVSPropertyOp18
 70
     1
102
RTVSPropertyOp19
 70
     1
102
RTVSPropertyOp20
 70
     1
102
RTVSPropertyOp21
 70
     1
102
RTVSPropertyOp22
 70
     1
102
RTVSPropertyOp23
 70
     1
102
RTVSPropertyOp24
 70
     1
102
RTVSPropertyOp25
 70
     1
102
RTVSPropertyOp26
 70
     1
102
RTVSPropertyOp27
 70
     1
  0
XRECORD
  5
1437
102
{ACAD_REACTORS
330
1436
102
}
330
1436
100
AcDbXrecord
280
     1
102
RTVSPropertyOp0
 70
     0
102
RTVSPropertyOp1
 70
     0
102
RTVSPropertyOp2
 70
     0
102
RTVSPropertyOp3
 70
     0
102
RTVSPropertyOp4
 70
     0
102
RTVSPropertyOp5
 70
     0
102
RTVSPropertyOp6
 70
     0
102
RTVSPropertyOp7
 70
     0
102
RTVSPropertyOp8
 70
     0
102
RTVSPropertyOp9
 70
     0
102
RTVSPropertyOp10
 70
     0
102
RTVSPropertyOp11
 70
     0
102
RTVSPropertyOp12
 70
     0
102
RTVSPropertyOp13
 70
     0
102
RTVSPropertyOp14
 70
     2
102
RTVSPropertyOp15
 70
     0
102
RTVSPropertyOp16
 70
     0
102
RTVSPropertyOp17
 70
     0
102
RTVSPropertyOp18
 70
     0
102
RTVSPropertyOp19
 70
     0
102
RTVSPropertyOp20
 70
     0
102
RTVSPropertyOp21
 70
     0
102
RTVSPropertyOp22
 70
     0
102
RTVSPropertyOp23
 70
     0
102
RTVSPropertyOp24
 70
     0
102
RTVSPropertyOp25
 70
     0
102
RTVSPropertyOp26
 70
     0
102
RTVSPropertyOp27
 70
     0
  0
XRECORD
  5
1431
102
{ACAD_REACTORS
330
1430
102
}
330
1430
100
AcDbXrecord
280
     1
102
RTVSPropertyOp0
 70
     1
102
RTVSPropertyOp1
 70
     1
102
RTVSPropertyOp2
 70
     1
102
RTVSPropertyOp3
 70
     1
102
RTVSPropertyOp4
 70
     1
102
RTVSPropertyOp5
 70
     1
102
RTVSPropertyOp6
 70
     1
102
RTVSPropertyOp7
 70
     1
102
RTVSPropertyOp8
 70
     1
102
RTVSPropertyOp9
 70
     1
102
RTVSPropertyOp10
 70
     1
102
RTVSPropertyOp11
 70
     1
102
RTVSPropertyOp12
 70
     1
102
RTVSPropertyOp13
 70
     1
102
RTVSPropertyOp14
 70
     1
102
RTVSPropertyOp15
 70
     1
102
RTVSPropertyOp16
 70
     1
102
RTVSPropertyOp17
 70
     1
102
RTVSPropertyOp18
 70
     1
102
RTVSPropertyOp19
 70
     1
102
RTVSPropertyOp20
 70
     1
102
RTVSPropertyOp21
 70
     1
102
RTVSPropertyOp22
 70
     1
102
RTVSPropertyOp23
 70
     1
102
RTVSPropertyOp24
 70
     1
102
RTVSPropertyOp25
 70
     1
102
RTVSPropertyOp26
 70
     1
102
RTVSPropertyOp27
 70
     1
  0
XRECORD
  5
1439
102
{ACAD_REACTORS
330
1438
102
}
330
1438
100
AcDbXrecord
280
     1
102
RTVSPropertyOp0
 70
     0
102
RTVSPropertyOp1
 70
     0
102
RTVSPropertyOp2
 70
     0
102
RTVSPropertyOp3
 70
     0
102
RTVSPropertyOp4
 70
     0
102
RTVSPropertyOp5
 70
     0
102
RTVSPropertyOp6
 70
     0
102
RTVSPropertyOp7
 70
     0
102
RTVSPropertyOp8
 70
     0
102
RTVSPropertyOp9
 70
     0
102
RTVSPropertyOp10
 70
     0
102
RTVSPropertyOp11
 70
     0
102
RTVSPropertyOp12
 70
     0
102
RTVSPropertyOp13
 70
     0
102
RTVSPropertyOp14
 70
     2
102
RTVSPropertyOp15
 70
     0
102
RTVSPropertyOp16
 70
     0
102
RTVSPropertyOp17
 70
     0
102
RTVSPropertyOp18
 70
     0
102
RTVSPropertyOp19
 70
     0
102
RTVSPropertyOp20
 70
     0
102
RTVSPropertyOp21
 70
     0
102
RTVSPropertyOp22
 70
     0
102
RTVSPropertyOp23
 70
     0
102
RTVSPropertyOp24
 70
     0
102
RTVSPropertyOp25
 70
     0
102
RTVSPropertyOp26
 70
     0
102
RTVSPropertyOp27
 70
     0
  0
XRECORD
  5
1429
102
{ACAD_REACTORS
330
1428
102
}
330
1428
100
AcDbXrecord
280
     1
102
RTVSPropertyOp0
 70
     1
102
RTVSPropertyOp1
 70
     1
102
RTVSPropertyOp2
 70
     1
102
RTVSPropertyOp3
 70
     1
102
RTVSPropertyOp4
 70
     1
102
RTVSPropertyOp5
 70
     1
102
RTVSPropertyOp6
 70
     1
102
RTVSPropertyOp7
 70
     1
102
RTVSPropertyOp8
 70
     1
102
RTVSPropertyOp9
 70
     1
102
RTVSPropertyOp10
 70
     1
102
RTVSPropertyOp11
 70
     1
102
RTVSPropertyOp12
 70
     1
102
RTVSPropertyOp13
 70
     1
102
RTVSPropertyOp14
 70
     1
102
RTVSPropertyOp15
 70
     1
102
RTVSPropertyOp16
 70
     1
102
RTVSPropertyOp17
 70
     1
102
RTVSPropertyOp18
 70
     1
102
RTVSPropertyOp19
 70
     1
102
RTVSPropertyOp20
 70
     1
102
RTVSPropertyOp21
 70
     1
102
RTVSPropertyOp22
 70
     1
102
RTVSPropertyOp23
 70
     1
102
RTVSPropertyOp24
 70
     1
102
RTVSPropertyOp25
 70
     1
102
RTVSPropertyOp26
 70
     1
102
RTVSPropertyOp27
 70
     1
  0
XRECORD
  5
142F
102
{ACAD_REACTORS
330
142E
102
}
330
142E
100
AcDbXrecord
280
     1
102
RTVSPropertyOp0
 70
     1
102
RTVSPropertyOp1
 70
     1
102
RTVSPropertyOp2
 70
     1
102
RTVSPropertyOp3
 70
     1
102
RTVSPropertyOp4
 70
     1
102
RTVSPropertyOp5
 70
     1
102
RTVSPropertyOp6
 70
     1
102
RTVSPropertyOp7
 70
     1
102
RTVSPropertyOp8
 70
     1
102
RTVSPropertyOp9
 70
     1
102
RTVSPropertyOp10
 70
     1
102
RTVSPropertyOp11
 70
     1
102
RTVSPropertyOp12
 70
     1
102
RTVSPropertyOp13
 70
     1
102
RTVSPropertyOp14
 70
     1
102
RTVSPropertyOp15
 70
     1
102
RTVSPropertyOp16
 70
     1
102
RTVSPropertyOp17
 70
     1
102
RTVSPropertyOp18
 70
     1
102
RTVSPropertyOp19
 70
     1
102
RTVSPropertyOp20
 70
     1
102
RTVSPropertyOp21
 70
     1
102
RTVSPropertyOp22
 70
     1
102
RTVSPropertyOp23
 70
     1
102
RTVSPropertyOp24
 70
     1
102
RTVSPropertyOp25
 70
     1
102
RTVSPropertyOp26
 70
     1
102
RTVSPropertyOp27
 70
     1
  0
ENDSEC
  0
EOF
