  0
SECTION
  2
HEADER
  9
$ACADVER
  1
AC1015
  9
$ACADMAINTVER
 70
    20
  9
$DWGCODEPAGE
  3
ANSI_1252
  9
$INSBASE
 10
0.0
 20
0.0
 30
0.0
  9
$EXTMIN
 10
5248.547668003085
 20
3033.401717696248
 30
-0.0000000000000002
  9
$EXTMAX
 10
5252.593275285675
 20
3034.40590699913
 30
0.0000000000000002
  9
$LIMMIN
 10
0.0
 20
0.0
  9
$LIMMAX
 10
420.0
 20
297.0
  9
$ORTHOMODE
 70
     1
  9
$REGENMODE
 70
     1
  9
$FILLMODE
 70
     1
  9
$QTEXTMODE
 70
     0
  9
$MIRRTEXT
 70
     1
  9
$LTSCALE
 40
1.0
  9
$ATTMODE
 70
     1
  9
$TEXTSIZE
 40
2.5
  9
$TRACEWID
 40
1.0
  9
$TEXTSTYLE
  7
SANINDUSA
  9
$CLAYER
  8
0
  9
$CELTYPE
  6
ByLayer
  9
$CECOLOR
 62
   256
  9
$CELTSCALE
 40
1.0
  9
$DISPSILH
 70
     0
  9
$DIMSCALE
 40
1.0
  9
$DIMASZ
 40
2.0
  9
$DIMEXO
 40
1.0
  9
$DIMDLI
 40
1.0
  9
$DIMRND
 40
0.0
  9
$DIMDLE
 40
0.0
  9
$DIMEXE
 40
1.0
  9
$DIMTP
 40
0.0
  9
$DIMTM
 40
0.0
  9
$DIMTXT
 40
2.0
  9
$DIMCEN
 40
0.0
  9
$DIMTSZ
 40
0.0
  9
$DIMTOL
 70
     0
  9
$DIMLIM
 70
     0
  9
$DIMTIH
 70
     0
  9
$DIMTOH
 70
     0
  9
$DIMSE1
 70
     0
  9
$DIMSE2
 70
     0
  9
$DIMTAD
 70
     1
  9
$DIMZIN
 70
     8
  9
$DIMBLK
  1

  9
$DIMASO
 70
     1
  9
$DIMSHO
 70
     1
  9
$DIMPOST
  1

  9
$DIMAPOST
  1

  9
$DIMALT
 70
     0
  9
$DIMALTD
 70
     3
  9
$DIMALTF
 40
0.03937007874016
  9
$DIMLFAC
 40
1.0
  9
$DIMTOFL
 70
     1
  9
$DIMTVP
 40
0.0
  9
$DIMTIX
 70
     0
  9
$DIMSOXD
 70
     0
  9
$DIMSAH
 70
     0
  9
$DIMBLK1
  1

  9
$DIMBLK2
  1

  9
$DIMSTYLE
  2
SANINDUSA
  9
$DIMCLRD
 70
   256
  9
$DIMCLRE
 70
   256
  9
$DIMCLRT
 70
   256
  9
$DIMTFAC
 40
1.0
  9
$DIMGAP
 40
1.0
  9
$DIMJUST
 70
     0
  9
$DIMSD1
 70
     0
  9
$DIMSD2
 70
     0
  9
$DIMTOLJ
 70
     0
  9
$DIMTZIN
 70
     8
  9
$DIMALTZ
 70
     0
  9
$DIMALTTZ
 70
     0
  9
$DIMUPT
 70
     0
  9
$DIMDEC
 70
     1
  9
$DIMTDEC
 70
     1
  9
$DIMALTU
 70
     2
  9
$DIMALTTD
 70
     3
  9
$DIMTXSTY
  7
SANINDUSA
  9
$DIMAUNIT
 70
     0
  9
$DIMADEC
 70
     1
  9
$DIMALTRND
 40
0.0
  9
$DIMAZIN
 70
     0
  9
$DIMDSEP
 70
    44
  9
$DIMATFIT
 70
     3
  9
$DIMFRAC
 70
     0
  9
$DIMLDRBLK
  1

  9
$DIMLUNIT
 70
     2
  9
$DIMLWD
 70
    -1
  9
$DIMLWE
 70
    -1
  9
$DIMTMOVE
 70
     0
  9
$LUNITS
 70
     2
  9
$LUPREC
 70
     4
  9
$SKETCHINC
 40
1.0
  9
$FILLETRAD
 40
0.0
  9
$AUNITS
 70
     0
  9
$AUPREC
 70
     0
  9
$MENU
  1
.
  9
$ELEVATION
 40
0.0
  9
$PELEVATION
 40
0.0
  9
$THICKNESS
 40
0.0
  9
$LIMCHECK
 70
     0
  9
$CHAMFERA
 40
10.0
  9
$CHAMFERB
 40
10.0
  9
$CHAMFERC
 40
20.0
  9
$CHAMFERD
 40
0.0
  9
$SKPOLY
 70
     0
  9
$TDCREATE
 40
2455782.692964583
  9
$TDUCREATE
 40
2455782.651297917
  9
$TDUPDATE
 40
2456216.697362732
  9
$TDUUPDATE
 40
2456216.655696065
  9
$TDINDWG
 40
0.0074625694
  9
$TDUSRTIMER
 40
0.0074625694
  9
$USRTIMER
 70
     1
  9
$ANGBASE
 50
0.0
  9
$ANGDIR
 70
     0
  9
$PDMODE
 70
     0
  9
$PDSIZE
 40
0.0
  9
$PLINEWID
 40
0.0
  9
$SPLFRAME
 70
     0
  9
$SPLINETYPE
 70
     6
  9
$SPLINESEGS
 70
     8
  9
$HANDSEED
  5
1C1B
  9
$SURFTAB1
 70
     6
  9
$SURFTAB2
 70
     6
  9
$SURFTYPE
 70
     6
  9
$SURFU
 70
     6
  9
$SURFV
 70
     6
  9
$UCSBASE
  2

  9
$UCSNAME
  2

  9
$UCSORG
 10
0.0
 20
0.0
 30
0.0
  9
$UCSXDIR
 10
1.0
 20
0.0
 30
0.0
  9
$UCSYDIR
 10
0.0
 20
1.0
 30
0.0
  9
$UCSORTHOREF
  2

  9
$UCSORTHOVIEW
 70
     0
  9
$UCSORGTOP
 10
0.0
 20
0.0
 30
0.0
  9
$UCSORGBOTTOM
 10
0.0
 20
0.0
 30
0.0
  9
$UCSORGLEFT
 10
0.0
 20
0.0
 30
0.0
  9
$UCSORGRIGHT
 10
0.0
 20
0.0
 30
0.0
  9
$UCSORGFRONT
 10
0.0
 20
0.0
 30
0.0
  9
$UCSORGBACK
 10
0.0
 20
0.0
 30
0.0
  9
$PUCSBASE
  2

  9
$PUCSNAME
  2

  9
$PUCSORG
 10
0.0
 20
0.0
 30
0.0
  9
$PUCSXDIR
 10
1.0
 20
0.0
 30
0.0
  9
$PUCSYDIR
 10
0.0
 20
1.0
 30
0.0
  9
$PUCSORTHOREF
  2

  9
$PUCSORTHOVIEW
 70
     0
  9
$PUCSORGTOP
 10
0.0
 20
0.0
 30
0.0
  9
$PUCSORGBOTTOM
 10
0.0
 20
0.0
 30
0.0
  9
$PUCSORGLEFT
 10
0.0
 20
0.0
 30
0.0
  9
$PUCSORGRIGHT
 10
0.0
 20
0.0
 30
0.0
  9
$PUCSORGFRONT
 10
0.0
 20
0.0
 30
0.0
  9
$PUCSORGBACK
 10
0.0
 20
0.0
 30
0.0
  9
$USERI1
 70
     0
  9
$USERI2
 70
     0
  9
$USERI3
 70
     0
  9
$USERI4
 70
     0
  9
$USERI5
 70
     0
  9
$USERR1
 40
0.0
  9
$USERR2
 40
0.0
  9
$USERR3
 40
0.0
  9
$USERR4
 40
0.0
  9
$USERR5
 40
0.0
  9
$WORLDVIEW
 70
     1
  9
$SHADEDGE
 70
     3
  9
$SHADEDIF
 70
    70
  9
$TILEMODE
 70
     1
  9
$MAXACTVP
 70
    64
  9
$PINSBASE
 10
0.0
 20
0.0
 30
0.0
  9
$PLIMCHECK
 70
     0
  9
$PEXTMIN
 10
1.000000000000000E+20
 20
1.000000000000000E+20
 30
1.000000000000000E+20
  9
$PEXTMAX
 10
-1.000000000000000E+20
 20
-1.000000000000000E+20
 30
-1.000000000000000E+20
  9
$PLIMMIN
 10
0.0
 20
0.0
  9
$PLIMMAX
 10
420.0
 20
297.0
  9
$UNITMODE
 70
     0
  9
$VISRETAIN
 70
     1
  9
$PLINEGEN
 70
     0
  9
$PSLTSCALE
 70
     1
  9
$TREEDEPTH
 70
  3020
  9
$CMLSTYLE
  2
Standard
  9
$CMLJUST
 70
     0
  9
$CMLSCALE
 40
20.0
  9
$PROXYGRAPHICS
 70
     1
  9
$MEASUREMENT
 70
     1
  9
$CELWEIGHT
370
    -1
  9
$ENDCAPS
280
     0
  9
$JOINSTYLE
280
     0
  9
$LWDISPLAY
290
     0
  9
$INSUNITS
 70
     4
  9
$HYPERLINKBASE
  1

  9
$STYLESHEET
  1
sanindusa.ctb
  9
$XEDIT
290
     1
  9
$CEPSNTYPE
380
     0
  9
$PSTYLEMODE
290
     1
  9
$FINGERPRINTGUID
  2
{64237485-A5C5-4B91-B4CF-A6845604E02D}
  9
$VERSIONGUID
  2
{8C3C0408-DFE1-44E6-8591-0ADD237CA2F4}
  9
$EXTNAMES
290
     1
  9
$PSVPSCALE
 40
0.0
  9
$OLESTARTUP
290
     0
  0
ENDSEC
  0
SECTION
  2
CLASSES
  0
CLASS
  1
ACDBDICTIONARYWDFLT
  2
AcDbDictionaryWithDefault
  3
ObjectDBX Classes
 90
        0
280
     0
281
     0
  0
CLASS
  1
ACDBPLACEHOLDER
  2
AcDbPlaceHolder
  3
ObjectDBX Classes
 90
        0
280
     0
281
     0
  0
CLASS
  1
LAYOUT
  2
AcDbLayout
  3
ObjectDBX Classes
 90
        0
280
     0
281
     0
  0
CLASS
  1
DICTIONARYVAR
  2
AcDbDictionaryVar
  3
ObjectDBX Classes
 90
        0
280
     0
281
     0
  0
CLASS
  1
DIMASSOC
  2
AcDbDimAssoc
  3
"AcDbDimAssoc|Product Desc:     AcDim ARX App For Dimension|Company:          Autodesk, Inc.|WEB Address:      www.autodesk.com"
 90
    32768
280
     0
281
     0
  0
CLASS
  1
TABLESTYLE
  2
AcDbTableStyle
  3
ObjectDBX Classes
 90
     4095
280
     0
281
     0
  0
CLASS
  1
MATERIAL
  2
AcDbMaterial
  3
ObjectDBX Classes
 90
     1153
280
     0
281
     0
  0
CLASS
  1
VISUALSTYLE
  2
AcDbVisualStyle
  3
ObjectDBX Classes
 90
     4095
280
     0
281
     0
  0
CLASS
  1
SCALE
  2
AcDbScale
  3
ObjectDBX Classes
 90
     1153
280
     0
281
     0
  0
CLASS
  1
MLEADERSTYLE
  2
AcDbMLeaderStyle
  3
ACDB_MLEADERSTYLE_CLASS
 90
     4095
280
     0
281
     0
  0
CLASS
  1
SORTENTSTABLE
  2
AcDbSortentsTable
  3
ObjectDBX Classes
 90
    32768
280
     0
281
     0
  0
CLASS
  1
AEC_REFEDIT_STATUS_TRACKER
  2
AecDbRefEditStatusTracker
  3
AecArchBase60|Product Desc: Autodesk Architectural Desktop 2007 |Company: Autodesk,Inc. |WEB Address: www.autodesk.com
 90
    32897
280
     0
281
     0
  0
CLASS
  1
NPOCOLLECTION
  2
AcDbImpNonPersistentObjectsCollection
  3
ObjectDBX Classes
 90
    33921
280
     0
281
     0
  0
CLASS
  1
CELLSTYLEMAP
  2
AcDbCellStyleMap
  3
ObjectDBX Classes
 90
     1152
280
     0
281
     0
  0
CLASS
  1
SOLID_BACKGROUND
  2
AcDbSolidBackground
  3
SCENEOE
 90
    36863
280
     0
281
     0
  0
ENDSEC
  0
SECTION
  2
TABLES
  0
TABLE
  2
VPORT
  5
8
102
{ACAD_XDICTIONARY
360
1B6F
102
}
330
0
100
AcDbSymbolTable
 70
     1
  0
VPORT
  5
1068
330
8
100
AcDbSymbolTableRecord
100
AcDbViewportTableRecord
  2
*Active
 70
     0
 10
0.0
 20
0.0
 11
1.0
 21
1.0
 12
5250.57047164438
 22
3033.903812347689
 13
0.0
 23
0.0
 14
10.0
 24
10.0
 15
10.0
 25
10.0
 16
0.0
 26
0.0
 36
1.0
 17
0.0
 27
0.0
 37
0.0
 40
2.46798090662919
 41
1.645464025026068
 42
50.0
 43
0.0
 44
0.0
 50
0.0
 51
0.0
 71
     0
 72
   100
 73
     1
 74
     2
 75
     0
 76
     0
 77
     0
 78
     0
281
     0
 65
     1
110
0.0
120
0.0
130
0.0
111
1.0
121
0.0
131
0.0
112
0.0
122
1.0
132
0.0
 79
     0
146
0.0
  0
ENDTAB
  0
TABLE
  2
LTYPE
  5
5
330
0
100
AcDbSymbolTable
 70
     6
  0
LTYPE
  5
14
330
5
100
AcDbSymbolTableRecord
100
AcDbLinetypeTableRecord
  2
ByBlock
 70
     0
  3

 72
    65
 73
     0
 40
0.0
  0
LTYPE
  5
15
330
5
100
AcDbSymbolTableRecord
100
AcDbLinetypeTableRecord
  2
ByLayer
 70
     0
  3

 72
    65
 73
     0
 40
0.0
  0
LTYPE
  5
16
330
5
100
AcDbSymbolTableRecord
100
AcDbLinetypeTableRecord
  2
Continuous
 70
     0
  3
Solid line
 72
    65
 73
     0
 40
0.0
  0
LTYPE
  5
2D
330
5
100
AcDbSymbolTableRecord
100
AcDbLinetypeTableRecord
  2
DASHDOT
 70
     0
  3
Dash dot __ . __ . __ . __ . __ . __ . __ . __
 72
    65
 73
     4
 40
25.4
 49
12.7
 74
     0
 49
-6.349999999999999
 74
     0
 49
0.0
 74
     0
 49
-6.349999999999999
 74
     0
  0
LTYPE
  5
2E
330
5
100
AcDbSymbolTableRecord
100
AcDbLinetypeTableRecord
  2
HIDDEN
 70
     0
  3
Hidden __ __ __ __ __ __ __ __ __ __ __ __ __ _
 72
    65
 73
     2
 40
9.524999999999998
 49
6.349999999999999
 74
     0
 49
-3.174999999999999
 74
     0
  0
LTYPE
  5
C75
330
5
100
AcDbSymbolTableRecord
100
AcDbLinetypeTableRecord
  2
AM_ISO02W050
 70
     0
  3
__ __ __ __ __ __ __ __ __ __ __ __ __ __ __
 72
    65
 73
     2
 40
7.5
 49
6.0
 74
     0
 49
-1.5
 74
     0
  0
LTYPE
  5
C76
330
5
100
AcDbSymbolTableRecord
100
AcDbLinetypeTableRecord
  2
AM_ISO08W050
 70
     0
  3
____ . ____ . ____ . ____ . ____ . ____ . ____
 72
    65
 73
     4
 40
18.0
 49
12.0
 74
     0
 49
-1.5
 74
     0
 49
3.0
 74
     0
 49
-1.5
 74
     0
  0
LTYPE
  5
12AA
330
5
100
AcDbSymbolTableRecord
100
AcDbLinetypeTableRecord
  2
SLD-Solid
 70
     0
  3
SolidWorks Line Style
 72
    65
 73
     0
 40
0.0
  0
ENDTAB
  0
TABLE
  2
LAYER
  5
2
102
{ACAD_XDICTIONARY
360
1051
102
}
330
0
100
AcDbSymbolTable
 70
    17
  0
LAYER
  5
10
102
{ACAD_XDICTIONARY
360
1AF7
102
}
330
2
100
AcDbSymbolTableRecord
100
AcDbLayerTableRecord
  2
0
 70
     0
 62
     7
  6
Continuous
370
    -3
390
F
  0
LAYER
  5
2F
102
{ACAD_XDICTIONARY
360
1AF9
102
}
330
2
100
AcDbSymbolTableRecord
100
AcDbLayerTableRecord
  2
1
 70
     0
 62
     1
  6
Continuous
370
    -3
390
F
  0
LAYER
  5
30
102
{ACAD_XDICTIONARY
360
1AFB
102
}
330
2
100
AcDbSymbolTableRecord
100
AcDbLayerTableRecord
  2
2
 70
     0
 62
     2
  6
Continuous
370
    -3
390
F
  0
LAYER
  5
31
102
{ACAD_XDICTIONARY
360
1AFD
102
}
330
2
100
AcDbSymbolTableRecord
100
AcDbLayerTableRecord
  2
3
 70
     0
 62
     3
  6
Continuous
370
    -3
390
F
  0
LAYER
  5
32
102
{ACAD_XDICTIONARY
360
1AFF
102
}
330
2
100
AcDbSymbolTableRecord
100
AcDbLayerTableRecord
  2
4
 70
     0
 62
     4
  6
Continuous
370
    -3
390
F
  0
LAYER
  5
33
102
{ACAD_XDICTIONARY
360
1B01
102
}
330
2
100
AcDbSymbolTableRecord
100
AcDbLayerTableRecord
  2
5
 70
     0
 62
     5
  6
Continuous
370
    -3
390
F
  0
LAYER
  5
34
102
{ACAD_XDICTIONARY
360
1B03
102
}
330
2
100
AcDbSymbolTableRecord
100
AcDbLayerTableRecord
  2
6
 70
     0
 62
     6
  6
Continuous
370
    -3
390
F
  0
LAYER
  5
35
102
{ACAD_XDICTIONARY
360
1B05
102
}
330
2
100
AcDbSymbolTableRecord
100
AcDbLayerTableRecord
  2
7
 70
     0
 62
     7
  6
Continuous
370
    -3
390
F
  0
LAYER
  5
36
102
{ACAD_XDICTIONARY
360
1B07
102
}
330
2
100
AcDbSymbolTableRecord
100
AcDbLayerTableRecord
  2
cen
 70
     0
 62
     7
  6
DASHDOT
370
    -3
390
F
  0
LAYER
  5
37
102
{ACAD_XDICTIONARY
360
1B09
102
}
330
2
100
AcDbSymbolTableRecord
100
AcDbLayerTableRecord
  2
hid
 70
     0
 62
     7
  6
HIDDEN
370
    -3
390
F
  0
LAYER
  5
5D6
102
{ACAD_XDICTIONARY
360
1B0B
102
}
330
2
100
AcDbSymbolTableRecord
100
AcDbLayerTableRecord
  2
hatch
 70
     0
 62
     9
  6
Continuous
370
    -3
390
F
  0
LAYER
  5
8AF
102
{ACAD_XDICTIONARY
360
1B0D
102
}
330
2
100
AcDbSymbolTableRecord
100
AcDbLayerTableRecord
  2
9
 70
     0
 62
     9
  6
Continuous
370
    -3
390
F
  0
LAYER
  5
8F8
102
{ACAD_XDICTIONARY
360
1B0F
102
}
330
2
100
AcDbSymbolTableRecord
100
AcDbLayerTableRecord
  2
leg fin
 70
     0
 62
     9
  6
Continuous
370
    -3
390
F
  0
LAYER
  5
91D
102
{ACAD_XDICTIONARY
360
1B11
102
}
330
2
100
AcDbSymbolTableRecord
100
AcDbLayerTableRecord
  2
cotas
 70
     0
 62
     1
  6
Continuous
370
    -3
390
F
  0
LAYER
  5
92F
330
2
100
AcDbSymbolTableRecord
100
AcDbLayerTableRecord
  2
Defpoints
 70
     0
 62
     7
  6
Continuous
290
     0
370
    -3
390
F
  0
LAYER
  5
C7B
102
{ACAD_XDICTIONARY
360
1B13
102
}
330
2
100
AcDbSymbolTableRecord
100
AcDbLayerTableRecord
  2
SANINDUSA
 70
     0
 62
     3
  6
Continuous
370
    -3
390
F
  0
LAYER
  5
1060
102
{ACAD_XDICTIONARY
360
1B15
102
}
330
2
100
AcDbSymbolTableRecord
100
AcDbLayerTableRecord
  2
hid1
 70
     0
 62
     9
  6
HIDDEN
370
    -3
390
F
1001
AcAecLayerStandard
1000

1000

  0
ENDTAB
  0
TABLE
  2
STYLE
  5
3
330
0
100
AcDbSymbolTable
 70
     4
  0
STYLE
  5
11
330
3
100
AcDbSymbolTableRecord
100
AcDbTextStyleTableRecord
  2
Standard
 70
     0
 40
0.0
 41
1.0
 50
0.0
 71
     0
 42
2.5
  3
Avgardn.ttf
  4

1001
ACAD
1000
AvantGarde Bk BT
1071
       34
  0
STYLE
  5
2C
330
3
100
AcDbSymbolTableRecord
100
AcDbTextStyleTableRecord
  2

 70
     1
 40
0.0
 41
1.0
 50
0.0
 71
     0
 42
2.5
  3
ltypeshp.shx
  4

  0
STYLE
  5
91F
330
3
100
AcDbSymbolTableRecord
100
AcDbTextStyleTableRecord
  2
SANINDUSA
 70
     0
 40
0.0
 41
1.0
 50
0.0
 71
     0
 42
2.5
  3
verdana.TTF
  4

1001
ACAD
1000
Verdana
1071
       34
  0
STYLE
  5
C7C
330
3
100
AcDbSymbolTableRecord
100
AcDbTextStyleTableRecord
  2
futura
 70
     0
 40
0.0
 41
1.0
 50
0.0
 71
     0
 42
2.5
  3
ZURCHN.TTF
  4

1001
ACAD
1000
Zurich BT
1071
       34
  0
ENDTAB
  0
TABLE
  2
VIEW
  5
6
330
0
100
AcDbSymbolTable
 70
     0
  0
ENDTAB
  0
TABLE
  2
UCS
  5
7
330
0
100
AcDbSymbolTable
 70
     0
  0
ENDTAB
  0
TABLE
  2
APPID
  5
9
330
0
100
AcDbSymbolTable
 70
    15
  0
APPID
  5
12
330
9
100
AcDbSymbolTableRecord
100
AcDbRegAppTableRecord
  2
ACAD
 70
     0
  0
APPID
  5
3A
330
9
100
AcDbSymbolTableRecord
100
AcDbRegAppTableRecord
  2
DCO15
 70
     0
  0
APPID
  5
EEE
330
9
100
AcDbSymbolTableRecord
100
AcDbRegAppTableRecord
  2
ACAD_DSTYLE_DIMTEXT_FILL
 70
     0
  0
APPID
  5
EEF
330
9
100
AcDbSymbolTableRecord
100
AcDbRegAppTableRecord
  2
ACAD_DSTYLE_DIMEXT_LENGTH
 70
     0
  0
APPID
  5
EF0
330
9
100
AcDbSymbolTableRecord
100
AcDbRegAppTableRecord
  2
ACAD_DSTYLE_DIMEXT_ENABLED
 70
     0
  0
APPID
  5
EF1
330
9
100
AcDbSymbolTableRecord
100
AcDbRegAppTableRecord
  2
ACAD_DSTYLE_DIM_LINETYPE
 70
     0
  0
APPID
  5
EF2
330
9
100
AcDbSymbolTableRecord
100
AcDbRegAppTableRecord
  2
ACAD_DSTYLE_DIM_EXT1_LINETYPE
 70
     0
  0
APPID
  5
EF3
330
9
100
AcDbSymbolTableRecord
100
AcDbRegAppTableRecord
  2
ACAD_DSTYLE_DIM_EXT2_LINETYPE
 70
     0
  0
APPID
  5
FAF
330
9
100
AcDbSymbolTableRecord
100
AcDbRegAppTableRecord
  2
ACAD_DSTYLE_DIMJOGGED_JOGANGLE_SYMBOL
 70
     0
  0
APPID
  5
1013
330
9
100
AcDbSymbolTableRecord
100
AcDbRegAppTableRecord
  2
ACAD_DSTYLE_DIMARC_LENGTH_SYMBOL
 70
     0
  0
APPID
  5
1061
330
9
100
AcDbSymbolTableRecord
100
AcDbRegAppTableRecord
  2
AcAecLayerStandard
 70
     0
  0
APPID
  5
12AB
330
9
100
AcDbSymbolTableRecord
100
AcDbRegAppTableRecord
  2
ACAD_DSTYLE_DIMJAG
 70
     0
  0
APPID
  5
12AC
330
9
100
AcDbSymbolTableRecord
100
AcDbRegAppTableRecord
  2
ACAD_DSTYLE_DIMTALN
 70
     0
  0
APPID
  5
12AD
330
9
100
AcDbSymbolTableRecord
100
AcDbRegAppTableRecord
  2
ACAD_DSTYLE_DIMRADIAL_EXTENSION
 70
     0
  0
APPID
  5
1BA1
330
9
100
AcDbSymbolTableRecord
100
AcDbRegAppTableRecord
  2
ACAD_MLEADERVER
 70
     0
  0
ENDTAB
  0
TABLE
  2
DIMSTYLE
  5
A
330
0
100
AcDbSymbolTable
 70
     3
100
AcDbDimStyleTable
 71
     1
340
921
  0
DIMSTYLE
105
45
330
A
100
AcDbSymbolTableRecord
100
AcDbDimStyleTableRecord
  2
STANDARD
 70
     0
289
     0
340
11
  0
DIMSTYLE
105
921
330
A
100
AcDbSymbolTableRecord
100
AcDbDimStyleTableRecord
  2
SANINDUSA
 70
     0
 41
2.0
 42
1.0
 43
1.0
 44
1.0
 73
     0
 74
     0
 77
     1
 78
     8
140
2.0
141
0.0
143
0.03937007874016
147
1.0
171
     3
172
     1
176
   256
177
   256
178
   256
179
     1
271
     1
272
     1
274
     3
278
    44
283
     0
284
     8
340
91F
371
    -1
372
    -1
1001
ACAD_DSTYLE_DIMJOGGED_JOGANGLE_SYMBOL
1070
   384
1040
1.570796326794896
  0
DIMSTYLE
105
C7D
330
A
100
AcDbSymbolTableRecord
100
AcDbDimStyleTableRecord
  2
AM_ISO
 70
     0
  4
"
 41
2.5
 42
1.0
 43
10.0
 44
1.0
 47
0.1
 48
0.1
 73
     0
 74
     0
 77
     1
 78
     8
 79
     2
140
3.5
141
0.0
143
0.0393701
146
0.71
147
1.5
172
     1
176
   256
177
   256
178
     2
271
     2
272
     3
274
     4
283
     0
284
     8
340
11
371
    -1
372
    -1
  0
ENDTAB
  0
TABLE
  2
BLOCK_RECORD
  5
1
330
0
100
AcDbSymbolTable
 70
    94
  0
BLOCK_RECORD
  5
1F
330
1
100
AcDbSymbolTableRecord
100
AcDbBlockTableRecord
  2
*Model_Space
340
22
  0
BLOCK_RECORD
  5
1B
330
1
100
AcDbSymbolTableRecord
100
AcDbBlockTableRecord
  2
*Paper_Space
340
1E
  0
BLOCK_RECORD
  5
23
330
1
100
AcDbSymbolTableRecord
100
AcDbBlockTableRecord
  2
*Paper_Space0
340
26
  0
BLOCK_RECORD
  5
919
330
1
100
AcDbSymbolTableRecord
100
AcDbBlockTableRecord
  2
_DotSmall
340
0
  0
BLOCK_RECORD
  5
922
330
1
100
AcDbSymbolTableRecord
100
AcDbBlockTableRecord
  2
base para cotas
340
0
310
2800000020000000200000000100080000000000000400000000000000000000000000000000000000000000000080000080000000808000800000008000800080800000C0C0C000C0DCC000F0CAA6000020400000206000002080000020A0000020C0000020E00000400000004020000040400000406000004080000040A0
310
000040C0000040E00000600000006020000060400000606000006080000060A0000060C0000060E00000800000008020000080400000806000008080000080A0000080C0000080E00000A0000000A0200000A0400000A0600000A0800000A0A00000A0C00000A0E00000C0000000C0200000C0400000C0600000C0800000C0
310
A00000C0C00000C0E00000E0000000E0200000E0400000E0600000E0800000E0A00000E0C00000E0E00040000000400020004000400040006000400080004000A0004000C0004000E00040200000402020004020400040206000402080004020A0004020C0004020E000404000004040200040404000404060004040800040
310
40A0004040C0004040E00040600000406020004060400040606000406080004060A0004060C0004060E00040800000408020004080400040806000408080004080A0004080C0004080E00040A0000040A0200040A0400040A0600040A0800040A0A00040A0C00040A0E00040C0000040C0200040C0400040C0600040C08000
310
40C0A00040C0C00040C0E00040E0000040E0200040E0400040E0600040E0800040E0A00040E0C00040E0E00080000000800020008000400080006000800080008000A0008000C0008000E00080200000802020008020400080206000802080008020A0008020C0008020E00080400000804020008040400080406000804080
310
008040A0008040C0008040E00080600000806020008060400080606000806080008060A0008060C0008060E00080800000808020008080400080806000808080008080A0008080C0008080E00080A0000080A0200080A0400080A0600080A0800080A0A00080A0C00080A0E00080C0000080C0200080C0400080C0600080C0
310
800080C0A00080C0C00080C0E00080E0000080E0200080E0400080E0600080E0800080E0A00080E0C00080E0E000C0000000C0002000C0004000C0006000C0008000C000A000C000C000C000E000C0200000C0202000C0204000C0206000C0208000C020A000C020C000C020E000C0400000C0402000C0404000C0406000C0
310
408000C040A000C040C000C040E000C0600000C0602000C0604000C0606000C0608000C060A000C060C000C060E000C0800000C0802000C0804000C0806000C0808000C080A000C080C000C080E000C0A00000C0A02000C0A04000C0A06000C0A08000C0A0A000C0A0C000C0A0E000C0C00000C0C02000C0C04000C0C06000
310
C0C08000C0C0A000F0FBFF00A4A0A000808080000000FF0000FF000000FFFF00FF000000FF00FF00FFFF0000FFFFFF00A4A4A4A4A4A4A4A4A4A4A4A4A4A4A4A4A4A4A4A4A4A4A4A4A4A4A4A4A4A4A4A4A4A4A4A4A4A4A4A4A4A4A4A4A4A4A4A4A4A4A4A4A4A4A4A4A4A4A4A4A4A4A4A4A4A4A4A4A4A4A4A4A4A4A4A4A4A4A4
310
A4A4A4A4A4A4A4A4A4A4A4A4A4A4A4A4A4A4A4A4A4A4A4A4A4A4A4A4A4A4A4A4A4A4A4A4A4A4A4A4A4A4A4A4A4A4A4A4A4A4A4A4A4A4A4A4A4A4A4A4A4A4A4A4A4A4A4A4A4A4A4A4A4A4A4A4A4A4A4A4A4A4A4A4A4A4A4A4A4A4A4A4A4A4A4A4A4A4A4A4A4A4A4A4A4A4A4A4A4A4A4A4A4A4A4A4A4A4A4A4A4A4A4A4A4A4A4
310
A4A4A4A4A4A4A4A4A4A4A4A4A4A4A4A4A4A4A4A4A4A4A4A4A4A4A4A4A4A4A4A4A4A4A4A4A4A4A4A4A4A4A4A4A4A4A4A4A4A4A4A4A4A4A4A4A4A4A4A4A4A4A4A4A4A4A4A4A4A4A4A4A4A4A4A4A4A4A4A4A4A4A4A4A4A4A4A4A4A4A4A4A4A4A4A4A4A4A4A4A4A4A4A4A4A4A4A4A4A4A4A4A4A4A4A4A4A4A4A4A4A4A4A4A4A4A4
310
A4A4A4A4A4A4A4A4A4A4A4A4A4A4A4A4A4A4A4A4A4A4A4A4A4A4A4A4A4A4A4A4A4A4A4A4A4A4A4A4A4A4A4A4A4A4A4A4A4A4A4A4A4A4A4A4A4A4A4A4A4A4A4A4A4A4A4A4A4A4A4A4A4A4A4A4A4A4A4A4A4A4A4A4A4A4A4A4A4A4A4A4A4A4A4A4A4A4A4A4A4A4A4A4A4A4A4A4A4A4A4A4A4A4A4A4F9F9F9F9F9F9F9F9F9F9F9
310
F9F9F9F9F9F9F9F9F9F9F9F9F9F9F9F9F9F9F9A4A4F9F9F9F9F9F9F9F9F9F9F9F9F9F9F9F9F9F9F9F9F9F9F9F9F9F9F9F9F9F9A4A4F9F9F9F9F9F9F9F9F9F9F9F9F9F9F9F9F9F9F9F9F9F9F9F9F9F9F9F9F9F9A4A4F9A4A4A4A4A4A4A4A4A4A4A4A4A4A4A4A4A4A4A4A4A4A4A4A4A4A4A4A4F9A4A4A4A4A4A4A4A4A4A4A4A4
310
A4A4A4A4A4A4A4A4A4A4A4A4A4A4A4A4A4A4A4A4A4A4A4A4A4A4A4A4A4A4A4A4A4A4A4A4A4A4A4A4A4A4A4A4A4A4A4A4A4A4A4A4A4A4A4A4A4A4A4A4A4A4A4A4A4A4A4A4A4A4A4A4A4A4A4A4A4A4A4A4A4A4A4A4A4A4A4A4A4A4A4A4A4A4A4A4A4A4A4A4A4A4A4A4A4A4A4A4A4A4A4A4A4A4A4A4A4A4A4A4A4A4A4A4A4A4A4
310
A4A4A4A4A4A4A4A4A4A4A4A4A4A4A4A4A4A4A4A4A4A4A4A4A4A4A4A4A4A4A4A4A4A4A4A4A4A4A4A4A4A4A4A4A4A4A4A4A4A4A4A4A4A4A4A4A4A4A4A4A4A4A4A4A4A4A4A4A4A4A4A4A4A4A4A4A4A4A4A4A4A4A4A4A4A4A4A4A4A4A4A4A4A4A4A4A4A4A4A4A4A4A4A4A4A4A4A4A4A4A4A4A4A4A4A4A4A4A4A4A4A4A4A4A4A4A4
310
A4A4A4A4A4A4A4A4A4A4A4A4A4A4A4A4A4A4A4A4A4A4A4A4A4A4A4A4A4A4A4A4A4A4A4A4A4A4A4A4A4A4A4A4A4A4A4A4A4A4A4A4A4A4A4A4A4A4A4A4A4A4A4A4A4A4A4A4A4A4A4A4A4A4A4A4A4A4A4A4A4A4A4A4A4A4A4A4A4A4A4A4A4A4A4A4A4A4A4A4A4A4A4A4A4A4A4A4A4A4A4A4A4A4A4A4A4A4A4A4A4A4A4A4A4A4A4
310
A4A4A4A4A4A4A4A4A4A4A4A4A4A4A4A4A4A4A4A4A4A4A4A4A4A4A4A4A4A4A4A4A4A4A4A4A4A4A4A4A4A4A4A4A4A4A4A4A4A4A4A4A4A4A4A4
1001
ACAD
1000
DesignCenter Data
1002
{
1070
     1
1070
     4
1002
}
  0
BLOCK_RECORD
  5
AA8
330
1
100
AcDbSymbolTableRecord
100
AcDbBlockTableRecord
  2
_CLOSED
340
0
  0
BLOCK_RECORD
  5
B79
330
1
100
AcDbSymbolTableRecord
100
AcDbBlockTableRecord
  2
nota revisoes
340
0
1001
ACAD
1000
DesignCenter Data
1002
{
1070
     1
1070
     4
1002
}
  0
BLOCK_RECORD
  5
B8E
330
1
100
AcDbSymbolTableRecord
100
AcDbBlockTableRecord
  2
a3l
340
0
1001
ACAD
1000
DesignCenter Data
1002
{
1070
     1
1070
     4
1002
}
  0
BLOCK_RECORD
  5
B9E
330
1
100
AcDbSymbolTableRecord
100
AcDbBlockTableRecord
  2
legenda desenvolvimento
340
0
1001
ACAD
1000
DesignCenter Data
1002
{
1070
     1
1070
     4
1002
}
  0
BLOCK_RECORD
  5
10B3
330
1
100
AcDbSymbolTableRecord
100
AcDbBlockTableRecord
  2
SW_CENTERMARKSYMBOL_0
340
0
  0
ENDTAB
  0
ENDSEC
  0
SECTION
  2
BLOCKS
  0
BLOCK
  5
20
330
1F
100
AcDbEntity
  8
0
100
AcDbBlockBegin
  2
*Model_Space
 70
     0
 10
0.0
 20
0.0
 30
0.0
  3
*Model_Space
  1

  0
ENDBLK
  5
21
330
1F
100
AcDbEntity
  8
0
100
AcDbBlockEnd
  0
BLOCK
  5
1C
330
1B
100
AcDbEntity
 67
     1
  8
0
100
AcDbBlockBegin
  2
*Paper_Space
 70
     0
 10
0.0
 20
0.0
 30
0.0
  3
*Paper_Space
  1

  0
ENDBLK
  5
1D
330
1B
100
AcDbEntity
 67
     1
  8
0
100
AcDbBlockEnd
  0
BLOCK
  5
24
330
23
100
AcDbEntity
 67
     1
  8
0
100
AcDbBlockBegin
  2
*Paper_Space0
 70
     0
 10
0.0
 20
0.0
 30
0.0
  3
*Paper_Space0
  1

  0
ENDBLK
  5
25
330
23
100
AcDbEntity
 67
     1
  8
0
100
AcDbBlockEnd
  0
BLOCK
  5
91B
330
919
100
AcDbEntity
  8
0
100
AcDbBlockBegin
  2
_DotSmall
 70
     0
 10
0.0
 20
0.0
 30
0.0
  3
_DotSmall
  1

  0
LWPOLYLINE
  5
91A
330
919
100
AcDbEntity
  8
0
  6
ByBlock
 62
     0
100
AcDbPolyline
 90
        2
 70
     1
 43
0.5
 10
-0.0625
 20
0.0
 42
1.0
 10
0.0625
 20
0.0
 42
1.0
  0
ENDBLK
  5
91C
330
919
100
AcDbEntity
  8
0
100
AcDbBlockEnd
  0
BLOCK
  5
92A
330
922
100
AcDbEntity
  8
0
100
AcDbBlockBegin
  2
base para cotas
 70
     0
 10
0.0
 20
0.0
 30
0.0
  3
base para cotas
  1

  0
LINE
  5
B36
330
922
100
AcDbEntity
  8
cotas
100
AcDbLine
 10
0.0
 20
-30.0
 30
0.0
 11
327.1260136525398
 21
-30.0
 31
0.0
  0
LINE
  5
B37
330
922
100
AcDbEntity
  8
cotas
100
AcDbLine
 10
0.0
 20
-25.0
 30
0.0
 11
327.1260136525398
 21
-25.0
 31
0.0
  0
LINE
  5
B38
330
922
100
AcDbEntity
  8
cotas
100
AcDbLine
 10
0.0
 20
-20.0
 30
0.0
 11
327.1260136525398
 21
-20.0
 31
0.0
  0
LINE
  5
B39
330
922
100
AcDbEntity
  8
cotas
100
AcDbLine
 10
0.0
 20
-15.0
 30
0.0
 11
327.1260136525398
 21
-15.0
 31
0.0
  0
LINE
  5
B3A
330
922
100
AcDbEntity
  8
cotas
100
AcDbLine
 10
0.0
 20
-10.0
 30
0.0
 11
327.1260136525398
 21
-10.0
 31
0.0
  0
LINE
  5
B3B
330
922
100
AcDbEntity
  8
cotas
100
AcDbLine
 10
0.0
 20
0.0
 30
0.0
 11
0.0
 21
-30.0
 31
0.0
  0
LINE
  5
B3C
330
922
100
AcDbEntity
  8
cotas
100
AcDbLine
 10
327.1260136525398
 20
-30.0
 30
0.0
 11
327.1260136525398
 21
0.0
 31
0.0
  0
ENDBLK
  5
92B
330
922
100
AcDbEntity
  8
0
100
AcDbBlockEnd
  0
BLOCK
  5
AAD
330
AA8
100
AcDbEntity
  8
0
100
AcDbBlockBegin
  2
_CLOSED
 70
     0
 10
0.0
 20
0.0
 30
0.0
  3
_CLOSED
  1

  0
LINE
  5
AA9
330
AA8
100
AcDbEntity
  8
0
100
AcDbLine
 10
-1.0
 20
0.166667
 30
0.0
 11
0.0
 21
0.0
 31
0.0
  0
LINE
  5
AAA
330
AA8
100
AcDbEntity
  8
0
100
AcDbLine
 10
0.0
 20
0.0
 30
0.0
 11
-1.0
 21
-0.166667
 31
0.0
  0
LINE
  5
AAB
330
AA8
100
AcDbEntity
  8
0
100
AcDbLine
 10
-1.0
 20
0.166667
 30
0.0
 11
-1.0
 21
-0.166667
 31
0.0
  0
LINE
  5
AAC
330
AA8
100
AcDbEntity
  8
0
100
AcDbLine
 10
0.0
 20
0.0
 30
0.0
 11
-1.0
 21
0.0
 31
0.0
  0
ENDBLK
  5
AAE
330
AA8
100
AcDbEntity
  8
0
100
AcDbBlockEnd
  0
BLOCK
  5
B7C
330
B79
100
AcDbEntity
  8
0
100
AcDbBlockBegin
  2
nota revisoes
 70
     0
 10
0.0
 20
0.0
 30
0.0
  3
nota revisoes
  1

  0
CIRCLE
  5
B7A
330
B79
100
AcDbEntity
  8
4
100
AcDbCircle
 10
0.0
 20
0.0
 30
0.0
 40
13.69426055101189
  0
TEXT
  5
B7B
330
B79
100
AcDbEntity
  8
4
100
AcDbText
 10
-5.496248358154345
 20
-5.354545554066362
 30
0.0
 40
12.0
  1
1
  7
SANINDUSA
 72
     1
 11
-0.249774214433728
 21
-5.354545554066362
 31
0.0
100
AcDbText
  0
ENDBLK
  5
B7D
330
B79
100
AcDbEntity
  8
0
100
AcDbBlockEnd
  0
BLOCK
  5
B9C
330
B8E
100
AcDbEntity
  8
0
100
AcDbBlockBegin
  2
a3l
 70
     0
 10
0.0
 20
0.0
 30
0.0
  3
a3l
  1

  0
LINE
  5
B8F
330
B8E
100
AcDbEntity
  8
1
100
AcDbLine
 10
-364.2925296599447
 20
-362.1188951399395
 30
0.0
 11
-364.2925296599447
 21
-65.11889513993946
 31
0.0
  0
LINE
  5
B90
330
B8E
100
AcDbEntity
  8
4
100
AcDbLine
 10
-369.2925296599447
 20
-357.1188951399395
 30
0.0
 11
-369.2925296599447
 21
-70.11889513993946
 31
0.0
  0
LINE
  5
B91
330
B8E
100
AcDbEntity
  8
1
100
AcDbLine
 10
-784.2925296599446
 20
-65.11889513993946
 30
0.0
 11
-784.2925296599446
 21
-362.1188951399395
 31
0.0
  0
LINE
  5
B92
330
B8E
100
AcDbEntity
  8
4
100
AcDbLine
 10
-759.2925296599446
 20
-357.1188951399395
 30
0.0
 11
-759.2925296599446
 21
-70.11889513993946
 31
0.0
  0
LINE
  5
B93
330
B8E
100
AcDbEntity
  8
1
100
AcDbLine
 10
-784.2925296599446
 20
-362.1188951399395
 30
0.0
 11
-364.2925296599447
 21
-362.1188951399395
 31
0.0
  0
LINE
  5
B94
330
B8E
100
AcDbEntity
  8
4
100
AcDbLine
 10
-759.2925296599446
 20
-357.1188951399395
 30
0.0
 11
-369.2925296599447
 21
-357.1188951399395
 31
0.0
  0
LINE
  5
B95
330
B8E
100
AcDbEntity
  8
1
100
AcDbLine
 10
-654.2925296599446
 20
-357.1188951399395
 30
0.0
 11
-654.2925296599446
 21
-362.1188951399395
 31
0.0
  0
LINE
  5
B96
330
B8E
100
AcDbEntity
  8
1
100
AcDbLine
 10
-364.2925296599447
 20
-65.11889513993946
 30
0.0
 11
-784.2925296599446
 21
-65.11889513993946
 31
0.0
  0
LINE
  5
B97
330
B8E
100
AcDbEntity
  8
4
100
AcDbLine
 10
-369.2925296599447
 20
-70.11889513993946
 30
0.0
 11
-759.2925296599446
 21
-70.11889513993946
 31
0.0
  0
LINE
  5
B98
330
B8E
100
AcDbEntity
  8
1
100
AcDbLine
 10
-654.2925296599446
 20
-65.11889513993946
 30
0.0
 11
-654.2925296599446
 21
-70.11889513993946
 31
0.0
  0
LINE
  5
B99
330
B8E
100
AcDbEntity
  8
1
100
AcDbLine
 10
-549.2925296599446
 20
-70.11889513993946
 30
0.0
 11
-549.2925296599446
 21
-65.11889513993946
 31
0.0
  0
LINE
  5
B9A
330
B8E
100
AcDbEntity
  8
1
100
AcDbLine
 10
-369.2925296599447
 20
-65.11889513993946
 30
0.0
 11
-364.2925296599447
 21
-65.11889513993946
 31
0.0
  0
LINE
  5
B9B
330
B8E
100
AcDbEntity
  8
1
100
AcDbLine
 10
-549.2925296599446
 20
-357.1188951399395
 30
0.0
 11
-549.2925296599446
 21
-362.1188951399395
 31
0.0
  0
ENDBLK
  5
B9D
330
B8E
100
AcDbEntity
  8
0
100
AcDbBlockEnd
  0
BLOCK
  5
C13
330
B9E
100
AcDbEntity
  8
0
100
AcDbBlockBegin
  2
legenda desenvolvimento
 70
     2
 10
0.0
 20
0.0
 30
0.0
  3
legenda desenvolvimento
  1

  0
ATTDEF
  5
B9F
330
B9E
100
AcDbEntity
  8
1
100
AcDbText
 10
-108.606245802552
 20
55.5
 30
0.0
 40
4.0
  1
XXXXXXXXXXXXXX
 41
0.8
  7
SANINDUSA
 72
     4
 11
-87.5
 21
57.5
 31
0.0
100
AcDbAttributeDefinition
  3
Nome do Produto:
  2
PRODUTO
 70
     0
  0
ATTDEF
  5
BA0
330
B9E
100
AcDbEntity
  8
1
100
AcDbText
 10
-97.9997966101695
 20
41.25
 30
0.0
 40
3.0
  1
XXXXXXXXX
 41
0.8
  7
futura
 72
     4
 11
-87.5
 21
42.75
 31
0.0
100
AcDbAttributeDefinition
  3
Nome da Peça:
  2
PECA
 70
     0
  0
ATTDEF
  5
BA1
330
B9E
100
AcDbEntity
  8
1
100
AcDbText
 10
-133.4422431161853
 20
21.11745296763252
 30
0.0
 40
2.5
  1
X
 41
0.8
  7
SANINDUSA
 72
     4
 11
-132.5
 21
22.36745296763252
 31
0.0
100
AcDbAttributeDefinition
  3
Cod. TESTE:
  2
TESTE
 70
     0
  0
ATTDEF
  5
BA2
330
B9E
100
AcDbEntity
  8
1
100
AcDbText
 10
-124.3844862323707
 20
21.11745296763252
 30
0.0
 40
2.5
  1
XX
 41
0.8
  7
SANINDUSA
 72
     4
 11
-122.5
 21
22.36745296763252
 31
0.0
100
AcDbAttributeDefinition
  3
Cod. Ano:
  2
ANO
 70
     0
  0
ATTDEF
  5
BA3
330
B9E
100
AcDbEntity
  8
1
100
AcDbText
 10
-112.526889953052
 20
21.11745296763252
 30
0.0
 40
2.5
  1
XXX
 41
0.8
  7
SANINDUSA
 72
     4
 11
-109.700160604496
 21
22.36745296763252
 31
0.0
100
AcDbAttributeDefinition
  3
Cod. Sequência:
  2
SEQUENCIA
 70
     0
  0
ATTDEF
  5
BA4
330
B9E
100
AcDbEntity
  8
1
100
AcDbText
 10
-99.35382430979316
 20
21.11745296763252
 30
0.0
 40
2.5
  1
XX
 41
0.8
  7
SANINDUSA
 72
     4
 11
-97.46933807742244
 21
22.36745296763252
 31
0.0
100
AcDbAttributeDefinition
  3
Cod. Tipo:
  2
TIPO
 70
     0
  0
ATTDEF
  5
BA5
330
B9E
100
AcDbEntity
  8
1
100
AcDbText
 10
-87.42035911468438
 20
21.11745296763252
 30
0.0
 40
2.5
  1
XXX
 41
0.8
  7
SANINDUSA
 72
     4
 11
-84.59362976612828
 21
22.36745296763252
 31
0.0
100
AcDbAttributeDefinition
  3
Cod. Produto:
  2
PRODUTO
 70
     0
  0
ATTDEF
  5
BA6
330
B9E
100
AcDbEntity
  8
1
100
AcDbText
 10
-74.62051971917853
 20
21.11745296763252
 30
0.0
 40
2.5
  1
XXX
 41
0.8
  7
SANINDUSA
 72
     4
 11
-71.79379037062244
 21
22.36745296763252
 31
0.0
100
AcDbAttributeDefinition
  3
Cod. Peça:
  2
PECA
 70
     0
  0
ATTDEF
  5
BA7
330
B9E
100
AcDbEntity
  8
1
100
AcDbText
 10
-61.10603446650329
 20
21.11745296763252
 30
0.0
 40
2.5
  1
XX
 41
0.8
  7
SANINDUSA
 72
     4
 11
-59.22154823413257
 21
22.36745296763252
 31
0.0
100
AcDbAttributeDefinition
  3
Cod. Revisão:
  2
REV
 70
     0
  0
ATTDEF
  5
BA8
330
B9E
100
AcDbEntity
  8
1
100
AcDbText
 10
-48.43615325006194
 20
21.11745296763252
 30
0.0
 40
2.5
  1
XX
 41
0.8
  7
SANINDUSA
 72
     4
 11
-46.55166701769121
 21
22.36745296763252
 31
0.0
100
AcDbAttributeDefinition
  3
Cod. Alteração:
  2
ALT
 70
     0
  0
ATTDEF
  5
BA9
330
B9E
100
AcDbEntity
  8
1
100
AcDbText
 10
-35.19086635325722
 20
23.98875083948959
 30
0.0
 40
3.0
  1
1/XXX
 41
0.8
  7
SANINDUSA
 72
     4
 11
-30.0
 21
25.25
 31
0.0
100
AcDbAttributeDefinition
  3
Escala geral:
  2
ESCALA
 70
     0
  0
ATTDEF
  5
BAA
330
B9E
100
AcDbEntity
  8
1
100
AcDbText
 10
-15.65345869711215
 20
23.75
 30
0.0
 40
3.0
  1
XXXXX
 41
0.8
  7
SANINDUSA
 72
     4
 11
-10.0
 21
25.25
 31
0.0
100
AcDbAttributeDefinition
  3
Folha:
  2
FOLHA
 70
     0
  0
ATTDEF
  5
BAB
330
B9E
100
AcDbEntity
  8
1
100
AcDbText
 10
-178.5146998822042
 20
56.9531347542807
 30
0.0
 40
2.0
  1
xx
 41
0.8
  7
SANINDUSA
 72
     4
 11
-177.2123493113513
 21
57.70330265219877
 31
0.0
100
AcDbAttributeDefinition
  3
revisão
  2
REV.
 70
     0
  0
ATTDEF
  5
BAC
330
B9E
100
AcDbEntity
  8
1
100
AcDbText
 10
-172.7849640077129
 20
56.9531347542807
 30
0.0
 40
2.0
  1
xx
 41
0.8
  7
SANINDUSA
 72
     4
 11
-171.48261343686
 21
57.70330265219877
 31
0.0
100
AcDbAttributeDefinition
  3
alteração
  2
ALT.
 70
     0
  0
ATTDEF
  5
BAD
330
B9E
100
AcDbEntity
  8
1
100
AcDbText
 10
-168.007199951307
 20
56.70330265219877
 30
0.0
 40
2.0
  1
xx/xx/xxxx
 41
0.8
  7
SANINDUSA
 11
-168.007199951307
 21
57.70330265219877
 31
0.0
100
AcDbAttributeDefinition
  3
data
  2
DATA
 70
     0
 74
     2
  0
ATTDEF
  5
BAE
330
B9E
100
AcDbEntity
  8
1
100
AcDbText
 10
-168.5396372253371
 20
13.15916722632639
 30
0.0
 40
2.0
  1
XX/XX/XXXX
 41
0.8
  7
SANINDUSA
 72
     4
 11
-161.5099528734231
 21
14.0
 31
0.0
100
AcDbAttributeDefinition
  3
Data projecto
  2
DATA_PROJ
 70
     0
  0
ATTDEF
  5
BAF
330
B9E
100
AcDbEntity
  8
1
100
AcDbText
 10
-150.8658110728766
 20
13.24983210208193
 30
0.0
 40
2.0
  1
xxxxxxxx
 41
0.8
  7
SANINDUSA
 72
     4
 11
-145.6564087894649
 21
14.0
 31
0.0
100
AcDbAttributeDefinition
  3
nome de quem projectou
  2
NOME
 70
     0
  0
ATTDEF
  5
BB0
330
B9E
100
AcDbEntity
  8
1
100
AcDbText
 10
-168.5396372253371
 20
9.159167226326394
 30
0.0
 40
2.0
  1
XX/XX/XXXX
 41
0.8
  7
SANINDUSA
 72
     4
 11
-161.5099528734231
 21
10.0
 31
0.0
100
AcDbAttributeDefinition
  3
Data desenhou
  2
DATA_DES
 70
     0
  0
ATTDEF
  5
BB1
330
B9E
100
AcDbEntity
  8
1
100
AcDbText
 10
-151.516986358303
 20
9.249832102081933
 30
0.0
 40
2.0
  1
xxxxxxxxx
 41
0.8
  7
SANINDUSA
 72
     4
 11
-145.6564087894649
 21
10.0
 31
0.0
100
AcDbAttributeDefinition
  3
nome
  2
NOME
 70
     0
  0
ATTDEF
  5
BB2
330
B9E
100
AcDbEntity
  8
1
100
AcDbText
 10
-127.2924214135946
 20
14.1979876583216
 30
0.0
 40
2.0
  1
Vitreous China
 41
0.8
  7
SANINDUSA
 72
     4
 11
-119.231709526422
 21
15.22216495852308
 31
0.0
100
AcDbAttributeDefinition
  3
Nome do Material:
  2
MATERIAL
 70
     0
  0
ATTDEF
  5
BB3
330
B9E
100
AcDbEntity
  8
1
100
AcDbText
 10
-103.1563452122093
 20
14.38019043949261
 30
0.0
 40
2.0
  1
Branco
 41
0.8
  7
SANINDUSA
 72
     4
 11
-99.33418268702462
 21
15.35937109765245
 31
0.0
100
AcDbAttributeDefinition
  3
cor da peça
  2
COR
 70
     0
  0
ATTDEF
  5
BB4
330
B9E
100
AcDbEntity
  8
1
100
AcDbText
 10
-116.7235057085292
 20
5.975822699798522
 30
0.0
 40
2.0
  1
Vidrado
 41
0.8
  7
SANINDUSA
 72
     4
 11
-112.5
 21
7.0
 31
0.0
100
AcDbAttributeDefinition
  3
Tipo de acabamento:
  2
ACABAMENTO
 70
     0
  0
ATTDEF
  5
BB5
330
B9E
100
AcDbEntity
  8
1
100
AcDbText
 10
-79.18527869967246
 20
16.65066409850533
 30
0.0
 40
2.0
  1
XXXXXXX
 41
0.8
  7
SANINDUSA
 72
     4
 11
-73.90871724903445
 21
17.65066409850533
 31
0.0
100
AcDbAttributeDefinition
  3
Normas
  2
NORMAS
 70
     0
  0
ATTDEF
  5
BB6
330
B9E
100
AcDbEntity
  8
1
100
AcDbText
 10
-30.55312290127603
 20
14.0
 30
0.0
 40
2.0
  1
XXXXXXXXXXXXXX
 41
0.8
  7
SANINDUSA
 72
     4
 11
-20.0
 21
15.0
 31
0.0
100
AcDbAttributeDefinition
  3
Substitui o desenho:
  2
SUBSTITUI
 70
     0
  0
ATTDEF
  5
BB7
330
B9E
100
AcDbEntity
  8
1
100
AcDbText
 10
-31.30691739422431
 20
6.0
 30
0.0
 40
2.0
  1
XXXXXXXXXXXXXXX
 41
0.8
  7
SANINDUSA
 72
     4
 11
-20.0
 21
7.0
 31
0.0
100
AcDbAttributeDefinition
  3
Substituido por:
  2
SUBSTITUIDO
 70
     0
  0
ATTDEF
  5
BB8
330
B9E
100
AcDbEntity
  8
1
100
AcDbText
 10
-110.0220608548302
 20
1.478208457928303
 30
0.0
 40
2.0
  1
XXXXXXXXXXXXXXXXXXXXXXXXXXXXXXXXXX
 41
0.8
  7
SANINDUSA
 11
-110.0220608548302
 21
2.478208457928303
 31
0.0
100
AcDbAttributeDefinition
  3
Localização do desenho:
  2
LOC-DWG
 70
     0
 74
     2
  0
LINE
  5
BB9
330
B9E
100
AcDbEntity
  8
3
100
AcDbLine
 10
-135.0
 20
4.0
 30
0.0
 11
0.0000000000004547
 21
4.0
 31
0.0
  0
LINE
  5
BBA
330
B9E
100
AcDbEntity
  8
3
100
AcDbLine
 10
-90.00000000000046
 20
12.0
 30
0.0
 11
-135.0
 21
12.0
 31
0.0
  0
LINE
  5
BBB
330
B9E
100
AcDbEntity
  8
3
100
AcDbLine
 10
-135.0
 20
32.5
 30
0.0
 11
-40.0
 21
32.5
 31
0.0
  0
TEXT
  5
BBC
330
B9E
100
AcDbEntity
  8
1
100
AcDbText
 10
-134.0
 20
1.25
 30
0.0
 40
2.0
  1
Localização do des.:
 41
0.8
  7
SANINDUSA
 11
-134.0
 21
2.25
 31
0.0
100
AcDbText
 73
     2
  0
LINE
  5
BBD
330
B9E
100
AcDbEntity
  8
3
100
AcDbLine
 10
-180.0
 20
65.0
 30
0.0
 11
0.0
 21
65.0
 31
0.0
  0
LINE
  5
BBE
330
B9E
100
AcDbEntity
  8
leg fin
100
AcDbLine
 10
-40.0
 20
25.05956924886846
 30
0.0
 11
-135.0
 21
25.05956924886846
 31
0.0
  0
LINE
  5
BBF
330
B9E
100
AcDbEntity
  8
leg fin
100
AcDbLine
 10
-40.0
 20
28.5
 30
0.0
 11
-135.0
 21
28.5
 31
0.0
  0
LINE
  5
BC0
330
B9E
100
AcDbEntity
  8
3
100
AcDbLine
 10
-135.0
 20
50.0
 30
0.0
 11
-40.0
 21
50.0
 31
0.0
  0
TEXT
  5
BC1
330
B9E
100
AcDbEntity
  8
1
100
AcDbText
 10
-134.0
 20
29.75
 30
0.0
 40
2.0
  1
Desenho nº:
 41
0.8
  7
SANINDUSA
 11
-134.0
 21
30.75
 31
0.0
100
AcDbText
 73
     2
  0
TEXT
  5
BC2
330
B9E
100
AcDbEntity
  8
1
100
AcDbText
 10
-134.0
 20
9.25
 30
0.0
 40
2.0
  1
Acabamento:
 41
0.8
  7
SANINDUSA
 11
-134.0
 21
10.25
 31
0.0
100
AcDbText
 73
     2
  0
LINE
  5
BC3
330
B9E
100
AcDbEntity
  8
3
100
AcDbLine
 10
-180.0
 20
20.0
 30
0.0
 11
0.0
 21
20.0
 31
0.0
  0
LINE
  5
BC4
330
B9E
100
AcDbEntity
  8
1
100
AcDbLine
 10
-174.5810776056337
 20
55.5
 30
0.0
 11
-174.5810776056337
 21
65.0
 31
0.0
  0
LINE
  5
BC5
330
B9E
100
AcDbEntity
  8
1
100
AcDbLine
 10
-168.9210461879161
 20
55.5
 30
0.0
 11
-168.9210461879161
 21
65.0
 31
0.0
  0
LINE
  5
BC6
330
B9E
100
AcDbEntity
  8
1
100
AcDbLine
 10
-154.0988595589306
 20
55.5
 30
0.0
 11
-154.0988595589306
 21
65.0
 31
0.0
  0
LINE
  5
BC7
330
B9E
100
AcDbEntity
  8
3
100
AcDbLine
 10
-180.0
 20
65.0
 30
0.0
 11
-180.0
 21
0.0
 31
0.0
  0
LINE
  5
BC8
330
B9E
100
AcDbEntity
  8
3
100
AcDbLine
 10
-135.0
 20
0.0
 30
0.0
 11
-135.0
 21
65.0
 31
0.0
  0
TEXT
  5
BC9
330
B9E
100
AcDbEntity
  8
1
100
AcDbText
 10
-179.0
 20
9.75
 30
0.0
 40
1.5
  1
Des.
 41
0.8
  7
SANINDUSA
 11
-179.0
 21
10.5
 31
0.0
100
AcDbText
 73
     2
  0
LINE
  5
BCA
330
B9E
100
AcDbEntity
  8
1
100
AcDbLine
 10
-168.9210461879161
 20
20.0
 30
0.0
 11
-168.9210461879161
 21
0.0
 31
0.0
  0
LINE
  5
BCB
330
B9E
100
AcDbEntity
  8
1
100
AcDbLine
 10
-154.0988595589306
 20
20.0
 30
0.0
 11
-154.0988595589306
 21
0.0
 31
0.0
  0
LINE
  5
BCC
330
B9E
100
AcDbEntity
  8
1
100
AcDbLine
 10
-180.0
 20
4.0
 30
0.0
 11
-135.0
 21
4.0
 31
0.0
  0
LINE
  5
BCD
330
B9E
100
AcDbEntity
  8
1
100
AcDbLine
 10
-180.0
 20
8.0
 30
0.0
 11
-135.0
 21
8.0
 31
0.0
  0
TEXT
  5
BCE
330
B9E
100
AcDbEntity
  8
1
100
AcDbText
 10
-179.0
 20
1.73257823687436
 30
0.0
 40
1.5
  1
Aprov.
 41
0.8
  7
SANINDUSA
 11
-179.0
 21
2.48257823687436
 31
0.0
100
AcDbText
 73
     2
  0
TEXT
  5
BCF
330
B9E
100
AcDbEntity
  8
1
100
AcDbText
 10
-179.0
 20
5.75
 30
0.0
 40
1.5
  1
Ver.
 41
0.8
  7
SANINDUSA
 11
-179.0
 21
6.5
 31
0.0
100
AcDbText
 73
     2
  0
LINE
  5
BD0
330
B9E
100
AcDbEntity
  8
1
100
AcDbLine
 10
-180.0
 20
16.0
 30
0.0
 11
-135.0
 21
16.0
 31
0.0
  0
LINE
  5
BD1
330
B9E
100
AcDbEntity
  8
1
100
AcDbLine
 10
-180.0
 20
12.0
 30
0.0
 11
-135.0
 21
12.0
 31
0.0
  0
TEXT
  5
BD2
330
B9E
100
AcDbEntity
  8
1
100
AcDbText
 10
-179.0
 20
13.75
 30
0.0
 40
1.5
  1
Proj.
 41
0.8
  7
SANINDUSA
 11
-179.0
 21
14.5
 31
0.0
100
AcDbText
 73
     2
  0
TEXT
  5
BD3
330
B9E
100
AcDbEntity
  8
1
100
AcDbText
 10
-167.9210461879161
 20
17.75
 30
0.0
 40
1.5
  1
Data
 41
0.8
  7
SANINDUSA
 11
-167.9210461879161
 21
18.5
 31
0.0
100
AcDbText
 73
     2
  0
TEXT
  5
BD4
330
B9E
100
AcDbEntity
  8
1
100
AcDbText
 10
-153.0988595589306
 20
17.75
 30
0.0
 40
1.5
  1
Nome
 41
0.8
  7
SANINDUSA
 11
-153.0988595589306
 21
18.5
 31
0.0
100
AcDbText
 73
     2
  0
LINE
  5
BD5
330
B9E
100
AcDbEntity
  8
leg fin
100
AcDbLine
 10
-130.0
 20
20.0
 30
0.0
 11
-130.0
 21
28.5
 31
0.0
  0
TEXT
  5
BD6
330
B9E
100
AcDbEntity
  8
1
100
AcDbText
 10
-134.0
 20
17.25
 30
0.0
 40
2.0
  1
Material:
 41
0.8
  7
SANINDUSA
 11
-134.0
 21
18.25
 31
0.0
100
AcDbText
 73
     2
  0
TEXT
  5
BD7
330
B9E
100
AcDbEntity
  8
1
100
AcDbText
 10
-129.0
 20
26.43288406845113
 30
0.0
 40
1.5
  1
Ano:
 41
0.8
  7
SANINDUSA
 11
-129.0
 21
27.18288406845113
 31
0.0
100
AcDbText
 73
     2
  0
LINE
  5
BD8
330
B9E
100
AcDbEntity
  8
1
100
AcDbLine
 10
-180.0
 20
55.5
 30
0.0
 11
-135.0
 21
55.5
 31
0.0
  0
TEXT
  5
BD9
330
B9E
100
AcDbEntity
  8
1
100
AcDbText
 10
-179.0
 20
52.67772246885193
 30
0.0
 40
1.5
  1
descrição
 41
0.8
  7
SANINDUSA
 11
-179.0
 21
53.42772246885193
 31
0.0
100
AcDbText
 73
     2
  0
TEXT
  5
BDA
330
B9E
100
AcDbEntity
  8
1
100
AcDbText
 10
-134.0
 20
47.25
 30
0.0
 40
2.0
  1
Peça:
 41
0.8
  7
SANINDUSA
 11
-134.0
 21
48.25
 31
0.0
100
AcDbText
 73
     2
  0
LINE
  5
BDB
330
B9E
100
AcDbEntity
  8
1
100
AcDbLine
 10
-180.0
 20
59.5
 30
0.0
 11
-135.0
 21
59.5
 31
0.0
  0
TEXT
  5
BDC
330
B9E
100
AcDbEntity
  8
1
100
AcDbText
 10
-173.5810776056337
 20
62.75
 30
0.0
 40
1.5
  1
Alt.
 41
0.8
  7
SANINDUSA
 11
-173.5810776056337
 21
63.5
 31
0.0
100
AcDbText
 73
     2
  0
TEXT
  5
BDD
330
B9E
100
AcDbEntity
  8
1
100
AcDbText
 10
-179.0
 20
62.75
 30
0.0
 40
1.5
  1
Rev.
 41
0.8
  7
SANINDUSA
 11
-179.0
 21
63.5
 31
0.0
100
AcDbText
 73
     2
  0
TEXT
  5
BDE
330
B9E
100
AcDbEntity
  8
1
100
AcDbText
 10
-167.9210461879161
 20
62.75
 30
0.0
 40
1.5
  1
Data
 41
0.8
  7
SANINDUSA
 11
-167.9210461879161
 21
63.5
 31
0.0
100
AcDbText
 73
     2
  0
TEXT
  5
BDF
330
B9E
100
AcDbEntity
  8
1
100
AcDbText
 10
-153.0988595589306
 20
62.75
 30
0.0
 40
1.5
  1
Nome
 41
0.8
  7
SANINDUSA
 11
-153.0988595589306
 21
63.5
 31
0.0
100
AcDbText
 73
     2
  0
TEXT
  5
BE0
330
B9E
100
AcDbEntity
  8
1
100
AcDbText
 10
-134.0
 20
62.25
 30
0.0
 40
2.0
  1
Produto:
 41
0.8
  7
SANINDUSA
 11
-134.0
 21
63.25
 31
0.0
100
AcDbText
 73
     2
  0
LINE
  5
BE1
330
B9E
100
AcDbEntity
  8
3
100
AcDbLine
 10
-40.0
 20
4.0
 30
0.0
 11
-40.0
 21
65.0
 31
0.0
  0
LWPOLYLINE
  5
BE2
102
{ACAD_REACTORS
330
BEC
102
}
330
B9E
100
AcDbEntity
  8
9
100
AcDbPolyline
 90
       12
 70
     1
 43
0.0
 10
-3.038714600644652
 20
58.90010174665076
 10
-5.726962862472191
 20
58.90010174665076
 10
-5.726962862472191
 20
58.5001017466509
 10
-3.038748516195028
 20
58.5001017466509
 42
-0.4142135623731731
 10
-2.638748516194482
 20
58.1001017466508
 10
-2.638748516194482
 20
57.42799728675596
 10
-5.21497371544865
 20
57.42799728675596
 42
0.4142135623731289
 10
-6.014973715448377
 20
56.627997286756
 10
-6.014973715448377
 20
55.92380871629643
 42
0.4142135623731132
 10
-5.21497371544865
 20
55.12380871629648
 10
-2.23871460064447
 20
55.12380871629648
 10
-2.23871460064447
 20
58.10010174665103
 42
0.4142135623730717
  0
LWPOLYLINE
  5
BE3
102
{ACAD_REACTORS
330
BEC
102
}
330
B9E
100
AcDbEntity
  8
9
100
AcDbPolyline
 90
       20
 70
     1
 43
0.0
 10
-10.01531287095122
 20
57.82799728675581
 10
-10.01531287095122
 20
58.10010174665103
 42
-0.4142135623730744
 10
-9.615312870951584
 20
58.5001017466509
 10
-6.92703069357276
 20
58.5001017466509
 10
-6.92703069357276
 20
58.90010174665076
 10
-9.615346786501959
 20
58.90010174665076
 42
0.4142135623730883
 10
-10.41534678650168
 20
58.1001017466508
 10
-10.41534678650168
 20
57.82796337120567
 42
0.4142135623730717
 10
-9.615346786501959
 20
57.02796337120571
 10
-7.423079531965413
 20
57.02796337120571
 42
-0.4142135623730847
 10
-7.023079531965322
 20
56.62796337120562
 10
-7.023079531965322
 20
55.90786840766487
 42
-0.4142135623730744
 10
-7.423079531965413
 20
55.507868407665
 10
-10.41534678650168
 20
55.507868407665
 10
-10.41534678650168
 20
55.12380871629648
 10
-7.445787917283723
 20
55.12380871629648
 42
0.4114777732064574
 10
-6.645822882998345
 20
55.9163291493976
 10
-6.639238813324936
 20
56.62051771985716
 42
0.4169546541682913
 10
-7.439203847610315
 20
57.42799728675596
 10
-9.615312870951584
 20
57.42799728675596
 42
-0.4142135623731576
  0
LWPOLYLINE
  5
BE4
102
{ACAD_REACTORS
330
BEC
102
}
330
B9E
100
AcDbEntity
  8
9
100
AcDbPolyline
 90
       12
 70
     1
 43
0.0
 10
-14.41561811090378
 20
58.90010174665076
 10
-14.79964388672215
 20
58.90010174665076
 10
-14.79964388672215
 20
55.92380871629643
 42
0.4142135623731133
 10
-13.99964388672242
 20
55.12380871629648
 10
-11.8233508563676
 20
55.12380871629648
 42
0.4142135623730872
 10
-11.02335085636741
 20
55.92380871629643
 10
-11.02335085636741
 20
58.90010174665076
 10
-11.42338477191788
 20
58.90010174665076
 10
-11.42338477191788
 20
55.91567577726095
 42
-0.4131711701795318
 10
-11.82196067063523
 20
55.51567831234956
 10
-14.0141940096214
 20
55.50787335710947
 42
-0.4152567234624407
 10
-14.41561811090378
 20
55.90787082202087
  0
LWPOLYLINE
  5
BE5
102
{ACAD_REACTORS
330
BEC
102
}
330
B9E
100
AcDbEntity
  8
9
100
AcDbPolyline
 90
        6
 70
     1
 43
0.0
 10
-15.80771578768872
 20
55.507868407665
 10
-18.39994912667453
 20
55.507868407665
 42
-0.4142135623731731
 10
-18.79994912667462
 20
55.90786840766487
 10
-18.79994912667462
 20
58.10010174665103
 42
-0.4142135623730744
 10
-18.39994912667453
 20
58.5001017466509
 10
-15.80771578768872
 20
58.5001017466509
  0
LWPOLYLINE
  5
BE6
102
{ACAD_REACTORS
330
BEC
102
}
330
B9E
100
AcDbEntity
  8
9
100
AcDbPolyline
 90
        8
 70
     1
 43
0.0
 10
-15.4236900118708
 20
59.87619128370352
 10
-15.80771578768872
 20
59.87619128370352
 10
-15.80771578768872
 20
58.90010174665076
 10
-18.39176256411201
 20
58.90010174665076
 42
0.4131164467977967
 10
-19.19175694739761
 20
58.1030995310698
 10
-19.1999120763262
 20
55.92680650071542
 42
0.4153115297271718
 10
-18.39991769304061
 20
55.12380871629648
 10
-15.4236900118708
 20
55.12380871629648
  0
LWPOLYLINE
  5
BE7
102
{ACAD_REACTORS
330
BEC
102
}
330
B9E
100
AcDbEntity
  8
9
100
AcDbPolyline
 90
       10
 70
     1
 43
0.0
 10
-20.59201288790928
 20
58.90010174665076
 10
-23.56830591826338
 20
58.90010174665076
 10
-23.56830591826338
 20
55.12380871629648
 10
-23.18424622689509
 20
55.12380871629648
 10
-23.18424622689509
 20
58.5001017466509
 10
-20.59204680345965
 20
58.5001017466509
 42
-0.4142135623730898
 10
-20.19204680345956
 20
58.1001017466508
 10
-20.19204680345956
 20
55.12380871629648
 10
-19.79201288790909
 20
55.12380871629648
 10
-19.79201288790909
 20
58.10010174665103
 42
0.4142135623731132
  0
LWPOLYLINE
  5
BE8
102
{ACAD_REACTORS
330
BEC
102
}
330
B9E
100
AcDbEntity
  8
9
100
AcDbPolyline
 90
        4
 70
     1
 43
0.0
 10
-24.19231812786165
 20
58.90010174665076
 10
-24.57637781922995
 20
58.90010174665076
 10
-24.57637781922995
 20
55.12380871629648
 10
-24.19231812786165
 20
55.12380871629648
  0
LWPOLYLINE
  5
BE9
102
{ACAD_REACTORS
330
BEC
102
}
330
B9E
100
AcDbEntity
  8
9
100
AcDbPolyline
 90
       10
 70
     1
 43
0.0
 10
-28.57661522808212
 20
58.5001017466509
 10
-25.98444972019706
 20
58.5001017466509
 42
-0.4142135623731731
 10
-25.58444972019652
 20
58.1001017466508
 10
-25.58444972019652
 20
55.12380871629648
 10
-25.2004239443786
 20
55.12380871629648
 10
-25.2004239443786
 20
58.10010174665103
 42
0.4142135623730717
 10
-26.00042394437833
 20
58.90010174665076
 10
-28.97664914363259
 20
58.90010174665076
 10
-28.97664914363259
 20
55.12380871629648
 10
-28.57661522808212
 20
55.12380871629648
  0
LWPOLYLINE
  5
BEA
102
{ACAD_REACTORS
330
BEC
102
}
330
B9E
100
AcDbEntity
  8
9
100
AcDbPolyline
 90
       12
 70
     1
 43
0.0
 10
-29.58465321349832
 20
58.10010174665103
 42
0.4142135623730716
 10
-30.3846532134985
 20
58.90010174665076
 10
-33.07296930642724
 20
58.90010174665076
 10
-33.07296930642724
 20
58.5001017466509
 10
-30.38468712904842
 20
58.5001017466509
 42
-0.4142135623730067
 10
-29.98468712904878
 20
58.1001017466508
 10
-29.98468712904878
 20
57.42799728675618
 10
-32.56098015940324
 20
57.42799728675596
 42
0.4142135623731289
 10
-33.36098015940343
 20
56.627997286756
 10
-33.36098015940343
 20
55.92380871629643
 42
0.4142135623731132
 10
-32.56098015940324
 20
55.12380871629648
 10
-29.58465321349832
 20
55.12380871629648
  0
LWPOLYLINE
  5
BEB
102
{ACAD_REACTORS
330
BEC
102
}
330
B9E
100
AcDbEntity
  8
9
100
AcDbPolyline
 90
       20
 70
     1
 43
0.0
 10
-34.7850262845518
 20
57.42799728675596
 10
-36.96125148380543
 20
57.42799728675596
 42
-0.4142135623730898
 10
-37.36125148380552
 20
57.82799728675604
 10
-37.36125148380552
 20
58.10010174665103
 42
-0.4142135623730744
 10
-36.96125148380543
 20
58.5001017466509
 10
-34.27303713752781
 20
58.50010174665067
 10
-34.27303713752781
 20
58.90010174665076
 10
-36.96128539935535
 20
58.90010174665076
 42
0.4142135623731289
 10
-37.76128539935553
 20
58.1001017466508
 10
-37.76128539935553
 20
57.82796337120567
 42
0.4142135623730716
 10
-36.9612853993558
 20
57.02796337120571
 10
-34.76901814481926
 20
57.02796337120571
 42
-0.414213562373168
 10
-34.36901814481962
 20
56.62796337120562
 10
-34.36901814481962
 20
55.90786840766487
 42
-0.4142135623730744
 10
-34.76901814481926
 20
55.507868407665
 10
-37.76128539935553
 20
55.507868407665
 10
-37.76128539935553
 20
55.12380871629648
 10
-34.7850262845518
 20
55.12380871629648
 42
0.4142135623731289
 10
-33.98502628455162
 20
55.92380871629643
 10
-33.98502628455162
 20
56.627997286756
 42
0.4142135623731132
  0
HATCH
  5
BEC
330
B9E
100
AcDbEntity
  8
9
100
AcDbHatch
 10
0.0
 20
0.0
 30
0.0
210
0.0
220
0.0
230
1.0
  2
SOLID
 70
     1
 71
     1
 91
       13
 92
        7
 72
     1
 73
     1
 93
       20
 10
-34.36901814481962
 20
55.90786840766487
 42
-0.414213562372991
 10
-34.76901814481926
 20
55.507868407665
 42
0.0
 10
-37.76128539935553
 20
55.507868407665
 42
0.0
 10
-37.76128539935553
 20
55.12380871629648
 42
0.0
 10
-34.7850262845518
 20
55.12380871629648
 42
0.4142135623731705
 10
-33.98502628455162
 20
55.92380871629666
 42
0.0
 10
-33.98502628455162
 20
56.627997286756
 42
0.4142135623731547
 10
-34.7850262845518
 20
57.42799728675596
 42
0.0
 10
-36.96125148380543
 20
57.42799728675596
 42
-0.4142135623730898
 10
-37.36125148380552
 20
57.82799728675604
 42
0.0
 10
-37.36125148380552
 20
58.1001017466508
 42
-0.4142135623731575
 10
-36.96125148380543
 20
58.5001017466509
 42
0.0
 10
-34.27303713752781
 20
58.50010174665067
 42
0.0
 10
-34.27303713752781
 20
58.90010174665076
 42
0.0
 10
-36.96128539935535
 20
58.90010174665076
 42
0.4142135623731705
 10
-37.76128539935553
 20
58.10010174665058
 42
0.0
 10
-37.76128539935553
 20
57.82796337120544
 42
0.4142135623730299
 10
-36.9612853993558
 20
57.02796337120571
 42
0.0
 10
-34.76901814481926
 20
57.02796337120571
 42
-0.4142135623730015
 10
-34.36901814481962
 20
56.62796337120608
 42
0.0
 97
        1
330
BEB
 92
        7
 72
     1
 73
     1
 93
       12
 10
-33.36098015940343
 20
55.92380871629666
 42
0.4142135623731547
 10
-32.56098015940324
 20
55.12380871629648
 42
0.0
 10
-29.58465321349877
 20
55.12380871629648
 42
0.0
 10
-29.58465321349832
 20
58.10010174665058
 42
0.4142135623731964
 10
-30.3846532134985
 20
58.90010174665076
 42
0.0
 10
-33.07296930642724
 20
58.90010174665076
 42
0.0
 10
-33.07296930642724
 20
58.50010174665067
 42
0.0
 10
-30.38468712904887
 20
58.5001017466509
 42
-0.4142135623732564
 10
-29.98468712904878
 20
58.10010174665103
 42
0.0
 10
-29.98468712904923
 20
57.42799728675596
 42
0.0
 10
-32.56098015940324
 20
57.42799728675596
 42
0.4142135623731705
 10
-33.36098015940343
 20
56.627997286756
 42
0.0
 97
        1
330
BEA
 92
       22
 72
     1
 73
     1
 93
        6
 10
-32.97692046803468
 20
56.62796337120562
 42
-0.4142135623731576
 10
-32.57692046803459
 20
57.02796337120571
 42
0.0
 10
-29.98468712904878
 20
57.02796337120571
 42
0.0
 10
-29.98468712904878
 20
55.507868407665
 42
0.0
 10
-32.57692046803459
 20
55.507868407665
 42
-0.4142135623731731
 10
-32.97692046803468
 20
55.90786840766487
 42
0.0
 97
        1
330
C11
 92
        7
 72
     1
 73
     1
 93
       10
 10
-28.57661522808212
 20
58.5001017466509
 42
0.0
 10
-25.98444972019661
 20
58.5001017466509
 42
-0.4142135623730067
 10
-25.58444972019652
 20
58.10010174665058
 42
0.0
 10
-25.58444972019606
 20
55.12380871629648
 42
0.0
 10
-25.20042394437906
 20
55.12380871629648
 42
0.0
 10
-25.2004239443786
 20
58.1001017466508
 42
0.4142135623731134
 10
-26.00042394437833
 20
58.90010174665076
 42
0.0
 10
-28.97664914363259
 20
58.90010174665076
 42
0.0
 10
-28.97664914363259
 20
55.12380871629648
 42
0.0
 10
-28.57661522808212
 20
55.12380871629648
 42
0.0
 97
        1
330
BE9
 92
        7
 72
     0
 73
     1
 93
        4
 10
-24.57637781922995
 20
55.12380871629648
 10
-24.19231812786165
 20
55.12380871629648
 10
-24.19231812786165
 20
58.90010174665076
 10
-24.57637781922995
 20
58.90010174665076
 97
        1
330
BE8
 92
        7
 72
     0
 73
     1
 93
        4
 10
-24.19231812786165
 20
59.87619128370352
 10
-24.5763778192304
 20
59.87619128370352
 10
-24.5763778192304
 20
59.28412752246913
 10
-24.1923181278612
 20
59.28412752246913
 97
        1
330
C12
 92
        7
 72
     1
 73
     1
 93
       10
 10
-23.18424622689509
 20
58.5001017466509
 42
0.0
 10
-20.59204680345965
 20
58.5001017466509
 42
-0.4142135623730898
 10
-20.19204680345956
 20
58.1001017466508
 42
0.0
 10
-20.19204680345956
 20
55.12380871629648
 42
0.0
 10
-19.79201288790909
 20
55.12380871629648
 42
0.0
 10
-19.79201288790909
 20
58.1001017466508
 42
0.4142135623731547
 10
-20.59201288790928
 20
58.90010174665076
 42
0.0
 10
-23.56830591826338
 20
58.90010174665076
 42
0.0
 10
-23.56830591826338
 20
55.12380871629648
 42
0.0
 10
-23.18424622689463
 20
55.12380871629648
 42
0.0
 97
        1
330
BE7
 92
        7
 72
     1
 73
     1
 93
        8
 10
-19.1999120763262
 20
55.92680650071542
 42
0.4153115297271299
 10
-18.39991769304061
 20
55.12380871629648
 42
0.0
 10
-15.4236900118708
 20
55.12380871629648
 42
0.0
 10
-15.4236900118708
 20
59.87619128370352
 42
0.0
 10
-15.80771578768872
 20
59.87619128370352
 42
0.0
 10
-15.80771578768872
 20
58.90010174665076
 42
0.0
 10
-18.39176256411201
 20
58.90010174665076
 42
0.4131164467977965
 10
-19.19175694739761
 20
58.1030995310698
 42
0.0
 97
        1
330
BE6
 92
       22
 72
     1
 73
     1
 93
        6
 10
-18.79994912667462
 20
58.1001017466508
 42
-0.4142135623731575
 10
-18.39994912667453
 20
58.5001017466509
 42
0.0
 10
-15.80771578768872
 20
58.50010174665067
 42
0.0
 10
-15.80771578768827
 20
55.507868407665
 42
0.0
 10
-18.39994912667453
 20
55.507868407665
 42
-0.4142135623731731
 10
-18.79994912667462
 20
55.90786840766487
 42
0.0
 97
        1
330
BE5
 92
        7
 72
     1
 73
     1
 93
       12
 10
-14.79964388672215
 20
55.92380871629621
 42
0.4142135623729885
 10
-13.99964388672242
 20
55.12380871629648
 42
0.0
 10
-11.8233508563676
 20
55.12380871629648
 42
0.4142135623731289
 10
-11.02335085636741
 20
55.92380871629666
 42
0.0
 10
-11.02335085636741
 20
58.90010174665076
 42
0.0
 10
-11.42338477191788
 20
58.90010174665076
 42
0.0
 10
-11.42338477191788
 20
55.91567577726095
 42
-0.4131711701795319
 10
-11.82196067063523
 20
55.51567831234956
 42
0.0
 10
-14.01419400962095
 20
55.50787335710947
 42
-0.4152567234626918
 10
-14.41561811090378
 20
55.90787082202087
 42
0.0
 10
-14.41561811090378
 20
58.90010174665076
 42
0.0
 10
-14.7996438867226
 20
58.90010174665076
 42
0.0
 97
        1
330
BE4
 92
        7
 72
     1
 73
     1
 93
       20
 10
-7.423079531965413
 20
57.02796337120571
 42
-0.414213562373168
 10
-7.023079531965322
 20
56.62796337120562
 42
0.0
 10
-7.023079531965322
 20
55.90786840766487
 42
-0.4142135623731575
 10
-7.423079531965413
 20
55.507868407665
 42
0.0
 10
-10.41534678650168
 20
55.507868407665
 42
0.0
 10
-10.41534678650168
 20
55.12380871629648
 42
0.0
 10
-7.445787917283723
 20
55.12380871629648
 42
0.4114777732065809
 10
-6.645822882998345
 20
55.91632914939783
 42
0.0
 10
-6.639238813324936
 20
56.62051771985716
 42
0.4169546541682913
 10
-7.439203847610315
 20
57.42799728675596
 42
0.0
 10
-9.615312870951584
 20
57.42799728675596
 42
-0.4142135623729911
 10
-10.01531287095122
 20
57.82799728675581
 42
0.0
 10
-10.01531287095122
 20
58.10010174665103
 42
-0.414213562372991
 10
-9.615312870951584
 20
58.5001017466509
 42
0.0
 10
-6.92703069357276
 20
58.50010174665067
 42
0.0
 10
-6.927030693572305
 20
58.90010174665076
 42
0.0
 10
-9.615346786501959
 20
58.90010174665076
 42
0.4142135623730467
 10
-10.41534678650168
 20
58.10010174665103
 42
0.0
 10
-10.41534678650168
 20
57.82796337120544
 42
0.4142135623730301
 10
-9.615346786501959
 20
57.02796337120571
 42
0.0
 97
        1
330
BE3
 92
        7
 72
     1
 73
     1
 93
       12
 10
-5.21497371544865
 20
57.42799728675596
 42
0.4142135623730871
 10
-6.014973715448377
 20
56.627997286756
 42
0.0
 10
-6.014973715448377
 20
55.92380871629621
 42
0.4142135623730715
 10
-5.21497371544865
 20
55.12380871629648
 42
0.0
 10
-2.23871460064447
 20
55.12380871629648
 42
0.0
 10
-2.23871460064447
 20
58.10010174665058
 42
0.414213562373155
 10
-3.038714600644652
 20
58.90010174665076
 42
0.0
 10
-5.726962862471737
 20
58.90010174665076
 42
0.0
 10
-5.726962862472191
 20
58.5001017466509
 42
0.0
 10
-3.038748516194573
 20
58.5001017466509
 42
-0.4142135623730067
 10
-2.638748516194482
 20
58.10010174665058
 42
0.0
 10
-2.638748516194482
 20
57.42799728675596
 42
0.0
 97
        1
330
BE2
 92
       22
 72
     1
 73
     1
 93
        6
 10
-2.638748516194937
 20
57.02796337120571
 42
0.0
 10
-2.638748516194482
 20
55.50786840766477
 42
0.0
 10
-5.21497371544865
 20
55.507868407665
 42
-0.4142135623731731
 10
-5.614973715448741
 20
55.90786840766509
 42
0.0
 10
-5.614973715448741
 20
56.62796337120562
 42
-0.4142135623731576
 10
-5.21497371544865
 20
57.02796337120571
 42
0.0
 97
        1
330
C0D
 75
     0
 76
     1
 47
0.0407044778999864
 98
       13
 10
-34.18710075113677
 20
56.16907953933765
 10
-33.12851374392494
 20
56.49471602641233
 10
-33.12851374392494
 20
56.49471602641233
 10
-28.77202873835904
 20
57.51232930166111
 10
-24.41554807250941
 20
57.91937341678636
 10
-24.41554807250941
 20
59.384734621186
 10
-23.31624584658039
 20
58.3264175319116
 10
-19.04119127844888
 20
57.75655517324913
 10
-19.04119127844888
 20
57.75655517324913
 10
-14.64399105416578
 20
57.43091868617466
 10
-8.048195057457178
 20
57.22739662861204
 10
-4.017427461911665
 20
57.18669281458665
 10
-4.017427461911665
 20
57.18669281458665
  0
TEXT
  5
BED
330
B9E
100
AcDbEntity
  8
leg fin
100
AcDbText
 10
3.391127401597259
 20
2.107634911895729
 30
0.0
 40
1.5
  1
Este desenho é propriedade da Sanindusa, S.A., e não pode ser copiado nem divulgado sem nossa autorização.
 50
90.0
 41
0.8
  7
SANINDUSA
100
AcDbText
  0
LINE
  5
BEE
330
B9E
100
AcDbEntity
  8
3
100
AcDbLine
 10
-90.0
 20
4.0
 30
0.0
 11
-90.0
 21
12.0
 31
0.0
  0
TEXT
  5
BEF
330
B9E
100
AcDbEntity
  8
1
100
AcDbText
 10
-39.0
 20
9.25
 30
0.0
 40
2.0
  1
Substituido por:
 41
0.8
  7
SANINDUSA
 11
-39.0
 21
10.25
 31
0.0
100
AcDbText
 73
     2
  0
POINT
  5
BF0
330
B9E
100
AcDbEntity
  8
SANINDUSA
100
AcDbPoint
 10
0.0
 20
0.0
 30
0.0
  0
TEXT
  5
BF1
330
B9E
100
AcDbEntity
  8
1
100
AcDbText
 10
-89.0
 20
16.74927010445663
 30
0.0
 40
2.0
  1
Normas:
 41
0.8
  7
SANINDUSA
 11
-89.0
 21
17.74927010445663
 31
0.0
100
AcDbText
 73
     2
  0
LINE
  5
BF2
330
B9E
100
AcDbEntity
  8
3
100
AcDbLine
 10
-90.0
 20
12.0
 30
0.0
 11
-90.0
 21
20.0
 31
0.0
  0
LINE
  5
BF3
330
B9E
100
AcDbEntity
  8
3
100
AcDbLine
 10
-110.546019464768
 20
12.0
 30
0.0
 11
-110.546019464768
 21
20.0
 31
0.0
  0
TEXT
  5
BF4
330
B9E
100
AcDbEntity
  8
1
100
AcDbText
 10
-109.6177520618648
 20
17.25
 30
0.0
 40
2.0
  1
Cor:
 41
0.8
  7
SANINDUSA
 11
-109.6177520618648
 21
18.25
 31
0.0
100
AcDbText
 73
     2
  0
LINE
  5
BF5
330
B9E
100
AcDbEntity
  8
leg fin
100
AcDbLine
 10
-91.42857142857156
 20
20.0
 30
0.0
 11
-91.42857142857156
 21
28.5
 31
0.0
  0
LINE
  5
BF6
330
B9E
100
AcDbEntity
  8
leg fin
100
AcDbLine
 10
-104.2857142857142
 20
20.0
 30
0.0
 11
-104.2857142857142
 21
28.5
 31
0.0
  0
LINE
  5
BF7
330
B9E
100
AcDbEntity
  8
leg fin
100
AcDbLine
 10
-117.1428571428573
 20
20.0
 30
0.0
 11
-117.1428571428573
 21
28.5
 31
0.0
  0
POINT
  5
BF8
330
B9E
100
AcDbEntity
  8
SANINDUSA
100
AcDbPoint
 10
-117.1428571428573
 20
28.5
 30
0.0
  0
POINT
  5
BF9
330
B9E
100
AcDbEntity
  8
SANINDUSA
100
AcDbPoint
 10
-104.2857142857142
 20
28.5
 30
0.0
  0
POINT
  5
BFA
330
B9E
100
AcDbEntity
  8
SANINDUSA
100
AcDbPoint
 10
-91.42857142857156
 20
28.5
 30
0.0
  0
TEXT
  5
BFB
330
B9E
100
AcDbEntity
  8
1
100
AcDbText
 10
-116.200160604496
 20
26.43288406845113
 30
0.0
 40
1.5
  1
Nº Seq.:
 41
0.8
  7
SANINDUSA
 11
-116.200160604496
 21
27.18288406845113
 31
0.0
100
AcDbText
 73
     2
  0
TEXT
  5
BFC
330
B9E
100
AcDbEntity
  8
1
100
AcDbText
 10
-103.2106584078738
 20
26.43288406845113
 30
0.0
 40
1.5
  1
Tipo:
 41
0.8
  7
SANINDUSA
 11
-103.2106584078738
 21
27.18288406845113
 31
0.0
100
AcDbText
 73
     2
  0
TEXT
  5
BFD
330
B9E
100
AcDbEntity
  8
1
100
AcDbText
 10
-90.22114672289353
 20
26.43288406845113
 30
0.0
 40
1.5
  1
Prod.:
 41
0.8
  7
SANINDUSA
 11
-90.22114672289353
 21
27.18288406845113
 31
0.0
100
AcDbText
 73
     2
  0
TEXT
  5
BFE
330
B9E
100
AcDbEntity
  8
1
100
AcDbText
 10
-64.77320576346574
 20
26.43288406845113
 30
0.0
 40
1.5
  1
Rev.:
 41
0.8
  7
SANINDUSA
 11
-64.77320576346574
 21
27.18288406845113
 31
0.0
100
AcDbText
 73
     2
  0
LINE
  5
BFF
330
B9E
100
AcDbEntity
  8
leg fin
100
AcDbLine
 10
-52.85714285714266
 20
20.0
 30
0.0
 11
-52.85714285714266
 21
28.5
 31
0.0
  0
LINE
  5
C00
330
B9E
100
AcDbEntity
  8
leg fin
100
AcDbLine
 10
-65.71428571428578
 20
20.0
 30
0.0
 11
-65.71428571428578
 21
28.5
 31
0.0
  0
LINE
  5
C01
330
B9E
100
AcDbEntity
  8
leg fin
100
AcDbLine
 10
-78.57142857142844
 20
20.0
 30
0.0
 11
-78.57142857142844
 21
28.5
 31
0.0
  0
POINT
  5
C02
330
B9E
100
AcDbEntity
  8
SANINDUSA
100
AcDbPoint
 10
-78.57142857142844
 20
28.5
 30
0.0
  0
POINT
  5
C03
330
B9E
100
AcDbEntity
  8
SANINDUSA
100
AcDbPoint
 10
-65.71428571428578
 20
28.5
 30
0.0
  0
POINT
  5
C04
330
B9E
100
AcDbEntity
  8
SANINDUSA
100
AcDbPoint
 10
-52.85714285714266
 20
28.5
 30
0.0
  0
TEXT
  5
C05
330
B9E
100
AcDbEntity
  8
1
100
AcDbText
 10
-77.61097961686573
 20
26.43288406845113
 30
0.0
 40
1.5
  1
Peça:
 41
0.8
  7
SANINDUSA
 11
-77.61097961686573
 21
27.18288406845113
 31
0.0
100
AcDbText
 73
     2
  0
TEXT
  5
C06
330
B9E
100
AcDbEntity
  8
1
100
AcDbText
 10
-52.06538060077036
 20
26.43288406845113
 30
0.0
 40
1.5
  1
Alt.:
 41
0.8
  7
SANINDUSA
 11
-52.06538060077036
 21
27.18288406845113
 31
0.0
100
AcDbText
 73
     2
  0
LINE
  5
C07
330
B9E
100
AcDbEntity
  8
3
100
AcDbLine
 10
0.0
 20
12.0
 30
0.0
 11
-40.0
 21
12.0
 31
0.0
  0
LINE
  5
C08
330
B9E
100
AcDbEntity
  8
3
100
AcDbLine
 10
-40.0
 20
32.5
 30
0.0
 11
0.0
 21
32.5
 31
0.0
  0
TEXT
  5
C09
330
B9E
100
AcDbEntity
  8
1
100
AcDbText
 10
-19.0
 20
29.75
 30
0.0
 40
2.0
  1
Folha:
 41
0.8
  7
SANINDUSA
 11
-19.0
 21
30.75
 31
0.0
100
AcDbText
 73
     2
  0
LINE
  5
C0A
330
B9E
100
AcDbEntity
  8
3
100
AcDbLine
 10
-20.0
 20
32.5
 30
0.0
 11
-20.0
 21
20.0
 31
0.0
  0
TEXT
  5
C0B
330
B9E
100
AcDbEntity
  8
1
100
AcDbText
 10
-39.0
 20
29.75
 30
0.0
 40
2.0
  1
Escala:
 41
0.8
  7
SANINDUSA
 11
-39.0
 21
30.75
 31
0.0
100
AcDbText
 73
     2
  0
TEXT
  5
C0C
330
B9E
100
AcDbEntity
  8
1
100
AcDbText
 10
-39.0
 20
17.25
 30
0.0
 40
2.0
  1
Substitui:
 41
0.8
  7
SANINDUSA
 11
-39.0
 21
18.25
 31
0.0
100
AcDbText
 73
     2
  0
LWPOLYLINE
  5
C0D
102
{ACAD_REACTORS
330
BEC
102
}
330
B9E
100
AcDbEntity
  8
9
100
AcDbPolyline
 90
        6
 70
     1
 43
0.0
 10
-2.638748516194482
 20
57.02796337120571
 10
-2.638748516194482
 20
55.50786840766477
 10
-5.21497371544865
 20
55.507868407665
 42
-0.4142135623730898
 10
-5.614973715448741
 20
55.90786840766487
 10
-5.614973715448741
 20
56.62796337120562
 42
-0.4142135623731576
 10
-5.21497371544865
 20
57.02796337120571
  0
LINE
  5
C0E
330
B9E
100
AcDbEntity
  8
3
100
AcDbLine
 10
-40.0
 20
50.0
 30
0.0
 11
0.0
 21
50.0
 31
0.0
  0
ATTDEF
  5
C0F
330
B9E
100
AcDbEntity
  8
1
100
AcDbText
 10
-31.30691739422431
 20
40.25
 30
0.0
 40
2.0
  1
XXXXXXXXXXXXXXX
 41
0.8
  7
SANINDUSA
 72
     4
 11
-20.0
 21
41.25
 31
0.0
100
AcDbAttributeDefinition
  3
Observações:
  2
OBS
 70
     0
  0
TEXT
  5
C10
330
B9E
100
AcDbEntity
  8
1
100
AcDbText
 10
-39.0
 20
47.25
 30
0.0
 40
2.0
  1
Observações:
 41
0.8
  7
SANINDUSA
 11
-39.0
 21
48.25
 31
0.0
100
AcDbText
 73
     2
  0
LWPOLYLINE
  5
C11
102
{ACAD_REACTORS
330
BEC
102
}
330
B9E
100
AcDbEntity
  8
9
100
AcDbPolyline
 90
        6
 70
     1
 43
0.0
 10
-29.98468712904878
 20
57.02796337120571
 10
-29.98468712904878
 20
55.507868407665
 10
-32.57692046803459
 20
55.507868407665
 42
-0.4142135623731731
 10
-32.97692046803468
 20
55.90786840766487
 10
-32.97692046803468
 20
56.62796337120562
 42
-0.4142135623731576
 10
-32.57692046803459
 20
57.02796337120571
  0
LWPOLYLINE
  5
C12
102
{ACAD_REACTORS
330
BEC
102
}
330
B9E
100
AcDbEntity
  8
9
100
AcDbPolyline
 90
        4
 70
     1
 43
0.0
 10
-24.19231812786165
 20
59.87619128370352
 10
-24.57637781922995
 20
59.87619128370352
 10
-24.57637781922995
 20
59.28412752246913
 10
-24.19231812786165
 20
59.28412752246913
  0
ENDBLK
  5
C14
330
B9E
100
AcDbEntity
  8
0
100
AcDbBlockEnd
  0
BLOCK
  5
10B4
330
10B3
100
AcDbEntity
  8
0
100
AcDbBlockBegin
  2
SW_CENTERMARKSYMBOL_0
 70
     0
 10
0.0
 20
0.0
 30
0.0
  3
SW_CENTERMARKSYMBOL_0
  1

  0
LINE
  5
10B5
330
10B3
100
AcDbEntity
  8
0
  6
SLD-Solid
 62
     0
370
     0
100
AcDbLine
 10
0.0
 20
0.0
 30
0.0
 11
0.0
 21
0.2500000000000002
 31
0.0
  0
LINE
  5
10B6
330
10B3
100
AcDbEntity
  8
0
  6
SLD-Solid
 62
     0
370
     0
100
AcDbLine
 10
0.0
 20
0.0
 30
0.0
 11
-0.2500000000000002
 21
0.0
 31
0.0
  0
LINE
  5
10B7
330
10B3
100
AcDbEntity
  8
0
  6
SLD-Solid
 62
     0
370
     0
100
AcDbLine
 10
0.0
 20
0.0
 30
0.0
 11
0.0
 21
-0.2500000000000002
 31
0.0
  0
LINE
  5
10B8
330
10B3
100
AcDbEntity
  8
0
  6
SLD-Solid
 62
     0
370
     0
100
AcDbLine
 10
0.0
 20
0.0
 30
0.0
 11
0.2500000000000002
 21
0.0
 31
0.0
  0
LINE
  5
10B9
330
10B3
100
AcDbEntity
  8
0
  6
SLD-Solid
 62
     0
370
     0
100
AcDbLine
 10
0.0
 20
0.5000000000000005
 30
0.0
 11
0.0
 21
6.279754525841306
 31
0.0
  0
LINE
  5
10BA
330
10B3
100
AcDbEntity
  8
0
  6
SLD-Solid
 62
     0
370
     0
100
AcDbLine
 10
-0.5000000000000005
 20
0.0
 30
0.0
 11
-6.279754525841313
 21
0.0
 31
0.0
  0
LINE
  5
10BB
330
10B3
100
AcDbEntity
  8
0
  6
SLD-Solid
 62
     0
370
     0
100
AcDbLine
 10
0.0
 20
-0.5000000000000005
 30
0.0
 11
0.0
 21
-6.27975452584132
 31
0.0
  0
LINE
  5
10BC
330
10B3
100
AcDbEntity
  8
0
  6
SLD-Solid
 62
     0
370
     0
100
AcDbLine
 10
0.5000000000000005
 20
0.0
 30
0.0
 11
6.279754525841313
 21
0.0
 31
0.0
  0
ENDBLK
  5
10BD
330
10B3
100
AcDbEntity
  8
0
100
AcDbBlockEnd
  0
ENDSEC
  0
SECTION
  2
ENTITIES
  0
LINE
  5
15C7
330
1F
100
AcDbEntity
  8
SANINDUSA
100
AcDbLine
 10
5250.394101716825
 20
3033.908810956067
 30
0.0
 11
5251.38829251761
 21
3033.908810956067
 31
0.0
  0
LINE
  5
15CA
330
1F
100
AcDbEntity
  8
SANINDUSA
100
AcDbLine
 10
5250.389102478784
 20
3033.908810956067
 30
0.0
 11
5250.391077033529
 21
3034.021933122127
 31
0.0
  0
LINE
  5
15CB
330
1F
100
AcDbEntity
  8
SANINDUSA
100
AcDbLine
 10
5250.389102478468
 20
3033.908810956067
 30
0.0
 11
5250.394101716825
 21
3033.908810956067
 31
0.0
  0
LINE
  5
15CD
330
1F
100
AcDbEntity
  8
SANINDUSA
100
AcDbLine
 10
5251.391316931469
 20
3034.021944513277
 30
0.0
 11
5251.393291737982
 21
3033.908810956067
 31
0.0
  0
LINE
  5
15CE
330
1F
100
AcDbEntity
  8
SANINDUSA
100
AcDbLine
 10
5251.38829251761
 20
3033.908810956067
 30
0.0
 11
5251.393291737982
 21
3033.908810956067
 31
0.0
  0
LINE
  5
15CF
330
1F
100
AcDbEntity
  8
SANINDUSA
100
AcDbLine
 10
5250.398075967336
 20
3034.028810955172
 30
0.0
 11
5251.384318233709
 21
3034.028810955172
 31
0.0
  0
ARC
  5
15D2
330
1F
100
AcDbEntity
  8
SANINDUSA
100
AcDbCircle
 10
5250.398075967395
 20
3034.021810955172
 30
0.0
 40
0.0070000000000002
100
AcDbArc
 50
90.0
 51
178.9999999902799
  0
ARC
  5
15D3
330
1F
100
AcDbEntity
  8
SANINDUSA
100
AcDbCircle
 10
5251.384318205711
 20
3034.021810955172
 30
0.0
 40
0.0070000000000002
100
AcDbArc
 50
1.000000009720081
 51
90.0
  0
ELLIPSE
  5
15EC
330
1F
100
AcDbEntity
  8
SANINDUSA
100
AcDbEllipse
 10
5249.20950601773
 20
3033.494069022607
 30
0.0
 11
0.0141714282369858
 21
-0.0141714282369873
 31
0.0
210
0.0
220
0.0
230
1.0
 40
0.9979329808706811
 41
5.498396131367809
 42
7.067974482991497
  0
ELLIPSE
  5
15EF
330
1F
100
AcDbEntity
  8
SANINDUSA
100
AcDbEllipse
 10
5249.20950601773
 20
3034.31355575673
 30
0.0
 11
0.0141714282403588
 21
0.014171428233586
 31
0.0
210
0.0
220
0.0
230
1.0
 40
0.9979329808716867
 41
5.498396131606434
 42
7.067974482752704
  0
LINE
  5
15F1
330
1F
100
AcDbEntity
  8
SANINDUSA
100
AcDbLine
 10
5249.229526745977
 20
3033.494036120007
 30
0.0
 11
5249.229526745977
 21
3034.313588660786
 31
0.0
  0
LINE
  5
15F2
330
1F
100
AcDbEntity
  8
SANINDUSA
100
AcDbLine
 10
5249.209538924398
 20
3034.333576474915
 30
0.0
 11
5248.639986383619
 21
3034.333576482365
 31
0.0
  0
LINE
  5
15F5
330
1F
100
AcDbEntity
  8
SANINDUSA
100
AcDbLine
 10
5248.639986383619
 20
3033.474048298428
 30
0.0
 11
5249.209538924398
 21
3033.474048298428
 31
0.0
  0
ELLIPSE
  5
15F7
330
1F
100
AcDbEntity
  8
SANINDUSA
100
AcDbEllipse
 10
5248.640019290282
 20
3033.494069022607
 30
0.0
 11
0.01417142823702
 21
0.0141714282369532
 31
0.0
210
0.0
220
0.0
230
1.0
 40
0.9979329808706724
 41
2.356803477775642
 42
3.926381829403999
  0
ELLIPSE
  5
15F8
330
1F
100
AcDbEntity
  8
SANINDUSA
100
AcDbEllipse
 10
5248.640019290285
 20
3034.313555757002
 30
0.0
 11
0.0141714282335809
 21
-0.0141714282404198
 31
0.0
210
0.0
220
0.0
230
1.0
 40
0.9979329808697164
 41
2.356803477541557
 42
3.926381829637977
  0
LINE
  5
15FA
330
1F
100
AcDbEntity
  8
SANINDUSA
100
AcDbLine
 10
5248.61999856949
 20
3034.313588660786
 30
0.0
 11
5248.61999856949
 21
3033.494036120007
 31
0.0
  0
ELLIPSE
  5
1611
330
1F
100
AcDbEntity
  8
SANINDUSA
100
AcDbEllipse
 10
5249.296856562201
 20
3033.4067184641
 30
0.0
 11
-0.0035366109458478
 21
0.0035366109458479
 31
-0.0000000000000001
210
-0.0000000000000402
220
0.0
230
0.9999999999999998
 40
0.9996954598818451
 41
2.356346783439928
 42
3.926838523739797
  0
ELLIPSE
  5
1614
330
1F
100
AcDbEntity
  8
SANINDUSA
100
AcDbEllipse
 10
5249.296856562201
 20
3034.400906236825
 30
0.0
 11
-0.0035366109458478
 21
-0.0035366109458477
 31
-0.0000000000000001
210
-0.0000000000000402
220
0.0
230
1.0
 40
0.9996954598819455
 41
2.35634678343995
 42
3.926838523739661
  0
ELLIPSE
  5
1617
330
1F
100
AcDbEntity
  8
SANINDUSA
100
AcDbEllipse
 10
5248.552668764727
 20
3033.406718457888
 30
0.0
 11
0.0035366109458479
 21
0.0035366109458479
 31
0.0000000000000001
210
-0.0000000000000402
220
0.0
230
1.0
 40
0.9996954598818851
 41
2.356346783439837
 42
3.926838523739673
  0
ELLIPSE
  5
161A
330
1F
100
AcDbEntity
  8
SANINDUSA
100
AcDbEllipse
 10
5248.552668807146
 20
3034.400906237491
 30
0.0
 11
0.0035366109458479
 21
-0.0035366109458477
 31
0.0000000000000001
210
-0.0000000000000402
220
0.0
230
1.0
 40
0.9996954598819352
 41
2.35634678343991
 42
3.92683852373964
  0
LINE
  5
161C
330
1F
100
AcDbEntity
  8
SANINDUSA
100
AcDbLine
 10
5249.301857323842
 20
3033.406716940935
 30
0.0
 11
5249.301857323842
 21
3034.40090775999
 31
0.0000000000000002
  0
LINE
  5
161D
330
1F
100
AcDbEntity
  8
SANINDUSA
100
AcDbLine
 10
5248.552667241561
 20
3033.401717696248
 30
0.0
 11
5249.296858145891
 21
3033.401717696248
 31
0.0
  0
LINE
  5
161E
330
1F
100
AcDbEntity
  8
SANINDUSA
100
AcDbLine
 10
5249.296858109699
 20
3034.405906998465
 30
0.0
 11
5248.552667283981
 21
3034.405906998465
 31
0.0
  0
LINE
  5
161F
330
1F
100
AcDbEntity
  8
SANINDUSA
100
AcDbLine
 10
5248.547668045505
 20
3034.400907760655
 30
-0.0000000000000002
 11
5248.547668003085
 21
3033.40671695322
 31
-0.0000000000000002
  0
SPLINE
  5
1631
330
1F
100
AcDbEntity
  8
SANINDUSA
100
AcDbSpline
210
0.0
220
0.0
230
1.0
 70
    11
 71
     3
 72
    95
 73
    91
 74
     0
 42
0.0000000001
 43
0.0000000001
 40
0.0
 40
0.0
 40
0.0
 40
0.0
 40
0.0312499999999974
 40
0.0312499999999974
 40
0.0468749999999962
 40
0.0468749999999962
 40
0.0624999999999949
 40
0.0624999999999949
 40
0.0937499999999968
 40
0.0937499999999968
 40
0.1093749999999958
 40
0.1093749999999958
 40
0.1249999999999947
 40
0.1249999999999947
 40
0.15624999999999
 40
0.15624999999999
 40
0.1718749999999876
 40
0.1718749999999876
 40
0.1874999999999852
 40
0.2031249999999829
 40
0.2031249999999829
 40
0.2187499999999805
 40
0.2187499999999805
 40
0.2499999999999767
 40
0.2499999999999767
 40
0.2656249999999742
 40
0.2656249999999742
 40
0.2812499999999717
 40
0.2812499999999717
 40
0.3124999999999688
 40
0.3124999999999688
 40
0.3281249999999674
 40
0.3281249999999674
 40
0.3437499999999659
 40
0.3437499999999659
 40
0.3749999999999603
 40
0.3749999999999603
 40
0.4062499999999547
 40
0.4062499999999547
 40
0.4218749999999543
 40
0.4218749999999543
 40
0.4374999999999539
 40
0.4374999999999539
 40
0.4687499999999571
 40
0.4687499999999571
 40
0.4999999999999604
 40
0.4999999999999604
 40
0.5312499999999637
 40
0.5312499999999637
 40
0.5468749999999652
 40
0.5468749999999652
 40
0.5624999999999667
 40
0.5781249999999682
 40
0.5781249999999682
 40
0.5937499999999697
 40
0.5937499999999697
 40
0.624999999999972
 40
0.624999999999972
 40
0.6406249999999714
 40
0.6406249999999714
 40
0.6562499999999707
 40
0.6562499999999707
 40
0.6874999999999679
 40
0.6874999999999679
 40
0.7031249999999679
 40
0.7031249999999679
 40
0.718749999999968
 40
0.718749999999968
 40
0.7499999999999691
 40
0.7499999999999691
 40
0.7656249999999706
 40
0.7656249999999706
 40
0.7812499999999717
 40
0.796874999999973
 40
0.796874999999973
 40
0.8124999999999742
 40
0.8124999999999742
 40
0.8437499999999786
 40
0.8437499999999786
 40
0.8749999999999831
 40
0.8749999999999831
 40
0.9062499999999875
 40
0.9062499999999875
 40
0.9218749999999895
 40
0.9218749999999895
 40
0.9374999999999912
 40
0.9374999999999912
 40
0.9687499999999957
 40
0.9687499999999957
 40
1.0
 40
1.0
 40
1.0
 40
1.0
 10
5249.124764640002
 20
3034.218347095988
 30
0.0
 10
5249.124054416665
 20
3034.218347148725
 30
0.0
 10
5249.123356065476
 20
3034.218416882949
 30
0.0
 10
5249.122325618178
 20
3034.218621729253
 30
0.0
 10
5249.121985003495
 20
3034.218706843093
 30
0.0
 10
5249.12130964042
 20
3034.218911501889
 30
0.0
 10
5249.120973976769
 20
3034.219031624104
 30
0.0
 10
5249.119997575412
 20
3034.219436342503
 30
0.0
 10
5249.119380118281
 20
3034.219766546772
 30
0.0
 10
5249.118503697427
 20
3034.220351627737
 30
0.0
 10
5249.118218967865
 20
3034.22056250627
 30
0.0
 10
5249.117671088586
 20
3034.221012102316
 30
0.0
 10
5249.117410364705
 20
3034.221248662292
 30
0.0
 10
5249.116666602208
 20
3034.221992526112
 30
0.0
 10
5249.116221609152
 20
3034.222533690253
 30
0.0
 10
5249.115632212432
 20
3034.223414938514
 30
0.0
 10
5249.115449216485
 20
3034.223720266696
 30
0.0
 10
5249.115117563395
 20
3034.224340836155
 30
0.0
 10
5249.114817946642
 20
3034.224974571019
 30
0.0
 10
5249.114581434735
 20
3034.225634238968
 30
0.0
 10
5249.114376904968
 20
3034.22630705006
 30
0.0
 10
5249.114290296763
 20
3034.226651876141
 30
0.0
 10
5249.114083189841
 20
3034.227692476858
 30
0.0
 10
5249.114014895577
 20
3034.228389883256
 30
0.0
 10
5249.114014327794
 20
3034.229441354942
 30
0.0
 10
5249.114031239687
 20
3034.229792745619
 30
0.0
 10
5249.114100306122
 20
3034.230497381995
 30
0.0
 10
5249.114152426966
 20
3034.230848469375
 30
0.0
 10
5249.114358061358
 20
3034.23188238702
 30
0.0
 10
5249.114560934945
 20
3034.232552410928
 30
0.0
 10
5249.114964471306
 20
3034.233528404252
 30
0.0
 10
5249.115116637995
 20
3034.233850559572
 30
0.0
 10
5249.115449448868
 20
3034.234473350526
 30
0.0
 10
5249.11563008062
 20
3034.234774544915
 30
0.0
 10
5249.116213629909
 20
3034.235648259784
 30
0.0
 10
5249.116657794902
 20
3034.23619120351
 30
0.0
 10
5249.11766068905
 20
3034.23719494219
 30
0.0
 10
5249.118204817425
 20
3034.237640745758
 30
0.0
 10
5249.119077900351
 20
3034.238224748412
 30
0.0
 10
5249.119378724892
 20
3034.238405438733
 30
0.0
 10
5249.120000379847
 20
3034.238738277015
 30
0.0
 10
5249.120322645538
 20
3034.238890862878
 30
0.0
 10
5249.12129973935
 20
3034.239295760896
 30
0.0
 10
5249.121969854662
 20
3034.239499077235
 30
0.0
 10
5249.123347060058
 20
3034.23977412999
 30
0.0
 10
5249.124059510369
 20
3034.239844617405
 30
0.0
 10
5249.125462649343
 20
3034.23984501746
 30
0.0
 10
5249.126159896334
 20
3034.239777208342
 30
0.0
 10
5249.127199151397
 20
3034.239571409092
 30
0.0
 10
5249.127544819668
 20
3034.239484987857
 30
0.0
 10
5249.128218705222
 20
3034.239280816181
 30
0.0
 10
5249.128879050636
 20
3034.239044697412
 30
0.0
 10
5249.129512770842
 20
3034.238745758123
 30
0.0
 10
5249.130133020386
 20
3034.238415035619
 30
0.0
 10
5249.130437764193
 20
3034.238232857841
 30
0.0
 10
5249.131321169606
 20
3034.237643335457
 30
0.0
 10
5249.131862963512
 20
3034.237198509822
 30
0.0
 10
5249.132607065754
 20
3034.236455891603
 30
0.0
 10
5249.132843585525
 20
3034.236195697823
 30
0.0
 10
5249.133292937935
 20
3034.235649277793
 30
0.0
 10
5249.133504844365
 20
3034.235363837392
 30
0.0
 10
5249.134091323757
 20
3034.234487120464
 30
0.0
 10
5249.134421907739
 20
3034.233870021589
 30
0.0
 10
5249.134826989023
 20
3034.232895338577
 30
0.0
 10
5249.134947302991
 20
3034.232560286875
 30
0.0
 10
5249.135152899679
 20
3034.231884160247
 30
0.0
 10
5249.135238370169
 20
3034.231543338782
 30
0.0
 10
5249.135444134663
 20
3034.230512812693
 30
0.0
 10
5249.135514272166
 20
3034.229815124448
 30
0.0
 10
5249.13551536132
 20
3034.228752019422
 30
0.0
 10
5249.135498118998
 20
3034.228398243135
 30
0.0
 10
5249.135429715435
 20
3034.227699190267
 30
0.0
 10
5249.135327403415
 20
3034.227006289321
 30
0.0
 10
5249.135157932953
 20
3034.226325572806
 30
0.0
 10
5249.134954236486
 20
3034.225651065883
 30
0.0
 10
5249.134834488556
 20
3034.225315306176
 30
0.0
 10
5249.134430158431
 20
3034.224337277186
 30
0.0
 10
5249.134100313958
 20
3034.22371952367
 30
0.0
 10
5249.133321944951
 20
3034.22255146751
 30
0.0
 10
5249.132868308152
 20
3034.22199761466
 30
0.0
 10
5249.131876546758
 20
3034.221004438953
 30
0.0
 10
5249.131335846985
 20
3034.220559302514
 30
0.0
 10
5249.130456439144
 20
3034.219970071837
 30
0.0
 10
5249.130150844313
 20
3034.219786519785
 30
0.0
 10
5249.129529716259
 20
3034.219453932391
 30
0.0
 10
5249.129212716596
 20
3034.219303788029
 30
0.0
 10
5249.128242768593
 20
3034.218900904866
 30
0.0
 10
5249.127568785374
 20
3034.218694800953
 30
0.0
 10
5249.126177725777
 20
3034.218416681474
 30
0.0
 10
5249.12547486334
 20
3034.21834704325
 30
0.0
 10
5249.124764640002
 20
3034.218347095988
 30
0.0
  0
SPLINE
  5
1633
330
1F
100
AcDbEntity
  8
SANINDUSA
100
AcDbSpline
210
0.0
220
0.0
230
1.0
 70
    11
 71
     3
 72
    95
 73
    91
 74
     0
 42
0.0000000001
 43
0.0000000001
 40
0.0
 40
0.0
 40
0.0
 40
0.0
 40
0.0312499999999989
 40
0.0312499999999989
 40
0.0468749999999983
 40
0.0468749999999983
 40
0.0624999999999977
 40
0.0624999999999977
 40
0.0937499999999966
 40
0.0937499999999966
 40
0.1093749999999963
 40
0.1093749999999963
 40
0.124999999999996
 40
0.124999999999996
 40
0.1562499999999947
 40
0.1562499999999947
 40
0.1718749999999945
 40
0.1718749999999945
 40
0.1874999999999944
 40
0.2031249999999942
 40
0.2031249999999942
 40
0.218749999999994
 40
0.218749999999994
 40
0.2499999999999937
 40
0.2499999999999937
 40
0.2656249999999942
 40
0.2656249999999942
 40
0.2812499999999947
 40
0.2812499999999947
 40
0.3124999999999965
 40
0.3124999999999965
 40
0.3281249999999969
 40
0.3281249999999969
 40
0.3437499999999973
 40
0.3437499999999973
 40
0.374999999999998
 40
0.374999999999998
 40
0.4062499999999988
 40
0.4062499999999988
 40
0.4218749999999987
 40
0.4218749999999987
 40
0.4374999999999985
 40
0.4374999999999985
 40
0.4687499999999988
 40
0.4687499999999988
 40
0.499999999999999
 40
0.499999999999999
 40
0.5312499999999992
 40
0.5312499999999992
 40
0.5468749999999991
 40
0.5468749999999991
 40
0.5624999999999991
 40
0.5781249999999991
 40
0.5781249999999991
 40
0.5937499999999991
 40
0.5937499999999991
 40
0.6249999999999996
 40
0.6249999999999996
 40
0.640625
 40
0.640625
 40
0.6562500000000002
 40
0.6562500000000002
 40
0.6875
 40
0.6875
 40
0.7031250000000002
 40
0.7031250000000002
 40
0.7187500000000005
 40
0.7187500000000005
 40
0.750000000000001
 40
0.750000000000001
 40
0.7656250000000007
 40
0.7656250000000007
 40
0.7812500000000004
 40
0.796875
 40
0.796875
 40
0.8124999999999996
 40
0.8124999999999996
 40
0.8437499999999992
 40
0.8437499999999992
 40
0.8749999999999989
 40
0.8749999999999989
 40
0.9062499999999987
 40
0.9062499999999987
 40
0.9218749999999989
 40
0.9218749999999989
 40
0.9374999999999992
 40
0.9374999999999992
 40
0.9687499999999996
 40
0.9687499999999996
 40
1.0
 40
1.0
 40
1.0
 40
1.0
 10
5248.724760311691
 20
3034.218348680513
 30
0.0
 10
5248.724050086356
 20
3034.218348616593
 30
0.0
 10
5248.72335172584
 20
3034.218418234611
 30
0.0
 10
5248.722321254817
 20
3034.218622912378
 30
0.0
 10
5248.721980630588
 20
3034.218707970995
 30
0.0
 10
5248.721305245219
 20
3034.218912522197
 30
0.0
 10
5248.720969568833
 20
3034.219032591924
 30
0.0
 10
5248.719993128199
 20
3034.219437160658
 30
0.0
 10
5248.719375642187
 20
3034.219767274629
 30
0.0
 10
5248.718499175651
 20
3034.220352237403
 30
0.0
 10
5248.718214429693
 20
3034.220563079932
 30
0.0
 10
5248.717666521023
 20
3034.221012608063
 30
0.0
 10
5248.717405783161
 20
3034.221249137194
 30
0.0
 10
5248.716661980989
 20
3034.221992917697
 30
0.0
 10
5248.716216964444
 20
3034.222534038477
 30
0.0
 10
5248.715627538269
 20
3034.223415241431
 30
0.0
 10
5248.715444536343
 20
3034.223720553363
 30
0.0
 10
5248.715112873211
 20
3034.224341096003
 30
0.0
 10
5248.714813248601
 20
3034.224974809499
 30
0.0
 10
5248.714576733245
 20
3034.22563446679
 30
0.0
 10
5248.714372202372
 20
3034.226307272654
 30
0.0
 10
5248.714285594568
 20
3034.226652101283
 30
0.0
 10
5248.714078498486
 20
3034.227692681359
 30
0.0
 10
5248.714010212682
 20
3034.228390084082
 30
0.0
 10
5248.714009660512
 20
3034.229441564691
 30
0.0
 10
5248.7140265781
 20
3034.229792960767
 30
0.0
 10
5248.714095657168
 20
3034.230497612883
 30
0.0
 10
5248.714147782134
 20
3034.230848691125
 30
0.0
 10
5248.714353428439
 20
3034.231882609169
 30
0.0
 10
5248.714556308041
 20
3034.232552645218
 30
0.0
 10
5248.714959853376
 20
3034.233528673514
 30
0.0
 10
5248.715112022457
 20
3034.233850841143
 30
0.0
 10
5248.715444825432
 20
3034.234473641948
 30
0.0
 10
5248.715625452639
 20
3034.234774845242
 30
0.0
 10
5248.716208987667
 20
3034.235648597642
 30
0.0
 10
5248.716653142296
 20
3034.236191580708
 30
0.0
 10
5248.717656019305
 20
3034.23719542383
 30
0.0
 10
5248.718200106118
 20
3034.237641262466
 30
0.0
 10
5248.719073157391
 20
3034.238225362063
 30
0.0
 10
5248.719373972381
 20
3034.238406088004
 30
0.0
 10
5248.719995610869
 20
3034.238739003447
 30
0.0
 10
5248.72031786576
 20
3034.238891629013
 30
0.0
 10
5248.721294921768
 20
3034.239296649457
 30
0.0
 10
5248.721965019038
 20
3034.239500058208
 30
0.0
 10
5248.72334220492
 20
3034.239775308823
 30
0.0
 10
5248.724054649811
 20
3034.239845901816
 30
0.0
 10
5248.725457788641
 20
3034.23984651275
 30
0.0
 10
5248.726155043689
 20
3034.23977880986
 30
0.0
 10
5248.727194322907
 20
3034.239573165802
 30
0.0
 10
5248.727540000638
 20
3034.23948679576
 30
0.0
 10
5248.728213906705
 20
3034.239282722763
 30
0.0
 10
5248.728874274895
 20
3034.239046699395
 30
0.0
 10
5248.729508021864
 20
3034.238747848058
 30
0.0
 10
5248.730128299934
 20
3034.238417209175
 30
0.0
 10
5248.730433059456
 20
3034.238235070858
 30
0.0
 10
5248.731316509355
 20
3034.237645660974
 30
0.0
 10
5248.731858332049
 20
3034.237200900202
 30
0.0
 10
5248.732602475016
 20
3034.236458363313
 30
0.0
 10
5248.732839007947
 20
3034.236198193959
 30
0.0
 10
5248.733288385537
 20
3034.235651816937
 30
0.0
 10
5248.733500300974
 20
3034.235366398858
 30
0.0
 10
5248.73408680583
 20
3034.234489739552
 30
0.0
 10
5248.734417402856
 20
3034.233872669326
 30
0.0
 10
5248.734822496896
 20
3034.232898013947
 30
0.0
 10
5248.734942813857
 20
3034.232562968371
 30
0.0
 10
5248.735148409654
 20
3034.231886865577
 30
0.0
 10
5248.735233879067
 20
3034.231546053729
 30
0.0
 10
5248.735439638231
 20
3034.230515549666
 30
0.0
 10
5248.735509769448
 20
3034.229817867075
 30
0.0
 10
5248.735510843649
 20
3034.22875475596
 30
0.0
 10
5248.735493596375
 20
3034.228400995417
 30
0.0
 10
5248.735425183575
 20
3034.227701952352
 30
0.0
 10
5248.735322862643
 20
3034.227009055709
 30
0.0
 10
5248.735153383174
 20
3034.226328332622
 30
0.0
 10
5248.734949677287
 20
3034.225653813594
 30
0.0
 10
5248.734829925783
 20
3034.225318049933
 30
0.0
 10
5248.734425597526
 20
3034.224340024065
 30
0.0
 10
5248.734095756761
 20
3034.223722257225
 30
0.0
 10
5248.73331739522
 20
3034.222554146496
 30
0.0
 10
5248.732863770878
 20
3034.222000263901
 30
0.0
 10
5248.731872049853
 20
3034.221007011499
 30
0.0
 10
5248.731331369075
 20
3034.220561819719
 30
0.0
 10
5248.730451984117
 20
3034.219972484458
 30
0.0
 10
5248.730146402131
 20
3034.219788897675
 30
0.0
 10
5248.729525301659
 20
3034.219456235935
 30
0.0
 10
5248.729208314316
 20
3034.219306050679
 30
0.0
 10
5248.728238398295
 20
3034.218903035558
 30
0.0
 10
5248.727564423036
 20
3034.218696829729
 30
0.0
 10
5248.726173392627
 20
3034.218418496549
 30
0.0
 10
5248.725470537024
 20
3034.218348744435
 30
0.0
 10
5248.724760311691
 20
3034.218348680513
 30
0.0
  0
SPLINE
  5
1635
330
1F
100
AcDbEntity
  8
SANINDUSA
100
AcDbSpline
210
0.0
220
0.0
230
1.0
 70
    11
 71
     3
 72
    95
 73
    91
 74
     0
 42
0.0000000001
 43
0.0000000001
 40
0.0
 40
0.0
 40
0.0
 40
0.0
 40
0.0312500000000058
 40
0.0312500000000058
 40
0.0468750000000087
 40
0.0468750000000087
 40
0.0625000000000116
 40
0.0625000000000116
 40
0.0937500000000174
 40
0.0937500000000174
 40
0.1093750000000193
 40
0.1093750000000193
 40
0.1250000000000212
 40
0.1250000000000212
 40
0.156250000000024
 40
0.156250000000024
 40
0.1718750000000255
 40
0.1718750000000255
 40
0.1875000000000269
 40
0.2031250000000283
 40
0.2031250000000283
 40
0.2187500000000298
 40
0.2187500000000298
 40
0.2500000000000314
 40
0.2500000000000314
 40
0.2656250000000329
 40
0.2656250000000329
 40
0.2812500000000344
 40
0.2812500000000344
 40
0.312500000000036
 40
0.312500000000036
 40
0.3281250000000368
 40
0.3281250000000368
 40
0.3437500000000375
 40
0.3437500000000375
 40
0.3750000000000393
 40
0.3750000000000393
 40
0.4062500000000413
 40
0.4062500000000413
 40
0.4218750000000419
 40
0.4218750000000419
 40
0.4375000000000425
 40
0.4375000000000425
 40
0.4687500000000418
 40
0.4687500000000418
 40
0.5000000000000411
 40
0.5000000000000411
 40
0.5312500000000405
 40
0.5312500000000405
 40
0.5468750000000402
 40
0.5468750000000402
 40
0.56250000000004
 40
0.5781250000000397
 40
0.5781250000000397
 40
0.5937500000000372
 40
0.5937500000000372
 40
0.6250000000000321
 40
0.6250000000000321
 40
0.6406250000000309
 40
0.6406250000000309
 40
0.6562500000000298
 40
0.6562500000000298
 40
0.6875000000000275
 40
0.6875000000000275
 40
0.7031250000000268
 40
0.7031250000000268
 40
0.7187500000000262
 40
0.7187500000000262
 40
0.7500000000000249
 40
0.7500000000000249
 40
0.7656250000000244
 40
0.7656250000000244
 40
0.7812500000000237
 40
0.796875000000023
 40
0.796875000000023
 40
0.8125000000000223
 40
0.8125000000000223
 40
0.8437500000000198
 40
0.8437500000000198
 40
0.8750000000000175
 40
0.8750000000000175
 40
0.906250000000015
 40
0.906250000000015
 40
0.9218750000000115
 40
0.9218750000000115
 40
0.9375000000000101
 40
0.9375000000000101
 40
0.9687500000000051
 40
0.9687500000000051
 40
1.0
 40
1.0
 40
1.0
 40
1.0
 10
5249.044765580577
 20
3034.218352179789
 30
0.0
 10
5249.044055349651
 20
3034.218352266409
 30
0.0
 10
5249.04335699254
 20
3034.218422029506
 30
0.0
 10
5249.042326538561
 20
3034.218626910722
 30
0.0
 10
5249.04198592202
 20
3034.218712034791
 30
0.0
 10
5249.041310555945
 20
3034.218916710941
 30
0.0
 10
5249.040974889839
 20
3034.219036840689
 30
0.0
 10
5249.039998479457
 20
3034.219441578098
 30
0.0
 10
5249.039381016807
 20
3034.219771789341
 30
0.0
 10
5249.038504588185
 20
3034.220356871926
 30
0.0
 10
5249.038219858149
 20
3034.220567747763
 30
0.0
 10
5249.037671967418
 20
3034.221017344291
 30
0.0
 10
5249.037411238093
 20
3034.221253903365
 30
0.0
 10
5249.03666746
 20
3034.221997761117
 30
0.0
 10
5249.036222457536
 20
3034.222538916777
 30
0.0
 10
5249.035633047764
 20
3034.223420145235
 30
0.0
 10
5249.035450044103
 20
3034.22372547136
 30
0.0
 10
5249.035118378081
 20
3034.22434603425
 30
0.0
 10
5249.034818749955
 20
3034.224979760639
 30
0.0
 10
5249.034582229315
 20
3034.225639416237
 30
0.0
 10
5249.034377691917
 20
3034.226312212946
 30
0.0
 10
5249.034291080589
 20
3034.226657029091
 30
0.0
 10
5249.034083961653
 20
3034.227697623145
 30
0.0
 10
5249.034015664292
 20
3034.228395020461
 30
0.0
 10
5249.034015096426
 20
3034.229446471741
 30
0.0
 10
5249.034032009065
 20
3034.229797854477
 30
0.0
 10
5249.034101078153
 20
3034.230502472615
 30
0.0
 10
5249.034153202279
 20
3034.230853559324
 30
0.0
 10
5249.034358848543
 20
3034.231887461468
 30
0.0
 10
5249.034561733472
 20
3034.23255746947
 30
0.0
 10
5249.03496528893
 20
3034.233533431449
 30
0.0
 10
5249.03511746257
 20
3034.233855575751
 30
0.0
 10
5249.035450292116
 20
3034.23447834999
 30
0.0
 10
5249.035630933541
 20
3034.234779534597
 30
0.0
 10
5249.036214512138
 20
3034.235653216433
 30
0.0
 10
5249.036658697065
 20
3034.236196133251
 30
0.0
 10
5249.037661628438
 20
3034.237199810325
 30
0.0
 10
5249.038205783713
 20
3034.237645588484
 30
0.0
 10
5249.039078896782
 20
3034.238229542742
 30
0.0
 10
5249.039379730803
 20
3034.238410216327
 30
0.0
 10
5249.040001403293
 20
3034.238743020261
 30
0.0
 10
5249.040323677981
 20
3034.238895588934
 30
0.0
 10
5249.041300799385
 20
3034.239300436543
 30
0.0
 10
5249.041970930137
 20
3034.239503718872
 30
0.0
 10
5249.043348159746
 20
3034.239778705539
 30
0.0
 10
5249.044060620418
 20
3034.239849161056
 30
0.0
 10
5249.045463777444
 20
3034.239849503593
 30
0.0
 10
5249.046161030743
 20
3034.239781668425
 30
0.0
 10
5249.047200291215
 20
3034.239575836101
 30
0.0
 10
5249.047545962366
 20
3034.239489404472
 30
0.0
 10
5249.048219853278
 20
3034.239285213549
 30
0.0
 10
5249.048880203561
 20
3034.239049078391
 30
0.0
 10
5249.049513927019
 20
3034.238750126795
 30
0.0
 10
5249.050134179184
 20
3034.238419394489
 30
0.0
 10
5249.050438922783
 20
3034.238237213934
 30
0.0
 10
5249.05132233888
 20
3034.237647679091
 30
0.0
 10
5249.051864138903
 20
3034.237202849327
 30
0.0
 10
5249.052608249628
 20
3034.2364602319
 30
0.0
 10
5249.052844772111
 20
3034.236200039556
 30
0.0
 10
5249.053294129866
 20
3034.235653625001
 30
0.0
 10
5249.053506042802
 20
3034.235368183528
 30
0.0
 10
5249.054092537773
 20
3034.234491469109
 30
0.0
 10
5249.054423130736
 20
3034.233874375741
 30
0.0
 10
5249.054828224419
 20
3034.232899707451
 30
0.0
 10
5249.054948542486
 20
3034.232564662076
 30
0.0
 10
5249.05515415017
 20
3034.231888537215
 30
0.0
 10
5249.055239625344
 20
3034.231547717695
 30
0.0
 10
5249.055445401912
 20
3034.230517200655
 30
0.0
 10
5249.055515544847
 20
3034.229819522691
 30
0.0
 10
5249.055516639554
 20
3034.228756440087
 30
0.0
 10
5249.055499398092
 20
3034.22840266086
 30
0.0
 10
5249.055430994957
 20
3034.227703614208
 30
0.0
 10
5249.055328679993
 20
3034.227010722642
 30
0.0
 10
5249.055159204412
 20
3034.226330020994
 30
0.0
 10
5249.054955501692
 20
3034.225655531754
 30
0.0
 10
5249.054835749433
 20
3034.225319780173
 30
0.0
 10
5249.054431399454
 20
3034.224341769182
 30
0.0
 10
5249.054101538915
 20
3034.223724034922
 30
0.0
 10
5249.05332313589
 20
3034.222556029471
 30
0.0
 10
5249.052869478145
 20
3034.222002204465
 30
0.0
 10
5249.05187767045
 20
3034.221009089524
 30
0.0
 10
5249.051336948193
 20
3034.220563989034
 30
0.0
 10
5249.050457510032
 20
3034.219974817865
 30
0.0
 10
5249.050151904213
 20
3034.219791285727
 30
0.0
 10
5249.049530754389
 20
3034.219458738313
 30
0.0
 10
5249.049213744543
 20
3034.219308614433
 30
0.0
 10
5249.048243768356
 20
3034.218905793351
 30
0.0
 10
5249.04756977093
 20
3034.218699732118
 30
0.0
 10
5249.046178684616
 20
3034.218421693441
 30
0.0
 10
5249.045475811502
 20
3034.218352093168
 30
0.0
 10
5249.044765580577
 20
3034.218352179789
 30
0.0
  0
SPLINE
  5
1637
330
1F
100
AcDbEntity
  8
SANINDUSA
100
AcDbSpline
210
0.0
220
0.0
230
1.0
 70
    11
 71
     3
 72
    95
 73
    91
 74
     0
 42
0.0000000001
 43
0.0000000001
 40
0.0
 40
0.0
 40
0.0
 40
0.0
 40
0.0312499999999938
 40
0.0312499999999938
 40
0.0468749999999919
 40
0.0468749999999919
 40
0.06249999999999
 40
0.06249999999999
 40
0.0937499999999889
 40
0.0937499999999889
 40
0.1093749999999884
 40
0.1093749999999884
 40
0.1249999999999878
 40
0.1249999999999878
 40
0.1562499999999859
 40
0.1562499999999859
 40
0.1718749999999855
 40
0.1718749999999855
 40
0.187499999999985
 40
0.2031249999999845
 40
0.2031249999999845
 40
0.2187499999999841
 40
0.2187499999999841
 40
0.2499999999999832
 40
0.2499999999999832
 40
0.2656249999999834
 40
0.2656249999999834
 40
0.2812499999999836
 40
0.2812499999999836
 40
0.3124999999999827
 40
0.3124999999999827
 40
0.3281249999999817
 40
0.3281249999999817
 40
0.3437499999999807
 40
0.3437499999999807
 40
0.3749999999999776
 40
0.3749999999999776
 40
0.4062499999999745
 40
0.4062499999999745
 40
0.4218749999999727
 40
0.4218749999999727
 40
0.4374999999999719
 40
0.4374999999999719
 40
0.4687499999999726
 40
0.4687499999999726
 40
0.4999999999999733
 40
0.4999999999999733
 40
0.5312499999999739
 40
0.5312499999999739
 40
0.5468749999999742
 40
0.5468749999999742
 40
0.5624999999999744
 40
0.5781249999999746
 40
0.5781249999999746
 40
0.5937499999999748
 40
0.5937499999999748
 40
0.6249999999999739
 40
0.6249999999999739
 40
0.6406249999999735
 40
0.6406249999999735
 40
0.656249999999973
 40
0.656249999999973
 40
0.6874999999999732
 40
0.6874999999999732
 40
0.7031249999999738
 40
0.7031249999999738
 40
0.7187499999999745
 40
0.7187499999999745
 40
0.7499999999999769
 40
0.7499999999999769
 40
0.7656249999999787
 40
0.7656249999999787
 40
0.7812499999999805
 40
0.7968749999999823
 40
0.7968749999999823
 40
0.812499999999984
 40
0.812499999999984
 40
0.8437499999999866
 40
0.8437499999999866
 40
0.8749999999999893
 40
0.8749999999999893
 40
0.906249999999992
 40
0.906249999999992
 40
0.9218749999999932
 40
0.9218749999999932
 40
0.9374999999999946
 40
0.9374999999999946
 40
0.9687499999999973
 40
0.9687499999999973
 40
1.0
 40
1.0
 40
1.0
 40
1.0
 10
5248.804760009294
 20
3034.218353833915
 30
0.0
 10
5248.804049776089
 20
3034.218353755813
 30
0.0
 10
5248.803351406571
 20
3034.218423355611
 30
0.0
 10
5248.802320920542
 20
3034.218628001166
 30
0.0
 10
5248.801980291061
 20
3034.218713048223
 30
0.0
 10
5248.801304894683
 20
3034.218917574765
 30
0.0
 10
5248.800969211512
 20
3034.21903763167
 30
0.0
 10
5248.799992748932
 20
3034.219442161736
 30
0.0
 10
5248.799375247858
 20
3034.21977224861
 30
0.0
 10
5248.798498758406
 20
3034.220357169542
 30
0.0
 10
5248.798214006085
 20
3034.220567996712
 30
0.0
 10
5248.797666077606
 20
3034.221017500086
 30
0.0
 10
5248.797405330307
 20
3034.221254016995
 30
0.0
 10
5248.796661501145
 20
3034.221997761296
 30
0.0
 10
5248.796216468362
 20
3034.222538858556
 30
0.0
 10
5248.795627020427
 20
3034.223420027199
 30
0.0
 10
5248.795444009871
 20
3034.223725330849
 30
0.0
 10
5248.795112331989
 20
3034.224345856963
 30
0.0
 10
5248.794812694494
 20
3034.224979554304
 30
0.0
 10
5248.794576169588
 20
3034.225639196043
 30
0.0
 10
5248.7943716307
 20
3034.226311986593
 30
0.0
 10
5248.794285019683
 20
3034.226656807138
 30
0.0
 10
5248.794077914925
 20
3034.227697371893
 30
0.0
 10
5248.794009627397
 20
3034.228394764338
 30
0.0
 10
5248.794009076942
 20
3034.229446229287
 30
0.0
 10
5248.794025995831
 20
3034.2297976201
 30
0.0
 10
5248.794095078758
 20
3034.230502261578
 30
0.0
 10
5248.794147206462
 20
3034.230853335768
 30
0.0
 10
5248.794352862454
 20
3034.231887240221
 30
0.0
 10
5248.794555750603
 20
3034.232557266984
 30
0.0
 10
5248.794959310573
 20
3034.233533281275
 30
0.0
 10
5248.795111484839
 20
3034.233855444102
 30
0.0
 10
5248.795444298076
 20
3034.234478234985
 30
0.0
 10
5248.795624930553
 20
3034.234779433518
 30
0.0
 10
5248.796208481625
 20
3034.235653172308
 30
0.0
 10
5248.796652647267
 20
3034.236196147189
 30
0.0
 10
5248.797655546121
 20
3034.237199976266
 30
0.0
 10
5248.798199640526
 20
3034.237645806954
 30
0.0
 10
5248.799072705184
 20
3034.238229900368
 30
0.0
 10
5248.799373524587
 20
3034.23841062482
 30
0.0
 10
5248.799995171792
 20
3034.238743538467
 30
0.0
 10
5248.80031743051
 20
3034.238896163486
 30
0.0
 10
5248.801294496924
 20
3034.239301184201
 30
0.0
 10
5248.801964601317
 20
3034.239504596189
 30
0.0
 10
5248.803341801885
 20
3034.239779859028
 30
0.0
 10
5248.804054254158
 20
3034.239850461169
 30
0.0
 10
5248.805457409201
 20
3034.239851095643
 30
0.0
 10
5248.806154672997
 20
3034.239783407097
 30
0.0
 10
5248.807193966308
 20
3034.239577788426
 30
0.0
 10
5248.807539649844
 20
3034.239491427311
 30
0.0
 10
5248.808213567814
 20
3034.239287372319
 30
0.0
 10
5248.808873948483
 20
3034.239051368505
 30
0.0
 10
5248.809507708234
 20
3034.238752537849
 30
0.0
 10
5248.810127999317
 20
3034.238421920429
 30
0.0
 10
5248.810432764781
 20
3034.238239793814
 30
0.0
 10
5248.811316239979
 20
3034.237650414737
 30
0.0
 10
5248.81185807893
 20
3034.237205674838
 30
0.0
 10
5248.812602245503
 20
3034.236463169976
 30
0.0
 10
5248.81283878617
 20
3034.236203011416
 30
0.0
 10
5248.813288178968
 20
3034.235656656254
 30
0.0
 10
5248.813500103906
 20
3034.235371246478
 30
0.0
 10
5248.814086633839
 20
3034.234494613523
 30
0.0
 10
5248.814417245425
 20
3034.233877560752
 30
0.0
 10
5248.814822358356
 20
3034.232902931623
 30
0.0
 10
5248.814942681216
 20
3034.232567894904
 30
0.0
 10
5248.815148288777
 20
3034.231891804674
 30
0.0
 10
5248.815233763171
 20
3034.231550999171
 30
0.0
 10
5248.81543953487
 20
3034.230520514368
 30
0.0
 10
5248.815509671247
 20
3034.229822844916
 30
0.0
 10
5248.815510748849
 20
3034.228759754061
 30
0.0
 10
5248.815493501821
 20
3034.228405997399
 30
0.0
 10
5248.815425088618
 20
3034.227706964861
 30
0.0
 10
5248.815322764158
 20
3034.227014079462
 30
0.0
 10
5248.815153279122
 20
3034.226333368267
 30
0.0
 10
5248.814949566421
 20
3034.22565886148
 30
0.0
 10
5248.814829810803
 20
3034.225323103955
 30
0.0
 10
5248.814425468451
 20
3034.224345095999
 30
0.0
 10
5248.814095616427
 20
3034.223727341675
 30
0.0
 10
5248.813317230301
 20
3034.222559256027
 30
0.0
 10
5248.812863593106
 20
3034.22200538691
 30
0.0
 10
5248.811871847573
 20
3034.221012159025
 30
0.0
 10
5248.811331154491
 20
3034.220566977947
 30
0.0
 10
5248.810451751757
 20
3034.219977655372
 30
0.0
 10
5248.810146164895
 20
3034.219794072846
 30
0.0
 10
5248.809525055444
 20
3034.219461417875
 30
0.0
 10
5248.809208063653
 20
3034.219311235036
 30
0.0
 10
5248.808238134434
 20
3034.21890822423
 30
0.0
 10
5248.807564149377
 20
3034.218702017172
 30
0.0
 10
5248.806173105403
 20
3034.21842367388
 30
0.0
 10
5248.805470242499
 20
3034.218353912017
 30
0.0
 10
5248.804760009294
 20
3034.218353833915
 30
0.0
  0
SPLINE
  5
1639
330
1F
100
AcDbEntity
  8
SANINDUSA
100
AcDbSpline
210
0.0
220
0.0
230
1.0
 70
    11
 71
     3
 72
    95
 73
    91
 74
     0
 42
0.0000000001
 43
0.0000000001
 40
0.0
 40
0.0
 40
0.0
 40
0.0
 40
0.0312500000000025
 40
0.0312500000000025
 40
0.0468750000000037
 40
0.0468750000000037
 40
0.0625000000000049
 40
0.0625000000000049
 40
0.0937500000000046
 40
0.0937500000000046
 40
0.1093750000000055
 40
0.1093750000000055
 40
0.1250000000000064
 40
0.1250000000000064
 40
0.1562500000000073
 40
0.1562500000000073
 40
0.1718750000000077
 40
0.1718750000000077
 40
0.1875000000000082
 40
0.2031250000000086
 40
0.2031250000000086
 40
0.2187500000000091
 40
0.2187500000000091
 40
0.2500000000000088
 40
0.2500000000000088
 40
0.2656250000000092
 40
0.2656250000000092
 40
0.2812500000000097
 40
0.2812500000000097
 40
0.3125000000000093
 40
0.3125000000000093
 40
0.3281250000000092
 40
0.3281250000000092
 40
0.3437500000000091
 40
0.3437500000000091
 40
0.3750000000000073
 40
0.3750000000000073
 40
0.4062500000000056
 40
0.4062500000000056
 40
0.4218750000000055
 40
0.4218750000000055
 40
0.4375000000000053
 40
0.4375000000000053
 40
0.4687500000000046
 40
0.4687500000000046
 40
0.5000000000000037
 40
0.5000000000000037
 40
0.5312500000000029
 40
0.5312500000000029
 40
0.5468750000000025
 40
0.5468750000000025
 40
0.562500000000002
 40
0.5781250000000016
 40
0.5781250000000016
 40
0.5937500000000011
 40
0.5937500000000011
 40
0.624999999999999
 40
0.624999999999999
 40
0.6406249999999992
 40
0.6406249999999992
 40
0.6562499999999995
 40
0.6562499999999995
 40
0.6874999999999996
 40
0.6874999999999996
 40
0.7031249999999986
 40
0.7031249999999986
 40
0.7187499999999976
 40
0.7187499999999976
 40
0.7499999999999949
 40
0.7499999999999949
 40
0.7656249999999942
 40
0.7656249999999942
 40
0.7812499999999934
 40
0.7968749999999926
 40
0.7968749999999926
 40
0.8124999999999918
 40
0.8124999999999918
 40
0.8437499999999923
 40
0.8437499999999923
 40
0.8749999999999928
 40
0.8749999999999928
 40
0.9062499999999936
 40
0.9062499999999936
 40
0.9218749999999939
 40
0.9218749999999939
 40
0.9374999999999943
 40
0.9374999999999943
 40
0.9687499999999971
 40
0.9687499999999971
 40
1.0
 40
1.0
 40
1.0
 40
1.0
 10
5248.96476429135
 20
3034.218357180002
 30
0.0
 10
5248.964054050452
 20
3034.218357230101
 30
0.0
 10
5248.963355680611
 20
3034.218426952288
 30
0.0
 10
5248.962325203921
 20
3034.218631767902
 30
0.0
 10
5248.961984579201
 20
3034.218716869387
 30
0.0
 10
5248.961309195586
 20
3034.218921499247
 30
0.0
 10
5248.960973518975
 20
3034.219041605578
 30
0.0
 10
5248.95999707519
 20
3034.219446274018
 30
0.0
 10
5248.959379589353
 20
3034.219776439668
 30
0.0
 10
5248.95850312534
 20
3034.220361455982
 30
0.0
 10
5248.958218384718
 20
3034.22057230885
 30
0.0
 10
5248.957670465767
 20
3034.221021866836
 30
0.0
 10
5248.957409723048
 20
3034.22125840741
 30
0.0
 10
5248.956665906874
 20
3034.222002211965
 30
0.0
 10
5248.956220881792
 20
3034.222543335205
 30
0.0
 10
5248.955631442524
 20
3034.223424520012
 30
0.0
 10
5248.955448428375
 20
3034.223729834782
 30
0.0
 10
5248.955116744532
 20
3034.224350376019
 30
0.0
 10
5248.954817101477
 20
3034.2249840823
 30
0.0
 10
5248.954580570597
 20
3034.225643720433
 30
0.0
 10
5248.954376025252
 20
3034.22631650098
 30
0.0
 10
5248.954289411084
 20
3034.226661309614
 30
0.0
 10
5248.954082286858
 20
3034.227701884768
 30
0.0
 10
5248.954013990863
 20
3034.228399271276
 30
0.0
 10
5248.954013430584
 20
3034.229450708756
 30
0.0
 10
5248.95403034669
 20
3034.229802087298
 30
0.0
 10
5248.954099424413
 20
3034.230506697842
 30
0.0
 10
5248.954151553295
 20
3034.230857778435
 30
0.0
 10
5248.954357215365
 20
3034.231891666377
 30
0.0
 10
5248.954560112738
 20
3034.232561666922
 30
0.0
 10
5248.954963688834
 20
3034.233537620806
 30
0.0
 10
5248.955115869569
 20
3034.233859762335
 30
0.0
 10
5248.955448710392
 20
3034.234482527332
 30
0.0
 10
5248.955629357458
 20
3034.234783708325
 30
0.0
 10
5248.95621295303
 20
3034.235657382189
 30
0.0
 10
5248.956657149343
 20
3034.236200297487
 30
0.0
 10
5248.957660103814
 20
3034.237203979055
 30
0.0
 10
5248.958204259682
 20
3034.23764975449
 30
0.0
 10
5248.959077382227
 20
3034.238233720202
 30
0.0
 10
5248.959378219533
 20
3034.238414398888
 30
0.0
 10
5248.95999989895
 20
3034.238747215477
 30
0.0
 10
5248.960322175928
 20
3034.23889979104
 30
0.0
 10
5248.96129930172
 20
3034.239304662009
 30
0.0
 10
5248.961969436979
 20
3034.239507965419
 30
0.0
 10
5248.963346679351
 20
3034.239783002963
 30
0.0
 10
5248.964059147263
 20
3034.239853488463
 30
0.0
 10
5248.965462322429
 20
3034.239853896395
 30
0.0
 10
5248.966159587117
 20
3034.239786096764
 30
0.0
 10
5248.967198868154
 20
3034.239580320815
 30
0.0
 10
5248.967544547697
 20
3034.239493908307
 30
0.0
 10
5248.968218456189
 20
3034.239289755386
 30
0.0
 10
5248.968878824737
 20
3034.239053658312
 30
0.0
 10
5248.96951256771
 20
3034.23875474475
 30
0.0
 10
5248.970132839966
 20
3034.238424050347
 30
0.0
 10
5248.97043759325
 20
3034.23824188928
 30
0.0
 10
5248.971321046188
 20
3034.237652406723
 30
0.0
 10
5248.971862869783
 20
3034.237207610005
 30
0.0
 10
5248.972607014323
 20
3034.236465039524
 30
0.0
 10
5248.972843547816
 20
3034.236204862387
 30
0.0
 10
5248.97329292701
 20
3034.235658477304
 30
0.0
 10
5248.973504851986
 20
3034.235373047827
 30
0.0
 10
5248.974091378912
 20
3034.234496369157
 30
0.0
 10
5248.974421989879
 20
3034.233879297576
 30
0.0
 10
5248.974827105795
 20
3034.232904659069
 30
0.0
 10
5248.974947430546
 20
3034.232569623128
 30
0.0
 10
5248.975153050096
 20
3034.231893514095
 30
0.0
 10
5248.975238530076
 20
3034.231552702151
 30
0.0
 10
5248.975444317956
 20
3034.230522206882
 30
0.0
 10
5248.975514464333
 20
3034.229824542171
 30
0.0
 10
5248.975515558261
 20
3034.228761477525
 30
0.0
 10
5248.975498315578
 20
3034.22840770506
 30
0.0
 10
5248.975429908341
 20
3034.22770867069
 30
0.0
 10
5248.975327587599
 20
3034.227015790938
 30
0.0
 10
5248.975158103163
 20
3034.226335100098
 30
0.0
 10
5248.974954390135
 20
3034.225660621107
 30
0.0
 10
5248.974834632186
 20
3034.225324875235
 30
0.0
 10
5248.974430265935
 20
3034.224346884442
 30
0.0
 10
5248.974100393048
 20
3034.223729161473
 30
0.0
 10
5248.973321963031
 20
3034.222561173678
 30
0.0
 10
5248.972868293003
 20
3034.222007358511
 30
0.0
 10
5248.971876465342
 20
3034.221014257792
 30
0.0
 10
5248.971335732768
 20
3034.220569159515
 30
0.0
 10
5248.970456278635
 20
3034.219979983992
 30
0.0
 10
5248.970150669736
 20
3034.219796450561
 30
0.0
 10
5248.969529515004
 20
3034.219463897749
 30
0.0
 10
5248.969212502436
 20
3034.219313769387
 30
0.0
 10
5248.968242517179
 20
3034.21891092986
 30
0.0
 10
5248.967568509767
 20
3034.218704849128
 30
0.0
 10
5248.966177412865
 20
3034.218426761297
 30
0.0
 10
5248.965474532248
 20
3034.218357129903
 30
0.0
 10
5248.96476429135
 20
3034.218357180002
 30
0.0
  0
SPLINE
  5
163B
330
1F
100
AcDbEntity
  8
SANINDUSA
100
AcDbSpline
210
0.0
220
0.0
230
1.0
 70
    11
 71
     3
 72
    95
 73
    91
 74
     0
 42
0.0000000001
 43
0.0000000001
 40
0.0
 40
0.0
 40
0.0
 40
0.0
 40
0.031249999999999
 40
0.031249999999999
 40
0.0468749999999987
 40
0.0468749999999987
 40
0.0624999999999983
 40
0.0624999999999983
 40
0.0937499999999971
 40
0.0937499999999971
 40
0.1093749999999972
 40
0.1093749999999972
 40
0.1249999999999972
 40
0.1249999999999972
 40
0.1562499999999948
 40
0.1562499999999948
 40
0.171874999999994
 40
0.171874999999994
 40
0.1874999999999934
 40
0.2031249999999926
 40
0.2031249999999926
 40
0.2187499999999919
 40
0.2187499999999919
 40
0.2499999999999897
 40
0.2499999999999897
 40
0.2656249999999887
 40
0.2656249999999887
 40
0.2812499999999876
 40
0.2812499999999876
 40
0.3124999999999867
 40
0.3124999999999867
 40
0.3281249999999867
 40
0.3281249999999867
 40
0.3437499999999867
 40
0.3437499999999867
 40
0.374999999999988
 40
0.374999999999988
 40
0.4062499999999895
 40
0.4062499999999895
 40
0.4218749999999912
 40
0.4218749999999912
 40
0.4374999999999928
 40
0.4374999999999928
 40
0.4687499999999936
 40
0.4687499999999936
 40
0.4999999999999943
 40
0.4999999999999943
 40
0.5312499999999949
 40
0.5312499999999949
 40
0.5468749999999952
 40
0.5468749999999952
 40
0.5624999999999955
 40
0.5781249999999958
 40
0.5781249999999958
 40
0.5937499999999961
 40
0.5937499999999961
 40
0.6249999999999961
 40
0.6249999999999961
 40
0.6406249999999957
 40
0.6406249999999957
 40
0.6562499999999952
 40
0.6562499999999952
 40
0.6874999999999944
 40
0.6874999999999944
 40
0.7031249999999951
 40
0.7031249999999951
 40
0.7187499999999956
 40
0.7187499999999956
 40
0.7499999999999968
 40
0.7499999999999968
 40
0.7656249999999975
 40
0.7656249999999975
 40
0.7812499999999982
 40
0.7968749999999987
 40
0.7968749999999987
 40
0.8124999999999992
 40
0.8124999999999992
 40
0.8437499999999992
 40
0.8437499999999992
 40
0.8749999999999994
 40
0.8749999999999994
 40
0.9062499999999996
 40
0.9062499999999996
 40
0.9218749999999996
 40
0.9218749999999996
 40
0.9374999999999998
 40
0.9374999999999998
 40
0.9687499999999998
 40
0.9687499999999998
 40
1.0
 40
1.0
 40
1.0
 40
1.0
 10
5248.884761652377
 20
3034.218357863472
 30
0.0
 10
5248.88405141026
 20
3034.21835783243
 30
0.0
 10
5248.883353034372
 20
3034.21842747429
 30
0.0
 10
5248.882322542218
 20
3034.218632174103
 30
0.0
 10
5248.88198191127
 20
3034.218717237766
 30
0.0
 10
5248.881306513089
 20
3034.218921794187
 30
0.0
 10
5248.880970828319
 20
3034.219041864772
 30
0.0
 10
5248.87999435965
 20
3034.219446431484
 30
0.0
 10
5248.879376855522
 20
3034.219776536171
 30
0.0
 10
5248.878500362564
 20
3034.22036147329
 30
0.0
 10
5248.878215611287
 20
3034.220572302352
 30
0.0
 10
5248.877667674548
 20
3034.221021814627
 30
0.0
 10
5248.877406923357
 20
3034.221258334516
 30
0.0
 10
5248.876663083087
 20
3034.222002083425
 30
0.0
 10
5248.876218043674
 20
3034.222543178035
 30
0.0
 10
5248.875628586286
 20
3034.223424333495
 30
0.0
 10
5248.875445568939
 20
3034.2237296372
 30
0.0
 10
5248.875113879518
 20
3034.22435016035
 30
0.0
 10
5248.874814231993
 20
3034.22498385236
 30
0.0
 10
5248.874577698925
 20
3034.225643483713
 30
0.0
 10
5248.874373152637
 20
3034.226316261276
 30
0.0
 10
5248.874286538457
 20
3034.226661072083
 30
0.0
 10
5248.874079420486
 20
3034.227701633165
 30
0.0
 10
5248.874011128638
 20
3034.228399017576
 30
0.0
 10
5248.874010575633
 20
3034.229450462317
 30
0.0
 10
5248.874027494338
 20
3034.229801845024
 30
0.0
 10
5248.874096577839
 20
3034.230506467464
 30
0.0
 10
5248.874148707977
 20
3034.230857542434
 30
0.0
 10
5248.874354373278
 20
3034.231891432795
 30
0.0
 10
5248.874557271168
 20
3034.23256144342
 30
0.0
 10
5248.874960847881
 20
3034.23353742429
 30
0.0
 10
5248.875113028399
 20
3034.2338595754
 30
0.0
 10
5248.875445860441
 20
3034.234482349888
 30
0.0
 10
5248.875626502749
 20
3034.234783538334
 30
0.0
 10
5248.876210083772
 20
3034.235657241886
 30
0.0
 10
5248.876654270008
 20
3034.236200186678
 30
0.0
 10
5248.877657207438
 20
3034.237203944539
 30
0.0
 10
5248.878201333726
 20
3034.237649747027
 30
0.0
 10
5248.879074432451
 20
3034.238233781991
 30
0.0
 10
5248.879375262571
 20
3034.238414485893
 30
0.0
 10
5248.879996929563
 20
3034.23874735671
 30
0.0
 10
5248.880319198781
 20
3034.238899960103
 30
0.0
 10
5248.881296298005
 20
3034.239304916416
 30
0.0
 10
5248.881966420555
 20
3034.239508283422
 30
0.0
 10
5248.883343648988
 20
3034.239783456057
 30
0.0
 10
5248.884056112894
 20
3034.239854013105
 30
0.0
 10
5248.885459287183
 20
3034.239854563314
 30
0.0
 10
5248.88615655699
 20
3034.239786835056
 30
0.0
 10
5248.887195853972
 20
3034.23958116309
 30
0.0
 10
5248.887541539446
 20
3034.239494784916
 30
0.0
 10
5248.888215460925
 20
3034.239290698206
 30
0.0
 10
5248.888875844098
 20
3034.239054665125
 30
0.0
 10
5248.88950960461
 20
3034.238755810538
 30
0.0
 10
5248.890129895708
 20
3034.238425172198
 30
0.0
 10
5248.890434659627
 20
3034.238243037449
 30
0.0
 10
5248.891318140996
 20
3034.237653631209
 30
0.0
 10
5248.891859983459
 20
3034.237208878626
 30
0.0
 10
5248.892604155252
 20
3034.236466363607
 30
0.0
 10
5248.892840697651
 20
3034.236206203152
 30
0.0
 10
5248.893290094072
 20
3034.235659847481
 30
0.0
 10
5248.893502024966
 20
3034.235374433753
 30
0.0
 10
5248.894088569289
 20
3034.234497795644
 30
0.0
 10
5248.894419189731
 20
3034.233880744418
 30
0.0
 10
5248.894824315806
 20
3034.232906125823
 30
0.0
 10
5248.894944643187
 20
3034.232571094372
 30
0.0
 10
5248.895150263332
 20
3034.231895002652
 30
0.0
 10
5248.895235743278
 20
3034.231554197739
 30
0.0
 10
5248.895441529871
 20
3034.23052371872
 30
0.0
 10
5248.895511673832
 20
3034.229826058441
 30
0.0
 10
5248.895512760642
 20
3034.228762990059
 30
0.0
 10
5248.895495515645
 20
3034.228409228438
 30
0.0
 10
5248.895427104269
 20
3034.227710200792
 30
0.0
 10
5248.895324779645
 20
3034.227017323849
 30
0.0
 10
5248.895155291297
 20
3034.226336628072
 30
0.0
 10
5248.894951574078
 20
3034.225662140197
 30
0.0
 10
5248.894831814799
 20
3034.225326391169
 30
0.0
 10
5248.894427452978
 20
3034.224348400749
 30
0.0
 10
5248.89409758461
 20
3034.223730667239
 30
0.0
 10
5248.893319163435
 20
3034.222562638718
 30
0.0
 10
5248.892865503545
 20
3034.22200880101
 30
0.0
 10
5248.891873706095
 20
3034.221015643003
 30
0.0
 10
5248.891332987646
 20
3034.220570504346
 30
0.0
 10
5248.890453550618
 20
3034.219981253354
 30
0.0
 10
5248.890147950824
 20
3034.219797694751
 30
0.0
 10
5248.889526815453
 20
3034.219465088306
 30
0.0
 10
5248.88920981153
 20
3034.219314930621
 30
0.0
 10
5248.888239848734
 20
3034.218911996907
 30
0.0
 10
5248.887565847176
 20
3034.218705844025
 30
0.0
 10
5248.886174770341
 20
3034.21842760562
 30
0.0
 10
5248.885471894495
 20
3034.218357894514
 30
0.0
 10
5248.884761652377
 20
3034.218357863472
 30
0.0
  0
SPLINE
  5
163F
330
1F
100
AcDbEntity
  8
SANINDUSA
100
AcDbSpline
210
0.0
220
0.0
230
1.0
 70
    11
 71
     3
 72
    95
 73
    91
 74
     0
 42
0.0000000001
 43
0.0000000001
 40
0.0
 40
0.0
 40
0.0
 40
0.0
 40
0.031249999999989
 40
0.031249999999989
 40
0.0468749999999861
 40
0.0468749999999861
 40
0.0624999999999833
 40
0.0624999999999833
 40
0.0937499999999812
 40
0.0937499999999812
 40
0.1093749999999815
 40
0.1093749999999815
 40
0.1249999999999819
 40
0.1249999999999819
 40
0.1562499999999878
 40
0.1562499999999878
 40
0.1718749999999897
 40
0.1718749999999897
 40
0.1874999999999916
 40
0.2031249999999936
 40
0.2031249999999936
 40
0.2187499999999955
 40
0.2187499999999955
 40
0.2500000000000008
 40
0.2500000000000008
 40
0.2656250000000048
 40
0.2656250000000048
 40
0.2812500000000087
 40
0.2812500000000087
 40
0.3125000000000155
 40
0.3125000000000155
 40
0.3281250000000189
 40
0.3281250000000189
 40
0.3437500000000224
 40
0.3437500000000224
 40
0.3750000000000292
 40
0.3750000000000292
 40
0.4062500000000361
 40
0.4062500000000361
 40
0.4218750000000375
 40
0.4218750000000375
 40
0.4375000000000389
 40
0.4375000000000389
 40
0.4687500000000416
 40
0.4687500000000416
 40
0.5000000000000444
 40
0.5000000000000444
 40
0.5312500000000471
 40
0.5312500000000471
 40
0.5468750000000508
 40
0.5468750000000508
 40
0.5625000000000547
 40
0.5781250000000586
 40
0.5781250000000586
 40
0.5937500000000623
 40
0.5937500000000623
 40
0.6250000000000658
 40
0.6250000000000658
 40
0.6406250000000653
 40
0.6406250000000653
 40
0.6562500000000649
 40
0.6562500000000649
 40
0.6875000000000612
 40
0.6875000000000612
 40
0.7031250000000572
 40
0.7031250000000572
 40
0.7187500000000533
 40
0.7187500000000533
 40
0.7500000000000463
 40
0.7500000000000463
 40
0.7656250000000418
 40
0.7656250000000418
 40
0.7812500000000372
 40
0.7968750000000325
 40
0.7968750000000325
 40
0.8125000000000278
 40
0.8125000000000278
 40
0.8437500000000227
 40
0.8437500000000227
 40
0.8750000000000175
 40
0.8750000000000175
 40
0.9062500000000124
 40
0.9062500000000124
 40
0.9218750000000119
 40
0.9218750000000119
 40
0.9375000000000113
 40
0.9375000000000113
 40
0.9687500000000056
 40
0.9687500000000056
 40
1.0
 40
1.0
 40
1.0
 40
1.0
 10
5249.124766087343
 20
3034.13835864142
 30
0.0
 10
5249.124055871743
 20
3034.138358699598
 30
0.0
 10
5249.12335752814
 20
3034.138428442008
 30
0.0
 10
5249.122327091995
 20
3034.13863330456
 30
0.0
 10
5249.121986480993
 20
3034.138718424486
 30
0.0
 10
5249.121311125204
 20
3034.138923096851
 30
0.0
 10
5249.120975466209
 20
3034.139043226252
 30
0.0
 10
5249.119999080246
 20
3034.139447966579
 30
0.0
 10
5249.119381633327
 20
3034.139778186961
 30
0.0
 10
5249.118505227673
 20
3034.140363294187
 30
0.0
 10
5249.118220501665
 20
3034.140574183151
 30
0.0
 10
5249.1176726373
 20
3034.141023793945
 30
0.0
 10
5249.117411920533
 20
3034.141260361294
 30
0.0
 10
5249.116668178428
 20
3034.142004247249
 30
0.0
 10
5249.116223197706
 20
3034.142545426169
 30
0.0
 10
5249.115633817801
 20
3034.143426696747
 30
0.0
 10
5249.115450829556
 20
3034.143732028513
 30
0.0
 10
5249.115119189601
 20
3034.14435260538
 30
0.0
 10
5249.114819584424
 20
3034.144986347497
 30
0.0
 10
5249.114583081346
 20
3034.145646022492
 30
0.0
 10
5249.114378559164
 20
3034.146318840575
 30
0.0
 10
5249.114291954061
 20
3034.146663671112
 30
0.0
 10
5249.11408485704
 20
3034.147704269713
 30
0.0
 10
5249.114016565165
 20
3034.148401675351
 30
0.0
 10
5249.114015996543
 20
3034.149453146897
 30
0.0
 10
5249.114032907407
 20
3034.149804537696
 30
0.0
 10
5249.114101970502
 20
3034.150509174674
 30
0.0
 10
5249.114154088344
 20
3034.150860257666
 30
0.0
 10
5249.114359711867
 20
3034.151894168305
 30
0.0
 10
5249.114562575357
 20
3034.152564189263
 30
0.0
 10
5249.114966094154
 20
3034.153540180254
 30
0.0
 10
5249.115118254465
 20
3034.153862334846
 30
0.0
 10
5249.115451050414
 20
3034.154485122164
 30
0.0
 10
5249.115631674418
 20
3034.154786315231
 30
0.0
 10
5249.116215200036
 20
3034.155660027316
 30
0.0
 10
5249.116659348664
 20
3034.156202970762
 30
0.0
 10
5249.117662210941
 20
3034.157206710828
 30
0.0
 10
5249.118206321935
 20
3034.157652514055
 30
0.0
 10
5249.119079381966
 20
3034.158236517879
 30
0.0
 10
5249.119380199161
 20
3034.158417208637
 30
0.0
 10
5249.120001840157
 20
3034.158750047694
 30
0.0
 10
5249.120324099262
 20
3034.158902633909
 30
0.0
 10
5249.121301174243
 20
3034.159307532184
 30
0.0
 10
5249.121971278294
 20
3034.159510847789
 30
0.0
 10
5249.123348464081
 20
3034.159785896158
 30
0.0
 10
5249.124060906081
 20
3034.159856379766
 30
0.0
 10
5249.125464029222
 20
3034.159856768366
 30
0.0
 10
5249.126161269022
 20
3034.159788951717
 30
0.0
 10
5249.127200514358
 20
3034.159583137824
 30
0.0
 10
5249.12754617858
 20
3034.159496711342
 30
0.0
 10
5249.128220055599
 20
3034.15929252829
 30
0.0
 10
5249.128880392884
 20
3034.159056398232
 30
0.0
 10
5249.129514104915
 20
3034.158757445823
 30
0.0
 10
5249.130134346316
 20
3034.158426709414
 30
0.0
 10
5249.130439086941
 20
3034.158244523602
 30
0.0
 10
5249.131322473907
 20
3034.157654982418
 30
0.0
 10
5249.131864256143
 20
3034.157210143979
 30
0.0
 10
5249.132608341611
 20
3034.156467505886
 30
0.0
 10
5249.132844855911
 20
3034.15620730537
 30
0.0
 10
5249.133294197598
 20
3034.155660871576
 30
0.0
 10
5249.133506095883
 20
3034.155375428025
 30
0.0
 10
5249.134092554761
 20
3034.154498699578
 30
0.0
 10
5249.134423127153
 20
3034.153881593201
 30
0.0
 10
5249.134828193623
 20
3034.152906898797
 30
0.0
 10
5249.134948502967
 20
3034.152571843114
 30
0.0
 10
5249.135154089344
 20
3034.151895716993
 30
0.0
 10
5249.135239555627
 20
3034.151554895636
 30
0.0
 10
5249.135445309931
 20
3034.150524369373
 30
0.0
 10
5249.135515443867
 20
3034.14982668035
 30
0.0
 10
5249.135516531509
 20
3034.14876357289
 30
0.0
 10
5249.135499289639
 20
3034.14840980197
 30
0.0
 10
5249.135430889552
 20
3034.147710753384
 30
0.0
 10
5249.135328581195
 20
3034.147017855971
 30
0.0
 10
5249.135159117949
 20
3034.146337140932
 30
0.0
 10
5249.13495542984
 20
3034.145662634561
 30
0.0
 10
5249.134835686952
 20
3034.145326875599
 30
0.0
 10
5249.134431375463
 20
3034.144348851705
 30
0.0
 10
5249.134101545435
 20
3034.143731098806
 30
0.0
 10
5249.133323206884
 20
3034.14256303989
 30
0.0
 10
5249.132869586891
 20
3034.142009184545
 30
0.0
 10
5249.131877859593
 20
3034.141016002793
 30
0.0
 10
5249.131337176482
 20
3034.140570862032
 30
0.0
 10
5249.130457791793
 20
3034.139981624467
 30
0.0
 10
5249.130152204352
 20
3034.139798070035
 30
0.0
 10
5249.129531090467
 20
3034.13946547839
 30
0.0
 10
5249.129214097573
 20
3034.139315332105
 30
0.0
 10
5249.128244168839
 20
3034.138912444089
 30
0.0
 10
5249.127570197223
 20
3034.138706338144
 30
0.0
 10
5249.126179156683
 20
3034.138428218906
 30
0.0
 10
5249.125476302941
 20
3034.138358583242
 30
0.0
 10
5249.124766087343
 20
3034.13835864142
 30
0.0
  0
SPLINE
  5
1643
330
1F
100
AcDbEntity
  8
SANINDUSA
100
AcDbSpline
210
0.0
220
0.0
230
1.0
 70
    11
 71
     3
 72
    26
 73
    22
 74
     0
 42
0.0000000001
 43
0.0000000001
 40
0.0
 40
0.0
 40
0.0
 40
0.0
 40
0.0536850386190767
 40
0.1073695604888758
 40
0.1610538741094949
 40
0.2147400332312945
 40
0.2684292080054585
 40
0.3221203035121909
 40
0.3758129370003524
 40
0.4295051287772217
 40
0.4831953964598113
 40
0.5368836521814579
 40
0.5905694989975557
 40
0.6442545003883783
 40
0.6979397473731145
 40
0.7516272580575898
 40
0.8053168281558814
 40
0.8590093900471613
 40
0.9127026478648073
 40
0.9663945426364762
 40
1.0
 40
1.0
 40
1.0
 40
1.0
 10
5248.724758493604
 20
3034.138360988924
 30
0.0
 10
5248.723549717318
 20
3034.138479704031
 30
0.0
 10
5248.721132176378
 20
3034.1387171331
 30
0.0
 10
5248.717914622054
 20
3034.140569526546
 30
0.0
 10
5248.715468608168
 20
3034.14329771492
 30
0.0
 10
5248.714069789123
 20
3034.146704444284
 30
0.0
 10
5248.713875947366
 20
3034.150376203045
 30
0.0
 10
5248.714909017482
 20
3034.153906979355
 30
0.0
 10
5248.717052648466
 20
3034.156896491153
 30
0.0
 10
5248.720065117257
 20
3034.159008204569
 30
0.0
 10
5248.723606741442
 20
3034.160003775393
 30
0.0
 10
5248.727278109867
 20
3034.159771137599
 30
0.0
 10
5248.730665304538
 20
3034.158336542694
 30
0.0
 10
5248.733386493563
 20
3034.155861812155
 30
0.0
 10
5248.73513503368
 20
3034.152626043224
 30
0.0
 10
5248.735713735162
 20
3034.148993491302
 30
0.0
 10
5248.735057467153
 20
3034.145375234835
 30
0.0
 10
5248.733239588432
 20
3034.142173104653
 30
0.0
 10
5248.730466885237
 20
3034.139770975344
 30
0.0
 10
5248.727471572436
 20
3034.138531464999
 30
0.0
 10
5248.725512605567
 20
3034.138408373485
 30
0.0
 10
5248.724758493604
 20
3034.138360988924
 30
0.0
  0
SPLINE
  5
1647
330
1F
100
AcDbEntity
  8
SANINDUSA
100
AcDbSpline
210
0.0
220
0.0
230
1.0
 70
    11
 71
     3
 72
    95
 73
    91
 74
     0
 42
0.0000000001
 43
0.0000000001
 40
0.0
 40
0.0
 40
0.0
 40
0.0
 40
0.0312500000000022
 40
0.0312500000000022
 40
0.0468750000000033
 40
0.0468750000000033
 40
0.0625000000000044
 40
0.0625000000000044
 40
0.0937500000000066
 40
0.0937500000000066
 40
0.109375000000006
 40
0.109375000000006
 40
0.1250000000000054
 40
0.1250000000000054
 40
0.1562500000000024
 40
0.1562500000000024
 40
0.1718750000000013
 40
0.1718750000000013
 40
0.1875000000000001
 40
0.203124999999999
 40
0.203124999999999
 40
0.2187499999999978
 40
0.2187499999999978
 40
0.2499999999999956
 40
0.2499999999999956
 40
0.2656249999999944
 40
0.2656249999999944
 40
0.2812499999999933
 40
0.2812499999999933
 40
0.3124999999999886
 40
0.3124999999999886
 40
0.3281249999999863
 40
0.3281249999999863
 40
0.343749999999984
 40
0.343749999999984
 40
0.3749999999999792
 40
0.3749999999999792
 40
0.4062499999999746
 40
0.4062499999999746
 40
0.4218749999999723
 40
0.4218749999999723
 40
0.4374999999999699
 40
0.4374999999999699
 40
0.4687499999999647
 40
0.4687499999999647
 40
0.4999999999999596
 40
0.4999999999999596
 40
0.5312499999999546
 40
0.5312499999999546
 40
0.5468749999999519
 40
0.5468749999999519
 40
0.5624999999999492
 40
0.5781249999999466
 40
0.5781249999999466
 40
0.5937499999999459
 40
0.5937499999999459
 40
0.6249999999999449
 40
0.6249999999999449
 40
0.6406249999999457
 40
0.6406249999999457
 40
0.6562499999999464
 40
0.6562499999999464
 40
0.687499999999948
 40
0.687499999999948
 40
0.7031249999999508
 40
0.7031249999999508
 40
0.7187499999999538
 40
0.7187499999999538
 40
0.7499999999999609
 40
0.7499999999999609
 40
0.7656249999999644
 40
0.7656249999999644
 40
0.781249999999968
 40
0.7968749999999715
 40
0.7968749999999715
 40
0.8124999999999749
 40
0.8124999999999749
 40
0.8437499999999818
 40
0.8437499999999818
 40
0.8749999999999886
 40
0.8749999999999886
 40
0.9062499999999953
 40
0.9062499999999953
 40
0.9218749999999985
 40
0.9218749999999985
 40
0.9374999999999998
 40
0.9374999999999998
 40
0.96875
 40
0.96875
 40
1.0
 40
1.0
 40
1.0
 40
1.0
 10
5249.044768278886
 20
3034.138365883414
 30
0.0
 10
5249.044058050635
 20
3034.138366001626
 30
0.0
 10
5249.043359696901
 20
3034.138435796552
 30
0.0
 10
5249.04232924883
 20
3034.1386407251
 30
0.0
 10
5249.041988634401
 20
3034.13872586488
 30
0.0
 10
5249.041313272813
 20
3034.138930572183
 30
0.0
 10
5249.040977609041
 20
3034.139050717427
 30
0.0
 10
5249.040001205425
 20
3034.139455499957
 30
0.0
 10
5249.039383747233
 20
3034.139785739715
 30
0.0
 10
5249.038507325014
 20
3034.140370862363
 30
0.0
 10
5249.038222597227
 20
3034.140581751011
 30
0.0
 10
5249.037674710029
 20
3034.141031372636
 30
0.0
 10
5249.037413982296
 20
3034.141267943651
 30
0.0
 10
5249.036670208475
 20
3034.142011835453
 30
0.0
 10
5249.036225208192
 20
3034.142553011464
 30
0.0
 10
5249.035635800656
 20
3034.143434266827
 30
0.0
 10
5249.035452797088
 20
3034.143739602058
 30
0.0
 10
5249.035121131082
 20
3034.144360181677
 30
0.0
 10
5249.034821502714
 20
3034.144993923461
 30
0.0
 10
5249.034584981352
 20
3034.145653591837
 30
0.0
 10
5249.034380442992
 20
3034.146326400003
 30
0.0
 10
5249.034293831091
 20
3034.146671220906
 30
0.0
 10
5249.034086709288
 20
3034.14771183209
 30
0.0
 10
5249.034018410147
 20
3034.148409237741
 30
0.0
 10
5249.034017839579
 20
3034.149460697049
 30
0.0
 10
5249.034034751314
 20
3034.149812081709
 30
0.0
 10
5249.034103818533
 20
3034.150516702152
 30
0.0
 10
5249.034155942037
 20
3034.150867791581
 30
0.0
 10
5249.034361586582
 20
3034.15190169693
 30
0.0
 10
5249.034564470715
 20
3034.152571703591
 30
0.0
 10
5249.034968024918
 20
3034.15354765853
 30
0.0
 10
5249.035120198183
 20
3034.153869799841
 30
0.0
 10
5249.035453028255
 20
3034.154492568644
 30
0.0
 10
5249.035633669976
 20
3034.154793749619
 30
0.0
 10
5249.036217249399
 20
3034.155667418018
 30
0.0
 10
5249.03666143479
 20
3034.156210322512
 30
0.0
 10
5249.037664366042
 20
3034.157213968601
 30
0.0
 10
5249.038208524074
 20
3034.1576597313
 30
0.0
 10
5249.03908163807
 20
3034.15824365632
 30
0.0
 10
5249.039382472246
 20
3034.158424319518
 30
0.0
 10
5249.040004144649
 20
3034.158757101464
 30
0.0
 10
5249.040326419448
 20
3034.15890965867
 30
0.0
 10
5249.041303541694
 20
3034.159314471138
 30
0.0
 10
5249.041973672263
 20
3034.159517728312
 30
0.0
 10
5249.043350899816
 20
3034.159792661938
 30
0.0
 10
5249.044063359204
 20
3034.159863089455
 30
0.0
 10
5249.045466513077
 20
3034.159863375696
 30
0.0
 10
5249.046163764052
 20
3034.159795511987
 30
0.0
 10
5249.047203019888
 20
3034.159589636631
 30
0.0
 10
5249.047548689709
 20
3034.159503190512
 30
0.0
 10
5249.048222577808
 20
3034.159298971066
 30
0.0
 10
5249.048882924989
 20
3034.159062807742
 30
0.0
 10
5249.049516644819
 20
3034.158763828776
 30
0.0
 10
5249.050136893111
 20
3034.158433069562
 30
0.0
 10
5249.050441634453
 20
3034.158250875863
 30
0.0
 10
5249.051325045424
 20
3034.1576613015
 30
0.0
 10
5249.051866841757
 20
3034.157216447062
 30
0.0
 10
5249.052610946818
 20
3034.156473795331
 30
0.0
 10
5249.05284746739
 20
3034.156213592009
 30
0.0
 10
5249.053296821342
 20
3034.155667156492
 30
0.0
 10
5249.053508732908
 20
3034.1553817044
 30
0.0
 10
5249.054095223612
 20
3034.154504960419
 30
0.0
 10
5249.054425813927
 20
3034.153887849706
 30
0.0
 10
5249.054830904334
 20
3034.152913159141
 30
0.0
 10
5249.054951221432
 20
3034.152578107003
 30
0.0
 10
5249.055156828008
 20
3034.151901968196
 30
0.0
 10
5249.055242302728
 20
3034.151561142393
 30
0.0
 10
5249.055448078316
 20
3034.150530608533
 30
0.0
 10
5249.0555182211
 20
3034.149832922042
 30
0.0
 10
5249.055519316716
 20
3034.148769830885
 30
0.0
 10
5249.055502075656
 20
3034.148416047502
 30
0.0
 10
5249.055433672708
 20
3034.147716995784
 30
0.0
 10
5249.055331359619
 20
3034.147024100359
 30
0.0
 10
5249.055161885586
 20
3034.146343397929
 30
0.0
 10
5249.05495818467
 20
3034.145668909407
 30
0.0
 10
5249.054838433308
 20
3034.145333158437
 30
0.0
 10
5249.054434084945
 20
3034.14435514902
 30
0.0
 10
5249.054104225573
 20
3034.143737419195
 30
0.0
 10
5249.053325825434
 20
3034.14256942916
 30
0.0
 10
5249.052872168419
 20
3034.142015613896
 30
0.0
 10
5249.051880360661
 20
3034.141022523528
 30
0.0
 10
5249.051339638659
 20
3034.140577438856
 30
0.0
 10
5249.050460201686
 20
3034.139988296411
 30
0.0
 10
5249.050154595629
 20
3034.139804774233
 30
0.0
 10
5249.04953344507
 20
3034.139472247915
 30
0.0
 10
5249.049216435043
 20
3034.139322135354
 30
0.0
 10
5249.048246458938
 20
3034.138919350308
 30
0.0
 10
5249.047572463311
 20
3034.138713316118
 30
0.0
 10
5249.046181378581
 20
3034.138435334986
 30
0.0
 10
5249.045478507137
 20
3034.138365765202
 30
0.0
 10
5249.044768278886
 20
3034.138365883414
 30
0.0
  0
SPLINE
  5
1649
330
1F
100
AcDbEntity
  8
SANINDUSA
100
AcDbSpline
210
0.0
220
0.0
230
1.0
 70
    11
 71
     3
 72
    95
 73
    91
 74
     0
 42
0.0000000001
 43
0.0000000001
 40
0.0
 40
0.0
 40
0.0
 40
0.0
 40
0.0312500000000005
 40
0.0312500000000005
 40
0.0468750000000023
 40
0.0468750000000023
 40
0.062500000000004
 40
0.062500000000004
 40
0.0937500000000061
 40
0.0937500000000061
 40
0.1093750000000069
 40
0.1093750000000069
 40
0.1250000000000078
 40
0.1250000000000078
 40
0.1562500000000087
 40
0.1562500000000087
 40
0.1718750000000095
 40
0.1718750000000095
 40
0.1875000000000103
 40
0.2031250000000111
 40
0.2031250000000111
 40
0.2187500000000118
 40
0.2187500000000118
 40
0.2500000000000134
 40
0.2500000000000134
 40
0.2656250000000155
 40
0.2656250000000155
 40
0.2812500000000175
 40
0.2812500000000175
 40
0.3125000000000215
 40
0.3125000000000215
 40
0.3281250000000222
 40
0.3281250000000222
 40
0.3437500000000228
 40
0.3437500000000228
 40
0.3750000000000245
 40
0.3750000000000245
 40
0.4062500000000262
 40
0.4062500000000262
 40
0.4218750000000273
 40
0.4218750000000273
 40
0.4375000000000274
 40
0.4375000000000274
 40
0.468750000000027
 40
0.468750000000027
 40
0.5000000000000267
 40
0.5000000000000267
 40
0.5312500000000263
 40
0.5312500000000263
 40
0.5468750000000262
 40
0.5468750000000262
 40
0.5625000000000259
 40
0.5781250000000258
 40
0.5781250000000258
 40
0.5937500000000256
 40
0.5937500000000256
 40
0.6250000000000259
 40
0.6250000000000259
 40
0.6406250000000256
 40
0.6406250000000256
 40
0.6562500000000253
 40
0.6562500000000253
 40
0.6875000000000262
 40
0.6875000000000262
 40
0.703125000000026
 40
0.703125000000026
 40
0.718750000000026
 40
0.718750000000026
 40
0.7500000000000254
 40
0.7500000000000254
 40
0.7656250000000239
 40
0.7656250000000239
 40
0.7812500000000223
 40
0.7968750000000209
 40
0.7968750000000209
 40
0.8125000000000193
 40
0.8125000000000193
 40
0.8437500000000154
 40
0.8437500000000154
 40
0.8750000000000113
 40
0.8750000000000113
 40
0.9062500000000074
 40
0.9062500000000074
 40
0.9218750000000065
 40
0.9218750000000065
 40
0.9375000000000056
 40
0.9375000000000056
 40
0.9687500000000028
 40
0.9687500000000028
 40
1.0
 40
1.0
 40
1.0
 40
1.0
 10
5248.804757579441
 20
3034.138368387258
 30
0.0
 10
5248.804047346538
 20
3034.138368280748
 30
0.0
 10
5248.803348976669
 20
3034.138437852845
 30
0.0
 10
5248.802318489243
 20
3034.138642458453
 30
0.0
 10
5248.801977859148
 20
3034.138727492461
 30
0.0
 10
5248.801302461252
 20
3034.138931993543
 30
0.0
 10
5248.800966777042
 20
3034.13905203805
 30
0.0
 10
5248.799990311034
 20
3034.139456532851
 30
0.0
 10
5248.799372807393
 20
3034.139786598421
 30
0.0
 10
5248.798496313793
 20
3034.140371490928
 30
0.0
 10
5248.798211560157
 20
3034.140582309081
 30
0.0
 10
5248.79766362833
 20
3034.141031796373
 30
0.0
 10
5248.797402879432
 20
3034.141268305968
 30
0.0
 10
5248.796659045676
 20
3034.142012030433
 30
0.0
 10
5248.796214010098
 20
3034.142553117253
 30
0.0
 10
5248.795624558387
 20
3034.143434274481
 30
0.0
 10
5248.79544154662
 20
3034.143739575095
 30
0.0
 10
5248.79510986648
 20
3034.144360096481
 30
0.0
 10
5248.79481022723
 20
3034.144993790597
 30
0.0
 10
5248.794573700881
 20
3034.145653431774
 30
0.0
 10
5248.794369160767
 20
3034.146326223132
 30
0.0
 10
5248.794282549234
 20
3034.14667104487
 30
0.0
 10
5248.794075443509
 20
3034.147711613858
 30
0.0
 10
5248.79400715568
 20
3034.148409011659
 30
0.0
 10
5248.79400660529
 20
3034.149460488308
 30
0.0
 10
5248.79402352429
 20
3034.149811883636
 30
0.0
 10
5248.794092607633
 20
3034.150516535411
 30
0.0
 10
5248.794144735497
 20
3034.150867614317
 30
0.0
 10
5248.794350392141
 20
3034.151901535487
 30
0.0
 10
5248.794553280877
 20
3034.152571575576
 30
0.0
 10
5248.794956842158
 20
3034.153547613085
 30
0.0
 10
5248.795109016902
 20
3034.153869784105
 30
0.0
 10
5248.795441830407
 20
3034.154492590866
 30
0.0
 10
5248.795622463038
 20
3034.154793797811
 30
0.0
 10
5248.796206014691
 20
3034.155667563178
 30
0.0
 10
5248.796650180882
 20
3034.156210557555
 30
0.0
 10
5248.797653081449
 20
3034.157214429114
 30
0.0
 10
5248.798197174252
 20
3034.157660279927
 30
0.0
 10
5248.799070238838
 20
3034.158244407242
 30
0.0
 10
5248.799371058291
 20
3034.158425143308
 30
0.0
 10
5248.799992705763
 20
3034.158758080793
 30
0.0
 10
5248.8003149643
 20
3034.158910717879
 30
0.0
 10
5248.801292029413
 20
3034.159315774755
 30
0.0
 10
5248.801962133406
 20
3034.159519211582
 30
0.0
 10
5248.803339334187
 20
3034.159794525181
 30
0.0
 10
5248.804051786334
 20
3034.159865153327
 30
0.0
 10
5248.805454941745
 20
3034.159865838912
 30
0.0
 10
5248.806152206429
 20
3034.159798175683
 30
0.0
 10
5248.807191502101
 20
3034.159592594287
 30
0.0
 10
5248.80753718639
 20
3034.159506245539
 30
0.0
 10
5248.808211106344
 20
3034.15930221489
 30
0.0
 10
5248.808871489014
 20
3034.159066233975
 30
0.0
 10
5248.809505251553
 20
3034.158767425179
 30
0.0
 10
5248.810125545709
 20
3034.158436828831
 30
0.0
 10
5248.810430312836
 20
3034.15825471242
 30
0.0
 10
5248.811313793618
 20
3034.157665362105
 30
0.0
 10
5248.811855636517
 20
3034.157220639056
 30
0.0
 10
5248.812599809074
 20
3034.156478155815
 30
0.0
 10
5248.812836351746
 20
3034.156218003849
 30
0.0
 10
5248.813285748519
 20
3034.155671660556
 30
0.0
 10
5248.813497675594
 20
3034.15538625579
 30
0.0
 10
5248.814084211272
 20
3034.154509635919
 30
0.0
 10
5248.814414826112
 20
3034.153892589143
 30
0.0
 10
5248.814819942874
 20
3034.152917964795
 30
0.0
 10
5248.814940266849
 20
3034.152582928929
 30
0.0
 10
5248.815145876179
 20
3034.151906838962
 30
0.0
 10
5248.815231351208
 20
3034.15156603296
 30
0.0
 10
5248.815437124107
 20
3034.150535544808
 30
0.0
 10
5248.815507260347
 20
3034.149837870676
 30
0.0
 10
5248.815508336363
 20
3034.148774768973
 30
0.0
 10
5248.815491088606
 20
3034.148421008772
 30
0.0
 10
5248.81542267288
 20
3034.147721967786
 30
0.0
 10
5248.8153203471
 20
3034.147029072627
 30
0.0
 10
5248.815150859432
 20
3034.146348349729
 30
0.0
 10
5248.814947143863
 20
3034.145673830165
 30
0.0
 10
5248.81482738677
 20
3034.145338065997
 30
0.0
 10
5248.81442304068
 20
3034.144360038391
 30
0.0
 10
5248.814093186133
 20
3034.143742268965
 30
0.0
 10
5248.813314795057
 20
3034.142574149051
 30
0.0
 10
5248.812861156245
 20
3034.142020261721
 30
0.0
 10
5248.811869409528
 20
3034.141026995069
 30
0.0
 10
5248.811328716019
 20
3034.140581792556
 30
0.0
 10
5248.81044931274
 20
3034.139992434895
 30
0.0
 10
5248.810143726425
 20
3034.139808840592
 30
0.0
 10
5248.809522618497
 20
3034.13947616159
 30
0.0
 10
5248.809205627413
 20
3034.139325966321
 30
0.0
 10
5248.808235700094
 20
3034.138922917149
 30
0.0
 10
5248.807561715178
 20
3034.138716682845
 30
0.0
 10
5248.806170674266
 20
3034.138438283966
 30
0.0
 10
5248.805467812345
 20
3034.138368493767
 30
0.0
 10
5248.804757579441
 20
3034.138368387258
 30
0.0
  0
SPLINE
  5
164B
330
1F
100
AcDbEntity
  8
SANINDUSA
100
AcDbSpline
210
0.0
220
0.0
230
1.0
 70
    11
 71
     3
 72
    26
 73
    22
 74
     0
 42
0.0000000001
 43
0.0000000001
 40
0.0
 40
0.0
 40
0.0
 40
0.0
 40
0.0536937591007718
 40
0.1073881663740918
 40
0.1610818707551385
 40
0.2147723127443489
 40
0.2684598895043633
 40
0.3221445098863658
 40
0.3758285662457583
 40
0.4295135775040013
 40
0.4832013552232728
 40
0.5368917703201292
 40
0.5905843991533434
 40
0.6442774567074623
 40
0.6979697004446824
 40
0.75165919113239
 40
0.8053453070896395
 40
0.8590296141406607
 40
0.9127131295872469
 40
0.9663988987102806
 40
1.0
 40
1.0
 40
1.0
 40
1.0
 10
5248.964765894116
 20
3034.138373625109
 30
0.0
 10
5248.963556881236
 20
3034.13849260229
 30
0.0
 10
5248.961138840878
 20
3034.138730558087
 30
0.0
 10
5248.957920779928
 20
3034.140583885732
 30
0.0
 10
5248.955474588463
 20
3034.143312919115
 30
0.0
 10
5248.954076104809
 20
3034.146720186051
 30
0.0
 10
5248.95388292379
 20
3034.15039185814
 30
0.0
 10
5248.954916689737
 20
3034.153921908723
 30
0.0
 10
5248.957060748193
 20
3034.156910325583
 30
0.0
 10
5248.960073420511
 20
3034.159020905575
 30
0.0
 10
5248.963615187946
 20
3034.160015496479
 30
0.0
 10
5248.967286814759
 20
3034.159782014797
 30
0.0
 10
5248.970674346526
 20
3034.158346573081
 30
0.0
 10
5248.973395749385
 20
3034.155870940545
 30
0.0
 10
5248.975144143299
 20
3034.152634429046
 30
0.0
 10
5248.975722351651
 20
3034.149001601373
 30
0.0
 10
5248.975065368601
 20
3034.145383765689
 30
0.0
 10
5248.973246927349
 20
3034.142182696218
 30
0.0
 10
5248.970473992708
 20
3034.139781878938
 30
0.0
 10
5248.967478772408
 20
3034.138543460227
 30
0.0
 10
5248.965519945136
 20
3034.138420831187
 30
0.0
 10
5248.964765894116
 20
3034.138373625109
 30
0.0
  0
SPLINE
  5
1672
330
1F
100
AcDbEntity
  8
SANINDUSA
100
AcDbSpline
210
0.0
220
0.0
230
1.0
 70
    11
 71
     3
 72
    26
 73
    22
 74
     0
 42
0.0000000001
 43
0.0000000001
 40
0.0
 40
0.0
 40
0.0
 40
0.0
 40
0.0536931780856849
 40
0.1073862351029563
 40
0.1610753920047112
 40
0.2147615284450288
 40
0.2684453648657463
 40
0.3221294994048162
 40
0.3758159964024831
 40
0.4295055528331743
 40
0.4831971996632407
 40
0.5368902094410246
 40
0.5905826512886804
 40
0.6442732025313398
 40
0.6979611065777471
 40
0.7516463671553199
 40
0.8053304680034615
 40
0.8590150806529821
 40
0.9127025125174698
 40
0.9663933380032764
 40
1.0
 40
1.0
 40
1.0
 40
1.0
 10
5248.884760635795
 20
3034.138374697993
 30
0.0
 10
5248.883551618931
 20
3034.138493458832
 30
0.0
 10
5248.881133587925
 20
3034.13873098024
 30
0.0
 10
5248.877915499607
 20
3034.140583732733
 30
0.0
 10
5248.875469281546
 20
3034.143312249507
 30
0.0
 10
5248.874070728699
 20
3034.146719073666
 30
0.0
 10
5248.873877265614
 20
3034.150390527439
 30
0.0
 10
5248.874910722776
 20
3034.153920704836
 30
0.0
 10
5248.877054504908
 20
3034.156909665439
 30
0.0
 10
5248.880067171938
 20
3034.159020916039
 30
0.0
 10
5248.883609068583
 20
3034.160016267741
 30
0.0
 10
5248.887280884839
 20
3034.159783368457
 30
0.0
 10
5248.890668554849
 20
3034.158348467778
 30
0.0
 10
5248.893390037695
 20
3034.155873344587
 30
0.0
 10
5248.895138512326
 20
3034.152637305439
 30
0.0
 10
5248.895716885103
 20
3034.149004828396
 30
0.0
 10
5248.895060230074
 20
3034.145387068324
 30
0.0
 10
5248.893242117508
 20
3034.142185641578
 30
0.0
 10
5248.890469275618
 20
3034.139784173497
 30
0.0
 10
5248.887473874741
 20
3034.138545036553
 30
0.0
 10
5248.885514810938
 20
3034.138422045503
 30
0.0
 10
5248.884760635795
 20
3034.138374697993
 30
0.0
  0
SPLINE
  5
1674
330
1F
100
AcDbEntity
  8
SANINDUSA
100
AcDbSpline
210
0.0
220
0.0
230
1.0
 70
    11
 71
     3
 72
    95
 73
    91
 74
     0
 42
0.0000000001
 43
0.0000000001
 40
0.0
 40
0.0
 40
0.0
 40
0.0
 40
0.0312500000000013
 40
0.0312500000000013
 40
0.0468750000000019
 40
0.0468750000000019
 40
0.0625000000000026
 40
0.0625000000000026
 40
0.0937500000000075
 40
0.0937500000000075
 40
0.1093750000000072
 40
0.1093750000000072
 40
0.1250000000000069
 40
0.1250000000000069
 40
0.1562500000000046
 40
0.1562500000000046
 40
0.1718750000000037
 40
0.1718750000000037
 40
0.1875000000000029
 40
0.2031250000000021
 40
0.2031250000000021
 40
0.2187500000000012
 40
0.2187500000000012
 40
0.2499999999999972
 40
0.2499999999999972
 40
0.2656249999999964
 40
0.2656249999999964
 40
0.2812499999999956
 40
0.2812499999999956
 40
0.3124999999999926
 40
0.3124999999999926
 40
0.3281249999999923
 40
0.3281249999999923
 40
0.3437499999999919
 40
0.3437499999999919
 40
0.3749999999999939
 40
0.3749999999999939
 40
0.406249999999996
 40
0.406249999999996
 40
0.4218749999999963
 40
0.4218749999999963
 40
0.4374999999999966
 40
0.4374999999999966
 40
0.4687499999999918
 40
0.4687499999999918
 40
0.4999999999999869
 40
0.4999999999999869
 40
0.5312499999999822
 40
0.5312499999999822
 40
0.5468749999999823
 40
0.5468749999999823
 40
0.5624999999999825
 40
0.5781249999999827
 40
0.5781249999999827
 40
0.593749999999983
 40
0.593749999999983
 40
0.6249999999999806
 40
0.6249999999999806
 40
0.6406249999999804
 40
0.6406249999999804
 40
0.6562499999999801
 40
0.6562499999999801
 40
0.6874999999999796
 40
0.6874999999999796
 40
0.7031249999999805
 40
0.7031249999999805
 40
0.7187499999999814
 40
0.7187499999999814
 40
0.7499999999999831
 40
0.7499999999999831
 40
0.7656249999999851
 40
0.7656249999999851
 40
0.7812499999999872
 40
0.7968749999999894
 40
0.7968749999999894
 40
0.8124999999999914
 40
0.8124999999999914
 40
0.8437499999999936
 40
0.8437499999999936
 40
0.874999999999996
 40
0.874999999999996
 40
0.9062499999999982
 40
0.9062499999999982
 40
0.9218749999999973
 40
0.9218749999999973
 40
0.9374999999999964
 40
0.9374999999999964
 40
0.9687499999999982
 40
0.9687499999999982
 40
1.0
 40
1.0
 40
1.0
 40
1.0
 10
5249.12476721247
 20
3034.058369418397
 30
0.0
 10
5249.124057008143
 20
3034.058369474794
 30
0.0
 10
5249.123358675369
 20
3034.058439218588
 30
0.0
 10
5249.122328254873
 20
3034.058644088059
 30
0.0
 10
5249.121987648986
 20
3034.058729211105
 30
0.0
 10
5249.121312303237
 20
3034.058933891458
 30
0.0
 10
5249.120976650448
 20
3034.059054025354
 30
0.0
 10
5249.120000284779
 20
3034.059458779956
 30
0.0
 10
5249.119382851225
 20
3034.059789012056
 30
0.0
 10
5249.118506465368
 20
3034.060374140108
 30
0.0
 10
5249.118221744076
 20
3034.060585038185
 30
0.0
 10
5249.117673898767
 20
3034.061034659947
 30
0.0
 10
5249.117413191118
 20
3034.061271232936
 30
0.0
 10
5249.116669475233
 20
3034.062015136298
 30
0.0
 10
5249.116224510482
 20
3034.062556327459
 30
0.0
 10
5249.115635152504
 20
3034.063437617535
 30
0.0
 10
5249.115452174256
 20
3034.063742951056
 30
0.0
 10
5249.11512055146
 20
3034.06436353213
 30
0.0
 10
5249.114820961517
 20
3034.064997278611
 30
0.0
 10
5249.114584470242
 20
3034.065656958395
 30
0.0
 10
5249.114379958315
 20
3034.066329781544
 30
0.0
 10
5249.114293357469
 20
3034.066674616034
 30
0.0
 10
5249.114086274088
 20
3034.067715206774
 30
0.0
 10
5249.1140179859
 20
3034.068412608772
 30
0.0
 10
5249.114017417063
 20
3034.069464077245
 30
0.0
 10
5249.114034326884
 20
3034.06981546742
 30
0.0
 10
5249.114103386229
 20
3034.07052010399
 30
0.0
 10
5249.114155500411
 20
3034.070871180552
 30
0.0
 10
5249.114361110475
 20
3034.071905080836
 30
0.0
 10
5249.114563961172
 20
3034.07257509792
 30
0.0
 10
5249.114967457495
 20
3034.073551086994
 30
0.0
 10
5249.115119609594
 20
3034.073873241164
 30
0.0
 10
5249.115452385978
 20
3034.07449602475
 30
0.0
 10
5249.115632999786
 20
3034.074797216809
 30
0.0
 10
5249.116216494154
 20
3034.075670928027
 30
0.0
 10
5249.116660621059
 20
3034.076213873753
 30
0.0
 10
5249.117663440814
 20
3034.077217622518
 30
0.0
 10
5249.118207527681
 20
3034.07766342871
 30
0.0
 10
5249.119080556216
 20
3034.078247440912
 30
0.0
 10
5249.119381363275
 20
3034.07842813471
 30
0.0
 10
5249.120002984942
 20
3034.078760980088
 30
0.0
 10
5249.12032523476
 20
3034.07891356955
 30
0.0
 10
5249.121302282794
 20
3034.079318476841
 30
0.0
 10
5249.121972370641
 20
3034.079521797918
 30
0.0
 10
5249.123349528004
 20
3034.079796854566
 30
0.0
 10
5249.124061957618
 20
3034.079867340817
 30
0.0
 10
5249.125465057276
 20
3034.079867730257
 30
0.0
 10
5249.1261622865
 20
3034.079799912009
 30
0.0
 10
5249.127201517694
 20
3034.07959409178
 30
0.0
 10
5249.127547176173
 20
3034.079507662795
 30
0.0
 10
5249.128221041504
 20
3034.079303474042
 30
0.0
 10
5249.128881367342
 20
3034.079067337365
 30
0.0
 10
5249.129515068345
 20
3034.078768376415
 30
0.0
 10
5249.130135298898
 20
3034.078437630404
 30
0.0
 10
5249.130440035296
 20
3034.078255438403
 30
0.0
 10
5249.131323398425
 20
3034.077665885148
 30
0.0
 10
5249.131865165787
 20
3034.07722103792
 30
0.0
 10
5249.132609230112
 20
3034.076478385148
 30
0.0
 10
5249.132845737562
 20
3034.076218179487
 30
0.0
 10
5249.133295065881
 20
3034.075671734799
 30
0.0
 10
5249.133506953985
 20
3034.075386290397
 30
0.0
 10
5249.134093387302
 20
3034.07450955628
 30
0.0
 10
5249.134423945324
 20
3034.073892445736
 30
0.0
 10
5249.134828993458
 20
3034.072917743952
 30
0.0
 10
5249.134949297077
 20
3034.072582685421
 30
0.0
 10
5249.135154870586
 20
3034.071906564083
 30
0.0
 10
5249.135240331611
 20
3034.071565744762
 30
0.0
 10
5249.13544607315
 20
3034.070535223482
 30
0.0
 10
5249.135516202561
 20
3034.069837536287
 30
0.0
 10
5249.135517288076
 20
3034.068774428931
 30
0.0
 10
5249.13550004669
 20
3034.06842066601
 30
0.0
 10
5249.135431649837
 20
3034.067721624834
 30
0.0
 10
5249.135329346843
 20
3034.067028733199
 30
0.0
 10
5249.135159892446
 20
3034.066348020831
 30
0.0
 10
5249.134956214605
 20
3034.065673515613
 30
0.0
 10
5249.13483647796
 20
3034.065337757763
 30
0.0
 10
5249.134432189962
 20
3034.064359740867
 30
0.0
 10
5249.13410237823
 20
3034.063741988326
 30
0.0
 10
5249.133324078402
 20
3034.06257392349
 30
0.0
 10
5249.132870480139
 20
3034.062020063348
 30
0.0
 10
5249.131878797715
 20
3034.061026869304
 30
0.0
 10
5249.131338136651
 20
3034.060581719797
 30
0.0
 10
5249.130458782816
 20
3034.059992467172
 30
0.0
 10
5249.130153205527
 20
3034.05980890753
 30
0.0
 10
5249.129532111341
 20
3034.059476305717
 30
0.0
 10
5249.129215127884
 20
3034.059326154355
 30
0.0
 10
5249.128245226081
 20
3034.058923251568
 30
0.0
 10
5249.127571270445
 20
3034.058717136298
 30
0.0
 10
5249.126180257825
 20
3034.058439002552
 30
0.0
 10
5249.125477416797
 20
3034.058369362001
 30
0.0
 10
5249.12476721247
 20
3034.058369418397
 30
0.0
  0
SPLINE
  5
1676
330
1F
100
AcDbEntity
  8
SANINDUSA
100
AcDbSpline
210
0.0
220
0.0
230
1.0
 70
    11
 71
     3
 72
    95
 73
    91
 74
     0
 42
0.0000000001
 43
0.0000000001
 40
0.0
 40
0.0
 40
0.0
 40
0.0
 40
0.0312499999999986
 40
0.0312499999999986
 40
0.0468749999999985
 40
0.0468749999999985
 40
0.0624999999999984
 40
0.0624999999999984
 40
0.0937499999999992
 40
0.0937499999999992
 40
0.1093749999999996
 40
0.1093749999999996
 40
0.125
 40
0.125
 40
0.156249999999999
 40
0.156249999999999
 40
0.1718749999999995
 40
0.1718749999999995
 40
0.1875
 40
0.2031250000000005
 40
0.2031250000000005
 40
0.2187500000000011
 40
0.2187500000000011
 40
0.2499999999999995
 40
0.2499999999999995
 40
0.2656249999999999
 40
0.2656249999999999
 40
0.2812500000000003
 40
0.2812500000000003
 40
0.312500000000001
 40
0.312500000000001
 40
0.3281250000000002
 40
0.3281250000000002
 40
0.3437499999999994
 40
0.3437499999999994
 40
0.3750000000000005
 40
0.3750000000000005
 40
0.4062500000000016
 40
0.4062500000000016
 40
0.4218750000000016
 40
0.4218750000000016
 40
0.4375000000000017
 40
0.4375000000000017
 40
0.4687500000000029
 40
0.4687500000000029
 40
0.5000000000000041
 40
0.5000000000000041
 40
0.5312500000000053
 40
0.5312500000000053
 40
0.5468750000000059
 40
0.5468750000000059
 40
0.5625000000000066
 40
0.5781250000000072
 40
0.5781250000000072
 40
0.5937500000000079
 40
0.5937500000000079
 40
0.6250000000000091
 40
0.6250000000000091
 40
0.6406250000000103
 40
0.6406250000000103
 40
0.6562500000000112
 40
0.6562500000000112
 40
0.6875000000000134
 40
0.6875000000000134
 40
0.7031250000000144
 40
0.7031250000000144
 40
0.7187500000000155
 40
0.7187500000000155
 40
0.7500000000000176
 40
0.7500000000000176
 40
0.7656250000000174
 40
0.7656250000000174
 40
0.7812500000000173
 40
0.7968750000000171
 40
0.7968750000000171
 40
0.812500000000017
 40
0.812500000000017
 40
0.8437500000000138
 40
0.8437500000000138
 40
0.8750000000000106
 40
0.8750000000000106
 40
0.9062500000000074
 40
0.9062500000000074
 40
0.9218750000000058
 40
0.9218750000000058
 40
0.9375000000000042
 40
0.9375000000000042
 40
0.9687500000000021
 40
0.9687500000000021
 40
1.0
 40
1.0
 40
1.0
 40
1.0
 10
5248.72475687998
 20
3034.058372572055
 30
0.0
 10
5248.724046669753
 20
3034.058372490981
 30
0.0
 10
5248.723348325545
 20
3034.058442096783
 30
0.0
 10
5248.722317880595
 20
3034.058646762552
 30
0.0
 10
5248.721977265329
 20
3034.058731818238
 30
0.0
 10
5248.721301898429
 20
3034.058936365662
 30
0.0
 10
5248.720966233133
 20
3034.05905643406
 30
0.0
 10
5248.719989828187
 20
3034.05946100009
 30
0.0
 10
5248.719372366509
 20
3034.059791115177
 30
0.0
 10
5248.718495936994
 20
3034.060376083177
 30
0.0
 10
5248.718211201357
 20
3034.060586929897
 30
0.0
 10
5248.717663324588
 20
3034.061036457899
 30
0.0
 10
5248.717402602056
 20
3034.061272987285
 30
0.0
 10
5248.716658844101
 20
3034.062016769459
 30
0.0
 10
5248.716213854695
 20
3034.062557892551
 30
0.0
 10
5248.715624465747
 20
3034.063439100677
 30
0.0
 10
5248.715441478768
 20
3034.063744409505
 30
0.0
 10
5248.71510984161
 20
3034.064364947532
 30
0.0
 10
5248.714810240143
 20
3034.064998657272
 30
0.0
 10
5248.714573742788
 20
3034.06565831263
 30
0.0
 10
5248.714369227513
 20
3034.066331117554
 30
0.0
 10
5248.71428262625
 20
3034.066675947232
 30
0.0
 10
5248.714075548702
 20
3034.067716515397
 30
0.0
 10
5248.714007268247
 20
3034.068413913962
 30
0.0
 10
5248.714006716346
 20
3034.069465394015
 30
0.0
 10
5248.714023632712
 20
3034.069816790859
 30
0.0
 10
5248.714092707012
 20
3034.070521446511
 30
0.0
 10
5248.714144827892
 20
3034.070872523761
 30
0.0
 10
5248.714350458953
 20
3034.071906446369
 30
0.0
 10
5248.714553324106
 20
3034.072576490323
 30
0.0
 10
5248.714956843833
 20
3034.073552537221
 30
0.0
 10
5248.715109003661
 20
3034.073874712229
 30
0.0
 10
5248.715441787255
 20
3034.074497529324
 30
0.0
 10
5248.715622404404
 20
3034.074798741678
 30
0.0
 10
5248.716205908596
 20
3034.075672523664
 30
0.0
 10
5248.716650041789
 20
3034.076215529653
 30
0.0
 10
5248.717652876335
 20
3034.077219423885
 30
0.0
 10
5248.718196946225
 20
3034.077665292632
 30
0.0
 10
5248.719069970227
 20
3034.078249434279
 30
0.0
 10
5248.719370776285
 20
3034.078430174222
 30
0.0
 10
5248.719992397335
 20
3034.078763117508
 30
0.0
 10
5248.720314644515
 20
3034.078915757388
 30
0.0
 10
5248.721291679373
 20
3034.079320819264
 30
0.0
 10
5248.721961762579
 20
3034.079524253013
 30
0.0
 10
5248.723338920325
 20
3034.079799548607
 30
0.0
 10
5248.724051351583
 20
3034.07987016161
 30
0.0
 10
5248.725454460877
 20
3034.079870805413
 30
0.0
 10
5248.726151700182
 20
3034.079803115787
 30
0.0
 10
5248.727190954316
 20
3034.079597487105
 30
0.0
 10
5248.727536621679
 20
3034.079511121812
 30
0.0
 10
5248.728210506087
 20
3034.079307056921
 30
0.0
 10
5248.728870852609
 20
3034.079071041253
 30
0.0
 10
5248.729504577128
 20
3034.078772194963
 30
0.0
 10
5248.730124832452
 20
3034.078441559991
 30
0.0
 10
5248.730429581756
 20
3034.078259422067
 30
0.0
 10
5248.731312986997
 20
3034.077670021406
 30
0.0
 10
5248.731854781476
 20
3034.077225265342
 30
0.0
 10
5248.732598884186
 20
3034.07648273298
 30
0.0
 10
5248.732835404044
 20
3034.076222564709
 30
0.0
 10
5248.733284756171
 20
3034.075676188904
 30
0.0
 10
5248.733496655393
 20
3034.075390776091
 30
0.0
 10
5248.734083118179
 20
3034.074514127783
 30
0.0
 10
5248.734413691421
 20
3034.073897062814
 30
0.0
 10
5248.734818755257
 20
3034.072922411552
 30
0.0
 10
5248.734939062909
 20
3034.072587366609
 30
0.0
 10
5248.735144639999
 20
3034.071911272775
 30
0.0
 10
5248.73523010163
 20
3034.07157046444
 30
0.0
 10
5248.735435841562
 20
3034.070539967994
 30
0.0
 10
5248.735505965399
 20
3034.069842286611
 30
0.0
 10
5248.735507035404
 20
3034.06877917105
 30
0.0
 10
5248.735489788169
 20
3034.068425413376
 30
0.0
 10
5248.735421378851
 20
3034.067726368702
 30
0.0
 10
5248.735319062428
 20
3034.067033468065
 30
0.0
 10
5248.735149592594
 20
3034.066352735733
 30
0.0
 10
5248.734945898241
 20
3034.06567820493
 30
0.0
 10
5248.734826153626
 20
3034.065342434527
 30
0.0
 10
5248.734421849189
 20
3034.064364387016
 30
0.0
 10
5248.734092027252
 20
3034.063746600764
 30
0.0
 10
5248.733313706686
 20
3034.062578443021
 30
0.0
 10
5248.73286010419
 20
3034.062024531826
 30
0.0
 10
5248.731868426093
 20
3034.061031218555
 30
0.0
 10
5248.731327766978
 20
3034.060585994634
 30
0.0
 10
5248.730448413604
 20
3034.059996610054
 30
0.0
 10
5248.730142840996
 20
3034.059813005971
 30
0.0
 10
5248.729521758327
 20
3034.059480310626
 30
0.0
 10
5248.72920477978
 20
3034.059330109103
 30
0.0
 10
5248.728234889747
 20
3034.058927046942
 30
0.0
 10
5248.727560932501
 20
3034.058720812194
 30
0.0
 10
5248.726169931003
 20
3034.058442426867
 30
0.0
 10
5248.725467090208
 20
3034.058372653129
 30
0.0
 10
5248.72475687998
 20
3034.058372572055
 30
0.0
  0
SPLINE
  5
1678
330
1F
100
AcDbEntity
  8
SANINDUSA
100
AcDbSpline
210
0.0
220
0.0
230
1.0
 70
    11
 71
     3
 72
    95
 73
    91
 74
     0
 42
0.0000000001
 43
0.0000000001
 40
0.0
 40
0.0
 40
0.0
 40
0.0
 40
0.0312499999999944
 40
0.0312499999999944
 40
0.0468749999999914
 40
0.0468749999999914
 40
0.0624999999999884
 40
0.0624999999999884
 40
0.0937499999999833
 40
0.0937499999999833
 40
0.1093749999999824
 40
0.1093749999999824
 40
0.1249999999999816
 40
0.1249999999999816
 40
0.1562499999999816
 40
0.1562499999999816
 40
0.1718749999999817
 40
0.1718749999999817
 40
0.1874999999999817
 40
0.2031249999999817
 40
0.2031249999999817
 40
0.2187499999999817
 40
0.2187499999999817
 40
0.2499999999999817
 40
0.2499999999999817
 40
0.2656249999999818
 40
0.2656249999999818
 40
0.2812499999999818
 40
0.2812499999999818
 40
0.3124999999999823
 40
0.3124999999999823
 40
0.3281249999999815
 40
0.3281249999999815
 40
0.3437499999999807
 40
0.3437499999999807
 40
0.3749999999999789
 40
0.3749999999999789
 40
0.4062499999999772
 40
0.4062499999999772
 40
0.421874999999977
 40
0.421874999999977
 40
0.4374999999999769
 40
0.4374999999999769
 40
0.4687499999999765
 40
0.4687499999999765
 40
0.4999999999999761
 40
0.4999999999999761
 40
0.5312499999999759
 40
0.5312499999999759
 40
0.5468749999999766
 40
0.5468749999999766
 40
0.5624999999999774
 40
0.5781249999999782
 40
0.5781249999999782
 40
0.5937499999999788
 40
0.5937499999999788
 40
0.6249999999999804
 40
0.6249999999999804
 40
0.6406249999999839
 40
0.6406249999999839
 40
0.6562499999999872
 40
0.6562499999999872
 40
0.6874999999999894
 40
0.6874999999999894
 40
0.7031249999999904
 40
0.7031249999999904
 40
0.7187499999999913
 40
0.7187499999999913
 40
0.7499999999999899
 40
0.7499999999999899
 40
0.765624999999988
 40
0.765624999999988
 40
0.7812499999999862
 40
0.7968749999999842
 40
0.7968749999999842
 40
0.8124999999999824
 40
0.8124999999999824
 40
0.8437499999999804
 40
0.8437499999999804
 40
0.8749999999999785
 40
0.8749999999999785
 40
0.9062499999999767
 40
0.9062499999999767
 40
0.9218749999999783
 40
0.9218749999999783
 40
0.9374999999999822
 40
0.9374999999999822
 40
0.9687499999999911
 40
0.9687499999999911
 40
1.0
 40
1.0
 40
1.0
 40
1.0
 10
5249.044771392254
 20
3034.05837876753
 30
0.0
 10
5249.044061171458
 20
3034.058378922216
 30
0.0
 10
5249.043362826114
 20
3034.058448753985
 30
0.0
 10
5249.042332391735
 20
3034.058653737282
 30
0.0
 10
5249.041991782057
 20
3034.058738895226
 30
0.0
 10
5249.041316430314
 20
3034.058943638505
 30
0.0
 10
5249.04098077161
 20
3034.059063801612
 30
0.0
 10
5249.040004382742
 20
3034.059468636058
 30
0.0
 10
5249.039386934135
 20
3034.059798908496
 30
0.0
 10
5249.038510525598
 20
3034.060384076734
 30
0.0
 10
5249.03822580245
 20
3034.060594979899
 30
0.0
 10
5249.037677923251
 20
3034.061044629821
 30
0.0
 10
5249.037417199185
 20
3034.061281214245
 30
0.0
 10
5249.036673435391
 20
3034.062025144116
 30
0.0
 10
5249.036228440504
 20
3034.062566342651
 30
0.0
 10
5249.035639039038
 20
3034.063447627347
 30
0.0
 10
5249.035456036534
 20
3034.06375297257
 30
0.0
 10
5249.035124372131
 20
3034.064373570453
 30
0.0
 10
5249.034824744756
 20
3034.065007328941
 30
0.0
 10
5249.034588223213
 20
3034.065667010958
 30
0.0
 10
5249.03438368409
 20
3034.066339831221
 30
0.0
 10
5249.034297071553
 20
3034.066684656964
 30
0.0
 10
5249.034089945871
 20
3034.067725287025
 30
0.0
 10
5249.034021643787
 20
3034.068422701718
 30
0.0
 10
5249.034021068034
 20
3034.069474169438
 30
0.0
 10
5249.034037977912
 20
3034.06982555604
 30
0.0
 10
5249.034107041094
 20
3034.070530178589
 30
0.0
 10
5249.034159162905
 20
3034.070881271486
 30
0.0
 10
5249.034364802289
 20
3034.071915180894
 30
0.0
 10
5249.034567683082
 20
3034.072585186176
 30
0.0
 10
5249.034971231684
 20
3034.073561133178
 30
0.0
 10
5249.035123403055
 20
3034.073883271159
 30
0.0
 10
5249.035456231076
 20
3034.074506034531
 30
0.0
 10
5249.035636871766
 20
3034.074807211681
 30
0.0
 10
5249.036220447848
 20
3034.075680865534
 30
0.0
 10
5249.03666463069
 20
3034.076223756264
 30
0.0
 10
5249.037667554989
 20
3034.077227367289
 30
0.0
 10
5249.038211713663
 20
3034.077673113251
 30
0.0
 10
5249.039084823788
 20
3034.078257005159
 30
0.0
 10
5249.039385656426
 20
3034.078437656535
 30
0.0
 10
5249.040007325155
 20
3034.078770413376
 30
0.0
 10
5249.040329598326
 20
3034.078922957514
 30
0.0
 10
5249.041306716463
 20
3034.079327729932
 30
0.0
 10
5249.04197684322
 20
3034.079530958242
 30
0.0
 10
5249.043354060688
 20
3034.079805830925
 30
0.0
 10
5249.044066514577
 20
3034.079876226257
 30
0.0
 10
5249.045469656785
 20
3034.079876447861
 30
0.0
 10
5249.046166900949
 20
3034.07980855142
 30
0.0
 10
5249.047206145068
 20
3034.079602626924
 30
0.0
 10
5249.047551811219
 20
3034.07951616429
 30
0.0
 10
5249.048225691885
 20
3034.079311912405
 30
0.0
 10
5249.048886031351
 20
3034.079075717121
 30
0.0
 10
5249.04951974296
 20
3034.078776707278
 30
0.0
 10
5249.050139982809
 20
3034.078445917816
 30
0.0
 10
5249.050444719565
 20
3034.078263709411
 30
0.0
 10
5249.051328118952
 20
3034.077674090905
 30
0.0
 10
5249.051869907575
 20
3034.077229209099
 30
0.0
 10
5249.052614001428
 20
3034.076486519659
 30
0.0
 10
5249.052850518323
 20
3034.076226304328
 30
0.0
 10
5249.053299865122
 20
3034.075679846029
 30
0.0
 10
5249.053511773897
 20
3034.075394382327
 30
0.0
 10
5249.054098256383
 20
3034.074517606218
 30
0.0
 10
5249.054428841915
 20
3034.07390047684
 30
0.0
 10
5249.054833926699
 20
3034.07292576265
 30
0.0
 10
5249.05495424219
 20
3034.072590703432
 30
0.0
 10
5249.055159846902
 20
3034.071914549516
 30
0.0
 10
5249.055245320928
 20
3034.071573716936
 30
0.0
 10
5249.055451095244
 20
3034.070543165031
 30
0.0
 10
5249.055521238246
 20
3034.069845469533
 30
0.0
 10
5249.05552233631
 20
3034.068782369643
 30
0.0
 10
5249.055505096286
 20
3034.068428581269
 30
0.0
 10
5249.055436696518
 20
3034.067729523406
 30
0.0
 10
5249.055334385493
 20
3034.067036623781
 30
0.0
 10
5249.055164915191
 20
3034.066355920317
 30
0.0
 10
5249.054961218527
 20
3034.065681432446
 30
0.0
 10
5249.054841469364
 20
3034.065345681931
 30
0.0
 10
5249.054437126245
 20
3034.064367672829
 30
0.0
 10
5249.054107270742
 20
3034.063749947169
 30
0.0
 10
5249.053328879641
 20
3034.062581973072
 30
0.0
 10
5249.05287522642
 20
3034.062028167761
 30
0.0
 10
5249.051883424385
 20
3034.061035103107
 30
0.0
 10
5249.05134270583
 20
3034.060590035592
 30
0.0
 10
5249.050463275457
 20
3034.060000924908
 30
0.0
 10
5249.05015767074
 20
3034.059817413672
 30
0.0
 10
5249.049536522534
 20
3034.059484910691
 30
0.0
 10
5249.049219513968
 20
3034.059334810776
 30
0.0
 10
5249.04824954319
 20
3034.05893206626
 30
0.0
 10
5249.04757555369
 20
3034.058726062889
 30
0.0
 10
5249.046184478476
 20
3034.058448147528
 30
0.0
 10
5249.045481613049
 20
3034.058378612844
 30
0.0
 10
5249.044771392254
 20
3034.05837876753
 30
0.0
  0
SPLINE
  5
167A
330
1F
100
AcDbEntity
  8
SANINDUSA
100
AcDbSpline
210
0.0
220
0.0
230
1.0
 70
    11
 71
     3
 72
    95
 73
    91
 74
     0
 42
0.0000000001
 43
0.0000000001
 40
0.0
 40
0.0
 40
0.0
 40
0.0
 40
0.0312500000000003
 40
0.0312500000000003
 40
0.0468750000000007
 40
0.0468750000000007
 40
0.0625000000000011
 40
0.0625000000000011
 40
0.0937500000000018
 40
0.0937500000000018
 40
0.1093750000000022
 40
0.1093750000000022
 40
0.1250000000000026
 40
0.1250000000000026
 40
0.1562500000000024
 40
0.1562500000000024
 40
0.1718750000000023
 40
0.1718750000000023
 40
0.1875000000000023
 40
0.2031250000000022
 40
0.2031250000000022
 40
0.2187500000000021
 40
0.2187500000000021
 40
0.2499999999999996
 40
0.2499999999999996
 40
0.2656249999999995
 40
0.2656249999999995
 40
0.2812499999999995
 40
0.2812499999999995
 40
0.3124999999999972
 40
0.3124999999999972
 40
0.328124999999996
 40
0.328124999999996
 40
0.3437499999999949
 40
0.3437499999999949
 40
0.374999999999992
 40
0.374999999999992
 40
0.4062499999999891
 40
0.4062499999999891
 40
0.4218749999999871
 40
0.4218749999999871
 40
0.4374999999999851
 40
0.4374999999999851
 40
0.4687499999999835
 40
0.4687499999999835
 40
0.4999999999999818
 40
0.4999999999999818
 40
0.5312499999999801
 40
0.5312499999999801
 40
0.5468749999999805
 40
0.5468749999999805
 40
0.5624999999999809
 40
0.5781249999999812
 40
0.5781249999999812
 40
0.5937499999999815
 40
0.5937499999999815
 40
0.6249999999999803
 40
0.6249999999999803
 40
0.6406249999999805
 40
0.6406249999999805
 40
0.6562499999999807
 40
0.6562499999999807
 40
0.6874999999999805
 40
0.6874999999999805
 40
0.7031249999999804
 40
0.7031249999999804
 40
0.7187499999999803
 40
0.7187499999999803
 40
0.7499999999999806
 40
0.7499999999999806
 40
0.7656249999999807
 40
0.7656249999999807
 40
0.7812499999999809
 40
0.796874999999981
 40
0.796874999999981
 40
0.8124999999999811
 40
0.8124999999999811
 40
0.8437499999999845
 40
0.8437499999999845
 40
0.874999999999988
 40
0.874999999999988
 40
0.9062499999999914
 40
0.9062499999999914
 40
0.9218749999999932
 40
0.9218749999999932
 40
0.937499999999995
 40
0.937499999999995
 40
0.9687499999999975
 40
0.9687499999999975
 40
1.0
 40
1.0
 40
1.0
 40
1.0
 10
5248.804754772771
 20
3034.0583822201
 30
0.0
 10
5248.804044544077
 20
3034.058382080417
 30
0.0
 10
5248.803346177472
 20
3034.058451620396
 30
0.0
 10
5248.802315693653
 20
3034.058656180128
 30
0.0
 10
5248.801975064544
 20
3034.058741199228
 30
0.0
 10
5248.80129966819
 20
3034.058945671402
 30
0.0
 10
5248.800963984477
 20
3034.0590657019
 30
0.0
 10
5248.799987519564
 20
3034.059470157037
 30
0.0
 10
5248.799370016139
 20
3034.05980019897
 30
0.0
 10
5248.798493522261
 20
3034.060385060526
 30
0.0
 10
5248.79820876843
 20
3034.060595869086
 30
0.0
 10
5248.79766083603
 20
3034.061045338968
 30
0.0
 10
5248.797400086862
 20
3034.06128184073
 30
0.0
 10
5248.796656252358
 20
3034.062025544219
 30
0.0
 10
5248.796211216349
 20
3034.062566620396
 30
0.0
 10
5248.795621764159
 20
3034.063447766784
 30
0.0
 10
5248.795438752501
 20
3034.063753064283
 30
0.0
 10
5248.795107072758
 20
3034.064373581151
 30
0.0
 10
5248.794807433714
 20
3034.065007272265
 30
0.0
 10
5248.79457090784
 20
3034.065666913667
 30
0.0
 10
5248.794366368279
 20
3034.066339706852
 30
0.0
 10
5248.794279757042
 20
3034.066684530566
 30
0.0
 10
5248.794072652936
 20
3034.06772510414
 30
0.0
 10
5248.794004365985
 20
3034.068422507996
 30
0.0
 10
5248.794003816822
 20
3034.069473998076
 30
0.0
 10
5248.794020736216
 20
3034.069825398614
 30
0.0
 10
5248.794089820366
 20
3034.070530062307
 30
0.0
 10
5248.794141948346
 20
3034.070881145832
 30
0.0
 10
5248.794347605169
 20
3034.071915084849
 30
0.0
 10
5248.794550493656
 20
3034.072585139585
 30
0.0
 10
5248.794954054451
 20
3034.073561203082
 30
0.0
 10
5248.795106228953
 20
3034.073883383256
 30
0.0
 10
5248.795439040567
 20
3034.074506207125
 30
0.0
 10
5248.795619672175
 20
3034.074807423268
 30
0.0
 10
5248.79620322065
 20
3034.075681218027
 30
0.0
 10
5248.796647384587
 20
3034.07622423438
 30
0.0
 10
5248.797650280963
 20
3034.07722815443
 30
0.0
 10
5248.798194367651
 20
3034.077674027575
 30
0.0
 10
5248.799067426453
 20
3034.078258193828
 30
0.0
 10
5248.799368244053
 20
3034.078438943303
 30
0.0
 10
5248.799989888025
 20
3034.078771908415
 30
0.0
 10
5248.80031214434
 20
3034.078924559484
 30
0.0
 10
5248.801289201734
 20
3034.079329658292
 30
0.0
 10
5248.801959301252
 20
3034.079533124126
 30
0.0
 10
5248.803336494583
 20
3034.079808497093
 30
0.0
 10
5248.804048942758
 20
3034.079879155673
 30
0.0
 10
5248.805452091193
 20
3034.079879900966
 30
0.0
 10
5248.80614935341
 20
3034.079812267262
 30
0.0
 10
5248.807188646871
 20
3034.079606729061
 30
0.0
 10
5248.807534330329
 20
3034.079520394619
 30
0.0
 10
5248.808208249041
 20
3034.079316391613
 30
0.0
 10
5248.808868630963
 20
3034.07908043749
 30
0.0
 10
5248.809502393629
 20
3034.078781653631
 30
0.0
 10
5248.81012268831
 20
3034.078451081185
 30
0.0
 10
5248.810427455958
 20
3034.078268976216
 30
0.0
 10
5248.811310938306
 20
3034.077679658445
 30
0.0
 10
5248.811852782685
 20
3034.077234954256
 30
0.0
 10
5248.812596957725
 20
3034.076492494791
 30
0.0
 10
5248.812833501269
 20
3034.076232349993
 30
0.0
 10
5248.81328289981
 20
3034.075686019395
 30
0.0
 10
5248.813494827676
 20
3034.075400620242
 30
0.0
 10
5248.814081365403
 20
3034.07452401468
 30
0.0
 10
5248.814411981225
 20
3034.073906974193
 30
0.0
 10
5248.814817098602
 20
3034.072932354208
 30
0.0
 10
5248.814937422638
 20
3034.072597318877
 30
0.0
 10
5248.81514303145
 20
3034.071921229342
 30
0.0
 10
5248.81522850606
 20
3034.071580422795
 30
0.0
 10
5248.815434277236
 20
3034.070549930773
 30
0.0
 10
5248.815504411715
 20
3034.069852251102
 30
0.0
 10
5248.815505484108
 20
3034.068789136435
 30
0.0
 10
5248.81548823507
 20
3034.068435372983
 30
0.0
 10
5248.815419816757
 20
3034.067736322783
 30
0.0
 10
5248.815317488336
 20
3034.067043417071
 30
0.0
 10
5248.815147997944
 20
3034.066362680952
 30
0.0
 10
5248.814944279625
 20
3034.065688146798
 30
0.0
 10
5248.814824521298
 20
3034.065352375177
 30
0.0
 10
5248.814420173161
 20
3034.064374326272
 30
0.0
 10
5248.81409031778
 20
3034.063756539872
 30
0.0
 10
5248.813311925932
 20
3034.06258838062
 30
0.0
 10
5248.812858288436
 20
3034.062034472408
 30
0.0
 10
5248.811866547701
 20
3034.061041161031
 30
0.0
 10
5248.811325857599
 20
3034.060595933394
 30
0.0
 10
5248.810446459657
 20
3034.060006534311
 30
0.0
 10
5248.810140876143
 20
3034.059822926148
 30
0.0
 10
5248.809519774398
 20
3034.059490218839
 30
0.0
 10
5248.809202786326
 20
3034.059340008886
 30
0.0
 10
5248.808232867713
 20
3034.058936914348
 30
0.0
 10
5248.807558887056
 20
3034.058730647736
 30
0.0
 10
5248.806167858173
 20
3034.058452183297
 30
0.0
 10
5248.805465001464
 20
3034.058382359782
 30
0.0
 10
5248.804754772771
 20
3034.0583822201
 30
0.0
  0
SPLINE
  5
167C
330
1F
100
AcDbEntity
  8
SANINDUSA
100
AcDbSpline
210
0.0
220
0.0
230
1.0
 70
    11
 71
     3
 72
    26
 73
    22
 74
     0
 42
0.0000000001
 43
0.0000000001
 40
0.0
 40
0.0
 40
0.0
 40
0.0
 40
0.0536971941793892
 40
0.1073941864502901
 40
0.1610901401027016
 40
0.2147816479220371
 40
0.2684670836125568
 40
0.3221488554371092
 40
0.3758301595078988
 40
0.4295138279544849
 40
0.4832023697240695
 40
0.536894745210056
 40
0.5905898338920134
 40
0.6442853066681051
 40
0.6979782993854534
 40
0.7516672726967359
 40
0.8053512090706222
 40
0.8590322066286027
 40
0.9127137004564886
 40
0.9663989521949282
 40
1.0
 40
1.0
 40
1.0
 40
1.0
 10
5248.964767950477
 20
3034.058389913866
 30
0.0
 10
5248.963558845915
 20
3034.058508956118
 30
0.0
 10
5248.961140641335
 20
3034.058747040174
 30
0.0
 10
5248.957922383717
 20
3034.060600608179
 30
0.0
 10
5248.955476105074
 20
3034.063329898726
 30
0.0
 10
5248.954077685876
 20
3034.066737337882
 30
0.0
 10
5248.953884682036
 20
3034.070409012475
 30
0.0
 10
5248.954918617205
 20
3034.073938875969
 30
0.0
 10
5248.957062745031
 20
3034.076927082403
 30
0.0
 10
5248.960075506076
 20
3034.079037421959
 30
0.0
 10
5248.963617360988
 20
3034.080031915767
 30
0.0
 10
5248.967289156881
 20
3034.079798211694
 30
0.0
 10
5248.970676855431
 20
3034.078362542832
 30
0.0
 10
5248.973398368441
 20
3034.075886655184
 30
0.0
 10
5248.975146717472
 20
3034.072649900564
 30
0.0
 10
5248.975724725859
 20
3034.069016986447
 30
0.0
 10
5248.975067605672
 20
3034.065399259046
 30
0.0
 10
5248.973249068953
 20
3034.062198421456
 30
0.0
 10
5248.970476100989
 20
3034.059797841778
 30
0.0
 10
5248.967480849949
 20
3034.058559650852
 30
0.0
 10
5248.965522010077
 20
3034.058437092837
 30
0.0
 10
5248.964767950477
 20
3034.058389913866
 30
0.0
  0
SPLINE
  5
167E
330
1F
100
AcDbEntity
  8
SANINDUSA
100
AcDbSpline
210
0.0
220
0.0
230
1.0
 70
    11
 71
     3
 72
    26
 73
    22
 74
     0
 42
0.0000000001
 43
0.0000000001
 40
0.0
 40
0.0
 40
0.0
 40
0.0
 40
0.053696282994627
 40
0.1073918189227639
 40
0.1610821577332648
 40
0.2147668831300358
 40
0.2684481956581867
 40
0.3221294646606981
 40
0.3758138309738471
 40
0.4295029618560592
 40
0.4831960963438639
 40
0.5368916771159334
 40
0.5905867741477694
 40
0.6442793521420311
 40
0.6979668570102552
 40
0.7516504943556233
 40
0.8053313676137383
 40
0.859013264763783
 40
0.9126992436657996
 40
0.9663912203082421
 40
1.0
 40
1.0
 40
1.0
 40
1.0
 10
5248.884759264888
 20
3034.05839137418
 30
0.0
 10
5248.883550158576
 20
3034.058510120472
 30
0.0
 10
5248.881131962775
 20
3034.058747611401
 30
0.0
 10
5248.877913655372
 20
3034.060600365252
 30
0.0
 10
5248.875467408711
 20
3034.063328965156
 30
0.0
 10
5248.874068866183
 20
3034.06673578089
 30
0.0
 10
5248.873875563464
 20
3034.070407163817
 30
0.0
 10
5248.874909022493
 20
3034.07393726768
 30
0.0
 10
5248.877052887046
 20
3034.076926158418
 30
0.0
 10
5248.880065566737
 20
3034.079037503833
 30
0.0
 10
5248.883607600697
 20
3034.080033013091
 30
0.0
 10
5248.887279634695
 20
3034.079800154272
 30
0.0
 10
5248.890667537517
 20
3034.078365263119
 30
0.0
 10
5248.893389154844
 20
3034.07589006089
 30
0.0
 10
5248.895137615909
 20
3034.072653947932
 30
0.0
 10
5248.895715895219
 20
3034.069021509258
 30
0.0
 10
5248.895059181421
 20
3034.065403849589
 30
0.0
 10
5248.893241008256
 20
3034.06220254309
 30
0.0
 10
5248.890468147386
 20
3034.059801071079
 30
0.0
 10
5248.887472671913
 20
3034.058561805104
 30
0.0
 10
5248.885513500674
 20
3034.058438748239
 30
0.0
 10
5248.884759264888
 20
3034.05839137418
 30
0.0
  0
SPLINE
  5
1680
330
1F
100
AcDbEntity
  8
SANINDUSA
100
AcDbSpline
210
0.0
220
0.0
230
1.0
 70
    11
 71
     3
 72
    26
 73
    22
 74
     0
 42
0.0000000001
 43
0.0000000001
 40
0.0
 40
0.0
 40
0.0
 40
0.0
 40
0.0536800298596057
 40
0.1073600527365595
 40
0.1610442586885008
 40
0.2147347239819318
 40
0.2684306543295806
 40
0.3221280908245616
 40
0.3758237735942107
 40
0.4295137531926568
 40
0.4831990954438233
 40
0.53688019355566
 40
0.5905613867618209
 40
0.6442450244444606
 40
0.6979330151130453
 40
0.7516261328086042
 40
0.8053228530460433
 40
0.8590198576966228
 40
0.9127129881268093
 40
0.9664006702970898
 40
1.0
 40
1.0
 40
1.0
 40
1.0
 10
5249.124767827691
 20
3033.97837997658
 30
0.0
 10
5249.123559225164
 20
3033.978498875978
 30
0.0
 10
5249.121142020265
 20
3033.978736674757
 30
0.0
 10
5249.117924882646
 20
3033.980589413019
 30
0.0
 10
5249.115479099053
 20
3033.983317899125
 30
0.0
 10
5249.114080175941
 20
3033.986724898931
 30
0.0
 10
5249.113886228413
 20
3033.990396991114
 30
0.0
 10
5249.114919290819
 20
3033.993927945987
 30
0.0
 10
5249.117062968966
 20
3033.996917259348
 30
0.0
 10
5249.120075319719
 20
3033.999028408409
 30
0.0
 10
5249.123616535563
 20
3034.00002327273
 30
0.0
 10
5249.127287333454
 20
3033.999790031737
 30
0.0
 10
5249.130674039509
 20
3033.998355099132
 30
0.0
 10
5249.133394959456
 20
3033.995880107476
 30
0.0
 10
5249.135143560855
 20
3033.992644126728
 30
0.0
 10
5249.135722353251
 20
3033.989011236407
 30
0.0
 10
5249.135066109932
 20
3033.985392697396
 30
0.0
 10
5249.133248124245
 20
3033.982190594343
 30
0.0
 10
5249.130475474852
 20
3033.979788852835
 30
0.0
 10
5249.127480428281
 20
3033.9785499471
 30
0.0
 10
5249.125521771937
 20
3033.97842721844
 30
0.0
 10
5249.124767827691
 20
3033.97837997658
 30
0.0
  0
SPLINE
  5
1682
330
1F
100
AcDbEntity
  8
SANINDUSA
100
AcDbSpline
210
0.0
220
0.0
230
1.0
 70
    11
 71
     3
 72
    26
 73
    22
 74
     0
 42
0.0000000001
 43
0.0000000001
 40
0.0
 40
0.0
 40
0.0
 40
0.0
 40
0.0536816366056663
 40
0.1073634099058661
 40
0.1610467312395287
 40
0.2147339338105202
 40
0.2684260907287533
 40
0.3221209810785004
 40
0.3758159763027947
 40
0.429508154547321
 40
0.4831962844705437
 40
0.5368810221596029
 40
0.5905639551286816
 40
0.6442473756723477
 40
0.6979336495440799
 40
0.7516230741458237
 40
0.80531661601809
 40
0.8590118023021922
 40
0.9127059472377821
 40
0.9663964215269269
 40
1.0
 40
1.0
 40
1.0
 40
1.0
 10
5248.724755617679
 20
3033.978383731673
 30
0.0
 10
5248.723546953957
 20
3033.978502406414
 30
0.0
 10
5248.721129623433
 20
3033.978739756198
 30
0.0
 10
5248.717912378304
 20
3033.980592084202
 30
0.0
 10
5248.715466464943
 20
3033.983320103998
 30
0.0
 10
5248.714067606975
 20
3033.986726804364
 30
0.0
 10
5248.713873679994
 20
3033.990398686519
 30
0.0
 10
5248.714906682534
 20
3033.993929672511
 30
0.0
 10
5248.717050272226
 20
3033.99691937282
 30
0.0
 10
5248.720062684771
 20
3033.999031106976
 30
0.0
 10
5248.723604075827
 20
3034.000026719776
 30
0.0
 10
5248.727275130519
 20
3033.999794128953
 30
0.0
 10
5248.730662006001
 20
3033.998359666937
 30
0.0
 10
5248.733383052425
 20
3033.995885125023
 30
0.0
 10
5248.735131550385
 20
3033.992649427784
 30
0.0
 10
5248.735710358222
 20
3033.989016799412
 30
0.0
 10
5248.735054168053
 20
3033.985398336636
 30
0.0
 10
5248.733236307683
 20
3033.982196000778
 30
0.0
 10
5248.730463687192
 20
3033.979793733549
 30
0.0
 10
5248.727468495001
 20
3033.978554217738
 30
0.0
 10
5248.725509663768
 20
3033.978431118391
 30
0.0
 10
5248.724755617679
 20
3033.978383731673
 30
0.0
  0
SPLINE
  5
1684
330
1F
100
AcDbEntity
  8
SANINDUSA
100
AcDbSpline
210
0.0
220
0.0
230
1.0
 70
    11
 71
     3
 72
    26
 73
    22
 74
     0
 42
0.0000000001
 43
0.0000000001
 40
0.0
 40
0.0
 40
0.0
 40
0.0
 40
0.0536899953065053
 40
0.1073809032214177
 40
0.1610760235397245
 40
0.2147719414953613
 40
0.2684650586184404
 40
0.3221538144396856
 40
0.375838760187799
 40
0.4295217090464841
 40
0.4832047891432496
 40
0.5368908802055983
 40
0.5905798943402086
 40
0.6442723038043519
 40
0.6979665646456401
 40
0.7516608891943565
 40
0.8053526421011261
 40
0.8590407997460548
 40
0.912724336840173
 40
0.9664055365509547
 40
1.0
 40
1.0
 40
1.0
 40
1.0
 10
5249.044774937334
 20
3033.97839100344
 30
0.0
 10
5249.0435660912
 20
3033.978510178026
 30
0.0
 10
5249.041148378387
 20
3033.978748529224
 30
0.0
 10
5249.037930748305
 20
3033.980602359595
 30
0.0
 10
5249.03548466576
 20
3033.983331784688
 30
0.0
 10
5249.034086109467
 20
3033.986739550135
 30
0.0
 10
5249.033892952219
 20
3033.990411671672
 30
0.0
 10
5249.034926684952
 20
3033.993941933673
 30
0.0
 10
5249.037070805403
 20
3033.996930140713
 30
0.0
 10
5249.04008329095
 20
3033.999040220422
 30
0.0
 10
5249.043624671542
 20
3034.000034190052
 30
0.0
 10
5249.047295789389
 20
3033.999800141651
 30
0.0
 10
5249.050682866942
 20
3033.998364238443
 30
0.0
 10
5249.053404008619
 20
3033.99588826852
 30
0.0
 10
5249.055152356805
 20
3033.992651378147
 30
0.0
 10
5249.055730486308
 20
3033.989018109088
 30
0.0
 10
5249.055073527376
 20
3033.985399898993
 30
0.0
 10
5249.053255009703
 20
3033.982198737849
 30
0.0
 10
5249.050482165396
 20
3033.979798193684
 30
0.0
 10
5249.047487254301
 20
3033.978560376477
 30
0.0
 10
5249.045528794682
 20
3033.97843807873
 30
0.0
 10
5249.044774937334
 20
3033.97839100344
 30
0.0
  0
SPLINE
  5
1686
330
1F
100
AcDbEntity
  8
SANINDUSA
100
AcDbSpline
210
0.0
220
0.0
230
1.0
 70
    11
 71
     3
 72
    95
 73
    91
 74
     0
 42
0.0000000001
 43
0.0000000001
 40
0.0
 40
0.0
 40
0.0
 40
0.0
 40
0.0312499999999953
 40
0.0312499999999953
 40
0.0468749999999926
 40
0.0468749999999926
 40
0.06249999999999
 40
0.06249999999999
 40
0.0937499999999871
 40
0.0937499999999871
 40
0.109374999999985
 40
0.109374999999985
 40
0.1249999999999831
 40
0.1249999999999831
 40
0.1562499999999809
 40
0.1562499999999809
 40
0.1718749999999804
 40
0.1718749999999804
 40
0.18749999999998
 40
0.2031249999999795
 40
0.2031249999999795
 40
0.2187499999999791
 40
0.2187499999999791
 40
0.2499999999999756
 40
0.2499999999999756
 40
0.2656249999999725
 40
0.2656249999999725
 40
0.2812499999999696
 40
0.2812499999999696
 40
0.3124999999999636
 40
0.3124999999999636
 40
0.3281249999999609
 40
0.3281249999999609
 40
0.3437499999999581
 40
0.3437499999999581
 40
0.3749999999999552
 40
0.3749999999999552
 40
0.4062499999999526
 40
0.4062499999999526
 40
0.4218749999999514
 40
0.4218749999999514
 40
0.4374999999999501
 40
0.4374999999999501
 40
0.4687499999999477
 40
0.4687499999999477
 40
0.4999999999999453
 40
0.4999999999999453
 40
0.5312499999999428
 40
0.5312499999999428
 40
0.546874999999942
 40
0.546874999999942
 40
0.562499999999941
 40
0.5781249999999401
 40
0.5781249999999401
 40
0.5937499999999392
 40
0.5937499999999392
 40
0.6249999999999386
 40
0.6249999999999386
 40
0.6406249999999389
 40
0.6406249999999389
 40
0.6562499999999396
 40
0.6562499999999396
 40
0.687499999999942
 40
0.687499999999942
 40
0.7031249999999437
 40
0.7031249999999437
 40
0.7187499999999454
 40
0.7187499999999454
 40
0.7499999999999489
 40
0.7499999999999489
 40
0.7656249999999519
 40
0.7656249999999519
 40
0.7812499999999548
 40
0.7968749999999578
 40
0.7968749999999578
 40
0.8124999999999607
 40
0.8124999999999607
 40
0.8437499999999666
 40
0.8437499999999666
 40
0.8749999999999724
 40
0.8749999999999724
 40
0.9062499999999783
 40
0.9062499999999783
 40
0.921874999999982
 40
0.921874999999982
 40
0.9374999999999856
 40
0.9374999999999856
 40
0.9687499999999928
 40
0.9687499999999928
 40
1.0
 40
1.0
 40
1.0
 40
1.0
 10
5248.804751566749
 20
3033.978395416117
 30
0.0
 10
5248.8040413486
 20
3033.978395244057
 30
0.0
 10
5248.803342991704
 20
3033.978464752507
 30
0.0
 10
5248.802312521297
 20
3033.978669266829
 30
0.0
 10
5248.801971896464
 20
3033.978754271106
 30
0.0
 10
5248.801296508282
 20
3033.978958714374
 30
0.0
 10
5248.800960828385
 20
3033.979078730785
 30
0.0
 10
5248.799984374288
 20
3033.979483145796
 30
0.0
 10
5248.799366877362
 20
3033.97981316346
 30
0.0
 10
5248.798490392323
 20
3033.980397992554
 30
0.0
 10
5248.79820564134
 20
3033.980608790884
 30
0.0
 10
5248.797657714058
 20
3033.981058242077
 30
0.0
 10
5248.797396967358
 20
3033.981294735293
 30
0.0
 10
5248.796653139982
 20
3033.98203841545
 30
0.0
 10
5248.796208108364
 20
3033.982579479119
 30
0.0
 10
5248.795618662272
 20
3033.98346061139
 30
0.0
 10
5248.795435652694
 20
3033.983765904771
 30
0.0
 10
5248.795103976897
 20
3033.984386414967
 30
0.0
 10
5248.794804341609
 20
3033.985020100933
 30
0.0
 10
5248.794567819111
 20
3033.985679740164
 30
0.0
 10
5248.79436328274
 20
3033.986352532677
 30
0.0
 10
5248.794276672994
 20
3033.986697356995
 30
0.0
 10
5248.794069573477
 20
3033.987737931948
 30
0.0
 10
5248.794001288882
 20
3033.988435339589
 30
0.0
 10
5248.794000742363
 20
3033.989486839512
 30
0.0
 10
5248.79401766249
 20
3033.989838244029
 30
0.0
 10
5248.794086747842
 20
3033.990542917126
 30
0.0
 10
5248.794138876054
 20
3033.990894004445
 30
0.0
 10
5248.794344533013
 20
3033.991927958324
 30
0.0
 10
5248.794547420734
 20
3033.992598025609
 30
0.0
 10
5248.794950979434
 20
3033.993574111842
 30
0.0
 10
5248.79510315302
 20
3033.993896300108
 30
0.0
 10
5248.795435961389
 20
3033.994519139383
 30
0.0
 10
5248.795616591173
 20
3033.994820363849
 30
0.0
 10
5248.796200133685
 20
3033.995694185333
 30
0.0
 10
5248.79664429299
 20
3033.996237221824
 30
0.0
 10
5248.7976471792
 20
3033.997241186705
 30
0.0
 10
5248.798191256917
 20
3033.997687080961
 30
0.0
 10
5248.799064304395
 20
3033.99827128394
 30
0.0
 10
5248.799365118162
 20
3033.998452046102
 30
0.0
 10
5248.799986754374
 20
3033.998785037446
 30
0.0
 10
5248.800309006251
 20
3033.99893770186
 30
0.0
 10
5248.801286049165
 20
3033.999342840875
 30
0.0
 10
5248.801956139256
 20
3033.999546334694
 30
0.0
 10
5248.803333314289
 20
3033.999821765422
 30
0.0
 10
5248.804045752633
 20
3033.999892453867
 30
0.0
 10
5248.805448882089
 20
3033.999893258312
 30
0.0
 10
5248.806146135574
 20
3033.999825654132
 30
0.0
 10
5248.807185417023
 20
3033.999620159646
 30
0.0
 10
5248.807531096363
 20
3033.99953383976
 30
0.0
 10
5248.808205007156
 20
3033.99932986466
 30
0.0
 10
5248.808865381981
 20
3033.999093938523
 30
0.0
 10
5248.809499138282
 20
3033.998795180731
 30
0.0
 10
5248.81011942701
 20
3033.998464633488
 30
0.0
 10
5248.810424191898
 20
3033.998282540725
 30
0.0
 10
5248.811307666441
 20
3033.997693257811
 30
0.0
 10
5248.811849506336
 20
3033.997248574272
 30
0.0
 10
5248.812593675371
 20
3033.996506141639
 30
0.0
 10
5248.812830217032
 20
3033.996246005088
 30
0.0
 10
5248.813279611994
 20
3033.995699689479
 30
0.0
 10
5248.813491538196
 20
3033.995414296989
 30
0.0
 10
5248.814078070921
 20
3033.994537709045
 30
0.0
 10
5248.814408683505
 20
3033.993920677172
 30
0.0
 10
5248.814813795945
 20
3033.992946065229
 30
0.0
 10
5248.814934118319
 20
3033.992611031714
 30
0.0
 10
5248.815139723614
 20
3033.991934944715
 30
0.0
 10
5248.815225196452
 20
3033.991594138682
 30
0.0
 10
5248.815430962281
 20
3033.990563645989
 30
0.0
 10
5248.815501093162
 20
3033.989865962943
 30
0.0
 10
5248.815502160161
 20
3033.988802838625
 30
0.0
 10
5248.815484909401
 20
3033.988449072545
 30
0.0
 10
5248.815416487917
 20
3033.987750014765
 30
0.0
 10
5248.815314156565
 20
3033.987057100145
 30
0.0
 10
5248.815144663782
 20
3033.986376352468
 30
0.0
 10
5248.814940943381
 20
3033.985701805399
 30
0.0
 10
5248.814821184294
 20
3033.985366027069
 30
0.0
 10
5248.814416835733
 20
3033.984387958568
 30
0.0
 10
5248.814086981166
 20
3033.983770156404
 30
0.0
 10
5248.813308593082
 20
3033.982601960354
 30
0.0
 10
5248.812854959652
 20
3033.982048032355
 30
0.0
 10
5248.811863231093
 20
3033.981054678309
 30
0.0
 10
5248.811322548035
 20
3033.980609426687
 30
0.0
 10
5248.810443161777
 20
3033.980019987988
 30
0.0
 10
5248.810137583215
 20
3033.979836366507
 30
0.0
 10
5248.80951649207
 20
3033.979503631963
 30
0.0
 10
5248.809199509338
 20
3033.979353407881
 30
0.0
 10
5248.808229606765
 20
3033.978950269667
 30
0.0
 10
5248.807555635886
 20
3033.978743971936
 30
0.0
 10
5248.806164630394
 20
3033.978465444034
 30
0.0
 10
5248.805461784899
 20
3033.978395588177
 30
0.0
 10
5248.804751566749
 20
3033.978395416117
 30
0.0
  0
SPLINE
  5
1688
330
1F
100
AcDbEntity
  8
SANINDUSA
100
AcDbSpline
210
0.0
220
0.0
230
1.0
 70
    11
 71
     3
 72
    95
 73
    91
 74
     0
 42
0.0000000001
 43
0.0000000001
 40
0.0
 40
0.0
 40
0.0
 40
0.0
 40
0.0312500000000027
 40
0.0312500000000027
 40
0.0468750000000026
 40
0.0468750000000026
 40
0.0625000000000026
 40
0.0625000000000026
 40
0.0937500000000024
 40
0.0937500000000024
 40
0.1093750000000013
 40
0.1093750000000013
 40
0.1250000000000001
 40
0.1250000000000001
 40
0.1562499999999979
 40
0.1562499999999979
 40
0.1718749999999978
 40
0.1718749999999978
 40
0.1874999999999977
 40
0.2031249999999977
 40
0.2031249999999977
 40
0.2187499999999976
 40
0.2187499999999976
 40
0.2499999999999998
 40
0.2499999999999998
 40
0.2656250000000022
 40
0.2656250000000022
 40
0.2812500000000045
 40
0.2812500000000045
 40
0.3125000000000068
 40
0.3125000000000068
 40
0.3281250000000064
 40
0.3281250000000064
 40
0.3437500000000059
 40
0.3437500000000059
 40
0.3750000000000063
 40
0.3750000000000063
 40
0.4062500000000069
 40
0.4062500000000069
 40
0.4218750000000078
 40
0.4218750000000078
 40
0.4375000000000087
 40
0.4375000000000087
 40
0.4687500000000105
 40
0.4687500000000105
 40
0.5000000000000124
 40
0.5000000000000124
 40
0.5312500000000142
 40
0.5312500000000142
 40
0.5468750000000151
 40
0.5468750000000151
 40
0.562500000000016
 40
0.5781250000000169
 40
0.5781250000000169
 40
0.5937500000000179
 40
0.5937500000000179
 40
0.625000000000021
 40
0.625000000000021
 40
0.6406250000000218
 40
0.6406250000000218
 40
0.6562500000000224
 40
0.6562500000000224
 40
0.6875000000000224
 40
0.6875000000000224
 40
0.7031250000000219
 40
0.7031250000000219
 40
0.7187500000000213
 40
0.7187500000000213
 40
0.7500000000000204
 40
0.7500000000000204
 40
0.7656250000000188
 40
0.7656250000000188
 40
0.7812500000000171
 40
0.7968750000000155
 40
0.7968750000000155
 40
0.8125000000000138
 40
0.8125000000000138
 40
0.8437500000000115
 40
0.8437500000000115
 40
0.8750000000000092
 40
0.8750000000000092
 40
0.9062500000000069
 40
0.9062500000000069
 40
0.9218750000000062
 40
0.9218750000000062
 40
0.9375000000000053
 40
0.9375000000000053
 40
0.9687500000000026
 40
0.9687500000000026
 40
1.0
 40
1.0
 40
1.0
 40
1.0
 10
5248.964770539981
 20
3033.978406053746
 30
0.0
 10
5248.964060271578
 20
3033.978406190514
 30
0.0
 10
5248.963361874496
 20
3033.978475988544
 30
0.0
 10
5248.96233135714
 20
3033.978680901531
 30
0.0
 10
5248.961990718898
 20
3033.978766032713
 30
0.0
 10
5248.961315308257
 20
3033.978970716065
 30
0.0
 10
5248.960979613323
 20
3033.979090847723
 30
0.0
 10
5248.960003106916
 20
3033.979495587484
 30
0.0
 10
5248.95938557835
 20
3033.97982579101
 30
0.0
 10
5248.958509048888
 20
3033.980410850123
 30
0.0
 10
5248.958224293226
 20
3033.98062170888
 30
0.0
 10
5248.957676307044
 20
3033.981071304876
 30
0.0
 10
5248.957415531889
 20
3033.981307862883
 30
0.0
 10
5248.956671621666
 20
3033.982051715117
 30
0.0
 10
5248.95622653822
 20
3033.982592864043
 30
0.0
 10
5248.955637017316
 20
3033.9834740778
 30
0.0
 10
5248.955453965701
 20
3033.983779418885
 30
0.0
 10
5248.955122217163
 20
3033.984400007003
 30
0.0
 10
5248.954822515975
 20
3033.985033756473
 30
0.0
 10
5248.954585939259
 20
3033.985693430425
 30
0.0
 10
5248.954381353616
 20
3033.986366242846
 30
0.0
 10
5248.954294722429
 20
3033.986711060747
 30
0.0
 10
5248.954087543803
 20
3033.987751730783
 30
0.0
 10
5248.954019231398
 20
3033.988449166719
 30
0.0
 10
5248.954018667533
 20
3033.989500657985
 30
0.0
 10
5248.954035586003
 20
3033.989852051036
 30
0.0
 10
5248.954104674541
 20
3033.990556683504
 30
0.0
 10
5248.954156815237
 20
3033.990907794791
 30
0.0
 10
5248.954362521714
 20
3033.991941736461
 30
0.0
 10
5248.95456546241
 20
3033.992611753113
 30
0.0
 10
5248.954969114755
 20
3033.993587703975
 30
0.0
 10
5248.955121323326
 20
3033.993909841246
 30
0.0
 10
5248.955454229917
 20
3033.994532602351
 30
0.0
 10
5248.955634911177
 20
3033.994833776316
 30
0.0
 10
5248.956218611133
 20
3033.995707415553
 30
0.0
 10
5248.956662879475
 20
3033.996250289809
 30
0.0
 10
5248.957665972544
 20
3033.99725385872
 30
0.0
 10
5248.958210202977
 20
3033.997699572781
 30
0.0
 10
5248.959083422794
 20
3033.998283427578
 30
0.0
 10
5248.959384291087
 20
3033.998464067057
 30
0.0
 10
5248.960006028815
 20
3033.99879680159
 30
0.0
 10
5248.960328332797
 20
3033.998949333958
 30
0.0
 10
5248.96130553511
 20
3033.999354075523
 30
0.0
 10
5248.961975715498
 20
3033.999557291738
 30
0.0
 10
5248.963353034884
 20
3033.999832157753
 30
0.0
 10
5248.964065534758
 20
3033.999902558855
 30
0.0
 10
5248.965468771565
 20
3033.99990281257
 30
0.0
 10
5248.966166064104
 20
3033.999834941724
 30
0.0
 10
5248.967205382463
 20
3033.999629070024
 30
0.0
 10
5248.967551078983
 20
3033.999542626307
 30
0.0
 10
5248.968225022739
 20
3033.999338413912
 30
0.0
 10
5248.968885426145
 20
3033.999102260746
 30
0.0
 10
5248.969519203258
 20
3033.998803297984
 30
0.0
 10
5248.970139509386
 20
3033.998472558105
 30
0.0
 10
5248.970444275111
 20
3033.998290379328
 30
0.0
 10
5248.971327809613
 20
3033.997700818845
 30
0.0
 10
5248.971869683852
 20
3033.997255975286
 30
0.0
 10
5248.972613900199
 20
3033.996513343623
 30
0.0
 10
5248.972850456929
 20
3033.996253147619
 30
0.0
 10
5248.973299881428
 20
3033.995706728276
 30
0.0
 10
5248.973511842144
 20
3033.99542126529
 30
0.0
 10
5248.974098457867
 20
3033.99454450222
 30
0.0
 10
5248.974429118177
 20
3033.993927381094
 30
0.0
 10
5248.974834296801
 20
3033.992952680619
 30
0.0
 10
5248.974954641054
 20
3033.992617626767
 30
0.0
 10
5248.975160304957
 20
3033.991941448042
 30
0.0
 10
5248.975245802984
 20
3033.991600604454
 30
0.0
 10
5248.97545163465
 20
3033.990570023967
 30
0.0
 10
5248.975521796499
 20
3033.989872315305
 30
0.0
 10
5248.975522898293
 20
3033.988809205899
 30
0.0
 10
5248.975505654258
 20
3033.988455393454
 30
0.0
 10
5248.975437236807
 20
3033.987756312979
 30
0.0
 10
5248.97533489883
 20
3033.98706339718
 30
0.0
 10
5248.975165385905
 20
3033.986382689761
 30
0.0
 10
5248.974961639921
 20
3033.985708203878
 30
0.0
 10
5248.974841861967
 20
3033.985372455231
 30
0.0
 10
5248.974437420442
 20
3033.984394451116
 30
0.0
 10
5248.974107489257
 20
3033.983776742707
 30
0.0
 10
5248.973328937132
 20
3033.982608823827
 30
0.0
 10
5248.972875199441
 20
3033.982055059187
 30
0.0
 10
5248.971883234096
 20
3033.981062083759
 30
0.0
 10
5248.97134243474
 20
3033.980617064106
 30
0.0
 10
5248.970462889019
 20
3033.980028023859
 30
0.0
 10
5248.970157250755
 20
3033.979844538404
 30
0.0
 10
5248.969536039787
 20
3033.979512082919
 30
0.0
 10
5248.969219000549
 20
3033.979362004368
 30
0.0
 10
5248.968248940059
 20
3033.978959316115
 30
0.0
 10
5248.967574888658
 20
3033.97875333911
 30
0.0
 10
5248.966183720802
 20
3033.978475453261
 30
0.0
 10
5248.965480808383
 20
3033.978405916978
 30
0.0
 10
5248.964770539981
 20
3033.978406053746
 30
0.0
  0
SPLINE
  5
168A
330
1F
100
AcDbEntity
  8
SANINDUSA
100
AcDbSpline
210
0.0
220
0.0
230
1.0
 70
    11
 71
     3
 72
    95
 73
    91
 74
     0
 42
0.0000000001
 43
0.0000000001
 40
0.0
 40
0.0
 40
0.0
 40
0.0
 40
0.0312500000000012
 40
0.0312500000000012
 40
0.0468750000000033
 40
0.0468750000000033
 40
0.0625000000000054
 40
0.0625000000000054
 40
0.0937500000000073
 40
0.0937500000000073
 40
0.1093750000000082
 40
0.1093750000000082
 40
0.1250000000000091
 40
0.1250000000000091
 40
0.1562500000000075
 40
0.1562500000000075
 40
0.1718750000000066
 40
0.1718750000000066
 40
0.1875000000000058
 40
0.203125000000005
 40
0.203125000000005
 40
0.2187500000000041
 40
0.2187500000000041
 40
0.2500000000000049
 40
0.2500000000000049
 40
0.2656250000000066
 40
0.2656250000000066
 40
0.2812500000000082
 40
0.2812500000000082
 40
0.3125000000000138
 40
0.3125000000000138
 40
0.3281250000000156
 40
0.3281250000000156
 40
0.3437500000000173
 40
0.3437500000000173
 40
0.3750000000000186
 40
0.3750000000000186
 40
0.40625000000002
 40
0.40625000000002
 40
0.42187500000002
 40
0.42187500000002
 40
0.43750000000002
 40
0.43750000000002
 40
0.4687500000000199
 40
0.4687500000000199
 40
0.5000000000000199
 40
0.5000000000000199
 40
0.5312500000000199
 40
0.5312500000000199
 40
0.5468750000000214
 40
0.5468750000000214
 40
0.5625000000000227
 40
0.5781250000000241
 40
0.5781250000000241
 40
0.5937500000000254
 40
0.5937500000000254
 40
0.6250000000000285
 40
0.6250000000000285
 40
0.6406250000000281
 40
0.6406250000000281
 40
0.6562500000000279
 40
0.6562500000000279
 40
0.6875000000000259
 40
0.6875000000000259
 40
0.7031250000000237
 40
0.7031250000000237
 40
0.7187500000000215
 40
0.7187500000000215
 40
0.7500000000000192
 40
0.7500000000000192
 40
0.7656250000000194
 40
0.7656250000000194
 40
0.7812500000000194
 40
0.7968750000000195
 40
0.7968750000000195
 40
0.8125000000000193
 40
0.8125000000000193
 40
0.8437500000000172
 40
0.8437500000000172
 40
0.8750000000000149
 40
0.8750000000000149
 40
0.9062500000000127
 40
0.9062500000000127
 40
0.9218750000000106
 40
0.9218750000000106
 40
0.9375000000000085
 40
0.9375000000000085
 40
0.9687500000000042
 40
0.9687500000000042
 40
1.0
 40
1.0
 40
1.0
 40
1.0
 10
5248.88475744309
 20
3033.978407936651
 30
0.0
 10
5248.884047165017
 20
3033.978407840215
 30
0.0
 10
5248.88334874986
 20
3033.978477407837
 30
0.0
 10
5248.882318194436
 20
3033.978681986763
 30
0.0
 10
5248.881977541659
 20
3033.978767008512
 30
0.0
 10
5248.881302098353
 20
3033.978971478209
 30
0.0
 10
5248.880966385597
 20
3033.97909150531
 30
0.0
 10
5248.879989825936
 20
3033.979495945832
 30
0.0
 10
5248.879372259818
 20
3033.979825967385
 30
0.0
 10
5248.878495672697
 20
3033.980410783611
 30
0.0
 10
5248.878210896116
 20
3033.980621567411
 30
0.0
 10
5248.877662875454
 20
3033.98107101972
 30
0.0
 10
5248.877402084129
 20
3033.981307511612
 30
0.0
 10
5248.876658128552
 20
3033.982051182289
 30
0.0
 10
5248.876213019008
 20
3033.982592232368
 30
0.0
 10
5248.875623466008
 20
3033.983473332689
 30
0.0
 10
5248.875440409399
 20
3033.983778634741
 30
0.0
 10
5248.875108652208
 20
3033.984399156239
 30
0.0
 10
5248.874808944696
 20
3033.985032850044
 30
0.0
 10
5248.8745723656
 20
3033.985692489521
 30
0.0
 10
5248.874367779743
 20
3033.986365278194
 30
0.0
 10
5248.874281149204
 20
3033.986710093081
 30
0.0
 10
5248.874073984374
 20
3033.987750718703
 30
0.0
 10
5248.874005680285
 20
3033.988448146741
 30
0.0
 10
5248.874005129927
 20
3033.989499657366
 30
0.0
 10
5248.874022053076
 20
3033.98985106211
 30
0.0
 10
5248.874091151824
 20
3033.990555728685
 30
0.0
 10
5248.874143294356
 20
3033.990906836683
 30
0.0
 10
5248.874349005129
 20
3033.991940810856
 30
0.0
 10
5248.8745519453
 20
3033.992610872634
 30
0.0
 10
5248.874955597075
 20
3033.993586924611
 30
0.0
 10
5248.875107804778
 20
3033.993909098719
 30
0.0
 10
5248.87544069417
 20
3033.994531918141
 30
0.0
 10
5248.875621366284
 20
3033.994833127821
 30
0.0
 10
5248.876205038881
 20
3033.995706892185
 30
0.0
 10
5248.876649289066
 20
3033.996249873668
 30
0.0
 10
5248.877652354374
 20
3033.997253700652
 30
0.0
 10
5248.878196532555
 20
3033.997699526617
 30
0.0
 10
5248.879069713949
 20
3033.998283607309
 30
0.0
 10
5248.879370571109
 20
3033.998464326855
 30
0.0
 10
5248.879992290786
 20
3033.998797230224
 30
0.0
 10
5248.88031458301
 20
3033.998949849216
 30
0.0
 10
5248.881291743867
 20
3033.999354854227
 30
0.0
 10
5248.881961906652
 20
3033.999558259585
 30
0.0
 10
5248.88333921366
 20
3033.999833521177
 30
0.0
 10
5248.884051712392
 20
3033.99990412916
 30
0.0
 10
5248.885454960214
 20
3033.999904793018
 30
0.0
 10
5248.886152269381
 20
3033.999837127265
 30
0.0
 10
5248.887191629272
 20
3033.999631557142
 30
0.0
 10
5248.887537339861
 20
3033.999545213589
 30
0.0
 10
5248.888211314307
 20
3033.999341195533
 30
0.0
 10
5248.888871752104
 20
3033.99910523143
 30
0.0
 10
5248.889505570229
 20
3033.998806446039
 30
0.0
 10
5248.890125920343
 20
3033.998475876862
 30
0.0
 10
5248.890430710928
 20
3033.998293779545
 30
0.0
 10
5248.891314310984
 20
3033.997704457673
 30
0.0
 10
5248.891856230068
 20
3033.997259755845
 30
0.0
 10
5248.892600512713
 20
3033.996517309184
 30
0.0
 10
5248.892837091378
 20
3033.996257170208
 30
0.0
 10
5248.893286558836
 20
3033.995710854827
 30
0.0
 10
5248.893498535943
 20
3033.995425444468
 30
0.0
 10
5248.894085199842
 20
3033.994548821166
 30
0.0
 10
5248.894415887906
 20
3033.993931773849
 30
0.0
 10
5248.894821098865
 20
3033.992957153527
 30
0.0
 10
5248.894941452252
 20
3033.992622120554
 30
0.0
 10
5248.895147124867
 20
3033.991945994576
 30
0.0
 10
5248.8952326261
 20
3033.991605172432
 30
0.0
 10
5248.895438463458
 20
3033.990574641697
 30
0.0
 10
5248.895508623935
 20
3033.989876946919
 30
0.0
 10
5248.895509713217
 20
3033.988813827508
 30
0.0
 10
5248.895492464424
 20
3033.988460031898
 30
0.0
 10
5248.89542403707
 20
3033.987760954369
 30
0.0
 10
5248.895321688372
 20
3033.987068030832
 30
0.0
 10
5248.895152162241
 20
3033.986387294462
 30
0.0
 10
5248.894948401385
 20
3033.98571276878
 30
0.0
 10
5248.89482861684
 20
3033.985377000889
 30
0.0
 10
5248.894424170401
 20
3033.984398953709
 30
0.0
 10
5248.894094237257
 20
3033.983781190336
 30
0.0
 10
5248.893315678685
 20
3033.982613112158
 30
0.0
 10
5248.892861947994
 20
3033.982059257928
 30
0.0
 10
5248.891870016306
 20
3033.981066070972
 30
0.0
 10
5248.891329231674
 20
3033.980620917934
 30
0.0
 10
5248.890449700343
 20
3033.980031640951
 30
0.0
 10
5248.890144074015
 20
3033.979848075473
 30
0.0
 10
5248.889522889742
 20
3033.979515452191
 30
0.0
 10
5248.88920586194
 20
3033.979365283971
 30
0.0
 10
5248.888235829319
 20
3033.978962312054
 30
0.0
 10
5248.887561778432
 20
3033.97875612396
 30
0.0
 10
5248.886170632264
 20
3033.978477798946
 30
0.0
 10
5248.885467721163
 20
3033.978408033086
 30
0.0
 10
5248.88475744309
 20
3033.978407936651
 30
0.0
  0
SPLINE
  5
168C
330
1F
100
AcDbEntity
  8
SANINDUSA
100
AcDbSpline
210
0.0
220
0.0
230
1.0
 70
    11
 71
     3
 72
    26
 73
    22
 74
     0
 42
0.0000000001
 43
0.0000000001
 40
0.0
 40
0.0
 40
0.0
 40
0.0
 40
0.0536784576837241
 40
0.1073583642405635
 40
0.161040046771971
 40
0.2147289688361383
 40
0.2684240924200104
 40
0.3221228475094819
 40
0.3758199726205677
 40
0.4295118644872849
 40
0.4831981959266875
 40
0.5368788898016575
 40
0.5905590722810999
 40
0.6442406619885443
 40
0.6979281411380273
 40
0.7516207013816678
 40
0.8053176993197745
 40
0.8590147746648417
 40
0.9127090279970646
 40
0.9663979862351615
 40
1.0
 40
1.0
 40
1.0
 40
1.0
 10
5249.124767708482
 20
3033.898392122815
 30
0.0
 10
5249.123559167913
 20
3033.898510974298
 30
0.0
 10
5249.121142054155
 20
3033.898748680473
 30
0.0
 10
5249.117925055503
 20
3033.900601269462
 30
0.0
 10
5249.115479341273
 20
3033.9033295294
 30
0.0
 10
5249.114080412969
 20
3033.906736285573
 30
0.0
 10
5249.113886432015
 20
3033.910408224938
 30
0.0
 10
5249.114919350912
 20
3033.913939131519
 30
0.0
 10
5249.117062911065
 20
3033.9169285116
 30
0.0
 10
5249.120075170685
 20
3033.919039769126
 30
0.0
 10
5249.123616321085
 20
3033.920034741082
 30
0.0
 10
5249.127287015028
 20
3033.919801534397
 30
0.0
 10
5249.130673592954
 20
3033.918366775699
 30
0.0
 10
5249.133394436222
 20
3033.915891984871
 30
0.0
 10
5249.135143012907
 20
3033.912656213703
 30
0.0
 10
5249.135721866995
 20
3033.909023488087
 30
0.0
 10
5249.135065741177
 20
3033.905405070493
 30
0.0
 10
5249.133247935605
 20
3033.902202970381
 30
0.0
 10
5249.13047542
 20
3033.899801157221
 30
0.0
 10
5249.12748039199
 20
3033.898562099534
 30
0.0
 10
5249.125521694564
 20
3033.898439367575
 30
0.0
 10
5249.124767708482
 20
3033.898392122815
 30
0.0
  0
SPLINE
  5
168E
330
1F
100
AcDbEntity
  8
SANINDUSA
100
AcDbSpline
210
0.0
220
0.0
230
1.0
 70
    11
 71
     3
 72
    26
 73
    22
 74
     0
 42
0.0000000001
 43
0.0000000001
 40
0.0
 40
0.0
 40
0.0
 40
0.0
 40
0.0536810775301013
 40
0.1073619725156197
 40
0.1610458068868601
 40
0.2147336492349237
 40
0.2684267956778861
 40
0.3221226006195208
 40
0.3758182515475942
 40
0.4295101162926711
 40
0.4831973716745678
 40
0.5368806200450719
 40
0.5905627572810729
 40
0.6442459932253949
 40
0.6979329132475911
 40
0.751623788784478
 40
0.8053181288317137
 40
0.8590138056222841
 40
0.9127076495634852
 40
0.9663974754882811
 40
1.0
 40
1.0
 40
1.0
 40
1.0
 10
5248.724754783214
 20
3033.898395818303
 30
0.0
 10
5248.723546167957
 20
3033.898514503304
 30
0.0
 10
5248.72112894155
 20
3033.898751872901
 30
0.0
 10
5248.717911757861
 20
3033.900604051215
 30
0.0
 10
5248.715465974957
 20
3033.903332060726
 30
0.0
 10
5248.714067112787
 20
3033.906738683994
 30
0.0
 10
5248.713873183191
 20
3033.910410534091
 30
0.0
 10
5248.714906210062
 20
3033.913941482419
 30
0.0
 10
5248.717049766651
 20
3033.91693113976
 30
0.0
 10
5248.720062106603
 20
3033.919042841362
 30
0.0
 10
5248.723603385081
 20
3033.920038334928
 30
0.0
 10
5248.727274266084
 20
3033.919805756879
 30
0.0
 10
5248.730660984704
 20
3033.918371347967
 30
0.0
 10
5248.733381942705
 20
3033.915896897322
 30
0.0
 10
5248.735130404784
 20
3033.912661260571
 30
0.0
 10
5248.735709213377
 20
3033.90902866317
 30
0.0
 10
5248.735053013941
 20
3033.905410229709
 30
0.0
 10
5248.733235212775
 20
3033.902207908806
 30
0.0
 10
5248.730462603813
 20
3033.899805762933
 30
0.0
 10
5248.727467542524
 20
3033.898566225314
 30
0.0
 10
5248.725508790043
 20
3033.898443182641
 30
0.0
 10
5248.724754783214
 20
3033.898395818303
 30
0.0
  0
SPLINE
  5
1690
330
1F
100
AcDbEntity
  8
SANINDUSA
100
AcDbSpline
210
0.0
220
0.0
230
1.0
 70
    11
 71
     3
 72
    26
 73
    22
 74
     0
 42
0.0000000001
 43
0.0000000001
 40
0.0
 40
0.0
 40
0.0
 40
0.0
 40
0.0536898863930966
 40
0.1073809303512849
 40
0.1610755374827873
 40
0.2147705896269147
 40
0.2684628834165962
 40
0.3221513216360254
 40
0.3758358011754837
 40
0.4295193552504243
 40
0.4832042578507262
 40
0.5368907827591416
 40
0.5905805549458351
 40
0.6442721345473835
 40
0.6979648244997668
 40
0.7516583431402707
 40
0.8053496862025619
 40
0.8590379456977951
 40
0.9127225495836986
 40
0.9664047316975461
 40
1.0
 40
1.0
 40
1.0
 40
1.0
 10
5249.044778513612
 20
3033.898403686116
 30
0.0
 10
5249.043569708424
 20
3033.898522878482
 30
0.0
 10
5249.041152071985
 20
3033.898761265785
 30
0.0
 10
5249.037934547111
 20
3033.900615188664
 30
0.0
 10
5249.035488566686
 20
3033.903344654183
 30
0.0
 10
5249.034089991724
 20
3033.906752354907
 30
0.0
 10
5249.03389676907
 20
3033.910424405009
 30
0.0
 10
5249.034930431719
 20
3033.913954547295
 30
0.0
 10
5249.037074360498
 20
3033.916942701246
 30
0.0
 10
5249.040086743532
 20
3033.919052698557
 30
0.0
 10
5249.043628032594
 20
3033.920046648917
 30
0.0
 10
5249.04729909387
 20
3033.919812477702
 30
0.0
 10
5249.050686120977
 20
3033.918376568877
 30
0.0
 10
5249.053407141056
 20
3033.915900525681
 30
0.0
 10
5249.055155436804
 20
3033.912663712754
 30
0.0
 10
5249.05573366257
 20
3033.909030534372
 30
0.0
 10
5249.055076696581
 20
3033.905412437635
 30
0.0
 10
5249.053258428468
 20
3033.90221125608
 30
0.0
 10
5249.050485605284
 20
3033.899810836531
 30
0.0
 10
5249.047490794036
 20
3033.898573016308
 30
0.0
 10
5249.045532362698
 20
3033.898450749616
 30
0.0
 10
5249.044778513612
 20
3033.898403686116
 30
0.0
  0
SPLINE
  5
1692
330
1F
100
AcDbEntity
  8
SANINDUSA
100
AcDbSpline
210
0.0
220
0.0
230
1.0
 70
    11
 71
     3
 72
    95
 73
    91
 74
     0
 42
0.0000000001
 43
0.0000000001
 40
0.0
 40
0.0
 40
0.0
 40
0.0
 40
0.0312499999999945
 40
0.0312499999999945
 40
0.0468749999999925
 40
0.0468749999999925
 40
0.0624999999999904
 40
0.0624999999999904
 40
0.0937499999999864
 40
0.0937499999999864
 40
0.1093749999999829
 40
0.1093749999999829
 40
0.1249999999999795
 40
0.1249999999999795
 40
0.1562499999999719
 40
0.1562499999999719
 40
0.171874999999968
 40
0.171874999999968
 40
0.1874999999999642
 40
0.2031249999999603
 40
0.2031249999999603
 40
0.2187499999999565
 40
0.2187499999999565
 40
0.2499999999999512
 40
0.2499999999999512
 40
0.2656249999999485
 40
0.2656249999999485
 40
0.2812499999999459
 40
0.2812499999999459
 40
0.3124999999999433
 40
0.3124999999999433
 40
0.3281249999999432
 40
0.3281249999999432
 40
0.343749999999943
 40
0.343749999999943
 40
0.3749999999999419
 40
0.3749999999999419
 40
0.4062499999999411
 40
0.4062499999999411
 40
0.4218749999999412
 40
0.4218749999999412
 40
0.4374999999999413
 40
0.4374999999999413
 40
0.468749999999944
 40
0.468749999999944
 40
0.4999999999999467
 40
0.4999999999999467
 40
0.5312499999999493
 40
0.5312499999999493
 40
0.5468749999999519
 40
0.5468749999999519
 40
0.5624999999999544
 40
0.578124999999957
 40
0.578124999999957
 40
0.5937499999999596
 40
0.5937499999999596
 40
0.6249999999999667
 40
0.6249999999999667
 40
0.6406249999999694
 40
0.6406249999999694
 40
0.6562499999999721
 40
0.6562499999999721
 40
0.6874999999999787
 40
0.6874999999999787
 40
0.7031249999999809
 40
0.7031249999999809
 40
0.7187499999999832
 40
0.7187499999999832
 40
0.7499999999999875
 40
0.7499999999999875
 40
0.7656249999999886
 40
0.7656249999999886
 40
0.7812499999999896
 40
0.7968749999999906
 40
0.7968749999999906
 40
0.8124999999999914
 40
0.8124999999999914
 40
0.8437499999999925
 40
0.8437499999999925
 40
0.8749999999999936
 40
0.8749999999999936
 40
0.9062499999999944
 40
0.9062499999999944
 40
0.9218749999999962
 40
0.9218749999999962
 40
0.9374999999999978
 40
0.9374999999999978
 40
0.9687499999999989
 40
0.9687499999999989
 40
1.0
 40
1.0
 40
1.0
 40
1.0
 10
5248.804748268863
 20
3033.898408872538
 30
0.0
 10
5248.80403806899
 20
3033.898408685659
 30
0.0
 10
5248.803339731027
 20
3033.89847817823
 30
0.0
 10
5248.802309289872
 20
3033.898682666689
 30
0.0
 10
5248.801968674934
 20
3033.898767662
 30
0.0
 10
5248.801293306811
 20
3033.898972086527
 30
0.0
 10
5248.800957636666
 20
3033.899092093265
 30
0.0
 10
5248.799981210527
 20
3033.899496479177
 30
0.0
 10
5248.79936373169
 20
3033.899826476746
 30
0.0
 10
5248.798487272821
 20
3033.900411274327
 30
0.0
 10
5248.798202531143
 20
3033.900622061273
 30
0.0
 10
5248.797654618243
 20
3033.901071492463
 30
0.0
 10
5248.797393878442
 20
3033.901307975748
 30
0.0
 10
5248.796650070876
 20
3033.902051626272
 30
0.0
 10
5248.796205051302
 20
3033.902592670404
 30
0.0
 10
5248.795615621287
 20
3033.903473773473
 30
0.0
 10
5248.795432615426
 20
3033.903779059247
 30
0.0
 10
5248.795100946847
 20
3033.904399554609
 30
0.0
 10
5248.794801318311
 20
3033.905033226221
 30
0.0
 10
5248.794564801509
 20
3033.90569285198
 30
0.0
 10
5248.794360270231
 20
3033.906365631438
 30
0.0
 10
5248.794273662798
 20
3033.906710448753
 30
0.0
 10
5248.794066567474
 20
3033.907751013745
 30
0.0
 10
5248.793998285314
 20
3033.908448415638
 30
0.0
 10
5248.79399774112
 20
3033.909499908229
 30
0.0
 10
5248.7940146618
 20
3033.909851310519
 30
0.0
 10
5248.794083747677
 20
3033.910555979608
 30
0.0
 10
5248.794135876433
 20
3033.910907069191
 30
0.0
 10
5248.794341534391
 20
3033.911941026086
 30
0.0
 10
5248.794544422249
 20
3033.912611095632
 30
0.0
 10
5248.794947979305
 20
3033.913587185994
 30
0.0
 10
5248.795100152126
 20
3033.913909376135
 30
0.0
 10
5248.795432960273
 20
3033.914532222569
 30
0.0
 10
5248.795613589692
 20
3033.914833450514
 30
0.0
 10
5248.796197130088
 20
3033.915707282351
 30
0.0
 10
5248.796641286641
 20
3033.91625032563
 30
0.0
 10
5248.797644163122
 20
3033.917254304901
 30
0.0
 10
5248.798188238411
 20
3033.917700210166
 30
0.0
 10
5248.799061275927
 20
3033.91828442703
 30
0.0
 10
5248.799362085819
 20
3033.918465193889
 30
0.0
 10
5248.799983713018
 20
3033.918798194955
 30
0.0
 10
5248.800305960061
 20
3033.918950864595
 30
0.0
 10
5248.801282988015
 20
3033.919356020055
 30
0.0
 10
5248.801953066058
 20
3033.919559525337
 30
0.0
 10
5248.803330212457
 20
3033.919834981404
 30
0.0
 10
5248.804042634294
 20
3033.919905683952
 30
0.0
 10
5248.805445729324
 20
3033.919906519043
 30
0.0
 10
5248.806142964351
 20
3033.919838931455
 30
0.0
 10
5248.807182216253
 20
3033.919633464563
 30
0.0
 10
5248.807527885833
 20
3033.919547154263
 30
0.0
 10
5248.808201777479
 20
3033.919343198659
 30
0.0
 10
5248.808862133206
 20
3033.919107292517
 30
0.0
 10
5248.809495870553
 20
3033.918808555793
 30
0.0
 10
5248.810116140425
 20
3033.918478030221
 30
0.0
 10
5248.810420895466
 20
3033.918295948961
 30
0.0
 10
5248.811304345277
 20
3033.917706698202
 30
0.0
 10
5248.811846169719
 20
3033.917262036053
 30
0.0
 10
5248.812590317213
 20
3033.916519635534
 30
0.0
 10
5248.812826851972
 20
3033.916259509695
 30
0.0
 10
5248.813276233729
 20
3033.915713215549
 30
0.0
 10
5248.813488155243
 20
3033.915427831683
 30
0.0
 10
5248.814074673636
 20
3033.914551269849
 30
0.0
 10
5248.814405277718
 20
3033.913934254347
 30
0.0
 10
5248.814810379306
 20
3033.912959665558
 30
0.0
 10
5248.814930698422
 20
3033.912624639672
 30
0.0
 10
5248.815136299326
 20
3033.911948561796
 30
0.0
 10
5248.815221770089
 20
3033.911607760012
 30
0.0
 10
5248.815427530234
 20
3033.91057727919
 30
0.0
 10
5248.815497658032
 20
3033.909879602896
 30
0.0
 10
5248.815498722217
 20
3033.90881648704
 30
0.0
 10
5248.815481470611
 20
3033.908462718702
 30
0.0
 10
5248.815413048379
 20
3033.907763659893
 30
0.0
 10
5248.815310715012
 20
3033.907070744252
 30
0.0
 10
5248.815141221829
 20
3033.90638999484
 30
0.0
 10
5248.814937501635
 20
3033.90571544572
 30
0.0
 10
5248.814817742718
 20
3033.905379665321
 30
0.0
 10
5248.814413393477
 20
3033.904401586216
 30
0.0
 10
5248.814083539349
 20
3033.90378377731
 30
0.0
 10
5248.813305155462
 20
3033.902615567608
 30
0.0
 10
5248.812851524785
 20
3033.902061631103
 30
0.0
 10
5248.81185980327
 20
3033.901068258578
 30
0.0
 10
5248.811319125644
 20
3033.900622998033
 30
0.0
 10
5248.810439751306
 20
3033.900033545453
 30
0.0
 10
5248.810134176817
 20
3033.899849918889
 30
0.0
 10
5248.809513094373
 20
3033.899517173934
 30
0.0
 10
5248.809196116532
 20
3033.899366944617
 30
0.0
 10
5248.808226230322
 20
3033.898963790346
 30
0.0
 10
5248.807552273236
 20
3033.898757481529
 30
0.0
 10
5248.806161297679
 20
3033.89847892864
 30
0.0
 10
5248.805458468737
 20
3033.898409059418
 30
0.0
 10
5248.804748268863
 20
3033.898408872538
 30
0.0
  0
SPLINE
  5
1694
330
1F
100
AcDbEntity
  8
SANINDUSA
100
AcDbSpline
210
0.0
220
0.0
230
1.0
 70
    11
 71
     3
 72
    95
 73
    91
 74
     0
 42
0.0000000001
 43
0.0000000001
 40
0.0
 40
0.0
 40
0.0
 40
0.0
 40
0.0312500000000142
 40
0.0312500000000142
 40
0.0468750000000219
 40
0.0468750000000219
 40
0.0625000000000295
 40
0.0625000000000295
 40
0.0937500000000447
 40
0.0937500000000447
 40
0.1093750000000499
 40
0.1093750000000499
 40
0.1250000000000551
 40
0.1250000000000551
 40
0.156250000000062
 40
0.156250000000062
 40
0.1718750000000661
 40
0.1718750000000661
 40
0.1875000000000703
 40
0.2031250000000744
 40
0.2031250000000744
 40
0.2187500000000786
 40
0.2187500000000786
 40
0.250000000000084
 40
0.250000000000084
 40
0.2656250000000854
 40
0.2656250000000854
 40
0.2812500000000868
 40
0.2812500000000868
 40
0.3125000000000874
 40
0.3125000000000874
 40
0.3281250000000877
 40
0.3281250000000877
 40
0.3437500000000879
 40
0.3437500000000879
 40
0.3750000000000863
 40
0.3750000000000863
 40
0.4062500000000848
 40
0.4062500000000848
 40
0.421875000000084
 40
0.421875000000084
 40
0.4375000000000832
 40
0.4375000000000832
 40
0.4687500000000793
 40
0.4687500000000793
 40
0.5000000000000754
 40
0.5000000000000754
 40
0.5312500000000715
 40
0.5312500000000715
 40
0.5468750000000706
 40
0.5468750000000706
 40
0.5625000000000695
 40
0.5781250000000686
 40
0.5781250000000686
 40
0.5937500000000676
 40
0.5937500000000676
 40
0.6250000000000671
 40
0.6250000000000671
 40
0.6406250000000667
 40
0.6406250000000667
 40
0.6562500000000665
 40
0.6562500000000665
 40
0.6875000000000679
 40
0.6875000000000679
 40
0.7031250000000671
 40
0.7031250000000671
 40
0.7187500000000662
 40
0.7187500000000662
 40
0.750000000000064
 40
0.750000000000064
 40
0.7656250000000617
 40
0.7656250000000617
 40
0.7812500000000594
 40
0.796875000000057
 40
0.796875000000057
 40
0.8125000000000547
 40
0.8125000000000547
 40
0.8437500000000477
 40
0.8437500000000477
 40
0.8750000000000406
 40
0.8750000000000406
 40
0.9062500000000337
 40
0.9062500000000337
 40
0.9218750000000287
 40
0.9218750000000287
 40
0.9375000000000239
 40
0.9375000000000239
 40
0.968750000000012
 40
0.968750000000012
 40
1.0
 40
1.0
 40
1.0
 40
1.0
 10
5248.964773610749
 20
3033.898422215146
 30
0.0
 10
5248.964063333605
 20
3033.898422380787
 30
0.0
 10
5248.963364926396
 20
3033.898492202116
 30
0.0
 10
5248.962334391895
 20
3033.898697142405
 30
0.0
 10
5248.961993747609
 20
3033.898782281398
 30
0.0
 10
5248.961318324206
 20
3033.898986977725
 30
0.0
 10
5248.960982620139
 20
3033.899107115304
 30
0.0
 10
5248.960006081852
 20
3033.899511871428
 30
0.0
 10
5248.959388530592
 20
3033.899842082134
 30
0.0
 10
5248.958511965259
 20
3033.900427147039
 30
0.0
 10
5248.958227200772
 20
3033.900638003914
 30
0.0
 10
5248.957679178383
 20
3033.901087609826
 30
0.0
 10
5248.957418385661
 20
3033.90132417237
 30
0.0
 10
5248.956674424259
 20
3033.902068037007
 30
0.0
 10
5248.956229308709
 20
3033.90260919259
 30
0.0
 10
5248.95563974265
 20
3033.903490413919
 30
0.0
 10
5248.955456671236
 20
3033.903795765677
 30
0.0
 10
5248.955124888057
 20
3033.904416372906
 30
0.0
 10
5248.954825156017
 20
3033.905050140453
 30
0.0
 10
5248.954588554644
 20
3033.905709829983
 30
0.0
 10
5248.954383947275
 20
3033.906382656655
 30
0.0
 10
5248.954297306841
 20
3033.906727478966
 30
0.0
 10
5248.954090099896
 20
3033.907768192062
 30
0.0
 10
5248.95402177853
 20
3033.90846565093
 30
0.0
 10
5248.954021211947
 20
3033.909517168038
 30
0.0
 10
5248.954038131328
 20
3033.909868568266
 30
0.0
 10
5248.954107224847
 20
3033.910573212094
 30
0.0
 10
5248.954159370919
 20
3033.910924336537
 30
0.0
 10
5248.954365097929
 20
3033.911958302077
 30
0.0
 10
5248.954568058874
 20
3033.912628326113
 30
0.0
 10
5248.954971747146
 20
3033.913604276292
 30
0.0
 10
5248.955123968802
 20
3033.913926411706
 30
0.0
 10
5248.955456904752
 20
3033.91454916906
 30
0.0
 10
5248.95563760125
 20
3033.914850339086
 30
0.0
 10
5248.956221347659
 20
3033.915723961026
 30
0.0
 10
5248.956665647982
 20
3033.916266816481
 30
0.0
 10
5248.95766880244
 20
3033.917270335561
 30
0.0
 10
5248.958213060768
 20
3033.917716019033
 30
0.0
 10
5248.959086319611
 20
3033.918299825208
 30
0.0
 10
5248.959387200283
 20
3033.918480447822
 30
0.0
 10
5248.960008961183
 20
3033.918813147648
 30
0.0
 10
5248.960331275064
 20
3033.918965661639
 30
0.0
 10
5248.961308503548
 20
3033.919370348757
 30
0.0
 10
5248.961978699368
 20
3033.919573530106
 30
0.0
 10
5248.963356045116
 20
3033.919848330465
 30
0.0
 10
5248.964068554869
 20
3033.919918700681
 30
0.0
 10
5248.965471811906
 20
3033.919918901341
 30
0.0
 10
5248.966169114462
 20
3033.919851007685
 30
0.0
 10
5248.967208447707
 20
3033.919645107619
 30
0.0
 10
5248.967554151531
 20
3033.919558654922
 30
0.0
 10
5248.968228111092
 20
3033.919354425854
 30
0.0
 10
5248.968888530707
 20
3033.919118257552
 30
0.0
 10
5248.969522324793
 20
3033.918819282579
 30
0.0
 10
5248.970142648285
 20
3033.918488531969
 30
0.0
 10
5248.970447420745
 20
3033.918306350147
 30
0.0
 10
5248.971330997907
 20
3033.917716767411
 30
0.0
 10
5248.971872899214
 20
3033.917271910488
 30
0.0
 10
5248.97261715451
 20
3033.916529261366
 30
0.0
 10
5248.972853723948
 20
3033.916269059975
 30
0.0
 10
5248.973303173367
 20
3033.915722630843
 30
0.0
 10
5248.97351515289
 20
3033.915437154675
 30
0.0
 10
5248.974101815711
 20
3033.914560359034
 30
0.0
 10
5248.974432502229
 20
3033.913943218335
 30
0.0
 10
5248.97483771396
 20
3033.912968492676
 30
0.0
 10
5248.974958068444
 20
3033.912633431418
 30
0.0
 10
5248.975163754764
 20
3033.91195722212
 30
0.0
 10
5248.975249261869
 20
3033.911616364592
 30
0.0
 10
5248.975455115409
 20
3033.910585746384
 30
0.0
 10
5248.975525284745
 20
3033.909888018
 30
0.0
 10
5248.97552638971
 20
3033.908824887963
 30
0.0
 10
5248.975509144808
 20
3033.908471058631
 30
0.0
 10
5248.9754407221
 20
3033.907771958461
 30
0.0
 10
5248.975338375545
 20
3033.90707902739
 30
0.0
 10
5248.975168848758
 20
3033.906398313209
 30
0.0
 10
5248.974965086838
 20
3033.905723824778
 30
0.0
 10
5248.974845299447
 20
3033.905388075654
 30
0.0
 10
5248.974440824293
 20
3033.904410070234
 30
0.0
 10
5248.97411086745
 20
3033.903792370588
 30
0.0
 10
5248.97333226225
 20
3033.902624485287
 30
0.0
 10
5248.972878496765
 20
3033.902070745579
 30
0.0
 10
5248.971886477985
 20
3033.901077829555
 30
0.0
 10
5248.971345653098
 20
3033.900632844903
 30
0.0
 10
5248.97046607292
 20
3033.900043862467
 30
0.0
 10
5248.970160424787
 20
3033.899860397839
 30
0.0
 10
5248.969539195715
 20
3033.899527983852
 30
0.0
 10
5248.969222147925
 20
3033.899377925991
 30
0.0
 10
5248.968252063377
 20
3033.898975299157
 30
0.0
 10
5248.967577996758
 20
3033.898769362189
 30
0.0
 10
5248.96618680957
 20
3033.898491552128
 30
0.0
 10
5248.965483887893
 20
3033.898422049504
 30
0.0
 10
5248.964773610749
 20
3033.898422215146
 30
0.0
  0
SPLINE
  5
1696
330
1F
100
AcDbEntity
  8
SANINDUSA
100
AcDbSpline
210
0.0
220
0.0
230
1.0
 70
    11
 71
     3
 72
    26
 73
    22
 74
     0
 42
0.0000000001
 43
0.0000000001
 40
0.0
 40
0.0
 40
0.0
 40
0.0
 40
0.053682814627588
 40
0.1073656446698044
 40
0.1610475125973467
 40
0.2147336845468653
 40
0.2684249895203244
 40
0.3221208906824709
 40
0.375817784639632
 40
0.4295110369725763
 40
0.4831988787470849
 40
0.536881177008773
 40
0.5905633248484568
 40
0.6442461053546113
 40
0.697933645555871
 40
0.7516250340251604
 40
0.8053190219152689
 40
0.8590127709629593
 40
0.91270581238411
 40
0.9663955367698321
 40
1.0
 40
1.0
 40
1.0
 40
1.0
 10
5249.124766993226
 20
3033.818408948014
 30
0.0
 10
5249.123558370651
 20
3033.81852779518
 30
0.0
 10
5249.121141125153
 20
3033.818765489546
 30
0.0
 10
5249.117924032592
 20
3033.820618058844
 30
0.0
 10
5249.115478334795
 20
3033.823346175187
 30
0.0
 10
5249.114079678274
 20
3033.826752688608
 30
0.0
 10
5249.113885789473
 20
3033.830424210318
 30
0.0
 10
5249.114918757571
 20
3033.833954736609
 30
0.0
 10
5249.117062201444
 20
3033.836943969099
 30
0.0
 10
5249.120074526993
 20
3033.839055108039
 30
0.0
 10
5249.12361572475
 20
3033.840049970033
 30
0.0
 10
5249.127286494061
 20
3033.839816934512
 30
0.0
 10
5249.13067309573
 20
3033.838382129274
 30
0.0
 10
5249.133393970761
 20
3033.835907439731
 30
0.0
 10
5249.13514237473
 20
3033.832671764526
 30
0.0
 10
5249.135721227646
 20
3033.829039340318
 30
0.0
 10
5249.135065002779
 20
3033.82542130683
 30
0.0
 10
5249.133247237637
 20
3033.822219593848
 30
0.0
 10
5249.130474775
 20
3033.819818024661
 30
0.0
 10
5249.127479748944
 20
3033.818579085339
 30
0.0
 10
5249.125521019008
 20
3033.818456238645
 30
0.0
 10
5249.124766993226
 20
3033.818408948014
 30
0.0
  0
SPLINE
  5
1698
330
1F
100
AcDbEntity
  8
SANINDUSA
100
AcDbSpline
210
0.0
220
0.0
230
1.0
 70
    11
 71
     3
 72
    95
 73
    91
 74
     0
 42
0.0000000001
 43
0.0000000001
 40
0.0
 40
0.0
 40
0.0
 40
0.0
 40
0.0312499999999943
 40
0.0312499999999943
 40
0.0468749999999915
 40
0.0468749999999915
 40
0.0624999999999887
 40
0.0624999999999887
 40
0.093749999999983
 40
0.093749999999983
 40
0.1093749999999815
 40
0.1093749999999815
 40
0.12499999999998
 40
0.12499999999998
 40
0.1562499999999771
 40
0.1562499999999771
 40
0.1718749999999784
 40
0.1718749999999784
 40
0.1874999999999775
 40
0.2031249999999766
 40
0.2031249999999766
 40
0.2187499999999757
 40
0.2187499999999757
 40
0.2499999999999738
 40
0.2499999999999738
 40
0.2656249999999742
 40
0.2656249999999742
 40
0.2812499999999745
 40
0.2812499999999745
 40
0.3124999999999722
 40
0.3124999999999722
 40
0.3281249999999722
 40
0.3281249999999722
 40
0.3437499999999722
 40
0.3437499999999722
 40
0.3749999999999702
 40
0.3749999999999702
 40
0.4062499999999682
 40
0.4062499999999682
 40
0.4218749999999671
 40
0.4218749999999671
 40
0.4374999999999661
 40
0.4374999999999661
 40
0.4687499999999663
 40
0.4687499999999663
 40
0.4999999999999665
 40
0.4999999999999665
 40
0.5312499999999667
 40
0.5312499999999667
 40
0.546874999999968
 40
0.546874999999968
 40
0.5624999999999693
 40
0.5781249999999706
 40
0.5781249999999706
 40
0.5937499999999718
 40
0.5937499999999718
 40
0.6249999999999723
 40
0.6249999999999723
 40
0.6406249999999708
 40
0.6406249999999708
 40
0.6562499999999693
 40
0.6562499999999693
 40
0.6874999999999677
 40
0.6874999999999677
 40
0.7031249999999686
 40
0.7031249999999686
 40
0.7187499999999694
 40
0.7187499999999694
 40
0.7499999999999691
 40
0.7499999999999691
 40
0.7656249999999702
 40
0.7656249999999702
 40
0.7812499999999713
 40
0.7968749999999723
 40
0.7968749999999723
 40
0.8124999999999733
 40
0.8124999999999733
 40
0.8437499999999788
 40
0.8437499999999788
 40
0.8749999999999841
 40
0.8749999999999841
 40
0.9062499999999895
 40
0.9062499999999895
 40
0.921874999999992
 40
0.921874999999992
 40
0.9374999999999943
 40
0.9374999999999943
 40
0.9687499999999971
 40
0.9687499999999971
 40
1.0
 40
1.0
 40
1.0
 40
1.0
 10
5248.884755098909
 20
3033.898424306763
 30
0.0
 10
5248.884044807001
 20
3033.898424183103
 30
0.0
 10
5248.883346377206
 20
3033.89849371978
 30
0.0
 10
5248.882315798772
 20
3033.898698248102
 30
0.0
 10
5248.881975138147
 20
3033.898783252271
 30
0.0
 10
5248.881299678775
 20
3033.898987685466
 30
0.0
 10
5248.880963955738
 20
3033.899107694232
 30
0.0
 10
5248.87998736218
 20
3033.89951208146
 30
0.0
 10
5248.879369773074
 20
3033.89984206769
 30
0.0
 10
5248.878493151004
 20
3033.900426831918
 30
0.0
 10
5248.878208365542
 20
3033.900637596023
 30
0.0
 10
5248.877660312057
 20
3033.901087022353
 30
0.0
 10
5248.877399505015
 20
3033.901323502039
 30
0.0
 10
5248.876655504166
 20
3033.902067138339
 30
0.0
 10
5248.876210366929
 20
3033.902608168468
 30
0.0
 10
5248.875620775752
 20
3033.903489243323
 30
0.0
 10
5248.875437702801
 20
3033.90379454448
 30
0.0
 10
5248.875105917345
 20
3033.904415064882
 30
0.0
 10
5248.874806184693
 20
3033.90504875903
 30
0.0
 10
5248.87456958604
 20
3033.905708401511
 30
0.0
 10
5248.874364983215
 20
3033.906381194457
 30
0.0
 10
5248.874278345592
 20
3033.906726010594
 30
0.0
 10
5248.874071159661
 20
3033.907766665993
 30
0.0
 10
5248.874002849756
 20
3033.908464114006
 30
0.0
 10
5248.8740022999
 20
3033.909515654634
 30
0.0
 10
5248.874019224778
 20
3033.909867069385
 30
0.0
 10
5248.874088329811
 20
3033.910571755957
 30
0.0
 10
5248.874140477814
 20
3033.910922880253
 30
0.0
 10
5248.874346208844
 20
3033.911956894624
 30
0.0
 10
5248.874549168156
 20
3033.912626980534
 30
0.0
 10
5248.87495285416
 20
3033.913603065447
 30
0.0
 10
5248.875105074342
 20
3033.91392525025
 30
0.0
 10
5248.875437990853
 20
3033.914548091455
 30
0.0
 10
5248.875618677086
 20
3033.914849311215
 30
0.0
 10
5248.876202393083
 20
3033.915723103848
 30
0.0
 10
5248.876646673595
 20
3033.916266101554
 30
0.0
 10
5248.877649799273
 20
3033.91726995764
 30
0.0
 10
5248.878194003264
 20
3033.917715793478
 30
0.0
 10
5248.879067224027
 20
3033.918299891912
 30
0.0
 10
5248.879368093974
 20
3033.918480617403
 30
0.0
 10
5248.879989838346
 20
3033.918813533002
 30
0.0
 10
5248.880312141247
 20
3033.918966157664
 30
0.0
 10
5248.881289330379
 20
3033.919371180424
 30
0.0
 10
5248.881959511141
 20
3033.919574600116
 30
0.0
 10
5248.883336852181
 20
3033.919849896095
 30
0.0
 10
5248.884049364866
 20
3033.919920524204
 30
0.0
 10
5248.885452641576
 20
3033.919921234741
 30
0.0
 10
5248.886149966162
 20
3033.919853595367
 30
0.0
 10
5248.887189350629
 20
3033.919648069268
 30
0.0
 10
5248.887535070971
 20
3033.919561740894
 30
0.0
 10
5248.888209066463
 20
3033.919357753633
 30
0.0
 10
5248.88886952584
 20
3033.919121819979
 30
0.0
 10
5248.88950336726
 20
3033.918823066029
 30
0.0
 10
5248.890123741386
 20
3033.91849252851
 30
0.0
 10
5248.890428542686
 20
3033.918310448454
 30
0.0
 10
5248.891312192827
 20
3033.917721165857
 30
0.0
 10
5248.891854144522
 20
3033.917276488007
 30
0.0
 10
5248.892598474538
 20
3033.916534074022
 30
0.0
 10
5248.892835068733
 20
3033.916273945388
 30
0.0
 10
5248.89328456665
 20
3033.915727649541
 30
0.0
 10
5248.89349656421
 20
3033.91544224093
 30
0.0
 10
5248.894083280593
 20
3033.914565625206
 30
0.0
 10
5248.89441399813
 20
3033.913948580232
 30
0.0
 10
5248.894819245625
 20
3033.912973959947
 30
0.0
 10
5248.89493961013
 20
3033.912638926599
 30
0.0
 10
5248.895145305494
 20
3033.911962784267
 30
0.0
 10
5248.895230815752
 20
3033.911621953926
 30
0.0
 10
5248.895436673983
 20
3033.910591398674
 30
0.0
 10
5248.895506840162
 20
3033.909893687652
 30
0.0
 10
5248.895507927521
 20
3033.90883054442
 30
0.0
 10
5248.895490675892
 20
3033.908476732043
 30
0.0
 10
5248.895422238885
 20
3033.907777630328
 30
0.0
 10
5248.895319876712
 20
3033.907084684291
 30
0.0
 10
5248.895150330722
 20
3033.906403928498
 30
0.0
 10
5248.894946547336
 20
3033.905729384826
 30
0.0
 10
5248.894826749898
 20
3033.905393607866
 30
0.0
 10
5248.89442226044
 20
3033.904415532791
 30
0.0
 10
5248.894092294881
 20
3033.903797754933
 30
0.0
 10
5248.89331366856
 20
3033.902629653057
 30
0.0
 10
5248.892859903186
 20
3033.902075790857
 30
0.0
 10
5248.891867906132
 20
3033.901082590113
 30
0.0
 10
5248.891327089738
 20
3033.900637430555
 30
0.0
 10
5248.890447513901
 20
3033.900048142243
 30
0.0
 10
5248.890141875016
 20
3033.899864573823
 30
0.0
 10
5248.889520667774
 20
3033.899531943405
 30
0.0
 10
5248.889203628907
 20
3033.89938177075
 30
0.0
 10
5248.888233564386
 20
3033.898978782819
 30
0.0
 10
5248.887559491692
 20
3033.898772580026
 30
0.0
 10
5248.886168316159
 20
3033.89849421904
 30
0.0
 10
5248.885465390817
 20
3033.898424430423
 30
0.0
 10
5248.884755098909
 20
3033.898424306763
 30
0.0
  0
SPLINE
  5
169A
330
1F
100
AcDbEntity
  8
SANINDUSA
100
AcDbSpline
210
0.0
220
0.0
230
1.0
 70
    11
 71
     3
 72
    26
 73
    22
 74
     0
 42
0.0000000001
 43
0.0000000001
 40
0.0
 40
0.0
 40
0.0
 40
0.0
 40
0.0536826733145617
 40
0.1073653324150654
 40
0.1610489967210837
 40
0.2147371665140888
 40
0.2684291022970287
 40
0.3221239213582915
 40
0.3758185299341209
 40
0.4295104473788216
 40
0.4831982679234332
 40
0.5368819512336409
 40
0.5905645583519911
 40
0.6442486796817796
 40
0.697935606300876
 40
0.7516266757614434
 40
0.8053202370550625
 40
0.859014694761292
 40
0.9127074227753489
 40
0.966396863383907
 40
1.0
 40
1.0
 40
1.0
 40
1.0
 10
5248.724754112663
 20
3033.818411153386
 30
0.0
 10
5248.723545485876
 20
3033.818529818423
 30
0.0
 10
5248.721128232624
 20
3033.818767148466
 30
0.0
 10
5248.717911075596
 20
3033.820619252578
 30
0.0
 10
5248.715465259127
 20
3033.823347092782
 30
0.0
 10
5248.714066546829
 20
3033.826753577759
 30
0.0
 10
5248.713872635234
 20
3033.830425213115
 30
0.0
 10
5248.714905665376
 20
3033.833955948006
 30
0.0
 10
5248.717049197409
 20
3033.836945440534
 30
0.0
 10
5248.720061483491
 20
3033.839057051756
 30
0.0
 10
5248.723602692883
 20
3033.840052635114
 30
0.0
 10
5248.727273536942
 20
3033.839820098697
 30
0.0
 10
5248.730660223665
 20
3033.838385785367
 30
0.0
 10
5248.733381107871
 20
3033.835911429888
 30
0.0
 10
5248.735129600877
 20
3033.832675974354
 30
0.0
 10
5248.735708342895
 20
3033.829043542545
 30
0.0
 10
5248.73505211827
 20
3033.82542530684
 30
0.0
 10
5248.733234327985
 20
3033.822223207147
 30
0.0
 10
5248.730461835133
 20
3033.8198211306
 30
0.0
 10
5248.727466817444
 20
3033.818581734451
 30
0.0
 10
5248.725508112838
 20
3033.818458566637
 30
0.0
 10
5248.724754112663
 20
3033.818411153386
 30
0.0
  0
SPLINE
  5
169C
330
1F
100
AcDbEntity
  8
SANINDUSA
100
AcDbSpline
210
0.0
220
0.0
230
1.0
 70
    11
 71
     3
 72
    26
 73
    22
 74
     0
 42
0.0000000001
 43
0.0000000001
 40
0.0
 40
0.0
 40
0.0
 40
0.0
 40
0.0536883750605325
 40
0.1073775975018766
 40
0.1610693449146489
 40
0.2147602787188322
 40
0.2684492812164551
 40
0.3221367325854121
 40
0.3758240483833937
 40
0.4295114980481697
 40
0.4832004077476152
 40
0.5368899598595866
 40
0.5905792525721302
 40
0.6442672866145794
 40
0.6979557532463112
 40
0.7516454828557961
 40
0.8053350357555485
 40
0.8590250054524865
 40
0.9127133288249286
 40
0.9663998742258723
 40
1.0
 40
1.0
 40
1.0
 40
1.0
 10
5249.044781106414
 20
3033.818419259617
 30
0.0
 10
5249.04357238238
 20
3033.818538403489
 30
0.0
 10
5249.04115491523
 20
3033.81877669311
 30
0.0
 10
5249.037937456705
 20
3033.82063024712
 30
0.0
 10
5249.035491583082
 20
3033.823359444704
 30
0.0
 10
5249.034093011661
 20
3033.826766758286
 30
0.0
 10
5249.033899533894
 20
3033.830438442574
 30
0.0
 10
5249.034932869026
 20
3033.833968420833
 30
0.0
 10
5249.037076444452
 20
3033.836956672214
 30
0.0
 10
5249.040088659061
 20
3033.839066915963
 30
0.0
 10
5249.043629923561
 20
3033.840061039252
 30
0.0
 10
5249.047301006315
 20
3033.839827155834
 30
0.0
 10
5249.050687936116
 20
3033.838391340996
 30
0.0
 10
5249.053408920008
 20
3033.83591567441
 30
0.0
 10
5249.055157121794
 20
3033.83267922706
 30
0.0
 10
5249.055735536647
 20
3033.82904649433
 30
0.0
 10
5249.055078943236
 20
3033.825428624531
 30
0.0
 10
5249.053260938519
 20
3033.822227498744
 30
0.0
 10
5249.050488445321
 20
3033.819826730147
 30
0.0
 10
5249.047493570447
 20
3033.81858871053
 30
0.0
 10
5249.045535027727
 20
3033.818466357995
 30
0.0
 10
5249.044781106414
 20
3033.818419259617
 30
0.0
  0
SPLINE
  5
169E
330
1F
100
AcDbEntity
  8
SANINDUSA
100
AcDbSpline
210
0.0
220
0.0
230
1.0
 70
    11
 71
     3
 72
    26
 73
    22
 74
     0
 42
0.0000000001
 43
0.0000000001
 40
0.0
 40
0.0
 40
0.0
 40
0.0
 40
0.0536920124210512
 40
0.1073844722309457
 40
0.1610737926419802
 40
0.2147612298064746
 40
0.2684464263252221
 40
0.3221319149363484
 40
0.3758181758950701
 40
0.4295063236783652
 40
0.4831963498338597
 40
0.5368884884514209
 40
0.5905809099650784
 40
0.6442719090139344
 40
0.6979608272364817
 40
0.7516467929746379
 40
0.8053313559616329
 40
0.8590166230696663
 40
0.9127038016709899
 40
0.9663940650286189
 40
1.0
 40
1.0
 40
1.0
 40
1.0
 10
5248.80474584073
 20
3033.818424743245
 30
0.0
 10
5248.803536971688
 20
3033.818543299683
 30
0.0
 10
5248.801119223529
 20
3033.818780413545
 30
0.0
 10
5248.797901564325
 20
3033.820632685527
 30
0.0
 10
5248.795455590577
 20
3033.823360762019
 30
0.0
 10
5248.794057166485
 20
3033.826767388627
 30
0.0
 10
5248.793863754489
 20
3033.830438867265
 30
0.0
 10
5248.794897148309
 20
3033.833969254059
 30
0.0
 10
5248.797040838844
 20
3033.836958480602
 30
0.0
 10
5248.800053189244
 20
3033.839070152314
 30
0.0
 10
5248.803594687323
 20
3033.840066015424
 30
0.0
 10
5248.807266078945
 20
3033.839833724164
 30
0.0
 10
5248.810653367918
 20
3033.838399410246
 30
0.0
 10
5248.813374585978
 20
3033.835924798838
 30
0.0
 10
5248.815122861426
 20
3033.832689061001
 30
0.0
 10
5248.815701152912
 20
3033.829056677177
 30
0.0
 10
5248.815044494638
 20
3033.825438780105
 30
0.0
 10
5248.813226478718
 20
3033.822237046944
 30
0.0
 10
5248.81045388276
 20
3033.819835090838
 30
0.0
 10
5248.807458763582
 20
3033.818595522811
 30
0.0
 10
5248.805499924272
 20
3033.818472213102
 30
0.0
 10
5248.80474584073
 20
3033.818424743245
 30
0.0
  0
SPLINE
  5
16A0
330
1F
100
AcDbEntity
  8
SANINDUSA
100
AcDbSpline
210
0.0
220
0.0
230
1.0
 70
    11
 71
     3
 72
    26
 73
    22
 74
     0
 42
0.0000000001
 43
0.0000000001
 40
0.0
 40
0.0
 40
0.0
 40
0.0
 40
0.0537105059298221
 40
0.1074202113611001
 40
0.1611223984112154
 40
0.2148114230703655
 40
0.2684860745683262
 40
0.3221540222068821
 40
0.3758238636197005
 40
0.4295048459797387
 40
0.483199364227028
 40
0.5369042067352465
 40
0.5906128200921709
 40
0.644315986639451
 40
0.6980089240958363
 40
0.7516895329303041
 40
0.8053605416910349
 40
0.8590294259757348
 40
0.9127048062285748
 40
0.9663928624782137
 40
1.0
 40
1.0
 40
1.0
 40
1.0
 10
5248.964776593151
 20
3033.818438988755
 30
0.0
 10
5248.963567135835
 20
3033.81855815995
 30
0.0
 10
5248.961148239229
 20
3033.818796500566
 30
0.0
 10
5248.95792916552
 20
3033.820650898732
 30
0.0
 10
5248.955482554982
 20
3033.823380972087
 30
0.0
 10
5248.954084448005
 20
3033.82678880857
 30
0.0
 10
5248.953891961653
 20
3033.830460173889
 30
0.0
 10
5248.954926157765
 20
3033.833989291418
 30
0.0
 10
5248.957070445971
 20
3033.836976649411
 30
0.0
 10
5248.960083221322
 20
3033.839086642037
 30
0.0
 10
5248.963625579894
 20
3033.840080835936
 30
0.0
 10
5248.967298256668
 20
3033.839846846471
 30
0.0
 10
5248.970686784406
 20
3033.838410318359
 30
0.0
 10
5248.973408751538
 20
3033.835933568769
 30
0.0
 10
5248.975156899723
 20
3033.832696191321
 30
0.0
 10
5248.97573442664
 20
3033.829063334742
 30
0.0
 10
5248.975076888594
 20
3033.825446282994
 30
0.0
 10
5248.973258291175
 20
3033.822246308755
 30
0.0
 10
5248.97048531521
 20
3033.819846401297
 30
0.0
 10
5248.967489915014
 20
3033.818608560575
 30
0.0
 10
5248.965530813355
 20
3033.818486124517
 30
0.0
 10
5248.964776593151
 20
3033.818438988755
 30
0.0
  0
SPLINE
  5
16A2
330
1F
100
AcDbEntity
  8
SANINDUSA
100
AcDbSpline
210
0.0
220
0.0
230
1.0
 70
    11
 71
     3
 72
    26
 73
    22
 74
     0
 42
0.0000000001
 43
0.0000000001
 40
0.0
 40
0.0
 40
0.0
 40
0.0
 40
0.0536910761884089
 40
0.1073802671863436
 40
0.1610645936564671
 40
0.2147477086453658
 40
0.2684349503904056
 40
0.3221263363181102
 40
0.3758201244436789
 40
0.4295115403365813
 40
0.4831996574677165
 40
0.5368848036348222
 40
0.5905719699832536
 40
0.6442600134374008
 40
0.6979493439417449
 40
0.7516394587694343
 40
0.8053288560385535
 40
0.8590155064690168
 40
0.9127029279296563
 40
0.9663919390449805
 40
1.0
 40
1.0
 40
1.0
 40
1.0
 10
5249.12476627797
 20
3033.738432210514
 30
0.0
 10
5249.123557410277
 20
3033.738551083847
 30
0.0
 10
5249.121139717333
 20
3033.738788826337
 30
0.0
 10
5249.117922156682
 20
3033.740641603298
 30
0.0
 10
5249.115476404154
 20
3033.743369877564
 30
0.0
 10
5249.11407800382
 20
3033.746776305606
 30
0.0
 10
5249.113884487673
 20
3033.75044747898
 30
0.0
 10
5249.114917773503
 20
3033.753977557156
 30
0.0
 10
5249.117061471149
 20
3033.756966345508
 30
0.0
 10
5249.120073983496
 20
3033.759077186973
 30
0.0
 10
5249.123615433745
 20
3033.760071875424
 30
0.0
 10
5249.127286554871
 20
3033.759838636088
 30
0.0
 10
5249.130673540193
 20
3033.75840360967
 30
0.0
 10
5249.133394654917
 20
3033.755928675989
 30
0.0
 10
5249.135143118766
 20
3033.752692885856
 30
0.0
 10
5249.135721654305
 20
3033.749060563354
 30
0.0
 10
5249.135065060298
 20
3033.745442999381
 30
0.0
 10
5249.133247070226
 20
3033.742241936382
 30
0.0
 10
5249.130474468233
 20
3033.739840969236
 30
0.0
 10
5249.127479318912
 20
3033.738602255762
 30
0.0
 10
5249.125520423334
 20
3033.738479478078
 30
0.0
 10
5249.12476627797
 20
3033.738432210514
 30
0.0
  0
SPLINE
  5
16A4
330
1F
100
AcDbEntity
  8
SANINDUSA
100
AcDbSpline
210
0.0
220
0.0
230
1.0
 70
    11
 71
     3
 72
    26
 73
    22
 74
     0
 42
0.0000000001
 43
0.0000000001
 40
0.0
 40
0.0
 40
0.0
 40
0.0
 40
0.0537062838241716
 40
0.1074115899674441
 40
0.1611071438642376
 40
0.2147912543266513
 40
0.2684657798949431
 40
0.3221365513933927
 40
0.3758113563339167
 40
0.4294950138613241
 40
0.4831909026509333
 40
0.5368961391300547
 40
0.5906030540992735
 40
0.6443044818274556
 40
0.6979941811234275
 40
0.7516705902735433
 40
0.8053397437132874
 40
0.8590105195262765
 40
0.9126913898030121
 40
0.9663858298405374
 40
1.0
 40
1.0
 40
1.0
 40
1.0
 10
5248.884752559366
 20
3033.81844059808
 30
0.0
 10
5248.883543163898
 20
3033.818559240402
 30
0.0
 10
5248.881124394976
 20
3033.818796522885
 30
0.0
 10
5248.877905517484
 20
3033.82064952367
 30
0.0
 10
5248.875459008065
 20
3033.82337838734
 30
0.0
 10
5248.874060790905
 20
3033.826785437782
 30
0.0
 10
5248.873867896243
 20
3033.830456697462
 30
0.0
 10
5248.874901757056
 20
3033.833986443216
 30
0.0
 10
5248.877045723136
 20
3033.836975035596
 30
0.0
 10
5248.880058481829
 20
3033.83908641681
 30
0.0
 10
5248.883600873881
 20
3033.840082154654
 30
0.0
 10
5248.887273632938
 20
3033.839849644231
 30
0.0
 10
5248.890662398722
 20
3033.838414694963
 30
0.0
 10
5248.893384494738
 20
3033.835939058582
 30
0.0
 10
5248.895132880098
 20
3033.832702605155
 30
0.0
 10
5248.895710681365
 20
3033.829070218597
 30
0.0
 10
5248.895053451798
 20
3033.825453029028
 30
0.0
 10
5248.893235084158
 20
3033.822252173256
 30
0.0
 10
5248.890462146281
 20
3033.819850718412
 30
0.0
 10
5248.887466398188
 20
3033.818611250532
 30
0.0
 10
5248.885506953531
 20
3033.818488036127
 30
0.0
 10
5248.884752559366
 20
3033.81844059808
 30
0.0
  0
SPLINE
  5
16A6
330
1F
100
AcDbEntity
  8
SANINDUSA
100
AcDbSpline
210
0.0
220
0.0
230
1.0
 70
    11
 71
     3
 72
    95
 73
    91
 74
     0
 42
0.0000000001
 43
0.0000000001
 40
0.0
 40
0.0
 40
0.0
 40
0.0
 40
0.0312500000000079
 40
0.0312500000000079
 40
0.0468750000000124
 40
0.0468750000000124
 40
0.0625000000000168
 40
0.0625000000000168
 40
0.0937500000000268
 40
0.0937500000000268
 40
0.1093750000000299
 40
0.1093750000000299
 40
0.1250000000000331
 40
0.1250000000000331
 40
0.1562500000000366
 40
0.1562500000000366
 40
0.1718750000000405
 40
0.1718750000000405
 40
0.1875000000000444
 40
0.2031250000000482
 40
0.2031250000000482
 40
0.218750000000052
 40
0.218750000000052
 40
0.2500000000000597
 40
0.2500000000000597
 40
0.2656250000000611
 40
0.2656250000000611
 40
0.2812500000000624
 40
0.2812500000000624
 40
0.3125000000000649
 40
0.3125000000000649
 40
0.328125000000064
 40
0.328125000000064
 40
0.3437500000000632
 40
0.3437500000000632
 40
0.3750000000000617
 40
0.3750000000000617
 40
0.4062500000000601
 40
0.4062500000000601
 40
0.4218750000000588
 40
0.4218750000000588
 40
0.4375000000000575
 40
0.4375000000000575
 40
0.4687500000000548
 40
0.4687500000000548
 40
0.5000000000000523
 40
0.5000000000000523
 40
0.5312500000000496
 40
0.5312500000000496
 40
0.5468750000000478
 40
0.5468750000000478
 40
0.5625000000000459
 40
0.5781250000000441
 40
0.5781250000000441
 40
0.5937500000000423
 40
0.5937500000000423
 40
0.625000000000035
 40
0.625000000000035
 40
0.640625000000031
 40
0.640625000000031
 40
0.6562500000000269
 40
0.6562500000000269
 40
0.6875000000000228
 40
0.6875000000000228
 40
0.7031250000000208
 40
0.7031250000000208
 40
0.7187500000000188
 40
0.7187500000000188
 40
0.750000000000015
 40
0.750000000000015
 40
0.7656250000000155
 40
0.7656250000000155
 40
0.7812500000000159
 40
0.7968750000000165
 40
0.7968750000000165
 40
0.8125000000000168
 40
0.8125000000000168
 40
0.843750000000014
 40
0.843750000000014
 40
0.875000000000011
 40
0.875000000000011
 40
0.9062500000000079
 40
0.9062500000000079
 40
0.9218750000000056
 40
0.9218750000000056
 40
0.9375000000000031
 40
0.9375000000000031
 40
0.9687500000000015
 40
0.9687500000000015
 40
1.0
 40
1.0
 40
1.0
 40
1.0
 10
5248.724752805633
 20
3033.73843083146
 30
0.0
 10
5248.72404263537
 20
3033.738430722674
 30
0.0
 10
5248.723344332408
 20
3033.7385002925
 30
0.0
 10
5248.722313950874
 20
3033.738704890689
 30
0.0
 10
5248.721973357009
 20
3033.73878992157
 30
0.0
 10
5248.721298033403
 20
3033.738994414461
 30
0.0
 10
5248.720962389501
 20
3033.73911445318
 30
0.0
 10
5248.719986046308
 20
3033.739518925358
 30
0.0
 10
5248.719368624378
 20
3033.739848970448
 30
0.0
 10
5248.718492252172
 20
3033.740433821995
 30
0.0
 10
5248.718207536305
 20
3033.74064462698
 30
0.0
 10
5248.717659692767
 20
3033.741094072473
 30
0.0
 10
5248.717398986115
 20
3033.741330559566
 30
0.0
 10
5248.71665527367
 20
3033.742074211822
 30
0.0
 10
5248.716210311798
 20
3033.7426152443
 30
0.0
 10
5248.715620959582
 20
3033.743496310033
 30
0.0
 10
5248.715437982032
 20
3033.743801573597
 30
0.0
 10
5248.715106362666
 20
3033.744422020955
 30
0.0
 10
5248.714806777581
 20
3033.745055639671
 30
0.0
 10
5248.7145702935
 20
3033.745715203132
 30
0.0
 10
5248.714365789708
 20
3033.746387915604
 30
0.0
 10
5248.714279193408
 20
3033.746732697437
 30
0.0
 10
5248.714072124728
 20
3033.747773139757
 30
0.0
 10
5248.714003847528
 20
3033.748470456177
 30
0.0
 10
5248.71400329447
 20
3033.74952181534
 30
0.0
 10
5248.71402020944
 20
3033.749873172279
 30
0.0
 10
5248.714089278463
 20
3033.75057774889
 30
0.0
 10
5248.714141396466
 20
3033.75092879433
 30
0.0
 10
5248.714347015839
 20
3033.751962618152
 30
0.0
 10
5248.714549869606
 20
3033.752632599976
 30
0.0
 10
5248.714953364715
 20
3033.753608559901
 30
0.0
 10
5248.715105515175
 20
3033.753930707522
 30
0.0
 10
5248.715438282141
 20
3033.754553480252
 30
0.0
 10
5248.715618890098
 20
3033.754854671705
 30
0.0
 10
5248.716202363759
 20
3033.755728395032
 30
0.0
 10
5248.716646472683
 20
3033.756271367266
 30
0.0
 10
5248.717649248888
 20
3033.757275206422
 30
0.0
 10
5248.718193299676
 20
3033.757721066255
 30
0.0
 10
5248.719066279848
 20
3033.758305193682
 30
0.0
 10
5248.719367070354
 20
3033.758485930355
 30
0.0
 10
5248.719988658231
 20
3033.758818870321
 30
0.0
 10
5248.720310889826
 20
3033.758971511284
 30
0.0
 10
5248.721287881336
 20
3033.759376582549
 30
0.0
 10
5248.721957932021
 20
3033.759580027428
 30
0.0
 10
5248.723335016737
 20
3033.759855357743
 30
0.0
 10
5248.724047411268
 20
3033.75992599532
 30
0.0
 10
5248.725450445561
 20
3033.759926699307
 30
0.0
 10
5248.726147643832
 20
3033.759859045514
 30
0.0
 10
5248.727186831196
 20
3033.759653482317
 30
0.0
 10
5248.727532477033
 20
3033.75956714051
 30
0.0
 10
5248.728206318286
 20
3033.759363125356
 30
0.0
 10
5248.728866620876
 20
3033.759127162651
 30
0.0
 10
5248.729500300314
 20
3033.758828376492
 30
0.0
 10
5248.730120510181
 20
3033.758497805716
 30
0.0
 10
5248.73042523605
 20
3033.758315702389
 30
0.0
 10
5248.731308575447
 20
3033.757726408598
 30
0.0
 10
5248.731850328308
 20
3033.7572817294
 30
0.0
 10
5248.732594373302
 20
3033.75653932178
 30
0.0
 10
5248.73283087471
 20
3033.756279196675
 30
0.0
 10
5248.733280191818
 20
3033.755732910696
 30
0.0
 10
5248.73349207564
 20
3033.755447542997
 30
0.0
 10
5248.73407849637
 20
3033.754571031526
 30
0.0
 10
5248.734409047321
 20
3033.753954060088
 30
0.0
 10
5248.734814087047
 20
3033.752979552789
 30
0.0
 10
5248.734934388238
 20
3033.75264455696
 30
0.0
 10
5248.735139957592
 20
3033.751968554315
 30
0.0
 10
5248.735225416868
 20
3033.751627791093
 30
0.0
 10
5248.735431154159
 20
3033.750597428574
 30
0.0
 10
5248.735501282084
 20
3033.749899834599
 30
0.0
 10
5248.735502367327
 20
3033.748836847238
 30
0.0
 10
5248.735485126264
 20
3033.74848312272
 30
0.0
 10
5248.735416730216
 20
3033.747784149168
 30
0.0
 10
5248.735314430439
 20
3033.747091317377
 30
0.0
 10
5248.735144980277
 20
3033.746410650072
 30
0.0
 10
5248.734941307591
 20
3033.745736182286
 30
0.0
 10
5248.734821574235
 20
3033.745400440235
 30
0.0
 10
5248.734417299954
 20
3033.744422462708
 30
0.0
 10
5248.734087499878
 20
3033.743804719676
 30
0.0
 10
5248.733309228462
 20
3033.742636640616
 30
0.0
 10
5248.732855649517
 20
3033.742082759435
 30
0.0
 10
5248.731864014931
 20
3033.741089491831
 30
0.0
 10
5248.73132338006
 20
3033.740644287798
 30
0.0
 10
5248.730444068938
 20
3033.740054926183
 30
0.0
 10
5248.730138508761
 20
3033.739871326883
 30
0.0
 10
5248.729517450419
 20
3033.739538637967
 30
0.0
 10
5248.729200484931
 20
3033.739388438638
 30
0.0
 10
5248.728230637069
 20
3033.738985379168
 30
0.0
 10
5248.727556714893
 20
3033.738779141587
 30
0.0
 10
5248.726165780254
 20
3033.738500732716
 30
0.0
 10
5248.725462975894
 20
3033.738430940247
 30
0.0
 10
5248.724752805633
 20
3033.73843083146
 30
0.0
  0
SPLINE
  5
16A8
330
1F
100
AcDbEntity
  8
SANINDUSA
100
AcDbSpline
210
0.0
220
0.0
230
1.0
 70
    11
 71
     3
 72
    26
 73
    22
 74
     0
 42
0.0000000001
 43
0.0000000001
 40
0.0
 40
0.0
 40
0.0
 40
0.0
 40
0.0536837916608189
 40
0.1073672072243451
 40
0.1610516030200525
 40
0.2147380478415374
 40
0.268425662435533
 40
0.3221150595227547
 40
0.3758068265593027
 40
0.4295017105953363
 40
0.4831959778832454
 40
0.5368869675041985
 40
0.5905724431564938
 40
0.6442535437605534
 40
0.697934300860818
 40
0.7516190875563115
 40
0.8053106373865027
 40
0.8590060900787966
 40
0.9127025485215131
 40
0.9663956188801092
 40
1.0
 40
1.0
 40
1.0
 40
1.0
 10
5249.044781434239
 20
3033.738439422677
 30
0.0
 10
5249.043572827151
 20
3033.738558475803
 30
0.0
 10
5249.041155621437
 20
3033.738796581221
 30
0.0
 10
5249.03793845076
 20
3033.740649645276
 30
0.0
 10
5249.035492614947
 20
3033.743378173742
 30
0.0
 10
5249.034093906005
 20
3033.746784902738
 30
0.0
 10
5249.033899974093
 20
3033.75045621066
 30
0.0
 10
5249.034932790421
 20
3033.753986166928
 30
0.0
 10
5249.037076016221
 20
3033.756974718662
 30
0.0
 10
5249.040088097039
 20
3033.759085437637
 30
0.0
 10
5249.043629412706
 20
3033.760080103291
 30
0.0
 10
5249.0473005074
 20
3033.759846491423
 30
0.0
 10
5249.050687336085
 20
3033.758411130198
 30
0.0
 10
5249.053408063154
 20
3033.755935980557
 30
0.0
 10
5249.055156402093
 20
3033.752700353148
 30
0.0
 10
5249.055735137221
 20
3033.749068188043
 30
0.0
 10
5249.055079098974
 20
3033.745450481514
 30
0.0
 10
5249.053261542326
 20
3033.742249001547
 30
0.0
 10
5249.050489174479
 20
3033.739847697626
 30
0.0
 10
5249.047494165065
 20
3033.738609133218
 30
0.0
 10
5249.045535431417
 20
3033.738486593324
 30
0.0
 10
5249.044781434239
 20
3033.738439422677
 30
0.0
  0
SPLINE
  5
16AA
330
1F
100
AcDbEntity
  8
SANINDUSA
100
AcDbSpline
210
0.0
220
0.0
230
1.0
 70
    11
 71
     3
 72
    26
 73
    22
 74
     0
 42
0.0000000001
 43
0.0000000001
 40
0.0
 40
0.0
 40
0.0
 40
0.0
 40
0.0536926328374919
 40
0.1073850283340943
 40
0.1610784463934886
 40
0.2147710746550849
 40
0.2684606317884968
 40
0.3221468061106899
 40
0.3758307366403204
 40
0.4295137027165924
 40
0.4831991586822634
 40
0.5368881598145221
 40
0.5905814023127635
 40
0.6442760603046566
 40
0.6979708605453646
 40
0.7516606608752365
 40
0.8053462167914315
 40
0.859029097627196
 40
0.9127126668631929
 40
0.9663986954520076
 40
1.0
 40
1.0
 40
1.0
 40
1.0
 10
5248.804745512905
 20
3033.738444071839
 30
0.0
 10
5248.803536632054
 20
3033.738562700787
 30
0.0
 10
5248.801118875697
 20
3033.738799958158
 30
0.0
 10
5248.797901156409
 20
3033.74065223794
 30
0.0
 10
5248.7954551774
 20
3033.743380477084
 30
0.0
 10
5248.794056755178
 20
3033.746787291987
 30
0.0
 10
5248.793863511936
 20
3033.750458898238
 30
0.0
 10
5248.794897192651
 20
3033.753989187366
 30
0.0
 10
5248.79704108126
 20
3033.756978061097
 30
0.0
 10
5248.800053436378
 20
3033.759089292724
 30
0.0
 10
5248.803594773355
 20
3033.760084784704
 30
0.0
 10
5248.807265994726
 20
3033.759852281345
 30
0.0
 10
5248.81065324535
 20
3033.758417921558
 30
0.0
 10
5248.813374585074
 20
3033.755943208357
 30
0.0
 10
5248.815122871616
 20
3033.752707240437
 30
0.0
 10
5248.815701023511
 20
3033.749074693912
 30
0.0
 10
5248.8150441193
 20
3033.745456849644
 30
0.0
 10
5248.813225813236
 20
3033.742255444731
 30
0.0
 10
5248.810453157035
 20
3033.739853905123
 30
0.0
 10
5248.807458172612
 20
3033.73861466355
 30
0.0
 10
5248.805499503575
 20
3033.738491488239
 30
0.0
 10
5248.804745512905
 20
3033.738444071839
 30
0.0
  0
SPLINE
  5
16AC
330
1F
100
AcDbEntity
  8
SANINDUSA
100
AcDbSpline
210
0.0
220
0.0
230
1.0
 70
    11
 71
     3
 72
    95
 73
    91
 74
     0
 42
0.0000000001
 43
0.0000000001
 40
0.0
 40
0.0
 40
0.0
 40
0.0
 40
0.0312500000000098
 40
0.0312500000000098
 40
0.046875000000013
 40
0.046875000000013
 40
0.0625000000000162
 40
0.0625000000000162
 40
0.0937500000000248
 40
0.0937500000000248
 40
0.1093750000000301
 40
0.1093750000000301
 40
0.1250000000000355
 40
0.1250000000000355
 40
0.156250000000041
 40
0.156250000000041
 40
0.1718750000000437
 40
0.1718750000000437
 40
0.1875000000000464
 40
0.2031250000000491
 40
0.2031250000000491
 40
0.2187500000000518
 40
0.2187500000000518
 40
0.2500000000000524
 40
0.2500000000000524
 40
0.2656250000000528
 40
0.2656250000000528
 40
0.2812500000000531
 40
0.2812500000000531
 40
0.3125000000000537
 40
0.3125000000000537
 40
0.3281250000000541
 40
0.3281250000000541
 40
0.3437500000000544
 40
0.3437500000000544
 40
0.375000000000055
 40
0.375000000000055
 40
0.4062500000000556
 40
0.4062500000000556
 40
0.4218750000000563
 40
0.4218750000000563
 40
0.437500000000057
 40
0.437500000000057
 40
0.4687500000000583
 40
0.4687500000000583
 40
0.5000000000000595
 40
0.5000000000000595
 40
0.5312500000000609
 40
0.5312500000000609
 40
0.546875000000062
 40
0.546875000000062
 40
0.5625000000000631
 40
0.5781250000000642
 40
0.5781250000000642
 40
0.5937500000000653
 40
0.5937500000000653
 40
0.6250000000000649
 40
0.6250000000000649
 40
0.6406250000000665
 40
0.6406250000000665
 40
0.656250000000068
 40
0.656250000000068
 40
0.687500000000067
 40
0.687500000000067
 40
0.7031250000000665
 40
0.7031250000000665
 40
0.7187500000000659
 40
0.7187500000000659
 40
0.7500000000000642
 40
0.7500000000000642
 40
0.765625000000061
 40
0.765625000000061
 40
0.7812500000000578
 40
0.7968750000000546
 40
0.7968750000000546
 40
0.8125000000000513
 40
0.8125000000000513
 40
0.843750000000044
 40
0.843750000000044
 40
0.8750000000000365
 40
0.8750000000000365
 40
0.9062500000000293
 40
0.9062500000000293
 40
0.9218750000000243
 40
0.9218750000000243
 40
0.9375000000000193
 40
0.9375000000000193
 40
0.9687500000000095
 40
0.9687500000000095
 40
1.0
 40
1.0
 40
1.0
 40
1.0
 10
5248.964777858301
 20
3033.73845753331
 30
0.0
 10
5248.964067566524
 20
3033.738457634078
 30
0.0
 10
5248.963369132295
 20
3033.738527381075
 30
0.0
 10
5248.962338540795
 20
3033.738732203526
 30
0.0
 10
5248.96199787474
 20
3033.738817302146
 30
0.0
 10
5248.961322402361
 20
3033.739021916629
 30
0.0
 10
5248.960986667661
 20
3033.739142013703
 30
0.0
 10
5248.960010029209
 20
3033.739546653626
 30
0.0
 10
5248.959392405004
 20
3033.739876790542
 30
0.0
 10
5248.958515723639
 20
3033.740461754938
 30
0.0
 10
5248.95823092328
 20
3033.740672576448
 30
0.0
 10
5248.957682806696
 20
3033.741122134447
 30
0.0
 10
5248.957421968373
 20
3033.7413586754
 30
0.0
 10
5248.956677874687
 20
3033.742102482353
 30
0.0
 10
5248.956232676874
 20
3033.74264360883
 30
0.0
 10
5248.955642997935
 20
3033.743524802348
 30
0.0
 10
5248.955459886761
 20
3033.743830154092
 30
0.0
 10
5248.955128033619
 20
3033.744450763264
 30
0.0
 10
5248.954828239182
 20
3033.745084536036
 30
0.0
 10
5248.954591589747
 20
3033.745744237063
 30
0.0
 10
5248.954386941438
 20
3033.74641707835
 30
0.0
 10
5248.95430028398
 20
3033.746761909783
 30
0.0
 10
5248.954093037682
 20
3033.747802654545
 30
0.0
 10
5248.954024706453
 20
3033.748500135054
 30
0.0
 10
5248.954024145675
 20
3033.749551684925
 30
0.0
 10
5248.95404107047
 20
3033.749903096124
 30
0.0
 10
5248.954110181585
 20
3033.750607761892
 30
0.0
 10
5248.954162338221
 20
3033.750958885887
 30
0.0
 10
5248.954368103728
 20
3033.751992858976
 30
0.0
 10
5248.954571098774
 20
3033.752662886625
 30
0.0
 10
5248.954974848221
 20
3033.753638840107
 30
0.0
 10
5248.955127091504
 20
3033.753960973984
 30
0.0
 10
5248.955460059296
 20
3033.754583706776
 30
0.0
 10
5248.955640771992
 20
3033.754884865635
 30
0.0
 10
5248.956224567761
 20
3033.755758457131
 30
0.0
 10
5248.956668902028
 20
3033.756301296312
 30
0.0
 10
5248.957672125627
 20
3033.757304790644
 30
0.0
 10
5248.958216368736
 20
3033.757750426156
 30
0.0
 10
5248.959089641882
 20
3033.758334213681
 30
0.0
 10
5248.959390527595
 20
3033.758514833008
 30
0.0
 10
5248.960012299394
 20
3033.758847531775
 30
0.0
 10
5248.960334611869
 20
3033.759000044257
 30
0.0
 10
5248.961311821666
 20
3033.759404732625
 30
0.0
 10
5248.96198201138
 20
3033.759607932301
 30
0.0
 10
5248.963359359943
 20
3033.759882794954
 30
0.0
 10
5248.964071869594
 20
3033.759953208585
 30
0.0
 10
5248.965475141878
 20
3033.759953516542
 30
0.0
 10
5248.966172463906
 20
3033.759885686369
 30
0.0
 10
5248.967211844234
 20
3033.759679888856
 30
0.0
 10
5248.967557568798
 20
3033.759593471174
 30
0.0
 10
5248.968231574917
 20
3033.759389311737
 30
0.0
 10
5248.968892045425
 20
3033.759153212122
 30
0.0
 10
5248.969525898974
 20
3033.758854304025
 30
0.0
 10
5248.970146285792
 20
3033.758523618216
 30
0.0
 10
5248.970451089281
 20
3033.758341469914
 30
0.0
 10
5248.971334792295
 20
3033.757751961785
 30
0.0
 10
5248.971876775576
 20
3033.757307146935
 30
0.0
 10
5248.972621149463
 20
3033.756564548208
 30
0.0
 10
5248.972857757696
 20
3033.756304361478
 30
0.0
 10
5248.973307282827
 20
3033.755757956886
 30
0.0
 10
5248.973519305927
 20
3033.755472481411
 30
0.0
 10
5248.974106082322
 20
3033.754595689923
 30
0.0
 10
5248.974436831179
 20
3033.753978546276
 30
0.0
 10
5248.97484211764
 20
3033.753003808389
 30
0.0
 10
5248.974962494147
 20
3033.752668741386
 30
0.0
 10
5248.975168218277
 20
3033.751992513807
 30
0.0
 10
5248.975253740046
 20
3033.751651647387
 30
0.0
 10
5248.975459626366
 20
3033.750621003371
 30
0.0
 10
5248.975529802748
 20
3033.749923258949
 30
0.0
 10
5248.97553089875
 20
3033.748860106877
 30
0.0
 10
5248.975513647995
 20
3033.748506280538
 30
0.0
 10
5248.975445208504
 20
3033.747807180915
 30
0.0
 10
5248.975342842162
 20
3033.747114251778
 30
0.0
 10
5248.975173287033
 20
3033.746433542547
 30
0.0
 10
5248.974969493275
 20
3033.745759060327
 30
0.0
 10
5248.974849689453
 20
3033.745423319827
 30
0.0
 10
5248.974445174962
 20
3033.744445364789
 30
0.0
 10
5248.974115190688
 20
3033.743827695549
 30
0.0
 10
5248.973336528244
 20
3033.742659863617
 30
0.0
 10
5248.972882744727
 20
3033.742106163748
 30
0.0
 10
5248.971890714074
 20
3033.741113321675
 30
0.0
 10
5248.971349882957
 20
3033.740668360394
 30
0.0
 10
5248.970470290363
 20
3033.74007939447
 30
0.0
 10
5248.97016464763
 20
3033.739895938548
 30
0.0
 10
5248.969543434052
 20
3033.739563535117
 30
0.0
 10
5248.969226392531
 20
3033.739413477486
 30
0.0
 10
5248.968256321703
 20
3033.739010838182
 30
0.0
 10
5248.967582246246
 20
3033.738804873286
 30
0.0
 10
5248.966191074615
 20
3033.738526988751
 30
0.0
 10
5248.965488150077
 20
3033.738457432543
 30
0.0
 10
5248.964777858301
 20
3033.73845753331
 30
0.0
  0
SPLINE
  5
16AE
330
1F
100
AcDbEntity
  8
SANINDUSA
100
AcDbSpline
210
0.0
220
0.0
230
1.0
 70
    11
 71
     3
 72
    26
 73
    22
 74
     0
 42
0.0000000001
 43
0.0000000001
 40
0.0
 40
0.0
 40
0.0
 40
0.0
 40
0.0537046930913769
 40
0.1074094988449218
 40
0.1611099430177303
 40
0.2148006677834389
 40
0.2684801154676
 40
0.3221526499456451
 40
0.3758241655751733
 40
0.4295033404451889
 40
0.4831938637509376
 40
0.5368958592771774
 40
0.5906037341644228
 40
0.6443079498104049
 40
0.6980015927159204
 40
0.7516821380766618
 40
0.8053537745335635
 40
0.8590248988325406
 40
0.9127028612482545
 40
0.966392700240897
 40
1.0
 40
1.0
 40
1.0
 40
1.0
 10
5248.884751307667
 20
3033.738457602093
 30
0.0
 10
5248.88354198937
 20
3033.738576361209
 30
0.0
 10
5248.881123350237
 20
3033.738813879689
 30
0.0
 10
5248.877904598576
 20
3033.740667018982
 30
0.0
 10
5248.875458188916
 20
3033.74339615512
 30
0.0
 10
5248.874059947123
 20
3033.746803472362
 30
0.0
 10
5248.873867309754
 20
3033.750474956915
 30
0.0
 10
5248.874901461063
 20
3033.754004618961
 30
0.0
 10
5248.877045677934
 20
3033.756992800212
 30
0.0
 10
5248.88005838358
 20
3033.759103618086
 30
0.0
 10
5248.883600495531
 20
3033.760098977192
 30
0.0
 10
5248.887272971735
 20
3033.759866127523
 30
0.0
 10
5248.890661503999
 20
3033.758430930704
 30
0.0
 10
5248.893383542205
 20
3033.755955154406
 30
0.0
 10
5248.895131829443
 20
3033.752718470389
 30
0.0
 10
5248.895709415725
 20
3033.749085876299
 30
0.0
 10
5248.895051888396
 20
3033.745468635704
 30
0.0
 10
5248.893233284656
 20
3033.742267948071
 30
0.0
 10
5248.89046019933
 20
3033.739866990677
 30
0.0
 10
5248.887464702468
 20
3033.73862793066
 30
0.0
 10
5248.885505538642
 20
3033.738504947611
 30
0.0
 10
5248.884751307667
 20
3033.738457602093
 30
0.0
  0
SPLINE
  5
16AF
330
1F
100
AcDbEntity
  8
SANINDUSA
100
AcDbSpline
210
0.0
220
0.0
230
1.0
 70
    11
 71
     3
 72
   140
 73
   136
 74
     0
 42
0.0000000001
 43
0.0000000001
 40
0.0
 40
0.0
 40
0.0
 40
0.0
 40
0.0156249999999991
 40
0.0156249999999991
 40
0.0234374999999985
 40
0.0234374999999985
 40
0.0312499999999979
 40
0.0312499999999979
 40
0.0624999999999945
 40
0.0624999999999945
 40
0.0781249999999928
 40
0.0781249999999928
 40
0.0859374999999922
 40
0.0859374999999922
 40
0.0937499999999915
 40
0.0937499999999915
 40
0.1249999999999879
 40
0.1249999999999879
 40
0.1328124999999871
 40
0.1328124999999871
 40
0.1406249999999863
 40
0.1406249999999863
 40
0.1562499999999849
 40
0.1562499999999849
 40
0.1718749999999835
 40
0.1718749999999835
 40
0.1874999999999821
 40
0.1874999999999821
 40
0.2187499999999785
 40
0.2187499999999785
 40
0.2343749999999767
 40
0.2343749999999767
 40
0.2421874999999758
 40
0.2421874999999758
 40
0.2499999999999749
 40
0.2499999999999749
 40
0.281249999999972
 40
0.281249999999972
 40
0.2890624999999712
 40
0.2890624999999712
 40
0.2968749999999705
 40
0.2968749999999705
 40
0.312499999999969
 40
0.312499999999969
 40
0.3437499999999654
 40
0.3437499999999654
 40
0.3515624999999645
 40
0.3515624999999645
 40
0.3593749999999637
 40
0.3593749999999637
 40
0.3749999999999624
 40
0.3749999999999624
 40
0.3906249999999611
 40
0.3906249999999611
 40
0.3984374999999607
 40
0.3984374999999607
 40
0.4062499999999602
 40
0.4062499999999602
 40
0.4374999999999585
 40
0.4374999999999585
 40
0.4531249999999576
 40
0.4531249999999576
 40
0.4609374999999575
 40
0.4609374999999575
 40
0.4687499999999573
 40
0.4687499999999573
 40
0.4999999999999576
 40
0.4999999999999576
 40
0.5312499999999579
 40
0.5312499999999579
 40
0.5390624999999579
 40
0.5390624999999579
 40
0.5468749999999581
 40
0.5468749999999581
 40
0.5624999999999587
 40
0.5624999999999587
 40
0.5937499999999602
 40
0.5937499999999602
 40
0.6015624999999608
 40
0.6015624999999608
 40
0.6093749999999611
 40
0.6093749999999611
 40
0.6249999999999618
 40
0.6249999999999618
 40
0.6406249999999624
 40
0.6406249999999624
 40
0.6484374999999626
 40
0.6484374999999626
 40
0.6562499999999628
 40
0.6562499999999628
 40
0.687499999999965
 40
0.687499999999965
 40
0.7031249999999659
 40
0.7031249999999659
 40
0.7109374999999664
 40
0.7109374999999664
 40
0.7187499999999668
 40
0.7187499999999668
 40
0.7499999999999689
 40
0.7499999999999689
 40
0.7578124999999691
 40
0.7578124999999691
 40
0.7656249999999695
 40
0.7656249999999695
 40
0.7812499999999708
 40
0.7812499999999708
 40
0.7968749999999722
 40
0.7968749999999722
 40
0.8046874999999728
 40
0.8046874999999728
 40
0.8124999999999735
 40
0.8124999999999735
 40
0.8437499999999779
 40
0.8437499999999779
 40
0.8593749999999801
 40
0.8593749999999801
 40
0.8671874999999811
 40
0.8671874999999811
 40
0.8749999999999824
 40
0.8749999999999824
 40
0.9062499999999863
 40
0.9062499999999863
 40
0.9140624999999873
 40
0.9140624999999873
 40
0.9218749999999882
 40
0.9218749999999882
 40
0.9374999999999907
 40
0.9374999999999907
 40
0.9687499999999953
 40
0.9687499999999953
 40
0.9765624999999966
 40
0.9765624999999966
 40
0.9843749999999976
 40
0.9843749999999976
 40
1.0
 40
1.0
 40
1.0
 40
1.0
 10
5248.924762653081
 20
3033.509833369273
 30
0.0
 10
5248.927205472346
 20
3033.50983212461
 30
0.0
 10
5248.929638401724
 20
3033.50995216593
 30
0.0
 10
5248.933273142723
 20
3033.510311927197
 30
0.0
 10
5248.934482275175
 20
3033.510461867448
 30
0.0
 10
5248.936895611349
 20
3033.510822191992
 30
0.0
 10
5248.938099273617
 20
3033.511032657057
 30
0.0
 10
5248.944055536441
 20
3033.512226496333
 30
0.0
 10
5248.948663541067
 20
3033.513636304844
 30
0.0
 10
5248.955345415222
 20
3033.516417554813
 30
0.0
 10
5248.957534160644
 20
3033.517456279688
 30
0.0
 10
5248.960757749923
 20
3033.519186782506
 30
0.0
 10
5248.961818971858
 20
3033.519790786765
 30
0.0
 10
5248.963899201674
 20
3033.521043286409
 30
0.0
 10
5248.964920643818
 20
3033.521693070655
 30
0.0
 10
5248.969935934759
 20
3033.525057844002
 30
0.0
 10
5248.973656664071
 20
3033.528117062302
 30
0.0
 10
5248.977939067788
 20
3033.532405538075
 30
0.0
 10
5248.978776957798
 20
3033.533286664257
 30
0.0
 10
5248.980414765834
 20
3033.535096775014
 30
0.0
 10
5248.981209755285
 20
3033.536020420406
 30
0.0
 10
5248.983515762899
 20
3033.538836278719
 30
0.0
 10
5248.984951789394
 20
3033.540777466589
 30
0.0
 10
5248.987625495386
 20
3033.54478504076
 30
0.0
 10
5248.988863167178
 20
3033.546851431923
 30
0.0
 10
5248.991138658798
 20
3033.551110362643
 30
0.0
 10
5248.992177128262
 20
3033.553304427851
 30
0.0
 10
5248.994977870333
 20
3033.560073442217
 30
0.0
 10
5248.996372075893
 20
3033.564694811169
 30
0.0
 10
5248.997782381278
 20
3033.57178336973
 30
0.0
 10
5248.998138107555
 20
3033.574172507877
 30
0.0
 10
5248.998496021147
 20
3033.57779658819
 30
0.0
 10
5248.998586105749
 20
3033.579013946956
 30
0.0
 10
5248.998705678211
 20
3033.581450355534
 30
0.0
 10
5248.998735100427
 20
3033.582665160929
 30
0.0
 10
5248.998733226421
 20
3033.588722510829
 30
0.0
 10
5248.998259206995
 20
3033.593515497838
 30
0.0
 10
5248.99708220861
 20
3033.599441306432
 30
0.0
 10
5248.996817317907
 20
3033.60062316697
 30
0.0
 10
5248.996227596403
 20
3033.602980178442
 30
0.0
 10
5248.995901743427
 20
3033.604158548683
 30
0.0
 10
5248.994840518105
 20
3033.607656530478
 30
0.0
 10
5248.994023563881
 20
3033.609935808954
 30
0.0
 10
5248.991254268955
 20
3033.616620321435
 30
0.0
 10
5248.988986516843
 20
3033.620873687011
 30
0.0
 10
5248.985611425323
 20
3033.6259301945
 30
0.0
 10
5248.984907153621
 20
3033.626930901377
 30
0.0
 10
5248.983457098587
 20
3033.628886596585
 30
0.0
 10
5248.98271060969
 20
3033.629842951242
 30
0.0
 10
5248.980407920278
 20
3033.6326486995
 30
0.0
 10
5248.978788644743
 20
3033.634434925308
 30
0.0
 10
5248.975384226601
 20
3033.637841265897
 30
0.0
 10
5248.973599081717
 20
3033.639461378396
 30
0.0
 10
5248.970795237101
 20
3033.641765234336
 30
0.0
 10
5248.96983956472
 20
3033.642512097835
 30
0.0
 10
5248.967885345934
 20
3033.64396288774
 30
0.0
 10
5248.966884957894
 20
3033.644667867211
 30
0.0
 10
5248.961829058981
 20
3033.648047021565
 30
0.0
 10
5248.957576698204
 20
3033.650317381788
 30
0.0
 10
5248.950894755431
 20
3033.653090285299
 30
0.0
 10
5248.948616512183
 20
3033.653908392062
 30
0.0
 10
5248.945120405213
 20
3033.654971363382
 30
0.0
 10
5248.943941756081
 20
3033.655298094313
 30
0.0
 10
5248.94158204367
 20
3033.655889931567
 30
0.0
 10
5248.940398003222
 20
3033.656155997107
 30
0.0
 10
5248.934457131263
 20
3033.657338853713
 30
0.0
 10
5248.929638728242
 20
3033.657817548894
 30
0.0
 10
5248.919868200484
 20
3033.657816100275
 30
0.0
 10
5248.915047865418
 20
3033.657336184126
 30
0.0
 10
5248.909101906304
 20
3033.656149855215
 30
0.0
 10
5248.907916724676
 20
3033.655882993124
 30
0.0
 10
5248.905554486959
 20
3033.65528930035
 30
0.0
 10
5248.904375571719
 20
3033.654961768498
 30
0.0
 10
5248.900885011865
 20
3033.653898470346
 30
0.0
 10
5248.898609290696
 20
3033.653080057143
 30
0.0
 10
5248.891931819512
 20
3033.65030527609
 30
0.0
 10
5248.887678262814
 20
3033.648032566613
 30
0.0
 10
5248.882617013702
 20
3033.644645855456
 30
0.0
 10
5248.881617588419
 20
3033.643940634225
 30
0.0
 10
5248.879666832609
 20
3033.642490741245
 30
0.0
 10
5248.878712616358
 20
3033.641744209226
 30
0.0
 10
5248.875912384304
 20
3033.63944094624
 30
0.0
 10
5248.874128610443
 20
3033.637820726589
 30
0.0
 10
5248.87072501454
 20
3033.634413051338
 30
0.0
 10
5248.869105254288
 20
3033.632625532731
 30
0.0
 10
5248.866801002055
 20
3033.629816355097
 30
0.0
 10
5248.866053852172
 20
3033.628858609038
 30
0.0
 10
5248.864602270867
 20
3033.626899542793
 30
0.0
 10
5248.863899562532
 20
3033.625900252298
 30
0.0
 10
5248.860530455261
 20
3033.620849369517
 30
0.0
 10
5248.858264086009
 20
3033.616597287403
 30
0.0
 10
5248.855495004315
 20
3033.609908458842
 30
0.0
 10
5248.854677788851
 20
3033.60762670382
 30
0.0
 10
5248.853616134181
 20
3033.604123166762
 30
0.0
 10
5248.853291617063
 20
3033.602947928497
 30
0.0
 10
5248.852703299022
 20
3033.600593633539
 30
0.0
 10
5248.852438969651
 20
3033.599412878907
 30
0.0
 10
5248.851264226267
 20
3033.593491341422
 30
0.0
 10
5248.850790438096
 20
3033.588697759538
 30
0.0
 10
5248.850789446174
 20
3033.582634286162
 30
0.0
 10
5248.850819052996
 20
3033.581417748952
 30
0.0
 10
5248.850938953427
 20
3033.578978297969
 30
0.0
 10
5248.851028759144
 20
3033.57776516189
 30
0.0
 10
5248.851385938618
 20
3033.574145123688
 30
0.0
 10
5248.851740910517
 20
3033.571757555368
 30
0.0
 10
5248.852680584358
 20
3033.567033122513
 30
0.0
 10
5248.85326540547
 20
3033.564696284286
 30
0.0
 10
5248.854315098435
 20
3033.561229090884
 30
0.0
 10
5248.85469366125
 20
3033.560079686434
 30
0.0
 10
5248.855509324013
 20
3033.55779379727
 30
0.0
 10
5248.855947279977
 20
3033.556655350759
 30
0.0
 10
5248.858278438055
 20
3033.551018388815
 30
0.0
 10
5248.86055724972
 20
3033.546764952544
 30
0.0
 10
5248.864569046729
 20
3033.540752135837
 30
0.0
 10
5248.866005817178
 20
3033.538809442321
 30
0.0
 10
5248.868313748912
 20
3033.535989947813
 30
0.0
 10
5248.869110818544
 20
3033.53506348868
 30
0.0
 10
5248.870745451835
 20
3033.533255979526
 30
0.0
 10
5248.871581878501
 20
3033.532375893046
 30
0.0
 10
5248.875858292511
 20
3033.528092228972
 30
0.0
 10
5248.879580330354
 20
3033.525037976161
 30
0.0
 10
5248.884602320226
 20
3033.521677721266
 30
0.0
 10
5248.88562534496
 20
3033.521028739855
 30
0.0
 10
5248.887709224453
 20
3033.51977763018
 30
0.0
 10
5248.888773071563
 20
3033.519173982135
 30
0.0
 10
5248.89199300341
 20
3033.517450500287
 30
0.0
 10
5248.894180140322
 20
3033.516415383656
 30
0.0
 10
5248.900859906275
 20
3033.51364267683
 30
0.0
 10
5248.905470259495
 20
3033.512235956183
 30
0.0
 10
5248.91143382427
 20
3033.511041416664
 30
0.0
 10
5248.912638506237
 20
3033.510830715212
 30
0.0
 10
5248.915049233762
 20
3033.510469974393
 30
0.0
 10
5248.916257207856
 20
3033.510319456616
 30
0.0
 10
5248.919888939689
 20
3033.509957215136
 30
0.0
 10
5248.922319833818
 20
3033.509834613936
 30
0.0
 10
5248.924762653081
 20
3033.509833369273
 30
0.0
  0
CIRCLE
  5
16B1
330
1F
100
AcDbEntity
  8
SANINDUSA
100
AcDbCircle
 10
5248.924762654008
 20
3033.583812390397
 30
0.0
 40
0.05
  0
LINE
  5
16C5
330
1F
100
AcDbEntity
  8
SANINDUSA
100
AcDbLine
 10
5249.426839628
 20
3033.908810956067
 30
0.0
 11
5250.171030428784
 21
3033.908810956067
 31
0.0
  0
LINE
  5
16C7
330
1F
100
AcDbEntity
  8
SANINDUSA
100
AcDbLine
 10
5250.174054842643
 20
3034.021944513278
 30
0.0
 11
5250.176029649156
 21
3033.908810956067
 31
0.0
  0
LINE
  5
16C8
330
1F
100
AcDbEntity
  8
SANINDUSA
100
AcDbLine
 10
5250.171030428784
 20
3033.908810956067
 30
0.0
 11
5250.176029649156
 21
3033.908810956067
 31
0.0
  0
LINE
  5
16CA
330
1F
100
AcDbEntity
  8
SANINDUSA
100
AcDbLine
 10
5249.421840389959
 20
3033.908810956067
 30
0.0
 11
5249.423814944703
 21
3034.021933122127
 31
0.0
  0
LINE
  5
16CB
330
1F
100
AcDbEntity
  8
SANINDUSA
100
AcDbLine
 10
5249.421840389642
 20
3033.908810956067
 30
0.0
 11
5249.426839628
 21
3033.908810956067
 31
0.0
  0
LINE
  5
16CD
330
1F
100
AcDbEntity
  8
SANINDUSA
100
AcDbLine
 10
5249.430813878511
 20
3034.028810955172
 30
0.0
 11
5250.167056144882
 21
3034.028810955172
 31
0.0
  0
ARC
  5
16CF
330
1F
100
AcDbEntity
  8
SANINDUSA
100
AcDbCircle
 10
5249.430813878569
 20
3034.021810955172
 30
0.0
 40
0.0070000000000002
100
AcDbArc
 50
90.0
 51
178.9999999902799
  0
ARC
  5
16D0
330
1F
100
AcDbEntity
  8
SANINDUSA
100
AcDbCircle
 10
5250.167056116886
 20
3034.021810955172
 30
0.0
 40
0.0070000000000003
100
AcDbArc
 50
1.000000009720081
 51
90.0
  0
ARC
  5
1792
330
1F
100
AcDbEntity
  8
SANINDUSA
100
AcDbCircle
 10
5252.334881937159
 20
3033.930698011368
 30
0.0
 40
0.0001000000000124
100
AcDbArc
 50
55.00000000459787
 51
88.81023876483192
  0
SPLINE
  5
1794
330
1F
100
AcDbEntity
  8
SANINDUSA
100
AcDbSpline
210
0.0
220
0.0
230
1.0
 70
     8
 71
     3
 72
    12
 73
     8
 74
     0
 42
0.0000000001
 43
0.0000000001
 40
0.0
 40
0.0
 40
0.0
 40
0.0
 40
0.25
 40
0.25
 40
0.5
 40
0.5
 40
1.0
 40
1.0
 40
1.0
 40
1.0
 10
5252.487452775747
 20
3033.930780208849
 30
0.0
 10
5252.488931689883
 20
3033.930798386421
 30
0.0
 10
5252.49041048208
 20
3033.930844241453
 30
0.0
 10
5252.493367786502
 20
3033.930999498897
 30
0.0
 10
5252.494846300795
 20
3033.93110843247
 30
0.0
 10
5252.499281438575
 20
3033.931527180638
 30
0.0
 10
5252.502237661918
 20
3033.931927819599
 30
0.0
 10
5252.505193328097
 20
3033.932454922112
 30
0.0
  0
SPLINE
  5
1795
330
1F
100
AcDbEntity
  8
SANINDUSA
100
AcDbSpline
210
0.0
220
0.0
230
1.0
 70
    24
 71
     3
 72
    18
 73
    14
 74
     0
 42
0.0000000001
 43
0.0000000001
 40
0.0
 40
0.0
 40
0.0
 40
0.0
 40
0.4999999999999997
 40
0.4999999999999997
 40
0.7499999999999995
 40
0.7499999999999995
 40
0.8749999999999994
 40
0.8749999999999994
 40
0.9374999999999996
 40
0.9374999999999996
 40
0.9687499999999998
 40
0.9687499999999998
 40
1.0
 40
1.0
 40
1.0
 40
1.0
 10
5251.67996726038
 20
3033.944516472673
 30
0.0
 10
5251.789120052683
 20
3033.942229918709
 30
0.0
 10
5251.898272866466
 20
3033.939944390216
 30
0.0
 10
5252.062002038785
 20
3033.936513789031
 30
0.0
 10
5252.116578438209
 20
3033.935370668303
 30
0.0
 10
5252.198443043272
 20
3033.933656270088
 30
0.0
 10
5252.225731243073
 20
3033.933084714018
 30
0.0
 10
5252.266663536305
 20
3033.932227070984
 30
0.0
 10
5252.280307630574
 20
3033.931941248108
 30
0.0
 10
5252.300773773384
 20
3033.931512707977
 30
0.0
 10
5252.30759582309
 20
3033.931369383767
 30
0.0
 10
5252.32123991626
 20
3033.931084152591
 30
0.0
 10
5252.328061971064
 20
3033.930939671599
 30
0.0
 10
5252.334884013535
 20
3033.930797989809
 30
0.0
  0
SPLINE
  5
1796
330
1F
100
AcDbEntity
  8
SANINDUSA
100
AcDbSpline
210
0.0
220
0.0
230
1.0
 70
     8
 71
     3
 72
    45
 73
    41
 74
     0
 42
0.0000000001
 43
0.0000000001
 40
0.0
 40
0.0
 40
0.0
 40
0.0
 40
0.0222879396204582
 40
0.0445758799275968
 40
0.0673019607433403
 40
0.0900280478116819
 40
0.1168991893614106
 40
0.1437703401193247
 40
0.1714207782278929
 40
0.1990712272512192
 40
0.2259458865862042
 40
0.2528205374688049
 40
0.2804745032445538
 40
0.3081284697279683
 40
0.334995230691743
 40
0.3618619932927445
 40
0.3895073691040602
 40
0.4171527493645688
 40
0.4440441949867881
 40
0.4709356139237258
 40
0.498608942123627
 40
0.5262822502872751
 40
0.5531689112277464
 40
0.5800556009112575
 40
0.6077229380681528
 40
0.6353902302425749
 40
0.6623087806074003
 40
0.6892273039687124
 40
0.7169325870943989
 40
0.7446378414875675
 40
0.7715563581093257
 40
0.7984748634923165
 40
0.8261818846945869
 40
0.8538889559523505
 40
0.8808421847156415
 40
0.9077955266341339
 40
0.9355340367470464
 40
0.9632727241646596
 40
0.989564210521765
 40
0.9999999999999998
 40
0.9999999999999998
 40
0.9999999999999998
 40
0.9999999999999998
 10
5252.334964992193
 20
3033.934697149008
 30
0.0
 10
5252.334999988939
 20
3033.934697159807
 30
0.0
 10
5252.335069982432
 20
3033.934697181404
 30
0.0
 10
5252.335636191713
 20
3033.934697048643
 30
0.0
 10
5252.336548174448
 20
3033.934696877128
 30
0.0
 10
5252.337918761787
 20
3033.93469666598
 30
0.0
 10
5252.339811150958
 20
3033.934696426768
 30
0.0
 10
5252.342320801679
 20
3033.934696099267
 30
0.0
 10
5252.34534847766
 20
3033.93469564703
 30
0.0
 10
5252.348850206779
 20
3033.934695042144
 30
0.0
 10
5252.352761340641
 20
3033.934694273251
 30
0.0
 10
5252.35707758555
 20
3033.934693241161
 30
0.0
 10
5252.361823824407
 20
3033.934691817122
 30
0.0
 10
5252.366925078495
 20
3033.934690076686
 30
0.0
 10
5252.372291513282
 20
3033.934688123951
 30
0.0
 10
5252.377926943761
 20
3033.934686043762
 30
0.0
 10
5252.383855450767
 20
3033.934683903377
 30
0.0
 10
5252.389982646315
 20
3033.934681801559
 30
0.0
 10
5252.396204032773
 20
3033.934679893816
 30
0.0
 10
5252.402531809774
 20
3033.934678137054
 30
0.0
 10
5252.408983468146
 20
3033.934676170703
 30
0.0
 10
5252.415450955478
 20
3033.934673652118
 30
0.0
 10
5252.421825842792
 20
3033.934670890432
 30
0.0
 10
5252.428126681781
 20
3033.934668354143
 30
0.0
 10
5252.43436718788
 20
3033.934666240943
 30
0.0
 10
5252.440443335528
 20
3033.934664559899
 30
0.0
 10
5252.446255392793
 20
3033.934663102377
 30
0.0
 10
5252.451826144913
 20
3033.934661897552
 30
0.0
 10
5252.457158206924
 20
3033.934661131429
 30
0.0
 10
5252.46215747363
 20
3033.934661012339
 30
0.0
 10
5252.466744094189
 20
3033.934661688756
 30
0.0
 10
5252.470943240262
 20
3033.934663248611
 30
0.0
 10
5252.474751651205
 20
3033.934665931135
 30
0.0
 10
5252.478100583356
 20
3033.934669632315
 30
0.0
 10
5252.480940318081
 20
3033.934674273222
 30
0.0
 10
5252.483292638519
 20
3033.934678670943
 30
0.0
 10
5252.485156815338
 20
3033.934681225832
 30
0.0
 10
5252.486441308544
 20
3033.93468188903
 30
0.0
 10
5252.487133538751
 20
3033.934681654741
 30
0.0
 10
5252.487223601145
 20
3033.934680956723
 30
0.0
 10
5252.487249191723
 20
3033.934680758386
 30
0.0
  0
SPLINE
  5
1797
330
1F
100
AcDbEntity
  8
SANINDUSA
100
AcDbSpline
210
0.0
220
0.0
230
1.0
 70
     8
 71
     3
 72
    10
 73
     6
 74
     0
 42
0.0000000001
 43
0.0000000001
 40
0.0
 40
0.0
 40
0.0
 40
0.0
 40
0.5
 40
0.5
 40
1.0
 40
1.0
 40
1.0
 40
1.0
 10
5252.487404843065
 20
3033.934679914507
 30
0.0
 10
5252.487002816391
 20
3033.934674972989
 30
0.0
 10
5252.486609849091
 20
3033.934610718318
 30
0.0
 10
5252.485844964407
 20
3033.934364294659
 30
0.0
 10
5252.485489044854
 20
3033.934187435017
 30
0.0
 10
5252.485159699007
 20
3033.933956824573
 30
0.0
  0
SPLINE
  5
1799
330
1F
100
AcDbEntity
  8
SANINDUSA
100
AcDbSpline
210
0.0
220
0.0
230
1.0
 70
     8
 71
     3
 72
    10
 73
     6
 74
     0
 42
0.0000000001
 43
0.0000000001
 40
0.0
 40
0.0
 40
0.0
 40
0.0
 40
0.5
 40
0.5
 40
1.0
 40
1.0
 40
1.0
 40
1.0
 10
5252.337176242904
 20
3033.933974619545
 30
0.0
 10
5252.336851630156
 20
3033.934201915839
 30
0.0
 10
5252.336500985531
 20
3033.934377103039
 30
0.0
 10
5252.335747634464
 20
3033.934623263122
 30
0.0
 10
5252.335361185754
 20
3033.934688920767
 30
0.0
 10
5252.334964992193
 20
3033.934697149008
 30
0.0
  0
LINE
  5
179A
330
1F
100
AcDbEntity
  8
SANINDUSA
100
AcDbLine
 10
5252.48739664711
 20
3033.9307621316
 30
0.0
 11
5252.474050947005
 21
3033.921417371785
 31
0.0
  0
LINE
  5
179B
330
1F
100
AcDbEntity
  8
SANINDUSA
100
AcDbLine
 10
5252.348310408761
 20
3033.921417371785
 30
0.0
 11
5252.334939294802
 21
3033.930779926573
 31
0.0
  0
LINE
  5
179C
330
1F
100
AcDbEntity
  8
SANINDUSA
100
AcDbLine
 10
5252.485159699007
 20
3033.933956824573
 30
0.0
 11
5252.471478223141
 21
3033.924376952038
 31
0.0
  0
LINE
  5
179E
330
1F
100
AcDbEntity
  8
SANINDUSA
100
AcDbLine
 10
5252.350883132624
 20
3033.924376952038
 30
0.0
 11
5252.337176242904
 21
3033.933974619545
 31
0.0
  0
LINE
  5
179F
330
1F
100
AcDbEntity
  8
SANINDUSA
100
AcDbLine
 10
5252.589374691595
 20
3033.908810956067
 30
0.0
 11
5252.587403438717
 21
3034.021743957815
 31
0.0
  0
LINE
  5
17A0
330
1F
100
AcDbEntity
  8
SANINDUSA
100
AcDbLine
 10
5252.524803783348
 20
3034.020813542945
 30
0.0
 11
5252.522411270437
 21
3033.952300937236
 31
0.0
  0
SPLINE
  5
17A1
330
1F
100
AcDbEntity
  8
SANINDUSA
100
AcDbSpline
210
0.0
220
0.0
230
1.0
 70
     8
 71
     3
 72
    24
 73
    20
 74
     0
 42
0.0000000001
 43
0.0000000001
 40
0.0
 40
0.0
 40
0.0
 40
0.0
 40
0.1250000000000031
 40
0.1250000000000031
 40
0.2500000000000062
 40
0.2500000000000062
 40
0.3750000000000092
 40
0.3750000000000092
 40
0.5000000000000124
 40
0.5000000000000124
 40
0.6250000000000155
 40
0.6250000000000155
 40
0.6875000000000134
 40
0.6875000000000134
 40
0.7500000000000111
 40
0.7500000000000111
 40
0.8750000000000055
 40
0.8750000000000055
 40
1.0
 40
1.0
 40
1.0
 40
1.0
 10
5252.505193328097
 20
3033.932454922112
 30
0.0
 10
5252.506370114705
 20
3033.932664785858
 30
0.0
 10
5252.507511965825
 20
3033.932971811503
 30
0.0
 10
5252.509728730481
 20
3033.933772028302
 30
0.0
 10
5252.510804529454
 20
3033.934265721573
 30
0.0
 10
5252.512882586064
 20
3033.935445645479
 30
0.0
 10
5252.513856570407
 20
3033.936115625896
 30
0.0
 10
5252.515679748547
 20
3033.937609106719
 30
0.0
 10
5252.516530245764
 20
3033.938434109451
 30
0.0
 10
5252.51809532347
 20
3033.940238608301
 30
0.0
 10
5252.518790109095
 20
3033.941194767608
 30
0.0
 10
5252.519705851754
 20
3033.942706680495
 30
0.0
 10
5252.519989907593
 20
3033.943223670269
 30
0.0
 10
5252.520515107894
 20
3033.944284011779
 30
0.0
 10
5252.520756752693
 20
3033.944828641223
 30
0.0
 10
5252.521411861431
 20
3033.946495177955
 30
0.0
 10
5252.521747894865
 20
3033.947627515325
 30
0.0
 10
5252.52222673796
 20
3033.949933083029
 30
0.0
 10
5252.522369553211
 20
3033.951106312179
 30
0.0
 10
5252.522411270437
 20
3033.952300937236
 30
0.0
  0
LINE
  5
17A2
330
1F
100
AcDbEntity
  8
SANINDUSA
100
AcDbLine
 10
5252.474050947005
 20
3033.921417371785
 30
0.0
 11
5252.462876446146
 21
3033.909434186712
 31
0.0
  0
LINE
  5
17A3
330
1F
100
AcDbEntity
  8
SANINDUSA
100
AcDbLine
 10
5252.462876446146
 20
3033.909434186712
 30
0.0
 11
5252.359484909621
 21
3033.909434186712
 31
0.0
  0
LINE
  5
17A4
330
1F
100
AcDbEntity
  8
SANINDUSA
100
AcDbLine
 10
5252.359484909621
 20
3033.909434186712
 30
0.0
 11
5252.348310408761
 21
3033.921417371785
 31
0.0
  0
SPLINE
  5
17A5
330
1F
100
AcDbEntity
  8
SANINDUSA
100
AcDbSpline
210
0.0
220
0.0
230
1.0
 70
     8
 71
     3
 72
    30
 73
    26
 74
     0
 42
0.0000000001
 43
0.0000000001
 40
0.0
 40
0.0
 40
0.0
 40
0.0
 40
0.1249999999999983
 40
0.1249999999999983
 40
0.1874999999999974
 40
0.1874999999999974
 40
0.2499999999999965
 40
0.2499999999999965
 40
0.3749999999999948
 40
0.3749999999999948
 40
0.4374999999999945
 40
0.4374999999999945
 40
0.4999999999999943
 40
0.4999999999999943
 40
0.6249999999999954
 40
0.6249999999999954
 40
0.6874999999999966
 40
0.6874999999999966
 40
0.7499999999999977
 40
0.7499999999999977
 40
0.8749999999999985
 40
0.8749999999999985
 40
0.9374999999999994
 40
0.9374999999999994
 40
1.0
 40
1.0
 40
1.0
 40
1.0
 10
5251.659517713336
 20
3033.964682488977
 30
0.0
 10
5251.659564159978
 20
3033.963352431153
 30
0.0
 10
5251.659735737483
 20
3033.962048206776
 30
0.0
 10
5251.660173032421
 20
3033.960129016745
 30
0.0
 10
5251.660348993913
 20
3033.959495520849
 30
0.0
 10
5251.660762480878
 20
3033.958241239028
 30
0.0
 10
5251.661001500658
 20
3033.957617511986
 30
0.0
 10
5251.661798908394
 20
3033.955800772444
 30
0.0
 10
5251.662438058485
 20
3033.954654218811
 30
0.0
 10
5251.663555104972
 20
3033.953029497619
 30
0.0
 10
5251.663954014998
 20
3033.952503880144
 30
0.0
 10
5251.664806633077
 20
3033.951485564312
 30
0.0
 10
5251.665256886619
 20
3033.950997355614
 30
0.0
 10
5251.666662947905
 20
3033.949609968778
 30
0.0
 10
5251.667679371712
 20
3033.948780343019
 30
0.0
 10
5251.669323125337
 20
3033.94767950778
 30
0.0
 10
5251.669894221536
 20
3033.947335030978
 30
0.0
 10
5251.671060121881
 20
3033.946705674239
 30
0.0
 10
5251.67165410512
 20
3033.946420749294
 30
0.0
 10
5251.673468292566
 20
3033.945652911556
 30
0.0
 10
5251.67472044742
 20
3033.945256161668
 30
0.0
 10
5251.676664539253
 20
3033.944838643592
 30
0.0
 10
5251.677322505285
 20
3033.944729814375
 30
0.0
 10
5251.67863997654
 20
3033.94457599141
 30
0.0
 10
5251.67930197206
 20
3033.944530409261
 30
0.0
 10
5251.67996726038
 20
3033.944516472673
 30
0.0
  0
LINE
  5
17A6
330
1F
100
AcDbEntity
  8
SANINDUSA
100
AcDbLine
 10
5251.659517713336
 20
3033.964682488977
 30
0.0
 11
5251.657557573739
 21
3034.020813542922
 31
0.0
  0
LINE
  5
17A7
330
1F
100
AcDbEntity
  8
SANINDUSA
100
AcDbLine
 10
5251.594957917049
 20
3034.021743957815
 30
0.0
 11
5251.592986664171
 21
3033.908810956067
 31
0.0
  0
LINE
  5
17A8
330
1F
100
AcDbEntity
  8
SANINDUSA
100
AcDbLine
 10
5251.589086070092
 20
3033.908810956067
 30
0.0
 11
5251.592986664171
 21
3033.908810956067
 31
0.0
  0
LINE
  5
17A9
330
1F
100
AcDbEntity
  8
SANINDUSA
100
AcDbLine
 10
5251.591058511038
 20
3034.021812022201
 30
0.0
 11
5251.589086070092
 21
3033.908810956067
 31
0.0
  0
LINE
  5
17AA
330
1F
100
AcDbEntity
  8
SANINDUSA
100
AcDbLine
 10
5251.66341533756
 20
3033.964818597015
 30
0.0
 11
5251.661455197965
 21
3034.020949650959
 31
0.0
  0
ARC
  5
17AB
330
1F
100
AcDbEntity
  8
SANINDUSA
100
AcDbCircle
 10
5251.654459462176
 20
3034.020705354482
 30
0.0
 40
0.007
100
AcDbArc
 50
2.000000003753602
 51
88.99999999027992
  0
ARC
  5
17AC
330
1F
100
AcDbEntity
  8
SANINDUSA
100
AcDbCircle
 10
5251.654459462441
 20
3034.020705354752
 30
0.0
 40
0.003099999725387
100
AcDbArc
 50
1.999995181039842
 51
89.00000483715533
  0
LINE
  5
17AD
330
1F
100
AcDbEntity
  8
SANINDUSA
100
AcDbLine
 10
5252.361180677883
 20
3033.913334186713
 30
0.0
 11
5252.350883132624
 21
3033.924376952038
 31
0.0
  0
LINE
  5
17AE
330
1F
100
AcDbEntity
  8
SANINDUSA
100
AcDbLine
 10
5252.461180677883
 20
3033.913334186713
 30
0.0
 11
5252.361180677883
 21
3033.913334186713
 31
0.0
  0
LINE
  5
17AF
330
1F
100
AcDbEntity
  8
SANINDUSA
100
AcDbLine
 10
5252.471478223141
 20
3033.924376952038
 30
0.0
 11
5252.461180677883
 21
3033.913334186713
 31
0.0
  0
SPLINE
  5
17B0
330
1F
100
AcDbEntity
  8
SANINDUSA
100
AcDbSpline
210
0.0
220
0.0
230
1.0
 70
     8
 71
     3
 72
    24
 73
    20
 74
     0
 42
0.0000000001
 43
0.0000000001
 40
0.0
 40
0.0
 40
0.0
 40
0.0
 40
0.1249999999999972
 40
0.1249999999999972
 40
0.2499999999999943
 40
0.2499999999999943
 40
0.3749999999999915
 40
0.3749999999999915
 40
0.4999999999999887
 40
0.4999999999999887
 40
0.6249999999999858
 40
0.6249999999999858
 40
0.6874999999999883
 40
0.6874999999999883
 40
0.7499999999999906
 40
0.7499999999999906
 40
0.8749999999999952
 40
0.8749999999999952
 40
1.0
 40
1.0
 40
1.0
 40
1.0
 10
5252.504508615447
 20
3033.936294352402
 30
0.0
 10
5252.50546581061
 20
3033.936465054682
 30
0.0
 10
5252.50639458936
 20
3033.936714788224
 30
0.0
 10
5252.508197700048
 20
3033.937365681897
 30
0.0
 10
5252.509072752221
 20
3033.937767250464
 30
0.0
 10
5252.510763038173
 20
3033.93872699699
 30
0.0
 10
5252.511555274576
 20
3033.939271957092
 30
0.0
 10
5252.513038243097
 20
3033.940486750114
 30
0.0
 10
5252.513730035452
 20
3033.941157805065
 30
0.0
 10
5252.515003065711
 20
3033.942625579385
 30
0.0
 10
5252.515568202602
 20
3033.94340331673
 30
0.0
 10
5252.516313065406
 20
3033.944633102569
 30
0.0
 10
5252.516544115724
 20
3033.945053620658
 30
0.0
 10
5252.516971312355
 20
3033.945916099604
 30
0.0
 10
5252.517167865652
 20
3033.946359099778
 30
0.0
 10
5252.517700729443
 20
3033.947714656227
 30
0.0
 10
5252.517974058193
 20
3033.948635696385
 30
0.0
 10
5252.518363547963
 20
3033.950511038964
 30
0.0
 10
5252.518479713529
 20
3033.951465340422
 30
0.0
 10
5252.518513646212
 20
3033.952437045273
 30
0.0
  0
LINE
  5
17B1
330
1F
100
AcDbEntity
  8
SANINDUSA
100
AcDbLine
 10
5252.520906159123
 20
3034.020949650982
 30
0.0
 11
5252.518513646212
 21
3033.952437045273
 31
0.0
  0
ARC
  5
17B2
330
1F
100
AcDbEntity
  8
SANINDUSA
100
AcDbCircle
 10
5252.527901894911
 20
3034.020705354505
 30
0.0
 40
0.007
100
AcDbArc
 50
91.00000000972007
 51
177.9999999962464
  0
ARC
  5
17B3
330
1F
100
AcDbEntity
  8
SANINDUSA
100
AcDbCircle
 10
5252.527901894911
 20
3034.020705354505
 30
0.0
 40
0.0031
100
AcDbArc
 50
91.00000000972007
 51
177.9999999962464
  0
LINE
  5
17B4
330
1F
100
AcDbEntity
  8
SANINDUSA
100
AcDbLine
 10
5252.593275285675
 20
3033.908810956067
 30
0.0
 11
5252.591302844728
 21
3034.021812022201
 31
0.0
  0
ARC
  5
17B5
330
1F
100
AcDbEntity
  8
SANINDUSA
100
AcDbCircle
 10
5252.584303910862
 20
3034.021689855356
 30
0.0
 40
0.007
100
AcDbArc
 50
1.000000009720081
 51
91.00000000972007
  0
ARC
  5
17B6
330
1F
100
AcDbEntity
  8
SANINDUSA
100
AcDbCircle
 10
5252.584303910862
 20
3034.021689855356
 30
0.0
 40
0.0031
100
AcDbArc
 50
1.000000009720081
 51
91.00000000972007
  0
LINE
  5
182B
330
1F
100
AcDbEntity
  8
SANINDUSA
100
AcDbLine
 10
5251.594086496636
 20
3033.908810956067
 30
0.0
 11
5251.592986664171
 21
3033.908810956067
 31
0.0
  0
ARC
  5
189A
330
1F
100
AcDbEntity
  8
SANINDUSA
100
AcDbCircle
 10
5252.48620522674
 20
3034.03879707176
 30
0.0
 40
0.1041240678896963
100
AcDbArc
 50
270.6601208710131
 51
280.1243096347948
  0
ARC
  5
18A7
330
1F
100
AcDbEntity
  8
SANINDUSA
100
AcDbCircle
 10
-6704.793289525891
 20
-567780.5737875197
 30
0.0
 40
570939.7306307288
100
AcDbArc
 50
88.79997301029256
 51
88.8000387878718
  0
ARC
  5
18AD
330
1F
100
AcDbEntity
  8
SANINDUSA
100
AcDbCircle
 10
5251.680404981607
 20
3033.965411888433
 30
0.0
 40
0.0169999999867281
100
AcDbArc
 50
182.0001658411744
 51
268.7999324594356
  0
LINE
  5
18B6
330
1F
100
AcDbEntity
  8
SANINDUSA
100
AcDbLine
 10
5251.598179611749
 20
3034.028688789222
 30
0.0
 11
5251.654581629021
 21
3034.027704288349
 31
0.0
  0
LINE
  5
18B7
330
1F
100
AcDbEntity
  8
SANINDUSA
100
AcDbLine
 10
5251.598111547364
 20
3034.024789383211
 30
0.0
 11
5251.654513564636
 21
3034.023804882338
 31
0.0
  0
ARC
  5
18B8
330
1F
100
AcDbEntity
  8
SANINDUSA
100
AcDbCircle
 10
5251.598057444904
 20
3034.021689855356
 30
0.0
 40
0.007
100
AcDbArc
 50
88.99999999027992
 51
178.9999999902799
  0
ARC
  5
18B9
330
1F
100
AcDbEntity
  8
SANINDUSA
100
AcDbCircle
 10
5251.598057444904
 20
3034.021689855356
 30
0.0
 40
0.0031000000002992
100
AcDbArc
 50
88.99999999027992
 51
178.9999999902799
  0
LINE
  5
18BB
330
1F
100
AcDbEntity
  8
SANINDUSA
100
AcDbLine
 10
5252.584181744016
 20
3034.028688789222
 30
0.0
 11
5252.527779728067
 21
3034.027704288372
 31
0.0
  0
LINE
  5
18BC
330
1F
100
AcDbEntity
  8
SANINDUSA
100
AcDbLine
 10
5252.584249808402
 20
3034.024789383211
 30
0.0
 11
5252.527847792452
 21
3034.02380488236
 31
0.0
  0
LINE
  5
18BD
330
1F
100
AcDbEntity
  8
SANINDUSA
100
AcDbLine
 10
5251.598179611749
 20
3034.028688789222
 30
0.0
 11
5252.584181744016
 21
3034.028688789222
 31
0.0
  0
LINE
  5
18C9
330
1F
100
AcDbEntity
  8
SANINDUSA
100
AcDbLine
 10
5252.589374691595
 20
3033.908810956067
 30
0.0
 11
5252.593275285675
 21
3033.908810956067
 31
0.0
  0
LINE
  5
18CA
330
1F
100
AcDbEntity
  8
SANINDUSA
100
AcDbLine
 10
5252.589374691595
 20
3033.908810956067
 30
0.0
 11
5252.58827485913
 21
3033.908810956067
 31
0.0
  0
LINE
  5
18CB
330
1F
100
AcDbEntity
  8
SANINDUSA
100
AcDbLine
 10
5252.58827485913
 20
3033.908810956067
 30
0.0
 11
5251.594086496636
 21
3033.908810956067
 31
0.0
  0
ENDSEC
  0
SECTION
  2
OBJECTS
  0
DICTIONARY
  5
C
330
0
100
AcDbDictionary
281
     1
  3
ACAD_2007HEADERVARS_RT
350
1BC5
  3
ACAD_BACKGROUND
350
1B67
  3
ACAD_COLOR
350
EE6
  3
ACAD_GROUP
350
D
  3
ACAD_LAYOUT
350
1A
  3
ACAD_MATERIAL
350
EE5
  3
ACAD_MLEADERSTYLE
350
10A8
  3
ACAD_MLINESTYLE
350
17
  3
ACAD_PLOTSETTINGS
350
19
  3
ACAD_PLOTSTYLENAME
350
E
  3
ACAD_SCALELIST
350
1096
  3
ACAD_TABLESTYLE
350
EE7
  3
ACAD_VISUALSTYLE
350
1082
  3
ACDB_RECOMPOSE_DATA
350
1BC3
  3
AcDbVariableDictionary
350
3D
  3
AEC_PROPERTY_SET_DEFS
350
15C1
  3
ASE_INDEX_DICTIONARY
350
1066
  3
Autodesk_PNP
350
10B2
  3
DWGPROPS
350
1BC4
  0
DICTIONARY
  5
1B6F
330
8
100
AcDbDictionary
280
     1
281
     1
  0
DICTIONARY
  5
1051
330
2
100
AcDbDictionary
280
     1
281
     1
  3
ACAD_LAYERFILTERS
360
1065
  3
ACAD_LAYERSTATES
360
12AE
  3
ACLYDICTIONARY
360
1064
  0
DICTIONARY
  5
1AF7
330
10
100
AcDbDictionary
280
     1
281
     1
  3
ADSK_XREC_LAYER_RECONCILED
360
1AF8
  0
DICTIONARY
  5
1AF9
330
2F
100
AcDbDictionary
280
     1
281
     1
  3
ADSK_XREC_LAYER_RECONCILED
360
1AFA
  0
DICTIONARY
  5
1AFB
330
30
100
AcDbDictionary
280
     1
281
     1
  3
ADSK_XREC_LAYER_RECONCILED
360
1AFC
  0
DICTIONARY
  5
1AFD
330
31
100
AcDbDictionary
280
     1
281
     1
  3
ADSK_XREC_LAYER_RECONCILED
360
1AFE
  0
DICTIONARY
  5
1AFF
330
32
100
AcDbDictionary
280
     1
281
     1
  3
ADSK_XREC_LAYER_RECONCILED
360
1B00
  0
DICTIONARY
  5
1B01
330
33
100
AcDbDictionary
280
     1
281
     1
  3
ADSK_XREC_LAYER_RECONCILED
360
1B02
  0
DICTIONARY
  5
1B03
330
34
100
AcDbDictionary
280
     1
281
     1
  3
ADSK_XREC_LAYER_RECONCILED
360
1B04
  0
DICTIONARY
  5
1B05
330
35
100
AcDbDictionary
280
     1
281
     1
  3
ADSK_XREC_LAYER_RECONCILED
360
1B06
  0
DICTIONARY
  5
1B07
330
36
100
AcDbDictionary
280
     1
281
     1
  3
ADSK_XREC_LAYER_RECONCILED
360
1B08
  0
DICTIONARY
  5
1B09
330
37
100
AcDbDictionary
280
     1
281
     1
  3
ADSK_XREC_LAYER_RECONCILED
360
1B0A
  0
DICTIONARY
  5
1B0B
330
5D6
100
AcDbDictionary
280
     1
281
     1
  3
ADSK_XREC_LAYER_RECONCILED
360
1B0C
  0
DICTIONARY
  5
1B0D
330
8AF
100
AcDbDictionary
280
     1
281
     1
  3
ADSK_XREC_LAYER_RECONCILED
360
1B0E
  0
DICTIONARY
  5
1B0F
330
8F8
100
AcDbDictionary
280
     1
281
     1
  3
ADSK_XREC_LAYER_RECONCILED
360
1B10
  0
DICTIONARY
  5
1B11
330
91D
100
AcDbDictionary
280
     1
281
     1
  3
ADSK_XREC_LAYER_RECONCILED
360
1B12
  0
DICTIONARY
  5
1B13
330
C7B
100
AcDbDictionary
280
     1
281
     1
  3
ADSK_XREC_LAYER_RECONCILED
360
1B14
  0
DICTIONARY
  5
1B15
330
1060
100
AcDbDictionary
280
     1
281
     1
  3
ADSK_XREC_LAYER_RECONCILED
360
1B16
  0
DICTIONARY
  5
1BC5
102
{ACAD_REACTORS
330
C
102
}
330
C
100
AcDbDictionary
281
     1
  3
DIMJOGANG
350
1BC6
  0
DICTIONARY
  5
1B67
102
{ACAD_REACTORS
330
C
102
}
330
C
100
AcDbDictionary
281
     1
  0
DICTIONARY
  5
EE6
102
{ACAD_REACTORS
330
C
102
}
330
C
100
AcDbDictionary
281
     1
  0
DICTIONARY
  5
D
102
{ACAD_REACTORS
330
C
102
}
330
C
100
AcDbDictionary
281
     1
  0
DICTIONARY
  5
1A
102
{ACAD_REACTORS
330
C
102
}
330
C
100
AcDbDictionary
281
     1
  3
Layout1
350
1E
  3
Layout2
350
26
  3
Model
350
22
  0
DICTIONARY
  5
EE5
102
{ACAD_REACTORS
330
C
102
}
330
C
100
AcDbDictionary
281
     1
  3
ByBlock
350
1072
  3
ByLayer
350
106A
  3
Global
350
107A
  0
DICTIONARY
  5
10A8
102
{ACAD_REACTORS
330
C
102
}
330
C
100
AcDbDictionary
281
     1
  3
Standard
350
10A9
  0
DICTIONARY
  5
17
102
{ACAD_REACTORS
330
C
102
}
330
C
100
AcDbDictionary
281
     1
  3
Standard
350
18
  0
DICTIONARY
  5
19
102
{ACAD_REACTORS
330
C
102
}
330
C
100
AcDbDictionary
281
     1
  0
ACDBDICTIONARYWDFLT
  5
E
102
{ACAD_REACTORS
330
C
102
}
330
C
100
AcDbDictionary
281
     1
  3
Normal
350
F
100
AcDbDictionaryWithDefault
340
F
  0
DICTIONARY
  5
1096
102
{ACAD_REACTORS
330
C
102
}
330
C
100
AcDbDictionary
281
     1
  3
A0
350
1097
  3
A1
350
1098
  3
A2
350
1099
  3
A3
350
109A
  3
A4
350
109B
  3
A5
350
109C
  3
A6
350
109D
  3
A7
350
109E
  3
A8
350
109F
  3
A9
350
10A0
  3
B0
350
10A1
  3
B1
350
10A2
  3
B2
350
10A3
  3
B3
350
10A4
  3
B4
350
10A5
  3
B5
350
10A6
  3
B6
350
10A7
  0
DICTIONARY
  5
EE7
102
{ACAD_REACTORS
330
C
102
}
330
C
100
AcDbDictionary
281
     1
  3
Standard
350
EE8
  0
DICTIONARY
  5
1082
102
{ACAD_REACTORS
330
C
102
}
330
C
100
AcDbDictionary
281
     1
  3
2dWireframe
350
1088
  3
3D Hidden
350
108A
  3
3dWireframe
350
1089
  3
Basic
350
1087
  3
Brighten
350
108E
  3
ColorChange
350
1092
  3
Conceptual
350
108B
  3
Dim
350
108D
  3
EdgeColorOff
350
1095
  3
Facepattern
350
1091
  3
Flat
350
1083
  3
FlatWithEdges
350
1084
  3
Gouraud
350
1085
  3
GouraudWithEdges
350
1086
  3
JitterOff
350
1093
  3
Linepattern
350
1090
  3
OverhangOff
350
1094
  3
Realistic
350
108C
  3
Thicken
350
108F
  0
XRECORD
  5
1BC3
102
{ACAD_REACTORS
330
C
102
}
330
C
100
AcDbXrecord
280
     1
 90
        1
330
EE8
  0
DICTIONARY
  5
3D
102
{ACAD_REACTORS
330
C
102
}
330
C
100
AcDbDictionary
281
     1
  3
CANNOSCALE
350
1BB5
  3
CMLEADERSTYLE
350
1BB4
  3
CTABLESTYLE
350
1049
  3
DIMASSOC
350
3F
  3
HIDETEXT
350
3E
  3
INDEXCTL
350
1BB7
  3
SORTENTS
350
1BB6
  3
XCLIPFRAME
350
1BC1
  0
DICTIONARY
  5
15C1
102
{ACAD_REACTORS
330
C
102
}
330
C
100
AcDbDictionary
281
     1
  0
DICTIONARY
  5
1066
102
{ACAD_REACTORS
330
C
102
}
330
C
100
AcDbDictionary
281
     1
  3
ASEBlockHierarchyIndexRecord
350
1067
1001
DCO15
1040
1602247867.484
  0
DICTIONARY
  5
10B2
102
{ACAD_REACTORS
330
C
102
}
330
C
100
AcDbDictionary
281
     1
  0
XRECORD
  5
1BC4
102
{ACAD_REACTORS
330
C
102
}
330
C
100
AcDbXrecord
280
     1
  1
DWGPROPS COOKIE
  2

  3

  4

  6

  7

  8
Julio
  9

300
=
301
=
302
=
303
=
304
=
305
=
306
=
307
=
308
=
309
=
 40
0.0074622106481482
 41
2455782.692964583
 42
2456216.697362732
  1

 90
        0
  0
DICTIONARY
  5
1065
102
{ACAD_REACTORS
330
1051
102
}
330
1051
100
AcDbDictionary
281
     1
  0
DICTIONARY
  5
12AE
102
{ACAD_REACTORS
330
1051
102
}
330
1051
100
AcDbDictionary
281
     1
  0
DICTIONARY
  5
1064
102
{ACAD_REACTORS
330
1051
102
}
330
1051
100
AcDbDictionary
281
     1
1001
ACAD
1000
<All
  0
XRECORD
  5
1AF8
102
{ACAD_REACTORS
330
1AF7
102
}
330
1AF7
100
AcDbXrecord
280
     1
290
     1
  0
XRECORD
  5
1AFA
102
{ACAD_REACTORS
330
1AF9
102
}
330
1AF9
100
AcDbXrecord
280
     1
290
     1
  0
XRECORD
  5
1AFC
102
{ACAD_REACTORS
330
1AFB
102
}
330
1AFB
100
AcDbXrecord
280
     1
290
     1
  0
XRECORD
  5
1AFE
102
{ACAD_REACTORS
330
1AFD
102
}
330
1AFD
100
AcDbXrecord
280
     1
290
     1
  0
XRECORD
  5
1B00
102
{ACAD_REACTORS
330
1AFF
102
}
330
1AFF
100
AcDbXrecord
280
     1
290
     1
  0
XRECORD
  5
1B02
102
{ACAD_REACTORS
330
1B01
102
}
330
1B01
100
AcDbXrecord
280
     1
290
     1
  0
XRECORD
  5
1B04
102
{ACAD_REACTORS
330
1B03
102
}
330
1B03
100
AcDbXrecord
280
     1
290
     1
  0
XRECORD
  5
1B06
102
{ACAD_REACTORS
330
1B05
102
}
330
1B05
100
AcDbXrecord
280
     1
290
     1
  0
XRECORD
  5
1B08
102
{ACAD_REACTORS
330
1B07
102
}
330
1B07
100
AcDbXrecord
280
     1
290
     1
  0
XRECORD
  5
1B0A
102
{ACAD_REACTORS
330
1B09
102
}
330
1B09
100
AcDbXrecord
280
     1
290
     1
  0
XRECORD
  5
1B0C
102
{ACAD_REACTORS
330
1B0B
102
}
330
1B0B
100
AcDbXrecord
280
     1
290
     1
  0
XRECORD
  5
1B0E
102
{ACAD_REACTORS
330
1B0D
102
}
330
1B0D
100
AcDbXrecord
280
     1
290
     1
  0
XRECORD
  5
1B10
102
{ACAD_REACTORS
330
1B0F
102
}
330
1B0F
100
AcDbXrecord
280
     1
290
     1
  0
XRECORD
  5
1B12
102
{ACAD_REACTORS
330
1B11
102
}
330
1B11
100
AcDbXrecord
280
     1
290
     1
  0
XRECORD
  5
1B14
102
{ACAD_REACTORS
330
1B13
102
}
330
1B13
100
AcDbXrecord
280
     1
290
     1
  0
XRECORD
  5
1B16
102
{ACAD_REACTORS
330
1B15
102
}
330
1B15
100
AcDbXrecord
280
     1
290
     1
  0
XRECORD
  5
1BC6
102
{ACAD_REACTORS
330
1BC5
102
}
330
1BC5
100
AcDbXrecord
280
     1
 40
1.570796326794896
  0
LAYOUT
  5
1E
102
{ACAD_XDICTIONARY
360
1BC7
102
}
102
{ACAD_REACTORS
330
1A
102
}
330
1A
100
AcDbPlotSettings
  1

  2
Ploter HP500
  4

  6

 40
0.0
 41
0.0
 42
0.0
 43
0.0
 44
0.0
 45
0.0
 46
0.0
 47
0.0
 48
0.0
 49
0.0
140
0.0
141
0.0
142
1.0
143
1.0
 70
   688
 72
     0
 73
     0
 74
     5
  7
sanindusa.ctb
 75
    16
147
1.0
148
0.0
149
0.0
100
AcDbLayout
  1
Layout1
 70
     1
 71
     1
 10
0.0
 20
0.0
 11
420.0
 21
297.0
 12
0.0
 22
0.0
 32
0.0
 14
1.000000000000000E+20
 24
1.000000000000000E+20
 34
1.000000000000000E+20
 15
-1.000000000000000E+20
 25
-1.000000000000000E+20
 35
-1.000000000000000E+20
146
0.0
 13
0.0
 23
0.0
 33
0.0
 16
1.0
 26
0.0
 36
0.0
 17
0.0
 27
1.0
 37
0.0
 76
     0
330
1B
  0
LAYOUT
  5
26
102
{ACAD_XDICTIONARY
360
1BCB
102
}
102
{ACAD_REACTORS
330
1A
102
}
330
1A
100
AcDbPlotSettings
  1

  2
Ploter HP500
  4

  6

 40
0.0
 41
0.0
 42
0.0
 43
0.0
 44
0.0
 45
0.0
 46
0.0
 47
0.0
 48
0.0
 49
0.0
140
0.0
141
0.0
142
1.0
143
1.0
 70
   688
 72
     0
 73
     0
 74
     5
  7
sanindusa.ctb
 75
    16
147
1.0
148
0.0
149
0.0
100
AcDbLayout
  1
Layout2
 70
     1
 71
     2
 10
0.0
 20
0.0
 11
12.0
 21
9.0
 12
0.0
 22
0.0
 32
0.0
 14
0.0
 24
0.0
 34
0.0
 15
0.0
 25
0.0
 35
0.0
146
0.0
 13
0.0
 23
0.0
 33
0.0
 16
1.0
 26
0.0
 36
0.0
 17
0.0
 27
1.0
 37
0.0
 76
     0
330
23
  0
LAYOUT
  5
22
102
{ACAD_XDICTIONARY
360
1BC9
102
}
102
{ACAD_REACTORS
330
1A
102
}
330
1A
100
AcDbPlotSettings
  1

  2
Ploter HP500
  4
User268
  6

 40
4.995333194732666
 41
16.97565841674804
 42
4.995330810546875
 43
16.97567749023437
 44
209.9733276367187
 45
296.9259948730469
 46
0.0
 47
0.0
 48
0.0
 49
0.0
140
0.0
141
0.0
142
1.0
143
1.0
 70
 11952
 72
     1
 73
     1
 74
     0
  7
sanindusa.ctb
 75
     0
147
1.0
148
-427.5957866592534
149
7.362384574453926
100
AcDbLayout
  1
Model
 70
     1
 71
     0
 10
0.0
 20
0.0
 11
12.0
 21
9.0
 12
0.0
 22
0.0
 32
0.0
 14
0.0
 24
0.0
 34
0.0
 15
0.0
 25
0.0
 35
0.0
146
0.0
 13
0.0
 23
0.0
 33
0.0
 16
1.0
 26
0.0
 36
0.0
 17
0.0
 27
1.0
 37
0.0
 76
     0
330
1F
331
1068
  0
MATERIAL
  5
1072
102
{ACAD_XDICTIONARY
360
1073
102
}
102
{ACAD_REACTORS
330
EE5
102
}
330
EE5
100
AcDbMaterial
  1
ByBlock
 72
     0
 43
0.0008202099737533
 43
0.0
 43
0.0
 43
0.0
 43
0.0
 43
0.0008202099737533
 43
0.0
 43
0.0
 43
0.0
 43
0.0
 43
1.0
 43
0.0
 43
0.0
 43
0.0
 43
0.0
 43
1.0
 77
     0
 47
0.0008202099737533
 47
0.0
 47
0.0
 47
0.0
 47
0.0
 47
0.0008202099737533
 47
0.0
 47
0.0
 47
0.0
 47
0.0
 47
1.0
 47
0.0
 47
0.0
 47
0.0
 47
0.0
 47
1.0
171
     0
 49
0.0008202099737533
 49
0.0
 49
0.0
 49
0.0
 49
0.0
 49
0.0008202099737533
 49
0.0
 49
0.0
 49
0.0
 49
0.0
 49
1.0
 49
0.0
 49
0.0
 49
0.0
 49
0.0
 49
1.0
175
     0
142
0.0008202099737533
142
0.0
142
0.0
142
0.0
142
0.0
142
0.0008202099737533
142
0.0
142
0.0
142
0.0
142
0.0
142
1.0
142
0.0
142
0.0
142
0.0
142
0.0
142
1.0
179
     0
144
0.0008202099737533
144
0.0
144
0.0
144
0.0
144
0.0
144
0.0008202099737533
144
0.0
144
0.0
144
0.0
144
0.0
144
1.0
144
0.0
144
0.0
144
0.0
144
0.0
144
1.0
147
0.0008202099737533
147
0.0
147
0.0
147
0.0
147
0.0
147
0.0008202099737533
147
0.0
147
0.0
147
0.0
147
0.0
147
1.0
147
0.0
147
0.0
147
0.0
147
0.0
147
1.0
  0
MATERIAL
  5
106A
102
{ACAD_XDICTIONARY
360
106B
102
}
102
{ACAD_REACTORS
330
EE5
102
}
330
EE5
100
AcDbMaterial
  1
ByLayer
 72
     0
 43
0.0008202099737533
 43
0.0
 43
0.0
 43
0.0
 43
0.0
 43
0.0008202099737533
 43
0.0
 43
0.0
 43
0.0
 43
0.0
 43
1.0
 43
0.0
 43
0.0
 43
0.0
 43
0.0
 43
1.0
 77
     0
 47
0.0008202099737533
 47
0.0
 47
0.0
 47
0.0
 47
0.0
 47
0.0008202099737533
 47
0.0
 47
0.0
 47
0.0
 47
0.0
 47
1.0
 47
0.0
 47
0.0
 47
0.0
 47
0.0
 47
1.0
171
     0
 49
0.0008202099737533
 49
0.0
 49
0.0
 49
0.0
 49
0.0
 49
0.0008202099737533
 49
0.0
 49
0.0
 49
0.0
 49
0.0
 49
1.0
 49
0.0
 49
0.0
 49
0.0
 49
0.0
 49
1.0
175
     0
142
0.0008202099737533
142
0.0
142
0.0
142
0.0
142
0.0
142
0.0008202099737533
142
0.0
142
0.0
142
0.0
142
0.0
142
1.0
142
0.0
142
0.0
142
0.0
142
0.0
142
1.0
179
     0
144
0.0008202099737533
144
0.0
144
0.0
144
0.0
144
0.0
144
0.0008202099737533
144
0.0
144
0.0
144
0.0
144
0.0
144
1.0
144
0.0
144
0.0
144
0.0
144
0.0
144
1.0
147
0.0008202099737533
147
0.0
147
0.0
147
0.0
147
0.0
147
0.0008202099737533
147
0.0
147
0.0
147
0.0
147
0.0
147
1.0
147
0.0
147
0.0
147
0.0
147
0.0
147
1.0
  0
MATERIAL
  5
107A
102
{ACAD_XDICTIONARY
360
107B
102
}
102
{ACAD_REACTORS
330
EE5
102
}
330
EE5
100
AcDbMaterial
  1
Global
 72
     0
 43
0.0008202099737533
 43
0.0
 43
0.0
 43
0.0
 43
0.0
 43
0.0008202099737533
 43
0.0
 43
0.0
 43
0.0
 43
0.0
 43
1.0
 43
0.0
 43
0.0
 43
0.0
 43
0.0
 43
1.0
 77
     0
 47
0.0008202099737533
 47
0.0
 47
0.0
 47
0.0
 47
0.0
 47
0.0008202099737533
 47
0.0
 47
0.0
 47
0.0
 47
0.0
 47
1.0
 47
0.0
 47
0.0
 47
0.0
 47
0.0
 47
1.0
171
     0
 49
0.0008202099737533
 49
0.0
 49
0.0
 49
0.0
 49
0.0
 49
0.0008202099737533
 49
0.0
 49
0.0
 49
0.0
 49
0.0
 49
1.0
 49
0.0
 49
0.0
 49
0.0
 49
0.0
 49
1.0
175
     0
142
0.0008202099737533
142
0.0
142
0.0
142
0.0
142
0.0
142
0.0008202099737533
142
0.0
142
0.0
142
0.0
142
0.0
142
1.0
142
0.0
142
0.0
142
0.0
142
0.0
142
1.0
179
     0
144
0.0008202099737533
144
0.0
144
0.0
144
0.0
144
0.0
144
0.0008202099737533
144
0.0
144
0.0
144
0.0
144
0.0
144
1.0
144
0.0
144
0.0
144
0.0
144
0.0
144
1.0
147
0.0008202099737533
147
0.0
147
0.0
147
0.0
147
0.0
147
0.0008202099737533
147
0.0
147
0.0
147
0.0
147
0.0
147
1.0
147
0.0
147
0.0
147
0.0
147
0.0
147
1.0
  0
MLEADERSTYLE
  5
10A9
102
{ACAD_REACTORS
330
10A8
102
}
330
10A8
100
AcDbMLeaderStyle
170
     2
171
     1
172
     0
 90
        2
 40
0.0
 41
0.0
173
     1
 91
-1056964608
340
14
 92
       -2
290
     1
 42
2.0
291
     1
 43
0.36
  3
Standard
 44
4.0
300

342
11
174
     1
178
     6
175
     1
176
     0
 93
-1056964608
 45
4.0
292
     0
297
     0
 46
4.0
 94
-1056964608
 47
1.0
 49
1.0
140
1.0
293
     1
141
0.0
294
     1
177
     0
142
1.0
295
     0
296
     0
143
0.125
1001
ACAD_MLEADERVER
1070
     2
  0
MLINESTYLE
  5
18
102
{ACAD_REACTORS
330
17
102
}
330
17
100
AcDbMlineStyle
  2
STANDARD
 70
     0
  3

 62
   256
 51
90.0
 52
90.0
 71
     2
 49
0.5
 62
   256
  6
BYLAYER
 49
-0.5
 62
   256
  6
BYLAYER
  0
ACDBPLACEHOLDER
  5
F
102
{ACAD_REACTORS
330
E
102
}
330
E
  0
SCALE
  5
1097
102
{ACAD_REACTORS
330
1096
102
}
330
1096
100
AcDbScale
 70
     0
300
1:1
140
1.0
141
1.0
290
     1
  0
SCALE
  5
1098
102
{ACAD_REACTORS
330
1096
102
}
330
1096
100
AcDbScale
 70
     0
300
1:2
140
1.0
141
2.0
290
     0
  0
SCALE
  5
1099
102
{ACAD_REACTORS
330
1096
102
}
330
1096
100
AcDbScale
 70
     0
300
1:4
140
1.0
141
4.0
290
     0
  0
SCALE
  5
109A
102
{ACAD_REACTORS
330
1096
102
}
330
1096
100
AcDbScale
 70
     0
300
1:5
140
1.0
141
5.0
290
     0
  0
SCALE
  5
109B
102
{ACAD_REACTORS
330
1096
102
}
330
1096
100
AcDbScale
 70
     0
300
1:8
140
1.0
141
8.0
290
     0
  0
SCALE
  5
109C
102
{ACAD_REACTORS
330
1096
102
}
330
1096
100
AcDbScale
 70
     0
300
1:10
140
1.0
141
10.0
290
     0
  0
SCALE
  5
109D
102
{ACAD_REACTORS
330
1096
102
}
330
1096
100
AcDbScale
 70
     0
300
1:16
140
1.0
141
16.0
290
     0
  0
SCALE
  5
109E
102
{ACAD_REACTORS
330
1096
102
}
330
1096
100
AcDbScale
 70
     0
300
1:20
140
1.0
141
20.0
290
     0
  0
SCALE
  5
109F
102
{ACAD_REACTORS
330
1096
102
}
330
1096
100
AcDbScale
 70
     0
300
1:30
140
1.0
141
30.0
290
     0
  0
SCALE
  5
10A0
102
{ACAD_REACTORS
330
1096
102
}
330
1096
100
AcDbScale
 70
     0
300
1:40
140
1.0
141
40.0
290
     0
  0
SCALE
  5
10A1
102
{ACAD_REACTORS
330
1096
102
}
330
1096
100
AcDbScale
 70
     0
300
1:50
140
1.0
141
50.0
290
     0
  0
SCALE
  5
10A2
102
{ACAD_REACTORS
330
1096
102
}
330
1096
100
AcDbScale
 70
     0
300
1:100
140
1.0
141
100.0
290
     0
  0
SCALE
  5
10A3
102
{ACAD_REACTORS
330
1096
102
}
330
1096
100
AcDbScale
 70
     0
300
2:1
140
2.0
141
1.0
290
     0
  0
SCALE
  5
10A4
102
{ACAD_REACTORS
330
1096
102
}
330
1096
100
AcDbScale
 70
     0
300
4:1
140
4.0
141
1.0
290
     0
  0
SCALE
  5
10A5
102
{ACAD_REACTORS
330
1096
102
}
330
1096
100
AcDbScale
 70
     0
300
8:1
140
8.0
141
1.0
290
     0
  0
SCALE
  5
10A6
102
{ACAD_REACTORS
330
1096
102
}
330
1096
100
AcDbScale
 70
     0
300
10:1
140
10.0
141
1.0
290
     0
  0
SCALE
  5
10A7
102
{ACAD_REACTORS
330
1096
102
}
330
1096
100
AcDbScale
 70
     0
300
100:1
140
100.0
141
1.0
290
     0
  0
TABLESTYLE
  5
EE8
102
{ACAD_XDICTIONARY
360
1B69
102
}
102
{ACAD_REACTORS
330
EE7
102
}
330
EE7
100
AcDbTableStyle
  3
Standard
 70
     0
 71
     0
 40
1.5
 41
1.5
280
     0
281
     0
  7
Standard
140
4.5
170
     2
 62
     0
 63
     7
283
     0
274
    -2
284
     1
 64
     0
275
    -2
285
     1
 65
     0
276
    -2
286
     1
 66
     0
277
    -2
287
     1
 67
     0
278
    -2
288
     1
 68
     0
279
    -2
289
     1
 69
     0
  7
Standard
140
6.0
170
     5
 62
     0
 63
     7
283
     0
274
    -2
284
     1
 64
     0
275
    -2
285
     1
 65
     0
276
    -2
286
     1
 66
     0
277
    -2
287
     1
 67
     0
278
    -2
288
     1
 68
     0
279
    -2
289
     1
 69
     0
  7
Standard
140
4.5
170
     5
 62
     0
 63
     7
283
     0
274
    -2
284
     1
 64
     0
275
    -2
285
     1
 65
     0
276
    -2
286
     1
 66
     0
277
    -2
287
     1
 67
     0
278
    -2
288
     1
 68
     0
279
    -2
289
     1
 69
     0
  0
VISUALSTYLE
  5
1088
102
{ACAD_XDICTIONARY
360
1BDB
102
}
102
{ACAD_REACTORS
330
1082
102
}
330
1082
100
AcDbVisualStyle
  2
2dWireframe
 70
     4
 71
     0
 72
     2
 73
     0
 90
        0
 40
-0.6
 41
-30.0
 62
     5
 63
     7
 74
     1
 91
        4
 64
     7
 65
   257
 75
     1
175
     1
 42
1.0
 92
        0
 66
   257
 43
1.0
 76
     1
 77
     6
 78
     2
 67
     7
 79
     5
170
     0
171
     0
290
     0
174
     0
 93
        1
 44
0.0
173
     0
291
     0
 45
0.0
1001
ACAD
1000
AcDbSavedByObjectVersion
1070
     0
  0
VISUALSTYLE
  5
108A
102
{ACAD_XDICTIONARY
360
1BDF
102
}
102
{ACAD_REACTORS
330
1082
102
}
330
1082
100
AcDbVisualStyle
  2
3D Hidden
 70
     6
 71
     1
 72
     2
 73
     2
 90
        0
 40
-0.6
 41
-30.0
 62
     5
 63
     7
 74
     2
 91
        2
 64
     7
 65
   257
 75
     2
175
     1
 42
179.0
 92
        0
 66
   257
 43
1.0
 76
     1
 77
     6
 78
     2
 67
     7
 79
     3
170
     0
171
     0
290
     0
174
     0
 93
        1
 44
0.0
173
     0
291
     0
 45
0.0
1001
ACAD
1000
AcDbSavedByObjectVersion
1070
     0
  0
VISUALSTYLE
  5
1089
102
{ACAD_XDICTIONARY
360
1BDD
102
}
102
{ACAD_REACTORS
330
1082
102
}
330
1082
100
AcDbVisualStyle
  2
3dWireframe
 70
     5
 71
     0
 72
     2
 73
     0
 90
        0
 40
-0.6
 41
-30.0
 62
     5
 63
     7
 74
     1
 91
        4
 64
     7
 65
   257
 75
     1
175
     1
 42
1.0
 92
        0
 66
   257
 43
1.0
 76
     1
 77
     6
 78
     2
 67
     7
 79
     5
170
     0
171
     0
290
     0
174
     0
 93
        1
 44
0.0
173
     0
291
     0
 45
0.0
1001
ACAD
1000
AcDbSavedByObjectVersion
1070
     0
  0
VISUALSTYLE
  5
1087
102
{ACAD_XDICTIONARY
360
1BD9
102
}
102
{ACAD_REACTORS
330
1082
102
}
330
1082
100
AcDbVisualStyle
  2
Basic
 70
     7
 71
     1
 72
     0
 73
     1
 90
        0
 40
-0.6
 41
-30.0
 62
     5
 63
     7
 74
     0
 91
        4
 64
     7
 65
   257
 75
     1
175
     1
 42
1.0
 92
        8
 66
     7
 43
1.0
 76
     1
 77
     6
 78
     2
 67
     7
 79
     5
170
     0
171
     0
290
     0
174
     0
 93
        1
 44
0.0
173
     0
291
     1
 45
0.0
1001
ACAD
1000
AcDbSavedByObjectVersion
1070
     0
  0
VISUALSTYLE
  5
108E
102
{ACAD_XDICTIONARY
360
1BE7
102
}
102
{ACAD_REACTORS
330
1082
102
}
330
1082
100
AcDbVisualStyle
  2
Brighten
 70
    12
 71
     2
 72
     2
 73
     0
 90
        0
 40
-0.6
 41
-30.0
 62
     5
 63
     7
 74
     1
 91
        4
 64
     7
 65
   257
 75
     1
175
     1
 42
1.0
 92
        8
 66
     7
 43
1.0
 76
     1
 77
     6
 78
     2
 67
     7
 79
     5
170
     0
171
     0
290
     0
174
     0
 93
        1
 44
50.0
173
     0
291
     1
 45
0.0
1001
ACAD
1000
AcDbSavedByObjectVersion
1070
     0
  0
VISUALSTYLE
  5
1092
102
{ACAD_XDICTIONARY
360
1BEF
102
}
102
{ACAD_REACTORS
330
1082
102
}
330
1082
100
AcDbVisualStyle
  2
ColorChange
 70
    16
 71
     2
 72
     2
 73
     3
 90
        0
 40
-0.6
 41
-30.0
 62
     5
 63
     8
 74
     1
 91
        4
 64
     7
 65
   257
 75
     1
175
     1
 42
1.0
 92
        8
 66
     8
 43
1.0
 76
     1
 77
     6
 78
     2
 67
     7
 79
     5
170
     0
171
     0
290
     0
174
     0
 93
        1
 44
0.0
173
     0
291
     1
 45
0.0
1001
ACAD
1000
AcDbSavedByObjectVersion
1070
     0
  0
VISUALSTYLE
  5
108B
102
{ACAD_XDICTIONARY
360
1BE1
102
}
102
{ACAD_REACTORS
330
1082
102
}
330
1082
100
AcDbVisualStyle
  2
Conceptual
 70
     9
 71
     3
 72
     2
 73
     0
 90
        0
 40
-0.6
 41
-30.0
 62
     5
 63
     7
 74
     2
 91
        2
 64
     7
 65
   257
 75
     1
175
     1
 42
179.0
 92
        8
 66
     7
 43
1.0
 76
     1
 77
     6
 78
     2
 67
     7
 79
     3
170
     0
171
     0
290
     0
174
     0
 93
        1
 44
0.0
173
     0
291
     0
 45
0.0
1001
ACAD
1000
AcDbSavedByObjectVersion
1070
     0
  0
VISUALSTYLE
  5
108D
102
{ACAD_XDICTIONARY
360
1BE5
102
}
102
{ACAD_REACTORS
330
1082
102
}
330
1082
100
AcDbVisualStyle
  2
Dim
 70
    11
 71
     2
 72
     2
 73
     0
 90
        0
 40
-0.6
 41
-30.0
 62
     5
 63
     7
 74
     1
 91
        4
 64
     7
 65
   257
 75
     1
175
     1
 42
1.0
 92
        8
 66
     7
 43
1.0
 76
     1
 77
     6
 78
     2
 67
     7
 79
     5
170
     0
171
     0
290
     0
174
     0
 93
        1
 44
-50.0
173
     0
291
     1
 45
0.0
1001
ACAD
1000
AcDbSavedByObjectVersion
1070
     0
  0
VISUALSTYLE
  5
1095
102
{ACAD_XDICTIONARY
360
1BF5
102
}
102
{ACAD_REACTORS
330
1082
102
}
330
1082
100
AcDbVisualStyle
  2
EdgeColorOff
 70
    22
 71
     2
 72
     2
 73
     0
 90
        0
 40
-0.6
 41
-30.0
 62
     5
 63
     7
 74
     1
 91
        4
 64
     7
 65
   257
 75
     1
175
     1
 42
1.0
 92
        8
 66
     7
 43
1.0
 76
     1
 77
     6
 78
     2
 67
     7
 79
     5
170
     0
171
     0
290
     0
174
     0
 93
        1
 44
0.0
173
     0
291
     1
 45
0.0
1001
ACAD
1000
AcDbSavedByObjectVersion
1070
     0
  0
VISUALSTYLE
  5
1091
102
{ACAD_XDICTIONARY
360
1BED
102
}
102
{ACAD_REACTORS
330
1082
102
}
330
1082
100
AcDbVisualStyle
  2
Facepattern
 70
    15
 71
     2
 72
     2
 73
     0
 90
        0
 40
-0.6
 41
-30.0
 62
     5
 63
     7
 74
     1
 91
        4
 64
     7
 65
   257
 75
     1
175
     1
 42
1.0
 92
        8
 66
     7
 43
1.0
 76
     1
 77
     6
 78
     2
 67
     7
 79
     5
170
     0
171
     0
290
     0
174
     0
 93
        1
 44
0.0
173
     0
291
     1
 45
0.0
1001
ACAD
1000
AcDbSavedByObjectVersion
1070
     0
  0
VISUALSTYLE
  5
1083
102
{ACAD_XDICTIONARY
360
1BD1
102
}
102
{ACAD_REACTORS
330
1082
102
}
330
1082
100
AcDbVisualStyle
  2
Flat
 70
     0
 71
     2
 72
     1
 73
     1
 90
        2
 40
-0.6
 41
30.0
 62
     5
 63
     7
 74
     0
 91
        4
 64
     7
 65
   257
 75
     1
175
     1
 42
1.0
 92
        8
 66
     7
 43
1.0
 76
     1
 77
     6
 78
     2
 67
     7
 79
     5
170
     0
171
     0
290
     0
174
     0
 93
       13
 44
0.0
173
     0
291
     1
 45
0.0
1001
ACAD
1000
AcDbSavedByObjectVersion
1070
     0
  0
VISUALSTYLE
  5
1084
102
{ACAD_XDICTIONARY
360
1BD3
102
}
102
{ACAD_REACTORS
330
1082
102
}
330
1082
100
AcDbVisualStyle
  2
FlatWithEdges
 70
     1
 71
     2
 72
     1
 73
     1
 90
        2
 40
-0.6
 41
30.0
 62
     5
 63
     7
 74
     1
 91
        4
 64
     7
 65
   257
 75
     1
175
     1
 42
1.0
 92
        0
 66
   257
 43
1.0
 76
     1
 77
     6
 78
     2
 67
     7
 79
     5
170
     0
171
     0
290
     0
174
     0
 93
       13
 44
0.0
173
     0
291
     1
 45
0.0
1001
ACAD
1000
AcDbSavedByObjectVersion
1070
     0
  0
VISUALSTYLE
  5
1085
102
{ACAD_XDICTIONARY
360
1BD5
102
}
102
{ACAD_REACTORS
330
1082
102
}
330
1082
100
AcDbVisualStyle
  2
Gouraud
 70
     2
 71
     2
 72
     2
 73
     1
 90
        2
 40
-0.6
 41
30.0
 62
     5
 63
     7
 74
     0
 91
        4
 64
     7
 65
   257
 75
     1
175
     1
 42
1.0
 92
        0
 66
     7
 43
1.0
 76
     1
 77
     6
 78
     2
 67
     7
 79
     5
170
     0
171
     0
290
     0
174
     0
 93
       13
 44
0.0
173
     0
291
     1
 45
0.0
1001
ACAD
1000
AcDbSavedByObjectVersion
1070
     0
  0
VISUALSTYLE
  5
1086
102
{ACAD_XDICTIONARY
360
1BD7
102
}
102
{ACAD_REACTORS
330
1082
102
}
330
1082
100
AcDbVisualStyle
  2
GouraudWithEdges
 70
     3
 71
     2
 72
     2
 73
     1
 90
        2
 40
-0.6
 41
30.0
 62
     5
 63
     7
 74
     1
 91
        4
 64
     7
 65
   257
 75
     1
175
     1
 42
1.0
 92
        0
 66
   257
 43
1.0
 76
     1
 77
     6
 78
     2
 67
     7
 79
     5
170
     0
171
     0
290
     0
174
     0
 93
       13
 44
0.0
173
     0
291
     1
 45
0.0
1001
ACAD
1000
AcDbSavedByObjectVersion
1070
     0
  0
VISUALSTYLE
  5
1093
102
{ACAD_XDICTIONARY
360
1BF1
102
}
102
{ACAD_REACTORS
330
1082
102
}
330
1082
100
AcDbVisualStyle
  2
JitterOff
 70
    20
 71
     2
 72
     2
 73
     0
 90
        0
 40
-0.6
 41
-30.0
 62
     5
 63
     7
 74
     1
 91
        4
 64
     7
 65
   257
 75
     1
175
     1
 42
1.0
 92
       10
 66
     7
 43
1.0
 76
     1
 77
     6
 78
     2
 67
     7
 79
     5
170
     0
171
     0
290
     0
174
     0
 93
        1
 44
0.0
173
     0
291
     1
 45
0.0
1001
ACAD
1000
AcDbSavedByObjectVersion
1070
     0
  0
VISUALSTYLE
  5
1090
102
{ACAD_XDICTIONARY
360
1BEB
102
}
102
{ACAD_REACTORS
330
1082
102
}
330
1082
100
AcDbVisualStyle
  2
Linepattern
 70
    14
 71
     2
 72
     2
 73
     0
 90
        0
 40
-0.6
 41
-30.0
 62
     5
 63
     7
 74
     1
 91
        4
 64
     7
 65
   257
 75
     7
175
     7
 42
1.0
 92
        8
 66
     7
 43
1.0
 76
     1
 77
     6
 78
     2
 67
     7
 79
     5
170
     0
171
     0
290
     0
174
     0
 93
        1
 44
0.0
173
     0
291
     1
 45
0.0
1001
ACAD
1000
AcDbSavedByObjectVersion
1070
     0
  0
VISUALSTYLE
  5
1094
102
{ACAD_XDICTIONARY
360
1BF3
102
}
102
{ACAD_REACTORS
330
1082
102
}
330
1082
100
AcDbVisualStyle
  2
OverhangOff
 70
    21
 71
     2
 72
     2
 73
     0
 90
        0
 40
-0.6
 41
-30.0
 62
     5
 63
     7
 74
     1
 91
        4
 64
     7
 65
   257
 75
     1
175
     1
 42
1.0
 92
        9
 66
     7
 43
1.0
 76
     1
 77
     6
 78
     2
 67
     7
 79
     5
170
     0
171
     0
290
     0
174
     0
 93
        1
 44
0.0
173
     0
291
     1
 45
0.0
1001
ACAD
1000
AcDbSavedByObjectVersion
1070
     0
  0
VISUALSTYLE
  5
108C
102
{ACAD_XDICTIONARY
360
1BE3
102
}
102
{ACAD_REACTORS
330
1082
102
}
330
1082
100
AcDbVisualStyle
  2
Realistic
 70
     8
 71
     2
 72
     2
 73
     0
 90
        0
 40
-0.6
 41
-30.0
 62
     5
 63
     7
 74
     1
 91
        0
 64
     7
 65
   257
 75
     1
175
     1
 42
1.0
 92
        8
 66
     8
 43
1.0
 76
     1
 77
     6
 78
     2
 67
     7
 79
     5
170
     0
171
     0
290
     0
174
     0
 93
       13
 44
0.0
173
     0
291
     0
 45
0.0
1001
ACAD
1000
AcDbSavedByObjectVersion
1070
     0
  0
VISUALSTYLE
  5
108F
102
{ACAD_XDICTIONARY
360
1BE9
102
}
102
{ACAD_REACTORS
330
1082
102
}
330
1082
100
AcDbVisualStyle
  2
Thicken
 70
    13
 71
     2
 72
     2
 73
     0
 90
        0
 40
-0.6
 41
-30.0
 62
     5
 63
     7
 74
     1
 91
        4
 64
     7
 65
   257
 75
     1
175
     1
 42
1.0
 92
       12
 66
     7
 43
1.0
 76
     1
 77
     6
 78
     2
 67
     7
 79
     5
170
     0
171
     0
290
     0
174
     0
 93
        1
 44
0.0
173
     0
291
     1
 45
0.0
1001
ACAD
1000
AcDbSavedByObjectVersion
1070
     0
  0
DICTIONARYVAR
  5
1BB5
102
{ACAD_REACTORS
330
3D
102
}
330
3D
100
DictionaryVariables
280
     0
  1
1:1
  0
DICTIONARYVAR
  5
1BB4
102
{ACAD_REACTORS
330
3D
102
}
330
3D
100
DictionaryVariables
280
     0
  1
STANDARD
  0
DICTIONARYVAR
  5
1049
102
{ACAD_REACTORS
330
3D
102
}
330
3D
100
DictionaryVariables
280
     0
  1
STANDARD
  0
DICTIONARYVAR
  5
3F
102
{ACAD_REACTORS
330
3D
102
}
330
3D
100
DictionaryVariables
280
     0
  1
2
  0
DICTIONARYVAR
  5
3E
102
{ACAD_REACTORS
330
3D
102
}
330
3D
100
DictionaryVariables
280
     0
  1
1
  0
DICTIONARYVAR
  5
1BB7
102
{ACAD_REACTORS
330
3D
102
}
330
3D
100
DictionaryVariables
280
     0
  1
0
  0
DICTIONARYVAR
  5
1BB6
102
{ACAD_REACTORS
330
3D
102
}
330
3D
100
DictionaryVariables
280
     0
  1
127
  0
DICTIONARYVAR
  5
1BC1
102
{ACAD_REACTORS
330
3D
102
}
330
3D
100
DictionaryVariables
280
     0
  1
2
  0
XRECORD
  5
1067
102
{ACAD_REACTORS
330
1066
102
}
330
1066
100
AcDbXrecord
280
     1
  0
DICTIONARY
  5
1BC7
330
1E
100
AcDbDictionary
280
     1
281
     1
  3
ACAD_XREC_ROUNDTRIP
360
1BC8
  0
DICTIONARY
  5
1BCB
330
26
100
AcDbDictionary
280
     1
281
     1
  3
ACAD_XREC_ROUNDTRIP
360
1BCC
  0
DICTIONARY
  5
1BC9
330
22
100
AcDbDictionary
280
     1
281
     1
  3
ACAD_XREC_ROUNDTRIP
360
1BCA
  0
DICTIONARY
  5
1073
330
1072
100
AcDbDictionary
280
     1
281
     1
  3
ACAD_XREC_ROUNDTRIP
360
1BCF
  3
BUMPTILE
360
1075
  3
DIFFUSETILE
360
1074
  3
OPACITYTILE
360
1078
  3
REFLECTIONTILE
360
1077
  3
REFRACTIONTILE
360
1079
  3
SPECULARTILE
360
1076
  0
DICTIONARY
  5
106B
330
106A
100
AcDbDictionary
280
     1
281
     1
  3
ACAD_XREC_ROUNDTRIP
360
1BCE
  3
BUMPTILE
360
106D
  3
DIFFUSETILE
360
106C
  3
OPACITYTILE
360
1070
  3
REFLECTIONTILE
360
106F
  3
REFRACTIONTILE
360
1071
  3
SPECULARTILE
360
106E
  0
DICTIONARY
  5
107B
330
107A
100
AcDbDictionary
280
     1
281
     1
  3
ACAD_XREC_ROUNDTRIP
360
1BD0
  3
BUMPTILE
360
107D
  3
DIFFUSETILE
360
107C
  3
OPACITYTILE
360
1080
  3
REFLECTIONTILE
360
107F
  3
REFRACTIONTILE
360
1081
  3
SPECULARTILE
360
107E
  0
DICTIONARY
  5
1B69
330
EE8
100
AcDbDictionary
280
     1
281
     1
  3
ACAD_ROUNDTRIP_2008_TABLESTYLE_CELLSTYLEMAP
360
1BC2
  3
ACAD_XREC_ROUNDTRIP
360
1BCD
  0
DICTIONARY
  5
1BDB
330
1088
100
AcDbDictionary
280
     1
281
     1
  3
ACAD_XREC_ROUNDTRIP
360
1BDC
  0
DICTIONARY
  5
1BDF
330
108A
100
AcDbDictionary
280
     1
281
     1
  3
ACAD_XREC_ROUNDTRIP
360
1BE0
  0
DICTIONARY
  5
1BDD
330
1089
100
AcDbDictionary
280
     1
281
     1
  3
ACAD_XREC_ROUNDTRIP
360
1BDE
  0
DICTIONARY
  5
1BD9
330
1087
100
AcDbDictionary
280
     1
281
     1
  3
ACAD_XREC_ROUNDTRIP
360
1BDA
  0
DICTIONARY
  5
1BE7
330
108E
100
AcDbDictionary
280
     1
281
     1
  3
ACAD_XREC_ROUNDTRIP
360
1BE8
  0
DICTIONARY
  5
1BEF
330
1092
100
AcDbDictionary
280
     1
281
     1
  3
ACAD_XREC_ROUNDTRIP
360
1BF0
  0
DICTIONARY
  5
1BE1
330
108B
100
AcDbDictionary
280
     1
281
     1
  3
ACAD_XREC_ROUNDTRIP
360
1BE2
  0
DICTIONARY
  5
1BE5
330
108D
100
AcDbDictionary
280
     1
281
     1
  3
ACAD_XREC_ROUNDTRIP
360
1BE6
  0
DICTIONARY
  5
1BF5
330
1095
100
AcDbDictionary
280
     1
281
     1
  3
ACAD_XREC_ROUNDTRIP
360
1BF6
  0
DICTIONARY
  5
1BED
330
1091
100
AcDbDictionary
280
     1
281
     1
  3
ACAD_XREC_ROUNDTRIP
360
1BEE
  0
DICTIONARY
  5
1BD1
330
1083
100
AcDbDictionary
280
     1
281
     1
  3
ACAD_XREC_ROUNDTRIP
360
1BD2
  0
DICTIONARY
  5
1BD3
330
1084
100
AcDbDictionary
280
     1
281
     1
  3
ACAD_XREC_ROUNDTRIP
360
1BD4
  0
DICTIONARY
  5
1BD5
330
1085
100
AcDbDictionary
280
     1
281
     1
  3
ACAD_XREC_ROUNDTRIP
360
1BD6
  0
DICTIONARY
  5
1BD7
330
1086
100
AcDbDictionary
280
     1
281
     1
  3
ACAD_XREC_ROUNDTRIP
360
1BD8
  0
DICTIONARY
  5
1BF1
330
1093
100
AcDbDictionary
280
     1
281
     1
  3
ACAD_XREC_ROUNDTRIP
360
1BF2
  0
DICTIONARY
  5
1BEB
330
1090
100
AcDbDictionary
280
     1
281
     1
  3
ACAD_XREC_ROUNDTRIP
360
1BEC
  0
DICTIONARY
  5
1BF3
330
1094
100
AcDbDictionary
280
     1
281
     1
  3
ACAD_XREC_ROUNDTRIP
360
1BF4
  0
DICTIONARY
  5
1BE3
330
108C
100
AcDbDictionary
280
     1
281
     1
  3
ACAD_XREC_ROUNDTRIP
360
1BE4
  0
DICTIONARY
  5
1BE9
330
108F
100
AcDbDictionary
280
     1
281
     1
  3
ACAD_XREC_ROUNDTRIP
360
1BEA
  0
XRECORD
  5
1BC8
102
{ACAD_REACTORS
330
1BC7
102
}
330
1BC7
100
AcDbXrecord
280
     1
102
SHADEPLOT
 70
     0
102
SHADEPLOTRESLEVEL
 70
     2
102
SHADEPLOTCUSTOMDPI
 70
   300
  0
XRECORD
  5
1BCC
102
{ACAD_REACTORS
330
1BCB
102
}
330
1BCB
100
AcDbXrecord
280
     1
102
SHADEPLOT
 70
     0
102
SHADEPLOTRESLEVEL
 70
     2
102
SHADEPLOTCUSTOMDPI
 70
   300
  0
XRECORD
  5
1BCA
102
{ACAD_REACTORS
330
1BC9
102
}
330
1BC9
100
AcDbXrecord
280
     1
102
SHADEPLOT
 70
     0
102
SHADEPLOTRESLEVEL
 70
     2
102
SHADEPLOTCUSTOMDPI
 70
   300
  0
XRECORD
  5
1BCF
102
{ACAD_REACTORS
330
1073
102
}
330
1073
100
AcDbXrecord
280
     1
102
MATERIAL
148
0.0
149
0.0
149
0.0
 93
        0
 94
      127
282
     0
 72
     0
 77
     0
171
     0
175
     0
179
     0
273
     0
  0
XRECORD
  5
1075
102
{ACAD_REACTORS
330
1073
102
}
330
1073
100
AcDbXrecord
280
     1
270
     1
271
     1
  0
XRECORD
  5
1074
102
{ACAD_REACTORS
330
1073
102
}
330
1073
100
AcDbXrecord
280
     1
270
     1
271
     1
  0
XRECORD
  5
1078
102
{ACAD_REACTORS
330
1073
102
}
330
1073
100
AcDbXrecord
280
     1
270
     1
271
     1
  0
XRECORD
  5
1077
102
{ACAD_REACTORS
330
1073
102
}
330
1073
100
AcDbXrecord
280
     1
270
     1
271
     1
  0
XRECORD
  5
1079
102
{ACAD_REACTORS
330
1073
102
}
330
1073
100
AcDbXrecord
280
     1
270
     1
271
     1
  0
XRECORD
  5
1076
102
{ACAD_REACTORS
330
1073
102
}
330
1073
100
AcDbXrecord
280
     1
270
     1
271
     1
  0
XRECORD
  5
1BCE
102
{ACAD_REACTORS
330
106B
102
}
330
106B
100
AcDbXrecord
280
     1
102
MATERIAL
148
0.0
149
0.0
149
0.0
 93
        0
 94
      127
282
     0
 72
     0
 77
     0
171
     0
175
     0
179
     0
273
     0
  0
XRECORD
  5
106D
102
{ACAD_REACTORS
330
106B
102
}
330
106B
100
AcDbXrecord
280
     1
270
     1
271
     1
  0
XRECORD
  5
106C
102
{ACAD_REACTORS
330
106B
102
}
330
106B
100
AcDbXrecord
280
     1
270
     1
271
     1
  0
XRECORD
  5
1070
102
{ACAD_REACTORS
330
106B
102
}
330
106B
100
AcDbXrecord
280
     1
270
     1
271
     1
  0
XRECORD
  5
106F
102
{ACAD_REACTORS
330
106B
102
}
330
106B
100
AcDbXrecord
280
     1
270
     1
271
     1
  0
XRECORD
  5
1071
102
{ACAD_REACTORS
330
106B
102
}
330
106B
100
AcDbXrecord
280
     1
270
     1
271
     1
  0
XRECORD
  5
106E
102
{ACAD_REACTORS
330
106B
102
}
330
106B
100
AcDbXrecord
280
     1
270
     1
271
     1
  0
XRECORD
  5
1BD0
102
{ACAD_REACTORS
330
107B
102
}
330
107B
100
AcDbXrecord
280
     1
102
MATERIAL
148
0.0
149
0.0
149
0.0
 93
        0
 94
      127
282
     0
 72
     0
 77
     0
171
     0
175
     0
179
     0
273
     0
  0
XRECORD
  5
107D
102
{ACAD_REACTORS
330
107B
102
}
330
107B
100
AcDbXrecord
280
     1
270
     1
271
     1
  0
XRECORD
  5
107C
102
{ACAD_REACTORS
330
107B
102
}
330
107B
100
AcDbXrecord
280
     1
270
     1
271
     1
  0
XRECORD
  5
1080
102
{ACAD_REACTORS
330
107B
102
}
330
107B
100
AcDbXrecord
280
     1
270
     1
271
     1
  0
XRECORD
  5
107F
102
{ACAD_REACTORS
330
107B
102
}
330
107B
100
AcDbXrecord
280
     1
270
     1
271
     1
  0
XRECORD
  5
1081
102
{ACAD_REACTORS
330
107B
102
}
330
107B
100
AcDbXrecord
280
     1
270
     1
271
     1
  0
XRECORD
  5
107E
102
{ACAD_REACTORS
330
107B
102
}
330
107B
100
AcDbXrecord
280
     1
270
     1
271
     1
  0
CELLSTYLEMAP
  5
1BC2
102
{ACAD_REACTORS
330
1B69
102
}
330
1B69
100
AcDbCellStyleMap
 90
        3
300
CELLSTYLE
  1
TABLEFORMAT_BEGIN
 90
        5
170
     1
 91
        0
 92
    32768
 62
   257
 93
        1
300
CONTENTFORMAT
  1
CONTENTFORMAT_BEGIN
 90
        0
 91
        0
 92
        4
 93
        0
300

 40
0.0
140
1.0
 94
        5
 62
     0
340
11
144
6.0
309
CONTENTFORMAT_END
171
     1
301
MARGIN
  1
CELLMARGIN_BEGIN
 40
1.5
 40
1.5
 40
1.5
 40
1.5
 40
0.18
 40
0.18
309
CELLMARGIN_END
 94
        6
 95
        1
302
GRIDFORMAT
  1
GRIDFORMAT_BEGIN
 90
        0
 91
        1
 62
     0
 92
       -2
340
0
 93
        0
 40
0.045
309
GRIDFORMAT_END
 95
        2
302
GRIDFORMAT
  1
GRIDFORMAT_BEGIN
 90
        0
 91
        1
 62
     0
 92
       -2
340
0
 93
        0
 40
0.045
309
GRIDFORMAT_END
 95
        4
302
GRIDFORMAT
  1
GRIDFORMAT_BEGIN
 90
        0
 91
        1
 62
     0
 92
       -2
340
0
 93
        0
 40
0.045
309
GRIDFORMAT_END
 95
        8
302
GRIDFORMAT
  1
GRIDFORMAT_BEGIN
 90
        0
 91
        1
 62
     0
 92
       -2
340
0
 93
        0
 40
0.045
309
GRIDFORMAT_END
 95
       16
302
GRIDFORMAT
  1
GRIDFORMAT_BEGIN
 90
        0
 91
        1
 62
     0
 92
       -2
340
0
 93
        0
 40
0.045
309
GRIDFORMAT_END
 95
       32
302
GRIDFORMAT
  1
GRIDFORMAT_BEGIN
 90
        0
 91
        1
 62
     0
 92
       -2
340
0
 93
        0
 40
0.045
309
GRIDFORMAT_END
309
TABLEFORMAT_END
  1
CELLSTYLE_BEGIN
 90
        1
 91
        1
300
_TITLE
309
CELLSTYLE_END
300
CELLSTYLE
  1
TABLEFORMAT_BEGIN
 90
        5
170
     1
 91
        0
 92
        0
 62
   257
 93
        1
300
CONTENTFORMAT
  1
CONTENTFORMAT_BEGIN
 90
        0
 91
        0
 92
        4
 93
        0
300

 40
0.0
140
1.0
 94
        5
 62
     0
340
11
144
4.5
309
CONTENTFORMAT_END
171
     1
301
MARGIN
  1
CELLMARGIN_BEGIN
 40
1.5
 40
1.5
 40
1.5
 40
1.5
 40
0.18
 40
0.18
309
CELLMARGIN_END
 94
        6
 95
        1
302
GRIDFORMAT
  1
GRIDFORMAT_BEGIN
 90
        0
 91
        1
 62
     0
 92
       -2
340
0
 93
        0
 40
0.045
309
GRIDFORMAT_END
 95
        2
302
GRIDFORMAT
  1
GRIDFORMAT_BEGIN
 90
        0
 91
        1
 62
     0
 92
       -2
340
0
 93
        0
 40
0.045
309
GRIDFORMAT_END
 95
        4
302
GRIDFORMAT
  1
GRIDFORMAT_BEGIN
 90
        0
 91
        1
 62
     0
 92
       -2
340
0
 93
        0
 40
0.045
309
GRIDFORMAT_END
 95
        8
302
GRIDFORMAT
  1
GRIDFORMAT_BEGIN
 90
        0
 91
        1
 62
     0
 92
       -2
340
0
 93
        0
 40
0.045
309
GRIDFORMAT_END
 95
       16
302
GRIDFORMAT
  1
GRIDFORMAT_BEGIN
 90
        0
 91
        1
 62
     0
 92
       -2
340
0
 93
        0
 40
0.045
309
GRIDFORMAT_END
 95
       32
302
GRIDFORMAT
  1
GRIDFORMAT_BEGIN
 90
        0
 91
        1
 62
     0
 92
       -2
340
0
 93
        0
 40
0.045
309
GRIDFORMAT_END
309
TABLEFORMAT_END
  1
CELLSTYLE_BEGIN
 90
        2
 91
        1
300
_HEADER
309
CELLSTYLE_END
300
CELLSTYLE
  1
TABLEFORMAT_BEGIN
 90
        5
170
     1
 91
        0
 92
        0
 62
   257
 93
        1
300
CONTENTFORMAT
  1
CONTENTFORMAT_BEGIN
 90
        0
 91
        0
 92
        4
 93
        0
300

 40
0.0
140
1.0
 94
        2
 62
     0
340
11
144
4.5
309
CONTENTFORMAT_END
171
     1
301
MARGIN
  1
CELLMARGIN_BEGIN
 40
1.5
 40
1.5
 40
1.5
 40
1.5
 40
0.18
 40
0.18
309
CELLMARGIN_END
 94
        6
 95
        1
302
GRIDFORMAT
  1
GRIDFORMAT_BEGIN
 90
        0
 91
        1
 62
     0
 92
       -2
340
0
 93
        0
 40
0.045
309
GRIDFORMAT_END
 95
        2
302
GRIDFORMAT
  1
GRIDFORMAT_BEGIN
 90
        0
 91
        1
 62
     0
 92
       -2
340
0
 93
        0
 40
0.045
309
GRIDFORMAT_END
 95
        4
302
GRIDFORMAT
  1
GRIDFORMAT_BEGIN
 90
        0
 91
        1
 62
     0
 92
       -2
340
0
 93
        0
 40
0.045
309
GRIDFORMAT_END
 95
        8
302
GRIDFORMAT
  1
GRIDFORMAT_BEGIN
 90
        0
 91
        1
 62
     0
 92
       -2
340
0
 93
        0
 40
0.045
309
GRIDFORMAT_END
 95
       16
302
GRIDFORMAT
  1
GRIDFORMAT_BEGIN
 90
        0
 91
        1
 62
     0
 92
       -2
340
0
 93
        0
 40
0.045
309
GRIDFORMAT_END
 95
       32
302
GRIDFORMAT
  1
GRIDFORMAT_BEGIN
 90
        0
 91
        1
 62
     0
 92
       -2
340
0
 93
        0
 40
0.045
309
GRIDFORMAT_END
309
TABLEFORMAT_END
  1
CELLSTYLE_BEGIN
 90
        3
 91
        2
300
_DATA
309
CELLSTYLE_END
  0
XRECORD
  5
1BCD
102
{ACAD_REACTORS
330
1B69
102
}
330
1B69
100
AcDbXrecord
280
     1
102
ACAD_ROUNDTRIP_PRE2007_TABLESTYLE
 90
        4
 91
        0
  1

 92
        4
 93
        0
  2

 94
        4
 95
        0
  3

  0
XRECORD
  5
1BDC
102
{ACAD_REACTORS
330
1BDB
102
}
330
1BDB
100
AcDbXrecord
280
     1
102
RTVSPropertyOp0
 70
     1
102
RTVSPropertyOp1
 70
     1
102
RTVSPropertyOp2
 70
     1
102
RTVSPropertyOp3
 70
     1
102
RTVSPropertyOp4
 70
     1
102
RTVSPropertyOp5
 70
     1
102
RTVSPropertyOp6
 70
     1
102
RTVSPropertyOp7
 70
     1
102
RTVSPropertyOp8
 70
     1
102
RTVSPropertyOp9
 70
     1
102
RTVSPropertyOp10
 70
     1
102
RTVSPropertyOp11
 70
     1
102
RTVSPropertyOp12
 70
     1
102
RTVSPropertyOp13
 70
     1
102
RTVSPropertyOp14
 70
     1
102
RTVSPropertyOp15
 70
     1
102
RTVSPropertyOp16
 70
     1
102
RTVSPropertyOp17
 70
     1
102
RTVSPropertyOp18
 70
     1
102
RTVSPropertyOp19
 70
     1
102
RTVSPropertyOp20
 70
     1
102
RTVSPropertyOp21
 70
     1
102
RTVSPropertyOp22
 70
     1
102
RTVSPropertyOp23
 70
     1
102
RTVSPropertyOp24
 70
     1
102
RTVSPropertyOp25
 70
     1
102
RTVSPropertyOp26
 70
     1
102
RTVSPropertyOp27
 70
     1
  0
XRECORD
  5
1BE0
102
{ACAD_REACTORS
330
1BDF
102
}
330
1BDF
100
AcDbXrecord
280
     1
102
RTVSPropertyOp0
 70
     1
102
RTVSPropertyOp1
 70
     1
102
RTVSPropertyOp2
 70
     1
102
RTVSPropertyOp3
 70
     1
102
RTVSPropertyOp4
 70
     1
102
RTVSPropertyOp5
 70
     1
102
RTVSPropertyOp6
 70
     1
102
RTVSPropertyOp7
 70
     1
102
RTVSPropertyOp8
 70
     1
102
RTVSPropertyOp9
 70
     1
102
RTVSPropertyOp10
 70
     1
102
RTVSPropertyOp11
 70
     1
102
RTVSPropertyOp12
 70
     1
102
RTVSPropertyOp13
 70
     1
102
RTVSPropertyOp14
 70
     1
102
RTVSPropertyOp15
 70
     1
102
RTVSPropertyOp16
 70
     1
102
RTVSPropertyOp17
 70
     1
102
RTVSPropertyOp18
 70
     1
102
RTVSPropertyOp19
 70
     1
102
RTVSPropertyOp20
 70
     1
102
RTVSPropertyOp21
 70
     1
102
RTVSPropertyOp22
 70
     1
102
RTVSPropertyOp23
 70
     1
102
RTVSPropertyOp24
 70
     1
102
RTVSPropertyOp25
 70
     1
102
RTVSPropertyOp26
 70
     1
102
RTVSPropertyOp27
 70
     1
  0
XRECORD
  5
1BDE
102
{ACAD_REACTORS
330
1BDD
102
}
330
1BDD
100
AcDbXrecord
280
     1
102
RTVSPropertyOp0
 70
     1
102
RTVSPropertyOp1
 70
     1
102
RTVSPropertyOp2
 70
     1
102
RTVSPropertyOp3
 70
     1
102
RTVSPropertyOp4
 70
     1
102
RTVSPropertyOp5
 70
     1
102
RTVSPropertyOp6
 70
     1
102
RTVSPropertyOp7
 70
     1
102
RTVSPropertyOp8
 70
     1
102
RTVSPropertyOp9
 70
     1
102
RTVSPropertyOp10
 70
     1
102
RTVSPropertyOp11
 70
     1
102
RTVSPropertyOp12
 70
     1
102
RTVSPropertyOp13
 70
     1
102
RTVSPropertyOp14
 70
     1
102
RTVSPropertyOp15
 70
     1
102
RTVSPropertyOp16
 70
     1
102
RTVSPropertyOp17
 70
     1
102
RTVSPropertyOp18
 70
     1
102
RTVSPropertyOp19
 70
     1
102
RTVSPropertyOp20
 70
     1
102
RTVSPropertyOp21
 70
     1
102
RTVSPropertyOp22
 70
     1
102
RTVSPropertyOp23
 70
     1
102
RTVSPropertyOp24
 70
     1
102
RTVSPropertyOp25
 70
     1
102
RTVSPropertyOp26
 70
     1
102
RTVSPropertyOp27
 70
     1
  0
XRECORD
  5
1BDA
102
{ACAD_REACTORS
330
1BD9
102
}
330
1BD9
100
AcDbXrecord
280
     1
102
RTVSPropertyOp0
 70
     1
102
RTVSPropertyOp1
 70
     1
102
RTVSPropertyOp2
 70
     1
102
RTVSPropertyOp3
 70
     1
102
RTVSPropertyOp4
 70
     1
102
RTVSPropertyOp5
 70
     1
102
RTVSPropertyOp6
 70
     1
102
RTVSPropertyOp7
 70
     1
102
RTVSPropertyOp8
 70
     1
102
RTVSPropertyOp9
 70
     1
102
RTVSPropertyOp10
 70
     1
102
RTVSPropertyOp11
 70
     1
102
RTVSPropertyOp12
 70
     1
102
RTVSPropertyOp13
 70
     1
102
RTVSPropertyOp14
 70
     1
102
RTVSPropertyOp15
 70
     1
102
RTVSPropertyOp16
 70
     1
102
RTVSPropertyOp17
 70
     1
102
RTVSPropertyOp18
 70
     1
102
RTVSPropertyOp19
 70
     1
102
RTVSPropertyOp20
 70
     1
102
RTVSPropertyOp21
 70
     1
102
RTVSPropertyOp22
 70
     1
102
RTVSPropertyOp23
 70
     1
102
RTVSPropertyOp24
 70
     1
102
RTVSPropertyOp25
 70
     1
102
RTVSPropertyOp26
 70
     1
102
RTVSPropertyOp27
 70
     1
  0
XRECORD
  5
1BE8
102
{ACAD_REACTORS
330
1BE7
102
}
330
1BE7
100
AcDbXrecord
280
     1
102
RTVSPropertyOp0
 70
     1
102
RTVSPropertyOp1
 70
     1
102
RTVSPropertyOp2
 70
     1
102
RTVSPropertyOp3
 70
     1
102
RTVSPropertyOp4
 70
     1
102
RTVSPropertyOp5
 70
     1
102
RTVSPropertyOp6
 70
     1
102
RTVSPropertyOp7
 70
     1
102
RTVSPropertyOp8
 70
     1
102
RTVSPropertyOp9
 70
     1
102
RTVSPropertyOp10
 70
     1
102
RTVSPropertyOp11
 70
     1
102
RTVSPropertyOp12
 70
     1
102
RTVSPropertyOp13
 70
     1
102
RTVSPropertyOp14
 70
     1
102
RTVSPropertyOp15
 70
     1
102
RTVSPropertyOp16
 70
     1
102
RTVSPropertyOp17
 70
     1
102
RTVSPropertyOp18
 70
     1
102
RTVSPropertyOp19
 70
     1
102
RTVSPropertyOp20
 70
     1
102
RTVSPropertyOp21
 70
     1
102
RTVSPropertyOp22
 70
     1
102
RTVSPropertyOp23
 70
     1
102
RTVSPropertyOp24
 70
     1
102
RTVSPropertyOp25
 70
     1
102
RTVSPropertyOp26
 70
     1
102
RTVSPropertyOp27
 70
     1
  0
XRECORD
  5
1BF0
102
{ACAD_REACTORS
330
1BEF
102
}
330
1BEF
100
AcDbXrecord
280
     1
102
RTVSPropertyOp0
 70
     1
102
RTVSPropertyOp1
 70
     1
102
RTVSPropertyOp2
 70
     1
102
RTVSPropertyOp3
 70
     1
102
RTVSPropertyOp4
 70
     1
102
RTVSPropertyOp5
 70
     1
102
RTVSPropertyOp6
 70
     1
102
RTVSPropertyOp7
 70
     1
102
RTVSPropertyOp8
 70
     1
102
RTVSPropertyOp9
 70
     1
102
RTVSPropertyOp10
 70
     1
102
RTVSPropertyOp11
 70
     1
102
RTVSPropertyOp12
 70
     1
102
RTVSPropertyOp13
 70
     1
102
RTVSPropertyOp14
 70
     1
102
RTVSPropertyOp15
 70
     1
102
RTVSPropertyOp16
 70
     1
102
RTVSPropertyOp17
 70
     1
102
RTVSPropertyOp18
 70
     1
102
RTVSPropertyOp19
 70
     1
102
RTVSPropertyOp20
 70
     1
102
RTVSPropertyOp21
 70
     1
102
RTVSPropertyOp22
 70
     1
102
RTVSPropertyOp23
 70
     1
102
RTVSPropertyOp24
 70
     1
102
RTVSPropertyOp25
 70
     1
102
RTVSPropertyOp26
 70
     1
102
RTVSPropertyOp27
 70
     1
  0
XRECORD
  5
1BE2
102
{ACAD_REACTORS
330
1BE1
102
}
330
1BE1
100
AcDbXrecord
280
     1
102
RTVSPropertyOp0
 70
     1
102
RTVSPropertyOp1
 70
     1
102
RTVSPropertyOp2
 70
     1
102
RTVSPropertyOp3
 70
     1
102
RTVSPropertyOp4
 70
     1
102
RTVSPropertyOp5
 70
     1
102
RTVSPropertyOp6
 70
     1
102
RTVSPropertyOp7
 70
     1
102
RTVSPropertyOp8
 70
     1
102
RTVSPropertyOp9
 70
     1
102
RTVSPropertyOp10
 70
     1
102
RTVSPropertyOp11
 70
     1
102
RTVSPropertyOp12
 70
     1
102
RTVSPropertyOp13
 70
     1
102
RTVSPropertyOp14
 70
     1
102
RTVSPropertyOp15
 70
     1
102
RTVSPropertyOp16
 70
     1
102
RTVSPropertyOp17
 70
     1
102
RTVSPropertyOp18
 70
     1
102
RTVSPropertyOp19
 70
     1
102
RTVSPropertyOp20
 70
     1
102
RTVSPropertyOp21
 70
     1
102
RTVSPropertyOp22
 70
     1
102
RTVSPropertyOp23
 70
     1
102
RTVSPropertyOp24
 70
     1
102
RTVSPropertyOp25
 70
     1
102
RTVSPropertyOp26
 70
     1
102
RTVSPropertyOp27
 70
     1
  0
XRECORD
  5
1BE6
102
{ACAD_REACTORS
330
1BE5
102
}
330
1BE5
100
AcDbXrecord
280
     1
102
RTVSPropertyOp0
 70
     1
102
RTVSPropertyOp1
 70
     1
102
RTVSPropertyOp2
 70
     1
102
RTVSPropertyOp3
 70
     1
102
RTVSPropertyOp4
 70
     1
102
RTVSPropertyOp5
 70
     1
102
RTVSPropertyOp6
 70
     1
102
RTVSPropertyOp7
 70
     1
102
RTVSPropertyOp8
 70
     1
102
RTVSPropertyOp9
 70
     1
102
RTVSPropertyOp10
 70
     1
102
RTVSPropertyOp11
 70
     1
102
RTVSPropertyOp12
 70
     1
102
RTVSPropertyOp13
 70
     1
102
RTVSPropertyOp14
 70
     1
102
RTVSPropertyOp15
 70
     1
102
RTVSPropertyOp16
 70
     1
102
RTVSPropertyOp17
 70
     1
102
RTVSPropertyOp18
 70
     1
102
RTVSPropertyOp19
 70
     1
102
RTVSPropertyOp20
 70
     1
102
RTVSPropertyOp21
 70
     1
102
RTVSPropertyOp22
 70
     1
102
RTVSPropertyOp23
 70
     1
102
RTVSPropertyOp24
 70
     1
102
RTVSPropertyOp25
 70
     1
102
RTVSPropertyOp26
 70
     1
102
RTVSPropertyOp27
 70
     1
  0
XRECORD
  5
1BF6
102
{ACAD_REACTORS
330
1BF5
102
}
330
1BF5
100
AcDbXrecord
280
     1
102
RTVSPropertyOp0
 70
     0
102
RTVSPropertyOp1
 70
     0
102
RTVSPropertyOp2
 70
     0
102
RTVSPropertyOp3
 70
     0
102
RTVSPropertyOp4
 70
     0
102
RTVSPropertyOp5
 70
     0
102
RTVSPropertyOp6
 70
     0
102
RTVSPropertyOp7
 70
     0
102
RTVSPropertyOp8
 70
     0
102
RTVSPropertyOp9
 70
     0
102
RTVSPropertyOp10
 70
     0
102
RTVSPropertyOp11
 70
     0
102
RTVSPropertyOp12
 70
     0
102
RTVSPropertyOp13
 70
     0
102
RTVSPropertyOp14
 70
     2
102
RTVSPropertyOp15
 70
     0
102
RTVSPropertyOp16
 70
     0
102
RTVSPropertyOp17
 70
     0
102
RTVSPropertyOp18
 70
     0
102
RTVSPropertyOp19
 70
     0
102
RTVSPropertyOp20
 70
     0
102
RTVSPropertyOp21
 70
     0
102
RTVSPropertyOp22
 70
     0
102
RTVSPropertyOp23
 70
     0
102
RTVSPropertyOp24
 70
     0
102
RTVSPropertyOp25
 70
     0
102
RTVSPropertyOp26
 70
     0
102
RTVSPropertyOp27
 70
     0
  0
XRECORD
  5
1BEE
102
{ACAD_REACTORS
330
1BED
102
}
330
1BED
100
AcDbXrecord
280
     1
102
RTVSPropertyOp0
 70
     1
102
RTVSPropertyOp1
 70
     1
102
RTVSPropertyOp2
 70
     1
102
RTVSPropertyOp3
 70
     1
102
RTVSPropertyOp4
 70
     1
102
RTVSPropertyOp5
 70
     1
102
RTVSPropertyOp6
 70
     1
102
RTVSPropertyOp7
 70
     1
102
RTVSPropertyOp8
 70
     1
102
RTVSPropertyOp9
 70
     1
102
RTVSPropertyOp10
 70
     1
102
RTVSPropertyOp11
 70
     1
102
RTVSPropertyOp12
 70
     1
102
RTVSPropertyOp13
 70
     1
102
RTVSPropertyOp14
 70
     1
102
RTVSPropertyOp15
 70
     1
102
RTVSPropertyOp16
 70
     1
102
RTVSPropertyOp17
 70
     1
102
RTVSPropertyOp18
 70
     1
102
RTVSPropertyOp19
 70
     1
102
RTVSPropertyOp20
 70
     1
102
RTVSPropertyOp21
 70
     1
102
RTVSPropertyOp22
 70
     1
102
RTVSPropertyOp23
 70
     1
102
RTVSPropertyOp24
 70
     1
102
RTVSPropertyOp25
 70
     1
102
RTVSPropertyOp26
 70
     1
102
RTVSPropertyOp27
 70
     1
  0
XRECORD
  5
1BD2
102
{ACAD_REACTORS
330
1BD1
102
}
330
1BD1
100
AcDbXrecord
280
     1
102
RTVSPropertyOp0
 70
     1
102
RTVSPropertyOp1
 70
     1
102
RTVSPropertyOp2
 70
     1
102
RTVSPropertyOp3
 70
     1
102
RTVSPropertyOp4
 70
     1
102
RTVSPropertyOp5
 70
     1
102
RTVSPropertyOp6
 70
     1
102
RTVSPropertyOp7
 70
     1
102
RTVSPropertyOp8
 70
     1
102
RTVSPropertyOp9
 70
     1
102
RTVSPropertyOp10
 70
     1
102
RTVSPropertyOp11
 70
     1
102
RTVSPropertyOp12
 70
     1
102
RTVSPropertyOp13
 70
     1
102
RTVSPropertyOp14
 70
     1
102
RTVSPropertyOp15
 70
     1
102
RTVSPropertyOp16
 70
     1
102
RTVSPropertyOp17
 70
     1
102
RTVSPropertyOp18
 70
     1
102
RTVSPropertyOp19
 70
     1
102
RTVSPropertyOp20
 70
     1
102
RTVSPropertyOp21
 70
     1
102
RTVSPropertyOp22
 70
     1
102
RTVSPropertyOp23
 70
     1
102
RTVSPropertyOp24
 70
     1
102
RTVSPropertyOp25
 70
     1
102
RTVSPropertyOp26
 70
     1
102
RTVSPropertyOp27
 70
     1
  0
XRECORD
  5
1BD4
102
{ACAD_REACTORS
330
1BD3
102
}
330
1BD3
100
AcDbXrecord
280
     1
102
RTVSPropertyOp0
 70
     1
102
RTVSPropertyOp1
 70
     1
102
RTVSPropertyOp2
 70
     1
102
RTVSPropertyOp3
 70
     1
102
RTVSPropertyOp4
 70
     1
102
RTVSPropertyOp5
 70
     1
102
RTVSPropertyOp6
 70
     1
102
RTVSPropertyOp7
 70
     1
102
RTVSPropertyOp8
 70
     1
102
RTVSPropertyOp9
 70
     1
102
RTVSPropertyOp10
 70
     1
102
RTVSPropertyOp11
 70
     1
102
RTVSPropertyOp12
 70
     1
102
RTVSPropertyOp13
 70
     1
102
RTVSPropertyOp14
 70
     1
102
RTVSPropertyOp15
 70
     1
102
RTVSPropertyOp16
 70
     1
102
RTVSPropertyOp17
 70
     1
102
RTVSPropertyOp18
 70
     1
102
RTVSPropertyOp19
 70
     1
102
RTVSPropertyOp20
 70
     1
102
RTVSPropertyOp21
 70
     1
102
RTVSPropertyOp22
 70
     1
102
RTVSPropertyOp23
 70
     1
102
RTVSPropertyOp24
 70
     1
102
RTVSPropertyOp25
 70
     1
102
RTVSPropertyOp26
 70
     1
102
RTVSPropertyOp27
 70
     1
  0
XRECORD
  5
1BD6
102
{ACAD_REACTORS
330
1BD5
102
}
330
1BD5
100
AcDbXrecord
280
     1
102
RTVSPropertyOp0
 70
     1
102
RTVSPropertyOp1
 70
     1
102
RTVSPropertyOp2
 70
     1
102
RTVSPropertyOp3
 70
     1
102
RTVSPropertyOp4
 70
     1
102
RTVSPropertyOp5
 70
     1
102
RTVSPropertyOp6
 70
     1
102
RTVSPropertyOp7
 70
     1
102
RTVSPropertyOp8
 70
     1
102
RTVSPropertyOp9
 70
     1
102
RTVSPropertyOp10
 70
     1
102
RTVSPropertyOp11
 70
     1
102
RTVSPropertyOp12
 70
     1
102
RTVSPropertyOp13
 70
     1
102
RTVSPropertyOp14
 70
     1
102
RTVSPropertyOp15
 70
     1
102
RTVSPropertyOp16
 70
     1
102
RTVSPropertyOp17
 70
     1
102
RTVSPropertyOp18
 70
     1
102
RTVSPropertyOp19
 70
     1
102
RTVSPropertyOp20
 70
     1
102
RTVSPropertyOp21
 70
     1
102
RTVSPropertyOp22
 70
     1
102
RTVSPropertyOp23
 70
     1
102
RTVSPropertyOp24
 70
     1
102
RTVSPropertyOp25
 70
     1
102
RTVSPropertyOp26
 70
     1
102
RTVSPropertyOp27
 70
     1
  0
XRECORD
  5
1BD8
102
{ACAD_REACTORS
330
1BD7
102
}
330
1BD7
100
AcDbXrecord
280
     1
102
RTVSPropertyOp0
 70
     1
102
RTVSPropertyOp1
 70
     1
102
RTVSPropertyOp2
 70
     1
102
RTVSPropertyOp3
 70
     1
102
RTVSPropertyOp4
 70
     1
102
RTVSPropertyOp5
 70
     1
102
RTVSPropertyOp6
 70
     1
102
RTVSPropertyOp7
 70
     1
102
RTVSPropertyOp8
 70
     1
102
RTVSPropertyOp9
 70
     1
102
RTVSPropertyOp10
 70
     1
102
RTVSPropertyOp11
 70
     1
102
RTVSPropertyOp12
 70
     1
102
RTVSPropertyOp13
 70
     1
102
RTVSPropertyOp14
 70
     1
102
RTVSPropertyOp15
 70
     1
102
RTVSPropertyOp16
 70
     1
102
RTVSPropertyOp17
 70
     1
102
RTVSPropertyOp18
 70
     1
102
RTVSPropertyOp19
 70
     1
102
RTVSPropertyOp20
 70
     1
102
RTVSPropertyOp21
 70
     1
102
RTVSPropertyOp22
 70
     1
102
RTVSPropertyOp23
 70
     1
102
RTVSPropertyOp24
 70
     1
102
RTVSPropertyOp25
 70
     1
102
RTVSPropertyOp26
 70
     1
102
RTVSPropertyOp27
 70
     1
  0
XRECORD
  5
1BF2
102
{ACAD_REACTORS
330
1BF1
102
}
330
1BF1
100
AcDbXrecord
280
     1
102
RTVSPropertyOp0
 70
     0
102
RTVSPropertyOp1
 70
     0
102
RTVSPropertyOp2
 70
     0
102
RTVSPropertyOp3
 70
     0
102
RTVSPropertyOp4
 70
     0
102
RTVSPropertyOp5
 70
     0
102
RTVSPropertyOp6
 70
     0
102
RTVSPropertyOp7
 70
     0
102
RTVSPropertyOp8
 70
     0
102
RTVSPropertyOp9
 70
     0
102
RTVSPropertyOp10
 70
     0
102
RTVSPropertyOp11
 70
     0
102
RTVSPropertyOp12
 70
     0
102
RTVSPropertyOp13
 70
     0
102
RTVSPropertyOp14
 70
     2
102
RTVSPropertyOp15
 70
     0
102
RTVSPropertyOp16
 70
     0
102
RTVSPropertyOp17
 70
     0
102
RTVSPropertyOp18
 70
     0
102
RTVSPropertyOp19
 70
     0
102
RTVSPropertyOp20
 70
     0
102
RTVSPropertyOp21
 70
     0
102
RTVSPropertyOp22
 70
     0
102
RTVSPropertyOp23
 70
     0
102
RTVSPropertyOp24
 70
     0
102
RTVSPropertyOp25
 70
     0
102
RTVSPropertyOp26
 70
     0
102
RTVSPropertyOp27
 70
     0
  0
XRECORD
  5
1BEC
102
{ACAD_REACTORS
330
1BEB
102
}
330
1BEB
100
AcDbXrecord
280
     1
102
RTVSPropertyOp0
 70
     1
102
RTVSPropertyOp1
 70
     1
102
RTVSPropertyOp2
 70
     1
102
RTVSPropertyOp3
 70
     1
102
RTVSPropertyOp4
 70
     1
102
RTVSPropertyOp5
 70
     1
102
RTVSPropertyOp6
 70
     1
102
RTVSPropertyOp7
 70
     1
102
RTVSPropertyOp8
 70
     1
102
RTVSPropertyOp9
 70
     1
102
RTVSPropertyOp10
 70
     1
102
RTVSPropertyOp11
 70
     1
102
RTVSPropertyOp12
 70
     1
102
RTVSPropertyOp13
 70
     1
102
RTVSPropertyOp14
 70
     1
102
RTVSPropertyOp15
 70
     1
102
RTVSPropertyOp16
 70
     1
102
RTVSPropertyOp17
 70
     1
102
RTVSPropertyOp18
 70
     1
102
RTVSPropertyOp19
 70
     1
102
RTVSPropertyOp20
 70
     1
102
RTVSPropertyOp21
 70
     1
102
RTVSPropertyOp22
 70
     1
102
RTVSPropertyOp23
 70
     1
102
RTVSPropertyOp24
 70
     1
102
RTVSPropertyOp25
 70
     1
102
RTVSPropertyOp26
 70
     1
102
RTVSPropertyOp27
 70
     1
  0
XRECORD
  5
1BF4
102
{ACAD_REACTORS
330
1BF3
102
}
330
1BF3
100
AcDbXrecord
280
     1
102
RTVSPropertyOp0
 70
     0
102
RTVSPropertyOp1
 70
     0
102
RTVSPropertyOp2
 70
     0
102
RTVSPropertyOp3
 70
     0
102
RTVSPropertyOp4
 70
     0
102
RTVSPropertyOp5
 70
     0
102
RTVSPropertyOp6
 70
     0
102
RTVSPropertyOp7
 70
     0
102
RTVSPropertyOp8
 70
     0
102
RTVSPropertyOp9
 70
     0
102
RTVSPropertyOp10
 70
     0
102
RTVSPropertyOp11
 70
     0
102
RTVSPropertyOp12
 70
     0
102
RTVSPropertyOp13
 70
     0
102
RTVSPropertyOp14
 70
     2
102
RTVSPropertyOp15
 70
     0
102
RTVSPropertyOp16
 70
     0
102
RTVSPropertyOp17
 70
     0
102
RTVSPropertyOp18
 70
     0
102
RTVSPropertyOp19
 70
     0
102
RTVSPropertyOp20
 70
     0
102
RTVSPropertyOp21
 70
     0
102
RTVSPropertyOp22
 70
     0
102
RTVSPropertyOp23
 70
     0
102
RTVSPropertyOp24
 70
     0
102
RTVSPropertyOp25
 70
     0
102
RTVSPropertyOp26
 70
     0
102
RTVSPropertyOp27
 70
     0
  0
XRECORD
  5
1BE4
102
{ACAD_REACTORS
330
1BE3
102
}
330
1BE3
100
AcDbXrecord
280
     1
102
RTVSPropertyOp0
 70
     1
102
RTVSPropertyOp1
 70
     1
102
RTVSPropertyOp2
 70
     1
102
RTVSPropertyOp3
 70
     1
102
RTVSPropertyOp4
 70
     1
102
RTVSPropertyOp5
 70
     1
102
RTVSPropertyOp6
 70
     1
102
RTVSPropertyOp7
 70
     1
102
RTVSPropertyOp8
 70
     1
102
RTVSPropertyOp9
 70
     1
102
RTVSPropertyOp10
 70
     1
102
RTVSPropertyOp11
 70
     1
102
RTVSPropertyOp12
 70
     1
102
RTVSPropertyOp13
 70
     1
102
RTVSPropertyOp14
 70
     1
102
RTVSPropertyOp15
 70
     1
102
RTVSPropertyOp16
 70
     1
102
RTVSPropertyOp17
 70
     1
102
RTVSPropertyOp18
 70
     1
102
RTVSPropertyOp19
 70
     1
102
RTVSPropertyOp20
 70
     1
102
RTVSPropertyOp21
 70
     1
102
RTVSPropertyOp22
 70
     1
102
RTVSPropertyOp23
 70
     1
102
RTVSPropertyOp24
 70
     1
102
RTVSPropertyOp25
 70
     1
102
RTVSPropertyOp26
 70
     1
102
RTVSPropertyOp27
 70
     1
  0
XRECORD
  5
1BEA
102
{ACAD_REACTORS
330
1BE9
102
}
330
1BE9
100
AcDbXrecord
280
     1
102
RTVSPropertyOp0
 70
     1
102
RTVSPropertyOp1
 70
     1
102
RTVSPropertyOp2
 70
     1
102
RTVSPropertyOp3
 70
     1
102
RTVSPropertyOp4
 70
     1
102
RTVSPropertyOp5
 70
     1
102
RTVSPropertyOp6
 70
     1
102
RTVSPropertyOp7
 70
     1
102
RTVSPropertyOp8
 70
     1
102
RTVSPropertyOp9
 70
     1
102
RTVSPropertyOp10
 70
     1
102
RTVSPropertyOp11
 70
     1
102
RTVSPropertyOp12
 70
     1
102
RTVSPropertyOp13
 70
     1
102
RTVSPropertyOp14
 70
     1
102
RTVSPropertyOp15
 70
     1
102
RTVSPropertyOp16
 70
     1
102
RTVSPropertyOp17
 70
     1
102
RTVSPropertyOp18
 70
     1
102
RTVSPropertyOp19
 70
     1
102
RTVSPropertyOp20
 70
     1
102
RTVSPropertyOp21
 70
     1
102
RTVSPropertyOp22
 70
     1
102
RTVSPropertyOp23
 70
     1
102
RTVSPropertyOp24
 70
     1
102
RTVSPropertyOp25
 70
     1
102
RTVSPropertyOp26
 70
     1
102
RTVSPropertyOp27
 70
     1
  0
ENDSEC
  0
EOF
