  0
SECTION
  2
HEADER
  9
$ACADVER
  1
AC1015
  9
$ACADMAINTVER
 70
    20
  9
$DWGCODEPAGE
  3
ANSI_1252
  9
$INSBASE
 10
0.0
 20
0.0
 30
0.0
  9
$EXTMIN
 10
2021.405806415758
 20
1788.049080604441
 30
0.0
  9
$EXTMAX
 10
2027.804947668387
 20
1788.949320736982
 30
0.0
  9
$LIMMIN
 10
0.0
 20
0.0
  9
$LIMMAX
 10
420.0
 20
297.0
  9
$ORTHOMODE
 70
     1
  9
$REGENMODE
 70
     1
  9
$FILLMODE
 70
     1
  9
$QTEXTMODE
 70
     0
  9
$MIRRTEXT
 70
     0
  9
$LTSCALE
 40
1.0
  9
$ATTMODE
 70
     1
  9
$TEXTSIZE
 40
2.5
  9
$TRACEWID
 40
1.0
  9
$TEXTSTYLE
  7
Standard
  9
$CLAYER
  8
0
  9
$CELTYPE
  6
ByLayer
  9
$CECOLOR
 62
   256
  9
$CELTSCALE
 40
1.0
  9
$DISPSILH
 70
     0
  9
$DIMSCALE
 40
1.0
  9
$DIMASZ
 40
2.5
  9
$DIMEXO
 40
0.625
  9
$DIMDLI
 40
3.75
  9
$DIMRND
 40
0.0
  9
$DIMDLE
 40
0.0
  9
$DIMEXE
 40
1.25
  9
$DIMTP
 40
0.0
  9
$DIMTM
 40
0.0
  9
$DIMTXT
 40
2.5
  9
$DIMCEN
 40
2.5
  9
$DIMTSZ
 40
0.0
  9
$DIMTOL
 70
     0
  9
$DIMLIM
 70
     0
  9
$DIMTIH
 70
     0
  9
$DIMTOH
 70
     0
  9
$DIMSE1
 70
     0
  9
$DIMSE2
 70
     0
  9
$DIMTAD
 70
     1
  9
$DIMZIN
 70
     8
  9
$DIMBLK
  1

  9
$DIMASO
 70
     1
  9
$DIMSHO
 70
     1
  9
$DIMPOST
  1

  9
$DIMAPOST
  1

  9
$DIMALT
 70
     0
  9
$DIMALTD
 70
     3
  9
$DIMALTF
 40
0.03937007874016
  9
$DIMLFAC
 40
1.0
  9
$DIMTOFL
 70
     1
  9
$DIMTVP
 40
0.0
  9
$DIMTIX
 70
     0
  9
$DIMSOXD
 70
     0
  9
$DIMSAH
 70
     0
  9
$DIMBLK1
  1

  9
$DIMBLK2
  1

  9
$DIMSTYLE
  2
ISO-25
  9
$DIMCLRD
 70
     0
  9
$DIMCLRE
 70
     0
  9
$DIMCLRT
 70
     0
  9
$DIMTFAC
 40
1.0
  9
$DIMGAP
 40
0.625
  9
$DIMJUST
 70
     0
  9
$DIMSD1
 70
     0
  9
$DIMSD2
 70
     0
  9
$DIMTOLJ
 70
     0
  9
$DIMTZIN
 70
     8
  9
$DIMALTZ
 70
     0
  9
$DIMALTTZ
 70
     0
  9
$DIMUPT
 70
     0
  9
$DIMDEC
 70
     2
  9
$DIMTDEC
 70
     2
  9
$DIMALTU
 70
     2
  9
$DIMALTTD
 70
     3
  9
$DIMTXSTY
  7
Standard
  9
$DIMAUNIT
 70
     0
  9
$DIMADEC
 70
     0
  9
$DIMALTRND
 40
0.0
  9
$DIMAZIN
 70
     0
  9
$DIMDSEP
 70
    44
  9
$DIMATFIT
 70
     3
  9
$DIMFRAC
 70
     0
  9
$DIMLDRBLK
  1

  9
$DIMLUNIT
 70
     2
  9
$DIMLWD
 70
    -2
  9
$DIMLWE
 70
    -2
  9
$DIMTMOVE
 70
     0
  9
$LUNITS
 70
     2
  9
$LUPREC
 70
     4
  9
$SKETCHINC
 40
1.0
  9
$FILLETRAD
 40
0.0
  9
$AUNITS
 70
     0
  9
$AUPREC
 70
     0
  9
$MENU
  1
.
  9
$ELEVATION
 40
0.0
  9
$PELEVATION
 40
0.0
  9
$THICKNESS
 40
0.0
  9
$LIMCHECK
 70
     0
  9
$CHAMFERA
 40
0.0
  9
$CHAMFERB
 40
0.0
  9
$CHAMFERC
 40
0.0
  9
$CHAMFERD
 40
0.0
  9
$SKPOLY
 70
     0
  9
$TDCREATE
 40
2454930.736845695
  9
$TDUCREATE
 40
2454930.695179028
  9
$TDUPDATE
 40
2454930.740345405
  9
$TDUUPDATE
 40
2454930.698678738
  9
$TDINDWG
 40
0.0035002546
  9
$TDUSRTIMER
 40
0.0035002546
  9
$USRTIMER
 70
     1
  9
$ANGBASE
 50
0.0
  9
$ANGDIR
 70
     0
  9
$PDMODE
 70
     0
  9
$PDSIZE
 40
0.0
  9
$PLINEWID
 40
0.0
  9
$SPLFRAME
 70
     0
  9
$SPLINETYPE
 70
     6
  9
$SPLINESEGS
 70
     8
  9
$HANDSEED
  5
9979
  9
$SURFTAB1
 70
     6
  9
$SURFTAB2
 70
     6
  9
$SURFTYPE
 70
     6
  9
$SURFU
 70
     6
  9
$SURFV
 70
     6
  9
$UCSBASE
  2

  9
$UCSNAME
  2

  9
$UCSORG
 10
0.0
 20
0.0
 30
0.0
  9
$UCSXDIR
 10
1.0
 20
0.0
 30
0.0
  9
$UCSYDIR
 10
0.0
 20
1.0
 30
0.0
  9
$UCSORTHOREF
  2

  9
$UCSORTHOVIEW
 70
     0
  9
$UCSORGTOP
 10
0.0
 20
0.0
 30
0.0
  9
$UCSORGBOTTOM
 10
0.0
 20
0.0
 30
0.0
  9
$UCSORGLEFT
 10
0.0
 20
0.0
 30
0.0
  9
$UCSORGRIGHT
 10
0.0
 20
0.0
 30
0.0
  9
$UCSORGFRONT
 10
0.0
 20
0.0
 30
0.0
  9
$UCSORGBACK
 10
0.0
 20
0.0
 30
0.0
  9
$PUCSBASE
  2

  9
$PUCSNAME
  2

  9
$PUCSORG
 10
0.0
 20
0.0
 30
0.0
  9
$PUCSXDIR
 10
1.0
 20
0.0
 30
0.0
  9
$PUCSYDIR
 10
0.0
 20
1.0
 30
0.0
  9
$PUCSORTHOREF
  2

  9
$PUCSORTHOVIEW
 70
     0
  9
$PUCSORGTOP
 10
0.0
 20
0.0
 30
0.0
  9
$PUCSORGBOTTOM
 10
0.0
 20
0.0
 30
0.0
  9
$PUCSORGLEFT
 10
0.0
 20
0.0
 30
0.0
  9
$PUCSORGRIGHT
 10
0.0
 20
0.0
 30
0.0
  9
$PUCSORGFRONT
 10
0.0
 20
0.0
 30
0.0
  9
$PUCSORGBACK
 10
0.0
 20
0.0
 30
0.0
  9
$USERI1
 70
     0
  9
$USERI2
 70
     0
  9
$USERI3
 70
     0
  9
$USERI4
 70
     0
  9
$USERI5
 70
     0
  9
$USERR1
 40
0.0
  9
$USERR2
 40
0.0
  9
$USERR3
 40
0.0
  9
$USERR4
 40
0.0
  9
$USERR5
 40
0.0
  9
$WORLDVIEW
 70
     1
  9
$SHADEDGE
 70
     3
  9
$SHADEDIF
 70
    70
  9
$TILEMODE
 70
     1
  9
$MAXACTVP
 70
    64
  9
$PINSBASE
 10
0.0
 20
0.0
 30
0.0
  9
$PLIMCHECK
 70
     0
  9
$PEXTMIN
 10
1.000000000000000E+20
 20
1.000000000000000E+20
 30
1.000000000000000E+20
  9
$PEXTMAX
 10
-1.000000000000000E+20
 20
-1.000000000000000E+20
 30
-1.000000000000000E+20
  9
$PLIMMIN
 10
0.0
 20
0.0
  9
$PLIMMAX
 10
420.0
 20
297.0
  9
$UNITMODE
 70
     0
  9
$VISRETAIN
 70
     1
  9
$PLINEGEN
 70
     0
  9
$PSLTSCALE
 70
     1
  9
$TREEDEPTH
 70
  3020
  9
$CMLSTYLE
  2
Standard
  9
$CMLJUST
 70
     0
  9
$CMLSCALE
 40
20.0
  9
$PROXYGRAPHICS
 70
     1
  9
$MEASUREMENT
 70
     1
  9
$CELWEIGHT
370
    -1
  9
$ENDCAPS
280
     0
  9
$JOINSTYLE
280
     0
  9
$LWDISPLAY
290
     0
  9
$INSUNITS
 70
     4
  9
$HYPERLINKBASE
  1

  9
$STYLESHEET
  1

  9
$XEDIT
290
     1
  9
$CEPSNTYPE
380
     0
  9
$PSTYLEMODE
290
     1
  9
$FINGERPRINTGUID
  2
{6E7A6DEC-41DF-42A9-9ED6-68CCCF44446A}
  9
$VERSIONGUID
  2
{471EFBFE-A334-42E0-BB73-306022CBD1D8}
  9
$EXTNAMES
290
     1
  9
$PSVPSCALE
 40
0.0
  9
$OLESTARTUP
290
     0
  0
ENDSEC
  0
SECTION
  2
CLASSES
  0
CLASS
  1
ACDBDICTIONARYWDFLT
  2
AcDbDictionaryWithDefault
  3
ObjectDBX Classes
 90
        0
280
     0
281
     0
  0
CLASS
  1
TABLESTYLE
  2
AcDbTableStyle
  3
ObjectDBX Classes
 90
     2047
280
     0
281
     0
  0
CLASS
  1
DIMASSOC
  2
AcDbDimAssoc
  3
"AcDbDimAssoc|Product Desc:     AcDim ARX App For Dimension|Company:          Autodesk, Inc.|WEB Address:      www.autodesk.com"
 90
        0
280
     0
281
     0
  0
CLASS
  1
SORTENTSTABLE
  2
AcDbSortentsTable
  3
ObjectDBX Classes
 90
        0
280
     0
281
     0
  0
CLASS
  1
DICTIONARYVAR
  2
AcDbDictionaryVar
  3
ObjectDBX Classes
 90
        0
280
     0
281
     0
  0
CLASS
  1
ACDBPLACEHOLDER
  2
AcDbPlaceHolder
  3
ObjectDBX Classes
 90
        0
280
     0
281
     0
  0
CLASS
  1
LAYOUT
  2
AcDbLayout
  3
ObjectDBX Classes
 90
        0
280
     0
281
     0
  0
ENDSEC
  0
SECTION
  2
TABLES
  0
TABLE
  2
VPORT
  5
8
330
0
100
AcDbSymbolTable
 70
    10
  0
VPORT
  5
9971
330
8
100
AcDbSymbolTableRecord
100
AcDbViewportTableRecord
  2
*Active
 70
     0
 10
0.0
 20
0.0
 11
1.0
 21
1.0
 12
2024.605377042073
 22
1788.499200670711
 13
0.0
 23
0.0
 14
10.0
 24
10.0
 15
10.0
 25
10.0
 16
0.0
 26
0.0
 36
1.0
 17
0.0
 27
0.0
 37
0.0
 40
4.009566662045729
 41
1.602030456852791
 42
50.0
 43
0.0
 44
0.0
 50
0.0
 51
0.0
 71
     0
 72
  1000
 73
     1
 74
     3
 75
     0
 76
     0
 77
     0
 78
     0
281
     0
 65
     1
110
0.0
120
0.0
130
0.0
111
1.0
121
0.0
131
0.0
112
0.0
122
1.0
132
0.0
 79
     0
146
0.0
  0
ENDTAB
  0
TABLE
  2
LTYPE
  5
5
330
0
100
AcDbSymbolTable
 70
     3
  0
LTYPE
  5
14
330
5
100
AcDbSymbolTableRecord
100
AcDbLinetypeTableRecord
  2
ByBlock
 70
     0
  3

 72
    65
 73
     0
 40
0.0
  0
LTYPE
  5
15
330
5
100
AcDbSymbolTableRecord
100
AcDbLinetypeTableRecord
  2
ByLayer
 70
     0
  3

 72
    65
 73
     0
 40
0.0
  0
LTYPE
  5
16
330
5
100
AcDbSymbolTableRecord
100
AcDbLinetypeTableRecord
  2
Continuous
 70
     0
  3
Solid line
 72
    65
 73
     0
 40
0.0
  0
LTYPE
  5
2E8
330
5
100
AcDbSymbolTableRecord
100
AcDbLinetypeTableRecord
  2
DASHDOT
 70
     0
  3
Dash dot __ . __ . __ . __ . __ . __ . __ . __
 72
    65
 73
     4
 40
25.4
 49
12.7
 74
     0
 49
-6.349999999999999
 74
     0
 49
0.0
 74
     0
 49
-6.349999999999999
 74
     0
  0
LTYPE
  5
2E9
330
5
100
AcDbSymbolTableRecord
100
AcDbLinetypeTableRecord
  2
HIDDEN
 70
     0
  3
Hidden __ __ __ __ __ __ __ __ __ __ __ __ __ _
 72
    65
 73
     2
 40
9.524999999999998
 49
6.349999999999999
 74
     0
 49
-3.174999999999999
 74
     0
  0
ENDTAB
  0
TABLE
  2
LAYER
  5
2
102
{ACAD_XDICTIONARY
360
2F9
102
}
330
0
100
AcDbSymbolTable
 70
     9
  0
LAYER
  5
10
330
2
100
AcDbSymbolTableRecord
100
AcDbLayerTableRecord
  2
0
 70
     0
 62
     7
  6
Continuous
370
    -3
390
F
  0
LAYER
  5
2EA
330
2
100
AcDbSymbolTableRecord
100
AcDbLayerTableRecord
  2
1
 70
     0
 62
     1
  6
Continuous
370
    -3
390
F
  0
LAYER
  5
2EB
330
2
100
AcDbSymbolTableRecord
100
AcDbLayerTableRecord
  2
4
 70
     0
 62
     4
  6
Continuous
370
    -3
390
F
  0
LAYER
  5
2EC
330
2
100
AcDbSymbolTableRecord
100
AcDbLayerTableRecord
  2
cen
 70
     0
 62
     7
  6
DASHDOT
370
    -3
390
F
  0
LAYER
  5
2ED
330
2
100
AcDbSymbolTableRecord
100
AcDbLayerTableRecord
  2
9
 70
     0
 62
     9
  6
Continuous
370
    -3
390
F
  0
LAYER
  5
2EE
330
2
100
AcDbSymbolTableRecord
100
AcDbLayerTableRecord
  2
cotas
 70
     0
 62
     1
  6
Continuous
370
    -3
390
F
  0
LAYER
  5
2EF
330
2
100
AcDbSymbolTableRecord
100
AcDbLayerTableRecord
  2
Defpoints
 70
     0
 62
     7
  6
Continuous
290
     0
370
    -3
390
F
  0
LAYER
  5
2F0
330
2
100
AcDbSymbolTableRecord
100
AcDbLayerTableRecord
  2
SANINDUSA
 70
     0
 62
     3
  6
Continuous
370
    -3
390
F
  0
LAYER
  5
2F1
330
2
100
AcDbSymbolTableRecord
100
AcDbLayerTableRecord
  2
hid1
 70
     0
 62
     9
  6
HIDDEN
370
    -3
390
F
1001
AcAecLayerStandard
1000

1000

  0
ENDTAB
  0
TABLE
  2
STYLE
  5
3
330
0
100
AcDbSymbolTable
 70
     2
  0
STYLE
  5
11
330
3
100
AcDbSymbolTableRecord
100
AcDbTextStyleTableRecord
  2
Standard
 70
     0
 40
0.0
 41
1.0
 50
0.0
 71
     0
 42
2.5
  3
txt
  4

  0
STYLE
  5
2F2
330
3
100
AcDbSymbolTableRecord
100
AcDbTextStyleTableRecord
  2
SANINDUSA
 70
     0
 40
0.0
 41
1.0
 50
0.0
 71
     0
 42
2.5
  3
verdana.TTF
  4

1001
ACAD
1000
Verdana
1071
       34
  0
ENDTAB
  0
TABLE
  2
VIEW
  5
6
330
0
100
AcDbSymbolTable
 70
     0
  0
ENDTAB
  0
TABLE
  2
UCS
  5
7
330
0
100
AcDbSymbolTable
 70
     0
  0
ENDTAB
  0
TABLE
  2
APPID
  5
9
330
0
100
AcDbSymbolTable
 70
     6
  0
APPID
  5
12
330
9
100
AcDbSymbolTableRecord
100
AcDbRegAppTableRecord
  2
ACAD
 70
     0
  0
APPID
  5
2F4
330
9
100
AcDbSymbolTableRecord
100
AcDbRegAppTableRecord
  2
ACAD_DSTYLE_DIMEXT_LENGTH
 70
     0
  0
APPID
  5
2F5
330
9
100
AcDbSymbolTableRecord
100
AcDbRegAppTableRecord
  2
ACAD_DSTYLE_DIMEXT_ENABLED
 70
     0
  0
APPID
  5
2F6
330
9
100
AcDbSymbolTableRecord
100
AcDbRegAppTableRecord
  2
ACAD_DSTYLE_DIMJOGGED_JOGANGLE_SYMBOL
 70
     0
  0
APPID
  5
2F7
330
9
100
AcDbSymbolTableRecord
100
AcDbRegAppTableRecord
  2
ACAD_DSTYLE_DIMARC_LENGTH_SYMBOL
 70
     0
  0
APPID
  5
2F8
330
9
100
AcDbSymbolTableRecord
100
AcDbRegAppTableRecord
  2
AcAecLayerStandard
 70
     0
  0
ENDTAB
  0
TABLE
  2
DIMSTYLE
  5
A
330
0
100
AcDbSymbolTable
 70
     2
100
AcDbDimStyleTable
 71
     0
  0
DIMSTYLE
105
2B
330
A
100
AcDbSymbolTableRecord
100
AcDbDimStyleTableRecord
  2
ISO-25
 70
     0
 41
2.5
 42
0.625
 43
3.75
 44
1.25
 73
     0
 74
     0
 77
     1
 78
     8
140
2.5
141
2.5
143
0.03937007874016
147
0.625
171
     3
172
     1
271
     2
272
     2
274
     3
278
    44
283
     0
284
     8
340
11
  0
DIMSTYLE
105
2F3
102
{ACAD_REACTORS
330
6AD
330
6B0
330
6B1
330
6B2
330
6B3
330
6C3
330
6C6
330
6C9
330
6CC
330
6CD
330
6D0
330
6D3
330
6D4
330
6D5
330
6D6
330
6D7
330
6D8
330
6D9
330
6DB
330
6DD
330
6E0
330
6E3
330
6E4
330
6E9
330
6EC
330
6ED
330
6EE
330
6EF
330
6F0
330
6F1
330
6FF
330
708
330
70B
330
70E
330
711
330
712
330
713
330
716
330
717
330
718
330
719
330
71A
330
71B
330
71C
330
71D
330
71E
330
71F
330
722
330
723
330
724
330
725
330
726
330
727
330
728
330
729
330
72A
330
72D
330
754
330
757
330
75A
330
76D
330
772
330
777
102
}
330
A
100
AcDbSymbolTableRecord
100
AcDbDimStyleTableRecord
  2
SANINDUSA
 70
     0
 40
5.0
 41
2.0
 42
1.0
 43
1.0
 44
1.0
 73
     0
 74
     0
 77
     1
 78
     8
140
2.0
141
0.0
143
0.03937007874016
147
1.0
171
     3
172
     1
176
   256
177
   256
178
   256
179
     1
271
     1
272
     1
274
     3
278
    44
283
     0
284
     8
340
2F2
371
    -1
372
    -1
1001
ACAD_DSTYLE_DIMEXT_LENGTH
1070
   378
1040
1.0
1001
ACAD_DSTYLE_DIMEXT_ENABLED
1070
   383
1070
     0
1001
ACAD_DSTYLE_DIMARC_LENGTH_SYMBOL
1070
   379
1070
     0
1001
ACAD_DSTYLE_DIMJOGGED_JOGANGLE_SYMBOL
1070
   384
1040
1.570796326794896
  0
ENDTAB
  0
TABLE
  2
BLOCK_RECORD
  5
1
330
0
100
AcDbSymbolTable
 70
   128
  0
BLOCK_RECORD
  5
23
330
1
100
AcDbSymbolTableRecord
100
AcDbBlockTableRecord
  2
*Model_Space
340
26
  0
BLOCK_RECORD
  5
1F
330
1
100
AcDbSymbolTableRecord
100
AcDbBlockTableRecord
  2
*Paper_Space
340
22
  0
BLOCK_RECORD
  5
27
330
1
100
AcDbSymbolTableRecord
100
AcDbBlockTableRecord
  2
*Paper_Space0
340
2A
  0
BLOCK_RECORD
  5
2F
330
1
100
AcDbSymbolTableRecord
100
AcDbBlockTableRecord
  2
*D1
340
0
  0
BLOCK_RECORD
  5
37
330
1
100
AcDbSymbolTableRecord
100
AcDbBlockTableRecord
  2
*D2
340
0
  0
BLOCK_RECORD
  5
3F
330
1
100
AcDbSymbolTableRecord
100
AcDbBlockTableRecord
  2
*D3
340
0
  0
BLOCK_RECORD
  5
4C
330
1
100
AcDbSymbolTableRecord
100
AcDbBlockTableRecord
  2
*D4
340
0
  0
BLOCK_RECORD
  5
59
330
1
100
AcDbSymbolTableRecord
100
AcDbBlockTableRecord
  2
*D5
340
0
  0
BLOCK_RECORD
  5
65
330
1
100
AcDbSymbolTableRecord
100
AcDbBlockTableRecord
  2
*D6
340
0
  0
BLOCK_RECORD
  5
71
330
1
100
AcDbSymbolTableRecord
100
AcDbBlockTableRecord
  2
*D7
340
0
  0
BLOCK_RECORD
  5
7D
330
1
100
AcDbSymbolTableRecord
100
AcDbBlockTableRecord
  2
*D8
340
0
  0
BLOCK_RECORD
  5
86
330
1
100
AcDbSymbolTableRecord
100
AcDbBlockTableRecord
  2
*D9
340
0
  0
BLOCK_RECORD
  5
8F
330
1
100
AcDbSymbolTableRecord
100
AcDbBlockTableRecord
  2
*D10
340
0
  0
BLOCK_RECORD
  5
97
330
1
100
AcDbSymbolTableRecord
100
AcDbBlockTableRecord
  2
*D11
340
0
  0
BLOCK_RECORD
  5
A0
330
1
100
AcDbSymbolTableRecord
100
AcDbBlockTableRecord
  2
*D12
340
0
  0
BLOCK_RECORD
  5
A8
330
1
100
AcDbSymbolTableRecord
100
AcDbBlockTableRecord
  2
*D13
340
0
  0
BLOCK_RECORD
  5
B4
330
1
100
AcDbSymbolTableRecord
100
AcDbBlockTableRecord
  2
*D14
340
0
  0
BLOCK_RECORD
  5
C0
330
1
100
AcDbSymbolTableRecord
100
AcDbBlockTableRecord
  2
*D15
340
0
  0
BLOCK_RECORD
  5
CC
330
1
100
AcDbSymbolTableRecord
100
AcDbBlockTableRecord
  2
*D16
340
0
  0
BLOCK_RECORD
  5
D8
330
1
100
AcDbSymbolTableRecord
100
AcDbBlockTableRecord
  2
*D17
340
0
  0
BLOCK_RECORD
  5
E0
330
1
100
AcDbSymbolTableRecord
100
AcDbBlockTableRecord
  2
*D18
340
0
  0
BLOCK_RECORD
  5
E8
330
1
100
AcDbSymbolTableRecord
100
AcDbBlockTableRecord
  2
*D19
340
0
  0
BLOCK_RECORD
  5
F5
330
1
100
AcDbSymbolTableRecord
100
AcDbBlockTableRecord
  2
*D20
340
0
  0
BLOCK_RECORD
  5
102
330
1
100
AcDbSymbolTableRecord
100
AcDbBlockTableRecord
  2
*D21
340
0
  0
BLOCK_RECORD
  5
10E
330
1
100
AcDbSymbolTableRecord
100
AcDbBlockTableRecord
  2
*D22
340
0
  0
BLOCK_RECORD
  5
11A
330
1
100
AcDbSymbolTableRecord
100
AcDbBlockTableRecord
  2
*D23
340
0
  0
BLOCK_RECORD
  5
126
330
1
100
AcDbSymbolTableRecord
100
AcDbBlockTableRecord
  2
*D24
340
0
  0
BLOCK_RECORD
  5
132
330
1
100
AcDbSymbolTableRecord
100
AcDbBlockTableRecord
  2
*D25
340
0
  0
BLOCK_RECORD
  5
13E
330
1
100
AcDbSymbolTableRecord
100
AcDbBlockTableRecord
  2
*D26
340
0
  0
BLOCK_RECORD
  5
14A
330
1
100
AcDbSymbolTableRecord
100
AcDbBlockTableRecord
  2
*D27
340
0
  0
BLOCK_RECORD
  5
156
330
1
100
AcDbSymbolTableRecord
100
AcDbBlockTableRecord
  2
*D28
340
0
  0
BLOCK_RECORD
  5
162
330
1
100
AcDbSymbolTableRecord
100
AcDbBlockTableRecord
  2
*D29
340
0
  0
BLOCK_RECORD
  5
16E
330
1
100
AcDbSymbolTableRecord
100
AcDbBlockTableRecord
  2
*D30
340
0
  0
BLOCK_RECORD
  5
17A
330
1
100
AcDbSymbolTableRecord
100
AcDbBlockTableRecord
  2
*D31
340
0
  0
BLOCK_RECORD
  5
186
330
1
100
AcDbSymbolTableRecord
100
AcDbBlockTableRecord
  2
*D32
340
0
  0
BLOCK_RECORD
  5
192
330
1
100
AcDbSymbolTableRecord
100
AcDbBlockTableRecord
  2
*D33
340
0
  0
BLOCK_RECORD
  5
19E
330
1
100
AcDbSymbolTableRecord
100
AcDbBlockTableRecord
  2
*D34
340
0
  0
BLOCK_RECORD
  5
1A7
330
1
100
AcDbSymbolTableRecord
100
AcDbBlockTableRecord
  2
*D35
340
0
  0
BLOCK_RECORD
  5
1AF
330
1
100
AcDbSymbolTableRecord
100
AcDbBlockTableRecord
  2
*D36
340
0
  0
BLOCK_RECORD
  5
1B7
330
1
100
AcDbSymbolTableRecord
100
AcDbBlockTableRecord
  2
*D37
340
0
  0
BLOCK_RECORD
  5
1C0
330
1
100
AcDbSymbolTableRecord
100
AcDbBlockTableRecord
  2
*D38
340
0
  0
BLOCK_RECORD
  5
1C8
330
1
100
AcDbSymbolTableRecord
100
AcDbBlockTableRecord
  2
*D39
340
0
  0
BLOCK_RECORD
  5
1D1
330
1
100
AcDbSymbolTableRecord
100
AcDbBlockTableRecord
  2
*D40
340
0
  0
BLOCK_RECORD
  5
1DA
330
1
100
AcDbSymbolTableRecord
100
AcDbBlockTableRecord
  2
*D41
340
0
  0
BLOCK_RECORD
  5
1E5
330
1
100
AcDbSymbolTableRecord
100
AcDbBlockTableRecord
  2
*D42
340
0
  0
BLOCK_RECORD
  5
1F1
330
1
100
AcDbSymbolTableRecord
100
AcDbBlockTableRecord
  2
*D43
340
0
  0
BLOCK_RECORD
  5
1FD
330
1
100
AcDbSymbolTableRecord
100
AcDbBlockTableRecord
  2
*D44
340
0
  0
BLOCK_RECORD
  5
20A
330
1
100
AcDbSymbolTableRecord
100
AcDbBlockTableRecord
  2
*D45
340
0
  0
BLOCK_RECORD
  5
216
330
1
100
AcDbSymbolTableRecord
100
AcDbBlockTableRecord
  2
*D46
340
0
  0
BLOCK_RECORD
  5
224
330
1
100
AcDbSymbolTableRecord
100
AcDbBlockTableRecord
  2
*D47
340
0
  0
BLOCK_RECORD
  5
232
330
1
100
AcDbSymbolTableRecord
100
AcDbBlockTableRecord
  2
*D48
340
0
  0
BLOCK_RECORD
  5
23E
330
1
100
AcDbSymbolTableRecord
100
AcDbBlockTableRecord
  2
*D49
340
0
  0
BLOCK_RECORD
  5
24A
330
1
100
AcDbSymbolTableRecord
100
AcDbBlockTableRecord
  2
*D50
340
0
  0
BLOCK_RECORD
  5
256
330
1
100
AcDbSymbolTableRecord
100
AcDbBlockTableRecord
  2
*D51
340
0
  0
BLOCK_RECORD
  5
262
330
1
100
AcDbSymbolTableRecord
100
AcDbBlockTableRecord
  2
*D52
340
0
  0
BLOCK_RECORD
  5
26E
330
1
100
AcDbSymbolTableRecord
100
AcDbBlockTableRecord
  2
*D53
340
0
  0
BLOCK_RECORD
  5
27A
330
1
100
AcDbSymbolTableRecord
100
AcDbBlockTableRecord
  2
*D54
340
0
  0
BLOCK_RECORD
  5
286
330
1
100
AcDbSymbolTableRecord
100
AcDbBlockTableRecord
  2
*D55
340
0
  0
BLOCK_RECORD
  5
292
330
1
100
AcDbSymbolTableRecord
100
AcDbBlockTableRecord
  2
*D56
340
0
  0
BLOCK_RECORD
  5
29E
330
1
100
AcDbSymbolTableRecord
100
AcDbBlockTableRecord
  2
*D57
340
0
  0
BLOCK_RECORD
  5
2A7
330
1
100
AcDbSymbolTableRecord
100
AcDbBlockTableRecord
  2
*D58
340
0
  0
BLOCK_RECORD
  5
2B0
330
1
100
AcDbSymbolTableRecord
100
AcDbBlockTableRecord
  2
*D59
340
0
  0
BLOCK_RECORD
  5
2BC
330
1
100
AcDbSymbolTableRecord
100
AcDbBlockTableRecord
  2
*D60
340
0
  0
BLOCK_RECORD
  5
2C8
330
1
100
AcDbSymbolTableRecord
100
AcDbBlockTableRecord
  2
*D61
340
0
  0
BLOCK_RECORD
  5
2D0
330
1
100
AcDbSymbolTableRecord
100
AcDbBlockTableRecord
  2
*D62
340
0
  0
BLOCK_RECORD
  5
2DC
330
1
100
AcDbSymbolTableRecord
100
AcDbBlockTableRecord
  2
*D63
340
0
  0
BLOCK_RECORD
  5
BFE
330
1
100
AcDbSymbolTableRecord
100
AcDbBlockTableRecord
  2
*D65
340
0
  0
BLOCK_RECORD
  5
C06
330
1
100
AcDbSymbolTableRecord
100
AcDbBlockTableRecord
  2
*D66
340
0
  0
BLOCK_RECORD
  5
C0E
330
1
100
AcDbSymbolTableRecord
100
AcDbBlockTableRecord
  2
*D67
340
0
  0
BLOCK_RECORD
  5
C1B
330
1
100
AcDbSymbolTableRecord
100
AcDbBlockTableRecord
  2
*D68
340
0
  0
BLOCK_RECORD
  5
C28
330
1
100
AcDbSymbolTableRecord
100
AcDbBlockTableRecord
  2
*D69
340
0
  0
BLOCK_RECORD
  5
C34
330
1
100
AcDbSymbolTableRecord
100
AcDbBlockTableRecord
  2
*D70
340
0
  0
BLOCK_RECORD
  5
C40
330
1
100
AcDbSymbolTableRecord
100
AcDbBlockTableRecord
  2
*D71
340
0
  0
BLOCK_RECORD
  5
C4C
330
1
100
AcDbSymbolTableRecord
100
AcDbBlockTableRecord
  2
*D72
340
0
  0
BLOCK_RECORD
  5
C55
330
1
100
AcDbSymbolTableRecord
100
AcDbBlockTableRecord
  2
*D73
340
0
  0
BLOCK_RECORD
  5
C5E
330
1
100
AcDbSymbolTableRecord
100
AcDbBlockTableRecord
  2
*D74
340
0
  0
BLOCK_RECORD
  5
C66
330
1
100
AcDbSymbolTableRecord
100
AcDbBlockTableRecord
  2
*D75
340
0
  0
BLOCK_RECORD
  5
C6F
330
1
100
AcDbSymbolTableRecord
100
AcDbBlockTableRecord
  2
*D76
340
0
  0
BLOCK_RECORD
  5
C77
330
1
100
AcDbSymbolTableRecord
100
AcDbBlockTableRecord
  2
*D77
340
0
  0
BLOCK_RECORD
  5
C83
330
1
100
AcDbSymbolTableRecord
100
AcDbBlockTableRecord
  2
*D78
340
0
  0
BLOCK_RECORD
  5
C8F
330
1
100
AcDbSymbolTableRecord
100
AcDbBlockTableRecord
  2
*D79
340
0
  0
BLOCK_RECORD
  5
C9B
330
1
100
AcDbSymbolTableRecord
100
AcDbBlockTableRecord
  2
*D80
340
0
  0
BLOCK_RECORD
  5
CA7
330
1
100
AcDbSymbolTableRecord
100
AcDbBlockTableRecord
  2
*D81
340
0
  0
BLOCK_RECORD
  5
CAF
330
1
100
AcDbSymbolTableRecord
100
AcDbBlockTableRecord
  2
*D82
340
0
  0
BLOCK_RECORD
  5
CB7
330
1
100
AcDbSymbolTableRecord
100
AcDbBlockTableRecord
  2
*D83
340
0
  0
BLOCK_RECORD
  5
CC4
330
1
100
AcDbSymbolTableRecord
100
AcDbBlockTableRecord
  2
*D84
340
0
  0
BLOCK_RECORD
  5
CD1
330
1
100
AcDbSymbolTableRecord
100
AcDbBlockTableRecord
  2
*D85
340
0
  0
BLOCK_RECORD
  5
CDD
330
1
100
AcDbSymbolTableRecord
100
AcDbBlockTableRecord
  2
*D86
340
0
  0
BLOCK_RECORD
  5
CE9
330
1
100
AcDbSymbolTableRecord
100
AcDbBlockTableRecord
  2
*D87
340
0
  0
BLOCK_RECORD
  5
CF5
330
1
100
AcDbSymbolTableRecord
100
AcDbBlockTableRecord
  2
*D88
340
0
  0
BLOCK_RECORD
  5
D01
330
1
100
AcDbSymbolTableRecord
100
AcDbBlockTableRecord
  2
*D89
340
0
  0
BLOCK_RECORD
  5
D0D
330
1
100
AcDbSymbolTableRecord
100
AcDbBlockTableRecord
  2
*D90
340
0
  0
BLOCK_RECORD
  5
D19
330
1
100
AcDbSymbolTableRecord
100
AcDbBlockTableRecord
  2
*D91
340
0
  0
BLOCK_RECORD
  5
D25
330
1
100
AcDbSymbolTableRecord
100
AcDbBlockTableRecord
  2
*D92
340
0
  0
BLOCK_RECORD
  5
D31
330
1
100
AcDbSymbolTableRecord
100
AcDbBlockTableRecord
  2
*D93
340
0
  0
BLOCK_RECORD
  5
D3D
330
1
100
AcDbSymbolTableRecord
100
AcDbBlockTableRecord
  2
*D94
340
0
  0
BLOCK_RECORD
  5
D49
330
1
100
AcDbSymbolTableRecord
100
AcDbBlockTableRecord
  2
*D95
340
0
  0
BLOCK_RECORD
  5
D55
330
1
100
AcDbSymbolTableRecord
100
AcDbBlockTableRecord
  2
*D96
340
0
  0
BLOCK_RECORD
  5
D61
330
1
100
AcDbSymbolTableRecord
100
AcDbBlockTableRecord
  2
*D97
340
0
  0
BLOCK_RECORD
  5
D6D
330
1
100
AcDbSymbolTableRecord
100
AcDbBlockTableRecord
  2
*D98
340
0
  0
BLOCK_RECORD
  5
D79
330
1
100
AcDbSymbolTableRecord
100
AcDbBlockTableRecord
  2
*D99
340
0
  0
BLOCK_RECORD
  5
D82
330
1
100
AcDbSymbolTableRecord
100
AcDbBlockTableRecord
  2
*D100
340
0
  0
BLOCK_RECORD
  5
D8A
330
1
100
AcDbSymbolTableRecord
100
AcDbBlockTableRecord
  2
*D101
340
0
  0
BLOCK_RECORD
  5
D92
330
1
100
AcDbSymbolTableRecord
100
AcDbBlockTableRecord
  2
*D102
340
0
  0
BLOCK_RECORD
  5
D9B
330
1
100
AcDbSymbolTableRecord
100
AcDbBlockTableRecord
  2
*D103
340
0
  0
BLOCK_RECORD
  5
DA3
330
1
100
AcDbSymbolTableRecord
100
AcDbBlockTableRecord
  2
*D104
340
0
  0
BLOCK_RECORD
  5
DAC
330
1
100
AcDbSymbolTableRecord
100
AcDbBlockTableRecord
  2
*D105
340
0
  0
BLOCK_RECORD
  5
DB5
330
1
100
AcDbSymbolTableRecord
100
AcDbBlockTableRecord
  2
*D106
340
0
  0
BLOCK_RECORD
  5
DC0
330
1
100
AcDbSymbolTableRecord
100
AcDbBlockTableRecord
  2
*D107
340
0
  0
BLOCK_RECORD
  5
DEA
330
1
100
AcDbSymbolTableRecord
100
AcDbBlockTableRecord
  2
*D108
340
0
  0
BLOCK_RECORD
  5
DF6
330
1
100
AcDbSymbolTableRecord
100
AcDbBlockTableRecord
  2
*D109
340
0
  0
BLOCK_RECORD
  5
E03
330
1
100
AcDbSymbolTableRecord
100
AcDbBlockTableRecord
  2
*D110
340
0
  0
BLOCK_RECORD
  5
E18
330
1
100
AcDbSymbolTableRecord
100
AcDbBlockTableRecord
  2
*D111
340
0
  0
BLOCK_RECORD
  5
E26
330
1
100
AcDbSymbolTableRecord
100
AcDbBlockTableRecord
  2
*D112
340
0
  0
BLOCK_RECORD
  5
E6B
330
1
100
AcDbSymbolTableRecord
100
AcDbBlockTableRecord
  2
*D113
340
0
  0
BLOCK_RECORD
  5
E77
330
1
100
AcDbSymbolTableRecord
100
AcDbBlockTableRecord
  2
*D114
340
0
  0
BLOCK_RECORD
  5
E95
330
1
100
AcDbSymbolTableRecord
100
AcDbBlockTableRecord
  2
*D115
340
0
  0
BLOCK_RECORD
  5
EDA
330
1
100
AcDbSymbolTableRecord
100
AcDbBlockTableRecord
  2
*D116
340
0
  0
BLOCK_RECORD
  5
EE6
330
1
100
AcDbSymbolTableRecord
100
AcDbBlockTableRecord
  2
*D117
340
0
  0
BLOCK_RECORD
  5
EF2
330
1
100
AcDbSymbolTableRecord
100
AcDbBlockTableRecord
  2
*D118
340
0
  0
BLOCK_RECORD
  5
F10
330
1
100
AcDbSymbolTableRecord
100
AcDbBlockTableRecord
  2
*D119
340
0
  0
BLOCK_RECORD
  5
F6D
330
1
100
AcDbSymbolTableRecord
100
AcDbBlockTableRecord
  2
*D120
340
0
  0
BLOCK_RECORD
  5
FA9
330
1
100
AcDbSymbolTableRecord
100
AcDbBlockTableRecord
  2
*D121
340
0
  0
BLOCK_RECORD
  5
FB2
330
1
100
AcDbSymbolTableRecord
100
AcDbBlockTableRecord
  2
*D122
340
0
  0
BLOCK_RECORD
  5
FC3
330
1
100
AcDbSymbolTableRecord
100
AcDbBlockTableRecord
  2
*D123
340
0
  0
BLOCK_RECORD
  5
FCF
330
1
100
AcDbSymbolTableRecord
100
AcDbBlockTableRecord
  2
*D124
340
0
  0
BLOCK_RECORD
  5
FDB
330
1
100
AcDbSymbolTableRecord
100
AcDbBlockTableRecord
  2
*D125
340
0
  0
BLOCK_RECORD
  5
FE3
330
1
100
AcDbSymbolTableRecord
100
AcDbBlockTableRecord
  2
*D126
340
0
  0
BLOCK_RECORD
  5
FEF
330
1
100
AcDbSymbolTableRecord
100
AcDbBlockTableRecord
  2
*D127
340
0
  0
ENDTAB
  0
ENDSEC
  0
SECTION
  2
BLOCKS
  0
BLOCK
  5
24
330
23
100
AcDbEntity
  8
0
100
AcDbBlockBegin
  2
*Model_Space
 70
     0
 10
0.0
 20
0.0
 30
0.0
  3
*Model_Space
  1

  0
ENDBLK
  5
25
330
23
100
AcDbEntity
  8
0
100
AcDbBlockEnd
  0
BLOCK
  5
20
330
1F
100
AcDbEntity
 67
     1
  8
0
100
AcDbBlockBegin
  2
*Paper_Space
 70
     0
 10
0.0
 20
0.0
 30
0.0
  3
*Paper_Space
  1

  0
ENDBLK
  5
21
330
1F
100
AcDbEntity
 67
     1
  8
0
100
AcDbBlockEnd
  0
BLOCK
  5
28
330
27
100
AcDbEntity
 67
     1
  8
0
100
AcDbBlockBegin
  2
*Paper_Space0
 70
     0
 10
0.0
 20
0.0
 30
0.0
  3
*Paper_Space0
  1

  0
ENDBLK
  5
29
330
27
100
AcDbEntity
 67
     1
  8
0
100
AcDbBlockEnd
  0
BLOCK
  5
30
330
2F
100
AcDbEntity
  8
0
100
AcDbBlockBegin
  2
*D1
 70
     1
 10
0.0
 20
0.0
 30
0.0
  3
*D1
  1

  0
LINE
  5
31
330
2F
100
AcDbEntity
  8
cotas
100
AcDbLine
 10
4049.657653583723
 20
3571.416671800708
 30
0.0
 11
4025.641005693239
 21
3598.366069011655
 31
0.0
  0
MTEXT
  5
32
330
2F
100
AcDbEntity
  8
cotas
100
AcDbMText
 10
4048.441524392261
 20
3587.81173551974
 30
0.0
 40
10.0
 41
0.0
 71
     5
 72
     1
  1
R7
  7
SANINDUSA
 11
0.6653169992359418
 21
-0.7465609757599724
 31
0.0
 73
     1
 44
1.0
1001
ACAD
1000
MTEXTBEGIN
1070
    73
1070
     1
1070
    44
1040
1.0
1070
    74
1070
     0
1000
MTEXTEND
  0
SOLID
  5
33
330
2F
100
AcDbEntity
  8
cotas
100
AcDbTrace
 10
4026.885273986172
 20
3599.474930677048
 30
0.0
 11
4024.396737400304
 21
3597.257207346261
 31
0.0
 12
4018.987835700879
 22
3605.831678769254
 32
0.0
 13
4018.987835700879
 23
3605.831678769254
 33
0.0
  0
POINT
  5
34
330
2F
100
AcDbEntity
  8
Defpoints
 62
     0
100
AcDbPoint
 10
4018.987835700879
 20
3605.831678769254
 30
0.0
  0
POINT
  5
35
330
2F
100
AcDbEntity
  8
Defpoints
 62
     0
100
AcDbPoint
 10
4023.64505469553
 20
3600.605751938934
 30
0.0
  0
ENDBLK
  5
36
330
2F
100
AcDbEntity
  8
0
100
AcDbBlockEnd
  0
BLOCK
  5
38
330
37
100
AcDbEntity
  8
0
100
AcDbBlockBegin
  2
*D2
 70
     1
 10
0.0
 20
0.0
 30
0.0
  3
*D2
  1

  0
LINE
  5
39
330
37
100
AcDbEntity
  8
cotas
100
AcDbLine
 10
4879.856418150761
 20
3575.569692837953
 30
0.0
 11
4907.583019036876
 21
3598.684730999965
 31
0.0
  0
MTEXT
  5
3A
330
37
100
AcDbEntity
  8
cotas
100
AcDbMText
 10
4883.475858838849
 20
3591.60642360413
 30
0.0
 40
10.0
 41
0.0
 71
     5
 72
     1
  1
R7
  7
SANINDUSA
 11
0.7680913250124711
 21
0.6403403129903557
 31
0.0
 73
     1
 44
1.0
1001
ACAD
1000
MTEXTBEGIN
1070
    73
1070
     1
1070
    44
1040
1.0
1070
    74
1070
     0
1000
MTEXTEND
  0
SOLID
  5
3B
330
37
100
AcDbEntity
  8
cotas
100
AcDbTrace
 10
4906.515785181892
 20
3599.964883208319
 30
0.0
 11
4908.65025289186
 21
3597.404578791611
 31
0.0
 12
4915.263932287
 22
3605.088134129868
 32
0.0
 13
4915.263932287
 23
3605.088134129868
 33
0.0
  0
POINT
  5
3C
330
37
100
AcDbEntity
  8
Defpoints
 62
     0
100
AcDbPoint
 10
4915.263932287
 20
3605.088134129868
 30
0.0
  0
POINT
  5
3D
330
37
100
AcDbEntity
  8
Defpoints
 62
     0
100
AcDbPoint
 10
4909.887293011912
 20
3600.605751938935
 30
0.0
  0
ENDBLK
  5
3E
330
37
100
AcDbEntity
  8
0
100
AcDbBlockEnd
  0
BLOCK
  5
40
330
3F
100
AcDbEntity
  8
0
100
AcDbBlockBegin
  2
*D3
 70
     1
 10
0.0
 20
0.0
 30
0.0
  3
*D3
  1

  0
LINE
  5
41
330
3F
100
AcDbEntity
  8
cotas
100
AcDbLine
 10
4917.55161819514
 20
3562.606514310832
 30
0.0
 11
4918.659680729235
 21
3499.123720118608
 31
0.0
  0
ARC
  5
42
330
3F
100
AcDbEntity
  8
cotas
100
AcDbCircle
 10
4916.766177511362
 20
3607.605751938936
 30
0.0
 40
103.4985556692008
100
AcDbArc
 50
185.5380569447936
 51
265.4619125944058
  0
SOLID
  5
43
330
3F
100
AcDbEntity
  8
cotas
100
AcDbTrace
 10
4812.085999708839
 20
3597.536911543348
 30
0.0
 11
4815.415441033534
 21
3597.697944386356
 31
0.0
 12
4813.267621842162
 22
3607.605751938936
 32
0.0
 13
4813.267621842162
 23
3607.605751938936
 33
0.0
  0
SOLID
  5
44
330
3F
100
AcDbEntity
  8
cotas
100
AcDbTrace
 10
4908.628639245637
 20
3506.097540911103
 30
0.0
 11
4908.525735920625
 21
3502.76579632053
 31
0.0
 12
4918.572421354851
 22
3504.122958640782
 32
0.0
 13
4918.572421354851
 23
3504.122958640782
 33
0.0
  0
MTEXT
  5
45
330
3F
100
AcDbEntity
  8
cotas
100
AcDbMText
 10
4852.173605821645
 20
3541.875908406427
 30
0.0
 40
10.0
 41
0.0
 71
     5
 72
     1
  1
91,0°
  7
SANINDUSA
 11
0.7132502628380123
 21
-0.7009094538965118
 31
0.0
 73
     1
 44
1.0
1001
ACAD
1000
MTEXTBEGIN
1070
    73
1070
     1
1070
    44
1040
1.0
1070
    74
1070
     0
1000
MTEXTEND
  0
POINT
  5
46
330
3F
100
AcDbEntity
  8
Defpoints
 62
     0
100
AcDbPoint
 10
4827.436370041648
 20
3555.33590859658
 30
0.0
  0
POINT
  5
47
330
3F
100
AcDbEntity
  8
Defpoints
 62
     0
100
AcDbPoint
 10
4023.645054637631
 20
3607.605751938936
 30
0.0
  0
POINT
  5
48
330
3F
100
AcDbEntity
  8
Defpoints
 62
     0
100
AcDbPoint
 10
4916.886226859947
 20
3600.727919817938
 30
0.0
  0
POINT
  5
49
330
3F
100
AcDbEntity
  8
Defpoints
 62
     0
100
AcDbPoint
 10
4917.464358820756
 20
3567.605752833005
 30
0.0
  0
POINT
  5
4A
330
3F
100
AcDbEntity
  8
Defpoints
 62
     0
100
AcDbPoint
 10
4909.887297167618
 20
3607.605751938935
 30
0.0
  0
ENDBLK
  5
4B
330
3F
100
AcDbEntity
  8
0
100
AcDbBlockEnd
  0
BLOCK
  5
4D
330
4C
100
AcDbEntity
  8
0
100
AcDbBlockBegin
  2
*D4
 70
     1
 10
0.0
 20
0.0
 30
0.0
  3
*D4
  1

  0
LINE
  5
4E
330
4C
100
AcDbEntity
  8
cotas
100
AcDbLine
 10
4015.980709240975
 20
3562.60651435722
 30
0.0
 11
4015.013083667427
 21
3507.171282295437
 31
0.0
  0
ARC
  5
4F
330
4C
100
AcDbEntity
  8
cotas
100
AcDbCircle
 10
4016.766173853547
 20
3607.605751938935
 30
0.0
 40
95.44976862975515
100
AcDbArc
 50
275.0054640676291
 51
353.9945359338183
  0
SOLID
  5
50
330
4C
100
AcDbEntity
  8
cotas
100
AcDbTrace
 10
4025.152482568213
 20
3510.854343674406
 30
0.0
 11
4025.035992066167
 21
3514.185640880309
 31
0.0
 12
4015.100345699487
 22
3512.170520771221
 32
0.0
 13
4015.100345699487
 23
3512.170520771221
 33
0.0
  0
SOLID
  5
51
330
4C
100
AcDbEntity
  8
cotas
100
AcDbTrace
 10
4110.02772834841
 20
3597.706787514429
 30
0.0
 11
4113.356485142028
 21
3597.532175601735
 31
0.0
 12
4112.215942483302
 22
3607.605751938935
 32
0.0
 13
4112.215942483302
 23
3607.605751938935
 33
0.0
  0
MTEXT
  5
52
330
4C
100
AcDbEntity
  8
cotas
100
AcDbMText
 10
4075.717258669347
 20
3547.616692208167
 30
0.0
 40
10.0
 41
0.0
 71
     5
 72
     1
  1
91,0°
  7
SANINDUSA
 11
0.7132504491453286
 21
0.70090926430886
 31
0.0
 73
     1
 44
1.0
1001
ACAD
1000
MTEXTBEGIN
1070
    73
1070
     1
1070
    44
1040
1.0
1070
    74
1070
     0
1000
MTEXTEND
  0
POINT
  5
53
330
4C
100
AcDbEntity
  8
Defpoints
 62
     0
100
AcDbPoint
 10
4063.52603411487
 20
3524.39413135734
 30
0.0
  0
POINT
  5
54
330
4C
100
AcDbEntity
  8
Defpoints
 62
     0
100
AcDbPoint
 10
4016.067971273035
 20
3567.605752833005
 30
0.0
  0
POINT
  5
55
330
4C
100
AcDbEntity
  8
Defpoints
 62
     0
100
AcDbPoint
 10
4023.64505463763
 20
3607.605751938935
 30
0.0
  0
POINT
  5
56
330
4C
100
AcDbEntity
  8
Defpoints
 62
     0
100
AcDbPoint
 10
4909.887297167618
 20
3607.605751938935
 30
0.0
  0
POINT
  5
57
330
4C
100
AcDbEntity
  8
Defpoints
 62
     0
100
AcDbPoint
 10
4016.646120831338
 20
3600.727918892981
 30
0.0
  0
ENDBLK
  5
58
330
4C
100
AcDbEntity
  8
0
100
AcDbBlockEnd
  0
BLOCK
  5
5A
330
59
100
AcDbEntity
  8
0
100
AcDbBlockBegin
  2
*D5
 70
     1
 10
0.0
 20
0.0
 30
0.0
  3
*D5
  1

  0
LINE
  5
5B
330
59
100
AcDbEntity
  8
cotas
100
AcDbLine
 10
5660.239417383465
 20
4424.932041900592
 30
0.0
 11
5709.725183057922
 21
4424.932041900592
 31
0.0
  0
LINE
  5
5C
330
59
100
AcDbEntity
  8
cotas
100
AcDbLine
 10
5897.901160319684
 20
4492.36027905218
 30
0.0
 11
5699.725183057921
 21
4492.36027905218
 31
0.0
  0
LINE
  5
5D
330
59
100
AcDbEntity
  8
cotas
100
AcDbLine
 10
5704.725183057922
 20
4434.932041900592
 30
0.0
 11
5704.725183057922
 21
4482.36027905218
 31
0.0
  0
SOLID
  5
5E
330
59
100
AcDbEntity
  8
cotas
100
AcDbTrace
 10
5703.058516391255
 20
4434.932041900592
 30
0.0
 11
5706.391849724589
 21
4434.932041900592
 31
0.0
 12
5704.725183057922
 22
4424.932041900592
 32
0.0
 13
5704.725183057922
 23
4424.932041900592
 33
0.0
  0
SOLID
  5
5F
330
59
100
AcDbEntity
  8
cotas
100
AcDbTrace
 10
5703.058516391255
 20
4482.36027905218
 30
0.0
 11
5706.391849724589
 21
4482.36027905218
 31
0.0
 12
5704.725183057922
 22
4492.36027905218
 32
0.0
 13
5704.725183057922
 23
4492.36027905218
 33
0.0
  0
MTEXT
  5
60
330
59
100
AcDbEntity
  8
cotas
100
AcDbMText
 10
5693.388715630117
 20
4458.646160476386
 30
0.0
 40
10.0
 41
0.0
 71
     5
 72
     1
  1
67,4
  7
SANINDUSA
 11
0.0000000000000001
 21
1.0
 31
0.0
 73
     1
 44
1.0
1001
ACAD
1000
MTEXTBEGIN
1070
    73
1070
     1
1070
    44
1040
1.0
1070
    74
1070
     0
1000
MTEXTEND
  0
POINT
  5
61
330
59
100
AcDbEntity
  8
Defpoints
 62
     0
100
AcDbPoint
 10
5655.239417383466
 20
4424.932041900592
 30
0.0
  0
POINT
  5
62
330
59
100
AcDbEntity
  8
Defpoints
 62
     0
100
AcDbPoint
 10
5902.901160319684
 20
4492.36027905218
 30
0.0
  0
POINT
  5
63
330
59
100
AcDbEntity
  8
Defpoints
 62
     0
100
AcDbPoint
 10
5704.725183057922
 20
4492.36027905218
 30
0.0
  0
ENDBLK
  5
64
330
59
100
AcDbEntity
  8
0
100
AcDbBlockEnd
  0
BLOCK
  5
66
330
65
100
AcDbEntity
  8
0
100
AcDbBlockBegin
  2
*D6
 70
     1
 10
0.0
 20
0.0
 30
0.0
  3
*D6
  1

  0
LINE
  5
67
330
65
100
AcDbEntity
  8
cotas
100
AcDbLine
 10
5200.307954635821
 20
4432.785628964117
 30
0.0
 11
5067.202950953156
 21
4432.785628964117
 31
0.0
  0
LINE
  5
68
330
65
100
AcDbEntity
  8
cotas
100
AcDbLine
 10
5097.901153533666
 20
4492.36027905218
 30
0.0
 11
5067.202950953156
 21
4492.36027905218
 31
0.0
  0
LINE
  5
69
330
65
100
AcDbEntity
  8
cotas
100
AcDbLine
 10
5072.202950953156
 20
4442.785628964116
 30
0.0
 11
5072.202950953156
 21
4482.36027905218
 31
0.0
  0
SOLID
  5
6A
330
65
100
AcDbEntity
  8
cotas
100
AcDbTrace
 10
5070.536284286489
 20
4442.785628964116
 30
0.0
 11
5073.869617619823
 21
4442.785628964116
 31
0.0
 12
5072.202950953156
 22
4432.785628964117
 32
0.0
 13
5072.202950953156
 23
4432.785628964117
 33
0.0
  0
SOLID
  5
6B
330
65
100
AcDbEntity
  8
cotas
100
AcDbTrace
 10
5070.536284286489
 20
4482.36027905218
 30
0.0
 11
5073.869617619823
 21
4482.36027905218
 31
0.0
 12
5072.202950953156
 22
4492.36027905218
 32
0.0
 13
5072.202950953156
 23
4492.36027905218
 33
0.0
  0
MTEXT
  5
6C
330
65
100
AcDbEntity
  8
cotas
100
AcDbMText
 10
5060.859767608628
 20
4462.572954008149
 30
0.0
 40
10.0
 41
0.0
 71
     5
 72
     1
  1
59,6
  7
SANINDUSA
 11
0.0000000000000001
 21
1.0
 31
0.0
 73
     1
 44
1.0
1001
ACAD
1000
MTEXTBEGIN
1070
    73
1070
     1
1070
    44
1040
1.0
1070
    74
1070
     0
1000
MTEXTEND
  0
POINT
  5
6D
330
65
100
AcDbEntity
  8
Defpoints
 62
     0
100
AcDbPoint
 10
5205.30795463582
 20
4432.785628964117
 30
0.0
  0
POINT
  5
6E
330
65
100
AcDbEntity
  8
Defpoints
 62
     0
100
AcDbPoint
 10
5102.901153533665
 20
4492.36027905218
 30
0.0
  0
POINT
  5
6F
330
65
100
AcDbEntity
  8
Defpoints
 62
     0
100
AcDbPoint
 10
5072.202950953156
 20
4492.36027905218
 30
0.0
  0
ENDBLK
  5
70
330
65
100
AcDbEntity
  8
0
100
AcDbBlockEnd
  0
BLOCK
  5
72
330
71
100
AcDbEntity
  8
0
100
AcDbBlockBegin
  2
*D7
 70
     1
 10
0.0
 20
0.0
 30
0.0
  3
*D7
  1

  0
ARC
  5
73
330
71
100
AcDbEntity
  8
cotas
100
AcDbCircle
 10
5169.13496758825
 20
4488.460279052179
 30
0.0
 40
47.01428158020674
100
AcDbArc
 50
192.2099791823482
 51
259.7900208176424
  0
SOLID
  5
74
330
71
100
AcDbEntity
  8
cotas
100
AcDbTrace
 10
5121.526978157231
 20
4478.339741083985
 30
0.0
 11
5124.841407111826
 21
4478.694243292813
 31
0.0
 12
5122.120686008043
 22
4488.46027905218
 32
0.0
 13
5122.120686008043
 23
4488.46027905218
 33
0.0
  0
SOLID
  5
75
330
71
100
AcDbEntity
  8
cotas
100
AcDbTrace
 10
5160.920704001783
 20
4443.852871283246
 30
0.0
 11
5160.682089648492
 21
4440.52808944055
 31
0.0
 12
5170.775742353222
 22
4441.474637302027
 32
0.0
 13
5170.775742353222
 23
4441.474637302027
 33
0.0
  0
MTEXT
  5
76
330
71
100
AcDbEntity
  8
cotas
100
AcDbMText
 10
5144.358073249251
 20
4462.803053882564
 30
0.0
 40
10.0
 41
0.0
 71
     5
 72
     1
  1
92,0°
  7
SANINDUSA
 11
0.719339800338595
 21
-0.6946583704590556
 31
0.0
 73
     1
 44
1.0
1001
ACAD
1000
MTEXTBEGIN
1070
    73
1070
     1
1070
    44
1040
1.0
1070
    74
1070
     0
1000
MTEXTEND
  0
POINT
  5
77
330
71
100
AcDbEntity
  8
Defpoints
 62
     0
100
AcDbPoint
 10
5128.695673348121
 20
4464.48099311904
 30
0.0
  0
POINT
  5
78
330
71
100
AcDbEntity
  8
Defpoints
 62
     0
100
AcDbPoint
 10
5109.780034375653
 20
4488.46027905218
 30
0.0
  0
POINT
  5
79
330
71
100
AcDbEntity
  8
Defpoints
 62
     0
100
AcDbPoint
 10
5170.851886997727
 20
4439.294139975848
 30
0.0
  0
POINT
  5
7A
330
71
100
AcDbEntity
  8
Defpoints
 62
     0
100
AcDbPoint
 10
5169.239443950107
 20
4485.46846749196
 30
0.0
  0
POINT
  5
7B
330
71
100
AcDbEntity
  8
Defpoints
 62
     0
100
AcDbPoint
 10
5166.14133238635
 20
4488.460279052179
 30
0.0
  0
ENDBLK
  5
7C
330
71
100
AcDbEntity
  8
0
100
AcDbBlockEnd
  0
BLOCK
  5
7E
330
7D
100
AcDbEntity
  8
0
100
AcDbBlockBegin
  2
*D8
 70
     1
 10
0.0
 20
0.0
 30
0.0
  3
*D8
  1

  0
LINE
  5
7F
330
7D
100
AcDbEntity
  8
cotas
100
AcDbLine
 10
5138.787958277388
 20
4391.469765329997
 30
0.0
 11
5171.838834891376
 21
4421.77587526854
 31
0.0
  0
MTEXT
  5
80
330
7D
100
AcDbEntity
  8
cotas
100
AcDbMText
 10
5144.858410720602
 20
4410.626487158714
 30
0.0
 40
10.0
 41
0.0
 71
     5
 72
     1
  1
R17
  7
SANINDUSA
 11
0.7370489033732046
 21
0.6758394143850716
 31
0.0
 73
     1
 44
1.0
1001
ACAD
1000
MTEXTBEGIN
1070
    73
1070
     1
1070
    44
1040
1.0
1070
    74
1070
     0
1000
MTEXTEND
  0
LINE
  5
81
330
7D
100
AcDbEntity
  8
cotas
100
AcDbLine
 10
5191.739155282445
 20
4440.02353945693
 30
0.0
 11
5179.209323925108
 21
4428.534269412391
 31
0.0
  0
SOLID
  5
82
330
7D
100
AcDbEntity
  8
cotas
100
AcDbTrace
 10
5170.7124358674
 20
4423.004290107495
 30
0.0
 11
5172.965233915351
 21
4420.547460429585
 31
0.0
 12
5179.209323925108
 22
4428.534269412391
 32
0.0
 13
5179.209323925108
 23
4428.534269412391
 33
0.0
  0
POINT
  5
83
330
7D
100
AcDbEntity
  8
Defpoints
 62
     0
100
AcDbPoint
 10
5179.209323925108
 20
4428.534269412391
 30
0.0
  0
POINT
  5
84
330
7D
100
AcDbEntity
  8
Defpoints
 62
     0
100
AcDbPoint
 10
5191.739155282445
 20
4440.02353945693
 30
0.0
  0
ENDBLK
  5
85
330
7D
100
AcDbEntity
  8
0
100
AcDbBlockEnd
  0
BLOCK
  5
87
330
86
100
AcDbEntity
  8
0
100
AcDbBlockBegin
  2
*D9
 70
     1
 10
0.0
 20
0.0
 30
0.0
  3
*D9
  1

  0
LINE
  5
88
330
86
100
AcDbEntity
  8
cotas
100
AcDbLine
 10
5215.134544984673
 20
4371.016157227248
 30
0.0
 11
5201.946868888547
 21
4413.833136238366
 31
0.0
  0
MTEXT
  5
89
330
86
100
AcDbEntity
  8
cotas
100
AcDbMText
 10
5219.765204682218
 20
4390.650015186454
 30
0.0
 40
10.0
 41
0.0
 71
     5
 72
     1
  1
R10
  7
SANINDUSA
 11
0.2943554145874892
 21
-0.9556960237978534
 31
0.0
 73
     1
 44
1.0
1001
ACAD
1000
MTEXTBEGIN
1070
    73
1070
     1
1070
    44
1040
1.0
1070
    74
1070
     0
1000
MTEXTEND
  0
LINE
  5
8A
330
86
100
AcDbEntity
  8
cotas
100
AcDbLine
 10
5196.059760596797
 20
4432.947056714321
 30
0.0
 11
5199.003314742672
 21
4423.390096476345
 31
0.0
  0
SOLID
  5
8B
330
86
100
AcDbEntity
  8
cotas
100
AcDbTrace
 10
5203.539695594876
 20
4414.323728596012
 30
0.0
 11
5200.354042182216
 21
4413.342543880721
 31
0.0
 12
5199.003314742672
 22
4423.390096476345
 32
0.0
 13
5199.003314742672
 23
4423.390096476345
 33
0.0
  0
POINT
  5
8C
330
86
100
AcDbEntity
  8
Defpoints
 62
     0
100
AcDbPoint
 10
5199.003314742672
 20
4423.390096476345
 30
0.0
  0
POINT
  5
8D
330
86
100
AcDbEntity
  8
Defpoints
 62
     0
100
AcDbPoint
 10
5196.059760596797
 20
4432.947056714321
 30
0.0
  0
ENDBLK
  5
8E
330
86
100
AcDbEntity
  8
0
100
AcDbBlockEnd
  0
BLOCK
  5
90
330
8F
100
AcDbEntity
  8
0
100
AcDbBlockBegin
  2
*D10
 70
     1
 10
0.0
 20
0.0
 30
0.0
  3
*D10
  1

  0
LINE
  5
91
330
8F
100
AcDbEntity
  8
cotas
100
AcDbLine
 10
5242.880450845027
 20
4392.303586870297
 30
0.0
 11
5213.484728775085
 21
4423.494533023371
 31
0.0
  0
MTEXT
  5
92
330
8F
100
AcDbEntity
  8
cotas
100
AcDbMText
 10
5241.208122153977
 20
4408.658414943699
 30
0.0
 40
10.0
 41
0.0
 71
     5
 72
     1
  1
R7
  7
SANINDUSA
 11
0.6858537116679928
 21
-0.7277394356438559
 31
0.0
 73
     1
 44
1.0
1001
ACAD
1000
MTEXTBEGIN
1070
    73
1070
     1
1070
    44
1040
1.0
1070
    74
1070
     0
1000
MTEXTEND
  0
SOLID
  5
93
330
8F
100
AcDbEntity
  8
cotas
100
AcDbTrace
 10
5214.697627834492
 20
4424.637622542817
 30
0.0
 11
5212.271829715678
 21
4422.351443503924
 31
0.0
 12
5206.626191658406
 22
4430.771927379811
 32
0.0
 13
5206.626191658406
 23
4430.771927379811
 33
0.0
  0
POINT
  5
94
330
8F
100
AcDbEntity
  8
Defpoints
 62
     0
100
AcDbPoint
 10
5206.626191658406
 20
4430.771927379811
 30
0.0
  0
POINT
  5
95
330
8F
100
AcDbEntity
  8
Defpoints
 62
     0
100
AcDbPoint
 10
5211.427167640083
 20
4425.677751330302
 30
0.0
  0
ENDBLK
  5
96
330
8F
100
AcDbEntity
  8
0
100
AcDbBlockEnd
  0
BLOCK
  5
98
330
97
100
AcDbEntity
  8
0
100
AcDbBlockBegin
  2
*D11
 70
     1
 10
0.0
 20
0.0
 30
0.0
  3
*D11
  1

  0
LINE
  5
99
330
97
100
AcDbEntity
  8
cotas
100
AcDbLine
 10
5639.210127730578
 20
4356.094608441352
 30
0.0
 11
5660.238825611635
 21
4395.700348050497
 31
0.0
  0
MTEXT
  5
9A
330
97
100
AcDbEntity
  8
cotas
100
AcDbMText
 10
5638.532650072411
 20
4376.178716788772
 30
0.0
 40
10.0
 41
0.0
 71
     5
 72
     1
  1
R17
  7
SANINDUSA
 11
0.4689490960744952
 21
0.8832251951178216
 31
0.0
 73
     1
 44
1.0
1001
ACAD
1000
MTEXTBEGIN
1070
    73
1070
     1
1070
    44
1040
1.0
1070
    74
1070
     0
1000
MTEXTEND
  0
LINE
  5
9B
330
97
100
AcDbEntity
  8
cotas
100
AcDbLine
 10
5672.902358839467
 20
4419.551021182526
 30
0.0
 11
5664.928316572379
 21
4404.532600001675
 31
0.0
  0
SOLID
  5
9C
330
97
100
AcDbEntity
  8
cotas
100
AcDbTrace
 10
5658.766783619772
 20
4396.481929877288
 30
0.0
 11
5661.710867603498
 21
4394.918766223706
 31
0.0
 12
5664.928316572379
 22
4404.532600001675
 32
0.0
 13
5664.928316572379
 23
4404.532600001675
 33
0.0
  0
POINT
  5
9D
330
97
100
AcDbEntity
  8
Defpoints
 62
     0
100
AcDbPoint
 10
5664.928316572379
 20
4404.532600001675
 30
0.0
  0
POINT
  5
9E
330
97
100
AcDbEntity
  8
Defpoints
 62
     0
100
AcDbPoint
 10
5672.902358839467
 20
4419.551021182526
 30
0.0
  0
ENDBLK
  5
9F
330
97
100
AcDbEntity
  8
0
100
AcDbBlockEnd
  0
BLOCK
  5
A1
330
A0
100
AcDbEntity
  8
0
100
AcDbBlockBegin
  2
*D12
 70
     1
 10
0.0
 20
0.0
 30
0.0
  3
*D12
  1

  0
LINE
  5
A2
330
A0
100
AcDbEntity
  8
cotas
100
AcDbLine
 10
5616.208424223265
 20
4385.723745286685
 30
0.0
 11
5646.810864509338
 21
4415.933263533335
 31
0.0
  0
MTEXT
  5
A3
330
A0
100
AcDbEntity
  8
cotas
100
AcDbMText
 10
5618.469670571451
 20
4402.007597702937
 30
0.0
 40
10.0
 41
0.0
 71
     5
 72
     1
  1
R7
  7
SANINDUSA
 11
0.7116607288362122
 21
0.7025233142268741
 31
0.0
 73
     1
 44
1.0
1001
ACAD
1000
MTEXTBEGIN
1070
    73
1070
     1
1070
    44
1040
1.0
1070
    74
1070
     0
1000
MTEXTEND
  0
SOLID
  5
A4
330
A0
100
AcDbEntity
  8
cotas
100
AcDbTrace
 10
5645.63999231896
 20
4417.119364748063
 30
0.0
 11
5647.981736699716
 21
4414.747162318609
 31
0.0
 12
5653.9274717977
 22
4422.958496675605
 32
0.0
 13
5653.9274717977
 23
4422.958496675605
 33
0.0
  0
POINT
  5
A5
330
A0
100
AcDbEntity
  8
Defpoints
 62
     0
100
AcDbPoint
 10
5653.9274717977
 20
4422.958496675605
 30
0.0
  0
POINT
  5
A6
330
A0
100
AcDbEntity
  8
Defpoints
 62
     0
100
AcDbPoint
 10
5648.945854457021
 20
4418.04084113754
 30
0.0
  0
ENDBLK
  5
A7
330
A0
100
AcDbEntity
  8
0
100
AcDbBlockEnd
  0
BLOCK
  5
A9
330
A8
100
AcDbEntity
  8
0
100
AcDbBlockBegin
  2
*D13
 70
     1
 10
0.0
 20
0.0
 30
0.0
  3
*D13
  1

  0
ARC
  5
AA
330
A8
100
AcDbEntity
  8
cotas
100
AcDbCircle
 10
1792.280955754021
 20
4492.360279052181
 30
0.0
 40
3592.358038712165
100
AcDbArc
 50
359.1594928535918
 51
359.8405064378471
  0
SOLID
  5
AB
330
A8
100
AcDbEntity
  8
cotas
100
AcDbTrace
 10
5385.918919561766
 20
4439.636884297757
 30
0.0
 11
5382.586016170071
 21
4439.690420199203
 31
0.0
 12
5384.091860161579
 22
4429.664942073397
 32
0.0
 13
5384.091860161579
 23
4429.664942073397
 33
0.0
  0
SOLID
  5
AC
330
A8
100
AcDbEntity
  8
cotas
100
AcDbTrace
 10
5382.958410979394
 20
4482.362608477406
 30
0.0
 11
5386.291741084012
 21
4482.357968999244
 31
0.0
 12
5384.638994466187
 22
4492.360279052179
 32
0.0
 13
5384.638994466187
 23
4492.360279052179
 33
0.0
  0
MTEXT
  5
AD
330
A8
100
AcDbEntity
  8
cotas
100
AcDbMText
 10
5373.159456855582
 20
4461.110403654738
 30
0.0
 40
10.0
 41
0.0
 71
     5
 72
     1
  1
1,0°
  7
SANINDUSA
 11
0.0087265416814994
 21
0.9999619230102121
 31
0.0
 73
     1
 44
1.0
1001
ACAD
1000
MTEXTBEGIN
1070
    73
1070
     1
1070
    44
1040
1.0
1070
    74
1070
     0
1000
MTEXTEND
  0
POINT
  5
AE
330
A8
100
AcDbEntity
  8
Defpoints
 62
     0
100
AcDbPoint
 10
5384.395820234742
 20
4450.562208802849
 30
0.0
  0
POINT
  5
AF
330
A8
100
AcDbEntity
  8
Defpoints
 62
     0
100
AcDbPoint
 10
5193.124884593386
 20
4492.360279052181
 30
0.0
  0
POINT
  5
B0
330
A8
100
AcDbEntity
  8
Defpoints
 62
     0
100
AcDbPoint
 10
5461.096654525093
 20
4428.320817435412
 30
0.0
  0
POINT
  5
B1
330
A8
100
AcDbEntity
  8
Defpoints
 62
     0
100
AcDbPoint
 10
5211.549334571696
 20
4432.676685194883
 30
0.0
  0
POINT
  5
B2
330
A8
100
AcDbEntity
  8
Defpoints
 62
     0
100
AcDbPoint
 10
6212.67743136671
 20
4492.360279052181
 30
0.0
  0
ENDBLK
  5
B3
330
A8
100
AcDbEntity
  8
0
100
AcDbBlockEnd
  0
BLOCK
  5
B5
330
B4
100
AcDbEntity
  8
0
100
AcDbBlockBegin
  2
*D14
 70
     1
 10
0.0
 20
0.0
 30
0.0
  3
*D14
  1

  0
LINE
  5
B6
330
B4
100
AcDbEntity
  8
cotas
100
AcDbLine
 10
6522.901164262636
 20
4421.25495819957
 30
0.0
 11
6522.901164262636
 21
4557.355279007939
 31
0.0
  0
LINE
  5
B7
330
B4
100
AcDbEntity
  8
cotas
100
AcDbLine
 10
5102.901153533665
 20
4497.36027905218
 30
0.0
 11
5102.901153533665
 21
4557.355279007939
 31
0.0
  0
LINE
  5
B8
330
B4
100
AcDbEntity
  8
cotas
100
AcDbLine
 10
6512.901164262635
 20
4552.355279007939
 30
0.0
 11
5112.901153533665
 21
4552.355279007939
 31
0.0
  0
SOLID
  5
B9
330
B4
100
AcDbEntity
  8
cotas
100
AcDbTrace
 10
6512.901164262635
 20
4554.021945674606
 30
0.0
 11
6512.901164262635
 21
4550.688612341272
 31
0.0
 12
6522.901164262636
 22
4552.355279007939
 32
0.0
 13
6522.901164262636
 23
4552.355279007939
 33
0.0
  0
SOLID
  5
BA
330
B4
100
AcDbEntity
  8
cotas
100
AcDbTrace
 10
5112.901153533665
 20
4554.021945674606
 30
0.0
 11
5112.901153533665
 21
4550.688612341272
 31
0.0
 12
5102.901153533665
 22
4552.355279007939
 32
0.0
 13
5102.901153533665
 23
4552.355279007939
 33
0.0
  0
MTEXT
  5
BB
330
B4
100
AcDbEntity
  8
cotas
100
AcDbMText
 10
5812.90115889815
 20
4562.563472426341
 30
0.0
 40
10.0
 41
0.0
 71
     5
 72
     1
  1
1420
  7
SANINDUSA
 73
     1
 44
1.0
1001
ACAD
1000
MTEXTBEGIN
1070
    73
1070
     1
1070
    44
1040
1.0
1070
    74
1070
     0
1000
MTEXTEND
  0
POINT
  5
BC
330
B4
100
AcDbEntity
  8
Defpoints
 62
     0
100
AcDbPoint
 10
6522.901164262636
 20
4416.254958199569
 30
0.0
  0
POINT
  5
BD
330
B4
100
AcDbEntity
  8
Defpoints
 62
     0
100
AcDbPoint
 10
5102.901153533665
 20
4492.36027905218
 30
0.0
  0
POINT
  5
BE
330
B4
100
AcDbEntity
  8
Defpoints
 62
     0
100
AcDbPoint
 10
5102.901153533665
 20
4552.355279007939
 30
0.0
  0
ENDBLK
  5
BF
330
B4
100
AcDbEntity
  8
0
100
AcDbBlockEnd
  0
BLOCK
  5
C1
330
C0
100
AcDbEntity
  8
0
100
AcDbBlockBegin
  2
*D15
 70
     1
 10
0.0
 20
0.0
 30
0.0
  3
*D15
  1

  0
ARC
  5
C2
330
C0
100
AcDbEntity
  8
cotas
100
AcDbCircle
 10
6632.901164517054
 20
4492.36027905218
 30
0.0
 40
60.1720484094952
100
AcDbArc
 50
189.5329846044823
 51
258.4669963830445
  0
SOLID
  5
C3
330
C0
100
AcDbEntity
  8
cotas
100
AcDbTrace
 10
6571.89916400325
 20
4482.256371031897
 30
0.0
 11
6575.220969420872
 21
4482.533354566732
 31
0.0
 12
6572.729116107559
 22
4492.36027905218
 32
0.0
 13
6572.729116107559
 23
4492.36027905218
 33
0.0
  0
SOLID
  5
C4
330
C0
100
AcDbEntity
  8
cotas
100
AcDbTrace
 10
6621.067197535357
 20
4435.058179817924
 30
0.0
 11
6620.674452295794
 21
4431.748064670696
 31
0.0
 12
6630.801170357262
 22
4432.224886525619
 32
0.0
 13
6630.801170357262
 23
4432.224886525619
 33
0.0
  0
MTEXT
  5
C5
330
C0
100
AcDbEntity
  8
cotas
100
AcDbMText
 10
6597.786274896655
 20
4458.450235576411
 30
0.0
 40
10.0
 41
0.0
 71
     5
 72
     1
  1
88,0°
  7
SANINDUSA
 11
0.694658251109633
 21
-0.7193399155929735
 31
0.0
 73
     1
 44
1.0
1001
ACAD
1000
MTEXTBEGIN
1070
    73
1070
     1
1070
    44
1040
1.0
1070
    74
1070
     0
1000
MTEXTEND
  0
POINT
  5
C6
330
C0
100
AcDbEntity
  8
Defpoints
 62
     0
100
AcDbPoint
 10
6580.444107312922
 20
4462.882617013323
 30
0.0
  0
POINT
  5
C7
330
C0
100
AcDbEntity
  8
Defpoints
 62
     0
100
AcDbPoint
 10
5593.124884593387
 20
4492.36027905218
 30
0.0
  0
POINT
  5
C8
330
C0
100
AcDbEntity
  8
Defpoints
 62
     0
100
AcDbPoint
 10
6630.093173950095
 20
4411.950714974326
 30
0.0
  0
POINT
  5
C9
330
C0
100
AcDbEntity
  8
Defpoints
 62
     0
100
AcDbPoint
 10
6632.665247988154
 20
4485.604577850494
 30
0.0
  0
POINT
  5
CA
330
C0
100
AcDbEntity
  8
Defpoints
 62
     0
100
AcDbPoint
 10
6612.677431366711
 20
4492.360279052179
 30
0.0
  0
ENDBLK
  5
CB
330
C0
100
AcDbEntity
  8
0
100
AcDbBlockEnd
  0
BLOCK
  5
CD
330
CC
100
AcDbEntity
  8
0
100
AcDbBlockBegin
  2
*D16
 70
     1
 10
0.0
 20
0.0
 30
0.0
  3
*D16
  1

  0
LINE
  5
CE
330
CC
100
AcDbEntity
  8
cotas
100
AcDbLine
 10
5097.901153533666
 20
3607.605751938935
 30
0.0
 11
5067.202950953156
 21
3607.605751938935
 31
0.0
  0
LINE
  5
CF
330
CC
100
AcDbEntity
  8
cotas
100
AcDbLine
 10
5095.806545675674
 20
3487.605754621144
 30
0.0
 11
5067.202950953156
 21
3487.605754621144
 31
0.0
  0
LINE
  5
D0
330
CC
100
AcDbEntity
  8
cotas
100
AcDbLine
 10
5072.202950953156
 20
3597.605751938935
 30
0.0
 11
5072.202950953156
 21
3497.605754621144
 31
0.0
  0
SOLID
  5
D1
330
CC
100
AcDbEntity
  8
cotas
100
AcDbTrace
 10
5070.536284286489
 20
3597.605751938935
 30
0.0
 11
5073.869617619823
 21
3597.605751938935
 31
0.0
 12
5072.202950953156
 22
3607.605751938935
 32
0.0
 13
5072.202950953156
 23
3607.605751938935
 33
0.0
  0
SOLID
  5
D2
330
CC
100
AcDbEntity
  8
cotas
100
AcDbTrace
 10
5070.536284286489
 20
3497.605754621144
 30
0.0
 11
5073.869617619823
 21
3497.605754621144
 31
0.0
 12
5072.202950953156
 22
3487.605754621144
 32
0.0
 13
5072.202950953156
 23
3487.605754621144
 33
0.0
  0
MTEXT
  5
D3
330
CC
100
AcDbEntity
  8
cotas
100
AcDbMText
 10
5061.994757534753
 20
3547.60575328004
 30
0.0
 40
10.0
 41
0.0
 71
     5
 72
     1
  1
120
  7
SANINDUSA
 11
0.0000000000000001
 21
1.0
 31
0.0
 73
     1
 44
1.0
1001
ACAD
1000
MTEXTBEGIN
1070
    73
1070
     1
1070
    44
1040
1.0
1070
    74
1070
     0
1000
MTEXTEND
  0
POINT
  5
D4
330
CC
100
AcDbEntity
  8
Defpoints
 62
     0
100
AcDbPoint
 10
5102.901153533667
 20
3607.605751938935
 30
0.0
  0
POINT
  5
D5
330
CC
100
AcDbEntity
  8
Defpoints
 62
     0
100
AcDbPoint
 10
5100.806545675673
 20
3487.605754621144
 30
0.0
  0
POINT
  5
D6
330
CC
100
AcDbEntity
  8
Defpoints
 62
     0
100
AcDbPoint
 10
5072.202950953156
 20
3487.605754621144
 30
0.0
  0
ENDBLK
  5
D7
330
CC
100
AcDbEntity
  8
0
100
AcDbBlockEnd
  0
BLOCK
  5
D9
330
D8
100
AcDbEntity
  8
0
100
AcDbBlockBegin
  2
*D17
 70
     1
 10
0.0
 20
0.0
 30
0.0
  3
*D17
  1

  0
LINE
  5
DA
330
D8
100
AcDbEntity
  8
cotas
100
AcDbLine
 10
5140.114240103834
 20
3575.938087617511
 30
0.0
 11
5112.107582978089
 21
3598.712997992084
 31
0.0
  0
MTEXT
  5
DB
330
D8
100
AcDbEntity
  8
cotas
100
AcDbMText
 10
5136.299339034517
 20
3591.929448234818
 30
0.0
 40
10.0
 41
0.0
 71
     5
 72
     1
  1
R7
  7
SANINDUSA
 11
0.7758495341438861
 21
-0.6309179822835257
 31
0.0
 73
     1
 44
1.0
1001
ACAD
1000
MTEXTBEGIN
1070
    73
1070
     1
1070
    44
1040
1.0
1070
    74
1070
     0
1000
MTEXTEND
  0
SOLID
  5
DC
330
D8
100
AcDbEntity
  8
cotas
100
AcDbTrace
 10
5113.159112948562
 20
3600.00608054899
 30
0.0
 11
5111.056053007616
 21
3597.419915435177
 31
0.0
 12
5104.34908763665
 22
3605.022177814919
 32
0.0
 13
5104.34908763665
 23
3605.022177814919
 33
0.0
  0
POINT
  5
DD
330
D8
100
AcDbEntity
  8
Defpoints
 62
     0
100
AcDbPoint
 10
5104.34908763665
 20
3605.022177814919
 30
0.0
  0
POINT
  5
DE
330
D8
100
AcDbEntity
  8
Defpoints
 62
     0
100
AcDbPoint
 10
5109.780034375657
 20
3600.605751938934
 30
0.0
  0
ENDBLK
  5
DF
330
D8
100
AcDbEntity
  8
0
100
AcDbBlockEnd
  0
BLOCK
  5
E1
330
E0
100
AcDbEntity
  8
0
100
AcDbBlockBegin
  2
*D18
 70
     1
 10
0.0
 20
0.0
 30
0.0
  3
*D18
  1

  0
LINE
  5
E2
330
E0
100
AcDbEntity
  8
cotas
100
AcDbLine
 10
6666.540813844219
 20
3574.925044824425
 30
0.0
 11
6693.760195686284
 21
3598.635267051694
 31
0.0
  0
MTEXT
  5
E3
330
E0
100
AcDbEntity
  8
cotas
100
AcDbMText
 10
6669.812020918212
 20
3591.036416238445
 30
0.0
 40
10.0
 41
0.0
 71
     5
 72
     1
  1
R7
  7
SANINDUSA
 11
0.7540401779126876
 21
0.6568282957466149
 31
0.0
 73
     1
 44
1.0
1001
ACAD
1000
MTEXTBEGIN
1070
    73
1070
     1
1070
    44
1040
1.0
1070
    74
1070
     0
1000
MTEXTEND
  0
SOLID
  5
E4
330
E0
100
AcDbEntity
  8
cotas
100
AcDbTrace
 10
6692.665481860038
 20
3599.892000681549
 30
0.0
 11
6694.854909512527
 21
3597.37853342184
 31
0.0
 12
6701.300597465409
 22
3605.203550009161
 32
0.0
 13
6701.300597465409
 23
3605.203550009161
 33
0.0
  0
POINT
  5
E5
330
E0
100
AcDbEntity
  8
Defpoints
 62
     0
100
AcDbPoint
 10
6701.300597465409
 20
3605.203550009161
 30
0.0
  0
POINT
  5
E6
330
E0
100
AcDbEntity
  8
Defpoints
 62
     0
100
AcDbPoint
 10
6696.022316220018
 20
3600.605751938932
 30
0.0
  0
ENDBLK
  5
E7
330
E0
100
AcDbEntity
  8
0
100
AcDbBlockEnd
  0
BLOCK
  5
E9
330
E8
100
AcDbEntity
  8
0
100
AcDbBlockBegin
  2
*D19
 70
     1
 10
0.0
 20
0.0
 30
0.0
  3
*D19
  1

  0
LINE
  5
EA
330
E8
100
AcDbEntity
  8
cotas
100
AcDbLine
 10
6703.68672372113
 20
3562.606514499215
 30
0.0
 11
6704.555347475431
 21
3512.84773283297
 31
0.0
  0
ARC
  5
EB
330
E8
100
AcDbEntity
  8
cotas
100
AcDbCircle
 10
6702.901185867175
 20
3607.605751938932
 30
0.0
 40
89.77245610150765
100
AcDbArc
 50
186.3856383312991
 51
264.6144548974072
  0
SOLID
  5
EC
330
E8
100
AcDbEntity
  8
cotas
100
AcDbTrace
 10
6612.02161388603
 20
3597.528447130263
 30
0.0
 11
6615.349773060714
 21
3597.714101699498
 31
0.0
 12
6613.128729765669
 22
3607.605751938932
 32
0.0
 13
6613.128729765669
 23
3607.605751938932
 33
0.0
  0
SOLID
  5
ED
330
E8
100
AcDbEntity
  8
cotas
100
AcDbTrace
 10
6694.539167732749
 20
3519.895026930036
 30
0.0
 11
6694.411631246065
 21
3516.56413432359
 31
0.0
 12
6704.468077308745
 22
3517.846971166756
 32
0.0
 13
6704.468077308745
 23
3517.846971166756
 33
0.0
  0
MTEXT
  5
EE
330
E8
100
AcDbEntity
  8
cotas
100
AcDbMText
 10
6647.929427510618
 20
3551.665993194573
 30
0.0
 40
10.0
 41
0.0
 71
     5
 72
     1
  1
91,0°
  7
SANINDUSA
 11
0.7132510193954568
 21
-0.7009086840176413
 31
0.0
 73
     1
 44
1.0
1001
ACAD
1000
MTEXTBEGIN
1070
    73
1070
     1
1070
    44
1040
1.0
1070
    74
1070
     0
1000
MTEXTEND
  0
POINT
  5
EF
330
E8
100
AcDbEntity
  8
Defpoints
 62
     0
100
AcDbPoint
 10
6625.418434623459
 20
3562.267940630913
 30
0.0
  0
POINT
  5
F0
330
E8
100
AcDbEntity
  8
Defpoints
 62
     0
100
AcDbPoint
 10
5509.780077845744
 20
3607.605751938932
 30
0.0
  0
POINT
  5
F1
330
E8
100
AcDbEntity
  8
Defpoints
 62
     0
100
AcDbPoint
 10
6703.021250060807
 20
3600.727920234112
 30
0.0
  0
POINT
  5
F2
330
E8
100
AcDbEntity
  8
Defpoints
 62
     0
100
AcDbPoint
 10
6703.599453554443
 20
3567.605752833002
 30
0.0
  0
POINT
  5
F3
330
E8
100
AcDbEntity
  8
Defpoints
 62
     0
100
AcDbPoint
 10
6696.022272692016
 20
3607.605751938932
 30
0.0
  0
ENDBLK
  5
F4
330
E8
100
AcDbEntity
  8
0
100
AcDbBlockEnd
  0
BLOCK
  5
F6
330
F5
100
AcDbEntity
  8
0
100
AcDbBlockBegin
  2
*D20
 70
     1
 10
0.0
 20
0.0
 30
0.0
  3
*D20
  1

  0
LINE
  5
F7
330
F5
100
AcDbEntity
  8
cotas
100
AcDbLine
 10
5102.115688921096
 20
3562.60651435722
 30
0.0
 11
5101.312947789791
 21
3516.617505678693
 31
0.0
  0
ARC
  5
F8
330
F5
100
AcDbEntity
  8
cotas
100
AcDbCircle
 10
5102.901153533667
 20
3607.605751938935
 30
0.0
 40
86.00210632177317
100
AcDbArc
 50
275.6658955430544
 51
353.3341044583944
  0
SOLID
  5
F9
330
F5
100
AcDbEntity
  8
cotas
100
AcDbTrace
 10
5111.459765293751
 20
3520.358522597865
 30
0.0
 11
5111.324077394712
 21
3523.689093105325
 31
0.0
 12
5101.40020982185
 22
3521.616744154478
 32
0.0
 13
5101.40020982185
 23
3521.616744154478
 33
0.0
  0
SOLID
  5
FA
330
F5
100
AcDbEntity
  8
cotas
100
AcDbTrace
 10
5186.658031163314
 20
3597.719563295284
 30
0.0
 11
5189.985726328395
 21
3597.52576959209
 31
0.0
 12
5188.90325985544
 22
3607.605751938935
 32
0.0
 13
5188.90325985544
 23
3607.605751938935
 33
0.0
  0
MTEXT
  5
FB
330
F5
100
AcDbEntity
  8
cotas
100
AcDbMText
 10
5155.230284311742
 20
3554.355241592708
 30
0.0
 40
10.0
 41
0.0
 71
     5
 72
     1
  1
91,0°
  7
SANINDUSA
 11
0.7132504491453208
 21
0.7009092643088679
 31
0.0
 73
     1
 44
1.0
1001
ACAD
1000
MTEXTBEGIN
1070
    73
1070
     1
1070
    44
1040
1.0
1070
    74
1070
     0
1000
MTEXTEND
  0
POINT
  5
FC
330
F5
100
AcDbEntity
  8
Defpoints
 62
     0
100
AcDbPoint
 10
5145.032701168786
 20
3532.630456103233
 30
0.0
  0
POINT
  5
FD
330
F5
100
AcDbEntity
  8
Defpoints
 62
     0
100
AcDbPoint
 10
5102.202950953156
 20
3567.605752833004
 30
0.0
  0
POINT
  5
FE
330
F5
100
AcDbEntity
  8
Defpoints
 62
     0
100
AcDbPoint
 10
5109.78003431775
 20
3607.605751938935
 30
0.0
  0
POINT
  5
FF
330
F5
100
AcDbEntity
  8
Defpoints
 62
     0
100
AcDbPoint
 10
6296.022229164023
 20
3607.605751938935
 30
0.0
  0
POINT
  5
100
330
F5
100
AcDbEntity
  8
Defpoints
 62
     0
100
AcDbPoint
 10
5102.781100511458
 20
3600.727918892977
 30
0.0
  0
ENDBLK
  5
101
330
F5
100
AcDbEntity
  8
0
100
AcDbBlockEnd
  0
BLOCK
  5
103
330
102
100
AcDbEntity
  8
0
100
AcDbBlockBegin
  2
*D21
 70
     1
 10
0.0
 20
0.0
 30
0.0
  3
*D21
  1

  0
LINE
  5
104
330
102
100
AcDbEntity
  8
cotas
100
AcDbLine
 10
6707.901185867176
 20
3607.605751938932
 30
0.0
 11
6738.599453554444
 21
3607.605751938932
 31
0.0
  0
LINE
  5
105
330
102
100
AcDbEntity
  8
cotas
100
AcDbLine
 10
6579.596921796166
 20
3475.660774238687
 30
0.0
 11
6738.599453554444
 21
3475.660774238687
 31
0.0
  0
LINE
  5
106
330
102
100
AcDbEntity
  8
cotas
100
AcDbLine
 10
6733.599453554444
 20
3597.605751938932
 30
0.0
 11
6733.599453554444
 21
3485.660774238687
 31
0.0
  0
SOLID
  5
107
330
102
100
AcDbEntity
  8
cotas
100
AcDbTrace
 10
6731.932786887778
 20
3597.605751938932
 30
0.0
 11
6735.266120221111
 21
3597.605751938932
 31
0.0
 12
6733.599453554444
 22
3607.605751938932
 32
0.0
 13
6733.599453554444
 23
3607.605751938932
 33
0.0
  0
SOLID
  5
108
330
102
100
AcDbEntity
  8
cotas
100
AcDbTrace
 10
6731.932786887778
 20
3485.660774238687
 30
0.0
 11
6735.266120221111
 21
3485.660774238687
 31
0.0
 12
6733.599453554444
 22
3475.660774238687
 32
0.0
 13
6733.599453554444
 23
3475.660774238687
 33
0.0
  0
MTEXT
  5
109
330
102
100
AcDbEntity
  8
cotas
100
AcDbMText
 10
6722.252912251555
 20
3541.63326308881
 30
0.0
 40
10.0
 41
0.0
 71
     5
 72
     1
  1
131,9
  7
SANINDUSA
 11
0.0000000000000001
 21
1.0
 31
0.0
 73
     1
 44
1.0
1001
ACAD
1000
MTEXTBEGIN
1070
    73
1070
     1
1070
    44
1040
1.0
1070
    74
1070
     0
1000
MTEXTEND
  0
POINT
  5
10A
330
102
100
AcDbEntity
  8
Defpoints
 62
     0
100
AcDbPoint
 10
6702.901185867176
 20
3607.605751938932
 30
0.0
  0
POINT
  5
10B
330
102
100
AcDbEntity
  8
Defpoints
 62
     0
100
AcDbPoint
 10
6574.596921796167
 20
3475.660774238687
 30
0.0
  0
POINT
  5
10C
330
102
100
AcDbEntity
  8
Defpoints
 62
     0
100
AcDbPoint
 10
6733.599453554444
 20
3475.660774238687
 30
0.0
  0
ENDBLK
  5
10D
330
102
100
AcDbEntity
  8
0
100
AcDbBlockEnd
  0
BLOCK
  5
10F
330
10E
100
AcDbEntity
  8
0
100
AcDbBlockBegin
  2
*D22
 70
     1
 10
0.0
 20
0.0
 30
0.0
  3
*D22
  1

  0
LINE
  5
110
330
10E
100
AcDbEntity
  8
cotas
100
AcDbLine
 10
6522.876607212239
 20
3005.474170091634
 30
0.0
 11
6522.876607212239
 21
3036.165151794298
 31
0.0
  0
LINE
  5
111
330
10E
100
AcDbEntity
  8
cotas
100
AcDbLine
 10
6342.40532234607
 20
2870.915731385025
 30
0.0
 11
6342.40532234607
 21
3036.165151794298
 31
0.0
  0
LINE
  5
112
330
10E
100
AcDbEntity
  8
cotas
100
AcDbLine
 10
6512.876607212239
 20
3031.165151794298
 30
0.0
 11
6352.405322346069
 21
3031.165151794298
 31
0.0
  0
SOLID
  5
113
330
10E
100
AcDbEntity
  8
cotas
100
AcDbTrace
 10
6512.876607212239
 20
3032.831818460964
 30
0.0
 11
6512.876607212239
 21
3029.498485127631
 31
0.0
 12
6522.876607212239
 22
3031.165151794298
 32
0.0
 13
6522.876607212239
 23
3031.165151794298
 33
0.0
  0
SOLID
  5
114
330
10E
100
AcDbEntity
  8
cotas
100
AcDbTrace
 10
6352.405322346069
 20
3032.831818460964
 30
0.0
 11
6352.405322346069
 21
3029.498485127631
 31
0.0
 12
6342.40532234607
 22
3031.165151794298
 32
0.0
 13
6342.40532234607
 23
3031.165151794298
 33
0.0
  0
MTEXT
  5
115
330
10E
100
AcDbEntity
  8
cotas
100
AcDbMText
 10
6432.640964779155
 20
3042.521766972269
 30
0.0
 40
10.0
 41
0.0
 71
     5
 72
     1
  1
180,5
  7
SANINDUSA
 73
     1
 44
1.0
1001
ACAD
1000
MTEXTBEGIN
1070
    73
1070
     1
1070
    44
1040
1.0
1070
    74
1070
     0
1000
MTEXTEND
  0
POINT
  5
116
330
10E
100
AcDbEntity
  8
Defpoints
 62
     0
100
AcDbPoint
 10
6522.876607212239
 20
3000.474170091634
 30
0.0000000000001709
  0
POINT
  5
117
330
10E
100
AcDbEntity
  8
Defpoints
 62
     0
100
AcDbPoint
 10
6342.40532234607
 20
2865.915731385026
 30
0.0
  0
POINT
  5
118
330
10E
100
AcDbEntity
  8
Defpoints
 62
     0
100
AcDbPoint
 10
6342.40532234607
 20
3031.165151794298
 30
0.0
  0
ENDBLK
  5
119
330
10E
100
AcDbEntity
  8
0
100
AcDbBlockEnd
  0
BLOCK
  5
11B
330
11A
100
AcDbEntity
  8
0
100
AcDbBlockBegin
  2
*D23
 70
     1
 10
0.0
 20
0.0
 30
0.0
  3
*D23
  1

  0
LINE
  5
11C
330
11A
100
AcDbEntity
  8
cotas
100
AcDbLine
 10
6022.574137526263
 20
2870.898370400445
 30
0.0
 11
6022.574137526263
 21
3036.164953674331
 31
0.0
  0
LINE
  5
11D
330
11A
100
AcDbEntity
  8
cotas
100
AcDbLine
 10
5942.586839783855
 20
2870.898370400445
 30
0.0
 11
5942.586839783855
 21
3036.164953674331
 31
0.0
  0
LINE
  5
11E
330
11A
100
AcDbEntity
  8
cotas
100
AcDbLine
 10
6012.574137526264
 20
3031.164953674331
 30
0.0
 11
5952.586839783855
 21
3031.164953674331
 31
0.0
  0
SOLID
  5
11F
330
11A
100
AcDbEntity
  8
cotas
100
AcDbTrace
 10
6012.574137526264
 20
3032.831620340997
 30
0.0
 11
6012.574137526264
 21
3029.498287007664
 31
0.0
 12
6022.574137526263
 22
3031.164953674331
 32
0.0
 13
6022.574137526263
 23
3031.164953674331
 33
0.0
  0
SOLID
  5
120
330
11A
100
AcDbEntity
  8
cotas
100
AcDbTrace
 10
5952.586839783855
 20
3032.831620340997
 30
0.0
 11
5952.586839783855
 21
3029.498287007664
 31
0.0
 12
5942.586839783855
 22
3031.164953674331
 32
0.0
 13
5942.586839783855
 23
3031.164953674331
 33
0.0
  0
MTEXT
  5
121
330
11A
100
AcDbEntity
  8
cotas
100
AcDbMText
 10
5982.580488655059
 20
3041.3932948429
 30
0.0
 40
10.0
 41
0.0
 71
     5
 72
     1
  1
80
  7
SANINDUSA
 73
     1
 44
1.0
1001
ACAD
1000
MTEXTBEGIN
1070
    73
1070
     1
1070
    44
1040
1.0
1070
    74
1070
     0
1000
MTEXTEND
  0
POINT
  5
122
330
11A
100
AcDbEntity
  8
Defpoints
 62
     0
100
AcDbPoint
 10
6022.574137526263
 20
2865.898370400445
 30
0.0
  0
POINT
  5
123
330
11A
100
AcDbEntity
  8
Defpoints
 62
     0
100
AcDbPoint
 10
5942.586839783855
 20
2865.898370400445
 30
0.0
  0
POINT
  5
124
330
11A
100
AcDbEntity
  8
Defpoints
 62
     0
100
AcDbPoint
 10
5942.586839783855
 20
3031.164953674331
 30
0.0
  0
ENDBLK
  5
125
330
11A
100
AcDbEntity
  8
0
100
AcDbBlockEnd
  0
BLOCK
  5
127
330
126
100
AcDbEntity
  8
0
100
AcDbBlockBegin
  2
*D24
 70
     1
 10
0.0
 20
0.0
 30
0.0
  3
*D24
  1

  0
LINE
  5
128
330
126
100
AcDbEntity
  8
cotas
100
AcDbLine
 10
5942.586839783855
 20
2870.898370400445
 30
0.0
 11
5942.586839783855
 21
3036.164953674331
 31
0.0
  0
LINE
  5
129
330
126
100
AcDbEntity
  8
cotas
100
AcDbLine
 10
5862.588011503589
 20
3006.16495367433
 30
0.0
 11
5862.588011503589
 21
3036.164953674331
 31
0.0
  0
LINE
  5
12A
330
126
100
AcDbEntity
  8
cotas
100
AcDbLine
 10
5932.586839783855
 20
3031.164953674331
 30
0.0
 11
5872.58801150359
 21
3031.164953674331
 31
0.0
  0
SOLID
  5
12B
330
126
100
AcDbEntity
  8
cotas
100
AcDbTrace
 10
5932.586839783855
 20
3032.831620340997
 30
0.0
 11
5932.586839783855
 21
3029.498287007664
 31
0.0
 12
5942.586839783855
 22
3031.164953674331
 32
0.0
 13
5942.586839783855
 23
3031.164953674331
 33
0.0
  0
SOLID
  5
12C
330
126
100
AcDbEntity
  8
cotas
100
AcDbTrace
 10
5872.58801150359
 20
3032.831620340997
 30
0.0
 11
5872.58801150359
 21
3029.498287007664
 31
0.0
 12
5862.588011503589
 22
3031.164953674331
 32
0.0
 13
5862.588011503589
 23
3031.164953674331
 33
0.0
  0
MTEXT
  5
12D
330
126
100
AcDbEntity
  8
cotas
100
AcDbMText
 10
5902.587425643722
 20
3041.3932948429
 30
0.0
 40
10.0
 41
0.0
 71
     5
 72
     1
  1
80
  7
SANINDUSA
 73
     1
 44
1.0
1001
ACAD
1000
MTEXTBEGIN
1070
    73
1070
     1
1070
    44
1040
1.0
1070
    74
1070
     0
1000
MTEXTEND
  0
POINT
  5
12E
330
126
100
AcDbEntity
  8
Defpoints
 62
     0
100
AcDbPoint
 10
5942.586839783855
 20
2865.898370400445
 30
0.0
  0
POINT
  5
12F
330
126
100
AcDbEntity
  8
Defpoints
 62
     0
100
AcDbPoint
 10
5862.588011503589
 20
3001.16495367433
 30
-0.0000000000000197
  0
POINT
  5
130
330
126
100
AcDbEntity
  8
Defpoints
 62
     0
100
AcDbPoint
 10
5862.588011503589
 20
3031.164953674331
 30
0.0
  0
ENDBLK
  5
131
330
126
100
AcDbEntity
  8
0
100
AcDbBlockEnd
  0
BLOCK
  5
133
330
132
100
AcDbEntity
  8
0
100
AcDbBlockBegin
  2
*D25
 70
     1
 10
0.0
 20
0.0
 30
0.0
  3
*D25
  1

  0
LINE
  5
134
330
132
100
AcDbEntity
  8
cotas
100
AcDbLine
 10
6427.079783147377
 20
2830.470994267154
 30
0.0000000000001922
 11
6738.599386184592
 21
2830.470994267154
 31
0.0000000000001922
  0
LINE
  5
135
330
132
100
AcDbEntity
  8
cotas
100
AcDbLine
 10
6424.019076639725
 20
2750.49339776358
 30
0.0000000000001922
 11
6738.599386184592
 21
2750.49339776358
 31
0.0000000000001922
  0
LINE
  5
136
330
132
100
AcDbEntity
  8
cotas
100
AcDbLine
 10
6733.599386184592
 20
2820.470994267154
 30
0.0000000000001922
 11
6733.599386184592
 21
2760.493397763581
 31
0.0000000000001922
  0
SOLID
  5
137
330
132
100
AcDbEntity
  8
cotas
100
AcDbTrace
 10
6731.932719517925
 20
2820.470994267154
 30
0.0000000000001922
 11
6735.266052851258
 21
2820.470994267154
 31
0.0000000000001922
 12
6733.599386184592
 22
2830.470994267154
 32
0.0000000000001922
 13
6733.599386184592
 23
2830.470994267154
 33
0.0000000000001922
  0
SOLID
  5
138
330
132
100
AcDbEntity
  8
cotas
100
AcDbTrace
 10
6731.932719517925
 20
2760.493397763581
 30
0.0000000000001922
 11
6735.266052851258
 21
2760.493397763581
 31
0.0000000000001922
 12
6733.599386184592
 22
2750.49339776358
 32
0.0000000000001922
 13
6733.599386184592
 23
2750.49339776358
 33
0.0000000000001922
  0
MTEXT
  5
139
330
132
100
AcDbEntity
  8
cotas
100
AcDbMText
 10
6723.371045016022
 20
2790.482196015368
 30
0.0000000000001922
 40
10.0
 41
0.0
 71
     5
 72
     1
  1
80
  7
SANINDUSA
 11
0.0000000000000001
 21
1.0
 31
0.0
 73
     1
 44
1.0
1001
ACAD
1000
MTEXTBEGIN
1070
    73
1070
     1
1070
    44
1040
1.0
1070
    74
1070
     0
1000
MTEXTEND
  0
POINT
  5
13A
330
132
100
AcDbEntity
  8
Defpoints
 62
     0
100
AcDbPoint
 10
6422.079783147378
 20
2830.470994267154
 30
0.0000000000001922
  0
POINT
  5
13B
330
132
100
AcDbEntity
  8
Defpoints
 62
     0
100
AcDbPoint
 10
6419.019076639725
 20
2750.49339776358
 30
0.0000000000001922
  0
POINT
  5
13C
330
132
100
AcDbEntity
  8
Defpoints
 62
     0
100
AcDbPoint
 10
6733.599386184592
 20
2750.49339776358
 30
0.0000000000001922
  0
ENDBLK
  5
13D
330
132
100
AcDbEntity
  8
0
100
AcDbBlockEnd
  0
BLOCK
  5
13F
330
13E
100
AcDbEntity
  8
0
100
AcDbBlockBegin
  2
*D26
 70
     1
 10
0.0
 20
0.0
 30
0.0
  3
*D26
  1

  0
LINE
  5
140
330
13E
100
AcDbEntity
  8
cotas
100
AcDbLine
 10
6424.019076639725
 20
2750.49339776358
 30
0.0000000000001922
 11
6738.599386184592
 21
2750.49339776358
 31
0.0000000000001922
  0
LINE
  5
141
330
13E
100
AcDbEntity
  8
cotas
100
AcDbLine
 10
6418.999216685389
 20
2670.498518696316
 30
0.0000000000001922
 11
6738.599386184592
 21
2670.498518696316
 31
0.0000000000001922
  0
LINE
  5
142
330
13E
100
AcDbEntity
  8
cotas
100
AcDbLine
 10
6733.599386184592
 20
2740.493397763581
 30
0.0000000000001922
 11
6733.599386184592
 21
2680.498518696316
 31
0.0000000000001922
  0
SOLID
  5
143
330
13E
100
AcDbEntity
  8
cotas
100
AcDbTrace
 10
6731.932719517925
 20
2740.493397763581
 30
0.0000000000001922
 11
6735.266052851258
 21
2740.493397763581
 31
0.0000000000001922
 12
6733.599386184592
 22
2750.49339776358
 32
0.0000000000001922
 13
6733.599386184592
 23
2750.49339776358
 33
0.0000000000001922
  0
SOLID
  5
144
330
13E
100
AcDbEntity
  8
cotas
100
AcDbTrace
 10
6731.932719517925
 20
2680.498518696316
 30
0.0000000000001922
 11
6735.266052851258
 21
2680.498518696316
 31
0.0000000000001922
 12
6733.599386184592
 22
2670.498518696316
 32
0.0000000000001922
 13
6733.599386184592
 23
2670.498518696316
 33
0.0000000000001922
  0
MTEXT
  5
145
330
13E
100
AcDbEntity
  8
cotas
100
AcDbMText
 10
6723.371045016022
 20
2710.495958229949
 30
0.0000000000001922
 40
10.0
 41
0.0
 71
     5
 72
     1
  1
80
  7
SANINDUSA
 11
0.0000000000000001
 21
1.0
 31
0.0
 73
     1
 44
1.0
1001
ACAD
1000
MTEXTBEGIN
1070
    73
1070
     1
1070
    44
1040
1.0
1070
    74
1070
     0
1000
MTEXTEND
  0
POINT
  5
146
330
13E
100
AcDbEntity
  8
Defpoints
 62
     0
100
AcDbPoint
 10
6419.019076639725
 20
2750.49339776358
 30
0.0000000000001922
  0
POINT
  5
147
330
13E
100
AcDbEntity
  8
Defpoints
 62
     0
100
AcDbPoint
 10
6413.999216685389
 20
2670.498518696316
 30
0.0000000000001922
  0
POINT
  5
148
330
13E
100
AcDbEntity
  8
Defpoints
 62
     0
100
AcDbPoint
 10
6733.599386184592
 20
2670.498518696316
 30
0.0000000000001922
  0
ENDBLK
  5
149
330
13E
100
AcDbEntity
  8
0
100
AcDbBlockEnd
  0
BLOCK
  5
14B
330
14A
100
AcDbEntity
  8
0
100
AcDbBlockBegin
  2
*D27
 70
     1
 10
0.0
 20
0.0
 30
0.0
  3
*D27
  1

  0
LINE
  5
14C
330
14A
100
AcDbEntity
  8
cotas
100
AcDbLine
 10
6427.033924902194
 20
2590.477347129731
 30
0.0000000000001922
 11
6738.599386184592
 21
2590.477347129731
 31
0.0000000000001922
  0
LINE
  5
14D
330
14A
100
AcDbEntity
  8
cotas
100
AcDbLine
 10
6418.999216685389
 20
2670.498518696316
 30
0.0000000000001922
 11
6738.599386184592
 21
2670.498518696316
 31
0.0000000000001922
  0
LINE
  5
14E
330
14A
100
AcDbEntity
  8
cotas
100
AcDbLine
 10
6733.599386184592
 20
2600.477347129731
 30
0.0000000000001922
 11
6733.599386184592
 21
2660.498518696316
 31
0.0000000000001922
  0
SOLID
  5
14F
330
14A
100
AcDbEntity
  8
cotas
100
AcDbTrace
 10
6731.932719517925
 20
2600.477347129731
 30
0.0000000000001922
 11
6735.266052851258
 21
2600.477347129731
 31
0.0000000000001922
 12
6733.599386184592
 22
2590.477347129731
 32
0.0000000000001922
 13
6733.599386184592
 23
2590.477347129731
 33
0.0000000000001922
  0
SOLID
  5
150
330
14A
100
AcDbEntity
  8
cotas
100
AcDbTrace
 10
6731.932719517925
 20
2660.498518696316
 30
0.0000000000001922
 11
6735.266052851258
 21
2660.498518696316
 31
0.0000000000001922
 12
6733.599386184592
 22
2670.498518696316
 32
0.0000000000001922
 13
6733.599386184592
 23
2670.498518696316
 33
0.0000000000001922
  0
MTEXT
  5
151
330
14A
100
AcDbEntity
  8
cotas
100
AcDbMText
 10
6723.371045016022
 20
2630.487932913024
 30
0.0000000000001922
 40
10.0
 41
0.0
 71
     5
 72
     1
  1
80
  7
SANINDUSA
 11
0.0000000000000001
 21
1.0
 31
0.0
 73
     1
 44
1.0
1001
ACAD
1000
MTEXTBEGIN
1070
    73
1070
     1
1070
    44
1040
1.0
1070
    74
1070
     0
1000
MTEXTEND
  0
POINT
  5
152
330
14A
100
AcDbEntity
  8
Defpoints
 62
     0
100
AcDbPoint
 10
6422.033924902194
 20
2590.477347129731
 30
0.0000000000001922
  0
POINT
  5
153
330
14A
100
AcDbEntity
  8
Defpoints
 62
     0
100
AcDbPoint
 10
6413.999216685389
 20
2670.498518696316
 30
0.0000000000001922
  0
POINT
  5
154
330
14A
100
AcDbEntity
  8
Defpoints
 62
     0
100
AcDbPoint
 10
6733.599386184592
 20
2670.498518696316
 30
0.0000000000001922
  0
ENDBLK
  5
155
330
14A
100
AcDbEntity
  8
0
100
AcDbBlockEnd
  0
BLOCK
  5
157
330
156
100
AcDbEntity
  8
0
100
AcDbBlockBegin
  2
*D28
 70
     1
 10
0.0
 20
0.0
 30
0.0
  3
*D28
  1

  0
LINE
  5
158
330
156
100
AcDbEntity
  8
cotas
100
AcDbLine
 10
6418.982019147787
 20
2590.481593969212
 30
0.0000000000001922
 11
6738.599386184592
 21
2590.481593969212
 31
0.0000000000001922
  0
LINE
  5
159
330
156
100
AcDbEntity
  8
cotas
100
AcDbLine
 10
6709.222348682864
 20
2550.475064266291
 30
0.0000000000001922
 11
6738.599386184592
 21
2550.475064266291
 31
0.0000000000001922
  0
LINE
  5
15A
330
156
100
AcDbEntity
  8
cotas
100
AcDbLine
 10
6733.599386184592
 20
2580.481593969212
 30
0.0000000000001922
 11
6733.599386184592
 21
2560.47506426629
 31
0.0000000000001922
  0
SOLID
  5
15B
330
156
100
AcDbEntity
  8
cotas
100
AcDbTrace
 10
6731.932719517925
 20
2580.481593969212
 30
0.0000000000001922
 11
6735.266052851258
 21
2580.481593969212
 31
0.0000000000001922
 12
6733.599386184592
 22
2590.481593969212
 32
0.0000000000001922
 13
6733.599386184592
 23
2590.481593969212
 33
0.0000000000001922
  0
SOLID
  5
15C
330
156
100
AcDbEntity
  8
cotas
100
AcDbTrace
 10
6731.932719517925
 20
2560.47506426629
 30
0.0000000000001922
 11
6735.266052851258
 21
2560.47506426629
 31
0.0000000000001922
 12
6733.599386184592
 22
2550.475064266291
 32
0.0000000000001922
 13
6733.599386184592
 23
2550.475064266291
 33
0.0000000000001922
  0
MTEXT
  5
15D
330
156
100
AcDbEntity
  8
cotas
100
AcDbMText
 10
6723.394550724551
 20
2570.478329117752
 30
0.0000000000001922
 40
10.0
 41
0.0
 71
     5
 72
     1
  1
40
  7
SANINDUSA
 11
0.0000000000000001
 21
1.0
 31
0.0
 73
     1
 44
1.0
1001
ACAD
1000
MTEXTBEGIN
1070
    73
1070
     1
1070
    44
1040
1.0
1070
    74
1070
     0
1000
MTEXTEND
  0
POINT
  5
15E
330
156
100
AcDbEntity
  8
Defpoints
 62
     0
100
AcDbPoint
 10
6413.982019147788
 20
2590.481593969212
 30
0.0000000000001922
  0
POINT
  5
15F
330
156
100
AcDbEntity
  8
Defpoints
 62
     0
100
AcDbPoint
 10
6704.222348682865
 20
2550.475064266291
 30
0.0000000000001922
  0
POINT
  5
160
330
156
100
AcDbEntity
  8
Defpoints
 62
     0
100
AcDbPoint
 10
6733.599386184592
 20
2550.475064266291
 30
0.0000000000001922
  0
ENDBLK
  5
161
330
156
100
AcDbEntity
  8
0
100
AcDbBlockEnd
  0
BLOCK
  5
163
330
162
100
AcDbEntity
  8
0
100
AcDbBlockBegin
  2
*D29
 70
     1
 10
0.0
 20
0.0
 30
0.0
  3
*D29
  1

  0
LINE
  5
164
330
162
100
AcDbEntity
  8
cotas
100
AcDbLine
 10
6708.644145214542
 20
2550.475064266289
 30
0.0000000000001922
 11
6738.599386184592
 21
2550.475064266289
 31
0.0000000000001922
  0
LINE
  5
165
330
162
100
AcDbEntity
  8
cotas
100
AcDbLine
 10
6418.98410488573
 20
2510.452630564857
 30
0.0000000000001922
 11
6738.599386184592
 21
2510.452630564857
 31
0.0000000000001922
  0
LINE
  5
166
330
162
100
AcDbEntity
  8
cotas
100
AcDbLine
 10
6733.599386184592
 20
2540.475064266289
 30
0.0000000000001922
 11
6733.599386184592
 21
2520.452630564857
 31
0.0000000000001922
  0
SOLID
  5
167
330
162
100
AcDbEntity
  8
cotas
100
AcDbTrace
 10
6731.932719517925
 20
2540.475064266289
 30
0.0000000000001922
 11
6735.266052851258
 21
2540.475064266289
 31
0.0000000000001922
 12
6733.599386184592
 22
2550.475064266289
 32
0.0000000000001922
 13
6733.599386184592
 23
2550.475064266289
 33
0.0000000000001922
  0
SOLID
  5
168
330
162
100
AcDbEntity
  8
cotas
100
AcDbTrace
 10
6731.932719517925
 20
2520.452630564857
 30
0.0000000000001922
 11
6735.266052851258
 21
2520.452630564857
 31
0.0000000000001922
 12
6733.599386184592
 22
2510.452630564857
 32
0.0000000000001922
 13
6733.599386184592
 23
2510.452630564857
 33
0.0000000000001922
  0
MTEXT
  5
169
330
162
100
AcDbEntity
  8
cotas
100
AcDbMText
 10
6723.394550724551
 20
2530.463847415574
 30
0.0000000000001922
 40
10.0
 41
0.0
 71
     5
 72
     1
  1
40
  7
SANINDUSA
 11
0.0000000000000001
 21
1.0
 31
0.0
 73
     1
 44
1.0
1001
ACAD
1000
MTEXTBEGIN
1070
    73
1070
     1
1070
    44
1040
1.0
1070
    74
1070
     0
1000
MTEXTEND
  0
POINT
  5
16A
330
162
100
AcDbEntity
  8
Defpoints
 62
     0
100
AcDbPoint
 10
6703.644145214543
 20
2550.475064266289
 30
0.0000000000001922
  0
POINT
  5
16B
330
162
100
AcDbEntity
  8
Defpoints
 62
     0
100
AcDbPoint
 10
6413.984104885731
 20
2510.452630564857
 30
0.0000000000001922
  0
POINT
  5
16C
330
162
100
AcDbEntity
  8
Defpoints
 62
     0
100
AcDbPoint
 10
6733.599386184592
 20
2510.452630564857
 30
0.0000000000001922
  0
ENDBLK
  5
16D
330
162
100
AcDbEntity
  8
0
100
AcDbBlockEnd
  0
BLOCK
  5
16F
330
16E
100
AcDbEntity
  8
0
100
AcDbBlockBegin
  2
*D30
 70
     1
 10
0.0
 20
0.0
 30
0.0
  3
*D30
  1

  0
LINE
  5
170
330
16E
100
AcDbEntity
  8
cotas
100
AcDbLine
 10
6418.98410488573
 20
2510.452630564857
 30
0.0000000000001922
 11
6738.599386184592
 21
2510.452630564857
 31
0.0000000000001922
  0
LINE
  5
171
330
16E
100
AcDbEntity
  8
cotas
100
AcDbLine
 10
6418.98410488573
 20
2430.467099907997
 30
0.0000000000001922
 11
6738.599386184592
 21
2430.467099907997
 31
0.0000000000001922
  0
LINE
  5
172
330
16E
100
AcDbEntity
  8
cotas
100
AcDbLine
 10
6733.599386184592
 20
2500.452630564857
 30
0.0000000000001922
 11
6733.599386184592
 21
2440.467099907996
 31
0.0000000000001922
  0
SOLID
  5
173
330
16E
100
AcDbEntity
  8
cotas
100
AcDbTrace
 10
6731.932719517925
 20
2500.452630564857
 30
0.0000000000001922
 11
6735.266052851258
 21
2500.452630564857
 31
0.0000000000001922
 12
6733.599386184592
 22
2510.452630564857
 32
0.0000000000001922
 13
6733.599386184592
 23
2510.452630564857
 33
0.0000000000001922
  0
SOLID
  5
174
330
16E
100
AcDbEntity
  8
cotas
100
AcDbTrace
 10
6731.932719517925
 20
2440.467099907996
 30
0.0000000000001922
 11
6735.266052851258
 21
2440.467099907996
 31
0.0000000000001922
 12
6733.599386184592
 22
2430.467099907997
 32
0.0000000000001922
 13
6733.599386184592
 23
2430.467099907997
 33
0.0000000000001922
  0
MTEXT
  5
175
330
16E
100
AcDbEntity
  8
cotas
100
AcDbMText
 10
6723.371045016022
 20
2470.459865236428
 30
0.0000000000001922
 40
10.0
 41
0.0
 71
     5
 72
     1
  1
80
  7
SANINDUSA
 11
0.0000000000000001
 21
1.0
 31
0.0
 73
     1
 44
1.0
1001
ACAD
1000
MTEXTBEGIN
1070
    73
1070
     1
1070
    44
1040
1.0
1070
    74
1070
     0
1000
MTEXTEND
  0
POINT
  5
176
330
16E
100
AcDbEntity
  8
Defpoints
 62
     0
100
AcDbPoint
 10
6413.984104885731
 20
2510.452630564857
 30
0.0000000000001922
  0
POINT
  5
177
330
16E
100
AcDbEntity
  8
Defpoints
 62
     0
100
AcDbPoint
 10
6413.984104885729
 20
2430.467099907997
 30
0.0000000000001922
  0
POINT
  5
178
330
16E
100
AcDbEntity
  8
Defpoints
 62
     0
100
AcDbPoint
 10
6733.599386184592
 20
2430.467099907997
 30
0.0000000000001922
  0
ENDBLK
  5
179
330
16E
100
AcDbEntity
  8
0
100
AcDbBlockEnd
  0
BLOCK
  5
17B
330
17A
100
AcDbEntity
  8
0
100
AcDbBlockBegin
  2
*D31
 70
     1
 10
0.0
 20
0.0
 30
0.0
  3
*D31
  1

  0
LINE
  5
17C
330
17A
100
AcDbEntity
  8
cotas
100
AcDbLine
 10
6418.98410488573
 20
2430.467099907997
 30
0.0000000000001922
 11
6738.599386184592
 21
2430.467099907997
 31
0.0000000000001922
  0
LINE
  5
17D
330
17A
100
AcDbEntity
  8
cotas
100
AcDbLine
 10
6427.124195554092
 20
2350.463554545444
 30
0.0000000000001922
 11
6738.599386184592
 21
2350.463554545444
 31
0.0000000000001922
  0
LINE
  5
17E
330
17A
100
AcDbEntity
  8
cotas
100
AcDbLine
 10
6733.599386184592
 20
2420.467099907996
 30
0.0000000000001922
 11
6733.599386184592
 21
2360.463554545444
 31
0.0000000000001922
  0
SOLID
  5
17F
330
17A
100
AcDbEntity
  8
cotas
100
AcDbTrace
 10
6731.932719517925
 20
2420.467099907996
 30
0.0000000000001922
 11
6735.266052851258
 21
2420.467099907996
 31
0.0000000000001922
 12
6733.599386184592
 22
2430.467099907997
 32
0.0000000000001922
 13
6733.599386184592
 23
2430.467099907997
 33
0.0000000000001922
  0
SOLID
  5
180
330
17A
100
AcDbEntity
  8
cotas
100
AcDbTrace
 10
6731.932719517925
 20
2360.463554545444
 30
0.0000000000001922
 11
6735.266052851258
 21
2360.463554545444
 31
0.0000000000001922
 12
6733.599386184592
 22
2350.463554545444
 32
0.0000000000001922
 13
6733.599386184592
 23
2350.463554545444
 33
0.0000000000001922
  0
MTEXT
  5
181
330
17A
100
AcDbEntity
  8
cotas
100
AcDbMText
 10
6723.371045016022
 20
2390.465327226721
 30
0.0000000000001922
 40
10.0
 41
0.0
 71
     5
 72
     1
  1
80
  7
SANINDUSA
 11
0.0000000000000001
 21
1.0
 31
0.0
 73
     1
 44
1.0
1001
ACAD
1000
MTEXTBEGIN
1070
    73
1070
     1
1070
    44
1040
1.0
1070
    74
1070
     0
1000
MTEXTEND
  0
POINT
  5
182
330
17A
100
AcDbEntity
  8
Defpoints
 62
     0
100
AcDbPoint
 10
6413.984104885729
 20
2430.467099907997
 30
0.0000000000001922
  0
POINT
  5
183
330
17A
100
AcDbEntity
  8
Defpoints
 62
     0
100
AcDbPoint
 10
6422.124195554092
 20
2350.463554545444
 30
0.0000000000001922
  0
POINT
  5
184
330
17A
100
AcDbEntity
  8
Defpoints
 62
     0
100
AcDbPoint
 10
6733.599386184592
 20
2350.463554545444
 30
0.0000000000001922
  0
ENDBLK
  5
185
330
17A
100
AcDbEntity
  8
0
100
AcDbBlockEnd
  0
BLOCK
  5
187
330
186
100
AcDbEntity
  8
0
100
AcDbBlockBegin
  2
*D32
 70
     1
 10
0.0
 20
0.0
 30
0.0
  3
*D32
  1

  0
LINE
  5
188
330
186
100
AcDbEntity
  8
cotas
100
AcDbLine
 10
6419.072289799686
 20
2350.467801384926
 30
0.0000000000001922
 11
6738.599386184592
 21
2350.467801384926
 31
0.0000000000001922
  0
LINE
  5
189
330
186
100
AcDbEntity
  8
cotas
100
AcDbLine
 10
6427.084290535541
 20
2270.462493105133
 30
0.0000000000001922
 11
6738.599386184592
 21
2270.462493105133
 31
0.0000000000001922
  0
LINE
  5
18A
330
186
100
AcDbEntity
  8
cotas
100
AcDbLine
 10
6733.599386184592
 20
2340.467801384925
 30
0.0000000000001922
 11
6733.599386184592
 21
2280.462493105133
 31
0.0000000000001922
  0
SOLID
  5
18B
330
186
100
AcDbEntity
  8
cotas
100
AcDbTrace
 10
6731.932719517925
 20
2340.467801384925
 30
0.0000000000001922
 11
6735.266052851258
 21
2340.467801384925
 31
0.0000000000001922
 12
6733.599386184592
 22
2350.467801384926
 32
0.0000000000001922
 13
6733.599386184592
 23
2350.467801384926
 33
0.0000000000001922
  0
SOLID
  5
18C
330
186
100
AcDbEntity
  8
cotas
100
AcDbTrace
 10
6731.932719517925
 20
2280.462493105133
 30
0.0000000000001922
 11
6735.266052851258
 21
2280.462493105133
 31
0.0000000000001922
 12
6733.599386184592
 22
2270.462493105133
 32
0.0000000000001922
 13
6733.599386184592
 23
2270.462493105133
 33
0.0000000000001922
  0
MTEXT
  5
18D
330
186
100
AcDbEntity
  8
cotas
100
AcDbMText
 10
6723.371045016022
 20
2310.46514724503
 30
0.0000000000001922
 40
10.0
 41
0.0
 71
     5
 72
     1
  1
80
  7
SANINDUSA
 11
0.0000000000000001
 21
1.0
 31
0.0
 73
     1
 44
1.0
1001
ACAD
1000
MTEXTBEGIN
1070
    73
1070
     1
1070
    44
1040
1.0
1070
    74
1070
     0
1000
MTEXTEND
  0
POINT
  5
18E
330
186
100
AcDbEntity
  8
Defpoints
 62
     0
100
AcDbPoint
 10
6414.072289799685
 20
2350.467801384926
 30
0.0000000000001922
  0
POINT
  5
18F
330
186
100
AcDbEntity
  8
Defpoints
 62
     0
100
AcDbPoint
 10
6422.08429053554
 20
2270.462493105133
 30
0.0000000000001922
  0
POINT
  5
190
330
186
100
AcDbEntity
  8
Defpoints
 62
     0
100
AcDbPoint
 10
6733.599386184592
 20
2270.462493105133
 30
0.0000000000001922
  0
ENDBLK
  5
191
330
186
100
AcDbEntity
  8
0
100
AcDbBlockEnd
  0
BLOCK
  5
193
330
192
100
AcDbEntity
  8
0
100
AcDbBlockBegin
  2
*D33
 70
     1
 10
0.0
 20
0.0
 30
0.0
  3
*D33
  1

  0
LINE
  5
194
330
192
100
AcDbEntity
  8
cotas
100
AcDbLine
 10
6419.032384781134
 20
2270.466739944614
 30
0.0000000000001922
 11
6738.598678378011
 21
2270.466739944614
 31
0.0000000000001922
  0
LINE
  5
195
330
192
100
AcDbEntity
  8
cotas
100
AcDbLine
 10
6703.524080995596
 20
2100.47506426629
 30
0.0000000000001922
 11
6738.598678378011
 21
2100.47506426629
 31
0.0000000000001922
  0
LINE
  5
196
330
192
100
AcDbEntity
  8
cotas
100
AcDbLine
 10
6733.598678378012
 20
2260.466739944615
 30
0.0000000000001922
 11
6733.598678378012
 21
2110.475064266291
 31
0.0000000000001922
  0
SOLID
  5
197
330
192
100
AcDbEntity
  8
cotas
100
AcDbTrace
 10
6731.932011711345
 20
2260.466739944615
 30
0.0000000000001922
 11
6735.265345044679
 21
2260.466739944615
 31
0.0000000000001922
 12
6733.598678378012
 22
2270.466739944614
 32
0.0000000000001922
 13
6733.598678378012
 23
2270.466739944614
 33
0.0000000000001922
  0
SOLID
  5
198
330
192
100
AcDbEntity
  8
cotas
100
AcDbTrace
 10
6731.932011711345
 20
2110.475064266291
 30
0.0000000000001922
 11
6735.265345044679
 21
2110.475064266291
 31
0.0000000000001922
 12
6733.598678378012
 22
2100.47506426629
 32
0.0000000000001922
 13
6733.598678378012
 23
2100.47506426629
 33
0.0000000000001922
  0
MTEXT
  5
199
330
192
100
AcDbEntity
  8
cotas
100
AcDbMText
 10
6723.39384291797
 20
2185.470902105453
 30
0.0000000000001922
 40
10.0
 41
0.0
 71
     5
 72
     1
  1
170
  7
SANINDUSA
 11
0.0000000000000001
 21
1.0
 31
0.0
 73
     1
 44
1.0
1001
ACAD
1000
MTEXTBEGIN
1070
    73
1070
     1
1070
    44
1040
1.0
1070
    74
1070
     0
1000
MTEXTEND
  0
POINT
  5
19A
330
192
100
AcDbEntity
  8
Defpoints
 62
     0
100
AcDbPoint
 10
6414.032384781134
 20
2270.466739944614
 30
0.0000000000001922
  0
POINT
  5
19B
330
192
100
AcDbEntity
  8
Defpoints
 62
     0
100
AcDbPoint
 10
6698.524080995596
 20
2100.47506426629
 30
0.0000000000001922
  0
POINT
  5
19C
330
192
100
AcDbEntity
  8
Defpoints
 62
     0
100
AcDbPoint
 10
6733.598678378012
 20
2100.47506426629
 30
0.0000000000001922
  0
ENDBLK
  5
19D
330
192
100
AcDbEntity
  8
0
100
AcDbBlockEnd
  0
BLOCK
  5
19F
330
19E
100
AcDbEntity
  8
0
100
AcDbBlockBegin
  2
*D34
 70
     1
 10
0.0
 20
0.0
 30
0.0
  3
*D34
  1

  0
LINE
  5
1A0
330
19E
100
AcDbEntity
  8
cotas
100
AcDbLine
 10
5141.482508490658
 20
2136.599937137966
 30
0.0
 11
5172.420517445042
 21
2169.004382734107
 31
0.0
  0
MTEXT
  5
1A1
330
19E
100
AcDbEntity
  8
cotas
100
AcDbMText
 10
5146.1153407339
 20
2156.235028151348
 30
0.0
 40
10.0
 41
0.0
 71
     5
 72
     1
  1
R20
  7
SANINDUSA
 11
0.6905515714747068
 21
0.7232831583369083
 31
0.0
 73
     1
 44
1.0
1001
ACAD
1000
MTEXTBEGIN
1070
    73
1070
     1
1070
    44
1040
1.0
1070
    74
1070
     0
1000
MTEXTEND
  0
LINE
  5
1A2
330
19E
100
AcDbEntity
  8
cotas
100
AcDbLine
 10
5193.137064589282
 20
2190.702877484214
 30
0.0
 11
5179.326033159789
 21
2176.237214317476
 31
0.0
  0
SOLID
  5
1A3
330
19E
100
AcDbEntity
  8
cotas
100
AcDbTrace
 10
5171.21504551448
 20
2170.155302019898
 30
0.0
 11
5173.625989375604
 21
2167.853463448317
 31
0.0
 12
5179.326033159789
 22
2176.237214317476
 32
0.0
 13
5179.326033159789
 23
2176.237214317476
 33
0.0
  0
POINT
  5
1A4
330
19E
100
AcDbEntity
  8
Defpoints
 62
     0
100
AcDbPoint
 10
5179.326033159789
 20
2176.237214317476
 30
0.0
  0
POINT
  5
1A5
330
19E
100
AcDbEntity
  8
Defpoints
 62
     0
100
AcDbPoint
 10
5193.137064589282
 20
2190.702877484214
 30
0.0
  0
ENDBLK
  5
1A6
330
19E
100
AcDbEntity
  8
0
100
AcDbBlockEnd
  0
BLOCK
  5
1A8
330
1A7
100
AcDbEntity
  8
0
100
AcDbBlockBegin
  2
*D35
 70
     1
 10
0.0
 20
0.0
 30
0.0
  3
*D35
  1

  0
LINE
  5
1A9
330
1A7
100
AcDbEntity
  8
cotas
100
AcDbLine
 10
5247.558469593807
 20
2248.165206926682
 30
0.0
 11
5215.055754200449
 21
2217.330454057343
 31
0.0
  0
MTEXT
  5
1AA
330
1A7
100
AcDbEntity
  8
cotas
100
AcDbMText
 10
5227.911049031799
 20
2243.59243393249
 30
0.0
 40
10.0
 41
0.0
 71
     5
 72
     1
  1
R10
  7
SANINDUSA
 11
0.7254765885281058
 21
0.688246844887517
 31
0.0
 73
     1
 44
1.0
1001
ACAD
1000
MTEXTBEGIN
1070
    73
1070
     1
1070
    44
1040
1.0
1070
    74
1070
     0
1000
MTEXTEND
  0
SOLID
  5
1AB
330
1A7
100
AcDbEntity
  8
cotas
100
AcDbTrace
 10
5213.908676125637
 20
2218.539581704889
 30
0.0
 11
5216.202832275261
 21
2216.121326409796
 31
0.0
 12
5207.800988315168
 22
2210.447985608468
 32
0.0
 13
5207.800988315168
 23
2210.447985608468
 33
0.0
  0
POINT
  5
1AC
330
1A7
100
AcDbEntity
  8
Defpoints
 62
     0
100
AcDbPoint
 10
5207.800988315168
 20
2210.447985608468
 30
0.0
  0
POINT
  5
1AD
330
1A7
100
AcDbEntity
  8
Defpoints
 62
     0
100
AcDbPoint
 10
5215.055754200441
 20
2217.330454057334
 30
0.0
  0
ENDBLK
  5
1AE
330
1A7
100
AcDbEntity
  8
0
100
AcDbBlockEnd
  0
BLOCK
  5
1B0
330
1AF
100
AcDbEntity
  8
0
100
AcDbBlockBegin
  2
*D36
 70
     1
 10
0.0
 20
0.0
 30
0.0
  3
*D36
  1

  0
LINE
  5
1B1
330
1AF
100
AcDbEntity
  8
cotas
100
AcDbLine
 10
5622.928906870265
 20
2246.16202925537
 30
0.0
 11
5657.844482559426
 21
2218.088713335276
 31
0.0
  0
MTEXT
  5
1B2
330
1AF
100
AcDbEntity
  8
cotas
100
AcDbMText
 10
5642.884484767312
 20
2243.211385530399
 30
0.0
 40
10.0
 41
0.0
 71
     5
 72
     1
  1
R10
  7
SANINDUSA
 11
0.7793328166865504
 21
-0.6266102144359027
 31
0.0
 73
     1
 44
1.0
1001
ACAD
1000
MTEXTBEGIN
1070
    73
1070
     1
1070
    44
1040
1.0
1070
    74
1070
     0
1000
MTEXTEND
  0
SOLID
  5
1B3
330
1AF
100
AcDbEntity
  8
cotas
100
AcDbTrace
 10
5658.88883291682
 20
2219.387601363086
 30
0.0
 11
5656.800132202033
 21
2216.789825307464
 31
0.0
 12
5665.637810726292
 22
2211.822611190916
 32
0.0
 13
5665.637810726292
 23
2211.822611190916
 33
0.0
  0
POINT
  5
1B4
330
1AF
100
AcDbEntity
  8
Defpoints
 62
     0
100
AcDbPoint
 10
5665.637810726292
 20
2211.822611190916
 30
0.0
  0
POINT
  5
1B5
330
1AF
100
AcDbEntity
  8
Defpoints
 62
     0
100
AcDbPoint
 10
5657.844482559426
 20
2218.088713335276
 30
0.0
  0
ENDBLK
  5
1B6
330
1AF
100
AcDbEntity
  8
0
100
AcDbBlockEnd
  0
BLOCK
  5
1B8
330
1B7
100
AcDbEntity
  8
0
100
AcDbBlockBegin
  2
*D37
 70
     1
 10
0.0
 20
0.0
 30
0.0
  3
*D37
  1

  0
LINE
  5
1B9
330
1B7
100
AcDbEntity
  8
cotas
100
AcDbLine
 10
5139.857203620533
 20
2962.758551969
 30
0.0
 11
5171.768673438113
 21
2931.312302804171
 31
0.0
  0
MTEXT
  5
1BA
330
1B7
100
AcDbEntity
  8
cotas
100
AcDbMText
 10
5159.416627549163
 20
2957.815995011521
 30
0.0
 40
10.0
 41
0.0
 71
     5
 72
     1
  1
R20
  7
SANINDUSA
 11
0.7122796965728839
 21
-0.7018957428635969
 31
0.0
 73
     1
 44
1.0
1001
ACAD
1000
MTEXTBEGIN
1070
    73
1070
     1
1070
    44
1040
1.0
1070
    74
1070
     0
1000
MTEXTEND
  0
LINE
  5
1BB
330
1B7
100
AcDbEntity
  8
cotas
100
AcDbLine
 10
5193.1370643353
 20
2910.255430518262
 30
0.0
 11
5178.891470403842
 21
2924.293345375535
 31
0.0
  0
SOLID
  5
1BC
330
1B7
100
AcDbEntity
  8
cotas
100
AcDbTrace
 10
5172.938499676219
 20
2932.499435631793
 30
0.0
 11
5170.598847200007
 21
2930.125169976549
 31
0.0
 12
5178.891470403842
 22
2924.293345375535
 32
0.0
 13
5178.891470403842
 23
2924.293345375535
 33
0.0
  0
POINT
  5
1BD
330
1B7
100
AcDbEntity
  8
Defpoints
 62
     0
100
AcDbPoint
 10
5178.891470403842
 20
2924.293345375535
 30
0.0
  0
POINT
  5
1BE
330
1B7
100
AcDbEntity
  8
Defpoints
 62
     0
100
AcDbPoint
 10
5193.1370643353
 20
2910.255430518262
 30
0.0
  0
ENDBLK
  5
1BF
330
1B7
100
AcDbEntity
  8
0
100
AcDbBlockEnd
  0
BLOCK
  5
1C1
330
1C0
100
AcDbEntity
  8
0
100
AcDbBlockBegin
  2
*D38
 70
     1
 10
0.0
 20
0.0
 30
0.0
  3
*D38
  1

  0
LINE
  5
1C2
330
1C0
100
AcDbEntity
  8
cotas
100
AcDbLine
 10
5244.225519024161
 20
2849.598383241789
 30
0.0
 11
5215.055965547189
 21
2883.603465838497
 31
0.0
  0
MTEXT
  5
1C3
330
1C0
100
AcDbEntity
  8
cotas
100
AcDbMText
 10
5240.641709992061
 20
2869.45002550177
 30
0.0
 40
10.0
 41
0.0
 71
     5
 72
     1
  1
R10
  7
SANINDUSA
 11
0.6510787757039557
 21
-0.7590101631914019
 31
0.0
 73
     1
 44
1.0
1001
ACAD
1000
MTEXTBEGIN
1070
    73
1070
     1
1070
    44
1040
1.0
1070
    74
1070
     0
1000
MTEXTEND
  0
SOLID
  5
1C4
330
1C0
100
AcDbEntity
  8
cotas
100
AcDbTrace
 10
5216.320982485841
 20
2884.688597131338
 30
0.0
 11
5213.790948608536
 21
2882.518334545657
 31
0.0
 12
5208.545177790149
 22
2891.193567470411
 32
0.0
 13
5208.545177790149
 23
2891.193567470411
 33
0.0
  0
POINT
  5
1C5
330
1C0
100
AcDbEntity
  8
Defpoints
 62
     0
100
AcDbPoint
 10
5208.545177790149
 20
2891.193567470411
 30
0.0
  0
POINT
  5
1C6
330
1C0
100
AcDbEntity
  8
Defpoints
 62
     0
100
AcDbPoint
 10
5215.055965547189
 20
2883.603465838497
 30
0.0
  0
ENDBLK
  5
1C7
330
1C0
100
AcDbEntity
  8
0
100
AcDbBlockEnd
  0
BLOCK
  5
1C9
330
1C8
100
AcDbEntity
  8
0
100
AcDbBlockBegin
  2
*D39
 70
     1
 10
0.0
 20
0.0
 30
0.0
  3
*D39
  1

  0
LINE
  5
1CA
330
1C8
100
AcDbEntity
  8
cotas
100
AcDbLine
 10
6663.415638894739
 20
2135.179175620556
 30
0.0000000000001922
 11
6633.399571500021
 21
2168.439425027478
 31
0.0000000000001922
  0
MTEXT
  5
1CB
330
1C8
100
AcDbEntity
  8
cotas
100
AcDbMText
 10
6659.335883007887
 20
2154.936592597517
 30
0.0000000000001922
 40
10.0
 41
0.0
 71
     5
 72
     1
  1
R20
  7
SANINDUSA
 11
0.6699733825623449
 21
-0.7423851201754854
 31
0.0
 73
     1
 44
1.0
1001
ACAD
1000
MTEXTBEGIN
1070
    73
1070
     1
1070
    44
1040
1.0
1070
    74
1070
     0
1000
MTEXTEND
  0
LINE
  5
1CC
330
1C8
100
AcDbEntity
  8
cotas
100
AcDbLine
 10
6613.300370023153
 20
2190.710978632741
 30
0.0000000000001922
 11
6626.699837674398
 21
2175.863276229233
 31
0.0000000000001922
  0
SOLID
  5
1CD
330
1C8
100
AcDbEntity
  8
cotas
100
AcDbTrace
 10
6634.636880033648
 20
2169.556047331749
 30
0.0000000000001922
 11
6632.162262966395
 21
2167.322802723208
 31
0.0000000000001922
 12
6626.699837674398
 22
2175.863276229233
 32
0.0000000000001922
 13
6626.699837674398
 23
2175.863276229233
 33
0.0000000000001922
  0
POINT
  5
1CE
330
1C8
100
AcDbEntity
  8
Defpoints
 62
     0
100
AcDbPoint
 10
6626.699837674398
 20
2175.863276229233
 30
0.0000000000001922
  0
POINT
  5
1CF
330
1C8
100
AcDbEntity
  8
Defpoints
 62
     0
100
AcDbPoint
 10
6613.300370023153
 20
2190.710978632741
 30
0.0000000000001922
  0
ENDBLK
  5
1D0
330
1C8
100
AcDbEntity
  8
0
100
AcDbBlockEnd
  0
BLOCK
  5
1D2
330
1D1
100
AcDbEntity
  8
0
100
AcDbBlockBegin
  2
*D40
 70
     1
 10
0.0
 20
0.0
 30
0.0
  3
*D40
  1

  0
LINE
  5
1D3
330
1D1
100
AcDbEntity
  8
cotas
100
AcDbLine
 10
6666.721223497996
 20
2962.610755981571
 30
0.0000000000001922
 11
6634.718012455701
 21
2931.257877717571
 31
0.0000000000001922
  0
MTEXT
  5
1D4
330
1D1
100
AcDbEntity
  8
cotas
100
AcDbMText
 10
6647.147442240035
 20
2957.725367464447
 30
0.0000000000001922
 40
10.0
 41
0.0
 71
     5
 72
     1
  1
R20
  7
SANINDUSA
 11
0.714327405815875
 21
0.6998116584484446
 31
0.0
 73
     1
 44
1.0
1001
ACAD
1000
MTEXTBEGIN
1070
    73
1070
     1
1070
    44
1040
1.0
1070
    74
1070
     0
1000
MTEXTEND
  0
LINE
  5
1D5
330
1D1
100
AcDbEntity
  8
cotas
100
AcDbLine
 10
6613.288190281224
 20
2910.263527964117
 30
0.0000000000001922
 11
6627.574738397543
 21
2924.259761133088
 31
0.0000000000001922
  0
SOLID
  5
1D6
330
1D1
100
AcDbEntity
  8
cotas
100
AcDbTrace
 10
6633.551659691621
 20
2932.448423393931
 30
0.0000000000001922
 11
6635.884365219782
 21
2930.067332041211
 31
0.0000000000001922
 12
6627.574738397543
 22
2924.259761133088
 32
0.0000000000001922
 13
6627.574738397543
 23
2924.259761133088
 33
0.0000000000001922
  0
POINT
  5
1D7
330
1D1
100
AcDbEntity
  8
Defpoints
 62
     0
100
AcDbPoint
 10
6627.574738397543
 20
2924.259761133088
 30
0.0000000000001922
  0
POINT
  5
1D8
330
1D1
100
AcDbEntity
  8
Defpoints
 62
     0
100
AcDbPoint
 10
6613.288190281224
 20
2910.263527964117
 30
0.0000000000001922
  0
ENDBLK
  5
1D9
330
1D1
100
AcDbEntity
  8
0
100
AcDbBlockEnd
  0
BLOCK
  5
1DB
330
1DA
100
AcDbEntity
  8
0
100
AcDbBlockBegin
  2
*D41
 70
     1
 10
0.0
 20
0.0
 30
0.0
  3
*D41
  1

  0
LINE
  5
1DC
330
1DA
100
AcDbEntity
  8
cotas
100
AcDbLine
 10
6414.701210162021
 20
2638.51774381356
 30
-0.0000000000001922
 11
6457.717058397952
 21
2603.50063591971
 31
-0.0000000000001922
  0
LINE
  5
1DD
330
1DA
100
AcDbEntity
  8
cotas
100
AcDbLine
 10
6587.982467761043
 20
2497.457907911996
 30
-0.0000000000001922
 11
6595.737716341173
 21
2491.144737594289
 31
-0.0000000000001922
  0
MTEXT
  5
1DE
330
1DA
100
AcDbEntity
  8
cotas
100
AcDbMText
 10
6439.212823237496
 20
2632.618943894227
 30
-0.0000000000001922
 40
10.0
 41
0.0
 71
     5
 72
     1
  1
\U+2205148
  7
SANINDUSA
 11
0.7755248580130877
 21
-0.6313170317707105
 31
0.0
 73
     1
 44
1.0
1001
ACAD
1000
MTEXTBEGIN
1070
    73
1070
     1
1070
    44
1040
1.0
1070
    74
1070
     0
1000
MTEXTEND
  0
LINE
  5
1DF
330
1DA
100
AcDbEntity
  8
cotas
100
AcDbLine
 10
6580.227219180912
 20
2503.771078229704
 30
-0.0000000000001922
 11
6465.472306978083
 21
2597.187465602003
 31
-0.0000000000001922
  0
SOLID
  5
1E0
330
1DA
100
AcDbEntity
  8
cotas
100
AcDbTrace
 10
6589.034662813993
 20
2498.750449342018
 30
-0.0000000000001922
 11
6586.930272708091
 21
2496.165366481974
 31
-0.0000000000001922
 12
6580.227219180912
 22
2503.771078229704
 32
-0.0000000000001922
 13
6580.227219180912
 23
2503.771078229704
 33
-0.0000000000001922
  0
SOLID
  5
1E1
330
1DA
100
AcDbEntity
  8
cotas
100
AcDbTrace
 10
6458.769253450903
 20
2604.793177349731
 30
-0.0000000000001922
 11
6456.664863345
 21
2602.208094489687
 31
-0.0000000000001922
 12
6465.472306978083
 22
2597.187465602003
 32
-0.0000000000001922
 13
6465.472306978083
 23
2597.187465602003
 33
-0.0000000000001922
  0
POINT
  5
1E2
330
1DA
100
AcDbEntity
  8
Defpoints
 62
     0
100
AcDbPoint
 10
6465.472306978083
 20
2597.187465602003
 30
-0.0000000000001922
  0
POINT
  5
1E3
330
1DA
100
AcDbEntity
  8
Defpoints
 62
     0
100
AcDbPoint
 10
6580.227219180912
 20
2503.771078229704
 30
-0.0000000000001922
  0
ENDBLK
  5
1E4
330
1DA
100
AcDbEntity
  8
0
100
AcDbBlockEnd
  0
BLOCK
  5
1E6
330
1E5
100
AcDbEntity
  8
0
100
AcDbBlockBegin
  2
*D42
 70
     1
 10
0.0
 20
0.0
 30
0.0
  3
*D42
  1

  0
LINE
  5
1E7
330
1E5
100
AcDbEntity
  8
cotas
100
AcDbLine
 10
4016.766173853548
 20
3612.605751938935
 30
0.0
 11
4016.766173853548
 21
3642.605751938936
 31
0.0
  0
LINE
  5
1E8
330
1E5
100
AcDbEntity
  8
cotas
100
AcDbLine
 10
4916.766177511362
 20
3612.605751938935
 30
0.0
 11
4916.766177511362
 21
3642.605751938936
 31
0.0
  0
LINE
  5
1E9
330
1E5
100
AcDbEntity
  8
cotas
100
AcDbLine
 10
4026.766173853547
 20
3637.605751938935
 30
0.0
 11
4906.766177511362
 21
3637.605751938935
 31
0.0
  0
SOLID
  5
1EA
330
1E5
100
AcDbEntity
  8
cotas
100
AcDbTrace
 10
4026.766173853547
 20
3639.272418605602
 30
0.0
 11
4026.766173853547
 21
3635.939085272269
 31
0.0
 12
4016.766173853548
 22
3637.605751938935
 32
0.0
 13
4016.766173853548
 23
3637.605751938935
 33
0.0
  0
SOLID
  5
1EB
330
1E5
100
AcDbEntity
  8
cotas
100
AcDbTrace
 10
4906.766177511362
 20
3639.272418605602
 30
0.0
 11
4906.766177511362
 21
3635.939085272269
 31
0.0
 12
4916.766177511362
 22
3637.605751938935
 32
0.0
 13
4916.766177511362
 23
3637.605751938935
 33
0.0
  0
MTEXT
  5
1EC
330
1E5
100
AcDbEntity
  8
cotas
100
AcDbMText
 10
4466.766175682454
 20
3647.810587398975
 30
0.0
 40
10.0
 41
0.0
 71
     5
 72
     1
  1
900
  7
SANINDUSA
 73
     1
 44
1.0
1001
ACAD
1000
MTEXTBEGIN
1070
    73
1070
     1
1070
    44
1040
1.0
1070
    74
1070
     0
1000
MTEXTEND
  0
POINT
  5
1ED
330
1E5
100
AcDbEntity
  8
Defpoints
 62
     0
100
AcDbPoint
 10
4016.766173853548
 20
3607.605751938935
 30
0.0
  0
POINT
  5
1EE
330
1E5
100
AcDbEntity
  8
Defpoints
 62
     0
100
AcDbPoint
 10
4916.766177511362
 20
3607.605751938935
 30
0.0
  0
POINT
  5
1EF
330
1E5
100
AcDbEntity
  8
Defpoints
 62
     0
100
AcDbPoint
 10
4916.766177511362
 20
3637.605751938935
 30
0.0
  0
ENDBLK
  5
1F0
330
1E5
100
AcDbEntity
  8
0
100
AcDbBlockEnd
  0
BLOCK
  5
1F2
330
1F1
100
AcDbEntity
  8
0
100
AcDbBlockBegin
  2
*D43
 70
     1
 10
0.0
 20
0.0
 30
0.0
  3
*D43
  1

  0
LINE
  5
1F3
330
1F1
100
AcDbEntity
  8
cotas
100
AcDbLine
 10
5172.901153809993
 20
4497.36027905218
 30
0.0
 11
5172.901153809993
 21
4527.360279052181
 31
0.0
  0
LINE
  5
1F4
330
1F1
100
AcDbEntity
  8
cotas
100
AcDbLine
 10
5102.901153533665
 20
4497.36027905218
 30
0.0
 11
5102.901153533665
 21
4527.360279052181
 31
0.0
  0
LINE
  5
1F5
330
1F1
100
AcDbEntity
  8
cotas
100
AcDbLine
 10
5162.901153809993
 20
4522.360279052181
 30
0.0
 11
5112.901153533665
 21
4522.360279052181
 31
0.0
  0
SOLID
  5
1F6
330
1F1
100
AcDbEntity
  8
cotas
100
AcDbTrace
 10
5162.901153809993
 20
4524.026945718848
 30
0.0
 11
5162.901153809993
 21
4520.693612385513
 31
0.0
 12
5172.901153809993
 22
4522.360279052181
 32
0.0
 13
5172.901153809993
 23
4522.360279052181
 33
0.0
  0
SOLID
  5
1F7
330
1F1
100
AcDbEntity
  8
cotas
100
AcDbTrace
 10
5112.901153533665
 20
4524.026945718848
 30
0.0
 11
5112.901153533665
 21
4520.693612385513
 31
0.0
 12
5102.901153533665
 22
4522.360279052181
 32
0.0
 13
5102.901153533665
 23
4522.360279052181
 33
0.0
  0
MTEXT
  5
1F8
330
1F1
100
AcDbEntity
  8
cotas
100
AcDbMText
 10
5137.901153671829
 20
4532.56511451222
 30
0.0
 40
10.0
 41
0.0
 71
     5
 72
     1
  1
70
  7
SANINDUSA
 73
     1
 44
1.0
1001
ACAD
1000
MTEXTBEGIN
1070
    73
1070
     1
1070
    44
1040
1.0
1070
    74
1070
     0
1000
MTEXTEND
  0
POINT
  5
1F9
330
1F1
100
AcDbEntity
  8
Defpoints
 62
     0
100
AcDbPoint
 10
5172.901153809993
 20
4492.360279052181
 30
0.0
  0
POINT
  5
1FA
330
1F1
100
AcDbEntity
  8
Defpoints
 62
     0
100
AcDbPoint
 10
5102.901153533665
 20
4492.36027905218
 30
0.0
  0
POINT
  5
1FB
330
1F1
100
AcDbEntity
  8
Defpoints
 62
     0
100
AcDbPoint
 10
5102.901153533665
 20
4522.360279052181
 30
0.0
  0
ENDBLK
  5
1FC
330
1F1
100
AcDbEntity
  8
0
100
AcDbBlockEnd
  0
BLOCK
  5
1FE
330
1FD
100
AcDbEntity
  8
0
100
AcDbBlockBegin
  2
*D44
 70
     1
 10
0.0
 20
0.0
 30
0.0
  3
*D44
  1

  0
LINE
  5
1FF
330
1FD
100
AcDbEntity
  8
cotas
100
AcDbLine
 10
5172.901153809993
 20
4497.36027905218
 30
0.0
 11
5172.901153809993
 21
4527.360279052181
 31
0.0
  0
LINE
  5
200
330
1FD
100
AcDbEntity
  8
cotas
100
AcDbLine
 10
5205.30795463582
 20
4437.785628964117
 30
0.0
 11
5205.30795463582
 21
4527.360279052181
 31
0.0
  0
LINE
  5
201
330
1FD
100
AcDbEntity
  8
cotas
100
AcDbLine
 10
5182.901153809993
 20
4522.360279052181
 30
0.0
 11
5195.30795463582
 21
4522.360279052181
 31
0.0
  0
LINE
  5
202
330
1FD
100
AcDbEntity
  8
cotas
100
AcDbLine
 10
5205.30795463582
 20
4522.360279052181
 30
0.0
 11
5254.757249464565
 21
4522.360279052181
 31
0.0
  0
SOLID
  5
203
330
1FD
100
AcDbEntity
  8
cotas
100
AcDbTrace
 10
5182.901153809993
 20
4524.026945718848
 30
0.0
 11
5182.901153809993
 21
4520.693612385513
 31
0.0
 12
5172.901153809993
 22
4522.360279052181
 32
0.0
 13
5172.901153809993
 23
4522.360279052181
 33
0.0
  0
SOLID
  5
204
330
1FD
100
AcDbEntity
  8
cotas
100
AcDbTrace
 10
5195.30795463582
 20
4524.026945718848
 30
0.0
 11
5195.30795463582
 21
4520.693612385513
 31
0.0
 12
5205.30795463582
 22
4522.360279052181
 32
0.0
 13
5205.30795463582
 23
4522.360279052181
 33
0.0
  0
MTEXT
  5
205
330
1FD
100
AcDbEntity
  8
cotas
100
AcDbMText
 10
5235.032602050193
 20
4533.706820355069
 30
0.0
 40
10.0
 41
0.0
 71
     5
 72
     1
  1
32,4
  7
SANINDUSA
 73
     1
 44
1.0
1001
ACAD
1000
MTEXTBEGIN
1070
    73
1070
     1
1070
    44
1040
1.0
1070
    74
1070
     0
1000
MTEXTEND
  0
POINT
  5
206
330
1FD
100
AcDbEntity
  8
Defpoints
 62
     0
100
AcDbPoint
 10
5172.901153809993
 20
4492.360279052181
 30
0.0
  0
POINT
  5
207
330
1FD
100
AcDbEntity
  8
Defpoints
 62
     0
100
AcDbPoint
 10
5205.30795463582
 20
4432.785628964117
 30
0.0
  0
POINT
  5
208
330
1FD
100
AcDbEntity
  8
Defpoints
 62
     0
100
AcDbPoint
 10
5205.30795463582
 20
4522.360279052181
 30
0.0
  0
ENDBLK
  5
209
330
1FD
100
AcDbEntity
  8
0
100
AcDbBlockEnd
  0
BLOCK
  5
20B
330
20A
100
AcDbEntity
  8
0
100
AcDbBlockBegin
  2
*D45
 70
     1
 10
0.0
 20
0.0
 30
0.0
  3
*D45
  1

  0
LINE
  5
20C
330
20A
100
AcDbEntity
  8
cotas
100
AcDbLine
 10
5205.395216714305
 20
4437.78486743909
 30
0.0
 11
5205.807292128711
 21
4461.39263959039
 31
0.0
  0
LINE
  5
20D
330
20A
100
AcDbEntity
  8
cotas
100
AcDbLine
 10
5655.32667946195
 20
4429.931280375565
 30
0.0
 11
5655.738754876356
 21
4453.539052526865
 31
0.0
  0
LINE
  5
20E
330
20A
100
AcDbEntity
  8
cotas
100
AcDbLine
 10
5215.718507000175
 20
4456.218876958449
 30
0.0
 11
5645.653015847924
 21
4448.714338208858
 31
0.0
  0
SOLID
  5
20F
330
20A
100
AcDbEntity
  8
cotas
100
AcDbTrace
 10
5215.747594359669
 20
4457.885289783441
 30
0.0
 11
5215.68941964068
 21
4454.552464133458
 31
0.0
 12
5205.720030050227
 22
4456.393401115415
 32
0.0
 13
5205.720030050227
 23
4456.393401115415
 33
0.0
  0
SOLID
  5
210
330
20A
100
AcDbEntity
  8
cotas
100
AcDbTrace
 10
5645.682103207419
 20
4450.38075103385
 30
0.0
 11
5645.623928488429
 21
4447.047925383866
 31
0.0
 12
5655.651492797872
 22
4448.539814051891
 32
0.0
 13
5655.651492797872
 23
4448.539814051891
 33
0.0
  0
MTEXT
  5
211
330
20A
100
AcDbEntity
  8
cotas
100
AcDbMText
 10
5430.863860454616
 20
4462.669888796176
 30
0.0
 40
10.0
 41
0.0
 71
     5
 72
     1
  1
450
  7
SANINDUSA
 11
0.999847694994767
 21
-0.0174524156967227
 31
0.0
 73
     1
 44
1.0
1001
ACAD
1000
MTEXTBEGIN
1070
    73
1070
     1
1070
    44
1040
1.0
1070
    74
1070
     0
1000
MTEXTEND
  0
POINT
  5
212
330
20A
100
AcDbEntity
  8
Defpoints
 62
     0
100
AcDbPoint
 10
5205.307954635821
 20
4432.785628964117
 30
0.0
  0
POINT
  5
213
330
20A
100
AcDbEntity
  8
Defpoints
 62
     0
100
AcDbPoint
 10
5655.239417383466
 20
4424.932041900592
 30
0.0
  0
POINT
  5
214
330
20A
100
AcDbEntity
  8
Defpoints
 62
     0
100
AcDbPoint
 10
5655.651492797872
 20
4448.539814051891
 30
0.0
  0
ENDBLK
  5
215
330
20A
100
AcDbEntity
  8
0
100
AcDbBlockEnd
  0
BLOCK
  5
217
330
216
100
AcDbEntity
  8
0
100
AcDbBlockBegin
  2
*D46
 70
     1
 10
0.0
 20
0.0
 30
0.0
  3
*D46
  1

  0
LINE
  5
218
330
216
100
AcDbEntity
  8
cotas
100
AcDbLine
 10
5660.239417383465
 20
4424.932041900592
 30
0.0
 11
5709.725183057922
 21
4424.932041900592
 31
0.0
  0
LINE
  5
219
330
216
100
AcDbEntity
  8
cotas
100
AcDbLine
 10
5660.239417383465
 20
4402.913226216478
 30
0.0
 11
5709.725183057922
 21
4402.913226216478
 31
0.0
  0
LINE
  5
21A
330
216
100
AcDbEntity
  8
cotas
100
AcDbLine
 10
5704.725183057922
 20
4434.932041900592
 30
0.0
 11
5704.725183057922
 21
4444.932041900591
 31
0.0
  0
LINE
  5
21B
330
216
100
AcDbEntity
  8
cotas
100
AcDbLine
 10
5704.725183057922
 20
4392.913226216477
 30
0.0
 11
5704.725183057922
 21
4357.399458587195
 31
0.0
  0
LINE
  5
21C
330
216
100
AcDbEntity
  8
cotas
100
AcDbLine
 10
5704.725183057922
 20
4424.932041900592
 30
0.0
 11
5704.725183057922
 21
4402.913226216478
 31
0.0
  0
SOLID
  5
21D
330
216
100
AcDbEntity
  8
cotas
100
AcDbTrace
 10
5703.058516391255
 20
4434.932041900592
 30
0.0
 11
5706.391849724589
 21
4434.932041900592
 31
0.0
 12
5704.725183057922
 22
4424.932041900592
 32
0.0
 13
5704.725183057922
 23
4424.932041900592
 33
0.0
  0
SOLID
  5
21E
330
216
100
AcDbEntity
  8
cotas
100
AcDbTrace
 10
5703.058516391255
 20
4392.913226216477
 30
0.0
 11
5706.391849724589
 21
4392.913226216477
 31
0.0
 12
5704.725183057922
 22
4402.913226216478
 32
0.0
 13
5704.725183057922
 23
4402.913226216478
 33
0.0
  0
MTEXT
  5
21F
330
216
100
AcDbEntity
  8
cotas
100
AcDbMText
 10
5694.621086348719
 20
4370.156342401838
 30
0.0
 40
10.0
 41
0.0
 71
     5
 72
     1
  1
22
  7
SANINDUSA
 11
0.0000000000000001
 21
1.0
 31
0.0
 73
     1
 44
1.0
1001
ACAD
1000
MTEXTBEGIN
1070
    73
1070
     1
1070
    44
1040
1.0
1070
    74
1070
     0
1000
MTEXTEND
  0
POINT
  5
220
330
216
100
AcDbEntity
  8
Defpoints
 62
     0
100
AcDbPoint
 10
5655.239417383466
 20
4424.932041900592
 30
0.0
  0
POINT
  5
221
330
216
100
AcDbEntity
  8
Defpoints
 62
     0
100
AcDbPoint
 10
5655.239417383466
 20
4402.913226216478
 30
0.0
  0
POINT
  5
222
330
216
100
AcDbEntity
  8
Defpoints
 62
     0
100
AcDbPoint
 10
5704.725183057922
 20
4402.913226216478
 30
0.0
  0
ENDBLK
  5
223
330
216
100
AcDbEntity
  8
0
100
AcDbBlockEnd
  0
BLOCK
  5
225
330
224
100
AcDbEntity
  8
0
100
AcDbBlockBegin
  2
*D47
 70
     1
 10
0.0
 20
0.0
 30
0.0
  3
*D47
  1

  0
LINE
  5
226
330
224
100
AcDbEntity
  8
cotas
100
AcDbLine
 10
5200.307954635821
 20
4432.785628964117
 30
0.0
 11
5067.202950953156
 21
4432.785628964117
 31
0.0
  0
LINE
  5
227
330
224
100
AcDbEntity
  8
cotas
100
AcDbLine
 10
5200.307954635821
 20
4422.784105606461
 30
0.0
 11
5067.202950953156
 21
4422.784105606461
 31
0.0
  0
LINE
  5
228
330
224
100
AcDbEntity
  8
cotas
100
AcDbLine
 10
5072.202950953156
 20
4442.785628964116
 30
0.0
 11
5072.202950953156
 21
4452.785628964117
 31
0.0
  0
LINE
  5
229
330
224
100
AcDbEntity
  8
cotas
100
AcDbLine
 10
5072.202950953156
 20
4412.784105606461
 30
0.0
 11
5072.202950953156
 21
4378.069532067173
 31
0.0
  0
LINE
  5
22A
330
224
100
AcDbEntity
  8
cotas
100
AcDbLine
 10
5072.202950953156
 20
4432.785628964117
 30
0.0
 11
5072.202950953156
 21
4422.784105606461
 31
0.0
  0
SOLID
  5
22B
330
224
100
AcDbEntity
  8
cotas
100
AcDbTrace
 10
5070.536284286489
 20
4442.785628964116
 30
0.0
 11
5073.869617619823
 21
4442.785628964116
 31
0.0
 12
5072.202950953156
 22
4432.785628964117
 32
0.0
 13
5072.202950953156
 23
4432.785628964117
 33
0.0
  0
SOLID
  5
22C
330
224
100
AcDbEntity
  8
cotas
100
AcDbTrace
 10
5070.536284286489
 20
4412.784105606461
 30
0.0
 11
5073.869617619823
 21
4412.784105606461
 31
0.0
 12
5072.202950953156
 22
4422.784105606461
 32
0.0
 13
5072.202950953156
 23
4422.784105606461
 33
0.0
  0
MTEXT
  5
22D
330
224
100
AcDbEntity
  8
cotas
100
AcDbMText
 10
5061.998115493114
 20
4390.426818836817
 30
0.0
 40
10.0
 41
0.0
 71
     5
 72
     1
  1
10
  7
SANINDUSA
 11
0.0000000000000001
 21
1.0
 31
0.0
 73
     1
 44
1.0
1001
ACAD
1000
MTEXTBEGIN
1070
    73
1070
     1
1070
    44
1040
1.0
1070
    74
1070
     0
1000
MTEXTEND
  0
POINT
  5
22E
330
224
100
AcDbEntity
  8
Defpoints
 62
     0
100
AcDbPoint
 10
5205.30795463582
 20
4432.785628964117
 30
0.0
  0
POINT
  5
22F
330
224
100
AcDbEntity
  8
Defpoints
 62
     0
100
AcDbPoint
 10
5205.30795463582
 20
4422.784105606461
 30
0.0
  0
POINT
  5
230
330
224
100
AcDbEntity
  8
Defpoints
 62
     0
100
AcDbPoint
 10
5072.202950953156
 20
4422.784105606461
 30
0.0
  0
ENDBLK
  5
231
330
224
100
AcDbEntity
  8
0
100
AcDbBlockEnd
  0
BLOCK
  5
233
330
232
100
AcDbEntity
  8
0
100
AcDbBlockBegin
  2
*D48
 70
     1
 10
0.0
 20
0.0
 30
0.0
  3
*D48
  1

  0
LINE
  5
234
330
232
100
AcDbEntity
  8
cotas
100
AcDbLine
 10
6702.901142339181
 20
4497.36027905218
 30
0.0
 11
6702.901142339181
 21
4527.36027905218
 31
0.0
  0
LINE
  5
235
330
232
100
AcDbEntity
  8
cotas
100
AcDbLine
 10
6632.901164517054
 20
4497.36027905218
 30
0.0
 11
6632.901164517054
 21
4527.36027905218
 31
0.0
  0
LINE
  5
236
330
232
100
AcDbEntity
  8
cotas
100
AcDbLine
 10
6692.901142339181
 20
4522.36027905218
 30
0.0
 11
6642.901164517055
 21
4522.36027905218
 31
0.0
  0
SOLID
  5
237
330
232
100
AcDbEntity
  8
cotas
100
AcDbTrace
 10
6692.901142339181
 20
4524.026945718847
 30
0.0
 11
6692.901142339181
 21
4520.693612385513
 31
0.0
 12
6702.901142339181
 22
4522.36027905218
 32
0.0
 13
6702.901142339181
 23
4522.36027905218
 33
0.0
  0
SOLID
  5
238
330
232
100
AcDbEntity
  8
cotas
100
AcDbTrace
 10
6642.901164517055
 20
4524.026945718847
 30
0.0
 11
6642.901164517055
 21
4520.693612385513
 31
0.0
 12
6632.901164517054
 22
4522.36027905218
 32
0.0
 13
6632.901164517054
 23
4522.36027905218
 33
0.0
  0
MTEXT
  5
239
330
232
100
AcDbEntity
  8
cotas
100
AcDbMText
 10
6667.901153428118
 20
4532.56511451222
 30
0.0
 40
10.0
 41
0.0
 71
     5
 72
     1
  1
70
  7
SANINDUSA
 73
     1
 44
1.0
1001
ACAD
1000
MTEXTBEGIN
1070
    73
1070
     1
1070
    44
1040
1.0
1070
    74
1070
     0
1000
MTEXTEND
  0
POINT
  5
23A
330
232
100
AcDbEntity
  8
Defpoints
 62
     0
100
AcDbPoint
 10
6702.901142339181
 20
4492.36027905218
 30
0.0
  0
POINT
  5
23B
330
232
100
AcDbEntity
  8
Defpoints
 62
     0
100
AcDbPoint
 10
6632.901164517054
 20
4492.36027905218
 30
0.0
  0
POINT
  5
23C
330
232
100
AcDbEntity
  8
Defpoints
 62
     0
100
AcDbPoint
 10
6632.901164517054
 20
4522.36027905218
 30
0.0
  0
ENDBLK
  5
23D
330
232
100
AcDbEntity
  8
0
100
AcDbBlockEnd
  0
BLOCK
  5
23F
330
23E
100
AcDbEntity
  8
0
100
AcDbBlockBegin
  2
*D49
 70
     1
 10
0.0
 20
0.0
 30
0.0
  3
*D49
  1

  0
LINE
  5
240
330
23E
100
AcDbEntity
  8
cotas
100
AcDbLine
 10
6702.901142339181
 20
4497.36027905218
 30
0.0
 11
6702.901142339181
 21
4557.355279007938
 31
0.0
  0
LINE
  5
241
330
23E
100
AcDbEntity
  8
cotas
100
AcDbLine
 10
6522.901164262636
 20
4421.25495819957
 30
0.0
 11
6522.901164262636
 21
4557.355279007938
 31
0.0
  0
LINE
  5
242
330
23E
100
AcDbEntity
  8
cotas
100
AcDbLine
 10
6692.901142339181
 20
4552.355279007938
 30
0.0
 11
6532.901164262636
 21
4552.355279007938
 31
0.0
  0
SOLID
  5
243
330
23E
100
AcDbEntity
  8
cotas
100
AcDbTrace
 10
6692.901142339181
 20
4554.021945674604
 30
0.0
 11
6692.901142339181
 21
4550.688612341271
 31
0.0
 12
6702.901142339181
 22
4552.355279007938
 32
0.0
 13
6702.901142339181
 23
4552.355279007938
 33
0.0
  0
SOLID
  5
244
330
23E
100
AcDbEntity
  8
cotas
100
AcDbTrace
 10
6532.901164262636
 20
4554.021945674604
 30
0.0
 11
6532.901164262636
 21
4550.688612341271
 31
0.0
 12
6522.901164262636
 22
4552.355279007938
 32
0.0
 13
6522.901164262636
 23
4552.355279007938
 33
0.0
  0
MTEXT
  5
245
330
23E
100
AcDbEntity
  8
cotas
100
AcDbMText
 10
6612.901153300909
 20
4562.583620176507
 30
0.0
 40
10.0
 41
0.0
 71
     5
 72
     1
  1
180
  7
SANINDUSA
 73
     1
 44
1.0
1001
ACAD
1000
MTEXTBEGIN
1070
    73
1070
     1
1070
    44
1040
1.0
1070
    74
1070
     0
1000
MTEXTEND
  0
POINT
  5
246
330
23E
100
AcDbEntity
  8
Defpoints
 62
     0
100
AcDbPoint
 10
6702.901142339181
 20
4492.36027905218
 30
0.0
  0
POINT
  5
247
330
23E
100
AcDbEntity
  8
Defpoints
 62
     0
100
AcDbPoint
 10
6522.901164262636
 20
4416.254958199569
 30
0.0
  0
POINT
  5
248
330
23E
100
AcDbEntity
  8
Defpoints
 62
     0
100
AcDbPoint
 10
6522.901164262636
 20
4552.355279007938
 30
0.0
  0
ENDBLK
  5
249
330
23E
100
AcDbEntity
  8
0
100
AcDbBlockEnd
  0
BLOCK
  5
24B
330
24A
100
AcDbEntity
  8
0
100
AcDbBlockBegin
  2
*D50
 70
     1
 10
0.0
 20
0.0
 30
0.0
  3
*D50
  1

  0
LINE
  5
24C
330
24A
100
AcDbEntity
  8
cotas
100
AcDbLine
 10
5102.901153533667
 20
3612.605751938935
 30
0.0
 11
5102.901153533667
 21
3642.605751938935
 31
0.0
  0
LINE
  5
24D
330
24A
100
AcDbEntity
  8
cotas
100
AcDbLine
 10
6702.901185867176
 20
3612.605751938931
 30
0.0
 11
6702.901185867176
 21
3642.605751938935
 31
0.0
  0
LINE
  5
24E
330
24A
100
AcDbEntity
  8
cotas
100
AcDbLine
 10
5112.901153533666
 20
3637.605751938934
 30
0.0
 11
6692.901185867177
 21
3637.605751938934
 31
0.0
  0
SOLID
  5
24F
330
24A
100
AcDbEntity
  8
cotas
100
AcDbTrace
 10
5112.901153533666
 20
3639.272418605601
 30
0.0
 11
5112.901153533666
 21
3635.939085272268
 31
0.0
 12
5102.901153533667
 22
3637.605751938934
 32
0.0
 13
5102.901153533667
 23
3637.605751938934
 33
0.0
  0
SOLID
  5
250
330
24A
100
AcDbEntity
  8
cotas
100
AcDbTrace
 10
6692.901185867177
 20
3639.272418605601
 30
0.0
 11
6692.901185867177
 21
3635.939085272268
 31
0.0
 12
6702.901185867176
 22
3637.605751938934
 32
0.0
 13
6702.901185867176
 23
3637.605751938934
 33
0.0
  0
MTEXT
  5
251
330
24A
100
AcDbEntity
  8
cotas
100
AcDbMText
 10
5902.901169700421
 20
3647.810587398975
 30
0.0
 40
10.0
 41
0.0
 71
     5
 72
     1
  1
1600
  7
SANINDUSA
 73
     1
 44
1.0
1001
ACAD
1000
MTEXTBEGIN
1070
    73
1070
     1
1070
    44
1040
1.0
1070
    74
1070
     0
1000
MTEXTEND
  0
POINT
  5
252
330
24A
100
AcDbEntity
  8
Defpoints
 62
     0
100
AcDbPoint
 10
5102.901153533667
 20
3607.605751938935
 30
0.0
  0
POINT
  5
253
330
24A
100
AcDbEntity
  8
Defpoints
 62
     0
100
AcDbPoint
 10
6702.901185867176
 20
3607.605751938932
 30
0.0
  0
POINT
  5
254
330
24A
100
AcDbEntity
  8
Defpoints
 62
     0
100
AcDbPoint
 10
6702.901185867176
 20
3637.605751938934
 30
0.0
  0
ENDBLK
  5
255
330
24A
100
AcDbEntity
  8
0
100
AcDbBlockEnd
  0
BLOCK
  5
257
330
256
100
AcDbEntity
  8
0
100
AcDbBlockBegin
  2
*D51
 70
     1
 10
0.0
 20
0.0
 30
0.0
  3
*D51
  1

  0
LINE
  5
258
330
256
100
AcDbEntity
  8
cotas
100
AcDbLine
 10
6262.431986173169
 20
2870.915868384173
 30
0.0
 11
6262.431986173169
 21
3036.164953674331
 31
0.0
  0
LINE
  5
259
330
256
100
AcDbEntity
  8
cotas
100
AcDbLine
 10
6182.455710038126
 20
2870.916926983256
 30
0.0
 11
6182.455710038126
 21
3036.164953674331
 31
0.0
  0
LINE
  5
25A
330
256
100
AcDbEntity
  8
cotas
100
AcDbLine
 10
6252.431986173168
 20
3031.164953674331
 30
0.0
 11
6192.455710038125
 21
3031.164953674331
 31
0.0
  0
SOLID
  5
25B
330
256
100
AcDbEntity
  8
cotas
100
AcDbTrace
 10
6252.431986173168
 20
3032.831620340997
 30
0.0
 11
6252.431986173168
 21
3029.498287007664
 31
0.0
 12
6262.431986173169
 22
3031.164953674331
 32
0.0
 13
6262.431986173169
 23
3031.164953674331
 33
0.0
  0
SOLID
  5
25C
330
256
100
AcDbEntity
  8
cotas
100
AcDbTrace
 10
6192.455710038125
 20
3032.831620340997
 30
0.0
 11
6192.455710038125
 21
3029.498287007664
 31
0.0
 12
6182.455710038126
 22
3031.164953674331
 32
0.0
 13
6182.455710038126
 23
3031.164953674331
 33
0.0
  0
MTEXT
  5
25D
330
256
100
AcDbEntity
  8
cotas
100
AcDbMText
 10
6222.443848105647
 20
3041.3932948429
 30
0.0
 40
10.0
 41
0.0
 71
     5
 72
     1
  1
80
  7
SANINDUSA
 73
     1
 44
1.0
1001
ACAD
1000
MTEXTBEGIN
1070
    73
1070
     1
1070
    44
1040
1.0
1070
    74
1070
     0
1000
MTEXTEND
  0
POINT
  5
25E
330
256
100
AcDbEntity
  8
Defpoints
 62
     0
100
AcDbPoint
 10
6262.431986173169
 20
2865.915868384174
 30
0.0
  0
POINT
  5
25F
330
256
100
AcDbEntity
  8
Defpoints
 62
     0
100
AcDbPoint
 10
6182.455710038126
 20
2865.916926983256
 30
0.0
  0
POINT
  5
260
330
256
100
AcDbEntity
  8
Defpoints
 62
     0
100
AcDbPoint
 10
6182.455710038126
 20
3031.164953674331
 30
0.0
  0
ENDBLK
  5
261
330
256
100
AcDbEntity
  8
0
100
AcDbBlockEnd
  0
BLOCK
  5
263
330
262
100
AcDbEntity
  8
0
100
AcDbBlockBegin
  2
*D52
 70
     1
 10
0.0
 20
0.0
 30
0.0
  3
*D52
  1

  0
LINE
  5
264
330
262
100
AcDbEntity
  8
cotas
100
AcDbLine
 10
6182.455710038126
 20
2870.916926983256
 30
0.0
 11
6182.455710038126
 21
3036.164953674331
 31
0.0
  0
LINE
  5
265
330
262
100
AcDbEntity
  8
cotas
100
AcDbLine
 10
6102.488720744882
 20
2870.905304730069
 30
0.0
 11
6102.488720744882
 21
3036.164953674331
 31
0.0
  0
LINE
  5
266
330
262
100
AcDbEntity
  8
cotas
100
AcDbLine
 10
6172.455710038125
 20
3031.164953674331
 30
0.0
 11
6112.488720744882
 21
3031.164953674331
 31
0.0
  0
SOLID
  5
267
330
262
100
AcDbEntity
  8
cotas
100
AcDbTrace
 10
6172.455710038125
 20
3032.831620340997
 30
0.0
 11
6172.455710038125
 21
3029.498287007664
 31
0.0
 12
6182.455710038126
 22
3031.164953674331
 32
0.0
 13
6182.455710038126
 23
3031.164953674331
 33
0.0
  0
SOLID
  5
268
330
262
100
AcDbEntity
  8
cotas
100
AcDbTrace
 10
6112.488720744882
 20
3032.831620340997
 30
0.0
 11
6112.488720744882
 21
3029.498287007664
 31
0.0
 12
6102.488720744882
 22
3031.164953674331
 32
0.0
 13
6102.488720744882
 23
3031.164953674331
 33
0.0
  0
MTEXT
  5
269
330
262
100
AcDbEntity
  8
cotas
100
AcDbMText
 10
6142.472215391503
 20
3041.3932948429
 30
0.0
 40
10.0
 41
0.0
 71
     5
 72
     1
  1
80
  7
SANINDUSA
 73
     1
 44
1.0
1001
ACAD
1000
MTEXTBEGIN
1070
    73
1070
     1
1070
    44
1040
1.0
1070
    74
1070
     0
1000
MTEXTEND
  0
POINT
  5
26A
330
262
100
AcDbEntity
  8
Defpoints
 62
     0
100
AcDbPoint
 10
6182.455710038126
 20
2865.916926983256
 30
0.0
  0
POINT
  5
26B
330
262
100
AcDbEntity
  8
Defpoints
 62
     0
100
AcDbPoint
 10
6102.488720744882
 20
2865.905304730069
 30
0.0
  0
POINT
  5
26C
330
262
100
AcDbEntity
  8
Defpoints
 62
     0
100
AcDbPoint
 10
6102.488720744882
 20
3031.164953674331
 30
0.0
  0
ENDBLK
  5
26D
330
262
100
AcDbEntity
  8
0
100
AcDbBlockEnd
  0
BLOCK
  5
26F
330
26E
100
AcDbEntity
  8
0
100
AcDbBlockBegin
  2
*D53
 70
     1
 10
0.0
 20
0.0
 30
0.0
  3
*D53
  1

  0
LINE
  5
270
330
26E
100
AcDbEntity
  8
cotas
100
AcDbLine
 10
6102.488720744882
 20
2870.905304730069
 30
0.0
 11
6102.488720744882
 21
3036.164953674331
 31
0.0
  0
LINE
  5
271
330
26E
100
AcDbEntity
  8
cotas
100
AcDbLine
 10
6022.574137526263
 20
2870.898370400445
 30
0.0
 11
6022.574137526263
 21
3036.164953674331
 31
0.0
  0
LINE
  5
272
330
26E
100
AcDbEntity
  8
cotas
100
AcDbLine
 10
6092.488720744881
 20
3031.164953674331
 30
0.0
 11
6032.574137526263
 21
3031.164953674331
 31
0.0
  0
SOLID
  5
273
330
26E
100
AcDbEntity
  8
cotas
100
AcDbTrace
 10
6092.488720744881
 20
3032.831620340997
 30
0.0
 11
6092.488720744881
 21
3029.498287007664
 31
0.0
 12
6102.488720744882
 22
3031.164953674331
 32
0.0
 13
6102.488720744882
 23
3031.164953674331
 33
0.0
  0
SOLID
  5
274
330
26E
100
AcDbEntity
  8
cotas
100
AcDbTrace
 10
6032.574137526263
 20
3032.831620340997
 30
0.0
 11
6032.574137526263
 21
3029.498287007664
 31
0.0
 12
6022.574137526263
 22
3031.164953674331
 32
0.0
 13
6022.574137526263
 23
3031.164953674331
 33
0.0
  0
MTEXT
  5
275
330
26E
100
AcDbEntity
  8
cotas
100
AcDbMText
 10
6062.531429135573
 20
3041.3932948429
 30
0.0
 40
10.0
 41
0.0
 71
     5
 72
     1
  1
80
  7
SANINDUSA
 73
     1
 44
1.0
1001
ACAD
1000
MTEXTBEGIN
1070
    73
1070
     1
1070
    44
1040
1.0
1070
    74
1070
     0
1000
MTEXTEND
  0
POINT
  5
276
330
26E
100
AcDbEntity
  8
Defpoints
 62
     0
100
AcDbPoint
 10
6102.488720744882
 20
2865.905304730069
 30
0.0
  0
POINT
  5
277
330
26E
100
AcDbEntity
  8
Defpoints
 62
     0
100
AcDbPoint
 10
6022.574137526263
 20
2865.898370400445
 30
0.0
  0
POINT
  5
278
330
26E
100
AcDbEntity
  8
Defpoints
 62
     0
100
AcDbPoint
 10
6022.574137526263
 20
3031.164953674331
 30
0.0
  0
ENDBLK
  5
279
330
26E
100
AcDbEntity
  8
0
100
AcDbBlockEnd
  0
BLOCK
  5
27B
330
27A
100
AcDbEntity
  8
0
100
AcDbBlockBegin
  2
*D54
 70
     1
 10
0.0
 20
0.0
 30
0.0
  3
*D54
  1

  0
LINE
  5
27C
330
27A
100
AcDbEntity
  8
cotas
100
AcDbLine
 10
5862.597269229144
 20
3006.16495367433
 30
0.0
 11
5862.597269229144
 21
3036.16495367433
 31
0.0
  0
LINE
  5
27D
330
27A
100
AcDbEntity
  8
cotas
100
AcDbLine
 10
5782.607309830467
 20
2870.898501403484
 30
0.0
 11
5782.607309830467
 21
3036.16495367433
 31
0.0
  0
LINE
  5
27E
330
27A
100
AcDbEntity
  8
cotas
100
AcDbLine
 10
5852.597269229145
 20
3031.16495367433
 30
0.0
 11
5792.607309830467
 21
3031.16495367433
 31
0.0
  0
SOLID
  5
27F
330
27A
100
AcDbEntity
  8
cotas
100
AcDbTrace
 10
5852.597269229145
 20
3032.831620340997
 30
0.0
 11
5852.597269229145
 21
3029.498287007664
 31
0.0
 12
5862.597269229144
 22
3031.16495367433
 32
0.0
 13
5862.597269229144
 23
3031.16495367433
 33
0.0
  0
SOLID
  5
280
330
27A
100
AcDbEntity
  8
cotas
100
AcDbTrace
 10
5792.607309830467
 20
3032.831620340997
 30
0.0
 11
5792.607309830467
 21
3029.498287007664
 31
0.0
 12
5782.607309830467
 22
3031.16495367433
 32
0.0
 13
5782.607309830467
 23
3031.16495367433
 33
0.0
  0
MTEXT
  5
281
330
27A
100
AcDbEntity
  8
cotas
100
AcDbMText
 10
5822.602289529806
 20
3041.3932948429
 30
0.0
 40
10.0
 41
0.0
 71
     5
 72
     1
  1
80
  7
SANINDUSA
 73
     1
 44
1.0
1001
ACAD
1000
MTEXTBEGIN
1070
    73
1070
     1
1070
    44
1040
1.0
1070
    74
1070
     0
1000
MTEXTEND
  0
POINT
  5
282
330
27A
100
AcDbEntity
  8
Defpoints
 62
     0
100
AcDbPoint
 10
5862.597269229144
 20
3001.16495367433
 30
0.0
  0
POINT
  5
283
330
27A
100
AcDbEntity
  8
Defpoints
 62
     0
100
AcDbPoint
 10
5782.607309830467
 20
2865.898501403484
 30
0.0
  0
POINT
  5
284
330
27A
100
AcDbEntity
  8
Defpoints
 62
     0
100
AcDbPoint
 10
5782.607309830467
 20
3031.16495367433
 30
0.0
  0
ENDBLK
  5
285
330
27A
100
AcDbEntity
  8
0
100
AcDbBlockEnd
  0
BLOCK
  5
287
330
286
100
AcDbEntity
  8
0
100
AcDbBlockBegin
  2
*D55
 70
     1
 10
0.0
 20
0.0
 30
0.0
  3
*D55
  1

  0
LINE
  5
288
330
286
100
AcDbEntity
  8
cotas
100
AcDbLine
 10
6419.027877392972
 20
2830.475241106636
 30
0.0000000000001922
 11
6738.579165311091
 21
2830.475241106636
 31
0.0000000000001922
  0
LINE
  5
289
330
286
100
AcDbEntity
  8
cotas
100
AcDbLine
 10
6702.880897623824
 20
3000.487807474454
 30
0.0000000000001922
 11
6738.579165311091
 21
3000.487807474454
 31
0.0000000000001922
  0
LINE
  5
28A
330
286
100
AcDbEntity
  8
cotas
100
AcDbLine
 10
6733.579165311091
 20
2840.475241106636
 30
0.0000000000001922
 11
6733.579165311091
 21
2990.487807474455
 31
0.0000000000001922
  0
SOLID
  5
28B
330
286
100
AcDbEntity
  8
cotas
100
AcDbTrace
 10
6731.912498644423
 20
2840.475241106636
 30
0.0000000000001922
 11
6735.245831977758
 21
2840.475241106636
 31
0.0000000000001922
 12
6733.579165311091
 22
2830.475241106636
 32
0.0000000000001922
 13
6733.579165311091
 23
2830.475241106636
 33
0.0000000000001922
  0
SOLID
  5
28C
330
286
100
AcDbEntity
  8
cotas
100
AcDbTrace
 10
6731.912498644423
 20
2990.487807474455
 30
0.0000000000001922
 11
6735.245831977758
 21
2990.487807474455
 31
0.0000000000001922
 12
6733.579165311091
 22
3000.487807474454
 32
0.0000000000001922
 13
6733.579165311091
 23
3000.487807474454
 33
0.0000000000001922
  0
MTEXT
  5
28D
330
286
100
AcDbEntity
  8
cotas
100
AcDbMText
 10
6723.374329851051
 20
2915.481524290546
 30
0.0000000000001922
 40
10.0
 41
0.0
 71
     5
 72
     1
  1
170
  7
SANINDUSA
 11
0.0000000000000001
 21
1.0
 31
0.0
 73
     1
 44
1.0
1001
ACAD
1000
MTEXTBEGIN
1070
    73
1070
     1
1070
    44
1040
1.0
1070
    74
1070
     0
1000
MTEXTEND
  0
POINT
  5
28E
330
286
100
AcDbEntity
  8
Defpoints
 62
     0
100
AcDbPoint
 10
6414.027877392971
 20
2830.475241106636
 30
0.0000000000001922
  0
POINT
  5
28F
330
286
100
AcDbEntity
  8
Defpoints
 62
     0
100
AcDbPoint
 10
6697.880897623824
 20
3000.487807474454
 30
0.0
  0
POINT
  5
290
330
286
100
AcDbEntity
  8
Defpoints
 62
     0
100
AcDbPoint
 10
6733.579165311091
 20
3000.487807474454
 30
0.0000000000001922
  0
ENDBLK
  5
291
330
286
100
AcDbEntity
  8
0
100
AcDbBlockEnd
  0
BLOCK
  5
293
330
292
100
AcDbEntity
  8
0
100
AcDbBlockBegin
  2
*D56
 70
     1
 10
0.0
 20
0.0
 30
0.0
  3
*D56
  1

  0
LINE
  5
294
330
292
100
AcDbEntity
  8
cotas
100
AcDbLine
 10
5100.785918396282
 20
3002.549598482752
 30
0.0
 11
5100.785918396282
 21
3036.165151794297
 31
0.0
  0
LINE
  5
295
330
292
100
AcDbEntity
  8
cotas
100
AcDbLine
 10
5424.4577175414
 20
3006.165151794297
 30
0.0
 11
5424.4577175414
 21
3036.165151794297
 31
0.0
  0
LINE
  5
296
330
292
100
AcDbEntity
  8
cotas
100
AcDbLine
 10
5110.785918396282
 20
3031.165151794297
 30
0.0
 11
5414.457717541401
 21
3031.165151794297
 31
0.0
  0
SOLID
  5
297
330
292
100
AcDbEntity
  8
cotas
100
AcDbTrace
 10
5110.785918396282
 20
3032.831818460963
 30
0.0
 11
5110.785918396282
 21
3029.49848512763
 31
0.0
 12
5100.785918396282
 22
3031.165151794297
 32
0.0
 13
5100.785918396282
 23
3031.165151794297
 33
0.0
  0
SOLID
  5
298
330
292
100
AcDbEntity
  8
cotas
100
AcDbTrace
 10
5414.457717541401
 20
3032.831818460963
 30
0.0
 11
5414.457717541401
 21
3029.49848512763
 31
0.0
 12
5424.4577175414
 22
3031.165151794297
 32
0.0
 13
5424.4577175414
 23
3031.165151794297
 33
0.0
  0
MTEXT
  5
299
330
292
100
AcDbEntity
  8
cotas
100
AcDbMText
 10
5262.621817968842
 20
3042.511693097185
 30
0.0
 40
10.0
 41
0.0
 71
     5
 72
     1
  1
323,7
  7
SANINDUSA
 73
     1
 44
1.0
1001
ACAD
1000
MTEXTBEGIN
1070
    73
1070
     1
1070
    44
1040
1.0
1070
    74
1070
     0
1000
MTEXTEND
  0
POINT
  5
29A
330
292
100
AcDbEntity
  8
Defpoints
 62
     0
100
AcDbPoint
 10
5100.785918396282
 20
2997.549598482752
 30
-0.000000000000096
  0
POINT
  5
29B
330
292
100
AcDbEntity
  8
Defpoints
 62
     0
100
AcDbPoint
 10
5424.4577175414
 20
3001.165151794296
 30
0.0
  0
POINT
  5
29C
330
292
100
AcDbEntity
  8
Defpoints
 62
     0
100
AcDbPoint
 10
5424.4577175414
 20
3031.165151794297
 30
0.0
  0
ENDBLK
  5
29D
330
292
100
AcDbEntity
  8
0
100
AcDbBlockEnd
  0
BLOCK
  5
29F
330
29E
100
AcDbEntity
  8
0
100
AcDbBlockBegin
  2
*D57
 70
     1
 10
0.0
 20
0.0
 30
0.0
  3
*D57
  1

  0
LINE
  5
2A0
330
29E
100
AcDbEntity
  8
cotas
100
AcDbLine
 10
6728.391968401509
 20
2064.632996062653
 30
0.0
 11
6706.856396679727
 21
2093.469470788481
 31
0.0
  0
MTEXT
  5
2A1
330
29E
100
AcDbEntity
  8
cotas
100
AcDbMText
 10
6728.711644636509
 20
2081.091075228524
 30
0.0
 40
10.0
 41
0.0
 71
     5
 72
     1
  1
R5
  7
SANINDUSA
 11
0.5983666037270379
 21
-0.8012224457316269
 31
0.0
 73
     1
 44
1.0
1001
ACAD
1000
MTEXTBEGIN
1070
    73
1070
     1
1070
    44
1040
1.0
1070
    74
1070
     0
1000
MTEXTEND
  0
LINE
  5
2A2
330
29E
100
AcDbEntity
  8
cotas
100
AcDbLine
 10
6697.880897623822
 20
2105.487807474454
 30
0.0
 11
6700.872730642458
 21
2101.481695245797
 31
0.0
  0
SOLID
  5
2A3
330
29E
100
AcDbEntity
  8
cotas
100
AcDbTrace
 10
6708.191767422613
 20
2094.466748461359
 30
0.0
 11
6705.521025936841
 21
2092.472193115603
 31
0.0
 12
6700.872730642458
 22
2101.481695245797
 32
0.0
 13
6700.872730642458
 23
2101.481695245797
 33
0.0
  0
POINT
  5
2A4
330
29E
100
AcDbEntity
  8
Defpoints
 62
     0
100
AcDbPoint
 10
6700.872730642458
 20
2101.481695245797
 30
0.0
  0
POINT
  5
2A5
330
29E
100
AcDbEntity
  8
Defpoints
 62
     0
100
AcDbPoint
 10
6697.880897623822
 20
2105.487807474454
 30
0.0
  0
ENDBLK
  5
2A6
330
29E
100
AcDbEntity
  8
0
100
AcDbBlockEnd
  0
BLOCK
  5
2A8
330
2A7
100
AcDbEntity
  8
0
100
AcDbBlockBegin
  2
*D58
 70
     1
 10
0.0
 20
0.0
 30
0.0
  3
*D58
  1

  0
LINE
  5
2A9
330
2A7
100
AcDbEntity
  8
cotas
100
AcDbLine
 10
5072.066239768854
 20
2069.191630702508
 30
0.0
 11
5097.359529576642
 21
2094.795782996552
 31
0.0
  0
MTEXT
  5
2AA
330
2A7
100
AcDbEntity
  8
cotas
100
AcDbMText
 10
5074.010831791934
 20
2085.537551434883
 30
0.0
 40
10.0
 41
0.0
 71
     5
 72
     1
  1
R5
  7
SANINDUSA
 11
0.7027749304683059
 21
0.7114122553802879
 31
0.0
 73
     1
 44
1.0
1001
ACAD
1000
MTEXTBEGIN
1070
    73
1070
     1
1070
    44
1040
1.0
1070
    74
1070
     0
1000
MTEXTEND
  0
LINE
  5
2AB
330
2A7
100
AcDbEntity
  8
cotas
100
AcDbLine
 10
5107.901153533667
 20
2105.466966827256
 30
0.0
 11
5104.387278881326
 21
2101.909905550355
 31
0.0
  0
SOLID
  5
2AC
330
2A7
100
AcDbEntity
  8
cotas
100
AcDbTrace
 10
5096.173842484343
 20
2095.967074547332
 30
0.0
 11
5098.545216668942
 21
2093.624491445771
 31
0.0
 12
5104.387278881326
 22
2101.909905550355
 32
0.0
 13
5104.387278881326
 23
2101.909905550355
 33
0.0
  0
POINT
  5
2AD
330
2A7
100
AcDbEntity
  8
Defpoints
 62
     0
100
AcDbPoint
 10
5104.387278881326
 20
2101.909905550355
 30
0.0
  0
POINT
  5
2AE
330
2A7
100
AcDbEntity
  8
Defpoints
 62
     0
100
AcDbPoint
 10
5107.901153533667
 20
2105.466966827256
 30
0.0
  0
ENDBLK
  5
2AF
330
2A7
100
AcDbEntity
  8
0
100
AcDbBlockEnd
  0
BLOCK
  5
2B1
330
2B0
100
AcDbEntity
  8
0
100
AcDbBlockBegin
  2
*D59
 70
     1
 10
0.0
 20
0.0
 30
0.0
  3
*D59
  1

  0
LINE
  5
2B2
330
2B0
100
AcDbEntity
  8
1
100
AcDbLine
 10
6262.431986173169
 20
2870.915868384173
 30
0.0
 11
6262.431986173169
 21
3036.164953674331
 31
0.0
  0
LINE
  5
2B3
330
2B0
100
AcDbEntity
  8
1
100
AcDbLine
 10
6342.40532234607
 20
2870.915731385025
 30
0.0
 11
6342.40532234607
 21
3036.164953674331
 31
0.0
  0
LINE
  5
2B4
330
2B0
100
AcDbEntity
  8
1
100
AcDbLine
 10
6272.431986173168
 20
3031.164953674331
 30
0.0
 11
6332.405322346069
 21
3031.164953674331
 31
0.0
  0
SOLID
  5
2B5
330
2B0
100
AcDbEntity
  8
1
100
AcDbTrace
 10
6272.431986173168
 20
3032.831620340997
 30
0.0
 11
6272.431986173168
 21
3029.498287007664
 31
0.0
 12
6262.431986173169
 22
3031.164953674331
 32
0.0
 13
6262.431986173169
 23
3031.164953674331
 33
0.0
  0
SOLID
  5
2B6
330
2B0
100
AcDbEntity
  8
1
100
AcDbTrace
 10
6332.405322346069
 20
3032.831620340997
 30
0.0
 11
6332.405322346069
 21
3029.498287007664
 31
0.0
 12
6342.40532234607
 22
3031.164953674331
 32
0.0
 13
6342.40532234607
 23
3031.164953674331
 33
0.0
  0
MTEXT
  5
2B7
330
2B0
100
AcDbEntity
  8
1
100
AcDbMText
 10
6302.418654259619
 20
3041.3932948429
 30
0.0
 40
10.0
 41
0.0
 71
     5
 72
     1
  1
80
  7
SANINDUSA
 73
     1
 44
1.0
1001
ACAD
1000
MTEXTBEGIN
1070
    73
1070
     1
1070
    44
1040
1.0
1070
    74
1070
     0
1000
MTEXTEND
  0
POINT
  5
2B8
330
2B0
100
AcDbEntity
  8
Defpoints
 62
     0
100
AcDbPoint
 10
6262.431986173169
 20
2865.915868384174
 30
0.0
  0
POINT
  5
2B9
330
2B0
100
AcDbEntity
  8
Defpoints
 62
     0
100
AcDbPoint
 10
6342.40532234607
 20
2865.915731385026
 30
0.0
  0
POINT
  5
2BA
330
2B0
100
AcDbEntity
  8
Defpoints
 62
     0
100
AcDbPoint
 10
6342.40532234607
 20
3031.164953674331
 30
0.0
  0
ENDBLK
  5
2BB
330
2B0
100
AcDbEntity
  8
0
100
AcDbBlockEnd
  0
BLOCK
  5
2BD
330
2BC
100
AcDbEntity
  8
0
100
AcDbBlockBegin
  2
*D60
 70
     1
 10
0.0
 20
0.0
 30
0.0
  3
*D60
  1

  0
LINE
  5
2BE
330
2BC
100
AcDbEntity
  8
1
100
AcDbLine
 10
6522.876607212239
 20
3005.474170091634
 30
0.0
 11
6522.876607212239
 21
3036.165151794297
 31
0.0
  0
LINE
  5
2BF
330
2BC
100
AcDbEntity
  8
1
100
AcDbLine
 10
6702.880897623824
 20
3000.487807474454
 30
0.0
 11
6702.880897623824
 21
3036.165151794297
 31
0.0
  0
LINE
  5
2C0
330
2BC
100
AcDbEntity
  8
1
100
AcDbLine
 10
6532.876607212239
 20
3031.165151794297
 30
0.0
 11
6692.880897623822
 21
3031.165151794297
 31
0.0
  0
SOLID
  5
2C1
330
2BC
100
AcDbEntity
  8
1
100
AcDbTrace
 10
6532.876607212239
 20
3032.831818460963
 30
0.0
 11
6532.876607212239
 21
3029.49848512763
 31
0.0
 12
6522.876607212239
 22
3031.165151794297
 32
0.0
 13
6522.876607212239
 23
3031.165151794297
 33
0.0
  0
SOLID
  5
2C2
330
2BC
100
AcDbEntity
  8
1
100
AcDbTrace
 10
6692.880897623822
 20
3032.831818460963
 30
0.0
 11
6692.880897623822
 21
3029.49848512763
 31
0.0
 12
6702.880897623824
 22
3031.165151794297
 32
0.0
 13
6702.880897623824
 23
3031.165151794297
 33
0.0
  0
MTEXT
  5
2C3
330
2BC
100
AcDbEntity
  8
1
100
AcDbMText
 10
6612.878752418031
 20
3041.393492962866
 30
0.0
 40
10.0
 41
0.0
 71
     5
 72
     1
  1
180
  7
SANINDUSA
 73
     1
 44
1.0
1001
ACAD
1000
MTEXTBEGIN
1070
    73
1070
     1
1070
    44
1040
1.0
1070
    74
1070
     0
1000
MTEXTEND
  0
POINT
  5
2C4
330
2BC
100
AcDbEntity
  8
Defpoints
 62
     0
100
AcDbPoint
 10
6522.876607212239
 20
3000.474170091634
 30
0.0000000000001709
  0
POINT
  5
2C5
330
2BC
100
AcDbEntity
  8
Defpoints
 62
     0
100
AcDbPoint
 10
6702.880897623824
 20
2995.487807474454
 30
0.0
  0
POINT
  5
2C6
330
2BC
100
AcDbEntity
  8
Defpoints
 62
     0
100
AcDbPoint
 10
6702.880897623824
 20
3031.165151794297
 30
0.0
  0
ENDBLK
  5
2C7
330
2BC
100
AcDbEntity
  8
0
100
AcDbBlockEnd
  0
BLOCK
  5
2C9
330
2C8
100
AcDbEntity
  8
0
100
AcDbBlockBegin
  2
*D61
 70
     1
 10
0.0
 20
0.0
 30
0.0
  3
*D61
  1

  0
LINE
  5
2CA
330
2C8
100
AcDbEntity
  8
1
100
AcDbLine
 10
6575.088486065912
 20
4432.221257843213
 30
0.0
 11
6618.460280686055
 21
4400.318244677808
 31
0.0
  0
MTEXT
  5
2CB
330
2C8
100
AcDbEntity
  8
1
100
AcDbMText
 10
6595.057249927224
 20
4429.967626564749
 30
0.0
 40
10.0
 41
0.0
 71
     5
 72
     1
  1
R17
  7
SANINDUSA
 11
0.8055447387890374
 21
-0.592534955769954
 31
0.0
 73
     1
 44
1.0
1001
ACAD
1000
MTEXTBEGIN
1070
    73
1070
     1
1070
    44
1040
1.0
1070
    74
1070
     0
1000
MTEXTEND
  0
SOLID
  5
2CC
330
2C8
100
AcDbEntity
  8
1
100
AcDbTrace
 10
6619.447838945671
 20
4401.660819242456
 30
0.0
 11
6617.472722426438
 21
4398.975670113158
 31
0.0
 12
6626.515728073944
 22
4394.392895120108
 32
0.0
 13
6626.515728073944
 23
4394.392895120108
 33
0.0
  0
POINT
  5
2CD
330
2C8
100
AcDbEntity
  8
Defpoints
 62
     0
100
AcDbPoint
 10
6626.515728073944
 20
4394.392895120108
 30
0.0
  0
POINT
  5
2CE
330
2C8
100
AcDbEntity
  8
Defpoints
 62
     0
100
AcDbPoint
 10
6612.821467507332
 20
4404.465989373492
 30
0.0
  0
ENDBLK
  5
2CF
330
2C8
100
AcDbEntity
  8
0
100
AcDbBlockEnd
  0
BLOCK
  5
2D1
330
2D0
100
AcDbEntity
  8
0
100
AcDbBlockBegin
  2
*D62
 70
     1
 10
0.0
 20
0.0
 30
0.0
  3
*D62
  1

  0
LINE
  5
2D2
330
2D0
100
AcDbEntity
  8
1
100
AcDbLine
 10
6707.901142339181
 20
4492.36027905218
 30
0.0
 11
6739.682658059033
 21
4492.36027905218
 31
0.0
  0
LINE
  5
2D3
330
2D0
100
AcDbEntity
  8
1
100
AcDbLine
 10
6634.337071042548
 20
4390.297953158373
 30
0.0
 11
6739.682658059033
 21
4390.297953158373
 31
0.0
  0
LINE
  5
2D4
330
2D0
100
AcDbEntity
  8
1
100
AcDbLine
 10
6734.682658059033
 20
4482.36027905218
 30
0.0
 11
6734.682658059033
 21
4400.297953158372
 31
0.0
  0
SOLID
  5
2D5
330
2D0
100
AcDbEntity
  8
1
100
AcDbTrace
 10
6733.015991392367
 20
4482.36027905218
 30
0.0
 11
6736.3493247257
 21
4482.36027905218
 31
0.0
 12
6734.682658059033
 22
4492.36027905218
 32
0.0
 13
6734.682658059033
 23
4492.36027905218
 33
0.0
  0
SOLID
  5
2D6
330
2D0
100
AcDbEntity
  8
1
100
AcDbTrace
 10
6733.015991392367
 20
4400.297953158372
 30
0.0
 11
6736.3493247257
 21
4400.297953158372
 31
0.0
 12
6734.682658059033
 22
4390.297953158373
 32
0.0
 13
6734.682658059033
 23
4390.297953158373
 33
0.0
  0
MTEXT
  5
2D7
330
2D0
100
AcDbEntity
  8
1
100
AcDbMText
 10
6723.336116756144
 20
4441.329116105278
 30
0.0
 40
10.0
 41
0.0
 71
     5
 72
     1
  1
102,1
  7
SANINDUSA
 11
0.0000000000000001
 21
1.0
 31
0.0
 73
     1
 44
1.0
1001
ACAD
1000
MTEXTBEGIN
1070
    73
1070
     1
1070
    44
1040
1.0
1070
    74
1070
     0
1000
MTEXTEND
  0
POINT
  5
2D8
330
2D0
100
AcDbEntity
  8
Defpoints
 62
     0
100
AcDbPoint
 10
6702.901142339181
 20
4492.36027905218
 30
0.0
  0
POINT
  5
2D9
330
2D0
100
AcDbEntity
  8
Defpoints
 62
     0
100
AcDbPoint
 10
6629.337071042548
 20
4390.297953158373
 30
0.0
  0
POINT
  5
2DA
330
2D0
100
AcDbEntity
  8
Defpoints
 62
     0
100
AcDbPoint
 10
6734.682658059033
 20
4390.297953158373
 30
0.0
  0
ENDBLK
  5
2DB
330
2D0
100
AcDbEntity
  8
0
100
AcDbBlockEnd
  0
BLOCK
  5
2DD
330
2DC
100
AcDbEntity
  8
0
100
AcDbBlockBegin
  2
*D63
 70
     1
 10
0.0
 20
0.0
 30
0.0
  3
*D63
  1

  0
LINE
  5
2DE
330
2DC
100
AcDbEntity
  8
1
100
AcDbLine
 10
5100.785156872064
 20
3002.548836958545
 30
0.0
 11
5067.17036509487
 21
3002.548836958545
 31
0.0
  0
LINE
  5
2DF
330
2DC
100
AcDbEntity
  8
1
100
AcDbLine
 10
5095.785918396273
 20
2907.122715592756
 30
0.0
 11
5067.17036509487
 21
2907.122715592756
 31
0.0
  0
LINE
  5
2E0
330
2DC
100
AcDbEntity
  8
1
100
AcDbLine
 10
5072.17036509487
 20
2992.548836958545
 30
0.0
 11
5072.17036509487
 21
2917.122715592756
 31
0.0
  0
SOLID
  5
2E1
330
2DC
100
AcDbEntity
  8
1
100
AcDbTrace
 10
5070.503698428203
 20
2992.548836958545
 30
0.0
 11
5073.837031761537
 21
2992.548836958545
 31
0.0
 12
5072.17036509487
 22
3002.548836958545
 32
0.0
 13
5072.17036509487
 23
3002.548836958545
 33
0.0
  0
SOLID
  5
2E2
330
2DC
100
AcDbEntity
  8
1
100
AcDbTrace
 10
5070.503698428203
 20
2917.122715592756
 30
0.0
 11
5073.837031761537
 21
2917.122715592756
 31
0.0
 12
5072.17036509487
 22
2907.122715592756
 32
0.0
 13
5072.17036509487
 23
2907.122715592756
 33
0.0
  0
MTEXT
  5
2E3
330
2DC
100
AcDbEntity
  8
1
100
AcDbMText
 10
5060.827181750343
 20
2954.835776275651
 30
0.0
 40
10.0
 41
0.0
 71
     5
 72
     1
  1
95,4
  7
SANINDUSA
 11
0.0000000000000001
 21
1.0
 31
0.0
 73
     1
 44
1.0
1001
ACAD
1000
MTEXTBEGIN
1070
    73
1070
     1
1070
    44
1040
1.0
1070
    74
1070
     0
1000
MTEXTEND
  0
POINT
  5
2E4
330
2DC
100
AcDbEntity
  8
Defpoints
 62
     0
100
AcDbPoint
 10
5105.785156872064
 20
3002.548836958545
 30
0.0000000000003059
  0
POINT
  5
2E5
330
2DC
100
AcDbEntity
  8
Defpoints
 62
     0
100
AcDbPoint
 10
5100.785918396272
 20
2907.122715592756
 30
0.0000000000000114
  0
POINT
  5
2E6
330
2DC
100
AcDbEntity
  8
Defpoints
 62
     0
100
AcDbPoint
 10
5072.17036509487
 20
2907.122715592756
 30
0.0
  0
ENDBLK
  5
2E7
330
2DC
100
AcDbEntity
  8
0
100
AcDbBlockEnd
  0
BLOCK
  5
C04
330
BFE
100
AcDbEntity
  8
0
100
AcDbBlockBegin
  2
*D65
 70
     1
 10
0.0
 20
0.0
 30
0.0
  3
*D65
  1

  0
LINE
  5
994D
330
BFE
100
AcDbEntity
  8
cotas
100
AcDbLine
 10
171.9414220185659
 20
1752.386703994933
 30
0.0
 11
147.9247741280808
 21
1779.336101205879
 31
0.0
  0
MTEXT
  5
994E
330
BFE
100
AcDbEntity
  8
cotas
100
AcDbMText
 10
170.7252928271032
 20
1768.781767713965
 30
0.0
 40
10.0
 41
0.0
 71
     5
 72
     1
  1
R7
  7
SANINDUSA
 11
0.6653169992359331
 21
-0.74656097575998
 31
0.0
 73
     1
 44
1.0
1001
ACAD
1000
MTEXTBEGIN
1070
    73
1070
     1
1070
    44
1040
1.0
1070
    74
1070
     0
1000
MTEXTEND
  0
SOLID
  5
994F
330
BFE
100
AcDbEntity
  8
cotas
100
AcDbTrace
 10
149.1690424210142
 20
1780.444962871273
 30
0.0
 11
146.6805058351474
 21
1778.227239540486
 31
0.0
 12
141.2716041357215
 22
1786.801710963479
 32
0.0
 13
141.2716041357215
 23
1786.801710963479
 33
0.0
  0
POINT
  5
9950
330
BFE
100
AcDbEntity
  8
Defpoints
 62
     0
100
AcDbPoint
 10
141.2716041357215
 20
1786.801710963479
 30
0.0
  0
POINT
  5
9951
330
BFE
100
AcDbEntity
  8
Defpoints
 62
     0
100
AcDbPoint
 10
145.9288231303728
 20
1781.575784133159
 30
0.0
  0
ENDBLK
  5
C05
330
BFE
100
AcDbEntity
  8
0
100
AcDbBlockEnd
  0
BLOCK
  5
C0C
330
C06
100
AcDbEntity
  8
0
100
AcDbBlockBegin
  2
*D66
 70
     1
 10
0.0
 20
0.0
 30
0.0
  3
*D66
  1

  0
LINE
  5
9948
330
C06
100
AcDbEntity
  8
cotas
100
AcDbLine
 10
1002.140186585603
 20
1756.539725032176
 30
0.0
 11
1029.866787471718
 21
1779.65476319419
 31
0.0
  0
MTEXT
  5
9949
330
C06
100
AcDbEntity
  8
cotas
100
AcDbMText
 10
1005.759627273693
 20
1772.576455798354
 30
0.0
 40
10.0
 41
0.0
 71
     5
 72
     1
  1
R7
  7
SANINDUSA
 11
0.7680913250124437
 21
0.6403403129903884
 31
0.0
 73
     1
 44
1.0
1001
ACAD
1000
MTEXTBEGIN
1070
    73
1070
     1
1070
    44
1040
1.0
1070
    74
1070
     0
1000
MTEXTEND
  0
SOLID
  5
994A
330
C06
100
AcDbEntity
  8
cotas
100
AcDbTrace
 10
1028.799553616734
 20
1780.934915402544
 30
0.0
 11
1030.934021326702
 21
1778.374610985836
 31
0.0
 12
1037.547700721843
 22
1786.058166324094
 32
0.0
 13
1037.547700721843
 23
1786.058166324094
 33
0.0
  0
POINT
  5
994B
330
C06
100
AcDbEntity
  8
Defpoints
 62
     0
100
AcDbPoint
 10
1037.547700721843
 20
1786.058166324094
 30
0.0
  0
POINT
  5
994C
330
C06
100
AcDbEntity
  8
Defpoints
 62
     0
100
AcDbPoint
 10
1032.171061446754
 20
1781.575784133161
 30
0.0
  0
ENDBLK
  5
C0D
330
C06
100
AcDbEntity
  8
0
100
AcDbBlockEnd
  0
BLOCK
  5
C19
330
C0E
100
AcDbEntity
  8
0
100
AcDbBlockBegin
  2
*D67
 70
     1
 10
0.0
 20
0.0
 30
0.0
  3
*D67
  1

  0
LINE
  5
993E
330
C0E
100
AcDbEntity
  8
cotas
100
AcDbLine
 10
1039.835386629982
 20
1743.576546505057
 30
0.0
 11
1040.943449164076
 21
1680.093752312833
 31
0.0
  0
ARC
  5
993F
330
C0E
100
AcDbEntity
  8
cotas
100
AcDbCircle
 10
1039.049945946204
 20
1788.575784133161
 30
0.0
 40
103.4985556692
100
AcDbArc
 50
185.5380569447936
 51
265.4619125944054
  0
SOLID
  5
9940
330
C0E
100
AcDbEntity
  8
cotas
100
AcDbTrace
 10
934.3697681436818
 20
1778.506943737573
 30
0.0
 11
937.6992094683764
 21
1778.667976580581
 31
0.0
 12
935.5513902770043
 22
1788.575784133161
 32
0.0
 13
935.5513902770043
 23
1788.575784133161
 33
0.0
  0
SOLID
  5
9941
330
C0E
100
AcDbEntity
  8
cotas
100
AcDbTrace
 10
1030.912407680478
 20
1687.067573105328
 30
0.0
 11
1030.809504355467
 21
1683.735828514755
 31
0.0
 12
1040.856189789691
 22
1685.092990835007
 32
0.0
 13
1040.856189789691
 23
1685.092990835007
 33
0.0
  0
MTEXT
  5
9942
330
C0E
100
AcDbEntity
  8
cotas
100
AcDbMText
 10
974.4573742564877
 20
1722.845940600652
 30
0.0
 40
10.0
 41
0.0
 71
     5
 72
     1
  1
91,0°
  7
SANINDUSA
 11
0.7132502628380123
 21
-0.7009094538965118
 31
0.0
 73
     1
 44
1.0
1001
ACAD
1000
MTEXTBEGIN
1070
    73
1070
     1
1070
    44
1040
1.0
1070
    74
1070
     0
1000
MTEXTEND
  0
POINT
  5
9943
330
C0E
100
AcDbEntity
  8
Defpoints
 62
     0
100
AcDbPoint
 10
949.7201384764904
 20
1736.305940790805
 30
0.0
  0
POINT
  5
9944
330
C0E
100
AcDbEntity
  8
Defpoints
 62
     0
100
AcDbPoint
 10
145.9288230724721
 20
1788.575784133161
 30
0.0
  0
POINT
  5
9945
330
C0E
100
AcDbEntity
  8
Defpoints
 62
     0
100
AcDbPoint
 10
1039.169995294788
 20
1781.697952012162
 30
0.0
  0
POINT
  5
9946
330
C0E
100
AcDbEntity
  8
Defpoints
 62
     0
100
AcDbPoint
 10
1039.748127255597
 20
1748.57578502723
 30
0.0
  0
POINT
  5
9947
330
C0E
100
AcDbEntity
  8
Defpoints
 62
     0
100
AcDbPoint
 10
1032.17106560246
 20
1788.575784133161
 30
0.0
  0
ENDBLK
  5
C1A
330
C0E
100
AcDbEntity
  8
0
100
AcDbBlockEnd
  0
BLOCK
  5
C26
330
C1B
100
AcDbEntity
  8
0
100
AcDbBlockBegin
  2
*D68
 70
     1
 10
0.0
 20
0.0
 30
0.0
  3
*D68
  1

  0
LINE
  5
9934
330
C1B
100
AcDbEntity
  8
cotas
100
AcDbLine
 10
138.2644776758173
 20
1743.576546551446
 30
0.0
 11
137.2968521022685
 21
1688.141314489663
 31
0.0
  0
ARC
  5
9935
330
C1B
100
AcDbEntity
  8
cotas
100
AcDbCircle
 10
139.0499422883895
 20
1788.575784133161
 30
0.0
 40
95.4497686297552
100
AcDbArc
 50
275.0054640676288
 51
353.9945359338183
  0
SOLID
  5
9936
330
C1B
100
AcDbEntity
  8
cotas
100
AcDbTrace
 10
147.4362510030546
 20
1691.824375868632
 30
0.0
 11
147.3197605010093
 21
1695.155673074533
 31
0.0
 12
137.3841141343288
 22
1693.140552965447
 32
0.0
 13
137.3841141343288
 23
1693.140552965447
 33
0.0
  0
SOLID
  5
9937
330
C1B
100
AcDbEntity
  8
cotas
100
AcDbTrace
 10
232.3114967832529
 20
1778.676819708654
 30
0.0
 11
235.6402535768708
 21
1778.50220779596
 31
0.0
 12
234.4997109181446
 22
1788.575784133161
 32
0.0
 13
234.4997109181446
 23
1788.575784133161
 33
0.0
  0
MTEXT
  5
9938
330
C1B
100
AcDbEntity
  8
cotas
100
AcDbMText
 10
198.0010271041896
 20
1728.586724402391
 30
0.0
 40
10.0
 41
0.0
 71
     5
 72
     1
  1
91,0°
  7
SANINDUSA
 11
0.713250449145331
 21
0.7009092643088574
 31
0.0
 73
     1
 44
1.0
1001
ACAD
1000
MTEXTBEGIN
1070
    73
1070
     1
1070
    44
1040
1.0
1070
    74
1070
     0
1000
MTEXTEND
  0
POINT
  5
9939
330
C1B
100
AcDbEntity
  8
Defpoints
 62
     0
100
AcDbPoint
 10
185.8098025497121
 20
1705.364163551565
 30
0.0
  0
POINT
  5
993A
330
C1B
100
AcDbEntity
  8
Defpoints
 62
     0
100
AcDbPoint
 10
138.3517397078775
 20
1748.57578502723
 30
0.0
  0
POINT
  5
993B
330
C1B
100
AcDbEntity
  8
Defpoints
 62
     0
100
AcDbPoint
 10
145.928823072472
 20
1788.575784133161
 30
0.0
  0
POINT
  5
993C
330
C1B
100
AcDbEntity
  8
Defpoints
 62
     0
100
AcDbPoint
 10
1032.17106560246
 20
1788.575784133161
 30
0.0
  0
POINT
  5
993D
330
C1B
100
AcDbEntity
  8
Defpoints
 62
     0
100
AcDbPoint
 10
138.9298892661808
 20
1781.697951087206
 30
0.0
  0
ENDBLK
  5
C27
330
C1B
100
AcDbEntity
  8
0
100
AcDbBlockEnd
  0
BLOCK
  5
C32
330
C28
100
AcDbEntity
  8
0
100
AcDbBlockBegin
  2
*D69
 70
     1
 10
0.0
 20
0.0
 30
0.0
  3
*D69
  1

  0
LINE
  5
990F
330
C28
100
AcDbEntity
  8
cotas
100
AcDbLine
 10
3600.428470718015
 20
1721.147546981569
 30
0.0
 11
3649.914236392471
 21
1721.147546981569
 31
0.0
  0
LINE
  5
9910
330
C28
100
AcDbEntity
  8
cotas
100
AcDbLine
 10
3838.090213654234
 20
1788.575784133157
 30
0.0
 11
3639.914236392471
 21
1788.575784133157
 31
0.0
  0
LINE
  5
9911
330
C28
100
AcDbEntity
  8
cotas
100
AcDbLine
 10
3644.914236392472
 20
1731.147546981568
 30
0.0
 11
3644.914236392472
 21
1778.575784133157
 31
0.0
  0
SOLID
  5
9912
330
C28
100
AcDbEntity
  8
cotas
100
AcDbTrace
 10
3643.247569725805
 20
1731.147546981568
 30
0.0
 11
3646.580903059138
 21
1731.147546981568
 31
0.0
 12
3644.914236392472
 22
1721.147546981569
 32
0.0
 13
3644.914236392472
 23
1721.147546981569
 33
0.0
  0
SOLID
  5
9913
330
C28
100
AcDbEntity
  8
cotas
100
AcDbTrace
 10
3643.247569725805
 20
1778.575784133157
 30
0.0
 11
3646.580903059138
 21
1778.575784133157
 31
0.0
 12
3644.914236392472
 22
1788.575784133157
 32
0.0
 13
3644.914236392472
 23
1788.575784133157
 33
0.0
  0
MTEXT
  5
9914
330
C28
100
AcDbEntity
  8
cotas
100
AcDbMText
 10
3633.577768964667
 20
1754.861665557363
 30
0.0
 40
10.0
 41
0.0
 71
     5
 72
     1
  1
67,4
  7
SANINDUSA
 11
0.0000000000000001
 21
1.0
 31
0.0
 73
     1
 44
1.0
1001
ACAD
1000
MTEXTBEGIN
1070
    73
1070
     1
1070
    44
1040
1.0
1070
    74
1070
     0
1000
MTEXTEND
  0
POINT
  5
9915
330
C28
100
AcDbEntity
  8
Defpoints
 62
     0
100
AcDbPoint
 10
3595.428470718015
 20
1721.147546981569
 30
0.0
  0
POINT
  5
9916
330
C28
100
AcDbEntity
  8
Defpoints
 62
     0
100
AcDbPoint
 10
3843.090213654234
 20
1788.575784133157
 30
0.0
  0
POINT
  5
9917
330
C28
100
AcDbEntity
  8
Defpoints
 62
     0
100
AcDbPoint
 10
3644.914236392472
 20
1788.575784133157
 30
0.0
  0
ENDBLK
  5
C33
330
C28
100
AcDbEntity
  8
0
100
AcDbBlockEnd
  0
BLOCK
  5
C3E
330
C34
100
AcDbEntity
  8
0
100
AcDbBlockBegin
  2
*D70
 70
     1
 10
0.0
 20
0.0
 30
0.0
  3
*D70
  1

  0
LINE
  5
98F0
330
C34
100
AcDbEntity
  8
cotas
100
AcDbLine
 10
3140.49700797037
 20
1729.001134045094
 30
0.0
 11
3007.392004287706
 21
1729.001134045094
 31
0.0
  0
LINE
  5
98F1
330
C34
100
AcDbEntity
  8
cotas
100
AcDbLine
 10
3038.090206868214
 20
1788.575784133157
 30
0.0
 11
3007.392004287706
 21
1788.575784133157
 31
0.0
  0
LINE
  5
98F2
330
C34
100
AcDbEntity
  8
cotas
100
AcDbLine
 10
3012.392004287705
 20
1739.001134045093
 30
0.0
 11
3012.392004287705
 21
1778.575784133157
 31
0.0
  0
SOLID
  5
98F3
330
C34
100
AcDbEntity
  8
cotas
100
AcDbTrace
 10
3010.725337621039
 20
1739.001134045093
 30
0.0
 11
3014.058670954372
 21
1739.001134045093
 31
0.0
 12
3012.392004287705
 22
1729.001134045094
 32
0.0
 13
3012.392004287705
 23
1729.001134045094
 33
0.0
  0
SOLID
  5
98F4
330
C34
100
AcDbEntity
  8
cotas
100
AcDbTrace
 10
3010.725337621039
 20
1778.575784133157
 30
0.0
 11
3014.058670954372
 21
1778.575784133157
 31
0.0
 12
3012.392004287705
 22
1788.575784133157
 32
0.0
 13
3012.392004287705
 23
1788.575784133157
 33
0.0
  0
MTEXT
  5
98F5
330
C34
100
AcDbEntity
  8
cotas
100
AcDbMText
 10
3001.048820943179
 20
1758.788459089126
 30
0.0
 40
10.0
 41
0.0
 71
     5
 72
     1
  1
59,6
  7
SANINDUSA
 11
0.0000000000000001
 21
1.0
 31
0.0
 73
     1
 44
1.0
1001
ACAD
1000
MTEXTBEGIN
1070
    73
1070
     1
1070
    44
1040
1.0
1070
    74
1070
     0
1000
MTEXTEND
  0
POINT
  5
98F6
330
C34
100
AcDbEntity
  8
Defpoints
 62
     0
100
AcDbPoint
 10
3145.49700797037
 20
1729.001134045094
 30
0.0
  0
POINT
  5
98F7
330
C34
100
AcDbEntity
  8
Defpoints
 62
     0
100
AcDbPoint
 10
3043.090206868214
 20
1788.575784133157
 30
0.0
  0
POINT
  5
98F8
330
C34
100
AcDbEntity
  8
Defpoints
 62
     0
100
AcDbPoint
 10
3012.392004287705
 20
1788.575784133157
 30
0.0
  0
ENDBLK
  5
C3F
330
C34
100
AcDbEntity
  8
0
100
AcDbBlockEnd
  0
BLOCK
  5
C4A
330
C40
100
AcDbEntity
  8
0
100
AcDbBlockBegin
  2
*D71
 70
     1
 10
0.0
 20
0.0
 30
0.0
  3
*D71
  1

  0
ARC
  5
98E7
330
C40
100
AcDbEntity
  8
cotas
100
AcDbCircle
 10
3109.3240209228
 20
1784.675784133156
 30
0.0
 40
47.01428158020627
100
AcDbArc
 50
192.2099791823496
 51
259.7900208176412
  0
SOLID
  5
98E8
330
C40
100
AcDbEntity
  8
cotas
100
AcDbTrace
 10
3061.716031491782
 20
1774.555246164962
 30
0.0
 11
3065.030460446376
 21
1774.90974837379
 31
0.0
 12
3062.309739342593
 22
1784.675784133156
 32
0.0
 13
3062.309739342593
 23
1784.675784133156
 33
0.0
  0
SOLID
  5
98E9
330
C40
100
AcDbEntity
  8
cotas
100
AcDbTrace
 10
3101.109757336331
 20
1740.068376364224
 30
0.0
 11
3100.871142983041
 21
1736.743594521528
 31
0.0
 12
3110.964795687771
 22
1737.690142383005
 32
0.0
 13
3110.964795687771
 23
1737.690142383005
 33
0.0
  0
MTEXT
  5
98EA
330
C40
100
AcDbEntity
  8
cotas
100
AcDbMText
 10
3084.547126583801
 20
1759.018558963541
 30
0.0
 40
10.0
 41
0.0
 71
     5
 72
     1
  1
92,0°
  7
SANINDUSA
 11
0.719339800338595
 21
-0.6946583704590556
 31
0.0
 73
     1
 44
1.0
1001
ACAD
1000
MTEXTBEGIN
1070
    73
1070
     1
1070
    44
1040
1.0
1070
    74
1070
     0
1000
MTEXTEND
  0
POINT
  5
98EB
330
C40
100
AcDbEntity
  8
Defpoints
 62
     0
100
AcDbPoint
 10
3068.884726682671
 20
1760.696498200018
 30
0.0
  0
POINT
  5
98EC
330
C40
100
AcDbEntity
  8
Defpoints
 62
     0
100
AcDbPoint
 10
3049.969087710203
 20
1784.675784133156
 30
0.0
  0
POINT
  5
98ED
330
C40
100
AcDbEntity
  8
Defpoints
 62
     0
100
AcDbPoint
 10
3111.040940332276
 20
1735.509645056823
 30
0.0
  0
POINT
  5
98EE
330
C40
100
AcDbEntity
  8
Defpoints
 62
     0
100
AcDbPoint
 10
3109.428497284656
 20
1781.683972572938
 30
0.0
  0
POINT
  5
98EF
330
C40
100
AcDbEntity
  8
Defpoints
 62
     0
100
AcDbPoint
 10
3106.330385720902
 20
1784.675784133156
 30
0.0
  0
ENDBLK
  5
C4B
330
C40
100
AcDbEntity
  8
0
100
AcDbBlockEnd
  0
BLOCK
  5
C53
330
C4C
100
AcDbEntity
  8
0
100
AcDbBlockBegin
  2
*D72
 70
     1
 10
0.0
 20
0.0
 30
0.0
  3
*D72
  1

  0
LINE
  5
98E1
330
C4C
100
AcDbEntity
  8
cotas
100
AcDbLine
 10
3078.977011611939
 20
1687.685270410972
 30
0.0
 11
3112.027888225926
 21
1717.991380349516
 31
0.0
  0
MTEXT
  5
98E2
330
C4C
100
AcDbEntity
  8
cotas
100
AcDbMText
 10
3085.047464055154
 20
1706.84199223969
 30
0.0
 40
10.0
 41
0.0
 71
     5
 72
     1
  1
R17
  7
SANINDUSA
 11
0.7370489033731849
 21
0.6758394143850932
 31
0.0
 73
     1
 44
1.0
1001
ACAD
1000
MTEXTBEGIN
1070
    73
1070
     1
1070
    44
1040
1.0
1070
    74
1070
     0
1000
MTEXTEND
  0
LINE
  5
98E3
330
C4C
100
AcDbEntity
  8
cotas
100
AcDbLine
 10
3131.928208616994
 20
1736.239044537907
 30
0.0
 11
3119.398377259658
 21
1724.749774493368
 31
0.0
  0
SOLID
  5
98E4
330
C4C
100
AcDbEntity
  8
cotas
100
AcDbTrace
 10
3110.901489201951
 20
1719.219795188472
 30
0.0
 11
3113.154287249902
 21
1716.762965510562
 31
0.0
 12
3119.398377259658
 22
1724.749774493368
 32
0.0
 13
3119.398377259658
 23
1724.749774493368
 33
0.0
  0
POINT
  5
98E5
330
C4C
100
AcDbEntity
  8
Defpoints
 62
     0
100
AcDbPoint
 10
3119.398377259658
 20
1724.749774493368
 30
0.0
  0
POINT
  5
98E6
330
C4C
100
AcDbEntity
  8
Defpoints
 62
     0
100
AcDbPoint
 10
3131.928208616994
 20
1736.239044537907
 30
0.0
  0
ENDBLK
  5
C54
330
C4C
100
AcDbEntity
  8
0
100
AcDbBlockEnd
  0
BLOCK
  5
C5C
330
C55
100
AcDbEntity
  8
0
100
AcDbBlockBegin
  2
*D73
 70
     1
 10
0.0
 20
0.0
 30
0.0
  3
*D73
  1

  0
LINE
  5
98DB
330
C55
100
AcDbEntity
  8
cotas
100
AcDbLine
 10
3155.323598319223
 20
1667.231662308226
 30
0.0
 11
3142.135922223097
 21
1710.048641319344
 31
0.0
  0
MTEXT
  5
98DC
330
C55
100
AcDbEntity
  8
cotas
100
AcDbMText
 10
3159.954258016768
 20
1686.865520267433
 30
0.0
 40
10.0
 41
0.0
 71
     5
 72
     1
  1
R10
  7
SANINDUSA
 11
0.2943554145874892
 21
-0.9556960237978534
 31
0.0
 73
     1
 44
1.0
1001
ACAD
1000
MTEXTBEGIN
1070
    73
1070
     1
1070
    44
1040
1.0
1070
    74
1070
     0
1000
MTEXTEND
  0
LINE
  5
98DD
330
C55
100
AcDbEntity
  8
cotas
100
AcDbLine
 10
3136.248813931347
 20
1729.162561795299
 30
0.0
 11
3139.192368077222
 21
1719.605601557322
 31
0.0
  0
SOLID
  5
98DE
330
C55
100
AcDbEntity
  8
cotas
100
AcDbTrace
 10
3143.728748929426
 20
1710.53923367699
 30
0.0
 11
3140.543095516767
 21
1709.558048961698
 31
0.0
 12
3139.192368077222
 22
1719.605601557322
 32
0.0
 13
3139.192368077222
 23
1719.605601557322
 33
0.0
  0
POINT
  5
98DF
330
C55
100
AcDbEntity
  8
Defpoints
 62
     0
100
AcDbPoint
 10
3139.192368077222
 20
1719.605601557322
 30
0.0
  0
POINT
  5
98E0
330
C55
100
AcDbEntity
  8
Defpoints
 62
     0
100
AcDbPoint
 10
3136.248813931347
 20
1729.162561795299
 30
0.0
  0
ENDBLK
  5
C5D
330
C55
100
AcDbEntity
  8
0
100
AcDbBlockEnd
  0
BLOCK
  5
C64
330
C5E
100
AcDbEntity
  8
0
100
AcDbBlockBegin
  2
*D74
 70
     1
 10
0.0
 20
0.0
 30
0.0
  3
*D74
  1

  0
LINE
  5
98D6
330
C5E
100
AcDbEntity
  8
cotas
100
AcDbLine
 10
3183.069504179566
 20
1688.519091951266
 30
0.0
 11
3153.673782109636
 21
1719.710038104348
 31
0.0
  0
MTEXT
  5
98D7
330
C5E
100
AcDbEntity
  8
cotas
100
AcDbMText
 10
3181.397175488522
 20
1704.87392002467
 30
0.0
 40
10.0
 41
0.0
 71
     5
 72
     1
  1
R7
  7
SANINDUSA
 11
0.6858537116677781
 21
-0.7277394356440582
 31
0.0
 73
     1
 44
1.0
1001
ACAD
1000
MTEXTBEGIN
1070
    73
1070
     1
1070
    44
1040
1.0
1070
    74
1070
     0
1000
MTEXTEND
  0
SOLID
  5
98D8
330
C5E
100
AcDbEntity
  8
cotas
100
AcDbTrace
 10
3154.886681169042
 20
1720.853127623794
 30
0.0
 11
3152.460883050229
 21
1718.566948584902
 31
0.0
 12
3146.815244992958
 22
1726.987432460789
 32
0.0
 13
3146.815244992958
 23
1726.987432460789
 33
0.0
  0
POINT
  5
98D9
330
C5E
100
AcDbEntity
  8
Defpoints
 62
     0
100
AcDbPoint
 10
3146.815244992958
 20
1726.987432460789
 30
0.0
  0
POINT
  5
98DA
330
C5E
100
AcDbEntity
  8
Defpoints
 62
     0
100
AcDbPoint
 10
3151.616220974634
 20
1721.893256411278
 30
0.0
  0
ENDBLK
  5
C65
330
C5E
100
AcDbEntity
  8
0
100
AcDbBlockEnd
  0
BLOCK
  5
C6D
330
C66
100
AcDbEntity
  8
0
100
AcDbBlockBegin
  2
*D75
 70
     1
 10
0.0
 20
0.0
 30
0.0
  3
*D75
  1

  0
LINE
  5
98D0
330
C66
100
AcDbEntity
  8
cotas
100
AcDbLine
 10
3579.399181065124
 20
1652.310113522328
 30
0.0
 11
3600.427878946182
 21
1691.915853131473
 31
0.0
  0
MTEXT
  5
98D1
330
C66
100
AcDbEntity
  8
cotas
100
AcDbMText
 10
3578.721703406959
 20
1672.394221869748
 30
0.0
 40
10.0
 41
0.0
 71
     5
 72
     1
  1
R17
  7
SANINDUSA
 11
0.4689490960745185
 21
0.8832251951178092
 31
0.0
 73
     1
 44
1.0
1001
ACAD
1000
MTEXTBEGIN
1070
    73
1070
     1
1070
    44
1040
1.0
1070
    74
1070
     0
1000
MTEXTEND
  0
LINE
  5
98D2
330
C66
100
AcDbEntity
  8
cotas
100
AcDbLine
 10
3613.091412174014
 20
1715.7665262635
 30
0.0
 11
3605.117369906928
 21
1700.748105082651
 31
0.0
  0
SOLID
  5
98D3
330
C66
100
AcDbEntity
  8
cotas
100
AcDbTrace
 10
3598.955836954319
 20
1692.697434958264
 30
0.0
 11
3601.899920938045
 21
1691.134271304682
 31
0.0
 12
3605.117369906928
 22
1700.748105082651
 32
0.0
 13
3605.117369906928
 23
1700.748105082651
 33
0.0
  0
POINT
  5
98D4
330
C66
100
AcDbEntity
  8
Defpoints
 62
     0
100
AcDbPoint
 10
3605.117369906928
 20
1700.748105082651
 30
0.0
  0
POINT
  5
98D5
330
C66
100
AcDbEntity
  8
Defpoints
 62
     0
100
AcDbPoint
 10
3613.091412174014
 20
1715.7665262635
 30
0.0
  0
ENDBLK
  5
C6E
330
C66
100
AcDbEntity
  8
0
100
AcDbBlockEnd
  0
BLOCK
  5
C75
330
C6F
100
AcDbEntity
  8
0
100
AcDbBlockBegin
  2
*D76
 70
     1
 10
0.0
 20
0.0
 30
0.0
  3
*D76
  1

  0
LINE
  5
98CB
330
C6F
100
AcDbEntity
  8
cotas
100
AcDbLine
 10
3556.397477557815
 20
1681.939250367662
 30
0.0
 11
3586.999917843889
 21
1712.148768614312
 31
0.0
  0
MTEXT
  5
98CC
330
C6F
100
AcDbEntity
  8
cotas
100
AcDbMText
 10
3558.658723906002
 20
1698.223102783914
 30
0.0
 40
10.0
 41
0.0
 71
     5
 72
     1
  1
R7
  7
SANINDUSA
 11
0.7116607288362139
 21
0.7025233142268725
 31
0.0
 73
     1
 44
1.0
1001
ACAD
1000
MTEXTBEGIN
1070
    73
1070
     1
1070
    44
1040
1.0
1070
    74
1070
     0
1000
MTEXTEND
  0
SOLID
  5
98CD
330
C6F
100
AcDbEntity
  8
cotas
100
AcDbTrace
 10
3585.829045653511
 20
1713.334869829039
 30
0.0
 11
3588.170790034268
 21
1710.962667399585
 31
0.0
 12
3594.116525132251
 22
1719.174001756581
 32
0.0
 13
3594.116525132251
 23
1719.174001756581
 33
0.0
  0
POINT
  5
98CE
330
C6F
100
AcDbEntity
  8
Defpoints
 62
     0
100
AcDbPoint
 10
3594.116525132251
 20
1719.174001756581
 30
0.0
  0
POINT
  5
98CF
330
C6F
100
AcDbEntity
  8
Defpoints
 62
     0
100
AcDbPoint
 10
3589.134907791573
 20
1714.256346218518
 30
0.0
  0
ENDBLK
  5
C76
330
C6F
100
AcDbEntity
  8
0
100
AcDbBlockEnd
  0
BLOCK
  5
C81
330
C77
100
AcDbEntity
  8
0
100
AcDbBlockBegin
  2
*D77
 70
     1
 10
0.0
 20
0.0
 30
0.0
  3
*D77
  1

  0
ARC
  5
98C2
330
C77
100
AcDbEntity
  8
cotas
100
AcDbCircle
 10
-267.5299909116021
 20
1788.575784133157
 30
0.0
 40
3592.358038712337
100
AcDbArc
 50
359.1594928535918
 51
359.8405064378471
  0
SOLID
  5
98C3
330
C77
100
AcDbEntity
  8
cotas
100
AcDbTrace
 10
3326.107972896314
 20
1735.852389378734
 30
0.0
 11
3322.77506950462
 21
1735.905925280181
 31
0.0
 12
3324.280913496127
 22
1725.880447154375
 32
0.0
 13
3324.280913496127
 23
1725.880447154375
 33
0.0
  0
SOLID
  5
98C4
330
C77
100
AcDbEntity
  8
cotas
100
AcDbTrace
 10
3323.147464313944
 20
1778.578113558383
 30
0.0
 11
3326.480794418562
 21
1778.573474080222
 31
0.0
 12
3324.828047800735
 22
1788.575784133157
 32
0.0
 13
3324.828047800735
 23
1788.575784133157
 33
0.0
  0
MTEXT
  5
98C5
330
C77
100
AcDbEntity
  8
cotas
100
AcDbMText
 10
3313.34851019013
 20
1757.325908735718
 30
0.0
 40
10.0
 41
0.0
 71
     5
 72
     1
  1
1,0°
  7
SANINDUSA
 11
0.0087265416814994
 21
0.9999619230102121
 31
0.0
 73
     1
 44
1.0
1001
ACAD
1000
MTEXTBEGIN
1070
    73
1070
     1
1070
    44
1040
1.0
1070
    74
1070
     0
1000
MTEXTEND
  0
POINT
  5
98C6
330
C77
100
AcDbEntity
  8
Defpoints
 62
     0
100
AcDbPoint
 10
3324.584873569291
 20
1746.777713883827
 30
0.0
  0
POINT
  5
98C7
330
C77
100
AcDbEntity
  8
Defpoints
 62
     0
100
AcDbPoint
 10
3133.313937927936
 20
1788.575784133158
 30
0.0
  0
POINT
  5
98C8
330
C77
100
AcDbEntity
  8
Defpoints
 62
     0
100
AcDbPoint
 10
3401.285707859641
 20
1724.53632251639
 30
0.0
  0
POINT
  5
98C9
330
C77
100
AcDbEntity
  8
Defpoints
 62
     0
100
AcDbPoint
 10
3151.738387906246
 20
1728.892190275862
 30
0.0
  0
POINT
  5
98CA
330
C77
100
AcDbEntity
  8
Defpoints
 62
     0
100
AcDbPoint
 10
4152.86648470126
 20
1788.575784133158
 30
0.0
  0
ENDBLK
  5
C82
330
C77
100
AcDbEntity
  8
0
100
AcDbBlockEnd
  0
BLOCK
  5
C8D
330
C83
100
AcDbEntity
  8
0
100
AcDbBlockBegin
  2
*D78
 70
     1
 10
0.0
 20
0.0
 30
0.0
  3
*D78
  1

  0
LINE
  5
98A7
330
C83
100
AcDbEntity
  8
cotas
100
AcDbLine
 10
4463.090217597185
 20
1717.470463280547
 30
0.0
 11
4463.090217597185
 21
1853.570784088916
 31
0.0
  0
LINE
  5
98A8
330
C83
100
AcDbEntity
  8
cotas
100
AcDbLine
 10
3043.090206868214
 20
1793.575784133157
 30
0.0
 11
3043.090206868214
 21
1853.570784088916
 31
0.0
  0
LINE
  5
98A9
330
C83
100
AcDbEntity
  8
cotas
100
AcDbLine
 10
4453.090217597185
 20
1848.570784088916
 30
0.0
 11
3053.090206868215
 21
1848.570784088916
 31
0.0
  0
SOLID
  5
98AA
330
C83
100
AcDbEntity
  8
cotas
100
AcDbTrace
 10
4453.090217597185
 20
1850.237450755583
 30
0.0
 11
4453.090217597185
 21
1846.90411742225
 31
0.0
 12
4463.090217597185
 22
1848.570784088916
 32
0.0
 13
4463.090217597185
 23
1848.570784088916
 33
0.0
  0
SOLID
  5
98AB
330
C83
100
AcDbEntity
  8
cotas
100
AcDbTrace
 10
3053.090206868215
 20
1850.237450755583
 30
0.0
 11
3053.090206868215
 21
1846.90411742225
 31
0.0
 12
3043.090206868214
 22
1848.570784088916
 32
0.0
 13
3043.090206868214
 23
1848.570784088916
 33
0.0
  0
MTEXT
  5
98AC
330
C83
100
AcDbEntity
  8
cotas
100
AcDbMText
 10
3753.0902122327
 20
1858.778977507318
 30
0.0
 40
10.0
 41
0.0
 71
     5
 72
     1
  1
1420
  7
SANINDUSA
 73
     1
 44
1.0
1001
ACAD
1000
MTEXTBEGIN
1070
    73
1070
     1
1070
    44
1040
1.0
1070
    74
1070
     0
1000
MTEXTEND
  0
POINT
  5
98AD
330
C83
100
AcDbEntity
  8
Defpoints
 62
     0
100
AcDbPoint
 10
4463.090217597185
 20
1712.470463280547
 30
0.0
  0
POINT
  5
98AE
330
C83
100
AcDbEntity
  8
Defpoints
 62
     0
100
AcDbPoint
 10
3043.090206868214
 20
1788.575784133157
 30
0.0
  0
POINT
  5
98AF
330
C83
100
AcDbEntity
  8
Defpoints
 62
     0
100
AcDbPoint
 10
3043.090206868214
 20
1848.570784088916
 30
0.0
  0
ENDBLK
  5
C8E
330
C83
100
AcDbEntity
  8
0
100
AcDbBlockEnd
  0
BLOCK
  5
C99
330
C8F
100
AcDbEntity
  8
0
100
AcDbBlockBegin
  2
*D79
 70
     1
 10
0.0
 20
0.0
 30
0.0
  3
*D79
  1

  0
ARC
  5
989E
330
C8F
100
AcDbEntity
  8
cotas
100
AcDbCircle
 10
4573.090217851603
 20
1788.575784133157
 30
0.0
 40
60.17204840949502
100
AcDbArc
 50
189.5329846044823
 51
258.4669963830444
  0
SOLID
  5
989F
330
C8F
100
AcDbEntity
  8
cotas
100
AcDbTrace
 10
4512.088217337799
 20
1778.471876112874
 30
0.0
 11
4515.41002275542
 21
1778.748859647708
 31
0.0
 12
4512.918169442108
 22
1788.575784133157
 32
0.0
 13
4512.918169442108
 23
1788.575784133157
 33
0.0
  0
SOLID
  5
98A0
330
C8F
100
AcDbEntity
  8
cotas
100
AcDbTrace
 10
4561.256250869906
 20
1731.273684898902
 30
0.0
 11
4560.863505630344
 21
1727.963569751673
 31
0.0
 12
4570.99022369181
 22
1728.440391606597
 32
0.0
 13
4570.99022369181
 23
1728.440391606597
 33
0.0
  0
MTEXT
  5
98A1
330
C8F
100
AcDbEntity
  8
cotas
100
AcDbMText
 10
4537.975328231205
 20
1754.665740657389
 30
0.0
 40
10.0
 41
0.0
 71
     5
 72
     1
  1
88,0°
  7
SANINDUSA
 11
0.694658251109633
 21
-0.7193399155929735
 31
0.0
 73
     1
 44
1.0
1001
ACAD
1000
MTEXTBEGIN
1070
    73
1070
     1
1070
    44
1040
1.0
1070
    74
1070
     0
1000
MTEXTEND
  0
POINT
  5
98A2
330
C8F
100
AcDbEntity
  8
Defpoints
 62
     0
100
AcDbPoint
 10
4520.633160647471
 20
1759.0981220943
 30
0.0
  0
POINT
  5
98A3
330
C8F
100
AcDbEntity
  8
Defpoints
 62
     0
100
AcDbPoint
 10
3533.313937927937
 20
1788.575784133157
 30
0.0
  0
POINT
  5
98A4
330
C8F
100
AcDbEntity
  8
Defpoints
 62
     0
100
AcDbPoint
 10
4570.282227284644
 20
1708.166220055302
 30
0.0
  0
POINT
  5
98A5
330
C8F
100
AcDbEntity
  8
Defpoints
 62
     0
100
AcDbPoint
 10
4572.854301322704
 20
1781.820082931471
 30
0.0
  0
POINT
  5
98A6
330
C8F
100
AcDbEntity
  8
Defpoints
 62
     0
100
AcDbPoint
 10
4552.866484701261
 20
1788.575784133157
 30
0.0
  0
ENDBLK
  5
C9A
330
C8F
100
AcDbEntity
  8
0
100
AcDbBlockEnd
  0
BLOCK
  5
CA5
330
C9B
100
AcDbEntity
  8
0
100
AcDbBlockBegin
  2
*D80
 70
     1
 10
0.0
 20
0.0
 30
0.0
  3
*D80
  1

  0
LINE
  5
988C
330
C9B
100
AcDbEntity
  8
cotas
100
AcDbLine
 10
1220.184921968509
 20
1788.575784133161
 30
0.0
 11
1189.486719387998
 21
1788.575784133161
 31
0.0
  0
LINE
  5
988D
330
C9B
100
AcDbEntity
  8
cotas
100
AcDbLine
 10
1218.090314110515
 20
1668.57578681537
 30
0.0
 11
1189.486719387998
 21
1668.57578681537
 31
0.0
  0
LINE
  5
988E
330
C9B
100
AcDbEntity
  8
cotas
100
AcDbLine
 10
1194.486719387998
 20
1778.57578413316
 30
0.0
 11
1194.486719387998
 21
1678.575786815369
 31
0.0
  0
SOLID
  5
988F
330
C9B
100
AcDbEntity
  8
cotas
100
AcDbTrace
 10
1192.820052721331
 20
1778.57578413316
 30
0.0
 11
1196.153386054664
 21
1778.57578413316
 31
0.0
 12
1194.486719387998
 22
1788.575784133161
 32
0.0
 13
1194.486719387998
 23
1788.575784133161
 33
0.0
  0
SOLID
  5
9890
330
C9B
100
AcDbEntity
  8
cotas
100
AcDbTrace
 10
1192.820052721331
 20
1678.575786815369
 30
0.0
 11
1196.153386054664
 21
1678.575786815369
 31
0.0
 12
1194.486719387998
 22
1668.57578681537
 32
0.0
 13
1194.486719387998
 23
1668.57578681537
 33
0.0
  0
MTEXT
  5
9891
330
C9B
100
AcDbEntity
  8
cotas
100
AcDbMText
 10
1184.278525969596
 20
1728.575785474265
 30
0.0
 40
10.0
 41
0.0
 71
     5
 72
     1
  1
120
  7
SANINDUSA
 11
0.0000000000000001
 21
1.0
 31
0.0
 73
     1
 44
1.0
1001
ACAD
1000
MTEXTBEGIN
1070
    73
1070
     1
1070
    44
1040
1.0
1070
    74
1070
     0
1000
MTEXTEND
  0
POINT
  5
9892
330
C9B
100
AcDbEntity
  8
Defpoints
 62
     0
100
AcDbPoint
 10
1225.184921968509
 20
1788.575784133161
 30
0.0
  0
POINT
  5
9893
330
C9B
100
AcDbEntity
  8
Defpoints
 62
     0
100
AcDbPoint
 10
1223.090314110515
 20
1668.57578681537
 30
0.0
  0
POINT
  5
9894
330
C9B
100
AcDbEntity
  8
Defpoints
 62
     0
100
AcDbPoint
 10
1194.486719387998
 20
1668.57578681537
 30
0.0
  0
ENDBLK
  5
CA6
330
C9B
100
AcDbEntity
  8
0
100
AcDbBlockEnd
  0
BLOCK
  5
CAD
330
CA7
100
AcDbEntity
  8
0
100
AcDbBlockBegin
  2
*D81
 70
     1
 10
0.0
 20
0.0
 30
0.0
  3
*D81
  1

  0
LINE
  5
9887
330
CA7
100
AcDbEntity
  8
cotas
100
AcDbLine
 10
1262.398008538675
 20
1756.908119811734
 30
0.0
 11
1234.391351412931
 21
1779.683030186309
 31
0.0
  0
MTEXT
  5
9888
330
CA7
100
AcDbEntity
  8
cotas
100
AcDbMText
 10
1258.583107469358
 20
1772.899480429042
 30
0.0
 40
10.0
 41
0.0
 71
     5
 72
     1
  1
R7
  7
SANINDUSA
 11
0.7758495341438604
 21
-0.6309179822835574
 31
0.0
 73
     1
 44
1.0
1001
ACAD
1000
MTEXTBEGIN
1070
    73
1070
     1
1070
    44
1040
1.0
1070
    74
1070
     0
1000
MTEXTEND
  0
SOLID
  5
9889
330
CA7
100
AcDbEntity
  8
cotas
100
AcDbTrace
 10
1235.442881383404
 20
1780.976112743215
 30
0.0
 11
1233.339821442459
 21
1778.389947629402
 31
0.0
 12
1226.632856071493
 22
1785.992210009144
 32
0.0
 13
1226.632856071493
 23
1785.992210009144
 33
0.0
  0
POINT
  5
988A
330
CA7
100
AcDbEntity
  8
Defpoints
 62
     0
100
AcDbPoint
 10
1226.632856071493
 20
1785.992210009144
 30
0.0
  0
POINT
  5
988B
330
CA7
100
AcDbEntity
  8
Defpoints
 62
     0
100
AcDbPoint
 10
1232.063802810499
 20
1781.57578413316
 30
0.0
  0
ENDBLK
  5
CAE
330
CA7
100
AcDbEntity
  8
0
100
AcDbBlockEnd
  0
BLOCK
  5
CB5
330
CAF
100
AcDbEntity
  8
0
100
AcDbBlockBegin
  2
*D82
 70
     1
 10
0.0
 20
0.0
 30
0.0
  3
*D82
  1

  0
LINE
  5
9882
330
CAF
100
AcDbEntity
  8
cotas
100
AcDbLine
 10
2788.824582279058
 20
1755.895077018649
 30
0.0
 11
2816.043964121125
 21
1779.605299245921
 31
0.0
  0
MTEXT
  5
9883
330
CAF
100
AcDbEntity
  8
cotas
100
AcDbMText
 10
2792.095789353052
 20
1772.006448432669
 30
0.0
 40
10.0
 41
0.0
 71
     5
 72
     1
  1
R7
  7
SANINDUSA
 11
0.7540401779126793
 21
0.6568282957466244
 31
0.0
 73
     1
 44
1.0
1001
ACAD
1000
MTEXTBEGIN
1070
    73
1070
     1
1070
    44
1040
1.0
1070
    74
1070
     0
1000
MTEXTEND
  0
SOLID
  5
9884
330
CAF
100
AcDbEntity
  8
cotas
100
AcDbTrace
 10
2814.94925029488
 20
1780.862032875775
 30
0.0
 11
2817.138677947369
 21
1778.348565616066
 31
0.0
 12
2823.584365900252
 22
1786.173582203387
 32
0.0
 13
2823.584365900252
 23
1786.173582203387
 33
0.0
  0
POINT
  5
9885
330
CAF
100
AcDbEntity
  8
Defpoints
 62
     0
100
AcDbPoint
 10
2823.584365900252
 20
1786.173582203387
 30
0.0
  0
POINT
  5
9886
330
CAF
100
AcDbEntity
  8
Defpoints
 62
     0
100
AcDbPoint
 10
2818.306084654859
 20
1781.575784133158
 30
0.0
  0
ENDBLK
  5
CB6
330
CAF
100
AcDbEntity
  8
0
100
AcDbBlockEnd
  0
BLOCK
  5
CC2
330
CB7
100
AcDbEntity
  8
0
100
AcDbBlockBegin
  2
*D83
 70
     1
 10
0.0
 20
0.0
 30
0.0
  3
*D83
  1

  0
LINE
  5
9878
330
CB7
100
AcDbEntity
  8
cotas
100
AcDbLine
 10
2825.970492155973
 20
1743.576546693439
 30
0.0
 11
2826.839115910272
 21
1693.817765027193
 31
0.0
  0
ARC
  5
9879
330
CB7
100
AcDbEntity
  8
cotas
100
AcDbCircle
 10
2825.184954302018
 20
1788.575784133157
 30
0.0
 40
89.77245610150861
100
AcDbArc
 50
186.385638331299
 51
264.6144548974064
  0
SOLID
  5
987A
330
CB7
100
AcDbEntity
  8
cotas
100
AcDbTrace
 10
2734.305382320871
 20
1778.498479324488
 30
0.0
 11
2737.633541495556
 21
1778.684133893722
 31
0.0
 12
2735.41249820051
 22
1788.575784133157
 32
0.0
 13
2735.41249820051
 23
1788.575784133157
 33
0.0
  0
SOLID
  5
987B
330
CB7
100
AcDbEntity
  8
cotas
100
AcDbTrace
 10
2816.822936167591
 20
1700.86505912426
 30
0.0
 11
2816.695399680905
 21
1697.534166517814
 31
0.0
 12
2826.751845743586
 22
1698.817003360981
 32
0.0
 13
2826.751845743586
 23
1698.817003360981
 33
0.0
  0
MTEXT
  5
987C
330
CB7
100
AcDbEntity
  8
cotas
100
AcDbMText
 10
2770.213195945461
 20
1732.636025388796
 30
0.0
 40
10.0
 41
0.0
 71
     5
 72
     1
  1
91,0°
  7
SANINDUSA
 11
0.7132510193954568
 21
-0.7009086840176413
 31
0.0
 73
     1
 44
1.0
1001
ACAD
1000
MTEXTBEGIN
1070
    73
1070
     1
1070
    44
1040
1.0
1070
    74
1070
     0
1000
MTEXTEND
  0
POINT
  5
987D
330
CB7
100
AcDbEntity
  8
Defpoints
 62
     0
100
AcDbPoint
 10
2747.702203058302
 20
1743.237972825137
 30
0.0
  0
POINT
  5
987E
330
CB7
100
AcDbEntity
  8
Defpoints
 62
     0
100
AcDbPoint
 10
1632.063846280586
 20
1788.575784133157
 30
0.0
  0
POINT
  5
987F
330
CB7
100
AcDbEntity
  8
Defpoints
 62
     0
100
AcDbPoint
 10
2825.30501849565
 20
1781.697952428337
 30
0.0
  0
POINT
  5
9880
330
CB7
100
AcDbEntity
  8
Defpoints
 62
     0
100
AcDbPoint
 10
2825.883221989287
 20
1748.575785027227
 30
0.0
  0
POINT
  5
9881
330
CB7
100
AcDbEntity
  8
Defpoints
 62
     0
100
AcDbPoint
 10
2818.30604112686
 20
1788.575784133157
 30
0.0
  0
ENDBLK
  5
CC3
330
CB7
100
AcDbEntity
  8
0
100
AcDbBlockEnd
  0
BLOCK
  5
CCF
330
CC4
100
AcDbEntity
  8
0
100
AcDbBlockBegin
  2
*D84
 70
     1
 10
0.0
 20
0.0
 30
0.0
  3
*D84
  1

  0
LINE
  5
986E
330
CC4
100
AcDbEntity
  8
cotas
100
AcDbLine
 10
1224.399457355938
 20
1743.576546551446
 30
0.0
 11
1223.596716224633
 21
1697.587537872919
 31
0.0
  0
ARC
  5
986F
330
CC4
100
AcDbEntity
  8
cotas
100
AcDbCircle
 10
1225.184921968508
 20
1788.57578413316
 30
0.0
 40
86.00210632177294
100
AcDbArc
 50
275.6658955430548
 51
353.3341044583943
  0
SOLID
  5
9870
330
CC4
100
AcDbEntity
  8
cotas
100
AcDbTrace
 10
1233.743533728594
 20
1701.32855479209
 30
0.0
 11
1233.607845829555
 21
1704.65912529955
 31
0.0
 12
1223.683978256693
 22
1702.586776348702
 32
0.0
 13
1223.683978256693
 23
1702.586776348702
 33
0.0
  0
SOLID
  5
9871
330
CC4
100
AcDbEntity
  8
cotas
100
AcDbTrace
 10
1308.941799598155
 20
1778.68959548951
 30
0.0
 11
1312.269494763238
 21
1778.495801786315
 31
0.0
 12
1311.187028290281
 22
1788.57578413316
 32
0.0
 13
1311.187028290281
 23
1788.57578413316
 33
0.0
  0
MTEXT
  5
9872
330
CC4
100
AcDbEntity
  8
cotas
100
AcDbMText
 10
1277.514052746583
 20
1735.325273786934
 30
0.0
 40
10.0
 41
0.0
 71
     5
 72
     1
  1
91,0°
  7
SANINDUSA
 11
0.7132504491453208
 21
0.7009092643088679
 31
0.0
 73
     1
 44
1.0
1001
ACAD
1000
MTEXTBEGIN
1070
    73
1070
     1
1070
    44
1040
1.0
1070
    74
1070
     0
1000
MTEXTEND
  0
POINT
  5
9873
330
CC4
100
AcDbEntity
  8
Defpoints
 62
     0
100
AcDbPoint
 10
1267.316469603628
 20
1713.600488297457
 30
0.0
  0
POINT
  5
9874
330
CC4
100
AcDbEntity
  8
Defpoints
 62
     0
100
AcDbPoint
 10
1224.486719387998
 20
1748.57578502723
 30
0.0
  0
POINT
  5
9875
330
CC4
100
AcDbEntity
  8
Defpoints
 62
     0
100
AcDbPoint
 10
1232.063802752592
 20
1788.57578413316
 30
0.0
  0
POINT
  5
9876
330
CC4
100
AcDbEntity
  8
Defpoints
 62
     0
100
AcDbPoint
 10
2418.305997598866
 20
1788.575784133161
 30
0.0
  0
POINT
  5
9877
330
CC4
100
AcDbEntity
  8
Defpoints
 62
     0
100
AcDbPoint
 10
1225.0648689463
 20
1781.697951087202
 30
0.0
  0
ENDBLK
  5
CD0
330
CC4
100
AcDbEntity
  8
0
100
AcDbBlockEnd
  0
BLOCK
  5
CDB
330
CD1
100
AcDbEntity
  8
0
100
AcDbBlockBegin
  2
*D85
 70
     1
 10
0.0
 20
0.0
 30
0.0
  3
*D85
  1

  0
LINE
  5
9865
330
CD1
100
AcDbEntity
  8
cotas
100
AcDbLine
 10
2830.184954302019
 20
1788.575784133157
 30
0.0
 11
2860.883221989287
 21
1788.575784133157
 31
0.0
  0
LINE
  5
9866
330
CD1
100
AcDbEntity
  8
cotas
100
AcDbLine
 10
2701.88069023101
 20
1656.630806432912
 30
0.0
 11
2860.883221989287
 21
1656.630806432912
 31
0.0
  0
LINE
  5
9867
330
CD1
100
AcDbEntity
  8
cotas
100
AcDbLine
 10
2855.883221989287
 20
1778.575784133157
 30
0.0
 11
2855.883221989287
 21
1666.630806432912
 31
0.0
  0
SOLID
  5
9868
330
CD1
100
AcDbEntity
  8
cotas
100
AcDbTrace
 10
2854.21655532262
 20
1778.575784133157
 30
0.0
 11
2857.549888655953
 21
1778.575784133157
 31
0.0
 12
2855.883221989287
 22
1788.575784133157
 32
0.0
 13
2855.883221989287
 23
1788.575784133157
 33
0.0
  0
SOLID
  5
9869
330
CD1
100
AcDbEntity
  8
cotas
100
AcDbTrace
 10
2854.21655532262
 20
1666.630806432912
 30
0.0
 11
2857.549888655953
 21
1666.630806432912
 31
0.0
 12
2855.883221989287
 22
1656.630806432912
 32
0.0
 13
2855.883221989287
 23
1656.630806432912
 33
0.0
  0
MTEXT
  5
986A
330
CD1
100
AcDbEntity
  8
cotas
100
AcDbMText
 10
2844.536680686398
 20
1722.603295283035
 30
0.0
 40
10.0
 41
0.0
 71
     5
 72
     1
  1
131,9
  7
SANINDUSA
 11
0.0000000000000001
 21
1.0
 31
0.0
 73
     1
 44
1.0
1001
ACAD
1000
MTEXTBEGIN
1070
    73
1070
     1
1070
    44
1040
1.0
1070
    74
1070
     0
1000
MTEXTEND
  0
POINT
  5
986B
330
CD1
100
AcDbEntity
  8
Defpoints
 62
     0
100
AcDbPoint
 10
2825.184954302019
 20
1788.575784133157
 30
0.0
  0
POINT
  5
986C
330
CD1
100
AcDbEntity
  8
Defpoints
 62
     0
100
AcDbPoint
 10
2696.88069023101
 20
1656.630806432912
 30
0.0
  0
POINT
  5
986D
330
CD1
100
AcDbEntity
  8
Defpoints
 62
     0
100
AcDbPoint
 10
2855.883221989287
 20
1656.630806432912
 30
0.0
  0
ENDBLK
  5
CDC
330
CD1
100
AcDbEntity
  8
0
100
AcDbBlockEnd
  0
BLOCK
  5
CE7
330
CDD
100
AcDbEntity
  8
0
100
AcDbBlockBegin
  2
*D86
 70
     1
 10
0.0
 20
0.0
 30
0.0
  3
*D86
  1

  0
LINE
  5
985C
330
CDD
100
AcDbEntity
  8
cotas
100
AcDbLine
 10
-333.8609312657495
 20
2166.999511702031
 30
0.0
 11
-333.8609312657495
 21
2197.690493404695
 31
0.0
  0
LINE
  5
985D
330
CDD
100
AcDbEntity
  8
cotas
100
AcDbLine
 10
-514.3322161319188
 20
2032.441072995423
 30
0.0
 11
-514.3322161319188
 21
2197.690493404695
 31
0.0
  0
LINE
  5
985E
330
CDD
100
AcDbEntity
  8
cotas
100
AcDbLine
 10
-343.8609312657495
 20
2192.690493404695
 30
0.0
 11
-504.3322161319188
 21
2192.690493404695
 31
0.0
  0
SOLID
  5
985F
330
CDD
100
AcDbEntity
  8
cotas
100
AcDbTrace
 10
-343.8609312657495
 20
2194.357160071362
 30
0.0
 11
-343.8609312657495
 21
2191.023826738029
 31
0.0
 12
-333.8609312657495
 22
2192.690493404695
 32
0.0
 13
-333.8609312657495
 23
2192.690493404695
 33
0.0
  0
SOLID
  5
9860
330
CDD
100
AcDbEntity
  8
cotas
100
AcDbTrace
 10
-504.3322161319188
 20
2194.357160071362
 30
0.0
 11
-504.3322161319188
 21
2191.023826738029
 31
0.0
 12
-514.3322161319188
 22
2192.690493404695
 32
0.0
 13
-514.3322161319188
 23
2192.690493404695
 33
0.0
  0
MTEXT
  5
9861
330
CDD
100
AcDbEntity
  8
cotas
100
AcDbMText
 10
-424.0965736988341
 20
2204.047108582667
 30
0.0
 40
10.0
 41
0.0
 71
     5
 72
     1
  1
180,5
  7
SANINDUSA
 73
     1
 44
1.0
1001
ACAD
1000
MTEXTBEGIN
1070
    73
1070
     1
1070
    44
1040
1.0
1070
    74
1070
     0
1000
MTEXTEND
  0
POINT
  5
9862
330
CDD
100
AcDbEntity
  8
Defpoints
 62
     0
100
AcDbPoint
 10
-333.8609312657495
 20
2161.999511702031
 30
0.0000000000001709
  0
POINT
  5
9863
330
CDD
100
AcDbEntity
  8
Defpoints
 62
     0
100
AcDbPoint
 10
-514.3322161319188
 20
2027.441072995423
 30
0.0
  0
POINT
  5
9864
330
CDD
100
AcDbEntity
  8
Defpoints
 62
     0
100
AcDbPoint
 10
-514.3322161319188
 20
2192.690493404695
 30
0.0
  0
ENDBLK
  5
CE8
330
CDD
100
AcDbEntity
  8
0
100
AcDbBlockEnd
  0
BLOCK
  5
CF3
330
CE9
100
AcDbEntity
  8
0
100
AcDbBlockBegin
  2
*D87
 70
     1
 10
0.0
 20
0.0
 30
0.0
  3
*D87
  1

  0
LINE
  5
9838
330
CE9
100
AcDbEntity
  8
cotas
100
AcDbLine
 10
-834.1634009517251
 20
2032.423712010843
 30
0.0
 11
-834.1634009517251
 21
2197.690295284729
 31
0.0
  0
LINE
  5
9839
330
CE9
100
AcDbEntity
  8
cotas
100
AcDbLine
 10
-914.1506986941335
 20
2032.423712010843
 30
0.0
 11
-914.1506986941335
 21
2197.690295284729
 31
0.0
  0
LINE
  5
983A
330
CE9
100
AcDbEntity
  8
cotas
100
AcDbLine
 10
-844.1634009517251
 20
2192.690295284728
 30
0.0
 11
-904.1506986941335
 21
2192.690295284728
 31
0.0
  0
SOLID
  5
983B
330
CE9
100
AcDbEntity
  8
cotas
100
AcDbTrace
 10
-844.1634009517251
 20
2194.356961951395
 30
0.0
 11
-844.1634009517251
 21
2191.023628618062
 31
0.0
 12
-834.1634009517251
 22
2192.690295284728
 32
0.0
 13
-834.1634009517251
 23
2192.690295284728
 33
0.0
  0
SOLID
  5
983C
330
CE9
100
AcDbEntity
  8
cotas
100
AcDbTrace
 10
-904.1506986941335
 20
2194.356961951395
 30
0.0
 11
-904.1506986941335
 21
2191.023628618062
 31
0.0
 12
-914.1506986941335
 22
2192.690295284728
 32
0.0
 13
-914.1506986941335
 23
2192.690295284728
 33
0.0
  0
MTEXT
  5
983D
330
CE9
100
AcDbEntity
  8
cotas
100
AcDbMText
 10
-874.1570498229293
 20
2202.918636453298
 30
0.0
 40
10.0
 41
0.0
 71
     5
 72
     1
  1
80
  7
SANINDUSA
 73
     1
 44
1.0
1001
ACAD
1000
MTEXTBEGIN
1070
    73
1070
     1
1070
    44
1040
1.0
1070
    74
1070
     0
1000
MTEXTEND
  0
POINT
  5
983E
330
CE9
100
AcDbEntity
  8
Defpoints
 62
     0
100
AcDbPoint
 10
-834.1634009517251
 20
2027.423712010843
 30
0.0
  0
POINT
  5
983F
330
CE9
100
AcDbEntity
  8
Defpoints
 62
     0
100
AcDbPoint
 10
-914.1506986941335
 20
2027.423712010843
 30
0.0
  0
POINT
  5
9840
330
CE9
100
AcDbEntity
  8
Defpoints
 62
     0
100
AcDbPoint
 10
-914.1506986941335
 20
2192.690295284728
 30
0.0
  0
ENDBLK
  5
CF4
330
CE9
100
AcDbEntity
  8
0
100
AcDbBlockEnd
  0
BLOCK
  5
CFF
330
CF5
100
AcDbEntity
  8
0
100
AcDbBlockBegin
  2
*D88
 70
     1
 10
0.0
 20
0.0
 30
0.0
  3
*D88
  1

  0
LINE
  5
982F
330
CF5
100
AcDbEntity
  8
cotas
100
AcDbLine
 10
-914.1506986941335
 20
2032.423712010843
 30
0.0
 11
-914.1506986941335
 21
2197.690295284729
 31
0.0
  0
LINE
  5
9830
330
CF5
100
AcDbEntity
  8
cotas
100
AcDbLine
 10
-994.1495269743988
 20
2167.690295284728
 30
0.0
 11
-994.1495269743988
 21
2197.690295284729
 31
0.0
  0
LINE
  5
9831
330
CF5
100
AcDbEntity
  8
cotas
100
AcDbLine
 10
-924.1506986941335
 20
2192.690295284728
 30
0.0
 11
-984.1495269743989
 21
2192.690295284728
 31
0.0
  0
SOLID
  5
9832
330
CF5
100
AcDbEntity
  8
cotas
100
AcDbTrace
 10
-924.1506986941335
 20
2194.356961951395
 30
0.0
 11
-924.1506986941335
 21
2191.023628618062
 31
0.0
 12
-914.1506986941335
 22
2192.690295284728
 32
0.0
 13
-914.1506986941335
 23
2192.690295284728
 33
0.0
  0
SOLID
  5
9833
330
CF5
100
AcDbEntity
  8
cotas
100
AcDbTrace
 10
-984.1495269743989
 20
2194.356961951395
 30
0.0
 11
-984.1495269743989
 21
2191.023628618062
 31
0.0
 12
-994.1495269743988
 22
2192.690295284728
 32
0.0
 13
-994.1495269743988
 23
2192.690295284728
 33
0.0
  0
MTEXT
  5
9834
330
CF5
100
AcDbEntity
  8
cotas
100
AcDbMText
 10
-954.1501128342662
 20
2202.918636453298
 30
0.0
 40
10.0
 41
0.0
 71
     5
 72
     1
  1
80
  7
SANINDUSA
 73
     1
 44
1.0
1001
ACAD
1000
MTEXTBEGIN
1070
    73
1070
     1
1070
    44
1040
1.0
1070
    74
1070
     0
1000
MTEXTEND
  0
POINT
  5
9835
330
CF5
100
AcDbEntity
  8
Defpoints
 62
     0
100
AcDbPoint
 10
-914.1506986941335
 20
2027.423712010843
 30
0.0
  0
POINT
  5
9836
330
CF5
100
AcDbEntity
  8
Defpoints
 62
     0
100
AcDbPoint
 10
-994.1495269743988
 20
2162.690295284728
 30
-0.0000000000000197
  0
POINT
  5
9837
330
CF5
100
AcDbEntity
  8
Defpoints
 62
     0
100
AcDbPoint
 10
-994.1495269743988
 20
2192.690295284728
 30
0.0
  0
ENDBLK
  5
D00
330
CF5
100
AcDbEntity
  8
0
100
AcDbBlockEnd
  0
BLOCK
  5
D0B
330
D01
100
AcDbEntity
  8
0
100
AcDbBlockBegin
  2
*D89
 70
     1
 10
0.0
 20
0.0
 30
0.0
  3
*D89
  1

  0
LINE
  5
981D
330
D01
100
AcDbEntity
  8
cotas
100
AcDbLine
 10
-429.657755330611
 20
1991.996335877552
 30
0.0000000000001922
 11
-118.1381522933966
 21
1991.996335877552
 31
0.0000000000001922
  0
LINE
  5
981E
330
D01
100
AcDbEntity
  8
cotas
100
AcDbLine
 10
-432.7184618382639
 20
1912.018739373978
 30
0.0000000000001922
 11
-118.1381522933966
 21
1912.018739373978
 31
0.0000000000001922
  0
LINE
  5
981F
330
D01
100
AcDbEntity
  8
cotas
100
AcDbLine
 10
-123.1381522933966
 20
1981.996335877552
 30
0.0000000000001922
 11
-123.1381522933966
 21
1922.018739373978
 31
0.0000000000001922
  0
SOLID
  5
9820
330
D01
100
AcDbEntity
  8
cotas
100
AcDbTrace
 10
-124.8048189600633
 20
1981.996335877552
 30
0.0000000000001922
 11
-121.4714856267299
 21
1981.996335877552
 31
0.0000000000001922
 12
-123.1381522933966
 22
1991.996335877552
 32
0.0000000000001922
 13
-123.1381522933966
 23
1991.996335877552
 33
0.0000000000001922
  0
SOLID
  5
9821
330
D01
100
AcDbEntity
  8
cotas
100
AcDbTrace
 10
-124.8048189600633
 20
1922.018739373978
 30
0.0000000000001922
 11
-121.4714856267299
 21
1922.018739373978
 31
0.0000000000001922
 12
-123.1381522933966
 22
1912.018739373978
 32
0.0000000000001922
 13
-123.1381522933966
 23
1912.018739373978
 33
0.0000000000001922
  0
MTEXT
  5
9822
330
D01
100
AcDbEntity
  8
cotas
100
AcDbMText
 10
-133.3664934619664
 20
1952.007537625765
 30
0.0000000000001922
 40
10.0
 41
0.0
 71
     5
 72
     1
  1
80
  7
SANINDUSA
 11
0.0000000000000001
 21
1.0
 31
0.0
 73
     1
 44
1.0
1001
ACAD
1000
MTEXTBEGIN
1070
    73
1070
     1
1070
    44
1040
1.0
1070
    74
1070
     0
1000
MTEXTEND
  0
POINT
  5
9823
330
D01
100
AcDbEntity
  8
Defpoints
 62
     0
100
AcDbPoint
 10
-434.6577553306111
 20
1991.996335877552
 30
0.0000000000001922
  0
POINT
  5
9824
330
D01
100
AcDbEntity
  8
Defpoints
 62
     0
100
AcDbPoint
 10
-437.7184618382639
 20
1912.018739373978
 30
0.0000000000001922
  0
POINT
  5
9825
330
D01
100
AcDbEntity
  8
Defpoints
 62
     0
100
AcDbPoint
 10
-123.1381522933966
 20
1912.018739373978
 30
0.0000000000001922
  0
ENDBLK
  5
D0C
330
D01
100
AcDbEntity
  8
0
100
AcDbBlockEnd
  0
BLOCK
  5
D17
330
D0D
100
AcDbEntity
  8
0
100
AcDbBlockBegin
  2
*D90
 70
     1
 10
0.0
 20
0.0
 30
0.0
  3
*D90
  1

  0
LINE
  5
9814
330
D0D
100
AcDbEntity
  8
cotas
100
AcDbLine
 10
-432.7184618382639
 20
1912.018739373978
 30
0.0000000000001922
 11
-118.1381522933966
 21
1912.018739373978
 31
0.0000000000001922
  0
LINE
  5
9815
330
D0D
100
AcDbEntity
  8
cotas
100
AcDbLine
 10
-437.7383217926003
 20
1832.023860306713
 30
0.0000000000001922
 11
-118.1381522933966
 21
1832.023860306713
 31
0.0000000000001922
  0
LINE
  5
9816
330
D0D
100
AcDbEntity
  8
cotas
100
AcDbLine
 10
-123.1381522933966
 20
1902.018739373978
 30
0.0000000000001922
 11
-123.1381522933966
 21
1842.023860306714
 31
0.0000000000001922
  0
SOLID
  5
9817
330
D0D
100
AcDbEntity
  8
cotas
100
AcDbTrace
 10
-124.8048189600633
 20
1902.018739373978
 30
0.0000000000001922
 11
-121.4714856267299
 21
1902.018739373978
 31
0.0000000000001922
 12
-123.1381522933966
 22
1912.018739373978
 32
0.0000000000001922
 13
-123.1381522933966
 23
1912.018739373978
 33
0.0000000000001922
  0
SOLID
  5
9818
330
D0D
100
AcDbEntity
  8
cotas
100
AcDbTrace
 10
-124.8048189600633
 20
1842.023860306714
 30
0.0000000000001922
 11
-121.4714856267299
 21
1842.023860306714
 31
0.0000000000001922
 12
-123.1381522933966
 22
1832.023860306713
 32
0.0000000000001922
 13
-123.1381522933966
 23
1832.023860306713
 33
0.0000000000001922
  0
MTEXT
  5
9819
330
D0D
100
AcDbEntity
  8
cotas
100
AcDbMText
 10
-133.3664934619664
 20
1872.021299840346
 30
0.0000000000001922
 40
10.0
 41
0.0
 71
     5
 72
     1
  1
80
  7
SANINDUSA
 11
0.0000000000000001
 21
1.0
 31
0.0
 73
     1
 44
1.0
1001
ACAD
1000
MTEXTBEGIN
1070
    73
1070
     1
1070
    44
1040
1.0
1070
    74
1070
     0
1000
MTEXTEND
  0
POINT
  5
981A
330
D0D
100
AcDbEntity
  8
Defpoints
 62
     0
100
AcDbPoint
 10
-437.7184618382639
 20
1912.018739373978
 30
0.0000000000001922
  0
POINT
  5
981B
330
D0D
100
AcDbEntity
  8
Defpoints
 62
     0
100
AcDbPoint
 10
-442.7383217926003
 20
1832.023860306713
 30
0.0000000000001922
  0
POINT
  5
981C
330
D0D
100
AcDbEntity
  8
Defpoints
 62
     0
100
AcDbPoint
 10
-123.1381522933966
 20
1832.023860306713
 30
0.0000000000001922
  0
ENDBLK
  5
D18
330
D0D
100
AcDbEntity
  8
0
100
AcDbBlockEnd
  0
BLOCK
  5
D23
330
D19
100
AcDbEntity
  8
0
100
AcDbBlockBegin
  2
*D91
 70
     1
 10
0.0
 20
0.0
 30
0.0
  3
*D91
  1

  0
LINE
  5
980B
330
D19
100
AcDbEntity
  8
cotas
100
AcDbLine
 10
-429.7036135757939
 20
1752.002688740128
 30
0.0000000000001922
 11
-118.1381522933966
 21
1752.002688740128
 31
0.0000000000001922
  0
LINE
  5
980C
330
D19
100
AcDbEntity
  8
cotas
100
AcDbLine
 10
-437.7383217926003
 20
1832.023860306713
 30
0.0000000000001922
 11
-118.1381522933966
 21
1832.023860306713
 31
0.0000000000001922
  0
LINE
  5
980D
330
D19
100
AcDbEntity
  8
cotas
100
AcDbLine
 10
-123.1381522933966
 20
1762.002688740128
 30
0.0000000000001922
 11
-123.1381522933966
 21
1822.023860306714
 31
0.0000000000001922
  0
SOLID
  5
980E
330
D19
100
AcDbEntity
  8
cotas
100
AcDbTrace
 10
-124.8048189600633
 20
1762.002688740128
 30
0.0000000000001922
 11
-121.4714856267299
 21
1762.002688740128
 31
0.0000000000001922
 12
-123.1381522933966
 22
1752.002688740128
 32
0.0000000000001922
 13
-123.1381522933966
 23
1752.002688740128
 33
0.0000000000001922
  0
SOLID
  5
980F
330
D19
100
AcDbEntity
  8
cotas
100
AcDbTrace
 10
-124.8048189600633
 20
1822.023860306714
 30
0.0000000000001922
 11
-121.4714856267299
 21
1822.023860306714
 31
0.0000000000001922
 12
-123.1381522933966
 22
1832.023860306713
 32
0.0000000000001922
 13
-123.1381522933966
 23
1832.023860306713
 33
0.0000000000001922
  0
MTEXT
  5
9810
330
D19
100
AcDbEntity
  8
cotas
100
AcDbMText
 10
-133.3664934619664
 20
1792.013274523421
 30
0.0000000000001922
 40
10.0
 41
0.0
 71
     5
 72
     1
  1
80
  7
SANINDUSA
 11
0.0000000000000001
 21
1.0
 31
0.0
 73
     1
 44
1.0
1001
ACAD
1000
MTEXTBEGIN
1070
    73
1070
     1
1070
    44
1040
1.0
1070
    74
1070
     0
1000
MTEXTEND
  0
POINT
  5
9811
330
D19
100
AcDbEntity
  8
Defpoints
 62
     0
100
AcDbPoint
 10
-434.7036135757939
 20
1752.002688740128
 30
0.0000000000001922
  0
POINT
  5
9812
330
D19
100
AcDbEntity
  8
Defpoints
 62
     0
100
AcDbPoint
 10
-442.7383217926003
 20
1832.023860306713
 30
0.0000000000001922
  0
POINT
  5
9813
330
D19
100
AcDbEntity
  8
Defpoints
 62
     0
100
AcDbPoint
 10
-123.1381522933966
 20
1832.023860306713
 30
0.0000000000001922
  0
ENDBLK
  5
D24
330
D19
100
AcDbEntity
  8
0
100
AcDbBlockEnd
  0
BLOCK
  5
D2F
330
D25
100
AcDbEntity
  8
0
100
AcDbBlockBegin
  2
*D92
 70
     1
 10
0.0
 20
0.0
 30
0.0
  3
*D92
  1

  0
LINE
  5
9802
330
D25
100
AcDbEntity
  8
cotas
100
AcDbLine
 10
-437.7555193302
 20
1752.006935579609
 30
0.0000000000001922
 11
-118.1381522933966
 21
1752.006935579609
 31
0.0000000000001922
  0
LINE
  5
9803
330
D25
100
AcDbEntity
  8
cotas
100
AcDbLine
 10
-147.5151897951241
 20
1712.000405876688
 30
0.0000000000001922
 11
-118.1381522933966
 21
1712.000405876688
 31
0.0000000000001922
  0
LINE
  5
9804
330
D25
100
AcDbEntity
  8
cotas
100
AcDbLine
 10
-123.1381522933966
 20
1742.006935579609
 30
0.0000000000001922
 11
-123.1381522933966
 21
1722.000405876688
 31
0.0000000000001922
  0
SOLID
  5
9805
330
D25
100
AcDbEntity
  8
cotas
100
AcDbTrace
 10
-124.8048189600633
 20
1742.006935579609
 30
0.0000000000001922
 11
-121.4714856267299
 21
1742.006935579609
 31
0.0000000000001922
 12
-123.1381522933966
 22
1752.006935579609
 32
0.0000000000001922
 13
-123.1381522933966
 23
1752.006935579609
 33
0.0000000000001922
  0
SOLID
  5
9806
330
D25
100
AcDbEntity
  8
cotas
100
AcDbTrace
 10
-124.8048189600633
 20
1722.000405876688
 30
0.0000000000001922
 11
-121.4714856267299
 21
1722.000405876688
 31
0.0000000000001922
 12
-123.1381522933966
 22
1712.000405876688
 32
0.0000000000001922
 13
-123.1381522933966
 23
1712.000405876688
 33
0.0000000000001922
  0
MTEXT
  5
9807
330
D25
100
AcDbEntity
  8
cotas
100
AcDbMText
 10
-133.3429877534372
 20
1732.003670728149
 30
0.0000000000001922
 40
10.0
 41
0.0
 71
     5
 72
     1
  1
40
  7
SANINDUSA
 11
0.0000000000000001
 21
1.0
 31
0.0
 73
     1
 44
1.0
1001
ACAD
1000
MTEXTBEGIN
1070
    73
1070
     1
1070
    44
1040
1.0
1070
    74
1070
     0
1000
MTEXTEND
  0
POINT
  5
9808
330
D25
100
AcDbEntity
  8
Defpoints
 62
     0
100
AcDbPoint
 10
-442.7555193302
 20
1752.006935579609
 30
0.0000000000001922
  0
POINT
  5
9809
330
D25
100
AcDbEntity
  8
Defpoints
 62
     0
100
AcDbPoint
 10
-152.5151897951241
 20
1712.000405876688
 30
0.0000000000001922
  0
POINT
  5
980A
330
D25
100
AcDbEntity
  8
Defpoints
 62
     0
100
AcDbPoint
 10
-123.1381522933966
 20
1712.000405876688
 30
0.0000000000001922
  0
ENDBLK
  5
D30
330
D25
100
AcDbEntity
  8
0
100
AcDbBlockEnd
  0
BLOCK
  5
D3B
330
D31
100
AcDbEntity
  8
0
100
AcDbBlockBegin
  2
*D93
 70
     1
 10
0.0
 20
0.0
 30
0.0
  3
*D93
  1

  0
LINE
  5
97F9
330
D31
100
AcDbEntity
  8
cotas
100
AcDbLine
 10
-148.0933932634457
 20
1712.000405876686
 30
0.0000000000001922
 11
-118.1381522933966
 21
1712.000405876686
 31
0.0000000000001922
  0
LINE
  5
97FA
330
D31
100
AcDbEntity
  8
cotas
100
AcDbLine
 10
-437.7534335922578
 20
1671.977972175255
 30
0.0000000000001922
 11
-118.1381522933966
 21
1671.977972175255
 31
0.0000000000001922
  0
LINE
  5
97FB
330
D31
100
AcDbEntity
  8
cotas
100
AcDbLine
 10
-123.1381522933966
 20
1702.000405876686
 30
0.0000000000001922
 11
-123.1381522933966
 21
1681.977972175254
 31
0.0000000000001922
  0
SOLID
  5
97FC
330
D31
100
AcDbEntity
  8
cotas
100
AcDbTrace
 10
-124.8048189600633
 20
1702.000405876686
 30
0.0000000000001922
 11
-121.4714856267299
 21
1702.000405876686
 31
0.0000000000001922
 12
-123.1381522933966
 22
1712.000405876686
 32
0.0000000000001922
 13
-123.1381522933966
 23
1712.000405876686
 33
0.0000000000001922
  0
SOLID
  5
97FD
330
D31
100
AcDbEntity
  8
cotas
100
AcDbTrace
 10
-124.8048189600633
 20
1681.977972175254
 30
0.0000000000001922
 11
-121.4714856267299
 21
1681.977972175254
 31
0.0000000000001922
 12
-123.1381522933966
 22
1671.977972175255
 32
0.0000000000001922
 13
-123.1381522933966
 23
1671.977972175255
 33
0.0000000000001922
  0
MTEXT
  5
97FE
330
D31
100
AcDbEntity
  8
cotas
100
AcDbMText
 10
-133.3429877534372
 20
1691.98918902597
 30
0.0000000000001922
 40
10.0
 41
0.0
 71
     5
 72
     1
  1
40
  7
SANINDUSA
 11
0.0000000000000001
 21
1.0
 31
0.0
 73
     1
 44
1.0
1001
ACAD
1000
MTEXTBEGIN
1070
    73
1070
     1
1070
    44
1040
1.0
1070
    74
1070
     0
1000
MTEXTEND
  0
POINT
  5
97FF
330
D31
100
AcDbEntity
  8
Defpoints
 62
     0
100
AcDbPoint
 10
-153.0933932634457
 20
1712.000405876686
 30
0.0000000000001922
  0
POINT
  5
9800
330
D31
100
AcDbEntity
  8
Defpoints
 62
     0
100
AcDbPoint
 10
-442.7534335922578
 20
1671.977972175255
 30
0.0000000000001922
  0
POINT
  5
9801
330
D31
100
AcDbEntity
  8
Defpoints
 62
     0
100
AcDbPoint
 10
-123.1381522933966
 20
1671.977972175255
 30
0.0000000000001922
  0
ENDBLK
  5
D3C
330
D31
100
AcDbEntity
  8
0
100
AcDbBlockEnd
  0
BLOCK
  5
D47
330
D3D
100
AcDbEntity
  8
0
100
AcDbBlockBegin
  2
*D94
 70
     1
 10
0.0
 20
0.0
 30
0.0
  3
*D94
  1

  0
LINE
  5
97F0
330
D3D
100
AcDbEntity
  8
cotas
100
AcDbLine
 10
-437.7534335922578
 20
1671.977972175255
 30
0.0000000000001922
 11
-118.1381522933966
 21
1671.977972175255
 31
0.0000000000001922
  0
LINE
  5
97F1
330
D3D
100
AcDbEntity
  8
cotas
100
AcDbLine
 10
-437.7534335922587
 20
1591.992441518394
 30
0.0000000000001922
 11
-118.1381522933966
 21
1591.992441518394
 31
0.0000000000001922
  0
LINE
  5
97F2
330
D3D
100
AcDbEntity
  8
cotas
100
AcDbLine
 10
-123.1381522933966
 20
1661.977972175255
 30
0.0000000000001922
 11
-123.1381522933966
 21
1601.992441518394
 31
0.0000000000001922
  0
SOLID
  5
97F3
330
D3D
100
AcDbEntity
  8
cotas
100
AcDbTrace
 10
-124.8048189600633
 20
1661.977972175255
 30
0.0000000000001922
 11
-121.4714856267299
 21
1661.977972175255
 31
0.0000000000001922
 12
-123.1381522933966
 22
1671.977972175255
 32
0.0000000000001922
 13
-123.1381522933966
 23
1671.977972175255
 33
0.0000000000001922
  0
SOLID
  5
97F4
330
D3D
100
AcDbEntity
  8
cotas
100
AcDbTrace
 10
-124.8048189600633
 20
1601.992441518394
 30
0.0000000000001922
 11
-121.4714856267299
 21
1601.992441518394
 31
0.0000000000001922
 12
-123.1381522933966
 22
1591.992441518394
 32
0.0000000000001922
 13
-123.1381522933966
 23
1591.992441518394
 33
0.0000000000001922
  0
MTEXT
  5
97F5
330
D3D
100
AcDbEntity
  8
cotas
100
AcDbMText
 10
-133.3664934619664
 20
1631.985206846824
 30
0.0000000000001922
 40
10.0
 41
0.0
 71
     5
 72
     1
  1
80
  7
SANINDUSA
 11
0.0000000000000001
 21
1.0
 31
0.0
 73
     1
 44
1.0
1001
ACAD
1000
MTEXTBEGIN
1070
    73
1070
     1
1070
    44
1040
1.0
1070
    74
1070
     0
1000
MTEXTEND
  0
POINT
  5
97F6
330
D3D
100
AcDbEntity
  8
Defpoints
 62
     0
100
AcDbPoint
 10
-442.7534335922578
 20
1671.977972175255
 30
0.0000000000001922
  0
POINT
  5
97F7
330
D3D
100
AcDbEntity
  8
Defpoints
 62
     0
100
AcDbPoint
 10
-442.7534335922587
 20
1591.992441518394
 30
0.0000000000001922
  0
POINT
  5
97F8
330
D3D
100
AcDbEntity
  8
Defpoints
 62
     0
100
AcDbPoint
 10
-123.1381522933966
 20
1591.992441518394
 30
0.0000000000001922
  0
ENDBLK
  5
D48
330
D3D
100
AcDbEntity
  8
0
100
AcDbBlockEnd
  0
BLOCK
  5
D53
330
D49
100
AcDbEntity
  8
0
100
AcDbBlockBegin
  2
*D95
 70
     1
 10
0.0
 20
0.0
 30
0.0
  3
*D95
  1

  0
LINE
  5
97E7
330
D49
100
AcDbEntity
  8
cotas
100
AcDbLine
 10
-437.7534335922587
 20
1591.992441518394
 30
0.0000000000001922
 11
-118.1381522933966
 21
1591.992441518394
 31
0.0000000000001922
  0
LINE
  5
97E8
330
D49
100
AcDbEntity
  8
cotas
100
AcDbLine
 10
-429.6133429238966
 20
1511.988896155842
 30
0.0000000000001922
 11
-118.1381522933966
 21
1511.988896155842
 31
0.0000000000001922
  0
LINE
  5
97E9
330
D49
100
AcDbEntity
  8
cotas
100
AcDbLine
 10
-123.1381522933966
 20
1581.992441518394
 30
0.0000000000001922
 11
-123.1381522933966
 21
1521.988896155842
 31
0.0000000000001922
  0
SOLID
  5
97EA
330
D49
100
AcDbEntity
  8
cotas
100
AcDbTrace
 10
-124.8048189600633
 20
1581.992441518394
 30
0.0000000000001922
 11
-121.4714856267299
 21
1581.992441518394
 31
0.0000000000001922
 12
-123.1381522933966
 22
1591.992441518394
 32
0.0000000000001922
 13
-123.1381522933966
 23
1591.992441518394
 33
0.0000000000001922
  0
SOLID
  5
97EB
330
D49
100
AcDbEntity
  8
cotas
100
AcDbTrace
 10
-124.8048189600633
 20
1521.988896155842
 30
0.0000000000001922
 11
-121.4714856267299
 21
1521.988896155842
 31
0.0000000000001922
 12
-123.1381522933966
 22
1511.988896155842
 32
0.0000000000001922
 13
-123.1381522933966
 23
1511.988896155842
 33
0.0000000000001922
  0
MTEXT
  5
97EC
330
D49
100
AcDbEntity
  8
cotas
100
AcDbMText
 10
-133.3664934619664
 20
1551.990668837118
 30
0.0000000000001922
 40
10.0
 41
0.0
 71
     5
 72
     1
  1
80
  7
SANINDUSA
 11
0.0000000000000001
 21
1.0
 31
0.0
 73
     1
 44
1.0
1001
ACAD
1000
MTEXTBEGIN
1070
    73
1070
     1
1070
    44
1040
1.0
1070
    74
1070
     0
1000
MTEXTEND
  0
POINT
  5
97ED
330
D49
100
AcDbEntity
  8
Defpoints
 62
     0
100
AcDbPoint
 10
-442.7534335922587
 20
1591.992441518394
 30
0.0000000000001922
  0
POINT
  5
97EE
330
D49
100
AcDbEntity
  8
Defpoints
 62
     0
100
AcDbPoint
 10
-434.6133429238967
 20
1511.988896155842
 30
0.0000000000001922
  0
POINT
  5
97EF
330
D49
100
AcDbEntity
  8
Defpoints
 62
     0
100
AcDbPoint
 10
-123.1381522933966
 20
1511.988896155842
 30
0.0000000000001922
  0
ENDBLK
  5
D54
330
D49
100
AcDbEntity
  8
0
100
AcDbBlockEnd
  0
BLOCK
  5
D5F
330
D55
100
AcDbEntity
  8
0
100
AcDbBlockBegin
  2
*D96
 70
     1
 10
0.0
 20
0.0
 30
0.0
  3
*D96
  1

  0
LINE
  5
97DE
330
D55
100
AcDbEntity
  8
cotas
100
AcDbLine
 10
-437.6652486783028
 20
1511.993142995323
 30
0.0000000000001922
 11
-118.1381522933966
 21
1511.993142995323
 31
0.0000000000001922
  0
LINE
  5
97DF
330
D55
100
AcDbEntity
  8
cotas
100
AcDbLine
 10
-429.6532479424481
 20
1431.987834715531
 30
0.0000000000001922
 11
-118.1381522933966
 21
1431.987834715531
 31
0.0000000000001922
  0
LINE
  5
97E0
330
D55
100
AcDbEntity
  8
cotas
100
AcDbLine
 10
-123.1381522933966
 20
1501.993142995323
 30
0.0000000000001922
 11
-123.1381522933966
 21
1441.987834715531
 31
0.0000000000001922
  0
SOLID
  5
97E1
330
D55
100
AcDbEntity
  8
cotas
100
AcDbTrace
 10
-124.8048189600633
 20
1501.993142995323
 30
0.0000000000001922
 11
-121.4714856267299
 21
1501.993142995323
 31
0.0000000000001922
 12
-123.1381522933966
 22
1511.993142995323
 32
0.0000000000001922
 13
-123.1381522933966
 23
1511.993142995323
 33
0.0000000000001922
  0
SOLID
  5
97E2
330
D55
100
AcDbEntity
  8
cotas
100
AcDbTrace
 10
-124.8048189600633
 20
1441.987834715531
 30
0.0000000000001922
 11
-121.4714856267299
 21
1441.987834715531
 31
0.0000000000001922
 12
-123.1381522933966
 22
1431.987834715531
 32
0.0000000000001922
 13
-123.1381522933966
 23
1431.987834715531
 33
0.0000000000001922
  0
MTEXT
  5
97E3
330
D55
100
AcDbEntity
  8
cotas
100
AcDbMText
 10
-133.3664934619663
 20
1471.990488855427
 30
0.0000000000001922
 40
10.0
 41
0.0
 71
     5
 72
     1
  1
80
  7
SANINDUSA
 11
0.0000000000000001
 21
1.0
 31
0.0
 73
     1
 44
1.0
1001
ACAD
1000
MTEXTBEGIN
1070
    73
1070
     1
1070
    44
1040
1.0
1070
    74
1070
     0
1000
MTEXTEND
  0
POINT
  5
97E4
330
D55
100
AcDbEntity
  8
Defpoints
 62
     0
100
AcDbPoint
 10
-442.6652486783027
 20
1511.993142995323
 30
0.0000000000001922
  0
POINT
  5
97E5
330
D55
100
AcDbEntity
  8
Defpoints
 62
     0
100
AcDbPoint
 10
-434.6532479424481
 20
1431.987834715531
 30
0.0000000000001922
  0
POINT
  5
97E6
330
D55
100
AcDbEntity
  8
Defpoints
 62
     0
100
AcDbPoint
 10
-123.1381522933966
 20
1431.987834715531
 30
0.0000000000001922
  0
ENDBLK
  5
D60
330
D55
100
AcDbEntity
  8
0
100
AcDbBlockEnd
  0
BLOCK
  5
D6B
330
D61
100
AcDbEntity
  8
0
100
AcDbBlockBegin
  2
*D97
 70
     1
 10
0.0
 20
0.0
 30
0.0
  3
*D97
  1

  0
LINE
  5
97D5
330
D61
100
AcDbEntity
  8
cotas
100
AcDbLine
 10
-437.7051536968543
 20
1431.992081555012
 30
0.0000000000001922
 11
-118.1388600999766
 21
1431.992081555012
 31
0.0000000000001922
  0
LINE
  5
97D6
330
D61
100
AcDbEntity
  8
cotas
100
AcDbLine
 10
-153.2134574823917
 20
1262.000405876688
 30
0.0000000000001922
 11
-118.1388600999767
 21
1262.000405876688
 31
0.0000000000001922
  0
LINE
  5
97D7
330
D61
100
AcDbEntity
  8
cotas
100
AcDbLine
 10
-123.1388600999766
 20
1421.992081555012
 30
0.0000000000001922
 11
-123.1388600999766
 21
1272.000405876688
 31
0.0000000000001922
  0
SOLID
  5
97D8
330
D61
100
AcDbEntity
  8
cotas
100
AcDbTrace
 10
-124.8055267666433
 20
1421.992081555012
 30
0.0000000000001922
 11
-121.47219343331
 21
1421.992081555012
 31
0.0000000000001922
 12
-123.1388600999766
 22
1431.992081555012
 32
0.0000000000001922
 13
-123.1388600999766
 23
1431.992081555012
 33
0.0000000000001922
  0
SOLID
  5
97D9
330
D61
100
AcDbEntity
  8
cotas
100
AcDbTrace
 10
-124.8055267666433
 20
1272.000405876688
 30
0.0000000000001922
 11
-121.47219343331
 21
1272.000405876688
 31
0.0000000000001922
 12
-123.1388600999766
 22
1262.000405876688
 32
0.0000000000001922
 13
-123.1388600999766
 23
1262.000405876688
 33
0.0000000000001922
  0
MTEXT
  5
97DA
330
D61
100
AcDbEntity
  8
cotas
100
AcDbMText
 10
-133.3436955600172
 20
1346.99624371585
 30
0.0000000000001922
 40
10.0
 41
0.0
 71
     5
 72
     1
  1
170
  7
SANINDUSA
 11
0.0000000000000001
 21
1.0
 31
0.0
 73
     1
 44
1.0
1001
ACAD
1000
MTEXTBEGIN
1070
    73
1070
     1
1070
    44
1040
1.0
1070
    74
1070
     0
1000
MTEXTEND
  0
POINT
  5
97DB
330
D61
100
AcDbEntity
  8
Defpoints
 62
     0
100
AcDbPoint
 10
-442.7051536968543
 20
1431.992081555012
 30
0.0000000000001922
  0
POINT
  5
97DC
330
D61
100
AcDbEntity
  8
Defpoints
 62
     0
100
AcDbPoint
 10
-158.2134574823917
 20
1262.000405876688
 30
0.0000000000001922
  0
POINT
  5
97DD
330
D61
100
AcDbEntity
  8
Defpoints
 62
     0
100
AcDbPoint
 10
-123.1388600999766
 20
1262.000405876688
 30
0.0000000000001922
  0
ENDBLK
  5
D6C
330
D61
100
AcDbEntity
  8
0
100
AcDbBlockEnd
  0
BLOCK
  5
D77
330
D6D
100
AcDbEntity
  8
0
100
AcDbBlockBegin
  2
*D98
 70
     1
 10
0.0
 20
0.0
 30
0.0
  3
*D98
  1

  0
LINE
  5
97C3
330
D6D
100
AcDbEntity
  8
cotas
100
AcDbLine
 10
-1755.951620081707
 20
2164.07494009315
 30
0.0
 11
-1755.951620081707
 21
2197.690493404694
 31
0.0
  0
LINE
  5
97C4
330
D6D
100
AcDbEntity
  8
cotas
100
AcDbLine
 10
-1432.279820936588
 20
2167.690493404694
 30
0.0
 11
-1432.279820936588
 21
2197.690493404694
 31
0.0
  0
LINE
  5
97C5
330
D6D
100
AcDbEntity
  8
cotas
100
AcDbLine
 10
-1745.951620081706
 20
2192.690493404694
 30
0.0
 11
-1442.279820936588
 21
2192.690493404694
 31
0.0
  0
SOLID
  5
97C6
330
D6D
100
AcDbEntity
  8
cotas
100
AcDbTrace
 10
-1745.951620081706
 20
2194.357160071361
 30
0.0
 11
-1745.951620081706
 21
2191.023826738028
 31
0.0
 12
-1755.951620081707
 22
2192.690493404694
 32
0.0
 13
-1755.951620081707
 23
2192.690493404694
 33
0.0
  0
SOLID
  5
97C7
330
D6D
100
AcDbEntity
  8
cotas
100
AcDbTrace
 10
-1442.279820936588
 20
2194.357160071361
 30
0.0
 11
-1442.279820936588
 21
2191.023826738028
 31
0.0
 12
-1432.279820936588
 22
2192.690493404694
 32
0.0
 13
-1432.279820936588
 23
2192.690493404694
 33
0.0
  0
MTEXT
  5
97C8
330
D6D
100
AcDbEntity
  8
cotas
100
AcDbMText
 10
-1594.115720509147
 20
2204.037034707582
 30
0.0
 40
10.0
 41
0.0
 71
     5
 72
     1
  1
323,7
  7
SANINDUSA
 73
     1
 44
1.0
1001
ACAD
1000
MTEXTBEGIN
1070
    73
1070
     1
1070
    44
1040
1.0
1070
    74
1070
     0
1000
MTEXTEND
  0
POINT
  5
97C9
330
D6D
100
AcDbEntity
  8
Defpoints
 62
     0
100
AcDbPoint
 10
-1755.951620081707
 20
2159.07494009315
 30
-0.000000000000096
  0
POINT
  5
97CA
330
D6D
100
AcDbEntity
  8
Defpoints
 62
     0
100
AcDbPoint
 10
-1432.279820936588
 20
2162.690493404694
 30
0.0
  0
POINT
  5
97CB
330
D6D
100
AcDbEntity
  8
Defpoints
 62
     0
100
AcDbPoint
 10
-1432.279820936588
 20
2192.690493404694
 30
0.0
  0
ENDBLK
  5
D78
330
D6D
100
AcDbEntity
  8
0
100
AcDbBlockEnd
  0
BLOCK
  5
D80
330
D79
100
AcDbEntity
  8
0
100
AcDbBlockBegin
  2
*D99
 70
     1
 10
0.0
 20
0.0
 30
0.0
  3
*D99
  1

  0
LINE
  5
97BD
330
D79
100
AcDbEntity
  8
cotas
100
AcDbLine
 10
-1715.255029987332
 20
1298.125278748364
 30
0.0
 11
-1684.317021032947
 21
1330.529724344505
 31
0.0
  0
MTEXT
  5
97BE
330
D79
100
AcDbEntity
  8
cotas
100
AcDbMText
 10
-1710.622197744089
 20
1317.760369761745
 30
0.0
 40
10.0
 41
0.0
 71
     5
 72
     1
  1
R20
  7
SANINDUSA
 11
0.6905515714747299
 21
0.7232831583368861
 31
0.0
 73
     1
 44
1.0
1001
ACAD
1000
MTEXTBEGIN
1070
    73
1070
     1
1070
    44
1040
1.0
1070
    74
1070
     0
1000
MTEXTEND
  0
LINE
  5
97BF
330
D79
100
AcDbEntity
  8
cotas
100
AcDbLine
 10
-1663.600473888706
 20
1352.228219094611
 30
0.0
 11
-1677.4115053182
 21
1337.762555927874
 31
0.0
  0
SOLID
  5
97C0
330
D79
100
AcDbEntity
  8
cotas
100
AcDbTrace
 10
-1685.522492963509
 20
1331.680643630296
 30
0.0
 11
-1683.111549102386
 21
1329.378805058714
 31
0.0
 12
-1677.4115053182
 22
1337.762555927874
 32
0.0
 13
-1677.4115053182
 23
1337.762555927874
 33
0.0
  0
POINT
  5
97C1
330
D79
100
AcDbEntity
  8
Defpoints
 62
     0
100
AcDbPoint
 10
-1677.4115053182
 20
1337.762555927874
 30
0.0
  0
POINT
  5
97C2
330
D79
100
AcDbEntity
  8
Defpoints
 62
     0
100
AcDbPoint
 10
-1663.600473888706
 20
1352.228219094611
 30
0.0
  0
ENDBLK
  5
D81
330
D79
100
AcDbEntity
  8
0
100
AcDbBlockEnd
  0
BLOCK
  5
D88
330
D82
100
AcDbEntity
  8
0
100
AcDbBlockBegin
  2
*D100
 70
     1
 10
0.0
 20
0.0
 30
0.0
  3
*D100
  1

  0
LINE
  5
97B8
330
D82
100
AcDbEntity
  8
cotas
100
AcDbLine
 10
-1609.179068884182
 20
1409.690548537079
 30
0.0
 11
-1641.68178427754
 21
1378.85579566774
 31
0.0
  0
MTEXT
  5
97B9
330
D82
100
AcDbEntity
  8
cotas
100
AcDbMText
 10
-1628.826489446189
 20
1405.117775542888
 30
0.0
 40
10.0
 41
0.0
 71
     5
 72
     1
  1
R10
  7
SANINDUSA
 11
0.7254765885281058
 21
0.688246844887517
 31
0.0
 73
     1
 44
1.0
1001
ACAD
1000
MTEXTBEGIN
1070
    73
1070
     1
1070
    44
1040
1.0
1070
    74
1070
     0
1000
MTEXTEND
  0
SOLID
  5
97BA
330
D82
100
AcDbEntity
  8
cotas
100
AcDbTrace
 10
-1642.828862352352
 20
1380.064923315287
 30
0.0
 11
-1640.534706202727
 21
1377.646668020193
 31
0.0
 12
-1648.936550162821
 22
1371.973327218865
 32
0.0
 13
-1648.936550162821
 23
1371.973327218865
 33
0.0
  0
POINT
  5
97BB
330
D82
100
AcDbEntity
  8
Defpoints
 62
     0
100
AcDbPoint
 10
-1648.936550162821
 20
1371.973327218865
 30
0.0
  0
POINT
  5
97BC
330
D82
100
AcDbEntity
  8
Defpoints
 62
     0
100
AcDbPoint
 10
-1641.681784277548
 20
1378.855795667732
 30
0.0
  0
ENDBLK
  5
D89
330
D82
100
AcDbEntity
  8
0
100
AcDbBlockEnd
  0
BLOCK
  5
D90
330
D8A
100
AcDbEntity
  8
0
100
AcDbBlockBegin
  2
*D101
 70
     1
 10
0.0
 20
0.0
 30
0.0
  3
*D101
  1

  0
LINE
  5
97B3
330
D8A
100
AcDbEntity
  8
cotas
100
AcDbLine
 10
-1233.808631607725
 20
1407.687370865765
 30
0.0
 11
-1198.893055918561
 21
1379.614054945672
 31
0.0
  0
MTEXT
  5
97B4
330
D8A
100
AcDbEntity
  8
cotas
100
AcDbMText
 10
-1213.853053710679
 20
1404.736727140795
 30
0.0
 40
10.0
 41
0.0
 71
     5
 72
     1
  1
R10
  7
SANINDUSA
 11
0.7793328166865839
 21
-0.6266102144358613
 31
0.0
 73
     1
 44
1.0
1001
ACAD
1000
MTEXTBEGIN
1070
    73
1070
     1
1070
    44
1040
1.0
1070
    74
1070
     0
1000
MTEXTEND
  0
SOLID
  5
97B5
330
D8A
100
AcDbEntity
  8
cotas
100
AcDbTrace
 10
-1197.848705561168
 20
1380.912942973483
 30
0.0
 11
-1199.937406275955
 21
1378.315166917861
 31
0.0
 12
-1191.099727751696
 22
1373.347952801314
 32
0.0
 13
-1191.099727751696
 23
1373.347952801314
 33
0.0
  0
POINT
  5
97B6
330
D8A
100
AcDbEntity
  8
Defpoints
 62
     0
100
AcDbPoint
 10
-1191.099727751696
 20
1373.347952801314
 30
0.0
  0
POINT
  5
97B7
330
D8A
100
AcDbEntity
  8
Defpoints
 62
     0
100
AcDbPoint
 10
-1198.893055918561
 20
1379.614054945672
 30
0.0
  0
ENDBLK
  5
D91
330
D8A
100
AcDbEntity
  8
0
100
AcDbBlockEnd
  0
BLOCK
  5
D99
330
D92
100
AcDbEntity
  8
0
100
AcDbBlockBegin
  2
*D102
 70
     1
 10
0.0
 20
0.0
 30
0.0
  3
*D102
  1

  0
LINE
  5
97AD
330
D92
100
AcDbEntity
  8
cotas
100
AcDbLine
 10
-1716.880334857457
 20
2124.283893579398
 30
0.0
 11
-1684.968865039876
 21
2092.837644414569
 31
0.0
  0
MTEXT
  5
97AE
330
D92
100
AcDbEntity
  8
cotas
100
AcDbMText
 10
-1697.320910928827
 20
2119.341336621918
 30
0.0
 40
10.0
 41
0.0
 71
     5
 72
     1
  1
R20
  7
SANINDUSA
 11
0.7122796965728839
 21
-0.7018957428635969
 31
0.0
 73
     1
 44
1.0
1001
ACAD
1000
MTEXTBEGIN
1070
    73
1070
     1
1070
    44
1040
1.0
1070
    74
1070
     0
1000
MTEXTEND
  0
LINE
  5
97AF
330
D92
100
AcDbEntity
  8
cotas
100
AcDbLine
 10
-1663.600474142688
 20
2071.78077212866
 30
0.0
 11
-1677.846068074147
 21
2085.818686985933
 31
0.0
  0
SOLID
  5
97B0
330
D92
100
AcDbEntity
  8
cotas
100
AcDbTrace
 10
-1683.79903880177
 20
2094.02477724219
 30
0.0
 11
-1686.138691277982
 21
2091.650511586947
 31
0.0
 12
-1677.846068074147
 22
2085.818686985933
 32
0.0
 13
-1677.846068074147
 23
2085.818686985933
 33
0.0
  0
POINT
  5
97B1
330
D92
100
AcDbEntity
  8
Defpoints
 62
     0
100
AcDbPoint
 10
-1677.846068074147
 20
2085.818686985933
 30
0.0
  0
POINT
  5
97B2
330
D92
100
AcDbEntity
  8
Defpoints
 62
     0
100
AcDbPoint
 10
-1663.600474142688
 20
2071.78077212866
 30
0.0
  0
ENDBLK
  5
D9A
330
D92
100
AcDbEntity
  8
0
100
AcDbBlockEnd
  0
BLOCK
  5
DA1
330
D9B
100
AcDbEntity
  8
0
100
AcDbBlockBegin
  2
*D103
 70
     1
 10
0.0
 20
0.0
 30
0.0
  3
*D103
  1

  0
LINE
  5
97A8
330
D9B
100
AcDbEntity
  8
cotas
100
AcDbLine
 10
-1612.512019453828
 20
2011.123724852186
 30
0.0
 11
-1641.6815729308
 21
2045.128807448895
 31
0.0
  0
MTEXT
  5
97A9
330
D9B
100
AcDbEntity
  8
cotas
100
AcDbMText
 10
-1616.095828485927
 20
2030.975367112167
 30
0.0
 40
10.0
 41
0.0
 71
     5
 72
     1
  1
R10
  7
SANINDUSA
 11
0.6510787757039483
 21
-0.7590101631914081
 31
0.0
 73
     1
 44
1.0
1001
ACAD
1000
MTEXTBEGIN
1070
    73
1070
     1
1070
    44
1040
1.0
1070
    74
1070
     0
1000
MTEXTEND
  0
SOLID
  5
97AA
330
D9B
100
AcDbEntity
  8
cotas
100
AcDbTrace
 10
-1640.416555992147
 20
2046.213938741735
 30
0.0
 11
-1642.946589869452
 21
2044.043676156055
 31
0.0
 12
-1648.192360687839
 22
2052.718909080809
 32
0.0
 13
-1648.192360687839
 23
2052.718909080809
 33
0.0
  0
POINT
  5
97AB
330
D9B
100
AcDbEntity
  8
Defpoints
 62
     0
100
AcDbPoint
 10
-1648.192360687839
 20
2052.718909080809
 30
0.0
  0
POINT
  5
97AC
330
D9B
100
AcDbEntity
  8
Defpoints
 62
     0
100
AcDbPoint
 10
-1641.6815729308
 20
2045.128807448895
 30
0.0
  0
ENDBLK
  5
DA2
330
D9B
100
AcDbEntity
  8
0
100
AcDbBlockEnd
  0
BLOCK
  5
DAA
330
DA3
100
AcDbEntity
  8
0
100
AcDbBlockBegin
  2
*D104
 70
     1
 10
0.0
 20
0.0
 30
0.0
  3
*D104
  1

  0
LINE
  5
97A2
330
DA3
100
AcDbEntity
  8
cotas
100
AcDbLine
 10
-193.3218995832501
 20
1296.704517230954
 30
0.0000000000001922
 11
-223.3379669779674
 21
1329.964766637876
 31
0.0000000000001922
  0
MTEXT
  5
97A3
330
DA3
100
AcDbEntity
  8
cotas
100
AcDbMText
 10
-197.4016554701021
 20
1316.461934207915
 30
0.0000000000001922
 40
10.0
 41
0.0
 71
     5
 72
     1
  1
R20
  7
SANINDUSA
 11
0.6699733825623449
 21
-0.7423851201754854
 31
0.0
 73
     1
 44
1.0
1001
ACAD
1000
MTEXTBEGIN
1070
    73
1070
     1
1070
    44
1040
1.0
1070
    74
1070
     0
1000
MTEXTEND
  0
LINE
  5
97A4
330
DA3
100
AcDbEntity
  8
cotas
100
AcDbLine
 10
-243.4371684548356
 20
1352.236320243138
 30
0.0000000000001922
 11
-230.0377008035908
 21
1337.388617839631
 31
0.0000000000001922
  0
SOLID
  5
97A5
330
DA3
100
AcDbEntity
  8
cotas
100
AcDbTrace
 10
-222.1006584443415
 20
1331.081388942147
 30
0.0000000000001922
 11
-224.5752755115932
 21
1328.848144333605
 31
0.0000000000001922
 12
-230.0377008035908
 22
1337.388617839631
 32
0.0000000000001922
 13
-230.0377008035908
 23
1337.388617839631
 33
0.0000000000001922
  0
POINT
  5
97A6
330
DA3
100
AcDbEntity
  8
Defpoints
 62
     0
100
AcDbPoint
 10
-230.0377008035908
 20
1337.388617839631
 30
0.0000000000001922
  0
POINT
  5
97A7
330
DA3
100
AcDbEntity
  8
Defpoints
 62
     0
100
AcDbPoint
 10
-243.4371684548356
 20
1352.236320243138
 30
0.0000000000001922
  0
ENDBLK
  5
DAB
330
DA3
100
AcDbEntity
  8
0
100
AcDbBlockEnd
  0
BLOCK
  5
DB3
330
DAC
100
AcDbEntity
  8
0
100
AcDbBlockBegin
  2
*D105
 70
     1
 10
0.0
 20
0.0
 30
0.0
  3
*D105
  1

  0
LINE
  5
979C
330
DAC
100
AcDbEntity
  8
cotas
100
AcDbLine
 10
-190.0163149799898
 20
2124.136097591968
 30
0.0000000000001922
 11
-222.0195260222861
 21
2092.783219327969
 31
0.0000000000001922
  0
MTEXT
  5
979D
330
DAC
100
AcDbEntity
  8
cotas
100
AcDbMText
 10
-209.5900962379521
 20
2119.250709074845
 30
0.0000000000001922
 40
10.0
 41
0.0
 71
     5
 72
     1
  1
R20
  7
SANINDUSA
 11
0.7143274058159057
 21
0.6998116584484131
 31
0.0
 73
     1
 44
1.0
1001
ACAD
1000
MTEXTBEGIN
1070
    73
1070
     1
1070
    44
1040
1.0
1070
    74
1070
     0
1000
MTEXTEND
  0
LINE
  5
979E
330
DAC
100
AcDbEntity
  8
cotas
100
AcDbLine
 10
-243.4493481967653
 20
2071.788869574515
 30
0.0000000000001922
 11
-229.1628000804451
 21
2085.785102743486
 31
0.0000000000001922
  0
SOLID
  5
979F
330
DAC
100
AcDbEntity
  8
cotas
100
AcDbTrace
 10
-223.1858787863666
 20
2093.97376500433
 30
0.0000000000001922
 11
-220.8531732582053
 21
2091.592673651609
 31
0.0000000000001922
 12
-229.1628000804451
 22
2085.785102743486
 32
0.0000000000001922
 13
-229.1628000804451
 23
2085.785102743486
 33
0.0000000000001922
  0
POINT
  5
97A0
330
DAC
100
AcDbEntity
  8
Defpoints
 62
     0
100
AcDbPoint
 10
-229.1628000804451
 20
2085.785102743486
 30
0.0000000000001922
  0
POINT
  5
97A1
330
DAC
100
AcDbEntity
  8
Defpoints
 62
     0
100
AcDbPoint
 10
-243.4493481967653
 20
2071.788869574515
 30
0.0000000000001922
  0
ENDBLK
  5
DB4
330
DAC
100
AcDbEntity
  8
0
100
AcDbBlockEnd
  0
BLOCK
  5
DBE
330
DB5
100
AcDbEntity
  8
0
100
AcDbBlockBegin
  2
*D106
 70
     1
 10
0.0
 20
0.0
 30
0.0
  3
*D106
  1

  0
LINE
  5
9788
330
DB5
100
AcDbEntity
  8
cotas
100
AcDbLine
 10
-442.0363283159677
 20
1800.043085423955
 30
-0.0000000000001922
 11
-399.0204800800362
 21
1765.025977530105
 31
-0.0000000000001922
  0
LINE
  5
9789
330
DB5
100
AcDbEntity
  8
cotas
100
AcDbLine
 10
-268.7550707169438
 20
1658.983249522394
 30
-0.0000000000001922
 11
-260.9998221368128
 21
1652.670079204687
 31
-0.0000000000001922
  0
MTEXT
  5
978A
330
DB5
100
AcDbEntity
  8
cotas
100
AcDbMText
 10
-417.5247152404931
 20
1794.144285504623
 30
-0.0000000000001922
 40
10.0
 41
0.0
 71
     5
 72
     1
  1
\U+2205148
  7
SANINDUSA
 11
0.7755248580131
 21
-0.6313170317706952
 31
0.0
 73
     1
 44
1.0
1001
ACAD
1000
MTEXTBEGIN
1070
    73
1070
     1
1070
    44
1040
1.0
1070
    74
1070
     0
1000
MTEXTEND
  0
LINE
  5
978B
330
DB5
100
AcDbEntity
  8
cotas
100
AcDbLine
 10
-276.5103192970748
 20
1665.296419840101
 30
-0.0000000000001922
 11
-391.2652314999053
 21
1758.712807212399
 31
-0.0000000000001922
  0
SOLID
  5
978C
330
DB5
100
AcDbEntity
  8
cotas
100
AcDbTrace
 10
-267.7028756639926
 20
1660.275790952416
 30
-0.0000000000001922
 11
-269.807265769895
 21
1657.690708092372
 31
-0.0000000000001922
 12
-276.5103192970748
 22
1665.296419840101
 32
-0.0000000000001922
 13
-276.5103192970748
 23
1665.296419840101
 33
-0.0000000000001922
  0
SOLID
  5
978D
330
DB5
100
AcDbEntity
  8
cotas
100
AcDbTrace
 10
-397.968285027085
 20
1766.318518960127
 30
-0.0000000000001922
 11
-400.0726751329874
 21
1763.733436100084
 31
-0.0000000000001922
 12
-391.2652314999053
 22
1758.712807212399
 32
-0.0000000000001922
 13
-391.2652314999053
 23
1758.712807212399
 33
-0.0000000000001922
  0
POINT
  5
978E
330
DB5
100
AcDbEntity
  8
Defpoints
 62
     0
100
AcDbPoint
 10
-391.2652314999053
 20
1758.712807212399
 30
-0.0000000000001922
  0
POINT
  5
978F
330
DB5
100
AcDbEntity
  8
Defpoints
 62
     0
100
AcDbPoint
 10
-276.5103192970748
 20
1665.296419840101
 30
-0.0000000000001922
  0
ENDBLK
  5
DBF
330
DB5
100
AcDbEntity
  8
0
100
AcDbBlockEnd
  0
BLOCK
  5
DCA
330
DC0
100
AcDbEntity
  8
0
100
AcDbBlockBegin
  2
*D107
 70
     1
 10
0.0
 20
0.0
 30
0.0
  3
*D107
  1

  0
LINE
  5
9952
330
DC0
100
AcDbEntity
  8
cotas
100
AcDbLine
 10
139.0499422883902
 20
1793.57578413316
 30
0.0
 11
139.0499422883902
 21
1823.57578413316
 31
0.0
  0
LINE
  5
9953
330
DC0
100
AcDbEntity
  8
cotas
100
AcDbLine
 10
1039.049945946204
 20
1793.57578413316
 30
0.0
 11
1039.049945946204
 21
1823.57578413316
 31
0.0
  0
LINE
  5
9954
330
DC0
100
AcDbEntity
  8
cotas
100
AcDbLine
 10
149.0499422883902
 20
1818.575784133161
 30
0.0
 11
1029.049945946204
 21
1818.575784133161
 31
0.0
  0
SOLID
  5
9955
330
DC0
100
AcDbEntity
  8
cotas
100
AcDbTrace
 10
149.0499422883902
 20
1820.242450799827
 30
0.0
 11
149.0499422883902
 21
1816.909117466494
 31
0.0
 12
139.0499422883902
 22
1818.575784133161
 32
0.0
 13
139.0499422883902
 23
1818.575784133161
 33
0.0
  0
SOLID
  5
9956
330
DC0
100
AcDbEntity
  8
cotas
100
AcDbTrace
 10
1029.049945946204
 20
1820.242450799827
 30
0.0
 11
1029.049945946204
 21
1816.909117466494
 31
0.0
 12
1039.049945946204
 22
1818.575784133161
 32
0.0
 13
1039.049945946204
 23
1818.575784133161
 33
0.0
  0
MTEXT
  5
9957
330
DC0
100
AcDbEntity
  8
cotas
100
AcDbMText
 10
589.0499441172972
 20
1828.780619593201
 30
0.0
 40
10.0
 41
0.0
 71
     5
 72
     1
  1
900
  7
SANINDUSA
 73
     1
 44
1.0
1001
ACAD
1000
MTEXTBEGIN
1070
    73
1070
     1
1070
    44
1040
1.0
1070
    74
1070
     0
1000
MTEXTEND
  0
POINT
  5
9958
330
DC0
100
AcDbEntity
  8
Defpoints
 62
     0
100
AcDbPoint
 10
139.0499422883902
 20
1788.575784133161
 30
0.0
  0
POINT
  5
9959
330
DC0
100
AcDbEntity
  8
Defpoints
 62
     0
100
AcDbPoint
 10
1039.049945946204
 20
1788.575784133161
 30
0.0
  0
POINT
  5
995A
330
DC0
100
AcDbEntity
  8
Defpoints
 62
     0
100
AcDbPoint
 10
1039.049945946204
 20
1818.575784133161
 30
0.0
  0
ENDBLK
  5
DCB
330
DC0
100
AcDbEntity
  8
0
100
AcDbBlockEnd
  0
BLOCK
  5
DF4
330
DEA
100
AcDbEntity
  8
0
100
AcDbBlockBegin
  2
*D108
 70
     1
 10
0.0
 20
0.0
 30
0.0
  3
*D108
  1

  0
LINE
  5
992B
330
DEA
100
AcDbEntity
  8
cotas
100
AcDbLine
 10
3113.090207144543
 20
1793.575784133158
 30
0.0
 11
3113.090207144543
 21
1823.575784133158
 31
0.0
  0
LINE
  5
992C
330
DEA
100
AcDbEntity
  8
cotas
100
AcDbLine
 10
3043.090206868214
 20
1793.575784133157
 30
0.0
 11
3043.090206868214
 21
1823.575784133158
 31
0.0
  0
LINE
  5
992D
330
DEA
100
AcDbEntity
  8
cotas
100
AcDbLine
 10
3103.090207144543
 20
1818.575784133158
 30
0.0
 11
3053.090206868215
 21
1818.575784133158
 31
0.0
  0
SOLID
  5
992E
330
DEA
100
AcDbEntity
  8
cotas
100
AcDbTrace
 10
3103.090207144543
 20
1820.242450799824
 30
0.0
 11
3103.090207144543
 21
1816.909117466491
 31
0.0
 12
3113.090207144543
 22
1818.575784133158
 32
0.0
 13
3113.090207144543
 23
1818.575784133158
 33
0.0
  0
SOLID
  5
992F
330
DEA
100
AcDbEntity
  8
cotas
100
AcDbTrace
 10
3053.090206868215
 20
1820.242450799824
 30
0.0
 11
3053.090206868215
 21
1816.909117466491
 31
0.0
 12
3043.090206868214
 22
1818.575784133158
 32
0.0
 13
3043.090206868214
 23
1818.575784133158
 33
0.0
  0
MTEXT
  5
9930
330
DEA
100
AcDbEntity
  8
cotas
100
AcDbMText
 10
3078.090207006379
 20
1828.780619593198
 30
0.0
 40
10.0
 41
0.0
 71
     5
 72
     1
  1
70
  7
SANINDUSA
 73
     1
 44
1.0
1001
ACAD
1000
MTEXTBEGIN
1070
    73
1070
     1
1070
    44
1040
1.0
1070
    74
1070
     0
1000
MTEXTEND
  0
POINT
  5
9931
330
DEA
100
AcDbEntity
  8
Defpoints
 62
     0
100
AcDbPoint
 10
3113.090207144543
 20
1788.575784133158
 30
0.0
  0
POINT
  5
9932
330
DEA
100
AcDbEntity
  8
Defpoints
 62
     0
100
AcDbPoint
 10
3043.090206868214
 20
1788.575784133157
 30
0.0
  0
POINT
  5
9933
330
DEA
100
AcDbEntity
  8
Defpoints
 62
     0
100
AcDbPoint
 10
3043.090206868214
 20
1818.575784133158
 30
0.0
  0
ENDBLK
  5
DF5
330
DEA
100
AcDbEntity
  8
0
100
AcDbBlockEnd
  0
BLOCK
  5
E01
330
DF6
100
AcDbEntity
  8
0
100
AcDbBlockBegin
  2
*D109
 70
     1
 10
0.0
 20
0.0
 30
0.0
  3
*D109
  1

  0
LINE
  5
9921
330
DF6
100
AcDbEntity
  8
cotas
100
AcDbLine
 10
3113.090207144543
 20
1793.575784133158
 30
0.0
 11
3113.090207144543
 21
1823.575784133158
 31
0.0
  0
LINE
  5
9922
330
DF6
100
AcDbEntity
  8
cotas
100
AcDbLine
 10
3145.49700797037
 20
1734.001134045094
 30
0.0
 11
3145.49700797037
 21
1823.575784133158
 31
0.0
  0
LINE
  5
9923
330
DF6
100
AcDbEntity
  8
cotas
100
AcDbLine
 10
3123.090207144543
 20
1818.575784133158
 30
0.0
 11
3135.49700797037
 21
1818.575784133158
 31
0.0
  0
LINE
  5
9924
330
DF6
100
AcDbEntity
  8
cotas
100
AcDbLine
 10
3145.49700797037
 20
1818.575784133158
 30
0.0
 11
3194.946302799114
 21
1818.575784133158
 31
0.0
  0
SOLID
  5
9925
330
DF6
100
AcDbEntity
  8
cotas
100
AcDbTrace
 10
3123.090207144543
 20
1820.242450799824
 30
0.0
 11
3123.090207144543
 21
1816.909117466491
 31
0.0
 12
3113.090207144543
 22
1818.575784133158
 32
0.0
 13
3113.090207144543
 23
1818.575784133158
 33
0.0
  0
SOLID
  5
9926
330
DF6
100
AcDbEntity
  8
cotas
100
AcDbTrace
 10
3135.49700797037
 20
1820.242450799824
 30
0.0
 11
3135.49700797037
 21
1816.909117466491
 31
0.0
 12
3145.49700797037
 22
1818.575784133158
 32
0.0
 13
3145.49700797037
 23
1818.575784133158
 33
0.0
  0
MTEXT
  5
9927
330
DF6
100
AcDbEntity
  8
cotas
100
AcDbMText
 10
3175.221655384742
 20
1829.922325436045
 30
0.0
 40
10.0
 41
0.0
 71
     5
 72
     1
  1
32,4
  7
SANINDUSA
 73
     1
 44
1.0
1001
ACAD
1000
MTEXTBEGIN
1070
    73
1070
     1
1070
    44
1040
1.0
1070
    74
1070
     0
1000
MTEXTEND
  0
POINT
  5
9928
330
DF6
100
AcDbEntity
  8
Defpoints
 62
     0
100
AcDbPoint
 10
3113.090207144543
 20
1788.575784133158
 30
0.0
  0
POINT
  5
9929
330
DF6
100
AcDbEntity
  8
Defpoints
 62
     0
100
AcDbPoint
 10
3145.49700797037
 20
1729.001134045094
 30
0.0
  0
POINT
  5
992A
330
DF6
100
AcDbEntity
  8
Defpoints
 62
     0
100
AcDbPoint
 10
3145.49700797037
 20
1818.575784133158
 30
0.0
  0
ENDBLK
  5
E02
330
DF6
100
AcDbEntity
  8
0
100
AcDbBlockEnd
  0
BLOCK
  5
E0D
330
E03
100
AcDbEntity
  8
0
100
AcDbBlockBegin
  2
*D110
 70
     1
 10
0.0
 20
0.0
 30
0.0
  3
*D110
  1

  0
LINE
  5
9918
330
E03
100
AcDbEntity
  8
cotas
100
AcDbLine
 10
3145.584270048854
 20
1734.000372520067
 30
0.0
 11
3145.99634546326
 21
1757.608144671367
 31
0.0
  0
LINE
  5
9919
330
E03
100
AcDbEntity
  8
cotas
100
AcDbLine
 10
3595.515732796499
 20
1726.146785456543
 30
0.0
 11
3595.927808210905
 21
1749.754557607842
 31
0.0
  0
LINE
  5
991A
330
E03
100
AcDbEntity
  8
cotas
100
AcDbLine
 10
3155.907560334724
 20
1752.434382039426
 30
0.0
 11
3585.842069182473
 21
1744.929843289835
 31
0.0
  0
SOLID
  5
991B
330
E03
100
AcDbEntity
  8
cotas
100
AcDbTrace
 10
3155.936647694219
 20
1754.100794864417
 30
0.0
 11
3155.87847297523
 21
1750.767969214434
 31
0.0
 12
3145.909083384776
 22
1752.608906196393
 32
0.0
 13
3145.909083384776
 23
1752.608906196393
 33
0.0
  0
SOLID
  5
991C
330
E03
100
AcDbEntity
  8
cotas
100
AcDbTrace
 10
3585.871156541968
 20
1746.596256114826
 30
0.0
 11
3585.812981822979
 21
1743.263430464844
 31
0.0
 12
3595.840546132421
 22
1744.755319132868
 32
0.0
 13
3595.840546132421
 23
1744.755319132868
 33
0.0
  0
MTEXT
  5
991D
330
E03
100
AcDbEntity
  8
cotas
100
AcDbMText
 10
3371.052913789164
 20
1758.885393877153
 30
0.0
 40
10.0
 41
0.0
 71
     5
 72
     1
  1
450
  7
SANINDUSA
 11
0.999847694994767
 21
-0.0174524156967227
 31
0.0
 73
     1
 44
1.0
1001
ACAD
1000
MTEXTBEGIN
1070
    73
1070
     1
1070
    44
1040
1.0
1070
    74
1070
     0
1000
MTEXTEND
  0
POINT
  5
991E
330
E03
100
AcDbEntity
  8
Defpoints
 62
     0
100
AcDbPoint
 10
3145.49700797037
 20
1729.001134045093
 30
0.0
  0
POINT
  5
991F
330
E03
100
AcDbEntity
  8
Defpoints
 62
     0
100
AcDbPoint
 10
3595.428470718016
 20
1721.147546981569
 30
0.0
  0
POINT
  5
9920
330
E03
100
AcDbEntity
  8
Defpoints
 62
     0
100
AcDbPoint
 10
3595.840546132421
 20
1744.755319132868
 30
0.0
  0
ENDBLK
  5
E0E
330
E03
100
AcDbEntity
  8
0
100
AcDbBlockEnd
  0
BLOCK
  5
E24
330
E18
100
AcDbEntity
  8
0
100
AcDbBlockBegin
  2
*D111
 70
     1
 10
0.0
 20
0.0
 30
0.0
  3
*D111
  1

  0
LINE
  5
9904
330
E18
100
AcDbEntity
  8
cotas
100
AcDbLine
 10
3600.428470718015
 20
1721.147546981569
 30
0.0
 11
3649.914236392471
 21
1721.147546981569
 31
0.0
  0
LINE
  5
9905
330
E18
100
AcDbEntity
  8
cotas
100
AcDbLine
 10
3600.428470718015
 20
1699.128731297454
 30
0.0
 11
3649.914236392471
 21
1699.128731297454
 31
0.0
  0
LINE
  5
9906
330
E18
100
AcDbEntity
  8
cotas
100
AcDbLine
 10
3644.914236392472
 20
1731.147546981568
 30
0.0
 11
3644.914236392472
 21
1741.147546981569
 31
0.0
  0
LINE
  5
9907
330
E18
100
AcDbEntity
  8
cotas
100
AcDbLine
 10
3644.914236392472
 20
1689.128731297454
 30
0.0
 11
3644.914236392472
 21
1653.614963668173
 31
0.0
  0
LINE
  5
9908
330
E18
100
AcDbEntity
  8
cotas
100
AcDbLine
 10
3644.914236392472
 20
1721.147546981569
 30
0.0
 11
3644.914236392472
 21
1699.128731297454
 31
0.0
  0
SOLID
  5
9909
330
E18
100
AcDbEntity
  8
cotas
100
AcDbTrace
 10
3643.247569725805
 20
1731.147546981568
 30
0.0
 11
3646.580903059138
 21
1731.147546981568
 31
0.0
 12
3644.914236392472
 22
1721.147546981569
 32
0.0
 13
3644.914236392472
 23
1721.147546981569
 33
0.0
  0
SOLID
  5
990A
330
E18
100
AcDbEntity
  8
cotas
100
AcDbTrace
 10
3643.247569725805
 20
1689.128731297454
 30
0.0
 11
3646.580903059138
 21
1689.128731297454
 31
0.0
 12
3644.914236392472
 22
1699.128731297454
 32
0.0
 13
3644.914236392472
 23
1699.128731297454
 33
0.0
  0
MTEXT
  5
990B
330
E18
100
AcDbEntity
  8
cotas
100
AcDbMText
 10
3634.81013968327
 20
1666.371847482814
 30
0.0
 40
10.0
 41
0.0
 71
     5
 72
     1
  1
22
  7
SANINDUSA
 11
0.0000000000000001
 21
1.0
 31
0.0
 73
     1
 44
1.0
1001
ACAD
1000
MTEXTBEGIN
1070
    73
1070
     1
1070
    44
1040
1.0
1070
    74
1070
     0
1000
MTEXTEND
  0
POINT
  5
990C
330
E18
100
AcDbEntity
  8
Defpoints
 62
     0
100
AcDbPoint
 10
3595.428470718015
 20
1721.147546981569
 30
0.0
  0
POINT
  5
990D
330
E18
100
AcDbEntity
  8
Defpoints
 62
     0
100
AcDbPoint
 10
3595.428470718015
 20
1699.128731297454
 30
0.0
  0
POINT
  5
990E
330
E18
100
AcDbEntity
  8
Defpoints
 62
     0
100
AcDbPoint
 10
3644.914236392472
 20
1699.128731297454
 30
0.0
  0
ENDBLK
  5
E25
330
E18
100
AcDbEntity
  8
0
100
AcDbBlockEnd
  0
BLOCK
  5
E32
330
E26
100
AcDbEntity
  8
0
100
AcDbBlockBegin
  2
*D112
 70
     1
 10
0.0
 20
0.0
 30
0.0
  3
*D112
  1

  0
LINE
  5
98F9
330
E26
100
AcDbEntity
  8
cotas
100
AcDbLine
 10
3140.49700797037
 20
1729.001134045094
 30
0.0
 11
3007.392004287706
 21
1729.001134045094
 31
0.0
  0
LINE
  5
98FA
330
E26
100
AcDbEntity
  8
cotas
100
AcDbLine
 10
3140.49700797037
 20
1718.999610687438
 30
0.0
 11
3007.392004287706
 21
1718.999610687438
 31
0.0
  0
LINE
  5
98FB
330
E26
100
AcDbEntity
  8
cotas
100
AcDbLine
 10
3012.392004287705
 20
1739.001134045093
 30
0.0
 11
3012.392004287705
 21
1749.001134045094
 31
0.0
  0
LINE
  5
98FC
330
E26
100
AcDbEntity
  8
cotas
100
AcDbLine
 10
3012.392004287705
 20
1708.999610687438
 30
0.0
 11
3012.392004287705
 21
1674.28503714815
 31
0.0
  0
LINE
  5
98FD
330
E26
100
AcDbEntity
  8
cotas
100
AcDbLine
 10
3012.392004287705
 20
1729.001134045094
 30
0.0
 11
3012.392004287705
 21
1718.999610687438
 31
0.0
  0
SOLID
  5
98FE
330
E26
100
AcDbEntity
  8
cotas
100
AcDbTrace
 10
3010.725337621039
 20
1739.001134045093
 30
0.0
 11
3014.058670954372
 21
1739.001134045093
 31
0.0
 12
3012.392004287705
 22
1729.001134045094
 32
0.0
 13
3012.392004287705
 23
1729.001134045094
 33
0.0
  0
SOLID
  5
98FF
330
E26
100
AcDbEntity
  8
cotas
100
AcDbTrace
 10
3010.725337621039
 20
1708.999610687438
 30
0.0
 11
3014.058670954372
 21
1708.999610687438
 31
0.0
 12
3012.392004287705
 22
1718.999610687438
 32
0.0
 13
3012.392004287705
 23
1718.999610687438
 33
0.0
  0
MTEXT
  5
9900
330
E26
100
AcDbEntity
  8
cotas
100
AcDbMText
 10
3002.187168827665
 20
1686.642323917794
 30
0.0
 40
10.0
 41
0.0
 71
     5
 72
     1
  1
10
  7
SANINDUSA
 11
0.0000000000000001
 21
1.0
 31
0.0
 73
     1
 44
1.0
1001
ACAD
1000
MTEXTBEGIN
1070
    73
1070
     1
1070
    44
1040
1.0
1070
    74
1070
     0
1000
MTEXTEND
  0
POINT
  5
9901
330
E26
100
AcDbEntity
  8
Defpoints
 62
     0
100
AcDbPoint
 10
3145.49700797037
 20
1729.001134045094
 30
0.0
  0
POINT
  5
9902
330
E26
100
AcDbEntity
  8
Defpoints
 62
     0
100
AcDbPoint
 10
3145.49700797037
 20
1718.999610687438
 30
0.0
  0
POINT
  5
9903
330
E26
100
AcDbEntity
  8
Defpoints
 62
     0
100
AcDbPoint
 10
3012.392004287705
 20
1718.999610687438
 30
0.0
  0
ENDBLK
  5
E33
330
E26
100
AcDbEntity
  8
0
100
AcDbBlockEnd
  0
BLOCK
  5
E75
330
E6B
100
AcDbEntity
  8
0
100
AcDbBlockBegin
  2
*D113
 70
     1
 10
0.0
 20
0.0
 30
0.0
  3
*D113
  1

  0
LINE
  5
98B9
330
E6B
100
AcDbEntity
  8
cotas
100
AcDbLine
 10
4643.090195673731
 20
1793.575784133157
 30
0.0
 11
4643.090195673731
 21
1823.575784133157
 31
0.0
  0
LINE
  5
98BA
330
E6B
100
AcDbEntity
  8
cotas
100
AcDbLine
 10
4573.090217851603
 20
1793.575784133157
 30
0.0
 11
4573.090217851603
 21
1823.575784133157
 31
0.0
  0
LINE
  5
98BB
330
E6B
100
AcDbEntity
  8
cotas
100
AcDbLine
 10
4633.09019567373
 20
1818.575784133157
 30
0.0
 11
4583.090217851603
 21
1818.575784133157
 31
0.0
  0
SOLID
  5
98BC
330
E6B
100
AcDbEntity
  8
cotas
100
AcDbTrace
 10
4633.09019567373
 20
1820.242450799824
 30
0.0
 11
4633.09019567373
 21
1816.90911746649
 31
0.0
 12
4643.090195673731
 22
1818.575784133157
 32
0.0
 13
4643.090195673731
 23
1818.575784133157
 33
0.0
  0
SOLID
  5
98BD
330
E6B
100
AcDbEntity
  8
cotas
100
AcDbTrace
 10
4583.090217851603
 20
1820.242450799824
 30
0.0
 11
4583.090217851603
 21
1816.90911746649
 31
0.0
 12
4573.090217851603
 22
1818.575784133157
 32
0.0
 13
4573.090217851603
 23
1818.575784133157
 33
0.0
  0
MTEXT
  5
98BE
330
E6B
100
AcDbEntity
  8
cotas
100
AcDbMText
 10
4608.090206762667
 20
1828.780619593197
 30
0.0
 40
10.0
 41
0.0
 71
     5
 72
     1
  1
70
  7
SANINDUSA
 73
     1
 44
1.0
1001
ACAD
1000
MTEXTBEGIN
1070
    73
1070
     1
1070
    44
1040
1.0
1070
    74
1070
     0
1000
MTEXTEND
  0
POINT
  5
98BF
330
E6B
100
AcDbEntity
  8
Defpoints
 62
     0
100
AcDbPoint
 10
4643.090195673731
 20
1788.575784133157
 30
0.0
  0
POINT
  5
98C0
330
E6B
100
AcDbEntity
  8
Defpoints
 62
     0
100
AcDbPoint
 10
4573.090217851603
 20
1788.575784133157
 30
0.0
  0
POINT
  5
98C1
330
E6B
100
AcDbEntity
  8
Defpoints
 62
     0
100
AcDbPoint
 10
4573.090217851603
 20
1818.575784133157
 30
0.0
  0
ENDBLK
  5
E76
330
E6B
100
AcDbEntity
  8
0
100
AcDbBlockEnd
  0
BLOCK
  5
E81
330
E77
100
AcDbEntity
  8
0
100
AcDbBlockBegin
  2
*D114
 70
     1
 10
0.0
 20
0.0
 30
0.0
  3
*D114
  1

  0
LINE
  5
98B0
330
E77
100
AcDbEntity
  8
cotas
100
AcDbLine
 10
4643.090195673731
 20
1793.575784133157
 30
0.0
 11
4643.090195673731
 21
1853.570784088915
 31
0.0
  0
LINE
  5
98B1
330
E77
100
AcDbEntity
  8
cotas
100
AcDbLine
 10
4463.090217597185
 20
1717.470463280547
 30
0.0
 11
4463.090217597185
 21
1853.570784088915
 31
0.0
  0
LINE
  5
98B2
330
E77
100
AcDbEntity
  8
cotas
100
AcDbLine
 10
4633.09019567373
 20
1848.570784088915
 30
0.0
 11
4473.090217597184
 21
1848.570784088915
 31
0.0
  0
SOLID
  5
98B3
330
E77
100
AcDbEntity
  8
cotas
100
AcDbTrace
 10
4633.09019567373
 20
1850.237450755582
 30
0.0
 11
4633.09019567373
 21
1846.904117422248
 31
0.0
 12
4643.090195673731
 22
1848.570784088915
 32
0.0
 13
4643.090195673731
 23
1848.570784088915
 33
0.0
  0
SOLID
  5
98B4
330
E77
100
AcDbEntity
  8
cotas
100
AcDbTrace
 10
4473.090217597184
 20
1850.237450755582
 30
0.0
 11
4473.090217597184
 21
1846.904117422248
 31
0.0
 12
4463.090217597185
 22
1848.570784088915
 32
0.0
 13
4463.090217597185
 23
1848.570784088915
 33
0.0
  0
MTEXT
  5
98B5
330
E77
100
AcDbEntity
  8
cotas
100
AcDbMText
 10
4553.090206635458
 20
1858.799125257485
 30
0.0
 40
10.0
 41
0.0
 71
     5
 72
     1
  1
180
  7
SANINDUSA
 73
     1
 44
1.0
1001
ACAD
1000
MTEXTBEGIN
1070
    73
1070
     1
1070
    44
1040
1.0
1070
    74
1070
     0
1000
MTEXTEND
  0
POINT
  5
98B6
330
E77
100
AcDbEntity
  8
Defpoints
 62
     0
100
AcDbPoint
 10
4643.090195673731
 20
1788.575784133157
 30
0.0
  0
POINT
  5
98B7
330
E77
100
AcDbEntity
  8
Defpoints
 62
     0
100
AcDbPoint
 10
4463.090217597185
 20
1712.470463280547
 30
0.0
  0
POINT
  5
98B8
330
E77
100
AcDbEntity
  8
Defpoints
 62
     0
100
AcDbPoint
 10
4463.090217597185
 20
1848.570784088915
 30
0.0
  0
ENDBLK
  5
E82
330
E77
100
AcDbEntity
  8
0
100
AcDbBlockEnd
  0
BLOCK
  5
E9F
330
E95
100
AcDbEntity
  8
0
100
AcDbBlockBegin
  2
*D115
 70
     1
 10
0.0
 20
0.0
 30
0.0
  3
*D115
  1

  0
LINE
  5
9895
330
E95
100
AcDbEntity
  8
cotas
100
AcDbLine
 10
1225.184921968509
 20
1793.57578413316
 30
0.0
 11
1225.184921968509
 21
1823.57578413316
 31
0.0
  0
LINE
  5
9896
330
E95
100
AcDbEntity
  8
cotas
100
AcDbLine
 10
2825.184954302019
 20
1793.575784133157
 30
0.0
 11
2825.184954302019
 21
1823.57578413316
 31
0.0
  0
LINE
  5
9897
330
E95
100
AcDbEntity
  8
cotas
100
AcDbLine
 10
1235.184921968509
 20
1818.57578413316
 30
0.0
 11
2815.184954302019
 21
1818.57578413316
 31
0.0
  0
SOLID
  5
9898
330
E95
100
AcDbEntity
  8
cotas
100
AcDbTrace
 10
1235.184921968509
 20
1820.242450799826
 30
0.0
 11
1235.184921968509
 21
1816.909117466493
 31
0.0
 12
1225.184921968509
 22
1818.57578413316
 32
0.0
 13
1225.184921968509
 23
1818.57578413316
 33
0.0
  0
SOLID
  5
9899
330
E95
100
AcDbEntity
  8
cotas
100
AcDbTrace
 10
2815.184954302019
 20
1820.242450799826
 30
0.0
 11
2815.184954302019
 21
1816.909117466493
 31
0.0
 12
2825.184954302019
 22
1818.57578413316
 32
0.0
 13
2825.184954302019
 23
1818.57578413316
 33
0.0
  0
MTEXT
  5
989A
330
E95
100
AcDbEntity
  8
cotas
100
AcDbMText
 10
2025.184938135264
 20
1828.7806195932
 30
0.0
 40
10.0
 41
0.0
 71
     5
 72
     1
  1
1600
  7
SANINDUSA
 73
     1
 44
1.0
1001
ACAD
1000
MTEXTBEGIN
1070
    73
1070
     1
1070
    44
1040
1.0
1070
    74
1070
     0
1000
MTEXTEND
  0
POINT
  5
989B
330
E95
100
AcDbEntity
  8
Defpoints
 62
     0
100
AcDbPoint
 10
1225.184921968509
 20
1788.575784133161
 30
0.0
  0
POINT
  5
989C
330
E95
100
AcDbEntity
  8
Defpoints
 62
     0
100
AcDbPoint
 10
2825.184954302019
 20
1788.575784133157
 30
0.0
  0
POINT
  5
989D
330
E95
100
AcDbEntity
  8
Defpoints
 62
     0
100
AcDbPoint
 10
2825.184954302019
 20
1818.57578413316
 30
0.0
  0
ENDBLK
  5
EA0
330
E95
100
AcDbEntity
  8
0
100
AcDbBlockEnd
  0
BLOCK
  5
EE4
330
EDA
100
AcDbEntity
  8
0
100
AcDbBlockBegin
  2
*D116
 70
     1
 10
0.0
 20
0.0
 30
0.0
  3
*D116
  1

  0
LINE
  5
9853
330
EDA
100
AcDbEntity
  8
cotas
100
AcDbLine
 10
-594.3055523048201
 20
2032.441209994571
 30
0.0
 11
-594.3055523048201
 21
2197.690295284729
 31
0.0
  0
LINE
  5
9854
330
EDA
100
AcDbEntity
  8
cotas
100
AcDbLine
 10
-674.2818284398631
 20
2032.442268593653
 30
0.0
 11
-674.2818284398631
 21
2197.690295284729
 31
0.0
  0
LINE
  5
9855
330
EDA
100
AcDbEntity
  8
cotas
100
AcDbLine
 10
-604.3055523048201
 20
2192.690295284728
 30
0.0
 11
-664.2818284398631
 21
2192.690295284728
 31
0.0
  0
SOLID
  5
9856
330
EDA
100
AcDbEntity
  8
cotas
100
AcDbTrace
 10
-604.3055523048201
 20
2194.356961951395
 30
0.0
 11
-604.3055523048201
 21
2191.023628618062
 31
0.0
 12
-594.3055523048201
 22
2192.690295284728
 32
0.0
 13
-594.3055523048201
 23
2192.690295284728
 33
0.0
  0
SOLID
  5
9857
330
EDA
100
AcDbEntity
  8
cotas
100
AcDbTrace
 10
-664.2818284398631
 20
2194.356961951395
 30
0.0
 11
-664.2818284398631
 21
2191.023628618062
 31
0.0
 12
-674.2818284398631
 22
2192.690295284728
 32
0.0
 13
-674.2818284398631
 23
2192.690295284728
 33
0.0
  0
MTEXT
  5
9858
330
EDA
100
AcDbEntity
  8
cotas
100
AcDbMText
 10
-634.2936903723416
 20
2202.918636453298
 30
0.0
 40
10.0
 41
0.0
 71
     5
 72
     1
  1
80
  7
SANINDUSA
 73
     1
 44
1.0
1001
ACAD
1000
MTEXTBEGIN
1070
    73
1070
     1
1070
    44
1040
1.0
1070
    74
1070
     0
1000
MTEXTEND
  0
POINT
  5
9859
330
EDA
100
AcDbEntity
  8
Defpoints
 62
     0
100
AcDbPoint
 10
-594.3055523048201
 20
2027.441209994572
 30
0.0
  0
POINT
  5
985A
330
EDA
100
AcDbEntity
  8
Defpoints
 62
     0
100
AcDbPoint
 10
-674.2818284398631
 20
2027.442268593654
 30
0.0
  0
POINT
  5
985B
330
EDA
100
AcDbEntity
  8
Defpoints
 62
     0
100
AcDbPoint
 10
-674.2818284398631
 20
2192.690295284728
 30
0.0
  0
ENDBLK
  5
EE5
330
EDA
100
AcDbEntity
  8
0
100
AcDbBlockEnd
  0
BLOCK
  5
EF0
330
EE6
100
AcDbEntity
  8
0
100
AcDbBlockBegin
  2
*D117
 70
     1
 10
0.0
 20
0.0
 30
0.0
  3
*D117
  1

  0
LINE
  5
984A
330
EE6
100
AcDbEntity
  8
cotas
100
AcDbLine
 10
-674.2818284398631
 20
2032.442268593653
 30
0.0
 11
-674.2818284398631
 21
2197.690295284729
 31
0.0
  0
LINE
  5
984B
330
EE6
100
AcDbEntity
  8
cotas
100
AcDbLine
 10
-754.2488177331065
 20
2032.430646340467
 30
0.0
 11
-754.2488177331065
 21
2197.690295284729
 31
0.0
  0
LINE
  5
984C
330
EE6
100
AcDbEntity
  8
cotas
100
AcDbLine
 10
-684.2818284398632
 20
2192.690295284728
 30
0.0
 11
-744.2488177331065
 21
2192.690295284728
 31
0.0
  0
SOLID
  5
984D
330
EE6
100
AcDbEntity
  8
cotas
100
AcDbTrace
 10
-684.2818284398632
 20
2194.356961951395
 30
0.0
 11
-684.2818284398632
 21
2191.023628618062
 31
0.0
 12
-674.2818284398631
 22
2192.690295284728
 32
0.0
 13
-674.2818284398631
 23
2192.690295284728
 33
0.0
  0
SOLID
  5
984E
330
EE6
100
AcDbEntity
  8
cotas
100
AcDbTrace
 10
-744.2488177331065
 20
2194.356961951395
 30
0.0
 11
-744.2488177331065
 21
2191.023628618062
 31
0.0
 12
-754.2488177331065
 22
2192.690295284728
 32
0.0
 13
-754.2488177331065
 23
2192.690295284728
 33
0.0
  0
MTEXT
  5
984F
330
EE6
100
AcDbEntity
  8
cotas
100
AcDbMText
 10
-714.2653230864848
 20
2202.918636453298
 30
0.0
 40
10.0
 41
0.0
 71
     5
 72
     1
  1
80
  7
SANINDUSA
 73
     1
 44
1.0
1001
ACAD
1000
MTEXTBEGIN
1070
    73
1070
     1
1070
    44
1040
1.0
1070
    74
1070
     0
1000
MTEXTEND
  0
POINT
  5
9850
330
EE6
100
AcDbEntity
  8
Defpoints
 62
     0
100
AcDbPoint
 10
-674.2818284398631
 20
2027.442268593654
 30
0.0
  0
POINT
  5
9851
330
EE6
100
AcDbEntity
  8
Defpoints
 62
     0
100
AcDbPoint
 10
-754.2488177331065
 20
2027.430646340466
 30
0.0
  0
POINT
  5
9852
330
EE6
100
AcDbEntity
  8
Defpoints
 62
     0
100
AcDbPoint
 10
-754.2488177331065
 20
2192.690295284728
 30
0.0
  0
ENDBLK
  5
EF1
330
EE6
100
AcDbEntity
  8
0
100
AcDbBlockEnd
  0
BLOCK
  5
EFC
330
EF2
100
AcDbEntity
  8
0
100
AcDbBlockBegin
  2
*D118
 70
     1
 10
0.0
 20
0.0
 30
0.0
  3
*D118
  1

  0
LINE
  5
9841
330
EF2
100
AcDbEntity
  8
cotas
100
AcDbLine
 10
-754.2488177331065
 20
2032.430646340467
 30
0.0
 11
-754.2488177331065
 21
2197.690295284729
 31
0.0
  0
LINE
  5
9842
330
EF2
100
AcDbEntity
  8
cotas
100
AcDbLine
 10
-834.1634009517251
 20
2032.423712010843
 30
0.0
 11
-834.1634009517251
 21
2197.690295284729
 31
0.0
  0
LINE
  5
9843
330
EF2
100
AcDbEntity
  8
cotas
100
AcDbLine
 10
-764.2488177331065
 20
2192.690295284728
 30
0.0
 11
-824.1634009517252
 21
2192.690295284728
 31
0.0
  0
SOLID
  5
9844
330
EF2
100
AcDbEntity
  8
cotas
100
AcDbTrace
 10
-764.2488177331065
 20
2194.356961951395
 30
0.0
 11
-764.2488177331065
 21
2191.023628618062
 31
0.0
 12
-754.2488177331065
 22
2192.690295284728
 32
0.0
 13
-754.2488177331065
 23
2192.690295284728
 33
0.0
  0
SOLID
  5
9845
330
EF2
100
AcDbEntity
  8
cotas
100
AcDbTrace
 10
-824.1634009517252
 20
2194.356961951395
 30
0.0
 11
-824.1634009517252
 21
2191.023628618062
 31
0.0
 12
-834.1634009517251
 22
2192.690295284728
 32
0.0
 13
-834.1634009517251
 23
2192.690295284728
 33
0.0
  0
MTEXT
  5
9846
330
EF2
100
AcDbEntity
  8
cotas
100
AcDbMText
 10
-794.2061093424158
 20
2202.918636453298
 30
0.0
 40
10.0
 41
0.0
 71
     5
 72
     1
  1
80
  7
SANINDUSA
 73
     1
 44
1.0
1001
ACAD
1000
MTEXTBEGIN
1070
    73
1070
     1
1070
    44
1040
1.0
1070
    74
1070
     0
1000
MTEXTEND
  0
POINT
  5
9847
330
EF2
100
AcDbEntity
  8
Defpoints
 62
     0
100
AcDbPoint
 10
-754.2488177331065
 20
2027.430646340466
 30
0.0
  0
POINT
  5
9848
330
EF2
100
AcDbEntity
  8
Defpoints
 62
     0
100
AcDbPoint
 10
-834.1634009517251
 20
2027.423712010843
 30
0.0
  0
POINT
  5
9849
330
EF2
100
AcDbEntity
  8
Defpoints
 62
     0
100
AcDbPoint
 10
-834.1634009517251
 20
2192.690295284728
 30
0.0
  0
ENDBLK
  5
EFD
330
EF2
100
AcDbEntity
  8
0
100
AcDbBlockEnd
  0
BLOCK
  5
F1A
330
F10
100
AcDbEntity
  8
0
100
AcDbBlockBegin
  2
*D119
 70
     1
 10
0.0
 20
0.0
 30
0.0
  3
*D119
  1

  0
LINE
  5
9826
330
F10
100
AcDbEntity
  8
cotas
100
AcDbLine
 10
-994.1402692488443
 20
2167.690295284728
 30
0.0
 11
-994.1402692488443
 21
2197.690295284727
 31
0.0
  0
LINE
  5
9827
330
F10
100
AcDbEntity
  8
cotas
100
AcDbLine
 10
-1074.130228647522
 20
2032.423843013881
 30
0.0
 11
-1074.130228647522
 21
2197.690295284727
 31
0.0
  0
LINE
  5
9828
330
F10
100
AcDbEntity
  8
cotas
100
AcDbLine
 10
-1004.140269248844
 20
2192.690295284728
 30
0.0
 11
-1064.130228647522
 21
2192.690295284728
 31
0.0
  0
SOLID
  5
9829
330
F10
100
AcDbEntity
  8
cotas
100
AcDbTrace
 10
-1004.140269248844
 20
2194.356961951394
 30
0.0
 11
-1004.140269248844
 21
2191.023628618061
 31
0.0
 12
-994.1402692488443
 22
2192.690295284728
 32
0.0
 13
-994.1402692488443
 23
2192.690295284728
 33
0.0
  0
SOLID
  5
982A
330
F10
100
AcDbEntity
  8
cotas
100
AcDbTrace
 10
-1064.130228647522
 20
2194.356961951394
 30
0.0
 11
-1064.130228647522
 21
2191.023628618061
 31
0.0
 12
-1074.130228647522
 22
2192.690295284728
 32
0.0
 13
-1074.130228647522
 23
2192.690295284728
 33
0.0
  0
MTEXT
  5
982B
330
F10
100
AcDbEntity
  8
cotas
100
AcDbMText
 10
-1034.135248948183
 20
2202.918636453297
 30
0.0
 40
10.0
 41
0.0
 71
     5
 72
     1
  1
80
  7
SANINDUSA
 73
     1
 44
1.0
1001
ACAD
1000
MTEXTBEGIN
1070
    73
1070
     1
1070
    44
1040
1.0
1070
    74
1070
     0
1000
MTEXTEND
  0
POINT
  5
982C
330
F10
100
AcDbEntity
  8
Defpoints
 62
     0
100
AcDbPoint
 10
-994.1402692488443
 20
2162.690295284728
 30
0.0
  0
POINT
  5
982D
330
F10
100
AcDbEntity
  8
Defpoints
 62
     0
100
AcDbPoint
 10
-1074.130228647522
 20
2027.423843013881
 30
0.0
  0
POINT
  5
982E
330
F10
100
AcDbEntity
  8
Defpoints
 62
     0
100
AcDbPoint
 10
-1074.130228647522
 20
2192.690295284728
 30
0.0
  0
ENDBLK
  5
F1B
330
F10
100
AcDbEntity
  8
0
100
AcDbBlockEnd
  0
BLOCK
  5
F77
330
F6D
100
AcDbEntity
  8
0
100
AcDbBlockBegin
  2
*D120
 70
     1
 10
0.0
 20
0.0
 30
0.0
  3
*D120
  1

  0
LINE
  5
97CC
330
F6D
100
AcDbEntity
  8
cotas
100
AcDbLine
 10
-437.7096610850172
 20
1992.000582717033
 30
0.0000000000001922
 11
-118.1583731668975
 21
1992.000582717033
 31
0.0000000000001922
  0
LINE
  5
97CD
330
F6D
100
AcDbEntity
  8
cotas
100
AcDbLine
 10
-153.8566408541651
 20
2162.013149084852
 30
0.0000000000001922
 11
-118.1583731668975
 21
2162.013149084852
 31
0.0000000000001922
  0
LINE
  5
97CE
330
F6D
100
AcDbEntity
  8
cotas
100
AcDbLine
 10
-123.1583731668975
 20
2002.000582717033
 30
0.0000000000001922
 11
-123.1583731668975
 21
2152.013149084852
 31
0.0000000000001922
  0
SOLID
  5
97CF
330
F6D
100
AcDbEntity
  8
cotas
100
AcDbTrace
 10
-124.8250398335642
 20
2002.000582717033
 30
0.0000000000001922
 11
-121.4917065002308
 21
2002.000582717033
 31
0.0000000000001922
 12
-123.1583731668975
 22
1992.000582717033
 32
0.0000000000001922
 13
-123.1583731668975
 23
1992.000582717033
 33
0.0000000000001922
  0
SOLID
  5
97D0
330
F6D
100
AcDbEntity
  8
cotas
100
AcDbTrace
 10
-124.8250398335641
 20
2152.013149084852
 30
0.0000000000001922
 11
-121.4917065002308
 21
2152.013149084852
 31
0.0000000000001922
 12
-123.1583731668975
 22
2162.013149084852
 32
0.0000000000001922
 13
-123.1583731668975
 23
2162.013149084852
 33
0.0000000000001922
  0
MTEXT
  5
97D1
330
F6D
100
AcDbEntity
  8
cotas
100
AcDbMText
 10
-133.3632086269381
 20
2077.006865900943
 30
0.0000000000001922
 40
10.0
 41
0.0
 71
     5
 72
     1
  1
170
  7
SANINDUSA
 11
0.0000000000000001
 21
1.0
 31
0.0
 73
     1
 44
1.0
1001
ACAD
1000
MTEXTBEGIN
1070
    73
1070
     1
1070
    44
1040
1.0
1070
    74
1070
     0
1000
MTEXTEND
  0
POINT
  5
97D2
330
F6D
100
AcDbEntity
  8
Defpoints
 62
     0
100
AcDbPoint
 10
-442.7096610850171
 20
1992.000582717033
 30
0.0000000000001922
  0
POINT
  5
97D3
330
F6D
100
AcDbEntity
  8
Defpoints
 62
     0
100
AcDbPoint
 10
-158.8566408541651
 20
2162.013149084852
 30
0.0
  0
POINT
  5
97D4
330
F6D
100
AcDbEntity
  8
Defpoints
 62
     0
100
AcDbPoint
 10
-123.1583731668975
 20
2162.013149084852
 30
0.0000000000001922
  0
ENDBLK
  5
F78
330
F6D
100
AcDbEntity
  8
0
100
AcDbBlockEnd
  0
BLOCK
  5
FB0
330
FA9
100
AcDbEntity
  8
0
100
AcDbBlockBegin
  2
*D121
 70
     1
 10
0.0
 20
0.0
 30
0.0
  3
*D121
  1

  0
LINE
  5
9796
330
FA9
100
AcDbEntity
  8
cotas
100
AcDbLine
 10
-128.3455700764776
 20
1226.158337673052
 30
0.0
 11
-149.8811417982597
 21
1254.994812398879
 31
0.0
  0
MTEXT
  5
9797
330
FA9
100
AcDbEntity
  8
cotas
100
AcDbMText
 10
-128.0258938414788
 20
1242.616416838921
 30
0.0
 40
10.0
 41
0.0
 71
     5
 72
     1
  1
R5
  7
SANINDUSA
 11
0.5983666037270734
 21
-0.8012224457316005
 31
0.0
 73
     1
 44
1.0
1001
ACAD
1000
MTEXTBEGIN
1070
    73
1070
     1
1070
    44
1040
1.0
1070
    74
1070
     0
1000
MTEXTEND
  0
LINE
  5
9798
330
FA9
100
AcDbEntity
  8
cotas
100
AcDbLine
 10
-158.8566408541653
 20
1267.013149084852
 30
0.0
 11
-155.8648078355305
 21
1263.007036856194
 31
0.0
  0
SOLID
  5
9799
330
FA9
100
AcDbEntity
  8
cotas
100
AcDbTrace
 10
-148.5457710553738
 20
1255.992090071757
 30
0.0
 11
-151.2165125411457
 21
1253.997534726
 31
0.0
 12
-155.8648078355305
 22
1263.007036856194
 32
0.0
 13
-155.8648078355305
 23
1263.007036856194
 33
0.0
  0
POINT
  5
979A
330
FA9
100
AcDbEntity
  8
Defpoints
 62
     0
100
AcDbPoint
 10
-155.8648078355305
 20
1263.007036856194
 30
0.0
  0
POINT
  5
979B
330
FA9
100
AcDbEntity
  8
Defpoints
 62
     0
100
AcDbPoint
 10
-158.8566408541653
 20
1267.013149084852
 30
0.0
  0
ENDBLK
  5
FB1
330
FA9
100
AcDbEntity
  8
0
100
AcDbBlockEnd
  0
BLOCK
  5
FB9
330
FB2
100
AcDbEntity
  8
0
100
AcDbBlockBegin
  2
*D122
 70
     1
 10
0.0
 20
0.0
 30
0.0
  3
*D122
  1

  0
LINE
  5
9790
330
FB2
100
AcDbEntity
  8
cotas
100
AcDbLine
 10
-1784.671298709131
 20
1230.716972312904
 30
0.0
 11
-1759.378008901345
 21
1256.321124606949
 31
0.0
  0
MTEXT
  5
9791
330
FB2
100
AcDbEntity
  8
cotas
100
AcDbMText
 10
-1782.726706686053
 20
1247.062893045278
 30
0.0
 40
10.0
 41
0.0
 71
     5
 72
     1
  1
R5
  7
SANINDUSA
 11
0.7027749304682603
 21
0.711412255380333
 31
0.0
 73
     1
 44
1.0
1001
ACAD
1000
MTEXTBEGIN
1070
    73
1070
     1
1070
    44
1040
1.0
1070
    74
1070
     0
1000
MTEXTEND
  0
LINE
  5
9792
330
FB2
100
AcDbEntity
  8
cotas
100
AcDbLine
 10
-1748.836384944322
 20
1266.992308437653
 30
0.0
 11
-1752.350259596662
 21
1263.435247160752
 31
0.0
  0
SOLID
  5
9793
330
FB2
100
AcDbEntity
  8
cotas
100
AcDbTrace
 10
-1760.563695993645
 20
1257.492416157729
 30
0.0
 11
-1758.192321809044
 21
1255.149833056169
 31
0.0
 12
-1752.350259596662
 22
1263.435247160752
 32
0.0
 13
-1752.350259596662
 23
1263.435247160752
 33
0.0
  0
POINT
  5
9794
330
FB2
100
AcDbEntity
  8
Defpoints
 62
     0
100
AcDbPoint
 10
-1752.350259596662
 20
1263.435247160752
 30
0.0
  0
POINT
  5
9795
330
FB2
100
AcDbEntity
  8
Defpoints
 62
     0
100
AcDbPoint
 10
-1748.836384944322
 20
1266.992308437653
 30
0.0
  0
ENDBLK
  5
FBA
330
FB2
100
AcDbEntity
  8
0
100
AcDbBlockEnd
  0
BLOCK
  5
FCD
330
FC3
100
AcDbEntity
  8
0
100
AcDbBlockBegin
  2
*D123
 70
     1
 10
0.0
 20
0.0
 30
0.0
  3
*D123
  1

  0
LINE
  5
977F
330
FC3
100
AcDbEntity
  8
1
100
AcDbLine
 10
-594.3055523048201
 20
2032.441209994571
 30
0.0
 11
-594.3055523048201
 21
2197.690295284729
 31
0.0
  0
LINE
  5
9780
330
FC3
100
AcDbEntity
  8
1
100
AcDbLine
 10
-514.3322161319188
 20
2032.441072995423
 30
0.0
 11
-514.3322161319188
 21
2197.690295284729
 31
0.0
  0
LINE
  5
9781
330
FC3
100
AcDbEntity
  8
1
100
AcDbLine
 10
-584.3055523048201
 20
2192.690295284728
 30
0.0
 11
-524.3322161319188
 21
2192.690295284728
 31
0.0
  0
SOLID
  5
9782
330
FC3
100
AcDbEntity
  8
1
100
AcDbTrace
 10
-584.3055523048201
 20
2194.356961951395
 30
0.0
 11
-584.3055523048201
 21
2191.023628618062
 31
0.0
 12
-594.3055523048201
 22
2192.690295284728
 32
0.0
 13
-594.3055523048201
 23
2192.690295284728
 33
0.0
  0
SOLID
  5
9783
330
FC3
100
AcDbEntity
  8
1
100
AcDbTrace
 10
-524.3322161319188
 20
2194.356961951395
 30
0.0
 11
-524.3322161319188
 21
2191.023628618062
 31
0.0
 12
-514.3322161319188
 22
2192.690295284728
 32
0.0
 13
-514.3322161319188
 23
2192.690295284728
 33
0.0
  0
MTEXT
  5
9784
330
FC3
100
AcDbEntity
  8
1
100
AcDbMText
 10
-554.3188842183695
 20
2202.918636453298
 30
0.0
 40
10.0
 41
0.0
 71
     5
 72
     1
  1
80
  7
SANINDUSA
 73
     1
 44
1.0
1001
ACAD
1000
MTEXTBEGIN
1070
    73
1070
     1
1070
    44
1040
1.0
1070
    74
1070
     0
1000
MTEXTEND
  0
POINT
  5
9785
330
FC3
100
AcDbEntity
  8
Defpoints
 62
     0
100
AcDbPoint
 10
-594.3055523048201
 20
2027.441209994572
 30
0.0
  0
POINT
  5
9786
330
FC3
100
AcDbEntity
  8
Defpoints
 62
     0
100
AcDbPoint
 10
-514.3322161319188
 20
2027.441072995423
 30
0.0
  0
POINT
  5
9787
330
FC3
100
AcDbEntity
  8
Defpoints
 62
     0
100
AcDbPoint
 10
-514.3322161319188
 20
2192.690295284728
 30
0.0
  0
ENDBLK
  5
FCE
330
FC3
100
AcDbEntity
  8
0
100
AcDbBlockEnd
  0
BLOCK
  5
FD9
330
FCF
100
AcDbEntity
  8
0
100
AcDbBlockBegin
  2
*D124
 70
     1
 10
0.0
 20
0.0
 30
0.0
  3
*D124
  1

  0
LINE
  5
9776
330
FCF
100
AcDbEntity
  8
1
100
AcDbLine
 10
-333.8609312657495
 20
2166.999511702031
 30
0.0
 11
-333.8609312657495
 21
2197.690493404694
 31
0.0
  0
LINE
  5
9777
330
FCF
100
AcDbEntity
  8
1
100
AcDbLine
 10
-153.8566408541651
 20
2162.013149084852
 30
0.0
 11
-153.8566408541651
 21
2197.690493404694
 31
0.0
  0
LINE
  5
9778
330
FCF
100
AcDbEntity
  8
1
100
AcDbLine
 10
-323.8609312657495
 20
2192.690493404694
 30
0.0
 11
-163.8566408541651
 21
2192.690493404694
 31
0.0
  0
SOLID
  5
9779
330
FCF
100
AcDbEntity
  8
1
100
AcDbTrace
 10
-323.8609312657495
 20
2194.357160071361
 30
0.0
 11
-323.8609312657495
 21
2191.023826738028
 31
0.0
 12
-333.8609312657495
 22
2192.690493404694
 32
0.0
 13
-333.8609312657495
 23
2192.690493404694
 33
0.0
  0
SOLID
  5
977A
330
FCF
100
AcDbEntity
  8
1
100
AcDbTrace
 10
-163.8566408541651
 20
2194.357160071361
 30
0.0
 11
-163.8566408541651
 21
2191.023826738028
 31
0.0
 12
-153.8566408541651
 22
2192.690493404694
 32
0.0
 13
-153.8566408541651
 23
2192.690493404694
 33
0.0
  0
MTEXT
  5
977B
330
FCF
100
AcDbEntity
  8
1
100
AcDbMText
 10
-243.8587860599573
 20
2202.918834573264
 30
0.0
 40
10.0
 41
0.0
 71
     5
 72
     1
  1
180
  7
SANINDUSA
 73
     1
 44
1.0
1001
ACAD
1000
MTEXTBEGIN
1070
    73
1070
     1
1070
    44
1040
1.0
1070
    74
1070
     0
1000
MTEXTEND
  0
POINT
  5
977C
330
FCF
100
AcDbEntity
  8
Defpoints
 62
     0
100
AcDbPoint
 10
-333.8609312657495
 20
2161.999511702031
 30
0.0000000000001709
  0
POINT
  5
977D
330
FCF
100
AcDbEntity
  8
Defpoints
 62
     0
100
AcDbPoint
 10
-153.8566408541651
 20
2157.013149084852
 30
0.0
  0
POINT
  5
977E
330
FCF
100
AcDbEntity
  8
Defpoints
 62
     0
100
AcDbPoint
 10
-153.8566408541651
 20
2192.690493404694
 30
0.0
  0
ENDBLK
  5
FDA
330
FCF
100
AcDbEntity
  8
0
100
AcDbBlockEnd
  0
BLOCK
  5
FE1
330
FDB
100
AcDbEntity
  8
0
100
AcDbBlockBegin
  2
*D125
 70
     1
 10
0.0
 20
0.0
 30
0.0
  3
*D125
  1

  0
LINE
  5
9771
330
FDB
100
AcDbEntity
  8
1
100
AcDbLine
 10
4515.277539400451
 20
1728.436762924189
 30
0.0
 11
4558.649334020596
 21
1696.533749758781
 31
0.0
  0
MTEXT
  5
9772
330
FDB
100
AcDbEntity
  8
1
100
AcDbMText
 10
4535.246303261765
 20
1726.183131645724
 30
0.0
 40
10.0
 41
0.0
 71
     5
 72
     1
  1
R17
  7
SANINDUSA
 11
0.8055447387890433
 21
-0.5925349557699461
 31
0.0
 73
     1
 44
1.0
1001
ACAD
1000
MTEXTBEGIN
1070
    73
1070
     1
1070
    44
1040
1.0
1070
    74
1070
     0
1000
MTEXTEND
  0
SOLID
  5
9773
330
FDB
100
AcDbEntity
  8
1
100
AcDbTrace
 10
4559.636892280212
 20
1697.87632432343
 30
0.0
 11
4557.66177576098
 21
1695.191175194133
 31
0.0
 12
4566.704781408487
 22
1690.608400201082
 32
0.0
 13
4566.704781408487
 23
1690.608400201082
 33
0.0
  0
POINT
  5
9774
330
FDB
100
AcDbEntity
  8
Defpoints
 62
     0
100
AcDbPoint
 10
4566.704781408487
 20
1690.608400201082
 30
0.0
  0
POINT
  5
9775
330
FDB
100
AcDbEntity
  8
Defpoints
 62
     0
100
AcDbPoint
 10
4553.010520841874
 20
1700.681494454467
 30
0.0
  0
ENDBLK
  5
FE2
330
FDB
100
AcDbEntity
  8
0
100
AcDbBlockEnd
  0
BLOCK
  5
FED
330
FE3
100
AcDbEntity
  8
0
100
AcDbBlockBegin
  2
*D126
 70
     1
 10
0.0
 20
0.0
 30
0.0
  3
*D126
  1

  0
LINE
  5
9768
330
FE3
100
AcDbEntity
  8
1
100
AcDbLine
 10
4648.09019567373
 20
1788.575784133157
 30
0.0
 11
4679.871711393583
 21
1788.575784133157
 31
0.0
  0
LINE
  5
9769
330
FE3
100
AcDbEntity
  8
1
100
AcDbLine
 10
4574.526124377096
 20
1686.513458239349
 30
0.0
 11
4679.871711393583
 21
1686.513458239349
 31
0.0
  0
LINE
  5
976A
330
FE3
100
AcDbEntity
  8
1
100
AcDbLine
 10
4674.871711393582
 20
1778.575784133157
 30
0.0
 11
4674.871711393582
 21
1696.513458239349
 31
0.0
  0
SOLID
  5
976B
330
FE3
100
AcDbEntity
  8
1
100
AcDbTrace
 10
4673.205044726915
 20
1778.575784133157
 30
0.0
 11
4676.538378060249
 21
1778.575784133157
 31
0.0
 12
4674.871711393582
 22
1788.575784133157
 32
0.0
 13
4674.871711393582
 23
1788.575784133157
 33
0.0
  0
SOLID
  5
976C
330
FE3
100
AcDbEntity
  8
1
100
AcDbTrace
 10
4673.205044726915
 20
1696.513458239349
 30
0.0
 11
4676.538378060249
 21
1696.513458239349
 31
0.0
 12
4674.871711393582
 22
1686.513458239349
 32
0.0
 13
4674.871711393582
 23
1686.513458239349
 33
0.0
  0
MTEXT
  5
976D
330
FE3
100
AcDbEntity
  8
1
100
AcDbMText
 10
4663.525170090695
 20
1737.544621186254
 30
0.0
 40
10.0
 41
0.0
 71
     5
 72
     1
  1
102,1
  7
SANINDUSA
 11
0.0000000000000001
 21
1.0
 31
0.0
 73
     1
 44
1.0
1001
ACAD
1000
MTEXTBEGIN
1070
    73
1070
     1
1070
    44
1040
1.0
1070
    74
1070
     0
1000
MTEXTEND
  0
POINT
  5
976E
330
FE3
100
AcDbEntity
  8
Defpoints
 62
     0
100
AcDbPoint
 10
4643.090195673731
 20
1788.575784133157
 30
0.0
  0
POINT
  5
976F
330
FE3
100
AcDbEntity
  8
Defpoints
 62
     0
100
AcDbPoint
 10
4569.526124377096
 20
1686.513458239349
 30
0.0
  0
POINT
  5
9770
330
FE3
100
AcDbEntity
  8
Defpoints
 62
     0
100
AcDbPoint
 10
4674.871711393582
 20
1686.513458239349
 30
0.0
  0
ENDBLK
  5
FEE
330
FE3
100
AcDbEntity
  8
0
100
AcDbBlockEnd
  0
BLOCK
  5
FF9
330
FEF
100
AcDbEntity
  8
0
100
AcDbBlockBegin
  2
*D127
 70
     1
 10
0.0
 20
0.0
 30
0.0
  3
*D127
  1

  0
LINE
  5
975F
330
FEF
100
AcDbEntity
  8
1
100
AcDbLine
 10
-1755.952381605925
 20
2164.074178568943
 30
0.0
 11
-1789.567173383118
 21
2164.074178568943
 31
0.0
  0
LINE
  5
9760
330
FEF
100
AcDbEntity
  8
1
100
AcDbLine
 10
-1760.951620081716
 20
2068.648057203154
 30
0.0
 11
-1789.567173383118
 21
2068.648057203154
 31
0.0
  0
LINE
  5
9761
330
FEF
100
AcDbEntity
  8
1
100
AcDbLine
 10
-1784.567173383118
 20
2154.074178568943
 30
0.0
 11
-1784.567173383118
 21
2078.648057203154
 31
0.0
  0
SOLID
  5
9762
330
FEF
100
AcDbEntity
  8
1
100
AcDbTrace
 10
-1786.233840049785
 20
2154.074178568943
 30
0.0
 11
-1782.900506716452
 21
2154.074178568943
 31
0.0
 12
-1784.567173383118
 22
2164.074178568943
 32
0.0
 13
-1784.567173383118
 23
2164.074178568943
 33
0.0
  0
SOLID
  5
9763
330
FEF
100
AcDbEntity
  8
1
100
AcDbTrace
 10
-1786.233840049785
 20
2078.648057203154
 30
0.0
 11
-1782.900506716452
 21
2078.648057203154
 31
0.0
 12
-1784.567173383118
 22
2068.648057203154
 32
0.0
 13
-1784.567173383118
 23
2068.648057203154
 33
0.0
  0
MTEXT
  5
9764
330
FEF
100
AcDbEntity
  8
1
100
AcDbMText
 10
-1795.910356727645
 20
2116.361117886048
 30
0.0
 40
10.0
 41
0.0
 71
     5
 72
     1
  1
95,4
  7
SANINDUSA
 11
0.0000000000000001
 21
1.0
 31
0.0
 73
     1
 44
1.0
1001
ACAD
1000
MTEXTBEGIN
1070
    73
1070
     1
1070
    44
1040
1.0
1070
    74
1070
     0
1000
MTEXTEND
  0
POINT
  5
9765
330
FEF
100
AcDbEntity
  8
Defpoints
 62
     0
100
AcDbPoint
 10
-1750.952381605924
 20
2164.074178568943
 30
0.0000000000003059
  0
POINT
  5
9766
330
FEF
100
AcDbEntity
  8
Defpoints
 62
     0
100
AcDbPoint
 10
-1755.951620081716
 20
2068.648057203154
 30
0.0000000000000114
  0
POINT
  5
9767
330
FEF
100
AcDbEntity
  8
Defpoints
 62
     0
100
AcDbPoint
 10
-1784.567173383118
 20
2068.648057203154
 30
0.0
  0
ENDBLK
  5
FFA
330
FEF
100
AcDbEntity
  8
0
100
AcDbBlockEnd
  0
ENDSEC
  0
SECTION
  2
ENTITIES
  0
LINE
  5
780
330
23
100
AcDbEntity
  8
SANINDUSA
100
AcDbLine
 10
2025.742113112247
 20
1788.455784135843
 30
0.0
 11
2025.753252007375
 21
1788.44383915546
 31
0.0
  0
LINE
  5
781
330
23
100
AcDbEntity
  8
SANINDUSA
100
AcDbLine
 10
2025.8566435439
 20
1788.44383915546
 30
0.0
 11
2025.867782472408
 21
1788.455784135843
 31
0.0
  0
LINE
  5
784
330
23
100
AcDbEntity
  8
SANINDUSA
100
AcDbLine
 10
2024.387852406369
 20
1788.455784135843
 30
0.0
 11
2025.98204314593
 21
1788.455784135843
 31
0.0
  0
LINE
  5
787
330
23
100
AcDbEntity
  8
SANINDUSA
100
AcDbLine
 10
2024.382853167837
 20
1788.455784135843
 30
0.0
 11
2024.384827722613
 21
1788.568906300006
 31
0.0
  0
LINE
  5
788
330
23
100
AcDbEntity
  8
SANINDUSA
100
AcDbLine
 10
2024.382853167837
 20
1788.455784135843
 30
0.0
 11
2024.387852406369
 21
1788.455784135843
 31
0.0
  0
LINE
  5
78A
330
23
100
AcDbEntity
  8
SANINDUSA
100
AcDbLine
 10
2025.985067828662
 20
1788.568906300006
 30
0.0
 11
2025.987042425906
 21
1788.455784135843
 31
0.0
  0
LINE
  5
78B
330
23
100
AcDbEntity
  8
SANINDUSA
100
AcDbLine
 10
2025.98204314593
 20
1788.455784135843
 30
0.0
 11
2025.987042425906
 21
1788.455784135843
 31
0.0
  0
LINE
  5
78C
330
23
100
AcDbEntity
  8
SANINDUSA
100
AcDbLine
 10
2024.391826656422
 20
1788.575784133161
 30
0.0
 11
2025.978068946635
 21
1788.575784133161
 31
0.0
  0
ARC
  5
78F
330
23
100
AcDbEntity
  8
SANINDUSA
100
AcDbCircle
 10
2024.391826656479
 20
1788.56878413316
 30
0.0
 40
0.0070000000000002
100
AcDbArc
 50
90.0
 51
179.0000000030781
  0
ARC
  5
790
330
23
100
AcDbEntity
  8
SANINDUSA
100
AcDbCircle
 10
2025.978068894796
 20
1788.56878413316
 30
0.0
 40
0.0070000000000002
100
AcDbArc
 50
0.9999999969218754
 51
90.0
  0
LINE
  5
791
330
23
100
AcDbEntity
  8
SANINDUSA
100
AcDbLine
 10
2025.804947775638
 20
1788.44383915546
 30
0.0
 11
2025.8566435439
 21
1788.44383915546
 31
0.0
  0
LINE
  5
792
330
23
100
AcDbEntity
  8
SANINDUSA
100
AcDbLine
 10
2025.753252007375
 20
1788.44383915546
 30
0.0
 11
2025.804947775638
 21
1788.44383915546
 31
0.0
  0
LINE
  5
793
330
23
100
AcDbEntity
  8
SANINDUSA
100
AcDbLine
 10
2023.685978157893
 20
1788.45578413316
 30
0.0
 11
2023.697117029802
 21
1788.44383915546
 31
0.0
  0
LINE
  5
794
330
23
100
AcDbEntity
  8
SANINDUSA
100
AcDbLine
 10
2023.800508566326
 20
1788.44383915546
 30
0.0
 11
2023.811647438236
 21
1788.45578413316
 31
0.0
  0
LINE
  5
797
330
23
100
AcDbEntity
  8
SANINDUSA
100
AcDbLine
 10
2023.296718190273
 20
1788.45578413316
 30
0.0
 11
2023.29869274504
 21
1788.568906300006
 31
0.0
  0
LINE
  5
798
330
23
100
AcDbEntity
  8
SANINDUSA
100
AcDbLine
 10
2023.296718190273
 20
1788.45578413316
 30
0.0
 11
2023.301717428749
 21
1788.45578413316
 31
0.0
  0
LINE
  5
79A
330
23
100
AcDbEntity
  8
SANINDUSA
100
AcDbLine
 10
2024.198932851088
 20
1788.568906300006
 30
0.0
 11
2024.200907405855
 21
1788.45578413316
 31
0.0
  0
LINE
  5
79C
330
23
100
AcDbEntity
  8
SANINDUSA
100
AcDbLine
 10
2024.19590816738
 20
1788.45578413316
 30
0.0
 11
2024.200907405855
 21
1788.45578413316
 31
0.0
  0
LINE
  5
79E
330
23
100
AcDbEntity
  8
SANINDUSA
100
AcDbLine
 10
2023.301717428749
 20
1788.45578413316
 30
0.0
 11
2024.19590816738
 21
1788.45578413316
 31
0.0
  0
LINE
  5
7A0
330
23
100
AcDbEntity
  8
SANINDUSA
100
AcDbLine
 10
2023.305691678906
 20
1788.575784133161
 30
0.0
 11
2024.191933917222
 21
1788.575784133161
 31
0.0
  0
ARC
  5
7A2
330
23
100
AcDbEntity
  8
SANINDUSA
100
AcDbCircle
 10
2024.191933917222
 20
1788.56878413316
 30
0.0
 40
0.0070000000000002
100
AcDbArc
 50
0.9999999969218754
 51
90.0
  0
ARC
  5
7A3
330
23
100
AcDbEntity
  8
SANINDUSA
100
AcDbCircle
 10
2023.305691678906
 20
1788.56878413316
 30
0.0
 40
0.0070000000000002
100
AcDbArc
 50
90.0
 51
179.0000000030781
  0
LINE
  5
7A4
330
23
100
AcDbEntity
  8
SANINDUSA
100
AcDbLine
 10
2023.697117029802
 20
1788.44383915546
 30
0.0
 11
2023.800508566326
 21
1788.44383915546
 31
0.0
  0
LWPOLYLINE
  5
828
330
23
100
AcDbEntity
  8
SANINDUSA
100
AcDbPolyline
 90
        3
 70
   128
 43
0.0
 10
2027.546556070658
 20
1788.465203164615
 10
2027.335252628806
 20
1788.469629269442
 10
2026.772401318997
 20
1788.481419330645
  0
LWPOLYLINE
  5
829
330
23
100
AcDbEntity
  8
SANINDUSA
100
AcDbPolyline
 90
        3
 70
   128
 43
0.0
 10
2027.717789801973
 20
1788.467600795781
 10
2027.708587838078
 20
1788.465872706902
 10
2027.699128042246
 20
1788.465187424797
  0
ARC
  5
82A
330
23
100
AcDbEntity
  8
SANINDUSA
100
AcDbCircle
 10
2027.546554026539
 20
1788.465103185509
 30
0.0
 40
0.0001000000509268
100
AcDbArc
 50
54.99999999392633
 51
88.8287253197687
  0
LWPOLYLINE
  5
82B
330
23
100
AcDbEntity
  8
SANINDUSA
100
AcDbPolyline
 90
        3
 70
   128
 43
0.0
 10
2027.699072245784
 20
1788.465169352189
 10
2027.699099110584
 20
1788.465182674511
 10
2027.699128042246
 20
1788.465187424797
  0
LINE
  5
82C
330
23
100
AcDbEntity
  8
SANINDUSA
100
AcDbLine
 10
2027.546611384183
 20
1788.465185100714
 30
0.0
 11
2027.559982791473
 21
1788.455822340532
 31
0.0
  0
LINE
  5
82D
330
23
100
AcDbEntity
  8
SANINDUSA
100
AcDbLine
 10
2027.685723329717
 20
1788.455822340532
 30
0.0
 11
2027.699072245784
 21
1788.465169352189
 31
0.0
  0
LWPOLYLINE
  5
82E
330
23
100
AcDbEntity
  8
SANINDUSA
100
AcDbPolyline
 90
        3
 70
   128
 43
0.0
 10
2027.546635791304
 20
1788.469102349742
 10
2027.547818101517
 20
1788.468898197296
 10
2027.548848332285
 20
1788.468379793686
  0
LWPOLYLINE
  5
82F
330
23
100
AcDbEntity
  8
SANINDUSA
100
AcDbPolyline
 90
       37
 70
   128
 43
0.0
 10
2027.546635791304
 20
1788.469102349742
 10
2027.547149566531
 20
1788.469099608968
 10
2027.548133512053
 20
1788.469097296412
 10
2027.549637589387
 20
1788.469094661454
 10
2027.551697602254
 20
1788.469091449563
 10
2027.554292713114
 20
1788.469089125568
 10
2027.557286021656
 20
1788.469087744784
 10
2027.560756221264
 20
1788.469086692158
 10
2027.564749678338
 20
1788.469085865565
 10
2027.56920021085
 20
1788.4690853867
 10
2027.573871678871
 20
1788.469085328881
 10
2027.57891582853
 20
1788.469085581722
 10
2027.584386141608
 20
1788.469085900214
 10
2027.590179785276
 20
1788.469086132696
 10
2027.59599409517
 20
1788.46908637195
 10
2027.602034977707
 20
1788.469086701765
 10
2027.608356842457
 20
1788.46908716349
 10
2027.614831747793
 20
1788.469087863246
 10
2027.624997460032
 20
1788.469089919939
 10
2027.630158817113
 20
1788.469091548346
 10
2027.635310020326
 20
1788.469093648274
 10
2027.640444794716
 20
1788.469096295387
 10
2027.645519828528
 20
1788.469099481051
 10
2027.650558586701
 20
1788.469103158797
 10
2027.655484496454
 20
1788.469107161457
 10
2027.661072987919
 20
1788.469112099154
 10
2027.666433783095
 20
1788.469117125067
 10
2027.67159644973
 20
1788.469121949862
 10
2027.676437318659
 20
1788.46912638859
 10
2027.680723004857
 20
1788.4691305034
 10
2027.684638028954
 20
1788.46913418415
 10
2027.688194809261
 20
1788.469136409375
 10
2027.691300274399
 20
1788.469136576566
 10
2027.693821775094
 20
1788.469135271939
 10
2027.69587664609
 20
1788.469129090883
 10
2027.697459697881
 20
1788.469119405062
 10
2027.698521686779
 20
1788.469106207792
  0
LWPOLYLINE
  5
830
330
23
100
AcDbEntity
  8
SANINDUSA
100
AcDbPolyline
 90
        3
 70
   128
 43
0.0
 10
2027.696835297682
 20
1788.468364045161
 10
2027.697910167631
 20
1788.468897027035
 10
2027.699067156091
 20
1788.469086949504
  0
LINE
  5
832
330
23
100
AcDbEntity
  8
SANINDUSA
100
AcDbLine
 10
2027.548848332285
 20
1788.468379793686
 30
0.0
 11
2027.562555515337
 21
1788.458781920785
 31
0.0
  0
LINE
  5
833
330
23
100
AcDbEntity
  8
SANINDUSA
100
AcDbLine
 10
2027.683150605854
 20
1788.458781920785
 30
0.0
 11
2027.696835297682
 21
1788.468364045161
 31
0.0
  0
LWPOLYLINE
  5
835
330
23
100
AcDbEntity
  8
SANINDUSA
100
AcDbPolyline
 90
        3
 70
   128
 43
0.0
 10
2027.546635791304
 20
1788.469102349742
 10
2027.302943881267
 20
1788.474206654969
 10
2026.772482986766
 20
1788.485318475946
  0
LWPOLYLINE
  5
841
330
23
100
AcDbEntity
  8
SANINDUSA
100
AcDbPolyline
 90
        3
 70
   128
 43
0.0
 10
2027.716853722152
 20
1788.471386790313
 10
2027.708083305394
 20
1788.469739934638
 10
2027.699067156091
 20
1788.469086949504
  0
ARC
  5
89F
330
23
100
AcDbEntity
  8
SANINDUSA
100
AcDbCircle
 10
2027.712773374567
 20
1788.487889843481
 30
0.0
 40
0.0209000000108333
100
AcDbArc
 50
283.8877473301586
 51
358.0000000092661
  0
ARC
  5
8A0
330
23
100
AcDbEntity
  8
SANINDUSA
100
AcDbCircle
 10
2027.712773374569
 20
1788.487889843482
 30
0.0
 40
0.0170000000089429
100
AcDbArc
 50
283.8877471026567
 51
358.0000000092661
  0
LINE
  5
8A1
330
23
100
AcDbEntity
  8
SANINDUSA
100
AcDbLine
 10
2027.802973113619
 20
1788.568906300006
 30
0.0
 11
2027.804947668387
 21
1788.45578413316
 31
0.0
  0
LINE
  5
8A2
330
23
100
AcDbEntity
  8
SANINDUSA
100
AcDbLine
 10
2027.804947668387
 20
1788.45578413316
 30
0.0
 11
2027.801047074307
 21
1788.45578413316
 31
0.0
  0
LINE
  5
8A3
330
23
100
AcDbEntity
  8
SANINDUSA
100
AcDbLine
 10
2027.799073707608
 20
1788.56883823562
 30
0.0
 11
2027.801047074307
 21
1788.45578413316
 31
0.0
  0
ARC
  5
8A4
330
23
100
AcDbEntity
  8
SANINDUSA
100
AcDbCircle
 10
2027.795974179753
 20
1788.56878413316
 30
0.0
 40
0.0031000000000006
100
AcDbArc
 50
0.9999999969218754
 51
90.0
  0
LINE
  5
8A5
330
23
100
AcDbEntity
  8
SANINDUSA
100
AcDbLine
 10
2027.739612894484
 20
1788.57188413316
 30
0.0
 11
2027.795974179753
 21
1788.57188413316
 31
0.0
  0
ARC
  5
8A6
330
23
100
AcDbEntity
  8
SANINDUSA
100
AcDbCircle
 10
2027.739612894484
 20
1788.56878413316
 30
0.0
 40
0.0031000000000006
100
AcDbArc
 50
90.0
 51
177.9999999962464
  0
LINE
  5
8A7
330
23
100
AcDbEntity
  8
SANINDUSA
100
AcDbLine
 10
2027.674548828858
 20
1788.44383915546
 30
0.0
 11
2027.685723329717
 21
1788.455822340532
 31
0.0
  0
LINE
  5
8A8
330
23
100
AcDbEntity
  8
SANINDUSA
100
AcDbLine
 10
2027.571157292333
 20
1788.44383915546
 30
0.0
 11
2027.674548828858
 21
1788.44383915546
 31
0.0
  0
LINE
  5
8A9
330
23
100
AcDbEntity
  8
SANINDUSA
100
AcDbLine
 10
2027.559982791473
 20
1788.455822340532
 30
0.0
 11
2027.571157292333
 21
1788.44383915546
 31
0.0
  0
ARC
  5
8AA
330
23
100
AcDbEntity
  8
SANINDUSA
100
AcDbCircle
 10
2026.772843469143
 20
1788.502319308016
 30
0.0
 40
0.0209046538089333
100
AcDbArc
 50
182.0400216349981
 51
268.7880580684894
  0
ARC
  5
8AB
330
23
100
AcDbEntity
  8
SANINDUSA
100
AcDbCircle
 10
2026.748854006212
 20
1788.501465452111
 30
0.0
 40
0.0031000000004937
100
AcDbArc
 50
2.027972951205097
 51
89.0000000161037
  0
LINE
  5
8AC
330
23
100
AcDbEntity
  8
SANINDUSA
100
AcDbLine
 10
2026.748908108671
 20
1788.504564979966
 30
0.0
 11
2026.311433174493
 21
1788.512201133347
 31
0.0
  0
ARC
  5
8AD
330
23
100
AcDbEntity
  8
SANINDUSA
100
AcDbCircle
 10
2026.311379072033
 20
1788.509101605492
 30
0.0
 40
0.0030999999999997
100
AcDbArc
 50
89.00000000307812
 51
154.6842608275599
  0
ARC
  5
8AE
330
23
100
AcDbEntity
  8
SANINDUSA
100
AcDbCircle
 10
2026.296011664991
 20
1788.516370910876
 30
0.0
 40
0.0139000000000001
100
AcDbArc
 50
269.0000000030781
 51
334.6842608275599
  0
LINE
  5
8AF
330
23
100
AcDbEntity
  8
SANINDUSA
100
AcDbLine
 10
2026.295769076541
 20
1788.502473027913
 30
0.0
 11
2026.291326307732
 21
1788.502550576731
 31
0.0
  0
ARC
  5
8B0
330
23
100
AcDbEntity
  8
SANINDUSA
100
AcDbCircle
 10
2026.291691063027
 20
1788.52344739356
 30
0.0
 40
0.0209000000000002
100
AcDbArc
 50
182.0000000037536
 51
269.0000000030781
  0
LINE
  5
8B1
330
23
100
AcDbEntity
  8
SANINDUSA
100
AcDbLine
 10
2026.269191351694
 20
1788.5688923216
 30
0.0
 11
2026.270803794742
 21
1788.522717994079
 31
0.0
  0
ARC
  5
8B2
330
23
100
AcDbEntity
  8
SANINDUSA
100
AcDbCircle
 10
2026.26609324013
 20
1788.56878413316
 30
0.0
 40
0.0031000000000006
100
AcDbArc
 50
2.000000003753602
 51
90.0
  0
LINE
  5
8B3
330
23
100
AcDbEntity
  8
SANINDUSA
100
AcDbLine
 10
2026.209731941437
 20
1788.57188413316
 30
0.0
 11
2026.26609324013
 21
1788.57188413316
 31
0.0
  0
ARC
  5
8B4
330
23
100
AcDbEntity
  8
SANINDUSA
100
AcDbCircle
 10
2026.209731941437
 20
1788.56878413316
 30
0.0
 40
0.0031000000000006
100
AcDbArc
 50
90.0
 51
179.0000000030781
  0
LINE
  5
8B5
330
23
100
AcDbEntity
  8
SANINDUSA
100
AcDbLine
 10
2026.204659046883
 20
1788.45578413316
 30
0.0
 11
2026.206632413582
 21
1788.56883823562
 31
0.0
  0
LINE
  5
8B6
330
23
100
AcDbEntity
  8
SANINDUSA
100
AcDbLine
 10
2026.204659046883
 20
1788.45578413316
 30
0.0
 11
2026.200758452804
 21
1788.45578413316
 31
0.0
  0
LINE
  5
8B7
330
23
100
AcDbEntity
  8
SANINDUSA
100
AcDbLine
 10
2026.200758452804
 20
1788.45578413316
 30
0.0
 11
2026.202733007571
 21
1788.568906300006
 31
0.0
  0
ARC
  5
8B8
330
23
100
AcDbEntity
  8
SANINDUSA
100
AcDbCircle
 10
2026.209731941437
 20
1788.56878413316
 30
0.0
 40
0.0070000000000005
100
AcDbArc
 50
90.0
 51
179.0000000030781
  0
LINE
  5
8B9
330
23
100
AcDbEntity
  8
SANINDUSA
100
AcDbLine
 10
2026.209731941437
 20
1788.575784133161
 30
0.0
 11
2026.26609324013
 21
1788.575784133161
 31
0.0
  0
ARC
  5
8BA
330
23
100
AcDbEntity
  8
SANINDUSA
100
AcDbCircle
 10
2026.26609324013
 20
1788.56878413316
 30
0.0
 40
0.0070000000000005
100
AcDbArc
 50
2.000000003753602
 51
90.0
  0
ARC
  5
8BC
330
23
100
AcDbEntity
  8
SANINDUSA
100
AcDbCircle
 10
2026.291691063027
 20
1788.52344739356
 30
0.0
 40
0.017
100
AcDbArc
 50
182.0000000037536
 51
269.0000000030781
  0
LINE
  5
8BD
330
23
100
AcDbEntity
  8
SANINDUSA
100
AcDbLine
 10
2026.295837140926
 20
1788.506372433924
 30
0.0
 11
2026.291394372117
 21
1788.506449982742
 31
0.0
  0
ARC
  5
8BE
330
23
100
AcDbEntity
  8
SANINDUSA
100
AcDbCircle
 10
2026.296011664991
 20
1788.516370910876
 30
0.0
 40
0.0100000000000007
100
AcDbArc
 50
269.0000000030781
 51
334.6842608275599
  0
ARC
  5
8BF
330
23
100
AcDbEntity
  8
SANINDUSA
100
AcDbCircle
 10
2026.311379072033
 20
1788.509101605492
 30
0.0
 40
0.0069999999999999
100
AcDbArc
 50
89.00000000307812
 51
154.6842608275599
  0
LINE
  5
8C0
330
23
100
AcDbEntity
  8
SANINDUSA
100
AcDbLine
 10
2026.748976173056
 20
1788.508464385978
 30
0.0
 11
2026.311501238879
 21
1788.516100539358
 31
0.0
  0
ARC
  5
8C1
330
23
100
AcDbEntity
  8
SANINDUSA
100
AcDbCircle
 10
2026.748854006212
 20
1788.50146545211
 30
0.0
 40
0.0070000000011149
100
AcDbArc
 50
2.027973081399021
 51
89.0000000161037
  0
ARC
  5
8C2
330
23
100
AcDbEntity
  8
SANINDUSA
100
AcDbCircle
 10
2026.772842630388
 20
1788.502318457541
 30
0.0
 40
0.0170037853954673
100
AcDbArc
 50
182.0400217526355
 51
268.7880581987358
  0
LINE
  5
8C3
330
23
100
AcDbEntity
  8
SANINDUSA
100
AcDbLine
 10
2027.562555515337
 20
1788.458781920785
 30
0.0
 11
2027.572853060595
 21
1788.44773915546
 31
0.0
  0
LINE
  5
8C4
330
23
100
AcDbEntity
  8
SANINDUSA
100
AcDbLine
 10
2027.572853060595
 20
1788.44773915546
 30
0.0
 11
2027.672853060595
 21
1788.44773915546
 31
0.0
  0
LINE
  5
8C5
330
23
100
AcDbEntity
  8
SANINDUSA
100
AcDbLine
 10
2027.672853060595
 20
1788.44773915546
 30
0.0
 11
2027.683150605854
 21
1788.458781920785
 31
0.0
  0
ARC
  5
8C6
330
23
100
AcDbEntity
  8
SANINDUSA
100
AcDbCircle
 10
2027.739612894484
 20
1788.56878413316
 30
0.0
 40
0.0070000000000005
100
AcDbArc
 50
90.0
 51
177.9999999962464
  0
LINE
  5
8C7
330
23
100
AcDbEntity
  8
SANINDUSA
100
AcDbLine
 10
2027.739612894484
 20
1788.575784133161
 30
0.0
 11
2027.795974179753
 21
1788.575784133161
 31
0.0
  0
ARC
  5
8C8
330
23
100
AcDbEntity
  8
SANINDUSA
100
AcDbCircle
 10
2027.795974179753
 20
1788.56878413316
 30
0.0
 40
0.0070000000000005
100
AcDbArc
 50
0.9999999969218754
 51
90.0
  0
LINE
  5
8C9
330
23
100
AcDbEntity
  8
SANINDUSA
100
AcDbLine
 10
2027.729763018637
 20
1788.487296552037
 30
0.0
 11
2027.732617158695
 21
1788.569028429637
 31
0.0
  0
LINE
  5
8CA
330
23
100
AcDbEntity
  8
SANINDUSA
100
AcDbLine
 10
2027.733660642862
 20
1788.487160444004
 30
0.0
 11
2027.73651478292
 21
1788.5688923216
 31
0.0
  0
LINE
  5
8CB
330
23
100
AcDbEntity
  8
SANINDUSA
100
AcDbLine
 10
2026.274701418967
 20
1788.522854102116
 30
0.0
 11
2026.273088975919
 21
1788.569028429637
 31
0.0
  0
LINE
  5
927
330
23
100
AcDbEntity
  8
SANINDUSA
100
AcDbLine
 10
2027.712629342154
 20
1788.575784133161
 30
0.0
 11
2027.739612894484
 21
1788.575784133161
 31
0.0
  0
LINE
  5
929
330
23
100
AcDbEntity
  8
SANINDUSA
100
AcDbLine
 10
2026.26609324013
 20
1788.575784133161
 30
0.0
 11
2026.293076792608
 21
1788.575784133161
 31
0.0
  0
LINE
  5
92A
330
23
100
AcDbEntity
  8
SANINDUSA
100
AcDbLine
 10
2026.293076792608
 20
1788.575784133161
 30
0.0
 11
2027.712629342154
 21
1788.575784133161
 31
0.0
  0
LINE
  5
930
330
23
100
AcDbEntity
  8
SANINDUSA
100
AcDbLine
 10
2026.205758879348
 20
1788.45578413316
 30
0.0
 11
2026.204659046883
 21
1788.45578413316
 31
0.0
  0
LINE
  5
932
330
23
100
AcDbEntity
  8
SANINDUSA
100
AcDbLine
 10
2027.801047074307
 20
1788.45578413316
 30
0.0
 11
2027.799947241843
 21
1788.45578413316
 31
0.0
  0
LINE
  5
933
330
23
100
AcDbEntity
  8
SANINDUSA
100
AcDbLine
 10
2027.799947241843
 20
1788.45578413316
 30
0.0
 11
2027.685687700767
 21
1788.45578413316
 31
0.0
  0
LINE
  5
934
330
23
100
AcDbEntity
  8
SANINDUSA
100
AcDbLine
 10
2027.560018420424
 20
1788.45578413316
 30
0.0
 11
2026.205758879348
 21
1788.45578413316
 31
0.0
  0
ARC
  5
9BE
330
23
100
AcDbEntity
  8
SANINDUSA
100
AcDbCircle
 10
2021.410807469285
 20
1788.944319683471
 30
0.0
 40
0.0050010538408701
100
AcDbArc
 50
90.02079442259093
 51
179.9796810570359
  0
LINE
  5
9C0
330
23
100
AcDbEntity
  8
SANINDUSA
100
AcDbLine
 10
2021.410805654234
 20
1788.949320710489
 30
0.0
 11
2023.001047283331
 21
1788.949320710489
 31
0.0
  0
ARC
  5
9C4
330
23
100
AcDbEntity
  8
SANINDUSA
100
AcDbCircle
 10
2023.001045442654
 20
1788.944319643257
 30
0.0
 40
0.0050010940544066
100
AcDbArc
 50
0.0207794930126366
 51
89.97922050698738
  0
LINE
  5
9C7
330
23
100
AcDbEntity
  8
SANINDUSA
100
AcDbLine
 10
2021.405806415758
 20
1788.054079842916
 30
0.0
 11
2021.405806415758
 21
1788.944321472013
 31
0.0
  0
LINE
  5
9C8
330
23
100
AcDbEntity
  8
SANINDUSA
100
AcDbLine
 10
2023.006046521807
 20
1788.944321472013
 30
0.0
 11
2023.006046521807
 21
1788.054079842916
 31
0.0
  0
ELLIPSE
  5
9D5
330
23
100
AcDbEntity
  8
SANINDUSA
100
AcDbEllipse
 10
2022.915669844975
 20
1788.858944021194
 30
0.0
 11
0.0141714282369861
 21
0.014171428236987
 31
0.0
210
0.0
220
0.0
230
1.0
 40
0.9979329808707115
 41
5.49839613136775
 42
7.067974482991402
  0
LINE
  5
9D7
330
23
100
AcDbEntity
  8
SANINDUSA
100
AcDbLine
 10
2022.915702750342
 20
1788.8789647431
 30
0.0
 11
2021.496150200795
 21
1788.8789647431
 31
0.0
  0
ELLIPSE
  5
9D9
330
23
100
AcDbEntity
  8
SANINDUSA
100
AcDbEllipse
 10
2021.496183106162
 20
1788.858944021194
 30
0.0
 11
-0.0141714282340621
 21
0.0141714282398871
 31
0.0
210
0.0
220
0.0
230
1.0
 40
0.9979329808715316
 41
5.498396131573046
 42
7.067974482786258
  0
LINE
  5
9DB
330
23
100
AcDbEntity
  8
SANINDUSA
100
AcDbLine
 10
2021.476162384255
 20
1788.858976926568
 30
0.0
 11
2021.476162383959
 21
1788.139424388379
 31
0.0
  0
LINE
  5
9DE
330
23
100
AcDbEntity
  8
SANINDUSA
100
AcDbLine
 10
2022.935690566882
 20
1788.139424388373
 30
0.0
 11
2022.935690566882
 21
1788.85897692656
 31
0.0
  0
ELLIPSE
  5
9DF
330
23
100
AcDbEntity
  8
SANINDUSA
100
AcDbEllipse
 10
2021.496183105866
 20
1788.139457293737
 30
0.0
 11
0.0141714282398977
 21
0.0141714282340996
 31
0.0
210
0.0
220
0.0
230
1.0
 40
0.9979329808698404
 41
2.356803477571814
 42
3.92638182960778
  0
ELLIPSE
  5
9E2
330
23
100
AcDbEntity
  8
SANINDUSA
100
AcDbEllipse
 10
2022.915669844975
 20
1788.13945729374
 30
0.0
 11
0.0141714282369998
 21
-0.0141714282369731
 31
0.0
210
0.0
220
0.0
230
1.0
 40
0.997932980870661
 41
5.498396131368645
 42
7.067974482990502
  0
LINE
  5
9E3
330
23
100
AcDbEntity
  8
SANINDUSA
100
AcDbLine
 10
2021.496150200499
 20
1788.119436571831
 30
0.0
 11
2022.915702750342
 21
1788.119436571833
 31
0.0
  0
ARC
  5
9E5
330
23
100
AcDbEntity
  8
SANINDUSA
100
AcDbCircle
 10
2023.001045473752
 20
1788.054081667082
 30
0.0
 40
0.005001062959576
100
AcDbArc
 50
270.0204233327454
 51
359.9791011876325
  0
LINE
  5
9E6
330
23
100
AcDbEntity
  8
SANINDUSA
100
AcDbLine
 10
2023.001047283331
 20
1788.049080604441
 30
0.0
 11
2021.410805654234
 21
1788.049080604441
 31
0.0
  0
ARC
  5
9E8
330
23
100
AcDbEntity
  8
SANINDUSA
100
AcDbCircle
 10
2021.410807438186
 20
1788.054081626868
 30
0.0
 40
0.0050010227454458
100
AcDbArc
 50
180.0204382492961
 51
269.9795617507039
  0
ARC
  5
A22
330
23
100
AcDbEntity
  8
SANINDUSA
100
AcDbCircle
 10
2021.519012494987
 20
1788.166995167494
 30
0.0
 40
0.0108877684203434
100
AcDbArc
 50
179.9875125441766
 51
269.987747300669
  0
ARC
  5
A25
330
23
100
AcDbEntity
  8
SANINDUSA
100
AcDbCircle
 10
2021.519012558903
 20
1788.831406089511
 30
0.0
 40
0.0108878323195326
100
AcDbArc
 50
90.01258897953915
 51
180.0120727758092
  0
LINE
  5
A28
330
23
100
AcDbEntity
  8
SANINDUSA
100
AcDbLine
 10
2021.50812472438
 20
1788.166997543556
 30
0.0
 11
2021.50812472438
 21
1788.831403771373
 31
0.0
  0
LINE
  5
A29
330
23
100
AcDbEntity
  8
SANINDUSA
100
AcDbLine
 10
2021.519010164231
 20
1788.842293915944
 30
0.0
 11
2021.93581217565
 21
1788.842293915944
 31
0.0
  0
LINE
  5
A2B
330
23
100
AcDbEntity
  8
SANINDUSA
100
AcDbLine
 10
2021.935833806093
 20
1788.156107398987
 30
0.0
 11
2021.519010164231
 21
1788.156107398987
 31
0.0
  0
LWPOLYLINE
  5
A3A
330
23
100
AcDbEntity
  8
SANINDUSA
100
AcDbPolyline
 90
        3
 70
   128
 43
0.0
 10
2021.948009136133
 20
1788.156506638683
 10
2021.941961350851
 20
1788.156221780636
 10
2021.935833814554
 20
1788.156107399322
  0
LWPOLYLINE
  5
A3B
330
23
100
AcDbEntity
  8
SANINDUSA
100
AcDbPolyline
 90
        3
 70
   128
 43
0.0
 10
2021.935812178068
 20
1788.842293921568
 10
2021.944877984934
 20
1788.842055204965
 10
2021.948008897715
 20
1788.841893497564
  0
LWPOLYLINE
  5
A3C
330
23
100
AcDbEntity
  8
SANINDUSA
100
AcDbPolyline
 90
        7
 70
   128
 43
0.0
 10
2021.95905477088
 20
1788.831469420053
 10
2021.959055128508
 20
1788.817469421484
 10
2021.959010663443
 20
1788.680626097776
 10
2021.958944442682
 20
1788.543782893278
 10
2021.958945515566
 20
1788.406939897396
 10
2021.959056559019
 20
1788.214938018181
 10
2021.95905900281
 20
1788.166934299924
  0
ARC
  5
A3F
330
23
100
AcDbEntity
  8
SANINDUSA
100
AcDbCircle
 10
2021.948907021868
 20
1788.166934215469
 30
0.0
 40
0.0101519809420697
100
AcDbArc
 50
287.0769298653197
 51
0.0004766390441196
  0
ARC
  5
A42
330
23
100
AcDbEntity
  8
SANINDUSA
100
AcDbCircle
 10
2021.948906777232
 20
1788.831469625804
 30
0.0
 40
0.0101479936500234
100
AcDbArc
 50
359.9988383331902
 51
72.9044990416541
  0
LINE
  5
A43
330
23
100
AcDbEntity
  8
SANINDUSA
100
AcDbLine
 10
2021.948008926814
 20
1788.841893523358
 30
0.0
 11
2021.950411101111
 21
1788.841576440927
 31
0.0
  0
LINE
  5
A44
330
23
100
AcDbEntity
  8
SANINDUSA
100
AcDbLine
 10
2021.950397926853
 20
1788.156820570914
 30
0.0
 11
2021.948009134501
 21
1788.156506635217
 31
0.0
  0
LINE
  5
A45
330
23
100
AcDbEntity
  8
SANINDUSA
100
AcDbLine
 10
2021.951888195959
 20
1788.157229820476
 30
0.0
 11
2021.950397926853
 21
1788.156820570914
 31
0.0
  0
LINE
  5
A46
330
23
100
AcDbEntity
  8
SANINDUSA
100
AcDbLine
 10
2021.950411101111
 20
1788.841576440927
 30
0.0
 11
2021.951889924628
 21
1788.84116926835
 31
0.0
  0
CIRCLE
  5
A66
330
23
100
AcDbEntity
  8
SANINDUSA
100
AcDbCircle
 10
2022.085602933577
 20
1788.219196364833
 30
0.0
 40
0.0107489907799661
  0
CIRCLE
  5
A68
330
23
100
AcDbEntity
  8
SANINDUSA
100
AcDbCircle
 10
2022.085601210465
 20
1788.779205919401
 30
0.0
 40
0.0107488661608701
  0
CIRCLE
  5
A6A
330
23
100
AcDbEntity
  8
SANINDUSA
100
AcDbCircle
 10
2022.085592520145
 20
1788.299183757365
 30
0.0
 40
0.0107496293083675
  0
CIRCLE
  5
A6C
330
23
100
AcDbEntity
  8
SANINDUSA
100
AcDbCircle
 10
2022.085590580969
 20
1788.699218405065
 30
0.0
 40
0.0107490055301487
  0
CIRCLE
  5
A6F
330
23
100
AcDbEntity
  8
SANINDUSA
100
AcDbCircle
 10
2022.165592369442
 20
1788.219196816124
 30
0.0
 40
0.0107488093919143
  0
CIRCLE
  5
A72
330
23
100
AcDbEntity
  8
SANINDUSA
100
AcDbCircle
 10
2022.16559046759
 20
1788.779205176533
 30
0.0
 40
0.010748744287587
  0
CIRCLE
  5
A74
330
23
100
AcDbEntity
  8
SANINDUSA
100
AcDbCircle
 10
2022.085572253873
 20
1788.379179425302
 30
0.0
 40
0.0107505838761408
  0
CIRCLE
  5
AB5
330
23
100
AcDbEntity
  8
SANINDUSA
100
AcDbCircle
 10
2022.085570126551
 20
1788.619221910948
 30
0.0
 40
0.010749850340983
  0
CIRCLE
  5
AB7
330
23
100
AcDbEntity
  8
SANINDUSA
100
AcDbCircle
 10
2022.165581624857
 20
1788.299181616562
 30
0.0
 40
0.0107494811303221
  0
CIRCLE
  5
AB9
330
23
100
AcDbEntity
  8
SANINDUSA
100
AcDbCircle
 10
2022.165579557327
 20
1788.69922062495
 30
0.0
 40
0.0107486876639133
  0
CIRCLE
  5
ABB
330
23
100
AcDbEntity
  8
SANINDUSA
100
AcDbCircle
 10
2022.085553724155
 20
1788.459189915946
 30
0.0
 40
0.0107515894546118
  0
CIRCLE
  5
ABD
330
23
100
AcDbEntity
  8
SANINDUSA
100
AcDbCircle
 10
2022.085552821084
 20
1788.539209988623
 30
0.0
 40
0.0107511813188331
  0
CIRCLE
  5
ABF
330
23
100
AcDbEntity
  8
SANINDUSA
100
AcDbCircle
 10
2022.245580385798
 20
1788.219197357993
 30
0.0
 40
0.0107486169995157
  0
CIRCLE
  5
AC1
330
23
100
AcDbEntity
  8
SANINDUSA
100
AcDbCircle
 10
2022.245578405608
 20
1788.77920471804
 30
0.0
 40
0.0107485706288872
  0
CIRCLE
  5
AC3
330
23
100
AcDbEntity
  8
SANINDUSA
100
AcDbCircle
 10
2022.165558866448
 20
1788.379175408547
 30
0.0
 40
0.0107506033502914
  0
CIRCLE
  5
AC5
330
23
100
AcDbEntity
  8
SANINDUSA
100
AcDbCircle
 10
2022.165556406994
 20
1788.619225939102
 30
0.0
 40
0.0107497251418514
  0
CIRCLE
  5
AC7
330
23
100
AcDbEntity
  8
SANINDUSA
100
AcDbCircle
 10
2022.245569601502
 20
1788.299180350893
 30
0.0
 40
0.0107491495836826
  0
CIRCLE
  5
AC9
330
23
100
AcDbEntity
  8
SANINDUSA
100
AcDbCircle
 10
2022.245567331398
 20
1788.699222034795
 30
0.0
 40
0.0107484990728227
  0
CIRCLE
  5
ACB
330
23
100
AcDbEntity
  8
SANINDUSA
100
AcDbCircle
 10
2022.165536948728
 20
1788.45918757806
 30
0.0
 40
0.0107518973365045
  0
CIRCLE
  5
ACD
330
23
100
AcDbEntity
  8
SANINDUSA
100
AcDbCircle
 10
2022.165535914838
 20
1788.539212117522
 30
0.0
 40
0.0107514412548017
  0
CIRCLE
  5
ACF
330
23
100
AcDbEntity
  8
SANINDUSA
100
AcDbCircle
 10
2022.325565774838
 20
1788.219197646061
 30
0.0
 40
0.0107484293159939
  0
CIRCLE
  5
AD1
330
23
100
AcDbEntity
  8
SANINDUSA
100
AcDbCircle
 10
2022.325563844274
 20
1788.779204830623
 30
0.0
 40
0.0107484525398028
  0
CIRCLE
  5
AD3
330
23
100
AcDbEntity
  8
SANINDUSA
100
AcDbCircle
 10
2022.245544985162
 20
1788.379172055895
 30
0.0
 40
0.0107504608712337
  0
CIRCLE
  5
AD5
330
23
100
AcDbEntity
  8
SANINDUSA
100
AcDbCircle
 10
2022.245542344087
 20
1788.619229636358
 30
0.0
 40
0.0107495259972925
  0
CIRCLE
  5
AD7
330
23
100
AcDbEntity
  8
SANINDUSA
100
AcDbCircle
 10
2022.325554790745
 20
1788.299179176178
 30
0.0
 40
0.0107489829399681
  0
CIRCLE
  5
AD9
330
23
100
AcDbEntity
  8
SANINDUSA
100
AcDbCircle
 10
2022.325552732606
 20
1788.69922332619
 30
0.0
 40
0.0107481204639086
  0
CIRCLE
  5
ADB
330
23
100
AcDbEntity
  8
SANINDUSA
100
AcDbCircle
 10
2022.245520062628
 20
1788.459185115546
 30
0.0
 40
0.010752256295935
  0
CIRCLE
  5
ADD
330
23
100
AcDbEntity
  8
SANINDUSA
100
AcDbCircle
 10
2022.405546868693
 20
1788.219196216229
 30
0.0
 40
0.0107485433472988
  0
CIRCLE
  5
ADF
330
23
100
AcDbEntity
  8
SANINDUSA
100
AcDbCircle
 10
2022.245518925948
 20
1788.539214018395
 30
0.0
 40
0.0107517837849434
  0
CIRCLE
  5
AE1
330
23
100
AcDbEntity
  8
SANINDUSA
100
AcDbCircle
 10
2022.405545343513
 20
1788.779206679806
 30
0.0
 40
0.0107482804544307
  0
CIRCLE
  5
AE3
330
23
100
AcDbEntity
  8
SANINDUSA
100
AcDbCircle
 10
2022.325529745538
 20
1788.379169519557
 30
0.0
 40
0.0107503057879356
  0
CIRCLE
  5
AE5
330
23
100
AcDbEntity
  8
SANINDUSA
100
AcDbCircle
 10
2022.325526865663
 20
1788.619231943041
 30
0.0
 40
0.0107494903470957
  0
CIRCLE
  5
AE7
330
23
100
AcDbEntity
  8
SANINDUSA
100
AcDbCircle
 10
2022.405535610853
 20
1788.299179825892
 30
0.0
 40
0.0107485956270214
  0
CIRCLE
  5
AE9
330
23
100
AcDbEntity
  8
SANINDUSA
100
AcDbCircle
 10
2022.405533711586
 20
1788.699223318123
 30
0.0
 40
0.0107479916293539
  0
CIRCLE
  5
AEB
330
23
100
AcDbEntity
  8
SANINDUSA
100
AcDbCircle
 10
2022.325503240673
 20
1788.459183093918
 30
0.0
 40
0.0107524914694862
  0
CIRCLE
  5
AED
330
23
100
AcDbEntity
  8
SANINDUSA
100
AcDbCircle
 10
2022.325501843456
 20
1788.53921613022
 30
0.0
 40
0.01075192197915
  0
CIRCLE
  5
AEF
330
23
100
AcDbEntity
  8
SANINDUSA
100
AcDbCircle
 10
2022.485522597159
 20
1788.219192887978
 30
0.0
 40
0.0107488968409093
  0
CIRCLE
  5
AF1
330
23
100
AcDbEntity
  8
SANINDUSA
100
AcDbCircle
 10
2022.485521597159
 20
1788.779210338961
 30
0.0
 40
0.0107484664957416
  0
CIRCLE
  5
AF3
330
23
100
AcDbEntity
  8
SANINDUSA
100
AcDbCircle
 10
2022.405511982162
 20
1788.379169462759
 30
0.0
 40
0.0107499323612636
  0
CIRCLE
  5
AF5
330
23
100
AcDbEntity
  8
SANINDUSA
100
AcDbCircle
 10
2022.40550922427
 20
1788.619233140185
 30
0.0
 40
0.0107492335914448
  0
CIRCLE
  5
AF7
330
23
100
AcDbEntity
  8
SANINDUSA
100
AcDbCircle
 10
2022.485510461129
 20
1788.299180737028
 30
0.0
 40
0.0107486350589459
  0
CIRCLE
  5
AF9
330
23
100
AcDbEntity
  8
SANINDUSA
100
AcDbCircle
 10
2022.485509104102
 20
1788.699221775186
 30
0.0
 40
0.0107480847840487
  0
CIRCLE
  5
AFB
330
23
100
AcDbEntity
  8
SANINDUSA
100
AcDbCircle
 10
2022.405486193627
 20
1788.459182252543
 30
0.0
 40
0.0107524748339821
  0
CIRCLE
  5
AFD
330
23
100
AcDbEntity
  8
SANINDUSA
100
AcDbCircle
 10
2022.405484340008
 20
1788.539216517561
 30
0.0
 40
0.0107521828572017
  0
CIRCLE
  5
AFF
330
23
100
AcDbEntity
  8
SANINDUSA
100
AcDbCircle
 10
2022.485490513224
 20
1788.379171913073
 30
0.0
 40
0.0107496286772549
  0
CIRCLE
  5
B01
330
23
100
AcDbEntity
  8
SANINDUSA
100
AcDbCircle
 10
2022.565493820152
 20
1788.219187348993
 30
0.0
 40
0.0107495835779844
  0
CIRCLE
  5
B03
330
23
100
AcDbEntity
  8
SANINDUSA
100
AcDbCircle
 10
2022.485488061857
 20
1788.619231799899
 30
0.0
 40
0.0107491002053046
  0
CIRCLE
  5
B05
330
23
100
AcDbEntity
  8
SANINDUSA
100
AcDbCircle
 10
2022.565493442051
 20
1788.779217093747
 30
0.0
 40
0.0107488893734387
  0
CIRCLE
  5
B07
330
23
100
AcDbEntity
  8
SANINDUSA
100
AcDbCircle
 10
2022.565480558013
 20
1788.29918317874
 30
0.0
 40
0.0107487786770618
  0
CIRCLE
  5
B09
330
23
100
AcDbEntity
  8
SANINDUSA
100
AcDbCircle
 10
2022.565479817836
 20
1788.699218833416
 30
0.0
 40
0.0107484460143888
  0
CIRCLE
  5
B0B
330
23
100
AcDbEntity
  8
SANINDUSA
100
AcDbCircle
 10
2022.485468572758
 20
1788.459182731088
 30
0.0
 40
0.010752376406906
  0
CIRCLE
  5
B0D
330
23
100
AcDbEntity
  8
SANINDUSA
100
AcDbCircle
 10
2022.485466379647
 20
1788.53921579325
 30
0.0
 40
0.0107520662527161
  0
CIRCLE
  5
B0F
330
23
100
AcDbEntity
  8
SANINDUSA
100
AcDbCircle
 10
2022.565465344671
 20
1788.379176551961
 30
0.0
 40
0.010749567697178
  0
CIRCLE
  5
B11
330
23
100
AcDbEntity
  8
SANINDUSA
100
AcDbCircle
 10
2022.565464221717
 20
1788.619228189361
 30
0.0
 40
0.0107490219525524
  0
CIRCLE
  5
B13
330
23
100
AcDbEntity
  8
SANINDUSA
100
AcDbCircle
 10
2022.645465339802
 20
1788.219180447899
 30
0.0
 40
0.0107508080877733
  0
CIRCLE
  5
B15
330
23
100
AcDbEntity
  8
SANINDUSA
100
AcDbCircle
 10
2022.645466104627
 20
1788.779225063931
 30
0.0
 40
0.0107498057753815
  0
CIRCLE
  5
B17
330
23
100
AcDbEntity
  8
SANINDUSA
100
AcDbCircle
 10
2022.565450643158
 20
1788.459187186681
 30
0.0
 40
0.0107516330182591
  0
CIRCLE
  5
B19
330
23
100
AcDbEntity
  8
SANINDUSA
100
AcDbCircle
 10
2022.645452076671
 20
1788.299186263048
 30
0.0
 40
0.0107494079428412
  0
CIRCLE
  5
B1B
330
23
100
AcDbEntity
  8
SANINDUSA
100
AcDbCircle
 10
2022.565447352294
 20
1788.539210749396
 30
0.0
 40
0.0107521820566169
  0
CIRCLE
  5
B1D
330
23
100
AcDbEntity
  8
SANINDUSA
100
AcDbCircle
 10
2022.645451321434
 20
1788.699214487044
 30
0.0
 40
0.0107493287447603
  0
CIRCLE
  5
B1F
330
23
100
AcDbEntity
  8
SANINDUSA
100
AcDbCircle
 10
2022.645441605391
 20
1788.379181480288
 30
0.0
 40
0.0107497464485037
  0
CIRCLE
  5
B21
330
23
100
AcDbEntity
  8
SANINDUSA
100
AcDbCircle
 10
2022.645442979003
 20
1788.619223133511
 30
0.0
 40
0.0107490881146669
  0
CIRCLE
  5
B23
330
23
100
AcDbEntity
  8
SANINDUSA
100
AcDbCircle
 10
2022.645431317172
 20
1788.459194443758
 30
0.0
 40
0.0107509748879561
  0
CIRCLE
  5
B25
330
23
100
AcDbEntity
  8
SANINDUSA
100
AcDbCircle
 10
2022.645427873836
 20
1788.539204379878
 30
0.0
 40
0.0107522723337635
  0
CIRCLE
  5
B26
330
23
100
AcDbEntity
  8
SANINDUSA
100
AcDbCircle
 10
2022.82599647088
 20
1788.499211795083
 30
0.0
 40
0.0739966103093779
  0
CIRCLE
  5
B28
330
23
100
AcDbEntity
  8
SANINDUSA
100
AcDbCircle
 10
2022.825926468783
 20
1788.499200657465
 30
0.0
 40
0.0499999999999997
  0
ENDSEC
  0
SECTION
  2
OBJECTS
  0
DICTIONARY
  5
C
330
0
100
AcDbDictionary
281
     1
  3
ACAD_COLOR
350
1C
  3
ACAD_GROUP
350
D
  3
ACAD_LAYOUT
350
1A
  3
ACAD_MATERIAL
350
1B
  3
ACAD_MLINESTYLE
350
17
  3
ACAD_PLOTSETTINGS
350
19
  3
ACAD_PLOTSTYLENAME
350
E
  3
ACAD_TABLESTYLE
350
1D
  3
ACDBHEADERROUNDTRIPXREC
350
9972
  3
AcDbVariableDictionary
350
995C
  0
DICTIONARY
  5
2F9
330
2
100
AcDbDictionary
280
     1
281
     1
  3
ACAD_LAYERSTATES
360
2FA
  0
DICTIONARY
  5
1C
102
{ACAD_REACTORS
330
C
102
}
330
C
100
AcDbDictionary
281
     1
  0
DICTIONARY
  5
D
102
{ACAD_REACTORS
330
C
102
}
330
C
100
AcDbDictionary
281
     1
  0
DICTIONARY
  5
1A
102
{ACAD_REACTORS
330
C
102
}
330
C
100
AcDbDictionary
281
     1
  3
Layout1
350
22
  3
Layout2
350
2A
  3
Model
350
26
  0
DICTIONARY
  5
1B
102
{ACAD_REACTORS
330
C
102
}
330
C
100
AcDbDictionary
281
     1
  0
DICTIONARY
  5
17
102
{ACAD_REACTORS
330
C
102
}
330
C
100
AcDbDictionary
281
     1
  3
Standard
350
18
  0
DICTIONARY
  5
19
102
{ACAD_REACTORS
330
C
102
}
330
C
100
AcDbDictionary
281
     1
  0
ACDBDICTIONARYWDFLT
  5
E
102
{ACAD_REACTORS
330
C
102
}
330
C
100
AcDbDictionary
281
     1
  3
Normal
350
F
100
AcDbDictionaryWithDefault
340
F
  0
DICTIONARY
  5
1D
102
{ACAD_REACTORS
330
C
102
}
330
C
100
AcDbDictionary
281
     1
  3
Standard
350
1E
  0
DICTIONARY
  5
9972
102
{ACAD_REACTORS
330
C
102
}
330
C
100
AcDbDictionary
281
     1
  0
DICTIONARY
  5
995C
102
{ACAD_REACTORS
330
C
102
}
330
C
100
AcDbDictionary
281
     1
  3
CTABLESTYLE
350
995D
  3
DIMASSOC
350
996F
  3
HIDETEXT
350
996E
  3
PROJECTNAME
350
9970
  0
DICTIONARY
  5
2FA
102
{ACAD_REACTORS
330
2F9
102
}
330
2F9
100
AcDbDictionary
281
     1
  0
LAYOUT
  5
22
102
{ACAD_XDICTIONARY
360
9973
102
}
102
{ACAD_REACTORS
330
1A
102
}
330
1A
100
AcDbPlotSettings
  1

  2
C:\Documents and Settings\Julio\Application Data\Autodesk\AutoCAD 2006\R16.2\enu\plotters\Default Windows System Printer.pc3
  4

  6

 40
0.0
 41
0.0
 42
0.0
 43
0.0
 44
0.0
 45
0.0
 46
0.0
 47
0.0
 48
0.0
 49
0.0
140
0.0
141
0.0
142
1.0
143
1.0
 70
   688
 72
     0
 73
     0
 74
     5
  7

 75
    16
147
1.0
148
0.0
149
0.0
100
AcDbLayout
  1
Layout1
 70
     1
 71
     1
 10
0.0
 20
0.0
 11
420.0
 21
297.0
 12
0.0
 22
0.0
 32
0.0
 14
1.000000000000000E+20
 24
1.000000000000000E+20
 34
1.000000000000000E+20
 15
-1.000000000000000E+20
 25
-1.000000000000000E+20
 35
-1.000000000000000E+20
146
0.0
 13
0.0
 23
0.0
 33
0.0
 16
1.0
 26
0.0
 36
0.0
 17
0.0
 27
1.0
 37
0.0
 76
     0
330
1F
  0
LAYOUT
  5
2A
102
{ACAD_XDICTIONARY
360
9977
102
}
102
{ACAD_REACTORS
330
1A
102
}
330
1A
100
AcDbPlotSettings
  1

  2
C:\Documents and Settings\Julio\Application Data\Autodesk\AutoCAD 2006\R16.2\enu\plotters\Default Windows System Printer.pc3
  4

  6

 40
0.0
 41
0.0
 42
0.0
 43
0.0
 44
0.0
 45
0.0
 46
0.0
 47
0.0
 48
0.0
 49
0.0
140
0.0
141
0.0
142
1.0
143
1.0
 70
   688
 72
     0
 73
     0
 74
     5
  7

 75
    16
147
1.0
148
0.0
149
0.0
100
AcDbLayout
  1
Layout2
 70
     1
 71
     2
 10
0.0
 20
0.0
 11
12.0
 21
9.0
 12
0.0
 22
0.0
 32
0.0
 14
0.0
 24
0.0
 34
0.0
 15
0.0
 25
0.0
 35
0.0
146
0.0
 13
0.0
 23
0.0
 33
0.0
 16
1.0
 26
0.0
 36
0.0
 17
0.0
 27
1.0
 37
0.0
 76
     0
330
27
  0
LAYOUT
  5
26
102
{ACAD_XDICTIONARY
360
9975
102
}
102
{ACAD_REACTORS
330
1A
102
}
330
1A
100
AcDbPlotSettings
  1

  2
C:\Documents and Settings\Julio\Application Data\Autodesk\AutoCAD 2006\R16.2\enu\plotters\Default Windows System Printer.pc3
  4

  6

 40
0.0
 41
0.0
 42
0.0
 43
0.0
 44
0.0
 45
0.0
 46
0.0
 47
0.0
 48
0.0
 49
0.0
140
0.0
141
0.0
142
1.0
143
1.0
 70
  1712
 72
     0
 73
     0
 74
     0
  7

 75
     0
147
1.0
148
0.0
149
0.0
100
AcDbLayout
  1
Model
 70
     1
 71
     0
 10
0.0
 20
0.0
 11
12.0
 21
9.0
 12
0.0
 22
0.0
 32
0.0
 14
0.0
 24
0.0
 34
0.0
 15
0.0
 25
0.0
 35
0.0
146
0.0
 13
0.0
 23
0.0
 33
0.0
 16
1.0
 26
0.0
 36
0.0
 17
0.0
 27
1.0
 37
0.0
 76
     0
330
23
  0
MLINESTYLE
  5
18
102
{ACAD_REACTORS
330
17
102
}
330
17
100
AcDbMlineStyle
  2
STANDARD
 70
     0
  3

 62
   256
 51
90.0
 52
90.0
 71
     2
 49
0.5
 62
   256
  6
BYLAYER
 49
-0.5
 62
   256
  6
BYLAYER
  0
ACDBPLACEHOLDER
  5
F
102
{ACAD_REACTORS
330
E
102
}
330
E
  0
TABLESTYLE
  5
1E
102
{ACAD_REACTORS
330
1D
102
}
330
1D
100
AcDbTableStyle
  3
Standard
 70
     0
 71
     0
 40
1.5
 41
1.5
280
     0
281
     0
  7
Standard
140
4.5
170
     2
 62
     0
 63
     7
283
     0
274
    -2
284
     1
 64
     0
275
    -2
285
     1
 65
     0
276
    -2
286
     1
 66
     0
277
    -2
287
     1
 67
     0
278
    -2
288
     1
 68
     0
279
    -2
289
     1
 69
     0
  7
Standard
140
6.0
170
     5
 62
     0
 63
     7
283
     0
274
    -2
284
     1
 64
     0
275
    -2
285
     1
 65
     0
276
    -2
286
     1
 66
     0
277
    -2
287
     1
 67
     0
278
    -2
288
     1
 68
     0
279
    -2
289
     1
 69
     0
  7
Standard
140
4.5
170
     5
 62
     0
 63
     7
283
     0
274
    -2
284
     1
 64
     0
275
    -2
285
     1
 65
     0
276
    -2
286
     1
 66
     0
277
    -2
287
     1
 67
     0
278
    -2
288
     1
 68
     0
279
    -2
289
     1
 69
     0
  0
DICTIONARYVAR
  5
995D
102
{ACAD_REACTORS
330
995C
102
}
330
995C
100
DictionaryVariables
280
     0
  1
STANDARD
  0
DICTIONARYVAR
  5
996F
102
{ACAD_REACTORS
330
995C
102
}
330
995C
100
DictionaryVariables
280
     0
  1
2
  0
DICTIONARYVAR
  5
996E
102
{ACAD_REACTORS
330
995C
102
}
330
995C
100
DictionaryVariables
280
     0
  1
1
  0
DICTIONARYVAR
  5
9970
102
{ACAD_REACTORS
330
995C
102
}
330
995C
100
DictionaryVariables
280
     0
  1

  0
DICTIONARY
  5
9973
330
22
100
AcDbDictionary
280
     1
281
     1
  3
ACAD_XREC_ROUNDTRIP
360
9974
  0
DICTIONARY
  5
9977
330
2A
100
AcDbDictionary
280
     1
281
     1
  3
ACAD_XREC_ROUNDTRIP
360
9978
  0
DICTIONARY
  5
9975
330
26
100
AcDbDictionary
280
     1
281
     1
  3
ACAD_XREC_ROUNDTRIP
360
9976
  0
XRECORD
  5
9974
102
{ACAD_REACTORS
330
9973
102
}
330
9973
100
AcDbXrecord
280
     1
102
SHADEPLOT
 70
     0
102
SHADEPLOTRESLEVEL
 70
     2
102
SHADEPLOTCUSTOMDPI
 70
   300
  0
XRECORD
  5
9978
102
{ACAD_REACTORS
330
9977
102
}
330
9977
100
AcDbXrecord
280
     1
102
SHADEPLOT
 70
     0
102
SHADEPLOTRESLEVEL
 70
     2
102
SHADEPLOTCUSTOMDPI
 70
   300
  0
XRECORD
  5
9976
102
{ACAD_REACTORS
330
9975
102
}
330
9975
100
AcDbXrecord
280
     1
102
SHADEPLOT
 70
     0
102
SHADEPLOTRESLEVEL
 70
     2
102
SHADEPLOTCUSTOMDPI
 70
   300
  0
ENDSEC
  0
EOF
