  0
SECTION
  2
HEADER
  9
$ACADVER
  1
AC1015
  9
$ACADMAINTVER
 70
    20
  9
$DWGCODEPAGE
  3
ANSI_1252
  9
$INSBASE
 10
0.0
 20
0.0
 30
0.0
  9
$EXTMIN
 10
1377.522250750195
 20
1969.778246844349
 30
0.0
  9
$EXTMAX
 10
1382.517364805469
 20
1970.578486950398
 30
0.0
  9
$LIMMIN
 10
0.0
 20
0.0
  9
$LIMMAX
 10
420.0
 20
297.0
  9
$ORTHOMODE
 70
     1
  9
$REGENMODE
 70
     1
  9
$FILLMODE
 70
     1
  9
$QTEXTMODE
 70
     0
  9
$MIRRTEXT
 70
     0
  9
$LTSCALE
 40
1.0
  9
$ATTMODE
 70
     1
  9
$TEXTSIZE
 40
2.5
  9
$TRACEWID
 40
1.0
  9
$TEXTSTYLE
  7
Standard
  9
$CLAYER
  8
0
  9
$CELTYPE
  6
ByLayer
  9
$CECOLOR
 62
   256
  9
$CELTSCALE
 40
1.0
  9
$DISPSILH
 70
     0
  9
$DIMSCALE
 40
1.0
  9
$DIMASZ
 40
2.5
  9
$DIMEXO
 40
0.625
  9
$DIMDLI
 40
3.75
  9
$DIMRND
 40
0.0
  9
$DIMDLE
 40
0.0
  9
$DIMEXE
 40
1.25
  9
$DIMTP
 40
0.0
  9
$DIMTM
 40
0.0
  9
$DIMTXT
 40
2.5
  9
$DIMCEN
 40
2.5
  9
$DIMTSZ
 40
0.0
  9
$DIMTOL
 70
     0
  9
$DIMLIM
 70
     0
  9
$DIMTIH
 70
     0
  9
$DIMTOH
 70
     0
  9
$DIMSE1
 70
     0
  9
$DIMSE2
 70
     0
  9
$DIMTAD
 70
     1
  9
$DIMZIN
 70
     8
  9
$DIMBLK
  1

  9
$DIMASO
 70
     1
  9
$DIMSHO
 70
     1
  9
$DIMPOST
  1

  9
$DIMAPOST
  1

  9
$DIMALT
 70
     0
  9
$DIMALTD
 70
     3
  9
$DIMALTF
 40
0.03937007874016
  9
$DIMLFAC
 40
1.0
  9
$DIMTOFL
 70
     1
  9
$DIMTVP
 40
0.0
  9
$DIMTIX
 70
     0
  9
$DIMSOXD
 70
     0
  9
$DIMSAH
 70
     0
  9
$DIMBLK1
  1

  9
$DIMBLK2
  1

  9
$DIMSTYLE
  2
ISO-25
  9
$DIMCLRD
 70
     0
  9
$DIMCLRE
 70
     0
  9
$DIMCLRT
 70
     0
  9
$DIMTFAC
 40
1.0
  9
$DIMGAP
 40
0.625
  9
$DIMJUST
 70
     0
  9
$DIMSD1
 70
     0
  9
$DIMSD2
 70
     0
  9
$DIMTOLJ
 70
     0
  9
$DIMTZIN
 70
     8
  9
$DIMALTZ
 70
     0
  9
$DIMALTTZ
 70
     0
  9
$DIMUPT
 70
     0
  9
$DIMDEC
 70
     2
  9
$DIMTDEC
 70
     2
  9
$DIMALTU
 70
     2
  9
$DIMALTTD
 70
     3
  9
$DIMTXSTY
  7
Standard
  9
$DIMAUNIT
 70
     0
  9
$DIMADEC
 70
     0
  9
$DIMALTRND
 40
0.0
  9
$DIMAZIN
 70
     0
  9
$DIMDSEP
 70
    44
  9
$DIMATFIT
 70
     3
  9
$DIMFRAC
 70
     0
  9
$DIMLDRBLK
  1

  9
$DIMLUNIT
 70
     2
  9
$DIMLWD
 70
    -2
  9
$DIMLWE
 70
    -2
  9
$DIMTMOVE
 70
     0
  9
$LUNITS
 70
     2
  9
$LUPREC
 70
     4
  9
$SKETCHINC
 40
1.0
  9
$FILLETRAD
 40
0.0
  9
$AUNITS
 70
     0
  9
$AUPREC
 70
     0
  9
$MENU
  1
.
  9
$ELEVATION
 40
0.0
  9
$PELEVATION
 40
0.0
  9
$THICKNESS
 40
0.0
  9
$LIMCHECK
 70
     0
  9
$CHAMFERA
 40
0.0
  9
$CHAMFERB
 40
0.0
  9
$CHAMFERC
 40
0.0
  9
$CHAMFERD
 40
0.0
  9
$SKPOLY
 70
     0
  9
$TDCREATE
 40
2454930.697505058
  9
$TDUCREATE
 40
2454930.655838391
  9
$TDUPDATE
 40
2454936.400462234
  9
$TDUUPDATE
 40
2454936.358795567
  9
$TDINDWG
 40
0.0050658333
  9
$TDUSRTIMER
 40
0.0050658333
  9
$USRTIMER
 70
     1
  9
$ANGBASE
 50
0.0
  9
$ANGDIR
 70
     0
  9
$PDMODE
 70
     0
  9
$PDSIZE
 40
0.0
  9
$PLINEWID
 40
0.0
  9
$SPLFRAME
 70
     0
  9
$SPLINETYPE
 70
     6
  9
$SPLINESEGS
 70
     8
  9
$HANDSEED
  5
6934
  9
$SURFTAB1
 70
     6
  9
$SURFTAB2
 70
     6
  9
$SURFTYPE
 70
     6
  9
$SURFU
 70
     6
  9
$SURFV
 70
     6
  9
$UCSBASE
  2

  9
$UCSNAME
  2

  9
$UCSORG
 10
0.0
 20
0.0
 30
0.0
  9
$UCSXDIR
 10
1.0
 20
0.0
 30
0.0
  9
$UCSYDIR
 10
0.0
 20
1.0
 30
0.0
  9
$UCSORTHOREF
  2

  9
$UCSORTHOVIEW
 70
     0
  9
$UCSORGTOP
 10
0.0
 20
0.0
 30
0.0
  9
$UCSORGBOTTOM
 10
0.0
 20
0.0
 30
0.0
  9
$UCSORGLEFT
 10
0.0
 20
0.0
 30
0.0
  9
$UCSORGRIGHT
 10
0.0
 20
0.0
 30
0.0
  9
$UCSORGFRONT
 10
0.0
 20
0.0
 30
0.0
  9
$UCSORGBACK
 10
0.0
 20
0.0
 30
0.0
  9
$PUCSBASE
  2

  9
$PUCSNAME
  2

  9
$PUCSORG
 10
0.0
 20
0.0
 30
0.0
  9
$PUCSXDIR
 10
1.0
 20
0.0
 30
0.0
  9
$PUCSYDIR
 10
0.0
 20
1.0
 30
0.0
  9
$PUCSORTHOREF
  2

  9
$PUCSORTHOVIEW
 70
     0
  9
$PUCSORGTOP
 10
0.0
 20
0.0
 30
0.0
  9
$PUCSORGBOTTOM
 10
0.0
 20
0.0
 30
0.0
  9
$PUCSORGLEFT
 10
0.0
 20
0.0
 30
0.0
  9
$PUCSORGRIGHT
 10
0.0
 20
0.0
 30
0.0
  9
$PUCSORGFRONT
 10
0.0
 20
0.0
 30
0.0
  9
$PUCSORGBACK
 10
0.0
 20
0.0
 30
0.0
  9
$USERI1
 70
     0
  9
$USERI2
 70
     0
  9
$USERI3
 70
     0
  9
$USERI4
 70
     0
  9
$USERI5
 70
     0
  9
$USERR1
 40
0.0
  9
$USERR2
 40
0.0
  9
$USERR3
 40
0.0
  9
$USERR4
 40
0.0
  9
$USERR5
 40
0.0
  9
$WORLDVIEW
 70
     1
  9
$SHADEDGE
 70
     3
  9
$SHADEDIF
 70
    70
  9
$TILEMODE
 70
     1
  9
$MAXACTVP
 70
    64
  9
$PINSBASE
 10
0.0
 20
0.0
 30
0.0
  9
$PLIMCHECK
 70
     0
  9
$PEXTMIN
 10
1.000000000000000E+20
 20
1.000000000000000E+20
 30
1.000000000000000E+20
  9
$PEXTMAX
 10
-1.000000000000000E+20
 20
-1.000000000000000E+20
 30
-1.000000000000000E+20
  9
$PLIMMIN
 10
0.0
 20
0.0
  9
$PLIMMAX
 10
420.0
 20
297.0
  9
$UNITMODE
 70
     0
  9
$VISRETAIN
 70
     1
  9
$PLINEGEN
 70
     0
  9
$PSLTSCALE
 70
     1
  9
$TREEDEPTH
 70
  3020
  9
$CMLSTYLE
  2
Standard
  9
$CMLJUST
 70
     0
  9
$CMLSCALE
 40
20.0
  9
$PROXYGRAPHICS
 70
     1
  9
$MEASUREMENT
 70
     1
  9
$CELWEIGHT
370
    -1
  9
$ENDCAPS
280
     0
  9
$JOINSTYLE
280
     0
  9
$LWDISPLAY
290
     0
  9
$INSUNITS
 70
     4
  9
$HYPERLINKBASE
  1

  9
$STYLESHEET
  1

  9
$XEDIT
290
     1
  9
$CEPSNTYPE
380
     0
  9
$PSTYLEMODE
290
     1
  9
$FINGERPRINTGUID
  2
{28887808-FF37-40BC-986C-2DE3F4702A60}
  9
$VERSIONGUID
  2
{5CD11B93-4128-49B7-9CD6-051350D12A7B}
  9
$EXTNAMES
290
     1
  9
$PSVPSCALE
 40
0.0
  9
$OLESTARTUP
290
     0
  0
ENDSEC
  0
SECTION
  2
CLASSES
  0
CLASS
  1
ACDBDICTIONARYWDFLT
  2
AcDbDictionaryWithDefault
  3
ObjectDBX Classes
 90
        0
280
     0
281
     0
  0
CLASS
  1
TABLESTYLE
  2
AcDbTableStyle
  3
ObjectDBX Classes
 90
     2047
280
     0
281
     0
  0
CLASS
  1
DIMASSOC
  2
AcDbDimAssoc
  3
"AcDbDimAssoc|Product Desc:     AcDim ARX App For Dimension|Company:          Autodesk, Inc.|WEB Address:      www.autodesk.com"
 90
    32768
280
     0
281
     0
  0
CLASS
  1
SORTENTSTABLE
  2
AcDbSortentsTable
  3
ObjectDBX Classes
 90
    32768
280
     0
281
     0
  0
CLASS
  1
DICTIONARYVAR
  2
AcDbDictionaryVar
  3
ObjectDBX Classes
 90
        0
280
     0
281
     0
  0
CLASS
  1
ACDBPLACEHOLDER
  2
AcDbPlaceHolder
  3
ObjectDBX Classes
 90
        0
280
     0
281
     0
  0
CLASS
  1
LAYOUT
  2
AcDbLayout
  3
ObjectDBX Classes
 90
        0
280
     0
281
     0
  0
ENDSEC
  0
SECTION
  2
TABLES
  0
TABLE
  2
VPORT
  5
8
330
0
100
AcDbSymbolTable
 70
    10
  0
VPORT
  5
692C
330
8
100
AcDbSymbolTableRecord
100
AcDbViewportTableRecord
  2
*Active
 70
     0
 10
0.0
 20
0.0
 11
1.0
 21
1.0
 12
1380.019807777832
 22
1970.178366897374
 13
0.0
 23
0.0
 14
10.0
 24
10.0
 15
10.0
 25
10.0
 16
0.0
 26
0.0
 36
1.0
 17
0.0
 27
0.0
 37
0.0
 40
3.129832894517944
 41
1.602030456852791
 42
50.0
 43
0.0
 44
0.0
 50
0.0
 51
0.0
 71
     0
 72
  1000
 73
     1
 74
     3
 75
     0
 76
     0
 77
     0
 78
     0
281
     0
 65
     1
110
0.0
120
0.0
130
0.0
111
1.0
121
0.0
131
0.0
112
0.0
122
1.0
132
0.0
 79
     0
146
0.0
  0
ENDTAB
  0
TABLE
  2
LTYPE
  5
5
330
0
100
AcDbSymbolTable
 70
     5
  0
LTYPE
  5
14
330
5
100
AcDbSymbolTableRecord
100
AcDbLinetypeTableRecord
  2
ByBlock
 70
     0
  3

 72
    65
 73
     0
 40
0.0
  0
LTYPE
  5
15
330
5
100
AcDbSymbolTableRecord
100
AcDbLinetypeTableRecord
  2
ByLayer
 70
     0
  3

 72
    65
 73
     0
 40
0.0
  0
LTYPE
  5
16
330
5
100
AcDbSymbolTableRecord
100
AcDbLinetypeTableRecord
  2
Continuous
 70
     0
  3
Solid line
 72
    65
 73
     0
 40
0.0
  0
LTYPE
  5
2E8
330
5
100
AcDbSymbolTableRecord
100
AcDbLinetypeTableRecord
  2
DASHDOT
 70
     0
  3
Dash dot __ . __ . __ . __ . __ . __ . __ . __
 72
    65
 73
     4
 40
25.4
 49
12.7
 74
     0
 49
-6.349999999999999
 74
     0
 49
0.0
 74
     0
 49
-6.349999999999999
 74
     0
  0
LTYPE
  5
2E9
330
5
100
AcDbSymbolTableRecord
100
AcDbLinetypeTableRecord
  2
HIDDEN
 70
     0
  3
Hidden __ __ __ __ __ __ __ __ __ __ __ __ __ _
 72
    65
 73
     2
 40
9.524999999999998
 49
6.349999999999999
 74
     0
 49
-3.174999999999999
 74
     0
  0
LTYPE
  5
2EA
330
5
100
AcDbSymbolTableRecord
100
AcDbLinetypeTableRecord
  2
HIDDEN2
 70
     0
  3
Hidden (.5x) _ _ _ _ _ _ _ _ _ _ _ _ _ _ _ _ _
 72
    65
 73
     2
 40
4.762499999999999
 49
3.174999999999999
 74
     0
 49
-1.587499999999999
 74
     0
  0
ENDTAB
  0
TABLE
  2
LAYER
  5
2
330
0
100
AcDbSymbolTable
 70
     8
  0
LAYER
  5
10
330
2
100
AcDbSymbolTableRecord
100
AcDbLayerTableRecord
  2
0
 70
     0
 62
     7
  6
Continuous
370
    -3
390
F
  0
LAYER
  5
2EB
102
{ACAD_XDICTIONARY
360
2EC
102
}
330
2
100
AcDbSymbolTableRecord
100
AcDbLayerTableRecord
  2
4
 70
     0
 62
     4
  6
Continuous
370
    -3
390
F
  0
LAYER
  5
2EE
102
{ACAD_XDICTIONARY
360
2EF
102
}
330
2
100
AcDbSymbolTableRecord
100
AcDbLayerTableRecord
  2
cen
 70
     0
 62
     7
  6
DASHDOT
370
    -3
390
F
  0
LAYER
  5
2F1
102
{ACAD_XDICTIONARY
360
2F2
102
}
330
2
100
AcDbSymbolTableRecord
100
AcDbLayerTableRecord
  2
9
 70
     0
 62
     9
  6
Continuous
370
    -3
390
F
  0
LAYER
  5
2F4
102
{ACAD_XDICTIONARY
360
2F5
102
}
330
2
100
AcDbSymbolTableRecord
100
AcDbLayerTableRecord
  2
cotas
 70
     0
 62
     1
  6
Continuous
370
    -3
390
F
  0
LAYER
  5
2F7
330
2
100
AcDbSymbolTableRecord
100
AcDbLayerTableRecord
  2
Defpoints
 70
     0
 62
     7
  6
Continuous
290
     0
370
    -3
390
F
  0
LAYER
  5
2F8
102
{ACAD_XDICTIONARY
360
2F9
102
}
330
2
100
AcDbSymbolTableRecord
100
AcDbLayerTableRecord
  2
SANINDUSA
 70
     0
 62
     3
  6
Continuous
370
    -3
390
F
  0
LAYER
  5
2FB
102
{ACAD_XDICTIONARY
360
2FC
102
}
330
2
100
AcDbSymbolTableRecord
100
AcDbLayerTableRecord
  2
hid1
 70
     0
 62
     9
  6
HIDDEN
370
    -3
390
F
1001
AcAecLayerStandard
1000

1000

  0
ENDTAB
  0
TABLE
  2
STYLE
  5
3
330
0
100
AcDbSymbolTable
 70
     2
  0
STYLE
  5
11
330
3
100
AcDbSymbolTableRecord
100
AcDbTextStyleTableRecord
  2
Standard
 70
     0
 40
0.0
 41
1.0
 50
0.0
 71
     0
 42
2.5
  3
txt
  4

  0
STYLE
  5
2FE
330
3
100
AcDbSymbolTableRecord
100
AcDbTextStyleTableRecord
  2
SANINDUSA
 70
     0
 40
0.0
 41
1.0
 50
0.0
 71
     0
 42
2.5
  3
verdana.TTF
  4

1001
ACAD
1000
Verdana
1071
       34
  0
ENDTAB
  0
TABLE
  2
VIEW
  5
6
330
0
100
AcDbSymbolTable
 70
     0
  0
ENDTAB
  0
TABLE
  2
UCS
  5
7
330
0
100
AcDbSymbolTable
 70
     0
  0
ENDTAB
  0
TABLE
  2
APPID
  5
9
330
0
100
AcDbSymbolTable
 70
     8
  0
APPID
  5
12
330
9
100
AcDbSymbolTableRecord
100
AcDbRegAppTableRecord
  2
ACAD
 70
     0
  0
APPID
  5
300
330
9
100
AcDbSymbolTableRecord
100
AcDbRegAppTableRecord
  2
ACAD_DSTYLE_DIMJOGGED_JOGANGLE_SYMBOL
 70
     0
  0
APPID
  5
301
330
9
100
AcDbSymbolTableRecord
100
AcDbRegAppTableRecord
  2
AcAecLayerStandard
 70
     0
  0
APPID
  5
302
330
9
100
AcDbSymbolTableRecord
100
AcDbRegAppTableRecord
  2
ACAD_DSTYLE_DIMRADIAL_EXTENSION
 70
     0
  0
APPID
  5
303
330
9
100
AcDbSymbolTableRecord
100
AcDbRegAppTableRecord
  2
ACAD_DSTYLE_DIMJAG
 70
     0
  0
APPID
  5
304
330
9
100
AcDbSymbolTableRecord
100
AcDbRegAppTableRecord
  2
ACAD_DSTYLE_DIMTALN
 70
     0
  0
APPID
  5
305
330
9
100
AcDbSymbolTableRecord
100
AcDbRegAppTableRecord
  2
ACAD_PSEXT
 70
     0
  0
APPID
  5
68FA
330
9
100
AcDbSymbolTableRecord
100
AcDbRegAppTableRecord
  2
ACAD_EXEMPT_FROM_CAD_STANDARDS
 70
     0
  0
ENDTAB
  0
TABLE
  2
DIMSTYLE
  5
A
330
0
100
AcDbSymbolTable
 70
     3
100
AcDbDimStyleTable
 71
     1
340
2B
  0
DIMSTYLE
105
2B
330
A
100
AcDbSymbolTableRecord
100
AcDbDimStyleTableRecord
  2
ISO-25
 70
     0
 41
2.5
 42
0.625
 43
3.75
 44
1.25
 73
     0
 74
     0
 77
     1
 78
     8
140
2.5
141
2.5
143
0.03937007874016
147
0.625
171
     3
172
     1
271
     2
272
     2
274
     3
278
    44
283
     0
284
     8
340
11
  0
DIMSTYLE
105
2FF
330
A
100
AcDbSymbolTableRecord
100
AcDbDimStyleTableRecord
  2
SANINDUSA
 70
     0
 40
5.0
 41
2.0
 42
1.0
 43
1.0
 44
1.0
 73
     0
 74
     0
 77
     1
 78
     8
140
2.0
141
0.0
143
0.03937007874016
147
1.0
171
     3
172
     1
176
   256
177
   256
178
   256
179
     1
271
     1
272
     1
274
     3
278
    44
283
     0
284
     8
340
2FE
371
    -1
372
    -1
1001
ACAD_DSTYLE_DIMJAG
1070
   388
1040
1.5
1001
ACAD_DSTYLE_DIMTALN
1070
   392
1070
     0
1001
ACAD_DSTYLE_DIMJOGGED_JOGANGLE_SYMBOL
1070
   384
1040
1.570796326794896
  0
ENDTAB
  0
TABLE
  2
BLOCK_RECORD
  5
1
330
0
100
AcDbSymbolTable
 70
   124
  0
BLOCK_RECORD
  5
23
330
1
100
AcDbSymbolTableRecord
100
AcDbBlockTableRecord
  2
*Model_Space
340
26
  0
BLOCK_RECORD
  5
1F
330
1
100
AcDbSymbolTableRecord
100
AcDbBlockTableRecord
  2
*Paper_Space
340
22
  0
BLOCK_RECORD
  5
27
330
1
100
AcDbSymbolTableRecord
100
AcDbBlockTableRecord
  2
*Paper_Space0
340
2A
  0
ENDTAB
  0
ENDSEC
  0
SECTION
  2
BLOCKS
  0
BLOCK
  5
24
330
23
100
AcDbEntity
  8
0
100
AcDbBlockBegin
  2
*Model_Space
 70
     0
 10
0.0
 20
0.0
 30
0.0
  3
*Model_Space
  1

  0
ENDBLK
  5
25
330
23
100
AcDbEntity
  8
0
100
AcDbBlockEnd
  0
BLOCK
  5
20
330
1F
100
AcDbEntity
 67
     1
  8
0
100
AcDbBlockBegin
  2
*Paper_Space
 70
     0
 10
0.0
 20
0.0
 30
0.0
  3
*Paper_Space
  1

  0
ENDBLK
  5
21
330
1F
100
AcDbEntity
 67
     1
  8
0
100
AcDbBlockEnd
  0
BLOCK
  5
28
330
27
100
AcDbEntity
 67
     1
  8
0
100
AcDbBlockBegin
  2
*Paper_Space0
 70
     0
 10
0.0
 20
0.0
 30
0.0
  3
*Paper_Space0
  1

  0
ENDBLK
  5
29
330
27
100
AcDbEntity
 67
     1
  8
0
100
AcDbBlockEnd
  0
ENDSEC
  0
SECTION
  2
ENTITIES
  0
LINE
  5
7F2
330
23
100
AcDbEntity
  8
SANINDUSA
100
AcDbLine
 10
1380.942202226155
 20
1970.159233775692
 30
0.0
 11
1380.945527736301
 21
1970.155667602666
 31
0.0
  0
LINE
  5
7F3
330
23
100
AcDbEntity
  8
SANINDUSA
100
AcDbLine
 10
1381.048919272825
 20
1970.155667602666
 30
0.0
 11
1381.052244782974
 21
1970.159233775694
 31
0.0
  0
LINE
  5
808
330
23
100
AcDbEntity
  8
SANINDUSA
100
AcDbLine
 10
1379.97512889679
 20
1970.159233775674
 30
0.0
 11
1381.179318296461
 21
1970.159233775697
 31
0.0
  0
LINE
  5
80B
330
23
100
AcDbEntity
  8
SANINDUSA
100
AcDbLine
 10
1379.97512889679
 20
1970.159233775674
 30
0.0
 11
1379.977103451539
 21
1970.272355941648
 31
0.0
  0
LINE
  5
80E
330
23
100
AcDbEntity
  8
SANINDUSA
100
AcDbLine
 10
1381.177343557588
 20
1970.272355941648
 30
0.0
 11
1381.179318296461
 21
1970.159233775697
 31
0.0
  0
LINE
  5
810
330
23
100
AcDbEntity
  8
SANINDUSA
100
AcDbLine
 10
1379.984102385347
 20
1970.279233774802
 30
0.0
 11
1381.170344580193
 21
1970.279233774802
 31
0.0
  0
ARC
  5
813
330
23
100
AcDbEntity
  8
SANINDUSA
100
AcDbCircle
 10
1379.984102385405
 20
1970.272233774802
 30
0.0
 40
0.0070000000000001
100
AcDbArc
 50
90.0
 51
179.0000000030781
  0
ARC
  5
814
330
23
100
AcDbEntity
  8
SANINDUSA
100
AcDbCircle
 10
1381.170344623722
 20
1970.272233774802
 30
0.0
 40
0.0069999999999999
100
AcDbArc
 50
0.9999999969218754
 51
90.0
  0
LINE
  5
862
330
23
100
AcDbEntity
  8
SANINDUSA
100
AcDbLine
 10
1380.945527736301
 20
1970.155667602666
 30
0.0
 11
1381.048919272825
 21
1970.155667602666
 31
0.0
  0
LINE
  5
897
330
23
100
AcDbEntity
  8
SANINDUSA
100
AcDbLine
 10
1379.286328884264
 20
1970.159233774826
 30
0.0
 11
1379.289654394423
 21
1970.155667601785
 31
0.0
  0
LINE
  5
898
330
23
100
AcDbEntity
  8
SANINDUSA
100
AcDbLine
 10
1379.393045930948
 20
1970.155667601785
 30
0.0
 11
1379.39637144111
 21
1970.159233774829
 31
0.0
  0
LINE
  5
89A
330
23
100
AcDbEntity
  8
SANINDUSA
100
AcDbLine
 10
1379.74147021571
 20
1970.272355940767
 30
0.0
 11
1379.743444832442
 21
1970.159233774839
 31
0.0
  0
LINE
  5
89F
330
23
100
AcDbEntity
  8
SANINDUSA
100
AcDbLine
 10
1378.939255554912
 20
1970.159233774816
 30
0.0
 11
1378.941230109661
 21
1970.272355940767
 31
0.0
  0
LINE
  5
8A2
330
23
100
AcDbEntity
  8
SANINDUSA
100
AcDbLine
 10
1378.939255554912
 20
1970.159233774816
 30
0.0
 11
1379.743444832442
 21
1970.159233774839
 31
0.0
  0
LINE
  5
8A4
330
23
100
AcDbEntity
  8
SANINDUSA
100
AcDbLine
 10
1378.948229043469
 20
1970.279233773922
 30
0.0
 11
1379.734471262157
 21
1970.279233773922
 31
0.0
  0
ARC
  5
8A6
330
23
100
AcDbEntity
  8
SANINDUSA
100
AcDbCircle
 10
1379.734471281844
 20
1970.272233773922
 30
0.0
 40
0.0069999999999999
100
AcDbArc
 50
0.9999999969218754
 51
90.0
  0
ARC
  5
8A7
330
23
100
AcDbEntity
  8
SANINDUSA
100
AcDbCircle
 10
1378.948229043527
 20
1970.272233773922
 30
0.0
 40
0.007
100
AcDbArc
 50
90.0
 51
179.0000000030781
  0
LINE
  5
8B9
330
23
100
AcDbEntity
  8
SANINDUSA
100
AcDbLine
 10
1379.289654394423
 20
1970.155667601785
 30
0.0
 11
1379.393045930948
 21
1970.155667601785
 31
0.0
  0
LINE
  5
9B4
330
23
100
AcDbEntity
  8
SANINDUSA
100
AcDbLine
 10
1377.527249988671
 20
1970.578486950398
 30
0.0
 11
1378.717491617768
 21
1970.578486950398
 31
0.0
  0
ARC
  5
9B9
330
23
100
AcDbEntity
  8
SANINDUSA
100
AcDbCircle
 10
1377.527251772501
 20
1970.573485928091
 30
0.0
 40
0.0050010226247748
100
AcDbArc
 50
90.02043701167874
 51
179.9795629883212
  0
ARC
  5
9BB
330
23
100
AcDbEntity
  8
SANINDUSA
100
AcDbCircle
 10
1378.717489833937
 20
1970.573485928091
 30
0.0
 40
0.0050010226247748
100
AcDbArc
 50
0.0204370116787323
 51
89.97956298832127
  0
LINE
  5
9BC
330
23
100
AcDbEntity
  8
SANINDUSA
100
AcDbLine
 10
1378.722490856243
 20
1970.573487711922
 30
0.0
 11
1378.722490856243
 21
1969.783246082825
 31
0.0
  0
LINE
  5
9C1
330
23
100
AcDbEntity
  8
SANINDUSA
100
AcDbLine
 10
1377.522250750195
 20
1969.783246082825
 30
0.0
 11
1377.522250750195
 21
1970.573487711922
 31
0.0
  0
ELLIPSE
  5
9CC
330
23
100
AcDbEntity
  8
SANINDUSA
100
AcDbEllipse
 10
1378.632114166892
 20
1970.488110261101
 30
0.0
 11
0.0141714282369867
 21
0.0141714282369866
 31
0.0
210
0.0
220
0.0
230
0.9999999999999998
 40
0.997932980870661
 41
5.498396131367761
 42
7.067974482991434
  0
LINE
  5
9CE
330
23
100
AcDbEntity
  8
SANINDUSA
100
AcDbLine
 10
1378.632147072258
 20
1970.508130983008
 30
0.0
 11
1377.612594534127
 21
1970.508130983008
 31
0.0
  0
ELLIPSE
  5
9D0
330
23
100
AcDbEntity
  8
SANINDUSA
100
AcDbEllipse
 10
1377.612627439494
 20
1970.488110261101
 30
0.0
 11
-0.0141714282369861
 21
0.0141714282369869
 31
0.0
210
0.0
220
0.0
230
1.0
 40
0.9979329808706809
 41
5.49839613136779
 42
7.067974482991345
  0
LINE
  5
9D2
330
23
100
AcDbEntity
  8
SANINDUSA
100
AcDbLine
 10
1377.592606717587
 20
1970.488143166468
 30
0.0
 11
1377.592606717587
 21
1969.868590628279
 31
0.0
  0
LINE
  5
9D5
330
23
100
AcDbEntity
  8
SANINDUSA
100
AcDbLine
 10
1378.652134888799
 20
1969.868590628279
 30
0.0
 11
1378.652134888799
 21
1970.488143166468
 31
0.0
  0
ELLIPSE
  5
9D6
330
23
100
AcDbEntity
  8
SANINDUSA
100
AcDbEllipse
 10
1377.612627439494
 20
1969.868623533646
 30
0.0
 11
0.0141714282369867
 21
0.0141714282369861
 31
0.0
210
0.0
220
0.0
230
1.0
 40
0.9979329808706957
 41
2.356803477777873
 42
3.926381829401653
  0
ELLIPSE
  5
9D9
330
23
100
AcDbEntity
  8
SANINDUSA
100
AcDbEllipse
 10
1378.632114166892
 20
1969.868623533646
 30
0.0
 11
-0.0141714282369856
 21
0.0141714282369867
 31
0.0
210
0.0
220
0.0
230
0.9999999999999998
 40
0.9979329808707063
 41
2.356803477778026
 42
3.926381829401675
  0
LINE
  5
9DA
330
23
100
AcDbEntity
  8
SANINDUSA
100
AcDbLine
 10
1377.612594534127
 20
1969.848602811739
 30
0.0
 11
1378.632147072258
 21
1969.848602811739
 31
0.0
  0
ARC
  5
9DC
330
23
100
AcDbEntity
  8
SANINDUSA
100
AcDbCircle
 10
1378.717489833937
 20
1969.783247866656
 30
0.0
 40
0.0050010226247746
100
AcDbArc
 50
270.0204370116787
 51
359.9795629883213
  0
LINE
  5
9DD
330
23
100
AcDbEntity
  8
SANINDUSA
100
AcDbLine
 10
1378.717491617768
 20
1969.778246844349
 30
0.0
 11
1377.527249988671
 21
1969.778246844349
 31
0.0
  0
ARC
  5
9DF
330
23
100
AcDbEntity
  8
SANINDUSA
100
AcDbCircle
 10
1377.527251772501
 20
1969.783247866656
 30
0.0
 40
0.0050010226247748
100
AcDbArc
 50
180.0204370116787
 51
269.9795629883212
  0
ARC
  5
A1D
330
23
100
AcDbEntity
  8
SANINDUSA
100
AcDbCircle
 10
1377.640455978563
 20
1969.896161320307
 30
0.0
 40
0.0108876796012251
100
AcDbArc
 50
179.9870270333555
 51
269.9882149116285
  0
ARC
  5
A21
330
23
100
AcDbEntity
  8
SANINDUSA
100
AcDbCircle
 10
1377.640456208796
 20
1970.460572244306
 30
0.0
 40
0.0108879097838851
100
AcDbArc
 50
90.01299639018228
 51
180.011761651806
  0
LINE
  5
A2F
330
23
100
AcDbEntity
  8
SANINDUSA
100
AcDbLine
 10
1377.629568299241
 20
1969.896163785506
 30
0.0
 11
1377.629568299241
 21
1970.46057000924
 31
0.0
  0
LINE
  5
A31
330
23
100
AcDbEntity
  8
SANINDUSA
100
AcDbLine
 10
1377.869250282919
 20
1969.885273640936
 30
0.0
 11
1377.640453739092
 21
1969.885273640936
 31
0.0
  0
LINE
  5
A32
330
23
100
AcDbEntity
  8
SANINDUSA
100
AcDbLine
 10
1377.640453739092
 20
1970.47146015381
 30
0.0
 11
1377.869249303303
 21
1970.47146015381
 31
0.0
  0
ARC
  5
A3C
330
23
100
AcDbEntity
  8
SANINDUSA
100
AcDbCircle
 10
1377.867554007358
 20
1970.233753759612
 30
0.0
 40
0.2377124394535351
100
AcDbArc
 50
86.64130130246313
 51
89.59137970826132
  0
ARC
  5
A3D
330
23
100
AcDbEntity
  8
SANINDUSA
100
AcDbCircle
 10
1377.867552403899
 20
1970.123055910335
 30
0.0
 40
0.237788331155483
100
AcDbArc
 50
270.4091122898128
 51
273.358014670561
  0
ARC
  5
A3F
330
23
100
AcDbEntity
  8
SANINDUSA
100
AcDbCircle
 10
1377.882378936544
 20
1970.460639812552
 30
0.0
 40
0.0101416122391954
100
AcDbArc
 50
359.9939831469441
 51
72.87427557594495
  0
ARC
  5
A42
330
23
100
AcDbEntity
  8
SANINDUSA
100
AcDbCircle
 10
1377.882379377017
 20
1969.896093638917
 30
0.0
 40
0.0101412284106148
100
AcDbArc
 50
287.1237439788528
 51
0.006361887772219
  0
LINE
  5
A45
330
23
100
AcDbEntity
  8
SANINDUSA
100
AcDbLine
 10
1377.881480814542
 20
1970.471057884971
 30
0.0
 11
1377.8839053874
 21
1970.470735505537
 31
0.0
  0
LINE
  5
A46
330
23
100
AcDbEntity
  8
SANINDUSA
100
AcDbLine
 10
1377.883904930137
 20
1969.885998128195
 30
0.0
 11
1377.881480823379
 21
1969.885675857331
 31
0.0
  0
LWPOLYLINE
  5
A4B
330
23
100
AcDbEntity
  8
SANINDUSA
100
AcDbPolyline
 90
        6
 70
   128
 43
0.0
 10
1377.892520548727
 20
1970.460638747542
 10
1377.892515191814
 20
1970.418364921406
 10
1377.892434308156
 20
1970.226365048121
 10
1377.892428470693
 20
1970.17836718278
 10
1377.892497151212
 20
1969.986371429611
 10
1377.892520605365
 20
1969.896094764957
  0
LINE
  5
A4C
330
23
100
AcDbEntity
  8
SANINDUSA
100
AcDbLine
 10
1377.885365323708
 20
1969.886401960216
 30
0.0
 11
1377.883904930137
 21
1969.885998128195
 31
0.0
  0
LINE
  5
A4D
330
23
100
AcDbEntity
  8
SANINDUSA
100
AcDbLine
 10
1377.8839053874
 20
1970.470735505537
 30
0.0
 11
1377.885365331254
 21
1970.470331754846
 31
0.0
  0
CIRCLE
  5
A6D
330
23
100
AcDbEntity
  8
SANINDUSA
100
AcDbCircle
 10
1377.999074350392
 20
1970.418371433909
 30
0.0
 40
0.0107491410959541
  0
CIRCLE
  5
A6F
330
23
100
AcDbEntity
  8
SANINDUSA
100
AcDbCircle
 10
1377.999073765826
 20
1969.938362258004
 30
0.0
 40
0.0107492726938573
  0
CIRCLE
  5
A71
330
23
100
AcDbEntity
  8
SANINDUSA
100
AcDbCircle
 10
1377.999064845282
 20
1970.338381472351
 30
0.0
 40
0.010749265031876
  0
CIRCLE
  5
A73
330
23
100
AcDbEntity
  8
SANINDUSA
100
AcDbCircle
 10
1377.999063717716
 20
1970.018352562291
 30
0.0
 40
0.0107499270247405
  0
CIRCLE
  5
A75
330
23
100
AcDbEntity
  8
SANINDUSA
100
AcDbCircle
 10
1377.999047981563
 20
1970.258381453215
 30
0.0
 40
0.0107501955400656
  0
CIRCLE
  5
A77
330
23
100
AcDbEntity
  8
SANINDUSA
100
AcDbCircle
 10
1377.999046948924
 20
1970.098353348607
 30
0.0
 40
0.0107509225394004
  0
CIRCLE
  5
A7B
330
23
100
AcDbEntity
  8
SANINDUSA
100
AcDbCircle
 10
1378.079063450512
 20
1970.41837095744
 30
0.0
 40
0.0107489059352267
  0
CIRCLE
  5
A7D
330
23
100
AcDbEntity
  8
SANINDUSA
100
AcDbCircle
 10
1378.079063057196
 20
1969.938362524105
 30
0.0
 40
0.0107490124599641
  0
CIRCLE
  5
A7F
330
23
100
AcDbEntity
  8
SANINDUSA
100
AcDbCircle
 10
1377.999038439365
 20
1970.178367616497
 30
0.0
 40
0.0107512183410508
  0
CIRCLE
  5
A83
330
23
100
AcDbEntity
  8
SANINDUSA
100
AcDbCircle
 10
1378.079053510733
 20
1970.338384196879
 30
0.0
 40
0.0107489636227419
  0
CIRCLE
  5
A85
330
23
100
AcDbEntity
  8
SANINDUSA
100
AcDbCircle
 10
1378.079052243009
 20
1970.018349737463
 30
0.0
 40
0.010749702891168
  0
CIRCLE
  5
AAE
330
23
100
AcDbEntity
  8
SANINDUSA
100
AcDbCircle
 10
1378.159050669778
 20
1970.418370611422
 30
0.0
 40
0.0107486614639591
  0
CIRCLE
  5
AB0
330
23
100
AcDbEntity
  8
SANINDUSA
100
AcDbCircle
 10
1378.079033258864
 20
1970.258385645806
 30
0.0
 40
0.0107502033834023
  0
CIRCLE
  5
AB2
330
23
100
AcDbEntity
  8
SANINDUSA
100
AcDbCircle
 10
1378.159050146336
 20
1969.938362768104
 30
0.0
 40
0.0107488045004389
  0
CIRCLE
  5
AB4
330
23
100
AcDbEntity
  8
SANINDUSA
100
AcDbCircle
 10
1378.079031975409
 20
1970.098349243996
 30
0.0
 40
0.0107511068916019
  0
CIRCLE
  5
AB6
330
23
100
AcDbEntity
  8
SANINDUSA
100
AcDbCircle
 10
1378.079020932564
 20
1970.178367821852
 30
0.0
 40
0.0107516673103784
  0
CIRCLE
  5
AB8
330
23
100
AcDbEntity
  8
SANINDUSA
100
AcDbCircle
 10
1378.15904060843
 20
1970.338386137054
 30
0.0
 40
0.0107486322171231
  0
CIRCLE
  5
ABA
330
23
100
AcDbEntity
  8
SANINDUSA
100
AcDbCircle
 10
1378.159039322856
 20
1970.018347743788
 30
0.0
 40
0.0107493654513504
  0
CIRCLE
  5
ABC
330
23
100
AcDbEntity
  8
SANINDUSA
100
AcDbCircle
 10
1378.239033556561
 20
1970.418371643183
 30
0.0
 40
0.0107485279668601
  0
CIRCLE
  5
ABE
330
23
100
AcDbEntity
  8
SANINDUSA
100
AcDbCircle
 10
1378.239032866342
 20
1969.938362200032
 30
0.0
 40
0.0107487513202001
  0
CIRCLE
  5
AC0
330
23
100
AcDbEntity
  8
SANINDUSA
100
AcDbCircle
 10
1378.159018244131
 20
1970.258389612992
 30
0.0
 40
0.0107501521528687
  0
CIRCLE
  5
AC2
330
23
100
AcDbEntity
  8
SANINDUSA
100
AcDbCircle
 10
1378.159016855138
 20
1970.098345333156
 30
0.0
 40
0.0107511600060673
  0
CIRCLE
  5
AC4
330
23
100
AcDbEntity
  8
SANINDUSA
100
AcDbCircle
 10
1378.23902352679
 20
1970.338386626231
 30
0.0
 40
0.0107483598270259
  0
CIRCLE
  5
AC6
330
23
100
AcDbEntity
  8
SANINDUSA
100
AcDbCircle
 10
1378.239022377452
 20
1970.018347446395
 30
0.0
 40
0.010749000603194
  0
CIRCLE
  5
AC8
330
23
100
AcDbEntity
  8
SANINDUSA
100
AcDbCircle
 10
1378.159003312911
 20
1970.178367943908
 30
0.0
 40
0.0107522288435518
  0
CIRCLE
  5
ACA
330
23
100
AcDbEntity
  8
SANINDUSA
100
AcDbCircle
 10
1378.239001925545
 20
1970.258391955331
 30
0.0
 40
0.0107500174086821
  0
CIRCLE
  5
ACC
330
23
100
AcDbEntity
  8
SANINDUSA
100
AcDbCircle
 10
1378.319010343763
 20
1970.418374946909
 30
0.0
 40
0.010748650037714
  0
CIRCLE
  5
ACE
330
23
100
AcDbEntity
  8
SANINDUSA
100
AcDbCircle
 10
1378.239000617712
 20
1970.098343043474
 30
0.0
 40
0.0107509780270792
  0
CIRCLE
  5
AD0
330
23
100
AcDbEntity
  8
SANINDUSA
100
AcDbCircle
 10
1378.31900976129
 20
1969.93835916436
 30
0.0
 40
0.0107492171976822
  0
CIRCLE
  5
AD2
330
23
100
AcDbEntity
  8
SANINDUSA
100
AcDbCircle
 10
1378.319000444958
 20
1970.338385050408
 30
0.0
 40
0.0107483520754323
  0
CIRCLE
  5
AD4
330
23
100
AcDbEntity
  8
SANINDUSA
100
AcDbCircle
 10
1378.318999671468
 20
1970.018349216705
 30
0.0
 40
0.0107487978690188
  0
CIRCLE
  5
AD6
330
23
100
AcDbEntity
  8
SANINDUSA
100
AcDbCircle
 10
1378.238985753257
 20
1970.178367915333
 30
0.0
 40
0.010752729815664
  0
CIRCLE
  5
AD8
330
23
100
AcDbEntity
  8
SANINDUSA
100
AcDbCircle
 10
1378.318982890282
 20
1970.258390927781
 30
0.0
 40
0.0107498600365785
  0
CIRCLE
  5
ADA
330
23
100
AcDbEntity
  8
SANINDUSA
100
AcDbCircle
 10
1378.318981945672
 20
1970.098344036393
 30
0.0
 40
0.0107505680641632
  0
CIRCLE
  5
ADC
330
23
100
AcDbEntity
  8
SANINDUSA
100
AcDbCircle
 10
1378.398984602908
 20
1970.418380452811
 30
0.0
 40
0.01074943894719
  0
CIRCLE
  5
ADE
330
23
100
AcDbEntity
  8
SANINDUSA
100
AcDbCircle
 10
1378.398983790281
 20
1969.938353968395
 30
0.0
 40
0.0107503798663271
  0
CIRCLE
  5
AE0
330
23
100
AcDbEntity
  8
SANINDUSA
100
AcDbCircle
 10
1378.31896848597
 20
1970.178368380896
 30
0.0
 40
0.0107529387333185
  0
CIRCLE
  5
AE2
330
23
100
AcDbEntity
  8
SANINDUSA
100
AcDbCircle
 10
1378.398975796435
 20
1970.338380981871
 30
0.0
 40
0.010748819547255
  0
CIRCLE
  5
AE4
330
23
100
AcDbEntity
  8
SANINDUSA
100
AcDbCircle
 10
1378.398975543268
 20
1970.018353170915
 30
0.0
 40
0.0107489741799962
  0
CIRCLE
  5
AE6
330
23
100
AcDbEntity
  8
SANINDUSA
100
AcDbCircle
 10
1378.398962146796
 20
1970.258388377515
 30
0.0
 40
0.0107499162906199
  0
CIRCLE
  5
AE8
330
23
100
AcDbEntity
  8
SANINDUSA
100
AcDbCircle
 10
1378.398961359972
 20
1970.098346515699
 30
0.0
 40
0.0107507137911728
  0
CIRCLE
  5
AEA
330
23
100
AcDbEntity
  8
SANINDUSA
100
AcDbCircle
 10
1378.398951429369
 20
1970.178367607773
 30
0.0
 40
0.0107529199643639
  0
CIRCLE
  5
AEB
330
23
100
AcDbEntity
  8
SANINDUSA
100
AcDbCircle
 10
1378.542365606816
 20
1970.178377268399
 30
0.0
 40
0.0739895815338931
  0
CIRCLE
  5
AED
330
23
100
AcDbEntity
  8
SANINDUSA
100
AcDbCircle
 10
1378.542370803219
 20
1970.178366897373
 30
0.0
 40
0.0499999999999997
  0
LINE
  5
B44
330
23
100
AcDbEntity
  8
SANINDUSA
100
AcDbLine
 10
1381.805697777131
 20
1970.186526216843
 30
0.0
 11
1381.857940716458
 21
1970.185431884493
 31
0.0
  0
LINE
  5
B46
330
23
100
AcDbEntity
  8
SANINDUSA
100
AcDbLine
 10
1381.885680719674
 20
1970.184850816415
 30
0.0
 11
1381.93792365679
 21
1970.183756477249
 31
0.0
  0
LINE
  5
B48
330
23
100
AcDbEntity
  8
SANINDUSA
100
AcDbLine
 10
1381.96566366199
 20
1970.183175406318
 30
0.0
 11
1382.017906600366
 21
1970.182081083549
 31
0.0
  0
LWPOLYLINE
  5
B4A
330
23
100
AcDbEntity
  8
SANINDUSA
100
AcDbPolyline
 90
        3
 70
   128
 43
0.0
 10
1382.04564659986
 20
1970.181500007406
 10
1382.065540872534
 20
1970.18108327059
 10
1382.0978895553
 20
1970.180405673678
  0
LINE
  5
B4C
330
23
100
AcDbEntity
  8
SANINDUSA
100
AcDbLine
 10
1382.125629534471
 20
1970.179824623104
 30
0.0
 11
1382.17787251493
 21
1970.178730291152
 31
0.0
  0
LINE
  5
B4E
330
23
100
AcDbEntity
  8
SANINDUSA
100
AcDbLine
 10
1382.205612413903
 20
1970.178149147953
 30
0.0
 11
1382.258973460035
 21
1970.177031466742
 31
0.0
  0
LWPOLYLINE
  5
B51
330
23
100
AcDbEntity
  8
SANINDUSA
100
AcDbPolyline
 90
        3
 70
   128
 43
0.0
 10
1382.411542509698
 20
1970.177013829179
 10
1382.420571409303
 20
1970.177547790799
 10
1382.429589262844
 20
1970.178926910751
  0
LINE
  5
B52
330
23
100
AcDbEntity
  8
SANINDUSA
100
AcDbLine
 10
1381.701859321935
 20
1970.188702097204
 30
0.0
 11
1381.77795777373
 21
1970.18710728797
 31
0.0
  0
ARC
  5
B53
330
23
100
AcDbEntity
  8
SANINDUSA
100
AcDbCircle
 10
1382.411543816568
 20
1970.176913837718
 30
0.0
 40
0.0001000000591016
100
AcDbArc
 50
90.74880229904588
 51
124.9999765936201
  0
ARC
  5
B54
330
23
100
AcDbEntity
  8
SANINDUSA
100
AcDbCircle
 10
1382.258971370759
 20
1970.176931488569
 30
0.0
 40
0.000100000000008
100
AcDbArc
 50
54.99999999392633
 51
88.80284558860047
  0
LWPOLYLINE
  5
B56
330
23
100
AcDbEntity
  8
SANINDUSA
100
AcDbPolyline
 90
        3
 70
   128
 43
0.0
 10
1382.411491541757
 20
1970.180913496128
 10
1382.410330365734
 20
1970.180725338353
 10
1382.409249510822
 20
1970.180190445896
  0
LWPOLYLINE
  5
B58
330
23
100
AcDbEntity
  8
SANINDUSA
100
AcDbPolyline
 90
        3
 70
   128
 43
0.0
 10
1382.261265676504
 20
1970.180208096747
 10
1382.260214692257
 20
1970.180733350173
 10
1382.259054941825
 20
1970.180930615459
  0
LINE
  5
B59
330
23
100
AcDbEntity
  8
SANINDUSA
100
AcDbLine
 10
1382.411486458924
 20
1970.176995752923
 30
0.0
 11
1382.398140466799
 21
1970.167650788632
 31
0.0
  0
LINE
  5
B5A
330
23
100
AcDbEntity
  8
SANINDUSA
100
AcDbLine
 10
1382.272399928555
 20
1970.167650788632
 30
0.0
 11
1382.259028728402
 21
1970.177013403774
 31
0.0
  0
LINE
  5
B5B
330
23
100
AcDbEntity
  8
SANINDUSA
100
AcDbLine
 10
1382.409249510822
 20
1970.180190445896
 30
0.0
 11
1382.395567742935
 21
1970.170610368885
 31
0.0
  0
LINE
  5
B5D
330
23
100
AcDbEntity
  8
SANINDUSA
100
AcDbLine
 10
1382.274972652419
 20
1970.170610368885
 30
0.0
 11
1382.261265676504
 21
1970.180208096747
 31
0.0
  0
LWPOLYLINE
  5
B67
330
23
100
AcDbEntity
  8
SANINDUSA
100
AcDbPolyline
 90
        3
 70
   128
 43
0.0
 10
1382.411491541757
 20
1970.180913496128
 10
1382.420161614433
 20
1970.181426201322
 10
1382.428821079624
 20
1970.182750507822
  0
LINE
  5
B68
330
23
100
AcDbEntity
  8
SANINDUSA
100
AcDbLine
 10
1382.205694130917
 20
1970.182048291756
 30
0.0
 11
1382.259054941825
 21
1970.180930615459
 31
0.0
  0
LINE
  5
B69
330
23
100
AcDbEntity
  8
SANINDUSA
100
AcDbLine
 10
1382.125711215993
 20
1970.183723767849
 30
0.0
 11
1382.177954172999
 21
1970.182629436184
 31
0.0
  0
LWPOLYLINE
  5
B6A
330
23
100
AcDbEntity
  8
SANINDUSA
100
AcDbPolyline
 90
        3
 70
   128
 43
0.0
 10
1382.045728277174
 20
1970.185399152051
 10
1382.064834611729
 20
1970.184998920602
 10
1382.097971223078
 20
1970.184304818548
  0
LINE
  5
B6B
330
23
100
AcDbEntity
  8
SANINDUSA
100
AcDbLine
 10
1381.965745336991
 20
1970.187074551031
 30
0.0
 11
1382.017988275576
 21
1970.185980228284
 31
0.0
  0
LINE
  5
B6C
330
23
100
AcDbEntity
  8
SANINDUSA
100
AcDbLine
 10
1381.885762394919
 20
1970.18874996112
 30
0.0
 11
1381.938005332799
 21
1970.187655621927
 31
0.0
  0
LINE
  5
B6D
330
23
100
AcDbEntity
  8
SANINDUSA
100
AcDbLine
 10
1381.805779452669
 20
1970.190425361518
 30
0.0
 11
1381.858022391586
 21
1970.189331029191
 31
0.0
  0
LINE
  5
B6E
330
23
100
AcDbEntity
  8
SANINDUSA
100
AcDbLine
 10
1381.70193911109
 20
1970.192600507635
 30
0.0
 11
1381.778039449293
 21
1970.191006432642
 31
0.0
  0
ARC
  5
BAD
330
23
100
AcDbEntity
  8
SANINDUSA
100
AcDbCircle
 10
1382.045812048756
 20
1970.189398274679
 30
0.0
 40
0.0078999999533581
100
AcDbArc
 50
217.4821627275896
 51
268.7999725802048
  0
ARC
  5
BAE
330
23
100
AcDbEntity
  8
SANINDUSA
100
AcDbCircle
 10
1382.018072045127
 20
1970.189979350806
 30
0.0
 40
0.0078999998504428
100
AcDbArc
 50
268.8000025631234
 51
320.1178130116326
  0
ARC
  5
BB0
330
23
100
AcDbEntity
  8
SANINDUSA
100
AcDbCircle
 10
1382.125794991622
 20
1970.187722889767
 30
0.0
 40
0.007899999515427
100
AcDbArc
 50
217.482125607348
 51
268.7999126271196
  0
ARC
  5
BB1
330
23
100
AcDbEntity
  8
SANINDUSA
100
AcDbCircle
 10
1382.09805498492
 20
1970.188303941293
 30
0.0
 40
0.0078999998918301
100
AcDbArc
 50
268.8001123965666
 51
320.1179288798502
  0
ARC
  5
BB3
330
23
100
AcDbEntity
  8
SANINDUSA
100
AcDbCircle
 10
1381.965829106152
 20
1970.191073673648
 30
0.0
 40
0.0078999999111991
100
AcDbArc
 50
217.4821919135307
 51
268.8000069152812
  0
ARC
  5
BB4
330
23
100
AcDbEntity
  8
SANINDUSA
100
AcDbCircle
 10
1381.938089103101
 20
1970.191654744567
 30
0.0
 40
0.0078999999432975
100
AcDbArc
 50
268.7999913309255
 51
320.1178056123508
  0
ARC
  5
BB6
330
23
100
AcDbEntity
  8
SANINDUSA
100
AcDbCircle
 10
1382.205777943254
 20
1970.186047413564
 30
0.0
 40
0.0078999999772714
100
AcDbArc
 50
217.4814993528411
 51
268.7993889479379
  0
ARC
  5
BB7
330
23
100
AcDbEntity
  8
SANINDUSA
100
AcDbCircle
 10
1382.178037924878
 20
1970.186628559286
 30
0.0
 40
0.0078999999975368
100
AcDbArc
 50
268.8002551315514
 51
320.1180508062709
  0
ARC
  5
BB9
330
23
100
AcDbEntity
  8
SANINDUSA
100
AcDbCircle
 10
1381.88584616434
 20
1970.192749083741
 30
0.0
 40
0.0078999999173718
100
AcDbArc
 50
217.4821907149251
 51
268.8000032667297
  0
ARC
  5
BBA
330
23
100
AcDbEntity
  8
SANINDUSA
100
AcDbCircle
 10
1381.858106160984
 20
1970.193330151844
 30
0.0
 40
0.0078999999391546
100
AcDbArc
 50
268.8000042832016
 51
320.1178174885596
  0
ARC
  5
BBB
330
23
100
AcDbEntity
  8
SANINDUSA
100
AcDbCircle
 10
1382.045812048777
 20
1970.18939827473
 30
0.0
 40
0.0039999999851554
100
AcDbArc
 50
217.4821627172517
 51
268.7999724369332
  0
ARC
  5
BBC
330
23
100
AcDbEntity
  8
SANINDUSA
100
AcDbCircle
 10
1382.01807204507
 20
1970.189979350978
 30
0.0
 40
0.0039999999561275
100
AcDbArc
 50
268.8000026542962
 51
320.1178127430882
  0
ARC
  5
BBD
330
23
100
AcDbEntity
  8
SANINDUSA
100
AcDbCircle
 10
1382.125794991832
 20
1970.187722890305
 30
0.0
 40
0.0039999998502269
100
AcDbArc
 50
217.4821260894791
 51
268.7999117020934
  0
ARC
  5
BBE
330
23
100
AcDbEntity
  8
SANINDUSA
100
AcDbCircle
 10
1382.098054984872
 20
1970.18830394141
 30
0.0
 40
0.0039999999634857
100
AcDbArc
 50
268.8001129566285
 51
320.1179291200475
  0
ARC
  5
BC0
330
23
100
AcDbEntity
  8
SANINDUSA
100
AcDbCircle
 10
1381.805863222432
 20
1970.194424484212
 30
0.0
 40
0.0078999999736153
100
AcDbArc
 50
217.4821857616315
 51
268.7999986671026
  0
ARC
  5
BC1
330
23
100
AcDbEntity
  8
SANINDUSA
100
AcDbCircle
 10
1381.778123219114
 20
1970.195005555342
 30
0.0
 40
0.0078999999785668
100
AcDbArc
 50
268.7999980546691
 51
320.1178107181182
  0
ARC
  5
BC2
330
23
100
AcDbEntity
  8
SANINDUSA
100
AcDbCircle
 10
1382.205777943267
 20
1970.186047413587
 30
0.0
 40
0.0039999999910408
100
AcDbArc
 50
217.4814991757043
 51
268.7993886613947
  0
ARC
  5
BC3
330
23
100
AcDbEntity
  8
SANINDUSA
100
AcDbCircle
 10
1382.178037924877
 20
1970.186628559291
 30
0.0
 40
0.0040000000001306
100
AcDbArc
 50
268.8002550534032
 51
320.1180507512201
  0
ARC
  5
BC4
330
23
100
AcDbEntity
  8
SANINDUSA
100
AcDbCircle
 10
1381.965829106189
 20
1970.191073673748
 30
0.0
 40
0.0039999999735551
100
AcDbArc
 50
217.4821920803295
 51
268.8000068892318
  0
ARC
  5
BC5
330
23
100
AcDbEntity
  8
SANINDUSA
100
AcDbCircle
 10
1381.938089103079
 20
1970.191654744631
 30
0.0
 40
0.0039999999830505
100
AcDbArc
 50
268.7999913830243
 51
320.1178055389495
  0
ARC
  5
BC6
330
23
100
AcDbEntity
  8
SANINDUSA
100
AcDbCircle
 10
1381.885846164375
 20
1970.192749083834
 30
0.0
 40
0.0039999999751041
100
AcDbArc
 50
217.4821908451932
 51
268.8000032016062
  0
ARC
  5
BC7
330
23
100
AcDbEntity
  8
SANINDUSA
100
AcDbCircle
 10
1381.858106160961
 20
1970.193330151913
 30
0.0
 40
0.0039999999816924
100
AcDbArc
 50
268.8000043613497
 51
320.117817413515
  0
ARC
  5
BC8
330
23
100
AcDbEntity
  8
SANINDUSA
100
AcDbCircle
 10
1381.805863222443
 20
1970.194424484242
 30
0.0
 40
0.003999999992093
100
AcDbArc
 50
217.4821857981622
 51
268.7999986410532
  0
ARC
  5
BC9
330
23
100
AcDbEntity
  8
SANINDUSA
100
AcDbCircle
 10
1381.778123219106
 20
1970.195005555367
 30
0.0
 40
0.0039999999936353
100
AcDbArc
 50
268.7999980807185
 51
320.1178106814176
  0
ARC
  5
BCA
330
23
100
AcDbEntity
  8
SANINDUSA
100
AcDbCircle
 10
1382.184176862487
 20
1970.18149889601
 30
0.0
 40
0.0040000000220302
100
AcDbArc
 50
88.80020355716451
 51
140.1180507228728
  0
ARC
  5
BCB
330
23
100
AcDbEntity
  8
SANINDUSA
100
AcDbCircle
 10
1382.199429544303
 20
1970.181179371792
 30
0.0
 40
0.0040000000291594
100
AcDbArc
 50
37.48149912090827
 51
88.79939513739627
  0
ARC
  5
BCC
330
23
100
AcDbEntity
  8
SANINDUSA
100
AcDbCircle
 10
1382.104193911567
 20
1970.183174265127
 30
0.0
 40
0.0040000000195988
100
AcDbArc
 50
88.80011071556248
 51
140.1179291850952
  0
ARC
  5
BCD
330
23
100
AcDbEntity
  8
SANINDUSA
100
AcDbCircle
 10
1382.119446646367
 20
1970.182854779215
 30
0.0
 40
0.0039999998821697
100
AcDbArc
 50
37.48212616495106
 51
88.79997246298255
  0
ARC
  5
BCE
330
23
100
AcDbEntity
  8
SANINDUSA
100
AcDbCircle
 10
1382.024210961289
 20
1970.18484966226
 30
0.0
 40
0.003999999961936
100
AcDbArc
 50
88.79999624341808
 51
140.1178126696869
  0
ARC
  5
BCF
330
23
100
AcDbEntity
  8
SANINDUSA
100
AcDbCircle
 10
1382.039463706226
 20
1970.184530159438
 30
0.0
 40
0.0039999999927352
100
AcDbArc
 50
37.48216270932426
 51
88.79997870453964
  0
ARC
  5
BD0
330
23
100
AcDbEntity
  8
SANINDUSA
100
AcDbCircle
 10
1381.944228018695
 20
1970.186525055111
 30
0.0
 40
0.0039999999867811
100
AcDbArc
 50
88.79999421074719
 51
140.1178055106024
  0
ARC
  5
BD1
330
23
100
AcDbEntity
  8
SANINDUSA
100
AcDbCircle
 10
1381.959480766157
 20
1970.186205555217
 30
0.0
 40
0.0039999999760953
100
AcDbArc
 50
37.48219212719814
 51
88.80000314950743
  0
ARC
  5
BD2
330
23
100
AcDbEntity
  8
SANINDUSA
100
AcDbCircle
 10
1381.864245077639
 20
1970.188200463666
 30
0.0
 40
0.0039999999863461
100
AcDbArc
 50
88.80000479143745
 51
140.1178173951647
  0
ARC
  5
BD3
330
23
100
AcDbEntity
  8
SANINDUSA
100
AcDbCircle
 10
1381.879497824234
 20
1970.187880965437
 30
0.0
 40
0.0039999999783067
100
AcDbArc
 50
37.48219088172392
 51
88.80000425715214
  0
ARC
  5
BD4
330
23
100
AcDbEntity
  8
SANINDUSA
100
AcDbCircle
 10
1381.784262135198
 20
1970.189875866387
 30
0.0
 40
0.0039999999949682
100
AcDbArc
 50
88.79999801559504
 51
140.1178106714207
  0
ARC
  5
BD5
330
23
100
AcDbEntity
  8
SANINDUSA
100
AcDbCircle
 10
1381.799514881848
 20
1970.189556366387
 30
0.0
 40
0.0039999999930341
100
AcDbArc
 50
37.48218580850013
 51
88.79999831516302
  0
ARC
  5
BD6
330
23
100
AcDbEntity
  8
SANINDUSA
100
AcDbCircle
 10
1382.104193911519
 20
1970.183174265041
 30
0.0
 40
0.0000999999984424
100
AcDbArc
 50
88.80010998590673
 51
140.1179290833469
  0
ARC
  5
BD7
330
23
100
AcDbEntity
  8
SANINDUSA
100
AcDbCircle
 10
1382.119446646291
 20
1970.182854778871
 30
0.0
 40
0.0000999999936199
100
AcDbArc
 50
37.48212554221394
 51
88.79997285372338
  0
ARC
  5
BD8
330
23
100
AcDbEntity
  8
SANINDUSA
100
AcDbCircle
 10
1382.024210961321
 20
1970.184849662166
 30
0.0
 40
0.0000999999982867
100
AcDbArc
 50
88.7999961782946
 51
140.117812974932
  0
ARC
  5
BD9
330
23
100
AcDbEntity
  8
SANINDUSA
100
AcDbCircle
 10
1382.039463706226
 20
1970.184530159401
 30
0.0
 40
0.0000999999993071
100
AcDbArc
 50
37.48216268072097
 51
88.79997884781129
  0
ARC
  5
BDA
330
23
100
AcDbEntity
  8
SANINDUSA
100
AcDbCircle
 10
1382.184176862475
 20
1970.181498896028
 30
0.0
 40
0.0001000000427794
100
AcDbArc
 50
88.80020394817815
 51
140.1180218479807
  0
ARC
  5
BDB
330
23
100
AcDbEntity
  8
SANINDUSA
100
AcDbCircle
 10
1382.199429544342
 20
1970.181179371774
 30
0.0
 40
0.0000999999997813
100
AcDbArc
 50
37.48149920430768
 51
88.79939538513838
  0
ARC
  5
BDC
330
23
100
AcDbEntity
  8
SANINDUSA
100
AcDbCircle
 10
1381.944228018704
 20
1970.186525055073
 30
0.0
 40
0.0000999999992862
100
AcDbArc
 50
88.7999941453509
 51
140.1178056123507
  0
ARC
  5
BDD
330
23
100
AcDbEntity
  8
SANINDUSA
100
AcDbCircle
 10
1381.959480766135
 20
1970.186205555161
 30
0.0
 40
0.0000999999990129
100
AcDbArc
 50
37.4821919500614
 51
88.80000317555682
  0
ARC
  5
BDE
330
23
100
AcDbEntity
  8
SANINDUSA
100
AcDbCircle
 10
1381.864245077647
 20
1970.188200463625
 30
0.0
 40
0.0000999999992094
100
AcDbArc
 50
88.80000469999178
 51
140.117817496913
  0
ARC
  5
BDF
330
23
100
AcDbEntity
  8
SANINDUSA
100
AcDbCircle
 10
1381.879497824217
 20
1970.187880965383
 30
0.0
 40
0.0000999999990131
100
AcDbArc
 50
37.48219073319046
 51
88.80000430925093
  0
ARC
  5
BE0
330
23
100
AcDbEntity
  8
SANINDUSA
100
AcDbCircle
 10
1381.784262135201
 20
1970.189875866372
 30
0.0
 40
0.000100000097073
100
AcDbArc
 50
88.79999916204102
 51
140.1177439794227
  0
ARC
  5
BE1
330
23
100
AcDbEntity
  8
SANINDUSA
100
AcDbCircle
 10
1381.799514881843
 20
1970.189556366369
 30
0.0
 40
0.0001000001204244
100
AcDbArc
 50
37.48227596686386
 51
88.79999977447452
  0
LINE
  5
BE2
330
23
100
AcDbEntity
  8
SANINDUSA
100
AcDbLine
 10
1382.104277673519
 20
1970.187173388042
 30
0.0
 11
1382.119530417966
 21
1970.186853901791
 31
0.0
  0
LINE
  5
BE3
330
23
100
AcDbEntity
  8
SANINDUSA
100
AcDbLine
 10
1382.184260617959
 20
1970.185498019063
 30
0.0
 11
1382.199513356201
 21
1970.18517849367
 31
0.0
  0
LINE
  5
BE4
330
23
100
AcDbEntity
  8
SANINDUSA
100
AcDbLine
 10
1382.024294731231
 20
1970.18884878495
 30
0.0
 11
1382.039547477391
 21
1970.188529282133
 31
0.0
  0
LINE
  5
BE5
330
23
100
AcDbEntity
  8
SANINDUSA
100
AcDbLine
 10
1381.944311788778
 20
1970.190524177823
 30
0.0
 11
1381.959564535616
 21
1970.190204677932
 31
0.0
  0
LINE
  5
BE6
330
23
100
AcDbEntity
  8
SANINDUSA
100
AcDbLine
 10
1381.864328846984
 20
1970.192199586394
 30
0.0
 11
1381.879581593616
 21
1970.191880088156
 31
0.0
  0
LINE
  5
BE7
330
23
100
AcDbEntity
  8
SANINDUSA
100
AcDbLine
 10
1381.784345905016
 20
1970.193874989113
 30
0.0
 11
1381.799598651646
 21
1970.193555489111
 31
0.0
  0
ARC
  5
BE8
330
23
100
AcDbEntity
  8
SANINDUSA
100
AcDbCircle
 10
1382.425472588528
 20
1970.19941746938
 30
0.0
 40
0.0170000000063374
100
AcDbArc
 50
281.3598322998808
 51
358.0000000092661
  0
ARC
  5
BE9
330
23
100
AcDbEntity
  8
SANINDUSA
100
AcDbCircle
 10
1381.678341343578
 20
1970.208108146164
 30
0.0
 40
0.0070000000000392
100
AcDbArc
 50
3.556132515716592
 51
89.00000000307812
  0
ARC
  5
BEB
330
23
100
AcDbEntity
  8
SANINDUSA
100
AcDbCircle
 10
1381.702300442614
 20
1970.209602313058
 30
0.0
 40
0.0170056445956783
100
AcDbArc
 50
183.5736312807144
 51
268.7825025233002
  0
LINE
  5
BEC
330
23
100
AcDbEntity
  8
SANINDUSA
100
AcDbLine
 10
1382.513464211389
 20
1970.159233775697
 30
0.0
 11
1382.517364805469
 21
1970.159233775697
 31
0.0
  0
LINE
  5
BED
330
23
100
AcDbEntity
  8
SANINDUSA
100
AcDbLine
 10
1382.513464211389
 20
1970.159233775697
 30
0.0
 11
1382.51149084469
 21
1970.272287878156
 31
0.0
  0
ARC
  5
BEE
330
23
100
AcDbEntity
  8
SANINDUSA
100
AcDbCircle
 10
1382.508391316835
 20
1970.272233775697
 30
0.0
 40
0.0031000000000006
100
AcDbArc
 50
0.9999999969218754
 51
90.0
  0
LINE
  5
BEF
330
23
100
AcDbEntity
  8
SANINDUSA
100
AcDbLine
 10
1382.508391316835
 20
1970.275333775697
 30
0.0
 11
1382.452030019046
 21
1970.275333775697
 31
0.0
  0
ARC
  5
BF0
330
23
100
AcDbEntity
  8
SANINDUSA
100
AcDbCircle
 10
1382.452030019046
 20
1970.272233775697
 30
0.0
 40
0.0031000000000006
100
AcDbArc
 50
90.0
 51
177.9999999962464
  0
LINE
  5
BF1
330
23
100
AcDbEntity
  8
SANINDUSA
100
AcDbLine
 10
1382.448931907482
 20
1970.272341964136
 30
0.0
 11
1382.446359856819
 21
1970.198688069902
 31
0.0
  0
ARC
  5
BF2
330
23
100
AcDbEntity
  8
SANINDUSA
100
AcDbCircle
 10
1382.425472588527
 20
1970.199417469379
 30
0.0
 40
0.02090000000774
100
AcDbArc
 50
281.3598322181148
 51
358.0000000092661
  0
LINE
  5
BF3
330
23
100
AcDbEntity
  8
SANINDUSA
100
AcDbLine
 10
1382.398140466799
 20
1970.167650788632
 30
0.0
 11
1382.38696596594
 21
1970.15566760356
 31
0.0
  0
LINE
  5
BF4
330
23
100
AcDbEntity
  8
SANINDUSA
100
AcDbLine
 10
1382.38696596594
 20
1970.15566760356
 30
0.0
 11
1382.283574429415
 21
1970.15566760356
 31
0.0
  0
LINE
  5
BF5
330
23
100
AcDbEntity
  8
SANINDUSA
100
AcDbLine
 10
1382.283574429415
 20
1970.15566760356
 30
0.0
 11
1382.272399928555
 21
1970.167650788632
 31
0.0
  0
ARC
  5
BF6
330
23
100
AcDbEntity
  8
SANINDUSA
100
AcDbCircle
 10
1381.702299391906
 20
1970.209601218224
 30
0.0
 40
0.0209045276240933
100
AcDbArc
 50
183.567551245103
 51
268.7885825446429
  0
ARC
  5
BF7
330
23
100
AcDbEntity
  8
SANINDUSA
100
AcDbCircle
 10
1381.678341343578
 20
1970.208108146164
 30
0.0
 40
0.0031000000000179
100
AcDbArc
 50
3.556132502714125
 51
89.00000000307812
  0
LINE
  5
BF8
330
23
100
AcDbEntity
  8
SANINDUSA
100
AcDbLine
 10
1381.428849552
 20
1970.215563513803
 30
0.0
 11
1381.678395446037
 21
1970.21120767402
 31
0.0
  0
ARC
  5
BF9
330
23
100
AcDbEntity
  8
SANINDUSA
100
AcDbCircle
 10
1381.42879544954
 20
1970.212463985948
 30
0.0
 40
0.0031000000000004
100
AcDbArc
 50
89.00000000307812
 51
154.6842608275599
  0
ARC
  5
BFA
330
23
100
AcDbEntity
  8
SANINDUSA
100
AcDbCircle
 10
1381.413428042497
 20
1970.219733291331
 30
0.0
 40
0.0139000000000001
100
AcDbArc
 50
269.0000000030781
 51
334.6842608275599
  0
LINE
  5
BFB
330
23
100
AcDbEntity
  8
SANINDUSA
100
AcDbLine
 10
1381.413185454048
 20
1970.205835408369
 30
0.0
 11
1381.403743443857
 21
1970.20600021927
 31
0.0
  0
ARC
  5
BFC
330
23
100
AcDbEntity
  8
SANINDUSA
100
AcDbCircle
 10
1381.404108199152
 20
1970.226897036098
 30
0.0
 40
0.0209
100
AcDbArc
 50
182.0000000037536
 51
269.0000000030781
  0
LINE
  5
BFD
330
23
100
AcDbEntity
  8
SANINDUSA
100
AcDbLine
 10
1381.383220930867
 20
1970.226167636617
 30
0.0
 11
1381.38160848782
 21
1970.272341964136
 31
0.0
  0
ARC
  5
BFE
330
23
100
AcDbEntity
  8
SANINDUSA
100
AcDbCircle
 10
1381.378510376256
 20
1970.272233775697
 30
0.0
 40
0.0031000000000006
100
AcDbArc
 50
2.000000003753602
 51
90.0
  0
LINE
  5
BFF
330
23
100
AcDbEntity
  8
SANINDUSA
100
AcDbLine
 10
1381.378510376256
 20
1970.275333775697
 30
0.0
 11
1381.322149078519
 21
1970.275333775697
 31
0.0
  0
ARC
  5
C00
330
23
100
AcDbEntity
  8
SANINDUSA
100
AcDbCircle
 10
1381.322149078519
 20
1970.272233775697
 30
0.0
 40
0.0031000000000006
100
AcDbArc
 50
90.0
 51
179.0000000030781
  0
LINE
  5
C01
330
23
100
AcDbEntity
  8
SANINDUSA
100
AcDbLine
 10
1381.319049550664
 20
1970.272287878156
 30
0.0
 11
1381.317076183965
 21
1970.159233775697
 31
0.0
  0
LINE
  5
C02
330
23
100
AcDbEntity
  8
SANINDUSA
100
AcDbLine
 10
1381.313175589886
 20
1970.159233775697
 30
0.0
 11
1381.317076183965
 21
1970.159233775697
 31
0.0
  0
LINE
  5
C03
330
23
100
AcDbEntity
  8
SANINDUSA
100
AcDbLine
 10
1381.315150144653
 20
1970.272355942542
 30
0.0
 11
1381.313175589886
 21
1970.159233775697
 31
0.0
  0
ARC
  5
C04
330
23
100
AcDbEntity
  8
SANINDUSA
100
AcDbCircle
 10
1381.322149078519
 20
1970.272233775697
 30
0.0
 40
0.0070000000000005
100
AcDbArc
 50
90.0
 51
179.0000000030781
  0
LINE
  5
C05
330
23
100
AcDbEntity
  8
SANINDUSA
100
AcDbLine
 10
1381.378510376256
 20
1970.279233775697
 30
0.0
 11
1381.322149078519
 21
1970.279233775697
 31
0.0
  0
ARC
  5
C06
330
23
100
AcDbEntity
  8
SANINDUSA
100
AcDbCircle
 10
1381.378510376256
 20
1970.272233775697
 30
0.0
 40
0.0070000000000005
100
AcDbArc
 50
2.000000003753602
 51
90.0
  0
LINE
  5
C07
330
23
100
AcDbEntity
  8
SANINDUSA
100
AcDbLine
 10
1381.387118555093
 20
1970.226303744654
 30
0.0
 11
1381.385506112045
 21
1970.272478072173
 31
0.0
  0
ARC
  5
C08
330
23
100
AcDbEntity
  8
SANINDUSA
100
AcDbCircle
 10
1381.404108199152
 20
1970.226897036098
 30
0.0
 40
0.017
100
AcDbArc
 50
182.0000000037536
 51
269.0000000030781
  0
LINE
  5
C09
330
23
100
AcDbEntity
  8
SANINDUSA
100
AcDbLine
 10
1381.413253518433
 20
1970.20973481438
 30
0.0
 11
1381.403811508243
 21
1970.209899625281
 31
0.0
  0
ARC
  5
C0A
330
23
100
AcDbEntity
  8
SANINDUSA
100
AcDbCircle
 10
1381.413428042497
 20
1970.219733291331
 30
0.0
 40
0.0099999999999997
100
AcDbArc
 50
269.0000000030781
 51
334.6842608275599
  0
ARC
  5
C0B
330
23
100
AcDbEntity
  8
SANINDUSA
100
AcDbCircle
 10
1381.42879544954
 20
1970.212463985948
 30
0.0
 40
0.0070000000000003
100
AcDbArc
 50
89.00000000307812
 51
154.6842608275599
  0
LINE
  5
C0C
330
23
100
AcDbEntity
  8
SANINDUSA
100
AcDbLine
 10
1381.428917616386
 20
1970.219462919814
 30
0.0
 11
1381.678463510423
 21
1970.215107080031
 31
0.0
  0
LINE
  5
C0D
330
23
100
AcDbEntity
  8
SANINDUSA
100
AcDbLine
 10
1382.285270197677
 20
1970.15956760356
 30
0.0
 11
1382.274972652419
 21
1970.170610368885
 31
0.0
  0
LINE
  5
C0E
330
23
100
AcDbEntity
  8
SANINDUSA
100
AcDbLine
 10
1382.385270197677
 20
1970.15956760356
 30
0.0
 11
1382.285270197677
 21
1970.15956760356
 31
0.0
  0
LINE
  5
C0F
330
23
100
AcDbEntity
  8
SANINDUSA
100
AcDbLine
 10
1382.395567742935
 20
1970.170610368885
 30
0.0
 11
1382.385270197677
 21
1970.15956760356
 31
0.0
  0
ARC
  5
C10
330
23
100
AcDbEntity
  8
SANINDUSA
100
AcDbCircle
 10
1382.452030019046
 20
1970.272233775697
 30
0.0
 40
0.0070000000000005
100
AcDbArc
 50
90.0
 51
177.9999999962464
  0
LINE
  5
C11
330
23
100
AcDbEntity
  8
SANINDUSA
100
AcDbLine
 10
1382.508391316835
 20
1970.279233775697
 30
0.0
 11
1382.452030019046
 21
1970.279233775697
 31
0.0
  0
ARC
  5
C12
330
23
100
AcDbEntity
  8
SANINDUSA
100
AcDbCircle
 10
1382.508391316835
 20
1970.272233775697
 30
0.0
 40
0.0070000000000005
100
AcDbArc
 50
0.9999999969218754
 51
90.0
  0
LINE
  5
C13
330
23
100
AcDbEntity
  8
SANINDUSA
100
AcDbLine
 10
1382.517364805468
 20
1970.159233775697
 30
0.0
 11
1382.515390250701
 21
1970.272355942542
 31
0.0
  0
LINE
  5
C14
330
23
100
AcDbEntity
  8
SANINDUSA
100
AcDbLine
 10
1382.445034283257
 20
1970.272478072173
 30
0.0
 11
1382.442462232594
 21
1970.198824177939
 31
0.0
  0
LINE
  5
C15
330
23
100
AcDbEntity
  8
SANINDUSA
100
AcDbLine
 10
1381.784264229447
 20
1970.18997584444
 30
0.0
 11
1381.799516976087
 21
1970.189656344437
 31
0.0
  0
LINE
  5
C16
330
23
100
AcDbEntity
  8
SANINDUSA
100
AcDbLine
 10
1381.864247171881
 20
1970.188300441693
 30
0.0
 11
1381.879499918451
 21
1970.18798094345
 31
0.0
  0
LINE
  5
C17
330
23
100
AcDbEntity
  8
SANINDUSA
100
AcDbLine
 10
1381.944230112956
 20
1970.18662503314
 30
0.0
 11
1381.959482860372
 21
1970.186305533229
 31
0.0
  0
LINE
  5
C18
330
23
100
AcDbEntity
  8
SANINDUSA
100
AcDbLine
 10
1382.184178956362
 20
1970.181598874104
 30
0.0
 11
1382.199431639639
 21
1970.18127934982
 31
0.0
  0
LINE
  5
C19
330
23
100
AcDbEntity
  8
SANINDUSA
100
AcDbLine
 10
1382.024213055569
 20
1970.184949640233
 30
0.0
 11
1382.039465800505
 21
1970.184630137468
 31
0.0
  0
LINE
  5
C1A
330
23
100
AcDbEntity
  8
SANINDUSA
100
AcDbLine
 10
1382.10419600557
 20
1970.183274243112
 30
0.0
 11
1382.11944874058
 21
1970.182954756932
 31
0.0
  0
LINE
  5
C3A
330
23
100
AcDbEntity
  8
SANINDUSA
100
AcDbLine
 10
1381.413185454048
 20
1970.205835408369
 30
0.0
 11
1381.433182407951
 21
1970.20548636024
 31
0.0
  0
ARC
  5
C3F
330
23
100
AcDbEntity
  8
SANINDUSA
100
AcDbCircle
 10
1381.701425981838
 20
1970.23902691711
 30
0.0
 40
0.0490120451997969
100
AcDbArc
 50
237.7036501331232
 51
260.6106631380318
  0
LINE
  5
C45
330
23
100
AcDbEntity
  8
SANINDUSA
100
AcDbLine
 10
1381.673400384177
 20
1970.198637432785
 30
0.0
 11
1381.675240656696
 21
1970.197601224094
 31
0.0
  0
LWPOLYLINE
  5
C46
330
23
100
AcDbEntity
  8
SANINDUSA
100
AcDbPolyline
 90
        3
 70
   128
 43
0.0
 10
1381.661977972161
 20
1970.201492718811
 10
1381.666267672626
 20
1970.201061708277
 10
1381.670544413214
 20
1970.199887795198
  0
LINE
  5
C48
330
23
100
AcDbEntity
  8
SANINDUSA
100
AcDbLine
 10
1381.670544413214
 20
1970.199887795198
 30
0.0
 11
1381.673400384177
 21
1970.198637432785
 31
0.0
  0
LINE
  5
C49
330
23
100
AcDbEntity
  8
SANINDUSA
100
AcDbLine
 10
1381.433182407951
 20
1970.20548636024
 30
0.0
 11
1381.661977972161
 21
1970.201492718811
 31
0.0
  0
LINE
  5
C56
330
23
100
AcDbEntity
  8
SANINDUSA
100
AcDbLine
 10
1382.425046466716
 20
1970.279233775697
 30
0.0
 11
1382.452030019046
 21
1970.279233775697
 31
0.0
  0
LINE
  5
C58
330
23
100
AcDbEntity
  8
SANINDUSA
100
AcDbLine
 10
1381.378510376256
 20
1970.279233775697
 30
0.0
 11
1381.405493928585
 21
1970.279233775697
 31
0.0
  0
LINE
  5
C59
330
23
100
AcDbEntity
  8
SANINDUSA
100
AcDbLine
 10
1381.405493928585
 20
1970.279233775697
 30
0.0
 11
1382.425046466716
 21
1970.279233775697
 31
0.0
  0
LINE
  5
C62
330
23
100
AcDbEntity
  8
SANINDUSA
100
AcDbLine
 10
1382.513464211389
 20
1970.159233775697
 30
0.0
 11
1382.390291475257
 21
1970.159233775697
 31
0.0
  0
LINE
  5
C63
330
23
100
AcDbEntity
  8
SANINDUSA
100
AcDbLine
 10
1382.280248920098
 20
1970.159233775697
 30
0.0
 11
1381.317076183965
 21
1970.159233775697
 31
0.0
  0
LINE
  5
6900
330
23
100
AcDbEntity
  8
SANINDUSA
100
AcDbLine
 10
1382.259054941825
 20
1970.180930615459
 30
0.0
 11
1382.411491541757
 21
1970.180913496128
 31
0.0
  0
ENDSEC
  0
SECTION
  2
OBJECTS
  0
DICTIONARY
  5
C
330
0
100
AcDbDictionary
281
     1
  3
ACAD_COLOR
350
1C
  3
ACAD_GROUP
350
D
  3
ACAD_LAYOUT
350
1A
  3
ACAD_MATERIAL
350
1B
  3
ACAD_MLINESTYLE
350
17
  3
ACAD_PLOTSETTINGS
350
19
  3
ACAD_PLOTSTYLENAME
350
E
  3
ACAD_TABLESTYLE
350
1D
  3
ACDBHEADERROUNDTRIPXREC
350
692D
  3
AcDbVariableDictionary
350
6902
  0
DICTIONARY
  5
2EC
330
2EB
100
AcDbDictionary
280
     1
281
     1
  3
ADSK_XREC_LAYER_RECONCILED
360
2ED
  0
DICTIONARY
  5
2EF
330
2EE
100
AcDbDictionary
280
     1
281
     1
  3
ADSK_XREC_LAYER_RECONCILED
360
2F0
  0
DICTIONARY
  5
2F2
330
2F1
100
AcDbDictionary
280
     1
281
     1
  3
ADSK_XREC_LAYER_RECONCILED
360
2F3
  0
DICTIONARY
  5
2F5
330
2F4
100
AcDbDictionary
280
     1
281
     1
  3
ADSK_XREC_LAYER_RECONCILED
360
2F6
  0
DICTIONARY
  5
2F9
330
2F8
100
AcDbDictionary
280
     1
281
     1
  3
ADSK_XREC_LAYER_RECONCILED
360
2FA
  0
DICTIONARY
  5
2FC
330
2FB
100
AcDbDictionary
280
     1
281
     1
  3
ADSK_XREC_LAYER_RECONCILED
360
2FD
  0
DICTIONARY
  5
1C
102
{ACAD_REACTORS
330
C
102
}
330
C
100
AcDbDictionary
281
     1
  0
DICTIONARY
  5
D
102
{ACAD_REACTORS
330
C
102
}
330
C
100
AcDbDictionary
281
     1
  0
DICTIONARY
  5
1A
102
{ACAD_REACTORS
330
C
102
}
330
C
100
AcDbDictionary
281
     1
  3
Layout1
350
22
  3
Layout2
350
2A
  3
Model
350
26
  0
DICTIONARY
  5
1B
102
{ACAD_REACTORS
330
C
102
}
330
C
100
AcDbDictionary
281
     1
  0
DICTIONARY
  5
17
102
{ACAD_REACTORS
330
C
102
}
330
C
100
AcDbDictionary
281
     1
  3
Standard
350
18
  0
DICTIONARY
  5
19
102
{ACAD_REACTORS
330
C
102
}
330
C
100
AcDbDictionary
281
     1
  0
ACDBDICTIONARYWDFLT
  5
E
102
{ACAD_REACTORS
330
C
102
}
330
C
100
AcDbDictionary
281
     1
  3
Normal
350
F
100
AcDbDictionaryWithDefault
340
F
  0
DICTIONARY
  5
1D
102
{ACAD_REACTORS
330
C
102
}
330
C
100
AcDbDictionary
281
     1
  3
Standard
350
1E
  0
DICTIONARY
  5
692D
102
{ACAD_REACTORS
330
C
102
}
330
C
100
AcDbDictionary
281
     1
  0
DICTIONARY
  5
6902
102
{ACAD_REACTORS
330
C
102
}
330
C
100
AcDbDictionary
281
     1
  3
CTABLESTYLE
350
6903
  3
DIMASSOC
350
690D
  3
HIDETEXT
350
690C
  3
PROJECTNAME
350
690E
  0
XRECORD
  5
2ED
102
{ACAD_REACTORS
330
2EC
102
}
330
2EC
100
AcDbXrecord
280
     1
290
     1
  0
XRECORD
  5
2F0
102
{ACAD_REACTORS
330
2EF
102
}
330
2EF
100
AcDbXrecord
280
     1
290
     1
  0
XRECORD
  5
2F3
102
{ACAD_REACTORS
330
2F2
102
}
330
2F2
100
AcDbXrecord
280
     1
290
     1
  0
XRECORD
  5
2F6
102
{ACAD_REACTORS
330
2F5
102
}
330
2F5
100
AcDbXrecord
280
     1
290
     1
  0
XRECORD
  5
2FA
102
{ACAD_REACTORS
330
2F9
102
}
330
2F9
100
AcDbXrecord
280
     1
290
     1
  0
XRECORD
  5
2FD
102
{ACAD_REACTORS
330
2FC
102
}
330
2FC
100
AcDbXrecord
280
     1
290
     1
  0
LAYOUT
  5
22
102
{ACAD_XDICTIONARY
360
692E
102
}
102
{ACAD_REACTORS
330
1A
102
}
330
1A
100
AcDbPlotSettings
  1

  2
C:\Documents and Settings\Julio\Application Data\Autodesk\AutoCAD 2006\R16.2\enu\plotters\Default Windows System Printer.pc3
  4

  6

 40
0.0
 41
0.0
 42
0.0
 43
0.0
 44
0.0
 45
0.0
 46
0.0
 47
0.0
 48
0.0
 49
0.0
140
0.0
141
0.0
142
1.0
143
1.0
 70
   688
 72
     0
 73
     0
 74
     5
  7

 75
    16
147
1.0
148
0.0
149
0.0
100
AcDbLayout
  1
Layout1
 70
     1
 71
     1
 10
0.0
 20
0.0
 11
420.0
 21
297.0
 12
0.0
 22
0.0
 32
0.0
 14
1.000000000000000E+20
 24
1.000000000000000E+20
 34
1.000000000000000E+20
 15
-1.000000000000000E+20
 25
-1.000000000000000E+20
 35
-1.000000000000000E+20
146
0.0
 13
0.0
 23
0.0
 33
0.0
 16
1.0
 26
0.0
 36
0.0
 17
0.0
 27
1.0
 37
0.0
 76
     0
330
1F
  0
LAYOUT
  5
2A
102
{ACAD_XDICTIONARY
360
6932
102
}
102
{ACAD_REACTORS
330
1A
102
}
330
1A
100
AcDbPlotSettings
  1

  2
C:\Documents and Settings\Julio\Application Data\Autodesk\AutoCAD 2006\R16.2\enu\plotters\Default Windows System Printer.pc3
  4

  6

 40
0.0
 41
0.0
 42
0.0
 43
0.0
 44
0.0
 45
0.0
 46
0.0
 47
0.0
 48
0.0
 49
0.0
140
0.0
141
0.0
142
1.0
143
1.0
 70
   688
 72
     0
 73
     0
 74
     5
  7

 75
    16
147
1.0
148
0.0
149
0.0
100
AcDbLayout
  1
Layout2
 70
     1
 71
     2
 10
0.0
 20
0.0
 11
12.0
 21
9.0
 12
0.0
 22
0.0
 32
0.0
 14
0.0
 24
0.0
 34
0.0
 15
0.0
 25
0.0
 35
0.0
146
0.0
 13
0.0
 23
0.0
 33
0.0
 16
1.0
 26
0.0
 36
0.0
 17
0.0
 27
1.0
 37
0.0
 76
     0
330
27
  0
LAYOUT
  5
26
102
{ACAD_XDICTIONARY
360
6930
102
}
102
{ACAD_REACTORS
330
1A
102
}
330
1A
100
AcDbPlotSettings
  1

  2
C:\Documents and Settings\Julio\Application Data\Autodesk\AutoCAD 2006\R16.2\enu\plotters\Default Windows System Printer.pc3
  4

  6

 40
0.0
 41
0.0
 42
0.0
 43
0.0
 44
0.0
 45
0.0
 46
0.0
 47
0.0
 48
0.0
 49
0.0
140
0.0
141
0.0
142
1.0
143
1.0
 70
  1712
 72
     0
 73
     0
 74
     0
  7

 75
     0
147
1.0
148
0.0
149
0.0
100
AcDbLayout
  1
Model
 70
     1
 71
     0
 10
0.0
 20
0.0
 11
12.0
 21
9.0
 12
0.0
 22
0.0
 32
0.0
 14
0.0
 24
0.0
 34
0.0
 15
0.0
 25
0.0
 35
0.0
146
0.0
 13
0.0
 23
0.0
 33
0.0
 16
1.0
 26
0.0
 36
0.0
 17
0.0
 27
1.0
 37
0.0
 76
     0
330
23
  0
MLINESTYLE
  5
18
102
{ACAD_REACTORS
330
17
102
}
330
17
100
AcDbMlineStyle
  2
STANDARD
 70
     0
  3

 62
   256
 51
90.0
 52
90.0
 71
     2
 49
0.5
 62
   256
  6
BYLAYER
 49
-0.5
 62
   256
  6
BYLAYER
  0
ACDBPLACEHOLDER
  5
F
102
{ACAD_REACTORS
330
E
102
}
330
E
  0
TABLESTYLE
  5
1E
102
{ACAD_REACTORS
330
1D
102
}
330
1D
100
AcDbTableStyle
  3
Standard
 70
     0
 71
     0
 40
1.5
 41
1.5
280
     0
281
     0
  7
Standard
140
4.5
170
     2
 62
     0
 63
     7
283
     0
274
    -2
284
     1
 64
     0
275
    -2
285
     1
 65
     0
276
    -2
286
     1
 66
     0
277
    -2
287
     1
 67
     0
278
    -2
288
     1
 68
     0
279
    -2
289
     1
 69
     0
  7
Standard
140
6.0
170
     5
 62
     0
 63
     7
283
     0
274
    -2
284
     1
 64
     0
275
    -2
285
     1
 65
     0
276
    -2
286
     1
 66
     0
277
    -2
287
     1
 67
     0
278
    -2
288
     1
 68
     0
279
    -2
289
     1
 69
     0
  7
Standard
140
4.5
170
     5
 62
     0
 63
     7
283
     0
274
    -2
284
     1
 64
     0
275
    -2
285
     1
 65
     0
276
    -2
286
     1
 66
     0
277
    -2
287
     1
 67
     0
278
    -2
288
     1
 68
     0
279
    -2
289
     1
 69
     0
  0
DICTIONARYVAR
  5
6903
102
{ACAD_REACTORS
330
6902
102
}
330
6902
100
DictionaryVariables
280
     0
  1
STANDARD
  0
DICTIONARYVAR
  5
690D
102
{ACAD_REACTORS
330
6902
102
}
330
6902
100
DictionaryVariables
280
     0
  1
2
  0
DICTIONARYVAR
  5
690C
102
{ACAD_REACTORS
330
6902
102
}
330
6902
100
DictionaryVariables
280
     0
  1
1
  0
DICTIONARYVAR
  5
690E
102
{ACAD_REACTORS
330
6902
102
}
330
6902
100
DictionaryVariables
280
     0
  1

  0
DICTIONARY
  5
692E
330
22
100
AcDbDictionary
280
     1
281
     1
  3
ACAD_XREC_ROUNDTRIP
360
692F
  0
DICTIONARY
  5
6932
330
2A
100
AcDbDictionary
280
     1
281
     1
  3
ACAD_XREC_ROUNDTRIP
360
6933
  0
DICTIONARY
  5
6930
330
26
100
AcDbDictionary
280
     1
281
     1
  3
ACAD_XREC_ROUNDTRIP
360
6931
  0
XRECORD
  5
692F
102
{ACAD_REACTORS
330
692E
102
}
330
692E
100
AcDbXrecord
280
     1
102
SHADEPLOT
 70
     0
102
SHADEPLOTRESLEVEL
 70
     2
102
SHADEPLOTCUSTOMDPI
 70
   300
  0
XRECORD
  5
6933
102
{ACAD_REACTORS
330
6932
102
}
330
6932
100
AcDbXrecord
280
     1
102
SHADEPLOT
 70
     0
102
SHADEPLOTRESLEVEL
 70
     2
102
SHADEPLOTCUSTOMDPI
 70
   300
  0
XRECORD
  5
6931
102
{ACAD_REACTORS
330
6930
102
}
330
6930
100
AcDbXrecord
280
     1
102
SHADEPLOT
 70
     0
102
SHADEPLOTRESLEVEL
 70
     2
102
SHADEPLOTCUSTOMDPI
 70
   300
  0
ENDSEC
  0
EOF
