  0
SECTION
  2
HEADER
  9
$ACADVER
  1
AC1015
  9
$ACADMAINTVER
 70
    20
  9
$DWGCODEPAGE
  3
ANSI_1252
  9
$INSBASE
 10
0.0
 20
0.0
 30
0.0
  9
$EXTMIN
 10
2052.556682352836
 20
1697.678792987639
 30
0.0
  9
$EXTMAX
 10
2059.274425976498
 20
1698.579033093687
 30
0.0
  9
$LIMMIN
 10
0.0
 20
0.0
  9
$LIMMAX
 10
420.0
 20
297.0
  9
$ORTHOMODE
 70
     0
  9
$REGENMODE
 70
     1
  9
$FILLMODE
 70
     1
  9
$QTEXTMODE
 70
     0
  9
$MIRRTEXT
 70
     0
  9
$LTSCALE
 40
1.0
  9
$ATTMODE
 70
     1
  9
$TEXTSIZE
 40
2.5
  9
$TRACEWID
 40
1.0
  9
$TEXTSTYLE
  7
Standard
  9
$CLAYER
  8
0
  9
$CELTYPE
  6
ByLayer
  9
$CECOLOR
 62
   256
  9
$CELTSCALE
 40
1.0
  9
$DISPSILH
 70
     0
  9
$DIMSCALE
 40
1.0
  9
$DIMASZ
 40
2.5
  9
$DIMEXO
 40
0.625
  9
$DIMDLI
 40
3.75
  9
$DIMRND
 40
0.0
  9
$DIMDLE
 40
0.0
  9
$DIMEXE
 40
1.25
  9
$DIMTP
 40
0.0
  9
$DIMTM
 40
0.0
  9
$DIMTXT
 40
2.5
  9
$DIMCEN
 40
2.5
  9
$DIMTSZ
 40
0.0
  9
$DIMTOL
 70
     0
  9
$DIMLIM
 70
     0
  9
$DIMTIH
 70
     0
  9
$DIMTOH
 70
     0
  9
$DIMSE1
 70
     0
  9
$DIMSE2
 70
     0
  9
$DIMTAD
 70
     1
  9
$DIMZIN
 70
     8
  9
$DIMBLK
  1

  9
$DIMASO
 70
     1
  9
$DIMSHO
 70
     1
  9
$DIMPOST
  1

  9
$DIMAPOST
  1

  9
$DIMALT
 70
     0
  9
$DIMALTD
 70
     3
  9
$DIMALTF
 40
0.03937007874016
  9
$DIMLFAC
 40
1.0
  9
$DIMTOFL
 70
     1
  9
$DIMTVP
 40
0.0
  9
$DIMTIX
 70
     0
  9
$DIMSOXD
 70
     0
  9
$DIMSAH
 70
     0
  9
$DIMBLK1
  1

  9
$DIMBLK2
  1

  9
$DIMSTYLE
  2
ISO-25
  9
$DIMCLRD
 70
     0
  9
$DIMCLRE
 70
     0
  9
$DIMCLRT
 70
     0
  9
$DIMTFAC
 40
1.0
  9
$DIMGAP
 40
0.625
  9
$DIMJUST
 70
     0
  9
$DIMSD1
 70
     0
  9
$DIMSD2
 70
     0
  9
$DIMTOLJ
 70
     0
  9
$DIMTZIN
 70
     8
  9
$DIMALTZ
 70
     0
  9
$DIMALTTZ
 70
     0
  9
$DIMUPT
 70
     0
  9
$DIMDEC
 70
     2
  9
$DIMTDEC
 70
     2
  9
$DIMALTU
 70
     2
  9
$DIMALTTD
 70
     3
  9
$DIMTXSTY
  7
Standard
  9
$DIMAUNIT
 70
     0
  9
$DIMADEC
 70
     0
  9
$DIMALTRND
 40
0.0
  9
$DIMAZIN
 70
     0
  9
$DIMDSEP
 70
    44
  9
$DIMATFIT
 70
     3
  9
$DIMFRAC
 70
     0
  9
$DIMLDRBLK
  1

  9
$DIMLUNIT
 70
     2
  9
$DIMLWD
 70
    -2
  9
$DIMLWE
 70
    -2
  9
$DIMTMOVE
 70
     0
  9
$LUNITS
 70
     2
  9
$LUPREC
 70
     4
  9
$SKETCHINC
 40
1.0
  9
$FILLETRAD
 40
0.0
  9
$AUNITS
 70
     0
  9
$AUPREC
 70
     0
  9
$MENU
  1
.
  9
$ELEVATION
 40
0.0
  9
$PELEVATION
 40
0.0
  9
$THICKNESS
 40
0.0
  9
$LIMCHECK
 70
     0
  9
$CHAMFERA
 40
0.0
  9
$CHAMFERB
 40
0.0
  9
$CHAMFERC
 40
0.0
  9
$CHAMFERD
 40
0.0
  9
$SKPOLY
 70
     0
  9
$TDCREATE
 40
2454930.726617106
  9
$TDUCREATE
 40
2454930.684950440
  9
$TDUPDATE
 40
2454930.730024595
  9
$TDUUPDATE
 40
2454930.688357928
  9
$TDINDWG
 40
0.0034078472
  9
$TDUSRTIMER
 40
0.0034078472
  9
$USRTIMER
 70
     1
  9
$ANGBASE
 50
0.0
  9
$ANGDIR
 70
     0
  9
$PDMODE
 70
     0
  9
$PDSIZE
 40
0.0
  9
$PLINEWID
 40
0.0
  9
$SPLFRAME
 70
     0
  9
$SPLINETYPE
 70
     6
  9
$SPLINESEGS
 70
     8
  9
$HANDSEED
  5
9F6A
  9
$SURFTAB1
 70
     6
  9
$SURFTAB2
 70
     6
  9
$SURFTYPE
 70
     6
  9
$SURFU
 70
     6
  9
$SURFV
 70
     6
  9
$UCSBASE
  2

  9
$UCSNAME
  2

  9
$UCSORG
 10
0.0
 20
0.0
 30
0.0
  9
$UCSXDIR
 10
1.0
 20
0.0
 30
0.0
  9
$UCSYDIR
 10
0.0
 20
1.0
 30
0.0
  9
$UCSORTHOREF
  2

  9
$UCSORTHOVIEW
 70
     0
  9
$UCSORGTOP
 10
0.0
 20
0.0
 30
0.0
  9
$UCSORGBOTTOM
 10
0.0
 20
0.0
 30
0.0
  9
$UCSORGLEFT
 10
0.0
 20
0.0
 30
0.0
  9
$UCSORGRIGHT
 10
0.0
 20
0.0
 30
0.0
  9
$UCSORGFRONT
 10
0.0
 20
0.0
 30
0.0
  9
$UCSORGBACK
 10
0.0
 20
0.0
 30
0.0
  9
$PUCSBASE
  2

  9
$PUCSNAME
  2

  9
$PUCSORG
 10
0.0
 20
0.0
 30
0.0
  9
$PUCSXDIR
 10
1.0
 20
0.0
 30
0.0
  9
$PUCSYDIR
 10
0.0
 20
1.0
 30
0.0
  9
$PUCSORTHOREF
  2

  9
$PUCSORTHOVIEW
 70
     0
  9
$PUCSORGTOP
 10
0.0
 20
0.0
 30
0.0
  9
$PUCSORGBOTTOM
 10
0.0
 20
0.0
 30
0.0
  9
$PUCSORGLEFT
 10
0.0
 20
0.0
 30
0.0
  9
$PUCSORGRIGHT
 10
0.0
 20
0.0
 30
0.0
  9
$PUCSORGFRONT
 10
0.0
 20
0.0
 30
0.0
  9
$PUCSORGBACK
 10
0.0
 20
0.0
 30
0.0
  9
$USERI1
 70
     0
  9
$USERI2
 70
     0
  9
$USERI3
 70
     0
  9
$USERI4
 70
     0
  9
$USERI5
 70
     0
  9
$USERR1
 40
0.0
  9
$USERR2
 40
0.0
  9
$USERR3
 40
0.0
  9
$USERR4
 40
0.0
  9
$USERR5
 40
0.0
  9
$WORLDVIEW
 70
     1
  9
$SHADEDGE
 70
     3
  9
$SHADEDIF
 70
    70
  9
$TILEMODE
 70
     1
  9
$MAXACTVP
 70
    64
  9
$PINSBASE
 10
0.0
 20
0.0
 30
0.0
  9
$PLIMCHECK
 70
     0
  9
$PEXTMIN
 10
1.000000000000000E+20
 20
1.000000000000000E+20
 30
1.000000000000000E+20
  9
$PEXTMAX
 10
-1.000000000000000E+20
 20
-1.000000000000000E+20
 30
-1.000000000000000E+20
  9
$PLIMMIN
 10
0.0
 20
0.0
  9
$PLIMMAX
 10
420.0
 20
297.0
  9
$UNITMODE
 70
     0
  9
$VISRETAIN
 70
     1
  9
$PLINEGEN
 70
     0
  9
$PSLTSCALE
 70
     1
  9
$TREEDEPTH
 70
  3020
  9
$CMLSTYLE
  2
Standard
  9
$CMLJUST
 70
     0
  9
$CMLSCALE
 40
20.0
  9
$PROXYGRAPHICS
 70
     1
  9
$MEASUREMENT
 70
     1
  9
$CELWEIGHT
370
    -1
  9
$ENDCAPS
280
     0
  9
$JOINSTYLE
280
     0
  9
$LWDISPLAY
290
     0
  9
$INSUNITS
 70
     4
  9
$HYPERLINKBASE
  1

  9
$STYLESHEET
  1

  9
$XEDIT
290
     1
  9
$CEPSNTYPE
380
     0
  9
$PSTYLEMODE
290
     1
  9
$FINGERPRINTGUID
  2
{CB67EB74-C9C9-4A55-92A3-BEFCC51BCD8D}
  9
$VERSIONGUID
  2
{8D8B89BE-E96F-47D9-B8C0-4768A116D600}
  9
$EXTNAMES
290
     1
  9
$PSVPSCALE
 40
0.0
  9
$OLESTARTUP
290
     0
  0
ENDSEC
  0
SECTION
  2
CLASSES
  0
CLASS
  1
ACDBDICTIONARYWDFLT
  2
AcDbDictionaryWithDefault
  3
ObjectDBX Classes
 90
        0
280
     0
281
     0
  0
CLASS
  1
TABLESTYLE
  2
AcDbTableStyle
  3
ObjectDBX Classes
 90
     2047
280
     0
281
     0
  0
CLASS
  1
DIMASSOC
  2
AcDbDimAssoc
  3
"AcDbDimAssoc|Product Desc:     AcDim ARX App For Dimension|Company:          Autodesk, Inc.|WEB Address:      www.autodesk.com"
 90
        0
280
     0
281
     0
  0
CLASS
  1
SORTENTSTABLE
  2
AcDbSortentsTable
  3
ObjectDBX Classes
 90
        0
280
     0
281
     0
  0
CLASS
  1
DICTIONARYVAR
  2
AcDbDictionaryVar
  3
ObjectDBX Classes
 90
        0
280
     0
281
     0
  0
CLASS
  1
ACDBPLACEHOLDER
  2
AcDbPlaceHolder
  3
ObjectDBX Classes
 90
        0
280
     0
281
     0
  0
CLASS
  1
LAYOUT
  2
AcDbLayout
  3
ObjectDBX Classes
 90
        0
280
     0
281
     0
  0
ENDSEC
  0
SECTION
  2
TABLES
  0
TABLE
  2
VPORT
  5
8
330
0
100
AcDbSymbolTable
 70
     9
  0
VPORT
  5
9F62
330
8
100
AcDbSymbolTableRecord
100
AcDbViewportTableRecord
  2
*Active
 70
     0
 10
0.0
 20
0.0
 11
1.0
 21
1.0
 12
2055.915554164667
 22
1698.128913040663
 13
0.0
 23
0.0
 14
10.0
 24
10.0
 15
10.0
 25
10.0
 16
0.0
 26
0.0
 36
1.0
 17
0.0
 27
0.0
 37
0.0
 40
4.209196174024519
 41
1.602030456852791
 42
50.0
 43
0.0
 44
0.0
 50
0.0
 51
0.0
 71
     0
 72
  1000
 73
     1
 74
     3
 75
     0
 76
     0
 77
     0
 78
     0
281
     0
 65
     1
110
0.0
120
0.0
130
0.0
111
1.0
121
0.0
131
0.0
112
0.0
122
1.0
132
0.0
 79
     0
146
0.0
  0
ENDTAB
  0
TABLE
  2
LTYPE
  5
5
330
0
100
AcDbSymbolTable
 70
     3
  0
LTYPE
  5
14
330
5
100
AcDbSymbolTableRecord
100
AcDbLinetypeTableRecord
  2
ByBlock
 70
     0
  3

 72
    65
 73
     0
 40
0.0
  0
LTYPE
  5
15
330
5
100
AcDbSymbolTableRecord
100
AcDbLinetypeTableRecord
  2
ByLayer
 70
     0
  3

 72
    65
 73
     0
 40
0.0
  0
LTYPE
  5
16
330
5
100
AcDbSymbolTableRecord
100
AcDbLinetypeTableRecord
  2
Continuous
 70
     0
  3
Solid line
 72
    65
 73
     0
 40
0.0
  0
LTYPE
  5
2FA
330
5
100
AcDbSymbolTableRecord
100
AcDbLinetypeTableRecord
  2
DASHDOT
 70
     0
  3
Dash dot __ . __ . __ . __ . __ . __ . __ . __
 72
    65
 73
     4
 40
25.4
 49
12.7
 74
     0
 49
-6.349999999999999
 74
     0
 49
0.0
 74
     0
 49
-6.349999999999999
 74
     0
  0
LTYPE
  5
2FB
330
5
100
AcDbSymbolTableRecord
100
AcDbLinetypeTableRecord
  2
HIDDEN
 70
     0
  3
Hidden __ __ __ __ __ __ __ __ __ __ __ __ __ _
 72
    65
 73
     2
 40
9.524999999999998
 49
6.349999999999999
 74
     0
 49
-3.174999999999999
 74
     0
  0
ENDTAB
  0
TABLE
  2
LAYER
  5
2
102
{ACAD_XDICTIONARY
360
30B
102
}
330
0
100
AcDbSymbolTable
 70
     9
  0
LAYER
  5
10
330
2
100
AcDbSymbolTableRecord
100
AcDbLayerTableRecord
  2
0
 70
     0
 62
     7
  6
Continuous
370
    -3
390
F
  0
LAYER
  5
2FC
330
2
100
AcDbSymbolTableRecord
100
AcDbLayerTableRecord
  2
1
 70
     0
 62
     1
  6
Continuous
370
    -3
390
F
  0
LAYER
  5
2FD
330
2
100
AcDbSymbolTableRecord
100
AcDbLayerTableRecord
  2
4
 70
     0
 62
     4
  6
Continuous
370
    -3
390
F
  0
LAYER
  5
2FE
330
2
100
AcDbSymbolTableRecord
100
AcDbLayerTableRecord
  2
cen
 70
     0
 62
     7
  6
DASHDOT
370
    -3
390
F
  0
LAYER
  5
2FF
330
2
100
AcDbSymbolTableRecord
100
AcDbLayerTableRecord
  2
9
 70
     0
 62
     9
  6
Continuous
370
    -3
390
F
  0
LAYER
  5
300
330
2
100
AcDbSymbolTableRecord
100
AcDbLayerTableRecord
  2
cotas
 70
     0
 62
     1
  6
Continuous
370
    -3
390
F
  0
LAYER
  5
301
330
2
100
AcDbSymbolTableRecord
100
AcDbLayerTableRecord
  2
Defpoints
 70
     0
 62
     7
  6
Continuous
290
     0
370
    -3
390
F
  0
LAYER
  5
302
330
2
100
AcDbSymbolTableRecord
100
AcDbLayerTableRecord
  2
SANINDUSA
 70
     0
 62
     3
  6
Continuous
370
    -3
390
F
  0
LAYER
  5
303
330
2
100
AcDbSymbolTableRecord
100
AcDbLayerTableRecord
  2
hid1
 70
     0
 62
     9
  6
HIDDEN
370
    -3
390
F
1001
AcAecLayerStandard
1000

1000

  0
ENDTAB
  0
TABLE
  2
STYLE
  5
3
330
0
100
AcDbSymbolTable
 70
     2
  0
STYLE
  5
11
330
3
100
AcDbSymbolTableRecord
100
AcDbTextStyleTableRecord
  2
Standard
 70
     0
 40
0.0
 41
1.0
 50
0.0
 71
     0
 42
2.5
  3
txt
  4

  0
STYLE
  5
304
330
3
100
AcDbSymbolTableRecord
100
AcDbTextStyleTableRecord
  2
SANINDUSA
 70
     0
 40
0.0
 41
1.0
 50
0.0
 71
     0
 42
2.5
  3
verdana.TTF
  4

1001
ACAD
1000
Verdana
1071
       34
  0
ENDTAB
  0
TABLE
  2
VIEW
  5
6
330
0
100
AcDbSymbolTable
 70
     0
  0
ENDTAB
  0
TABLE
  2
UCS
  5
7
330
0
100
AcDbSymbolTable
 70
     0
  0
ENDTAB
  0
TABLE
  2
APPID
  5
9
330
0
100
AcDbSymbolTable
 70
     6
  0
APPID
  5
12
330
9
100
AcDbSymbolTableRecord
100
AcDbRegAppTableRecord
  2
ACAD
 70
     0
  0
APPID
  5
306
330
9
100
AcDbSymbolTableRecord
100
AcDbRegAppTableRecord
  2
ACAD_DSTYLE_DIMEXT_LENGTH
 70
     0
  0
APPID
  5
307
330
9
100
AcDbSymbolTableRecord
100
AcDbRegAppTableRecord
  2
ACAD_DSTYLE_DIMEXT_ENABLED
 70
     0
  0
APPID
  5
308
330
9
100
AcDbSymbolTableRecord
100
AcDbRegAppTableRecord
  2
ACAD_DSTYLE_DIMJOGGED_JOGANGLE_SYMBOL
 70
     0
  0
APPID
  5
309
330
9
100
AcDbSymbolTableRecord
100
AcDbRegAppTableRecord
  2
ACAD_DSTYLE_DIMARC_LENGTH_SYMBOL
 70
     0
  0
APPID
  5
30A
330
9
100
AcDbSymbolTableRecord
100
AcDbRegAppTableRecord
  2
AcAecLayerStandard
 70
     0
  0
ENDTAB
  0
TABLE
  2
DIMSTYLE
  5
A
330
0
100
AcDbSymbolTable
 70
     2
100
AcDbDimStyleTable
 71
     1
340
2B
  0
DIMSTYLE
105
2B
330
A
100
AcDbSymbolTableRecord
100
AcDbDimStyleTableRecord
  2
ISO-25
 70
     0
 41
2.5
 42
0.625
 43
3.75
 44
1.25
 73
     0
 74
     0
 77
     1
 78
     8
140
2.5
141
2.5
143
0.03937007874016
147
0.625
171
     3
172
     1
271
     2
272
     2
274
     3
278
    44
283
     0
284
     8
340
11
  0
DIMSTYLE
105
305
102
{ACAD_REACTORS
330
8AC
330
8AF
330
7FC
330
7FF
330
800
330
801
330
802
330
804
330
816
330
819
330
81C
330
81F
330
820
330
823
330
826
330
827
330
828
330
829
330
82A
330
82B
330
82C
330
82E
330
830
330
833
330
836
330
837
330
83C
330
83F
330
840
330
841
330
842
330
843
330
844
330
852
330
85B
330
85E
330
861
330
864
330
865
330
866
330
869
330
86A
330
86B
330
86C
330
86D
330
86E
330
86F
330
870
330
871
330
872
330
873
330
874
330
875
330
876
330
877
330
878
330
879
330
87A
330
87B
330
87C
330
8A3
330
8BD
330
8C2
330
8C5
102
}
330
A
100
AcDbSymbolTableRecord
100
AcDbDimStyleTableRecord
  2
SANINDUSA
 70
     0
 40
5.0
 41
2.0
 42
1.0
 43
1.0
 44
1.0
 73
     0
 74
     0
 77
     1
 78
     8
140
2.0
141
0.0
143
0.03937007874016
147
1.0
171
     3
172
     1
176
   256
177
   256
178
   256
179
     1
271
     1
272
     1
274
     3
278
    44
283
     0
284
     8
340
304
371
    -1
372
    -1
1001
ACAD_DSTYLE_DIMEXT_LENGTH
1070
   378
1040
1.0
1001
ACAD_DSTYLE_DIMEXT_ENABLED
1070
   383
1070
     0
1001
ACAD_DSTYLE_DIMARC_LENGTH_SYMBOL
1070
   379
1070
     0
1001
ACAD_DSTYLE_DIMJOGGED_JOGANGLE_SYMBOL
1070
   384
1040
1.570796326794896
  0
ENDTAB
  0
TABLE
  2
BLOCK_RECORD
  5
1
330
0
100
AcDbSymbolTable
 70
   130
  0
BLOCK_RECORD
  5
23
330
1
100
AcDbSymbolTableRecord
100
AcDbBlockTableRecord
  2
*Model_Space
340
26
  0
BLOCK_RECORD
  5
1F
330
1
100
AcDbSymbolTableRecord
100
AcDbBlockTableRecord
  2
*Paper_Space
340
22
  0
BLOCK_RECORD
  5
27
330
1
100
AcDbSymbolTableRecord
100
AcDbBlockTableRecord
  2
*Paper_Space0
340
2A
  0
BLOCK_RECORD
  5
2F
330
1
100
AcDbSymbolTableRecord
100
AcDbBlockTableRecord
  2
*D1
340
0
  0
BLOCK_RECORD
  5
37
330
1
100
AcDbSymbolTableRecord
100
AcDbBlockTableRecord
  2
*D2
340
0
  0
BLOCK_RECORD
  5
3F
330
1
100
AcDbSymbolTableRecord
100
AcDbBlockTableRecord
  2
*D3
340
0
  0
BLOCK_RECORD
  5
4C
330
1
100
AcDbSymbolTableRecord
100
AcDbBlockTableRecord
  2
*D4
340
0
  0
BLOCK_RECORD
  5
59
330
1
100
AcDbSymbolTableRecord
100
AcDbBlockTableRecord
  2
*D5
340
0
  0
BLOCK_RECORD
  5
65
330
1
100
AcDbSymbolTableRecord
100
AcDbBlockTableRecord
  2
*D6
340
0
  0
BLOCK_RECORD
  5
71
330
1
100
AcDbSymbolTableRecord
100
AcDbBlockTableRecord
  2
*D7
340
0
  0
BLOCK_RECORD
  5
7D
330
1
100
AcDbSymbolTableRecord
100
AcDbBlockTableRecord
  2
*D8
340
0
  0
BLOCK_RECORD
  5
86
330
1
100
AcDbSymbolTableRecord
100
AcDbBlockTableRecord
  2
*D9
340
0
  0
BLOCK_RECORD
  5
8F
330
1
100
AcDbSymbolTableRecord
100
AcDbBlockTableRecord
  2
*D10
340
0
  0
BLOCK_RECORD
  5
97
330
1
100
AcDbSymbolTableRecord
100
AcDbBlockTableRecord
  2
*D11
340
0
  0
BLOCK_RECORD
  5
A0
330
1
100
AcDbSymbolTableRecord
100
AcDbBlockTableRecord
  2
*D12
340
0
  0
BLOCK_RECORD
  5
A8
330
1
100
AcDbSymbolTableRecord
100
AcDbBlockTableRecord
  2
*D13
340
0
  0
BLOCK_RECORD
  5
B4
330
1
100
AcDbSymbolTableRecord
100
AcDbBlockTableRecord
  2
*D14
340
0
  0
BLOCK_RECORD
  5
C0
330
1
100
AcDbSymbolTableRecord
100
AcDbBlockTableRecord
  2
*D15
340
0
  0
BLOCK_RECORD
  5
CC
330
1
100
AcDbSymbolTableRecord
100
AcDbBlockTableRecord
  2
*D16
340
0
  0
BLOCK_RECORD
  5
D8
330
1
100
AcDbSymbolTableRecord
100
AcDbBlockTableRecord
  2
*D17
340
0
  0
BLOCK_RECORD
  5
E0
330
1
100
AcDbSymbolTableRecord
100
AcDbBlockTableRecord
  2
*D18
340
0
  0
BLOCK_RECORD
  5
E8
330
1
100
AcDbSymbolTableRecord
100
AcDbBlockTableRecord
  2
*D19
340
0
  0
BLOCK_RECORD
  5
F5
330
1
100
AcDbSymbolTableRecord
100
AcDbBlockTableRecord
  2
*D20
340
0
  0
BLOCK_RECORD
  5
102
330
1
100
AcDbSymbolTableRecord
100
AcDbBlockTableRecord
  2
*D21
340
0
  0
BLOCK_RECORD
  5
10E
330
1
100
AcDbSymbolTableRecord
100
AcDbBlockTableRecord
  2
*D22
340
0
  0
BLOCK_RECORD
  5
11A
330
1
100
AcDbSymbolTableRecord
100
AcDbBlockTableRecord
  2
*D23
340
0
  0
BLOCK_RECORD
  5
126
330
1
100
AcDbSymbolTableRecord
100
AcDbBlockTableRecord
  2
*D24
340
0
  0
BLOCK_RECORD
  5
132
330
1
100
AcDbSymbolTableRecord
100
AcDbBlockTableRecord
  2
*D25
340
0
  0
BLOCK_RECORD
  5
13E
330
1
100
AcDbSymbolTableRecord
100
AcDbBlockTableRecord
  2
*D26
340
0
  0
BLOCK_RECORD
  5
14A
330
1
100
AcDbSymbolTableRecord
100
AcDbBlockTableRecord
  2
*D27
340
0
  0
BLOCK_RECORD
  5
156
330
1
100
AcDbSymbolTableRecord
100
AcDbBlockTableRecord
  2
*D28
340
0
  0
BLOCK_RECORD
  5
162
330
1
100
AcDbSymbolTableRecord
100
AcDbBlockTableRecord
  2
*D29
340
0
  0
BLOCK_RECORD
  5
16E
330
1
100
AcDbSymbolTableRecord
100
AcDbBlockTableRecord
  2
*D30
340
0
  0
BLOCK_RECORD
  5
17A
330
1
100
AcDbSymbolTableRecord
100
AcDbBlockTableRecord
  2
*D31
340
0
  0
BLOCK_RECORD
  5
186
330
1
100
AcDbSymbolTableRecord
100
AcDbBlockTableRecord
  2
*D32
340
0
  0
BLOCK_RECORD
  5
192
330
1
100
AcDbSymbolTableRecord
100
AcDbBlockTableRecord
  2
*D33
340
0
  0
BLOCK_RECORD
  5
19E
330
1
100
AcDbSymbolTableRecord
100
AcDbBlockTableRecord
  2
*D34
340
0
  0
BLOCK_RECORD
  5
1A7
330
1
100
AcDbSymbolTableRecord
100
AcDbBlockTableRecord
  2
*D35
340
0
  0
BLOCK_RECORD
  5
1AF
330
1
100
AcDbSymbolTableRecord
100
AcDbBlockTableRecord
  2
*D36
340
0
  0
BLOCK_RECORD
  5
1B7
330
1
100
AcDbSymbolTableRecord
100
AcDbBlockTableRecord
  2
*D37
340
0
  0
BLOCK_RECORD
  5
1C0
330
1
100
AcDbSymbolTableRecord
100
AcDbBlockTableRecord
  2
*D38
340
0
  0
BLOCK_RECORD
  5
1C8
330
1
100
AcDbSymbolTableRecord
100
AcDbBlockTableRecord
  2
*D39
340
0
  0
BLOCK_RECORD
  5
1D1
330
1
100
AcDbSymbolTableRecord
100
AcDbBlockTableRecord
  2
*D40
340
0
  0
BLOCK_RECORD
  5
1DA
330
1
100
AcDbSymbolTableRecord
100
AcDbBlockTableRecord
  2
*D41
340
0
  0
BLOCK_RECORD
  5
1E5
330
1
100
AcDbSymbolTableRecord
100
AcDbBlockTableRecord
  2
*D42
340
0
  0
BLOCK_RECORD
  5
1F1
330
1
100
AcDbSymbolTableRecord
100
AcDbBlockTableRecord
  2
*D43
340
0
  0
BLOCK_RECORD
  5
1FD
330
1
100
AcDbSymbolTableRecord
100
AcDbBlockTableRecord
  2
*D44
340
0
  0
BLOCK_RECORD
  5
209
330
1
100
AcDbSymbolTableRecord
100
AcDbBlockTableRecord
  2
*D45
340
0
  0
BLOCK_RECORD
  5
21B
330
1
100
AcDbSymbolTableRecord
100
AcDbBlockTableRecord
  2
*D46
340
0
  0
BLOCK_RECORD
  5
227
330
1
100
AcDbSymbolTableRecord
100
AcDbBlockTableRecord
  2
*D47
340
0
  0
BLOCK_RECORD
  5
234
330
1
100
AcDbSymbolTableRecord
100
AcDbBlockTableRecord
  2
*D48
340
0
  0
BLOCK_RECORD
  5
240
330
1
100
AcDbSymbolTableRecord
100
AcDbBlockTableRecord
  2
*D49
340
0
  0
BLOCK_RECORD
  5
24E
330
1
100
AcDbSymbolTableRecord
100
AcDbBlockTableRecord
  2
*D50
340
0
  0
BLOCK_RECORD
  5
25C
330
1
100
AcDbSymbolTableRecord
100
AcDbBlockTableRecord
  2
*D51
340
0
  0
BLOCK_RECORD
  5
268
330
1
100
AcDbSymbolTableRecord
100
AcDbBlockTableRecord
  2
*D52
340
0
  0
BLOCK_RECORD
  5
274
330
1
100
AcDbSymbolTableRecord
100
AcDbBlockTableRecord
  2
*D53
340
0
  0
BLOCK_RECORD
  5
280
330
1
100
AcDbSymbolTableRecord
100
AcDbBlockTableRecord
  2
*D54
340
0
  0
BLOCK_RECORD
  5
28C
330
1
100
AcDbSymbolTableRecord
100
AcDbBlockTableRecord
  2
*D55
340
0
  0
BLOCK_RECORD
  5
298
330
1
100
AcDbSymbolTableRecord
100
AcDbBlockTableRecord
  2
*D56
340
0
  0
BLOCK_RECORD
  5
2A4
330
1
100
AcDbSymbolTableRecord
100
AcDbBlockTableRecord
  2
*D57
340
0
  0
BLOCK_RECORD
  5
2B0
330
1
100
AcDbSymbolTableRecord
100
AcDbBlockTableRecord
  2
*D58
340
0
  0
BLOCK_RECORD
  5
2BC
330
1
100
AcDbSymbolTableRecord
100
AcDbBlockTableRecord
  2
*D59
340
0
  0
BLOCK_RECORD
  5
2C8
330
1
100
AcDbSymbolTableRecord
100
AcDbBlockTableRecord
  2
*D60
340
0
  0
BLOCK_RECORD
  5
2D1
330
1
100
AcDbSymbolTableRecord
100
AcDbBlockTableRecord
  2
*D61
340
0
  0
BLOCK_RECORD
  5
2DA
330
1
100
AcDbSymbolTableRecord
100
AcDbBlockTableRecord
  2
*D62
340
0
  0
BLOCK_RECORD
  5
2E2
330
1
100
AcDbSymbolTableRecord
100
AcDbBlockTableRecord
  2
*D63
340
0
  0
BLOCK_RECORD
  5
2EE
330
1
100
AcDbSymbolTableRecord
100
AcDbBlockTableRecord
  2
*D64
340
0
  0
BLOCK_RECORD
  5
E88
330
1
100
AcDbSymbolTableRecord
100
AcDbBlockTableRecord
  2
*D66
340
0
  0
BLOCK_RECORD
  5
E90
330
1
100
AcDbSymbolTableRecord
100
AcDbBlockTableRecord
  2
*D67
340
0
  0
BLOCK_RECORD
  5
E98
330
1
100
AcDbSymbolTableRecord
100
AcDbBlockTableRecord
  2
*D68
340
0
  0
BLOCK_RECORD
  5
EA5
330
1
100
AcDbSymbolTableRecord
100
AcDbBlockTableRecord
  2
*D69
340
0
  0
BLOCK_RECORD
  5
EB2
330
1
100
AcDbSymbolTableRecord
100
AcDbBlockTableRecord
  2
*D70
340
0
  0
BLOCK_RECORD
  5
EBE
330
1
100
AcDbSymbolTableRecord
100
AcDbBlockTableRecord
  2
*D71
340
0
  0
BLOCK_RECORD
  5
ECA
330
1
100
AcDbSymbolTableRecord
100
AcDbBlockTableRecord
  2
*D72
340
0
  0
BLOCK_RECORD
  5
ED6
330
1
100
AcDbSymbolTableRecord
100
AcDbBlockTableRecord
  2
*D73
340
0
  0
BLOCK_RECORD
  5
EDF
330
1
100
AcDbSymbolTableRecord
100
AcDbBlockTableRecord
  2
*D74
340
0
  0
BLOCK_RECORD
  5
EE8
330
1
100
AcDbSymbolTableRecord
100
AcDbBlockTableRecord
  2
*D75
340
0
  0
BLOCK_RECORD
  5
EF0
330
1
100
AcDbSymbolTableRecord
100
AcDbBlockTableRecord
  2
*D76
340
0
  0
BLOCK_RECORD
  5
EF9
330
1
100
AcDbSymbolTableRecord
100
AcDbBlockTableRecord
  2
*D77
340
0
  0
BLOCK_RECORD
  5
F01
330
1
100
AcDbSymbolTableRecord
100
AcDbBlockTableRecord
  2
*D78
340
0
  0
BLOCK_RECORD
  5
F0D
330
1
100
AcDbSymbolTableRecord
100
AcDbBlockTableRecord
  2
*D79
340
0
  0
BLOCK_RECORD
  5
F19
330
1
100
AcDbSymbolTableRecord
100
AcDbBlockTableRecord
  2
*D80
340
0
  0
BLOCK_RECORD
  5
F25
330
1
100
AcDbSymbolTableRecord
100
AcDbBlockTableRecord
  2
*D81
340
0
  0
BLOCK_RECORD
  5
F31
330
1
100
AcDbSymbolTableRecord
100
AcDbBlockTableRecord
  2
*D82
340
0
  0
BLOCK_RECORD
  5
F39
330
1
100
AcDbSymbolTableRecord
100
AcDbBlockTableRecord
  2
*D83
340
0
  0
BLOCK_RECORD
  5
F41
330
1
100
AcDbSymbolTableRecord
100
AcDbBlockTableRecord
  2
*D84
340
0
  0
BLOCK_RECORD
  5
F4E
330
1
100
AcDbSymbolTableRecord
100
AcDbBlockTableRecord
  2
*D85
340
0
  0
BLOCK_RECORD
  5
F5B
330
1
100
AcDbSymbolTableRecord
100
AcDbBlockTableRecord
  2
*D86
340
0
  0
BLOCK_RECORD
  5
F67
330
1
100
AcDbSymbolTableRecord
100
AcDbBlockTableRecord
  2
*D87
340
0
  0
BLOCK_RECORD
  5
F73
330
1
100
AcDbSymbolTableRecord
100
AcDbBlockTableRecord
  2
*D88
340
0
  0
BLOCK_RECORD
  5
F7F
330
1
100
AcDbSymbolTableRecord
100
AcDbBlockTableRecord
  2
*D89
340
0
  0
BLOCK_RECORD
  5
F8B
330
1
100
AcDbSymbolTableRecord
100
AcDbBlockTableRecord
  2
*D90
340
0
  0
BLOCK_RECORD
  5
F97
330
1
100
AcDbSymbolTableRecord
100
AcDbBlockTableRecord
  2
*D91
340
0
  0
BLOCK_RECORD
  5
FA3
330
1
100
AcDbSymbolTableRecord
100
AcDbBlockTableRecord
  2
*D92
340
0
  0
BLOCK_RECORD
  5
FAF
330
1
100
AcDbSymbolTableRecord
100
AcDbBlockTableRecord
  2
*D93
340
0
  0
BLOCK_RECORD
  5
FBB
330
1
100
AcDbSymbolTableRecord
100
AcDbBlockTableRecord
  2
*D94
340
0
  0
BLOCK_RECORD
  5
FC7
330
1
100
AcDbSymbolTableRecord
100
AcDbBlockTableRecord
  2
*D95
340
0
  0
BLOCK_RECORD
  5
FD3
330
1
100
AcDbSymbolTableRecord
100
AcDbBlockTableRecord
  2
*D96
340
0
  0
BLOCK_RECORD
  5
FDF
330
1
100
AcDbSymbolTableRecord
100
AcDbBlockTableRecord
  2
*D97
340
0
  0
BLOCK_RECORD
  5
FEB
330
1
100
AcDbSymbolTableRecord
100
AcDbBlockTableRecord
  2
*D98
340
0
  0
BLOCK_RECORD
  5
FF7
330
1
100
AcDbSymbolTableRecord
100
AcDbBlockTableRecord
  2
*D99
340
0
  0
BLOCK_RECORD
  5
1003
330
1
100
AcDbSymbolTableRecord
100
AcDbBlockTableRecord
  2
*D100
340
0
  0
BLOCK_RECORD
  5
100F
330
1
100
AcDbSymbolTableRecord
100
AcDbBlockTableRecord
  2
*D101
340
0
  0
BLOCK_RECORD
  5
1018
330
1
100
AcDbSymbolTableRecord
100
AcDbBlockTableRecord
  2
*D102
340
0
  0
BLOCK_RECORD
  5
1020
330
1
100
AcDbSymbolTableRecord
100
AcDbBlockTableRecord
  2
*D103
340
0
  0
BLOCK_RECORD
  5
1028
330
1
100
AcDbSymbolTableRecord
100
AcDbBlockTableRecord
  2
*D104
340
0
  0
BLOCK_RECORD
  5
1031
330
1
100
AcDbSymbolTableRecord
100
AcDbBlockTableRecord
  2
*D105
340
0
  0
BLOCK_RECORD
  5
1039
330
1
100
AcDbSymbolTableRecord
100
AcDbBlockTableRecord
  2
*D106
340
0
  0
BLOCK_RECORD
  5
1042
330
1
100
AcDbSymbolTableRecord
100
AcDbBlockTableRecord
  2
*D107
340
0
  0
BLOCK_RECORD
  5
104B
330
1
100
AcDbSymbolTableRecord
100
AcDbBlockTableRecord
  2
*D108
340
0
  0
BLOCK_RECORD
  5
1054
330
1
100
AcDbSymbolTableRecord
100
AcDbBlockTableRecord
  2
*D109
340
0
  0
BLOCK_RECORD
  5
105F
330
1
100
AcDbSymbolTableRecord
100
AcDbBlockTableRecord
  2
*D110
340
0
  0
BLOCK_RECORD
  5
1089
330
1
100
AcDbSymbolTableRecord
100
AcDbBlockTableRecord
  2
*D111
340
0
  0
BLOCK_RECORD
  5
109B
330
1
100
AcDbSymbolTableRecord
100
AcDbBlockTableRecord
  2
*D112
340
0
  0
BLOCK_RECORD
  5
10A7
330
1
100
AcDbSymbolTableRecord
100
AcDbBlockTableRecord
  2
*D113
340
0
  0
BLOCK_RECORD
  5
10B4
330
1
100
AcDbSymbolTableRecord
100
AcDbBlockTableRecord
  2
*D114
340
0
  0
BLOCK_RECORD
  5
10C9
330
1
100
AcDbSymbolTableRecord
100
AcDbBlockTableRecord
  2
*D115
340
0
  0
BLOCK_RECORD
  5
10D7
330
1
100
AcDbSymbolTableRecord
100
AcDbBlockTableRecord
  2
*D116
340
0
  0
BLOCK_RECORD
  5
111C
330
1
100
AcDbSymbolTableRecord
100
AcDbBlockTableRecord
  2
*D117
340
0
  0
BLOCK_RECORD
  5
1128
330
1
100
AcDbSymbolTableRecord
100
AcDbBlockTableRecord
  2
*D118
340
0
  0
BLOCK_RECORD
  5
1146
330
1
100
AcDbSymbolTableRecord
100
AcDbBlockTableRecord
  2
*D119
340
0
  0
BLOCK_RECORD
  5
118B
330
1
100
AcDbSymbolTableRecord
100
AcDbBlockTableRecord
  2
*D120
340
0
  0
BLOCK_RECORD
  5
1197
330
1
100
AcDbSymbolTableRecord
100
AcDbBlockTableRecord
  2
*D121
340
0
  0
BLOCK_RECORD
  5
11A3
330
1
100
AcDbSymbolTableRecord
100
AcDbBlockTableRecord
  2
*D122
340
0
  0
BLOCK_RECORD
  5
11C1
330
1
100
AcDbSymbolTableRecord
100
AcDbBlockTableRecord
  2
*D123
340
0
  0
BLOCK_RECORD
  5
125D
330
1
100
AcDbSymbolTableRecord
100
AcDbBlockTableRecord
  2
*D124
340
0
  0
BLOCK_RECORD
  5
126E
330
1
100
AcDbSymbolTableRecord
100
AcDbBlockTableRecord
  2
*D125
340
0
  0
BLOCK_RECORD
  5
127A
330
1
100
AcDbSymbolTableRecord
100
AcDbBlockTableRecord
  2
*D126
340
0
  0
BLOCK_RECORD
  5
1286
330
1
100
AcDbSymbolTableRecord
100
AcDbBlockTableRecord
  2
*D127
340
0
  0
BLOCK_RECORD
  5
128E
330
1
100
AcDbSymbolTableRecord
100
AcDbBlockTableRecord
  2
*D128
340
0
  0
BLOCK_RECORD
  5
129A
330
1
100
AcDbSymbolTableRecord
100
AcDbBlockTableRecord
  2
*D129
340
0
  0
ENDTAB
  0
ENDSEC
  0
SECTION
  2
BLOCKS
  0
BLOCK
  5
24
330
23
100
AcDbEntity
  8
0
100
AcDbBlockBegin
  2
*Model_Space
 70
     0
 10
0.0
 20
0.0
 30
0.0
  3
*Model_Space
  1

  0
ENDBLK
  5
25
330
23
100
AcDbEntity
  8
0
100
AcDbBlockEnd
  0
BLOCK
  5
20
330
1F
100
AcDbEntity
 67
     1
  8
0
100
AcDbBlockBegin
  2
*Paper_Space
 70
     0
 10
0.0
 20
0.0
 30
0.0
  3
*Paper_Space
  1

  0
ENDBLK
  5
21
330
1F
100
AcDbEntity
 67
     1
  8
0
100
AcDbBlockEnd
  0
BLOCK
  5
28
330
27
100
AcDbEntity
 67
     1
  8
0
100
AcDbBlockBegin
  2
*Paper_Space0
 70
     0
 10
0.0
 20
0.0
 30
0.0
  3
*Paper_Space0
  1

  0
ENDBLK
  5
29
330
27
100
AcDbEntity
 67
     1
  8
0
100
AcDbBlockEnd
  0
BLOCK
  5
30
330
2F
100
AcDbEntity
  8
0
100
AcDbBlockBegin
  2
*D1
 70
     1
 10
0.0
 20
0.0
 30
0.0
  3
*D1
  1

  0
LINE
  5
31
330
2F
100
AcDbEntity
  8
cotas
100
AcDbLine
 10
3869.335367144652
 20
3624.977727317825
 30
0.0
 11
3845.31871925415
 21
3651.927124528756
 31
0.0
  0
MTEXT
  5
32
330
2F
100
AcDbEntity
  8
cotas
100
AcDbMText
 10
3868.119237953179
 20
3641.372791036857
 30
0.0
 40
10.0
 41
0.0
 71
     5
 72
     1
  1
R7
  7
SANINDUSA
 11
0.6653169992364092
 21
-0.7465609757595557
 31
0.0
 73
     1
 44
1.0
1001
ACAD
1000
MTEXTBEGIN
1070
    73
1070
     1
1070
    44
1040
1.0
1070
    74
1070
     0
1000
MTEXTEND
  0
SOLID
  5
33
330
2F
100
AcDbEntity
  8
cotas
100
AcDbTrace
 10
3846.562987547083
 20
3653.035986194151
 30
0.0
 11
3844.074450961218
 21
3650.818262863362
 31
0.0
 12
3838.665549261786
 22
3659.392734286352
 32
0.0
 13
3838.665549261786
 23
3659.392734286352
 33
0.0
  0
POINT
  5
34
330
2F
100
AcDbEntity
  8
Defpoints
 62
     0
100
AcDbPoint
 10
3838.665549261786
 20
3659.392734286352
 30
0.0
  0
POINT
  5
35
330
2F
100
AcDbEntity
  8
Defpoints
 62
     0
100
AcDbPoint
 10
3843.32276825644
 20
3654.166807456036
 30
0.0
  0
ENDBLK
  5
36
330
2F
100
AcDbEntity
  8
0
100
AcDbBlockEnd
  0
BLOCK
  5
38
330
37
100
AcDbEntity
  8
0
100
AcDbBlockBegin
  2
*D2
 70
     1
 10
0.0
 20
0.0
 30
0.0
  3
*D2
  1

  0
LINE
  5
39
330
37
100
AcDbEntity
  8
cotas
100
AcDbLine
 10
4699.534131711661
 20
3629.130748355051
 30
0.0
 11
4727.260732597776
 21
3652.245786517059
 31
0.0
  0
MTEXT
  5
3A
330
37
100
AcDbEntity
  8
cotas
100
AcDbMText
 10
4703.153572399752
 20
3645.167479121228
 30
0.0
 40
10.0
 41
0.0
 71
     5
 72
     1
  1
R7
  7
SANINDUSA
 11
0.7680913250125131
 21
0.6403403129903051
 31
0.0
 73
     1
 44
1.0
1001
ACAD
1000
MTEXTBEGIN
1070
    73
1070
     1
1070
    44
1040
1.0
1070
    74
1070
     0
1000
MTEXTEND
  0
SOLID
  5
3B
330
37
100
AcDbEntity
  8
cotas
100
AcDbTrace
 10
4726.193498742792
 20
3653.525938725413
 30
0.0
 11
4728.327966452759
 21
3650.965634308704
 31
0.0
 12
4734.941645847902
 22
3658.649189646962
 32
0.0
 13
4734.941645847902
 23
3658.649189646962
 33
0.0
  0
POINT
  5
3C
330
37
100
AcDbEntity
  8
Defpoints
 62
     0
100
AcDbPoint
 10
4734.941645847902
 20
3658.649189646962
 30
0.0
  0
POINT
  5
3D
330
37
100
AcDbEntity
  8
Defpoints
 62
     0
100
AcDbPoint
 10
4729.565006572814
 20
3654.166807456029
 30
0.0
  0
ENDBLK
  5
3E
330
37
100
AcDbEntity
  8
0
100
AcDbBlockEnd
  0
BLOCK
  5
40
330
3F
100
AcDbEntity
  8
0
100
AcDbBlockBegin
  2
*D3
 70
     1
 10
0.0
 20
0.0
 30
0.0
  3
*D3
  1

  0
LINE
  5
41
330
3F
100
AcDbEntity
  8
cotas
100
AcDbLine
 10
4737.229331756045
 20
3616.167569827927
 30
0.0
 11
4737.756058308179
 21
3585.990506462116
 31
0.0
  0
ARC
  5
42
330
3F
100
AcDbEntity
  8
cotas
100
AcDbCircle
 10
4736.443891072267
 20
3661.166807456031
 30
0.0
 40
70.18775175507508
100
AcDbArc
 50
188.17013648039
 51
262.8298330588104
  0
SOLID
  5
43
330
3F
100
AcDbEntity
  8
cotas
100
AcDbTrace
 10
4665.306082018931
 20
3651.07348446963
 30
0.0
 11
4668.630946625238
 21
3651.310942804594
 31
0.0
 12
4666.256139317191
 22
3661.166807456031
 32
0.0
 13
4666.256139317191
 23
3661.166807456031
 33
0.0
  0
SOLID
  5
44
330
3F
100
AcDbEntity
  8
cotas
100
AcDbTrace
 10
4727.77299044684
 20
3593.192187303013
 30
0.0
 11
4727.593593396819
 21
3589.863684965691
 31
0.0
 12
4737.668798933793
 22
3590.98974498429
 32
0.0
 13
4737.668798933793
 23
3590.98974498429
 33
0.0
  0
MTEXT
  5
45
330
3F
100
AcDbEntity
  8
cotas
100
AcDbMText
 10
4695.199176762853
 20
3619.195903570618
 30
0.0
 40
10.0
 41
0.0
 71
     5
 72
     1
  1
91,0°
  7
SANINDUSA
 11
0.7132502628380123
 21
-0.7009094538965118
 31
0.0
 73
     1
 44
1.0
1001
ACAD
1000
MTEXTBEGIN
1070
    73
1070
     1
1070
    44
1040
1.0
1070
    74
1070
     0
1000
MTEXTEND
  0
POINT
  5
46
330
3F
100
AcDbEntity
  8
Defpoints
 62
     0
100
AcDbPoint
 10
4675.864704140881
 20
3625.719909042146
 30
0.0
  0
POINT
  5
47
330
3F
100
AcDbEntity
  8
Defpoints
 62
     0
100
AcDbPoint
 10
3843.322768198535
 20
3661.166807456031
 30
0.0
  0
POINT
  5
48
330
3F
100
AcDbEntity
  8
Defpoints
 62
     0
100
AcDbPoint
 10
4736.56394042085
 20
3654.288975335032
 30
0.0
  0
POINT
  5
49
330
3F
100
AcDbEntity
  8
Defpoints
 62
     0
100
AcDbPoint
 10
4737.142072381661
 20
3621.1668083501
 30
0.0
  0
POINT
  5
4A
330
3F
100
AcDbEntity
  8
Defpoints
 62
     0
100
AcDbPoint
 10
4729.565010728523
 20
3661.166807456031
 30
0.0
  0
ENDBLK
  5
4B
330
3F
100
AcDbEntity
  8
0
100
AcDbBlockEnd
  0
BLOCK
  5
4D
330
4C
100
AcDbEntity
  8
0
100
AcDbBlockBegin
  2
*D4
 70
     1
 10
0.0
 20
0.0
 30
0.0
  3
*D4
  1

  0
LINE
  5
4E
330
4C
100
AcDbEntity
  8
cotas
100
AcDbLine
 10
3835.65842280188
 20
3616.167569874316
 30
0.0
 11
3835.032738950967
 21
3580.322166010628
 31
0.0
  0
ARC
  5
4F
330
4C
100
AcDbEntity
  8
cotas
100
AcDbCircle
 10
3836.443887414452
 20
3661.166807456031
 30
0.0
 40
75.85695635145817
100
AcDbArc
 50
276.5586144526253
 51
352.4413855488217
  0
SOLID
  5
50
330
4C
100
AcDbEntity
  8
cotas
100
AcDbTrace
 10
3845.189053197367
 20
3584.141588703046
 30
0.0
 11
3845.027423061468
 21
3587.471001085177
 31
0.0
 12
3835.120000983027
 22
3585.321404486413
 32
0.0
 13
3835.120000983027
 23
3585.321404486413
 33
0.0
  0
SOLID
  5
51
330
4C
100
AcDbEntity
  8
cotas
100
AcDbTrace
 10
3909.978666204511
 20
3651.298409959419
 30
0.0
 11
3913.30475066619
 21
3651.078698182567
 31
0.0
 12
3912.30084376591
 22
3661.166807456031
 32
0.0
 13
3912.30084376591
 23
3661.166807456031
 33
0.0
  0
MTEXT
  5
52
330
4C
100
AcDbEntity
  8
cotas
100
AcDbMText
 10
3881.662188590529
 20
3615.152329882777
 30
0.0
 40
10.0
 41
0.0
 71
     5
 72
     1
  1
91,0°
  7
SANINDUSA
 11
0.7132504491453286
 21
0.70090926430886
 31
0.0
 73
     1
 44
1.0
1001
ACAD
1000
MTEXTBEGIN
1070
    73
1070
     1
1070
    44
1040
1.0
1070
    74
1070
     0
1000
MTEXTEND
  0
POINT
  5
53
330
4C
100
AcDbEntity
  8
Defpoints
 62
     0
100
AcDbPoint
 10
3873.60543038898
 20
3595.035895238979
 30
0.0
  0
POINT
  5
54
330
4C
100
AcDbEntity
  8
Defpoints
 62
     0
100
AcDbPoint
 10
3835.74568483394
 20
3621.1668083501
 30
0.0
  0
POINT
  5
55
330
4C
100
AcDbEntity
  8
Defpoints
 62
     0
100
AcDbPoint
 10
3843.322768198534
 20
3661.16680745603
 30
0.0
  0
POINT
  5
56
330
4C
100
AcDbEntity
  8
Defpoints
 62
     0
100
AcDbPoint
 10
4729.565010728522
 20
3661.16680745603
 30
0.0
  0
POINT
  5
57
330
4C
100
AcDbEntity
  8
Defpoints
 62
     0
100
AcDbPoint
 10
3836.323834392243
 20
3654.288974410076
 30
0.0
  0
ENDBLK
  5
58
330
4C
100
AcDbEntity
  8
0
100
AcDbBlockEnd
  0
BLOCK
  5
5A
330
59
100
AcDbEntity
  8
0
100
AcDbBlockBegin
  2
*D5
 70
     1
 10
0.0
 20
0.0
 30
0.0
  3
*D5
  1

  0
LINE
  5
5B
330
59
100
AcDbEntity
  8
cotas
100
AcDbLine
 10
5533.217323924264
 20
4449.11771167419
 30
0.0
 11
5582.703089598719
 21
4449.11771167419
 31
0.0
  0
LINE
  5
5C
330
59
100
AcDbEntity
  8
cotas
100
AcDbLine
 10
5720.894288083488
 20
4518.291185386579
 30
0.0
 11
5572.70308959872
 21
4518.291185386579
 31
0.0
  0
LINE
  5
5D
330
59
100
AcDbEntity
  8
cotas
100
AcDbLine
 10
5577.70308959872
 20
4459.117711674189
 30
0.0
 11
5577.70308959872
 21
4508.29118538658
 31
0.0
  0
SOLID
  5
5E
330
59
100
AcDbEntity
  8
cotas
100
AcDbTrace
 10
5576.036422932053
 20
4459.117711674189
 30
0.0
 11
5579.369756265387
 21
4459.117711674189
 31
0.0
 12
5577.70308959872
 22
4449.11771167419
 32
0.0
 13
5577.70308959872
 23
4449.11771167419
 33
0.0
  0
SOLID
  5
5F
330
59
100
AcDbEntity
  8
cotas
100
AcDbTrace
 10
5576.036422932053
 20
4508.29118538658
 30
0.0
 11
5579.369756265387
 21
4508.29118538658
 31
0.0
 12
5577.70308959872
 22
4518.291185386579
 32
0.0
 13
5577.70308959872
 23
4518.291185386579
 33
0.0
  0
MTEXT
  5
60
330
59
100
AcDbEntity
  8
cotas
100
AcDbMText
 10
5566.356548295831
 20
4483.704448530384
 30
0.0
 40
10.0
 41
0.0
 71
     5
 72
     1
  1
69,2
  7
SANINDUSA
 11
0.0000000000000001
 21
1.0
 31
0.0
 73
     1
 44
1.0
1001
ACAD
1000
MTEXTBEGIN
1070
    73
1070
     1
1070
    44
1040
1.0
1070
    74
1070
     0
1000
MTEXTEND
  0
POINT
  5
61
330
59
100
AcDbEntity
  8
Defpoints
 62
     0
100
AcDbPoint
 10
5528.217323924264
 20
4449.11771167419
 30
0.0
  0
POINT
  5
62
330
59
100
AcDbEntity
  8
Defpoints
 62
     0
100
AcDbPoint
 10
5725.894288083488
 20
4518.291185386579
 30
0.0
  0
POINT
  5
63
330
59
100
AcDbEntity
  8
Defpoints
 62
     0
100
AcDbPoint
 10
5577.70308959872
 20
4518.291185386579
 30
0.0
  0
ENDBLK
  5
64
330
59
100
AcDbEntity
  8
0
100
AcDbBlockEnd
  0
BLOCK
  5
66
330
65
100
AcDbEntity
  8
0
100
AcDbBlockBegin
  2
*D6
 70
     1
 10
0.0
 20
0.0
 30
0.0
  3
*D6
  1

  0
LINE
  5
67
330
65
100
AcDbEntity
  8
cotas
100
AcDbLine
 10
4973.301091589712
 20
4458.716535298516
 30
0.0
 11
4840.196087907048
 21
4458.716535298516
 31
0.0
  0
LINE
  5
68
330
65
100
AcDbEntity
  8
cotas
100
AcDbLine
 10
4870.894290487557
 20
4518.291185386579
 30
0.0
 11
4840.196087907048
 21
4518.291185386579
 31
0.0
  0
LINE
  5
69
330
65
100
AcDbEntity
  8
cotas
100
AcDbLine
 10
4845.196087907048
 20
4468.716535298516
 30
0.0
 11
4845.196087907048
 21
4508.291185386578
 31
0.0
  0
SOLID
  5
6A
330
65
100
AcDbEntity
  8
cotas
100
AcDbTrace
 10
4843.52942124038
 20
4468.716535298516
 30
0.0
 11
4846.862754573715
 21
4468.716535298516
 31
0.0
 12
4845.196087907048
 22
4458.716535298516
 32
0.0
 13
4845.196087907048
 23
4458.716535298516
 33
0.0
  0
SOLID
  5
6B
330
65
100
AcDbEntity
  8
cotas
100
AcDbTrace
 10
4843.52942124038
 20
4508.291185386578
 30
0.0
 11
4846.862754573715
 21
4508.291185386578
 31
0.0
 12
4845.196087907048
 22
4518.291185386579
 32
0.0
 13
4845.196087907048
 23
4518.291185386579
 33
0.0
  0
MTEXT
  5
6C
330
65
100
AcDbEntity
  8
cotas
100
AcDbMText
 10
4833.85290456252
 20
4488.503860342548
 30
0.0
 40
10.0
 41
0.0
 71
     5
 72
     1
  1
59,6
  7
SANINDUSA
 11
0.0000000000000001
 21
1.0
 31
0.0
 73
     1
 44
1.0
1001
ACAD
1000
MTEXTBEGIN
1070
    73
1070
     1
1070
    44
1040
1.0
1070
    74
1070
     0
1000
MTEXTEND
  0
POINT
  5
6D
330
65
100
AcDbEntity
  8
Defpoints
 62
     0
100
AcDbPoint
 10
4978.301091589712
 20
4458.716535298516
 30
0.0
  0
POINT
  5
6E
330
65
100
AcDbEntity
  8
Defpoints
 62
     0
100
AcDbPoint
 10
4875.894290487557
 20
4518.291185386579
 30
0.0
  0
POINT
  5
6F
330
65
100
AcDbEntity
  8
Defpoints
 62
     0
100
AcDbPoint
 10
4845.196087907048
 20
4518.291185386579
 30
0.0
  0
ENDBLK
  5
70
330
65
100
AcDbEntity
  8
0
100
AcDbBlockEnd
  0
BLOCK
  5
72
330
71
100
AcDbEntity
  8
0
100
AcDbBlockBegin
  2
*D7
 70
     1
 10
0.0
 20
0.0
 30
0.0
  3
*D7
  1

  0
ARC
  5
73
330
71
100
AcDbEntity
  8
cotas
100
AcDbCircle
 10
4942.128104542141
 20
4514.391185386579
 30
0.0
 40
47.01428158020466
100
AcDbArc
 50
192.2099791823502
 51
259.7900208176413
  0
SOLID
  5
74
330
71
100
AcDbEntity
  8
cotas
100
AcDbTrace
 10
4894.520115111126
 20
4504.270647418384
 30
0.0
 11
4897.83454406572
 21
4504.625149627213
 31
0.0
 12
4895.113822961937
 22
4514.391185386578
 32
0.0
 13
4895.113822961937
 23
4514.391185386578
 33
0.0
  0
SOLID
  5
75
330
71
100
AcDbEntity
  8
cotas
100
AcDbTrace
 10
4933.913840955674
 20
4469.783777617648
 30
0.0
 11
4933.675226602384
 21
4466.458995774952
 31
0.0
 12
4943.768879307113
 22
4467.405543636429
 32
0.0
 13
4943.768879307113
 23
4467.405543636429
 33
0.0
  0
MTEXT
  5
76
330
71
100
AcDbEntity
  8
cotas
100
AcDbMText
 10
4917.351210203144
 20
4488.733960216964
 30
0.0
 40
10.0
 41
0.0
 71
     5
 72
     1
  1
92,0°
  7
SANINDUSA
 11
0.719339800338595
 21
-0.6946583704590556
 31
0.0
 73
     1
 44
1.0
1001
ACAD
1000
MTEXTBEGIN
1070
    73
1070
     1
1070
    44
1040
1.0
1070
    74
1070
     0
1000
MTEXTEND
  0
POINT
  5
77
330
71
100
AcDbEntity
  8
Defpoints
 62
     0
100
AcDbPoint
 10
4901.688810302015
 20
4490.41189945344
 30
0.0
  0
POINT
  5
78
330
71
100
AcDbEntity
  8
Defpoints
 62
     0
100
AcDbPoint
 10
4882.773171329544
 20
4514.391185386578
 30
0.0
  0
POINT
  5
79
330
71
100
AcDbEntity
  8
Defpoints
 62
     0
100
AcDbPoint
 10
4943.845023951618
 20
4465.225046310246
 30
0.0
  0
POINT
  5
7A
330
71
100
AcDbEntity
  8
Defpoints
 62
     0
100
AcDbPoint
 10
4942.232580903999
 20
4511.39937382636
 30
0.0
  0
POINT
  5
7B
330
71
100
AcDbEntity
  8
Defpoints
 62
     0
100
AcDbPoint
 10
4939.134469340245
 20
4514.391185386578
 30
0.0
  0
ENDBLK
  5
7C
330
71
100
AcDbEntity
  8
0
100
AcDbBlockEnd
  0
BLOCK
  5
7E
330
7D
100
AcDbEntity
  8
0
100
AcDbBlockBegin
  2
*D8
 70
     1
 10
0.0
 20
0.0
 30
0.0
  3
*D8
  1

  0
LINE
  5
7F
330
7D
100
AcDbEntity
  8
cotas
100
AcDbLine
 10
4911.781095231285
 20
4417.400671664391
 30
0.0
 11
4944.831971845268
 21
4447.706781602939
 31
0.0
  0
MTEXT
  5
80
330
7D
100
AcDbEntity
  8
cotas
100
AcDbMText
 10
4917.851547674497
 20
4436.557393493108
 30
0.0
 40
10.0
 41
0.0
 71
     5
 72
     1
  1
R17
  7
SANINDUSA
 11
0.7370489033731
 21
0.6758394143851857
 31
0.0
 73
     1
 44
1.0
1001
ACAD
1000
MTEXTBEGIN
1070
    73
1070
     1
1070
    44
1040
1.0
1070
    74
1070
     0
1000
MTEXTEND
  0
LINE
  5
81
330
7D
100
AcDbEntity
  8
cotas
100
AcDbLine
 10
4964.732292236337
 20
4465.954445791334
 30
0.0
 11
4952.202460878999
 21
4454.465175746791
 31
0.0
  0
SOLID
  5
82
330
7D
100
AcDbEntity
  8
cotas
100
AcDbTrace
 10
4943.705572821293
 20
4448.935196441895
 30
0.0
 11
4945.958370869243
 21
4446.478366763984
 31
0.0
 12
4952.202460878999
 22
4454.465175746791
 32
0.0
 13
4952.202460878999
 23
4454.465175746791
 33
0.0
  0
POINT
  5
83
330
7D
100
AcDbEntity
  8
Defpoints
 62
     0
100
AcDbPoint
 10
4952.202460878999
 20
4454.465175746791
 30
0.0
  0
POINT
  5
84
330
7D
100
AcDbEntity
  8
Defpoints
 62
     0
100
AcDbPoint
 10
4964.732292236337
 20
4465.954445791334
 30
0.0
  0
ENDBLK
  5
85
330
7D
100
AcDbEntity
  8
0
100
AcDbBlockEnd
  0
BLOCK
  5
87
330
86
100
AcDbEntity
  8
0
100
AcDbBlockBegin
  2
*D9
 70
     1
 10
0.0
 20
0.0
 30
0.0
  3
*D9
  1

  0
LINE
  5
88
330
86
100
AcDbEntity
  8
cotas
100
AcDbLine
 10
4988.12768193857
 20
4396.947063561649
 30
0.0
 11
4974.940005842444
 21
4439.764042572766
 31
0.0
  0
MTEXT
  5
89
330
86
100
AcDbEntity
  8
cotas
100
AcDbMText
 10
4992.758341636116
 20
4416.580921520855
 30
0.0
 40
10.0
 41
0.0
 71
     5
 72
     1
  1
R10
  7
SANINDUSA
 11
0.2943554145874892
 21
-0.9556960237978534
 31
0.0
 73
     1
 44
1.0
1001
ACAD
1000
MTEXTBEGIN
1070
    73
1070
     1
1070
    44
1040
1.0
1070
    74
1070
     0
1000
MTEXTEND
  0
LINE
  5
8A
330
86
100
AcDbEntity
  8
cotas
100
AcDbLine
 10
4969.052897550694
 20
4458.877963048722
 30
0.0
 11
4971.996451696569
 21
4449.321002810746
 31
0.0
  0
SOLID
  5
8B
330
86
100
AcDbEntity
  8
cotas
100
AcDbTrace
 10
4976.532832548773
 20
4440.254634930413
 30
0.0
 11
4973.347179136113
 21
4439.273450215121
 31
0.0
 12
4971.996451696569
 22
4449.321002810746
 32
0.0
 13
4971.996451696569
 23
4449.321002810746
 33
0.0
  0
POINT
  5
8C
330
86
100
AcDbEntity
  8
Defpoints
 62
     0
100
AcDbPoint
 10
4971.996451696569
 20
4449.321002810746
 30
0.0
  0
POINT
  5
8D
330
86
100
AcDbEntity
  8
Defpoints
 62
     0
100
AcDbPoint
 10
4969.052897550694
 20
4458.877963048722
 30
0.0
  0
ENDBLK
  5
8E
330
86
100
AcDbEntity
  8
0
100
AcDbBlockEnd
  0
BLOCK
  5
90
330
8F
100
AcDbEntity
  8
0
100
AcDbBlockBegin
  2
*D10
 70
     1
 10
0.0
 20
0.0
 30
0.0
  3
*D10
  1

  0
LINE
  5
91
330
8F
100
AcDbEntity
  8
cotas
100
AcDbLine
 10
5015.873587798903
 20
4418.234493204678
 30
0.0
 11
4986.477865728973
 21
4449.425439357764
 31
0.0
  0
MTEXT
  5
92
330
8F
100
AcDbEntity
  8
cotas
100
AcDbMText
 10
5014.201259107859
 20
4434.589321278082
 30
0.0
 40
10.0
 41
0.0
 71
     5
 72
     1
  1
R7
  7
SANINDUSA
 11
0.6858537116677219
 21
-0.7277394356441112
 31
0.0
 73
     1
 44
1.0
1001
ACAD
1000
MTEXTBEGIN
1070
    73
1070
     1
1070
    44
1040
1.0
1070
    74
1070
     0
1000
MTEXTEND
  0
SOLID
  5
93
330
8F
100
AcDbEntity
  8
cotas
100
AcDbTrace
 10
4987.690764788379
 20
4450.56852887721
 30
0.0
 11
4985.264966669567
 21
4448.282349838318
 31
0.0
 12
4979.619328612297
 22
4456.702833714205
 32
0.0
 13
4979.619328612297
 23
4456.702833714205
 33
0.0
  0
POINT
  5
94
330
8F
100
AcDbEntity
  8
Defpoints
 62
     0
100
AcDbPoint
 10
4979.619328612297
 20
4456.702833714205
 30
0.0
  0
POINT
  5
95
330
8F
100
AcDbEntity
  8
Defpoints
 62
     0
100
AcDbPoint
 10
4984.420304593971
 20
4451.608657664695
 30
0.0
  0
ENDBLK
  5
96
330
8F
100
AcDbEntity
  8
0
100
AcDbBlockEnd
  0
BLOCK
  5
98
330
97
100
AcDbEntity
  8
0
100
AcDbBlockBegin
  2
*D11
 70
     1
 10
0.0
 20
0.0
 30
0.0
  3
*D11
  1

  0
LINE
  5
99
330
97
100
AcDbEntity
  8
cotas
100
AcDbLine
 10
5512.188034271368
 20
4380.280278214959
 30
0.0
 11
5533.216732152433
 21
4419.886017824099
 31
0.0
  0
MTEXT
  5
9A
330
97
100
AcDbEntity
  8
cotas
100
AcDbMText
 10
5511.510556613206
 20
4400.364386562378
 30
0.0
 40
10.0
 41
0.0
 71
     5
 72
     1
  1
R17
  7
SANINDUSA
 11
0.4689490960746653
 21
0.8832251951177314
 31
0.0
 73
     1
 44
1.0
1001
ACAD
1000
MTEXTBEGIN
1070
    73
1070
     1
1070
    44
1040
1.0
1070
    74
1070
     0
1000
MTEXTEND
  0
LINE
  5
9B
330
97
100
AcDbEntity
  8
cotas
100
AcDbLine
 10
5545.88026538027
 20
4443.736690956126
 30
0.0
 11
5537.906223113179
 21
4428.718269775276
 31
0.0
  0
SOLID
  5
9C
330
97
100
AcDbEntity
  8
cotas
100
AcDbTrace
 10
5531.74469016057
 20
4420.66759965089
 30
0.0
 11
5534.688774144296
 21
4419.104435997308
 31
0.0
 12
5537.906223113179
 22
4428.718269775276
 32
0.0
 13
5537.906223113179
 23
4428.718269775276
 33
0.0
  0
POINT
  5
9D
330
97
100
AcDbEntity
  8
Defpoints
 62
     0
100
AcDbPoint
 10
5537.906223113179
 20
4428.718269775276
 30
0.0
  0
POINT
  5
9E
330
97
100
AcDbEntity
  8
Defpoints
 62
     0
100
AcDbPoint
 10
5545.88026538027
 20
4443.736690956126
 30
0.0
  0
ENDBLK
  5
9F
330
97
100
AcDbEntity
  8
0
100
AcDbBlockEnd
  0
BLOCK
  5
A1
330
A0
100
AcDbEntity
  8
0
100
AcDbBlockBegin
  2
*D12
 70
     1
 10
0.0
 20
0.0
 30
0.0
  3
*D12
  1

  0
LINE
  5
A2
330
A0
100
AcDbEntity
  8
cotas
100
AcDbLine
 10
5489.18633076407
 20
4409.909415060279
 30
0.0
 11
5519.788771050137
 21
4440.118933306933
 31
0.0
  0
MTEXT
  5
A3
330
A0
100
AcDbEntity
  8
cotas
100
AcDbMText
 10
5491.447577112253
 20
4426.193267476531
 30
0.0
 40
10.0
 41
0.0
 71
     5
 72
     1
  1
R7
  7
SANINDUSA
 11
0.7116607288360832
 21
0.7025233142270049
 31
0.0
 73
     1
 44
1.0
1001
ACAD
1000
MTEXTBEGIN
1070
    73
1070
     1
1070
    44
1040
1.0
1070
    74
1070
     0
1000
MTEXTEND
  0
SOLID
  5
A4
330
A0
100
AcDbEntity
  8
cotas
100
AcDbTrace
 10
5518.617898859758
 20
4441.30503452166
 30
0.0
 11
5520.959643240515
 21
4438.932832092207
 31
0.0
 12
5526.905378338498
 22
4447.144166449205
 32
0.0
 13
5526.905378338498
 23
4447.144166449205
 33
0.0
  0
POINT
  5
A5
330
A0
100
AcDbEntity
  8
Defpoints
 62
     0
100
AcDbPoint
 10
5526.905378338498
 20
4447.144166449205
 30
0.0
  0
POINT
  5
A6
330
A0
100
AcDbEntity
  8
Defpoints
 62
     0
100
AcDbPoint
 10
5521.923760997819
 20
4442.226510911139
 30
0.0
  0
ENDBLK
  5
A7
330
A0
100
AcDbEntity
  8
0
100
AcDbBlockEnd
  0
BLOCK
  5
A9
330
A8
100
AcDbEntity
  8
0
100
AcDbBlockBegin
  2
*D13
 70
     1
 10
0.0
 20
0.0
 30
0.0
  3
*D13
  1

  0
ARC
  5
AA
330
A8
100
AcDbEntity
  8
cotas
100
AcDbCircle
 10
1565.27409270792
 20
4518.291185386579
 30
0.0
 40
3592.358038712399
100
AcDbArc
 50
359.1594928535918
 51
359.8405064378471
  0
SOLID
  5
AB
330
A8
100
AcDbEntity
  8
cotas
100
AcDbTrace
 10
5158.912056515897
 20
4465.567790632151
 30
0.0
 11
5155.579153124204
 21
4465.621326533597
 31
0.0
 12
5157.08499711571
 22
4455.595848407791
 32
0.0
 13
5157.08499711571
 23
4455.595848407791
 33
0.0
  0
SOLID
  5
AC
330
A8
100
AcDbEntity
  8
cotas
100
AcDbTrace
 10
5155.951547933528
 20
4508.293514811804
 30
0.0
 11
5159.284878038146
 21
4508.288875333644
 31
0.0
 12
5157.63213142032
 22
4518.291185386579
 32
0.0
 13
5157.63213142032
 23
4518.291185386579
 33
0.0
  0
MTEXT
  5
AD
330
A8
100
AcDbEntity
  8
cotas
100
AcDbMText
 10
5146.152593809714
 20
4487.041309989135
 30
0.0
 40
10.0
 41
0.0
 71
     5
 72
     1
  1
1,0°
  7
SANINDUSA
 11
0.0087265416814994
 21
0.9999619230102121
 31
0.0
 73
     1
 44
1.0
1001
ACAD
1000
MTEXTBEGIN
1070
    73
1070
     1
1070
    44
1040
1.0
1070
    74
1070
     0
1000
MTEXTEND
  0
POINT
  5
AE
330
A8
100
AcDbEntity
  8
Defpoints
 62
     0
100
AcDbPoint
 10
5157.388957188874
 20
4476.493115137244
 30
0.0
  0
POINT
  5
AF
330
A8
100
AcDbEntity
  8
Defpoints
 62
     0
100
AcDbPoint
 10
4966.118021547279
 20
4518.291185386579
 30
0.0
  0
POINT
  5
B0
330
A8
100
AcDbEntity
  8
Defpoints
 62
     0
100
AcDbPoint
 10
5234.089791478982
 20
4454.251723769812
 30
0.0
  0
POINT
  5
B1
330
A8
100
AcDbEntity
  8
Defpoints
 62
     0
100
AcDbPoint
 10
4984.542471525589
 20
4458.607591529283
 30
0.0
  0
POINT
  5
B2
330
A8
100
AcDbEntity
  8
Defpoints
 62
     0
100
AcDbPoint
 10
5985.670568320602
 20
4518.291185386579
 30
0.0
  0
ENDBLK
  5
B3
330
A8
100
AcDbEntity
  8
0
100
AcDbBlockEnd
  0
BLOCK
  5
B5
330
B4
100
AcDbEntity
  8
0
100
AcDbBlockBegin
  2
*D14
 70
     1
 10
0.0
 20
0.0
 30
0.0
  3
*D14
  1

  0
LINE
  5
B6
330
B4
100
AcDbEntity
  8
cotas
100
AcDbLine
 10
6395.894301216542
 20
4447.185864533969
 30
0.0
 11
6395.894301216542
 21
4583.286185342339
 31
0.0
  0
LINE
  5
B7
330
B4
100
AcDbEntity
  8
cotas
100
AcDbLine
 10
4875.894290487557
 20
4523.291185386579
 30
0.0
 11
4875.894290487557
 21
4583.286185342339
 31
0.0
  0
LINE
  5
B8
330
B4
100
AcDbEntity
  8
cotas
100
AcDbLine
 10
6385.894301216541
 20
4578.286185342339
 30
0.0
 11
4885.894290487557
 21
4578.286185342339
 31
0.0
  0
SOLID
  5
B9
330
B4
100
AcDbEntity
  8
cotas
100
AcDbTrace
 10
6385.894301216541
 20
4579.952852009006
 30
0.0
 11
6385.894301216541
 21
4576.619518675673
 31
0.0
 12
6395.894301216542
 22
4578.286185342339
 32
0.0
 13
6395.894301216542
 23
4578.286185342339
 33
0.0
  0
SOLID
  5
BA
330
B4
100
AcDbEntity
  8
cotas
100
AcDbTrace
 10
4885.894290487557
 20
4579.952852009006
 30
0.0
 11
4885.894290487557
 21
4576.619518675673
 31
0.0
 12
4875.894290487557
 22
4578.286185342339
 32
0.0
 13
4875.894290487557
 23
4578.286185342339
 33
0.0
  0
MTEXT
  5
BB
330
B4
100
AcDbEntity
  8
cotas
100
AcDbMText
 10
5635.894295852049
 20
4588.494378760741
 30
0.0
 40
10.0
 41
0.0
 71
     5
 72
     1
  1
1520
  7
SANINDUSA
 73
     1
 44
1.0
1001
ACAD
1000
MTEXTBEGIN
1070
    73
1070
     1
1070
    44
1040
1.0
1070
    74
1070
     0
1000
MTEXTEND
  0
POINT
  5
BC
330
B4
100
AcDbEntity
  8
Defpoints
 62
     0
100
AcDbPoint
 10
6395.894301216542
 20
4442.18586453397
 30
0.0
  0
POINT
  5
BD
330
B4
100
AcDbEntity
  8
Defpoints
 62
     0
100
AcDbPoint
 10
4875.894290487557
 20
4518.291185386579
 30
0.0
  0
POINT
  5
BE
330
B4
100
AcDbEntity
  8
Defpoints
 62
     0
100
AcDbPoint
 10
4875.894290487557
 20
4578.286185342339
 30
0.0
  0
ENDBLK
  5
BF
330
B4
100
AcDbEntity
  8
0
100
AcDbBlockEnd
  0
BLOCK
  5
C1
330
C0
100
AcDbEntity
  8
0
100
AcDbBlockBegin
  2
*D15
 70
     1
 10
0.0
 20
0.0
 30
0.0
  3
*D15
  1

  0
ARC
  5
C2
330
C0
100
AcDbEntity
  8
cotas
100
AcDbCircle
 10
6505.894301470959
 20
4518.291185386581
 30
0.0
 40
60.17204840949419
100
AcDbArc
 50
189.5329846044825
 51
258.4669963830448
  0
SOLID
  5
C3
330
C0
100
AcDbEntity
  8
cotas
100
AcDbTrace
 10
6444.892300957156
 20
4508.187277366297
 30
0.0
 11
6448.214106374779
 21
4508.464260901132
 31
0.0
 12
6445.722253061465
 22
4518.291185386581
 32
0.0
 13
6445.722253061465
 23
4518.291185386581
 33
0.0
  0
SOLID
  5
C4
330
C0
100
AcDbEntity
  8
cotas
100
AcDbTrace
 10
6494.060334489265
 20
4460.989086152326
 30
0.0
 11
6493.6675892497
 21
4457.678971005096
 31
0.0
 12
6503.794307311167
 22
4458.155792860021
 32
0.0
 13
6503.794307311167
 23
4458.155792860021
 33
0.0
  0
MTEXT
  5
C5
330
C0
100
AcDbEntity
  8
cotas
100
AcDbMText
 10
6470.779411850561
 20
4484.381141910812
 30
0.0
 40
10.0
 41
0.0
 71
     5
 72
     1
  1
88,0°
  7
SANINDUSA
 11
0.694658251109633
 21
-0.7193399155929735
 31
0.0
 73
     1
 44
1.0
1001
ACAD
1000
MTEXTBEGIN
1070
    73
1070
     1
1070
    44
1040
1.0
1070
    74
1070
     0
1000
MTEXTEND
  0
POINT
  5
C6
330
C0
100
AcDbEntity
  8
Defpoints
 62
     0
100
AcDbPoint
 10
6453.437244266829
 20
4488.813523347724
 30
0.0
  0
POINT
  5
C7
330
C0
100
AcDbEntity
  8
Defpoints
 62
     0
100
AcDbPoint
 10
5466.118021547293
 20
4518.291185386579
 30
0.0
  0
POINT
  5
C8
330
C0
100
AcDbEntity
  8
Defpoints
 62
     0
100
AcDbPoint
 10
6503.086310904001
 20
4437.881621308725
 30
0.0
  0
POINT
  5
C9
330
C0
100
AcDbEntity
  8
Defpoints
 62
     0
100
AcDbPoint
 10
6505.65838494206
 20
4511.535484184895
 30
0.0
  0
POINT
  5
CA
330
C0
100
AcDbEntity
  8
Defpoints
 62
     0
100
AcDbPoint
 10
6485.670568320617
 20
4518.291185386579
 30
0.0
  0
ENDBLK
  5
CB
330
C0
100
AcDbEntity
  8
0
100
AcDbBlockEnd
  0
BLOCK
  5
CD
330
CC
100
AcDbEntity
  8
0
100
AcDbBlockBegin
  2
*D16
 70
     1
 10
0.0
 20
0.0
 30
0.0
  3
*D16
  1

  0
LINE
  5
CE
330
CC
100
AcDbEntity
  8
cotas
100
AcDbLine
 10
4870.894290487559
 20
3661.166807456031
 30
0.0
 11
4840.196087907048
 21
3661.166807456031
 31
0.0
  0
LINE
  5
CF
330
CC
100
AcDbEntity
  8
cotas
100
AcDbLine
 10
4870.196087907047
 20
3621.1668083501
 30
0.0
 11
4840.196087907048
 21
3621.1668083501
 31
0.0
  0
LINE
  5
D0
330
CC
100
AcDbEntity
  8
cotas
100
AcDbLine
 10
4845.196087907048
 20
3651.166807456031
 30
0.0
 11
4845.196087907048
 21
3631.1668083501
 31
0.0
  0
SOLID
  5
D1
330
CC
100
AcDbEntity
  8
cotas
100
AcDbTrace
 10
4843.52942124038
 20
3651.166807456031
 30
0.0
 11
4846.862754573715
 21
3651.166807456031
 31
0.0
 12
4845.196087907048
 22
3661.166807456031
 32
0.0
 13
4845.196087907048
 23
3661.166807456031
 33
0.0
  0
SOLID
  5
D2
330
CC
100
AcDbEntity
  8
cotas
100
AcDbTrace
 10
4843.52942124038
 20
3631.1668083501
 30
0.0
 11
4846.862754573715
 21
3631.1668083501
 31
0.0
 12
4845.196087907048
 22
3621.1668083501
 32
0.0
 13
4845.196087907048
 23
3621.1668083501
 33
0.0
  0
MTEXT
  5
D3
330
CC
100
AcDbEntity
  8
cotas
100
AcDbMText
 10
4834.991252447006
 20
3641.166807903065
 30
0.0
 40
10.0
 41
0.0
 71
     5
 72
     1
  1
40
  7
SANINDUSA
 11
0.0000000000000001
 21
1.0
 31
0.0
 73
     1
 44
1.0
1001
ACAD
1000
MTEXTBEGIN
1070
    73
1070
     1
1070
    44
1040
1.0
1070
    74
1070
     0
1000
MTEXTEND
  0
POINT
  5
D4
330
CC
100
AcDbEntity
  8
Defpoints
 62
     0
100
AcDbPoint
 10
4875.894290487559
 20
3661.166807456031
 30
0.0
  0
POINT
  5
D5
330
CC
100
AcDbEntity
  8
Defpoints
 62
     0
100
AcDbPoint
 10
4875.196087907047
 20
3621.1668083501
 30
0.0
  0
POINT
  5
D6
330
CC
100
AcDbEntity
  8
Defpoints
 62
     0
100
AcDbPoint
 10
4845.196087907048
 20
3621.1668083501
 30
0.0
  0
ENDBLK
  5
D7
330
CC
100
AcDbEntity
  8
0
100
AcDbBlockEnd
  0
BLOCK
  5
D9
330
D8
100
AcDbEntity
  8
0
100
AcDbBlockBegin
  2
*D17
 70
     1
 10
0.0
 20
0.0
 30
0.0
  3
*D17
  1

  0
LINE
  5
DA
330
D8
100
AcDbEntity
  8
cotas
100
AcDbLine
 10
4913.107377057724
 20
3629.499143134603
 30
0.0
 11
4885.10071993198
 21
3652.274053509178
 31
0.0
  0
MTEXT
  5
DB
330
D8
100
AcDbEntity
  8
cotas
100
AcDbMText
 10
4909.292475988407
 20
3645.49050375191
 30
0.0
 40
10.0
 41
0.0
 71
     5
 72
     1
  1
R7
  7
SANINDUSA
 11
0.7758495341438661
 21
-0.6309179822835505
 31
0.0
 73
     1
 44
1.0
1001
ACAD
1000
MTEXTBEGIN
1070
    73
1070
     1
1070
    44
1040
1.0
1070
    74
1070
     0
1000
MTEXTEND
  0
SOLID
  5
DC
330
D8
100
AcDbEntity
  8
cotas
100
AcDbTrace
 10
4886.152249902452
 20
3653.567136066084
 30
0.0
 11
4884.049189961507
 21
3650.980970952272
 31
0.0
 12
4877.342224590541
 22
3658.583233332013
 32
0.0
 13
4877.342224590541
 23
3658.583233332013
 33
0.0
  0
POINT
  5
DD
330
D8
100
AcDbEntity
  8
Defpoints
 62
     0
100
AcDbPoint
 10
4877.342224590541
 20
3658.583233332013
 30
0.0
  0
POINT
  5
DE
330
D8
100
AcDbEntity
  8
Defpoints
 62
     0
100
AcDbPoint
 10
4882.773171329546
 20
3654.166807456029
 30
0.0
  0
ENDBLK
  5
DF
330
D8
100
AcDbEntity
  8
0
100
AcDbBlockEnd
  0
BLOCK
  5
E1
330
E0
100
AcDbEntity
  8
0
100
AcDbBlockBegin
  2
*D18
 70
     1
 10
0.0
 20
0.0
 30
0.0
  3
*D18
  1

  0
LINE
  5
E2
330
E0
100
AcDbEntity
  8
cotas
100
AcDbLine
 10
6539.53395079818
 20
3628.486100341473
 30
0.0
 11
6566.753332640207
 21
3652.196322568781
 31
0.0
  0
MTEXT
  5
E3
330
E0
100
AcDbEntity
  8
cotas
100
AcDbMText
 10
6542.805157872149
 20
3644.597471755498
 30
0.0
 40
10.0
 41
0.0
 71
     5
 72
     1
  1
R7
  7
SANINDUSA
 11
0.7540401779116852
 21
0.6568282957477659
 31
0.0
 73
     1
 44
1.0
1001
ACAD
1000
MTEXTBEGIN
1070
    73
1070
     1
1070
    44
1040
1.0
1070
    74
1070
     0
1000
MTEXTEND
  0
SOLID
  5
E4
330
E0
100
AcDbEntity
  8
cotas
100
AcDbTrace
 10
6565.65861881396
 20
3653.453056198634
 30
0.0
 11
6567.848046466451
 21
3650.939588938928
 31
0.0
 12
6574.293734419324
 22
3658.764605526258
 32
0.0
 13
6574.293734419324
 23
3658.764605526258
 33
0.0
  0
POINT
  5
E5
330
E0
100
AcDbEntity
  8
Defpoints
 62
     0
100
AcDbPoint
 10
6574.293734419324
 20
3658.764605526258
 30
0.0
  0
POINT
  5
E6
330
E0
100
AcDbEntity
  8
Defpoints
 62
     0
100
AcDbPoint
 10
6569.015453173941
 20
3654.166807456024
 30
0.0
  0
ENDBLK
  5
E7
330
E0
100
AcDbEntity
  8
0
100
AcDbBlockEnd
  0
BLOCK
  5
E9
330
E8
100
AcDbEntity
  8
0
100
AcDbBlockBegin
  2
*D19
 70
     1
 10
0.0
 20
0.0
 30
0.0
  3
*D19
  1

  0
LINE
  5
EA
330
E8
100
AcDbEntity
  8
cotas
100
AcDbLine
 10
6576.679860675051
 20
3616.167570016312
 30
0.0
 11
6577.228883775584
 21
3584.71699034485
 31
0.0
  0
ARC
  5
EB
330
E8
100
AcDbEntity
  8
cotas
100
AcDbCircle
 10
6575.894322821095
 20
3661.166807456029
 30
0.0
 40
71.46146473403533
100
AcDbArc
 50
188.0242731520483
 51
262.9758200766582
  0
SOLID
  5
EC
330
E8
100
AcDbEntity
  8
cotas
100
AcDbTrace
 10
6503.469953794645
 20
3651.074701971969
 30
0.0
 11
6506.795117967445
 21
3651.307927903297
 31
0.0
 12
6504.432858087061
 22
3661.16680745603
 32
0.0
 13
6504.432858087061
 23
3661.16680745603
 33
0.0
  0
SOLID
  5
ED
330
E8
100
AcDbEntity
  8
cotas
100
AcDbTrace
 10
6567.243004928551
 20
3591.906051495931
 30
0.0
 11
6567.067852051609
 21
3588.577323122992
 31
0.0
 12
6577.141613608898
 22
3589.716228678637
 32
0.0
 13
6577.141613608898
 23
3589.716228678637
 33
0.0
  0
MTEXT
  5
EE
330
E8
100
AcDbEntity
  8
cotas
100
AcDbMText
 10
6533.756897326973
 20
3618.28738197066
 30
0.0
 40
10.0
 41
0.0
 71
     5
 72
     1
  1
91,0°
  7
SANINDUSA
 11
0.7132510193954568
 21
-0.7009086840176413
 31
0.0
 73
     1
 44
1.0
1001
ACAD
1000
MTEXTBEGIN
1070
    73
1070
     1
1070
    44
1040
1.0
1070
    74
1070
     0
1000
MTEXTEND
  0
POINT
  5
EF
330
E8
100
AcDbEntity
  8
Defpoints
 62
     0
100
AcDbPoint
 10
6514.215817676512
 20
3625.07660178935
 30
0.0
  0
POINT
  5
F0
330
E8
100
AcDbEntity
  8
Defpoints
 62
     0
100
AcDbPoint
 10
5382.773214799666
 20
3661.16680745603
 30
0.0
  0
POINT
  5
F1
330
E8
100
AcDbEntity
  8
Defpoints
 62
     0
100
AcDbPoint
 10
6576.014387014727
 20
3654.288975751209
 30
0.0
  0
POINT
  5
F2
330
E8
100
AcDbEntity
  8
Defpoints
 62
     0
100
AcDbPoint
 10
6576.592590508365
 20
3621.166808350099
 30
0.0
  0
POINT
  5
F3
330
E8
100
AcDbEntity
  8
Defpoints
 62
     0
100
AcDbPoint
 10
6569.015409645938
 20
3661.166807456029
 30
0.0
  0
ENDBLK
  5
F4
330
E8
100
AcDbEntity
  8
0
100
AcDbBlockEnd
  0
BLOCK
  5
F6
330
F5
100
AcDbEntity
  8
0
100
AcDbBlockBegin
  2
*D20
 70
     1
 10
0.0
 20
0.0
 30
0.0
  3
*D20
  1

  0
LINE
  5
F7
330
F5
100
AcDbEntity
  8
cotas
100
AcDbLine
 10
4875.108825874986
 20
3616.167569874316
 30
0.0
 11
4874.306084743682
 21
3570.178561195787
 31
0.0
  0
ARC
  5
F8
330
F5
100
AcDbEntity
  8
cotas
100
AcDbCircle
 10
4875.894290487559
 20
3661.166807456031
 30
0.0
 40
86.00210632177342
100
AcDbArc
 50
275.6658955430539
 51
353.3341044583944
  0
SOLID
  5
F9
330
F5
100
AcDbEntity
  8
cotas
100
AcDbTrace
 10
4884.452902247643
 20
3573.919578114959
 30
0.0
 11
4884.317214348603
 21
3577.250148622419
 31
0.0
 12
4874.393346775741
 22
3575.177799671572
 32
0.0
 13
4874.393346775741
 23
3575.177799671572
 33
0.0
  0
SOLID
  5
FA
330
F5
100
AcDbEntity
  8
cotas
100
AcDbTrace
 10
4959.651168117207
 20
3651.280618812381
 30
0.0
 11
4962.978863282287
 21
3651.086825109185
 31
0.0
 12
4961.896396809333
 22
3661.166807456031
 32
0.0
 13
4961.896396809333
 23
3661.166807456031
 33
0.0
  0
MTEXT
  5
FB
330
F5
100
AcDbEntity
  8
cotas
100
AcDbMText
 10
4928.223421265633
 20
3607.916297109803
 30
0.0
 40
10.0
 41
0.0
 71
     5
 72
     1
  1
91,0°
  7
SANINDUSA
 11
0.7132504491453208
 21
0.7009092643088679
 31
0.0
 73
     1
 44
1.0
1001
ACAD
1000
MTEXTBEGIN
1070
    73
1070
     1
1070
    44
1040
1.0
1070
    74
1070
     0
1000
MTEXTEND
  0
POINT
  5
FC
330
F5
100
AcDbEntity
  8
Defpoints
 62
     0
100
AcDbPoint
 10
4918.025838122677
 20
3586.191511620326
 30
0.0
  0
POINT
  5
FD
330
F5
100
AcDbEntity
  8
Defpoints
 62
     0
100
AcDbPoint
 10
4875.196087907046
 20
3621.1668083501
 30
0.0
  0
POINT
  5
FE
330
F5
100
AcDbEntity
  8
Defpoints
 62
     0
100
AcDbPoint
 10
4882.773171271642
 20
3661.166807456031
 30
0.0
  0
POINT
  5
FF
330
F5
100
AcDbEntity
  8
Defpoints
 62
     0
100
AcDbPoint
 10
6069.015366117914
 20
3661.166807456031
 30
0.0
  0
POINT
  5
100
330
F5
100
AcDbEntity
  8
Defpoints
 62
     0
100
AcDbPoint
 10
4875.77423746535
 20
3654.288974410073
 30
0.0
  0
ENDBLK
  5
101
330
F5
100
AcDbEntity
  8
0
100
AcDbBlockEnd
  0
BLOCK
  5
103
330
102
100
AcDbEntity
  8
0
100
AcDbBlockBegin
  2
*D21
 70
     1
 10
0.0
 20
0.0
 30
0.0
  3
*D21
  1

  0
LINE
  5
104
330
102
100
AcDbEntity
  8
cotas
100
AcDbLine
 10
6580.894322821098
 20
3661.166807456031
 30
0.0
 11
6611.592590508365
 21
3661.166807456031
 31
0.0
  0
LINE
  5
105
330
102
100
AcDbEntity
  8
cotas
100
AcDbLine
 10
6452.590058750089
 20
3527.127128364818
 30
0.0
 11
6611.592590508365
 21
3527.127128364818
 31
0.0
  0
LINE
  5
106
330
102
100
AcDbEntity
  8
cotas
100
AcDbLine
 10
6606.592590508364
 20
3651.166807456031
 30
0.0
 11
6606.592590508364
 21
3537.127128364818
 31
0.0
  0
SOLID
  5
107
330
102
100
AcDbEntity
  8
cotas
100
AcDbTrace
 10
6604.925923841697
 20
3651.166807456031
 30
0.0
 11
6608.259257175032
 21
3651.166807456031
 31
0.0
 12
6606.592590508364
 22
3661.166807456031
 32
0.0
 13
6606.592590508364
 23
3661.166807456031
 33
0.0
  0
SOLID
  5
108
330
102
100
AcDbEntity
  8
cotas
100
AcDbTrace
 10
6604.925923841697
 20
3537.127128364818
 30
0.0
 11
6608.259257175032
 21
3537.127128364818
 31
0.0
 12
6606.592590508364
 22
3527.127128364818
 32
0.0
 13
6606.592590508364
 23
3527.127128364818
 33
0.0
  0
MTEXT
  5
109
330
102
100
AcDbEntity
  8
cotas
100
AcDbMText
 10
6596.384397089963
 20
3594.146967910425
 30
0.0
 40
10.0
 41
0.0
 71
     5
 72
     1
  1
134
  7
SANINDUSA
 11
0.0000000000000001
 21
1.0
 31
0.0
 73
     1
 44
1.0
1001
ACAD
1000
MTEXTBEGIN
1070
    73
1070
     1
1070
    44
1040
1.0
1070
    74
1070
     0
1000
MTEXTEND
  0
POINT
  5
10A
330
102
100
AcDbEntity
  8
Defpoints
 62
     0
100
AcDbPoint
 10
6575.894322821098
 20
3661.166807456031
 30
0.0
  0
POINT
  5
10B
330
102
100
AcDbEntity
  8
Defpoints
 62
     0
100
AcDbPoint
 10
6447.590058750089
 20
3527.127128364818
 30
0.0
  0
POINT
  5
10C
330
102
100
AcDbEntity
  8
Defpoints
 62
     0
100
AcDbPoint
 10
6606.592590508364
 20
3527.127128364818
 30
0.0
  0
ENDBLK
  5
10D
330
102
100
AcDbEntity
  8
0
100
AcDbBlockEnd
  0
BLOCK
  5
10F
330
10E
100
AcDbEntity
  8
0
100
AcDbBlockBegin
  2
*D22
 70
     1
 10
0.0
 20
0.0
 30
0.0
  3
*D22
  1

  0
LINE
  5
110
330
10E
100
AcDbEntity
  8
cotas
100
AcDbLine
 10
6395.875228080695
 20
3059.723196360277
 30
-0.0000000000000225
 11
6395.875228080695
 21
3089.723196360278
 31
-0.0000000000000225
  0
LINE
  5
111
330
10E
100
AcDbEntity
  8
cotas
100
AcDbLine
 10
6215.403949231919
 20
2924.473775951006
 30
-0.0000000000000225
 11
6215.403949231919
 21
3089.723196360278
 31
-0.0000000000000225
  0
LINE
  5
112
330
10E
100
AcDbEntity
  8
cotas
100
AcDbLine
 10
6385.875228080696
 20
3084.723196360278
 30
-0.0000000000000225
 11
6225.40394923192
 21
3084.723196360278
 31
-0.0000000000000225
  0
SOLID
  5
113
330
10E
100
AcDbEntity
  8
cotas
100
AcDbTrace
 10
6385.875228080696
 20
3086.389863026945
 30
-0.0000000000000225
 11
6385.875228080696
 21
3083.056529693611
 31
-0.0000000000000225
 12
6395.875228080695
 22
3084.723196360278
 32
-0.0000000000000225
 13
6395.875228080695
 23
3084.723196360278
 33
-0.0000000000000225
  0
SOLID
  5
114
330
10E
100
AcDbEntity
  8
cotas
100
AcDbTrace
 10
6225.40394923192
 20
3086.389863026945
 30
-0.0000000000000225
 11
6225.40394923192
 21
3083.056529693611
 31
-0.0000000000000225
 12
6215.403949231919
 22
3084.723196360278
 32
-0.0000000000000225
 13
6215.403949231919
 23
3084.723196360278
 33
-0.0000000000000225
  0
MTEXT
  5
115
330
10E
100
AcDbEntity
  8
cotas
100
AcDbMText
 10
6305.639588656308
 20
3096.079811538249
 30
-0.0000000000000225
 40
10.0
 41
0.0
 71
     5
 72
     1
  1
180,5
  7
SANINDUSA
 73
     1
 44
1.0
1001
ACAD
1000
MTEXTBEGIN
1070
    73
1070
     1
1070
    44
1040
1.0
1070
    74
1070
     0
1000
MTEXTEND
  0
POINT
  5
116
330
10E
100
AcDbEntity
  8
Defpoints
 62
     0
100
AcDbPoint
 10
6395.875228080695
 20
3054.723196360277
 30
-0.0000000000000423
  0
POINT
  5
117
330
10E
100
AcDbEntity
  8
Defpoints
 62
     0
100
AcDbPoint
 10
6215.403949231919
 20
2919.473775951006
 30
-0.0000000000000225
  0
POINT
  5
118
330
10E
100
AcDbEntity
  8
Defpoints
 62
     0
100
AcDbPoint
 10
6215.403949231919
 20
3084.723196360278
 30
-0.0000000000000225
  0
ENDBLK
  5
119
330
10E
100
AcDbEntity
  8
0
100
AcDbBlockEnd
  0
BLOCK
  5
11B
330
11A
100
AcDbEntity
  8
0
100
AcDbBlockBegin
  2
*D23
 70
     1
 10
0.0
 20
0.0
 30
0.0
  3
*D23
  1

  0
LINE
  5
11C
330
11A
100
AcDbEntity
  8
cotas
100
AcDbLine
 10
5895.572764412113
 20
2924.456414966425
 30
-0.0000000000000225
 11
5895.572764412113
 21
3089.722998240311
 31
-0.0000000000000225
  0
LINE
  5
11D
330
11A
100
AcDbEntity
  8
cotas
100
AcDbLine
 10
5815.585466669705
 20
2924.456414966425
 30
-0.0000000000000225
 11
5815.585466669705
 21
3089.722998240311
 31
-0.0000000000000225
  0
LINE
  5
11E
330
11A
100
AcDbEntity
  8
cotas
100
AcDbLine
 10
5885.572764412113
 20
3084.722998240311
 30
-0.0000000000000225
 11
5825.585466669705
 21
3084.722998240311
 31
-0.0000000000000225
  0
SOLID
  5
11F
330
11A
100
AcDbEntity
  8
cotas
100
AcDbTrace
 10
5885.572764412113
 20
3086.389664906978
 30
-0.0000000000000225
 11
5885.572764412113
 21
3083.056331573645
 31
-0.0000000000000225
 12
5895.572764412113
 22
3084.722998240311
 32
-0.0000000000000225
 13
5895.572764412113
 23
3084.722998240311
 33
-0.0000000000000225
  0
SOLID
  5
120
330
11A
100
AcDbEntity
  8
cotas
100
AcDbTrace
 10
5825.585466669705
 20
3086.389664906978
 30
-0.0000000000000225
 11
5825.585466669705
 21
3083.056331573645
 31
-0.0000000000000225
 12
5815.585466669705
 22
3084.722998240311
 32
-0.0000000000000225
 13
5815.585466669705
 23
3084.722998240311
 33
-0.0000000000000225
  0
MTEXT
  5
121
330
11A
100
AcDbEntity
  8
cotas
100
AcDbMText
 10
5855.579115540909
 20
3094.951339408881
 30
-0.0000000000000225
 40
10.0
 41
0.0
 71
     5
 72
     1
  1
80
  7
SANINDUSA
 73
     1
 44
1.0
1001
ACAD
1000
MTEXTBEGIN
1070
    73
1070
     1
1070
    44
1040
1.0
1070
    74
1070
     0
1000
MTEXTEND
  0
POINT
  5
122
330
11A
100
AcDbEntity
  8
Defpoints
 62
     0
100
AcDbPoint
 10
5895.572764412113
 20
2919.456414966425
 30
-0.0000000000000225
  0
POINT
  5
123
330
11A
100
AcDbEntity
  8
Defpoints
 62
     0
100
AcDbPoint
 10
5815.585466669705
 20
2919.456414966425
 30
-0.0000000000000225
  0
POINT
  5
124
330
11A
100
AcDbEntity
  8
Defpoints
 62
     0
100
AcDbPoint
 10
5815.585466669705
 20
3084.722998240311
 30
-0.0000000000000225
  0
ENDBLK
  5
125
330
11A
100
AcDbEntity
  8
0
100
AcDbBlockEnd
  0
BLOCK
  5
127
330
126
100
AcDbEntity
  8
0
100
AcDbBlockBegin
  2
*D24
 70
     1
 10
0.0
 20
0.0
 30
0.0
  3
*D24
  1

  0
LINE
  5
128
330
126
100
AcDbEntity
  8
cotas
100
AcDbLine
 10
5815.585466669705
 20
2924.456414966425
 30
-0.0000000000000225
 11
5815.585466669705
 21
3089.722998240311
 31
-0.0000000000000225
  0
LINE
  5
129
330
126
100
AcDbEntity
  8
cotas
100
AcDbLine
 10
5735.58663838944
 20
3059.72299824031
 30
-0.0000000000000225
 11
5735.58663838944
 21
3089.722998240311
 31
-0.0000000000000225
  0
LINE
  5
12A
330
126
100
AcDbEntity
  8
cotas
100
AcDbLine
 10
5805.585466669705
 20
3084.722998240311
 30
-0.0000000000000225
 11
5745.58663838944
 21
3084.722998240311
 31
-0.0000000000000225
  0
SOLID
  5
12B
330
126
100
AcDbEntity
  8
cotas
100
AcDbTrace
 10
5805.585466669705
 20
3086.389664906978
 30
-0.0000000000000225
 11
5805.585466669705
 21
3083.056331573645
 31
-0.0000000000000225
 12
5815.585466669705
 22
3084.722998240311
 32
-0.0000000000000225
 13
5815.585466669705
 23
3084.722998240311
 33
-0.0000000000000225
  0
SOLID
  5
12C
330
126
100
AcDbEntity
  8
cotas
100
AcDbTrace
 10
5745.58663838944
 20
3086.389664906978
 30
-0.0000000000000225
 11
5745.58663838944
 21
3083.056331573645
 31
-0.0000000000000225
 12
5735.58663838944
 22
3084.722998240311
 32
-0.0000000000000225
 13
5735.58663838944
 23
3084.722998240311
 33
-0.0000000000000225
  0
MTEXT
  5
12D
330
126
100
AcDbEntity
  8
cotas
100
AcDbMText
 10
5775.586052529572
 20
3094.951339408881
 30
-0.0000000000000225
 40
10.0
 41
0.0
 71
     5
 72
     1
  1
80
  7
SANINDUSA
 73
     1
 44
1.0
1001
ACAD
1000
MTEXTBEGIN
1070
    73
1070
     1
1070
    44
1040
1.0
1070
    74
1070
     0
1000
MTEXTEND
  0
POINT
  5
12E
330
126
100
AcDbEntity
  8
Defpoints
 62
     0
100
AcDbPoint
 10
5815.585466669705
 20
2919.456414966425
 30
-0.0000000000000225
  0
POINT
  5
12F
330
126
100
AcDbEntity
  8
Defpoints
 62
     0
100
AcDbPoint
 10
5735.58663838944
 20
3054.72299824031
 30
-0.0000000000000423
  0
POINT
  5
130
330
126
100
AcDbEntity
  8
Defpoints
 62
     0
100
AcDbPoint
 10
5735.58663838944
 20
3084.722998240311
 30
-0.0000000000000225
  0
ENDBLK
  5
131
330
126
100
AcDbEntity
  8
0
100
AcDbBlockEnd
  0
BLOCK
  5
133
330
132
100
AcDbEntity
  8
0
100
AcDbBlockBegin
  2
*D25
 70
     1
 10
0.0
 20
0.0
 30
0.0
  3
*D25
  1

  0
LINE
  5
134
330
132
100
AcDbEntity
  8
cotas
100
AcDbLine
 10
6300.05727250065
 20
2884.031214123641
 30
0.0000000000003952
 11
6611.576875537863
 21
2884.031214123641
 31
0.0000000000003952
  0
LINE
  5
135
330
132
100
AcDbEntity
  8
cotas
100
AcDbLine
 10
6296.996565992997
 20
2804.053617620067
 30
0.0000000000003952
 11
6611.576875537863
 21
2804.053617620067
 31
0.0000000000003952
  0
LINE
  5
136
330
132
100
AcDbEntity
  8
cotas
100
AcDbLine
 10
6606.576875537864
 20
2874.031214123641
 30
0.0000000000003952
 11
6606.576875537864
 21
2814.053617620067
 31
0.0000000000003952
  0
SOLID
  5
137
330
132
100
AcDbEntity
  8
cotas
100
AcDbTrace
 10
6604.910208871197
 20
2874.031214123641
 30
0.0000000000003952
 11
6608.24354220453
 21
2874.031214123641
 31
0.0000000000003952
 12
6606.576875537864
 22
2884.031214123641
 32
0.0000000000003952
 13
6606.576875537864
 23
2884.031214123641
 33
0.0000000000003952
  0
SOLID
  5
138
330
132
100
AcDbEntity
  8
cotas
100
AcDbTrace
 10
6604.910208871197
 20
2814.053617620067
 30
0.0000000000003952
 11
6608.24354220453
 21
2814.053617620067
 31
0.0000000000003952
 12
6606.576875537864
 22
2804.053617620067
 32
0.0000000000003952
 13
6606.576875537864
 23
2804.053617620067
 33
0.0000000000003952
  0
MTEXT
  5
139
330
132
100
AcDbEntity
  8
cotas
100
AcDbMText
 10
6596.348534369294
 20
2844.042415871855
 30
0.0000000000003952
 40
10.0
 41
0.0
 71
     5
 72
     1
  1
80
  7
SANINDUSA
 11
0.0000000000000001
 21
1.0
 31
0.0
 73
     1
 44
1.0
1001
ACAD
1000
MTEXTBEGIN
1070
    73
1070
     1
1070
    44
1040
1.0
1070
    74
1070
     0
1000
MTEXTEND
  0
POINT
  5
13A
330
132
100
AcDbEntity
  8
Defpoints
 62
     0
100
AcDbPoint
 10
6295.057272500649
 20
2884.031214123641
 30
0.0000000000003952
  0
POINT
  5
13B
330
132
100
AcDbEntity
  8
Defpoints
 62
     0
100
AcDbPoint
 10
6291.996565992997
 20
2804.053617620067
 30
0.0000000000003952
  0
POINT
  5
13C
330
132
100
AcDbEntity
  8
Defpoints
 62
     0
100
AcDbPoint
 10
6606.576875537864
 20
2804.053617620067
 30
0.0000000000003952
  0
ENDBLK
  5
13D
330
132
100
AcDbEntity
  8
0
100
AcDbBlockEnd
  0
BLOCK
  5
13F
330
13E
100
AcDbEntity
  8
0
100
AcDbBlockBegin
  2
*D26
 70
     1
 10
0.0
 20
0.0
 30
0.0
  3
*D26
  1

  0
LINE
  5
140
330
13E
100
AcDbEntity
  8
cotas
100
AcDbLine
 10
6296.996565992997
 20
2804.053617620067
 30
0.0000000000003952
 11
6611.576875537863
 21
2804.053617620067
 31
0.0000000000003952
  0
LINE
  5
141
330
13E
100
AcDbEntity
  8
cotas
100
AcDbLine
 10
6291.97670603866
 20
2724.058738552802
 30
0.0000000000003952
 11
6611.576875537863
 21
2724.058738552802
 31
0.0000000000003952
  0
LINE
  5
142
330
13E
100
AcDbEntity
  8
cotas
100
AcDbLine
 10
6606.576875537864
 20
2794.053617620067
 30
0.0000000000003952
 11
6606.576875537864
 21
2734.058738552803
 31
0.0000000000003952
  0
SOLID
  5
143
330
13E
100
AcDbEntity
  8
cotas
100
AcDbTrace
 10
6604.910208871197
 20
2794.053617620067
 30
0.0000000000003952
 11
6608.24354220453
 21
2794.053617620067
 31
0.0000000000003952
 12
6606.576875537864
 22
2804.053617620067
 32
0.0000000000003952
 13
6606.576875537864
 23
2804.053617620067
 33
0.0000000000003952
  0
SOLID
  5
144
330
13E
100
AcDbEntity
  8
cotas
100
AcDbTrace
 10
6604.910208871197
 20
2734.058738552803
 30
0.0000000000003952
 11
6608.24354220453
 21
2734.058738552803
 31
0.0000000000003952
 12
6606.576875537864
 22
2724.058738552802
 32
0.0000000000003952
 13
6606.576875537864
 23
2724.058738552802
 33
0.0000000000003952
  0
MTEXT
  5
145
330
13E
100
AcDbEntity
  8
cotas
100
AcDbMText
 10
6596.348534369294
 20
2764.056178086436
 30
0.0000000000003952
 40
10.0
 41
0.0
 71
     5
 72
     1
  1
80
  7
SANINDUSA
 11
0.0000000000000001
 21
1.0
 31
0.0
 73
     1
 44
1.0
1001
ACAD
1000
MTEXTBEGIN
1070
    73
1070
     1
1070
    44
1040
1.0
1070
    74
1070
     0
1000
MTEXTEND
  0
POINT
  5
146
330
13E
100
AcDbEntity
  8
Defpoints
 62
     0
100
AcDbPoint
 10
6291.996565992997
 20
2804.053617620067
 30
0.0000000000003952
  0
POINT
  5
147
330
13E
100
AcDbEntity
  8
Defpoints
 62
     0
100
AcDbPoint
 10
6286.976706038661
 20
2724.058738552802
 30
0.0000000000003952
  0
POINT
  5
148
330
13E
100
AcDbEntity
  8
Defpoints
 62
     0
100
AcDbPoint
 10
6606.576875537864
 20
2724.058738552802
 30
0.0000000000003952
  0
ENDBLK
  5
149
330
13E
100
AcDbEntity
  8
0
100
AcDbBlockEnd
  0
BLOCK
  5
14B
330
14A
100
AcDbEntity
  8
0
100
AcDbBlockBegin
  2
*D27
 70
     1
 10
0.0
 20
0.0
 30
0.0
  3
*D27
  1

  0
LINE
  5
14C
330
14A
100
AcDbEntity
  8
cotas
100
AcDbLine
 10
6300.011414255466
 20
2644.037566986217
 30
0.0000000000003952
 11
6611.576875537863
 21
2644.037566986217
 31
0.0000000000003952
  0
LINE
  5
14D
330
14A
100
AcDbEntity
  8
cotas
100
AcDbLine
 10
6291.97670603866
 20
2724.058738552802
 30
0.0000000000003952
 11
6611.576875537863
 21
2724.058738552802
 31
0.0000000000003952
  0
LINE
  5
14E
330
14A
100
AcDbEntity
  8
cotas
100
AcDbLine
 10
6606.576875537864
 20
2654.037566986217
 30
0.0000000000003952
 11
6606.576875537864
 21
2714.058738552802
 31
0.0000000000003952
  0
SOLID
  5
14F
330
14A
100
AcDbEntity
  8
cotas
100
AcDbTrace
 10
6604.910208871197
 20
2654.037566986217
 30
0.0000000000003952
 11
6608.24354220453
 21
2654.037566986217
 31
0.0000000000003952
 12
6606.576875537864
 22
2644.037566986217
 32
0.0000000000003952
 13
6606.576875537864
 23
2644.037566986217
 33
0.0000000000003952
  0
SOLID
  5
150
330
14A
100
AcDbEntity
  8
cotas
100
AcDbTrace
 10
6604.910208871197
 20
2714.058738552802
 30
0.0000000000003952
 11
6608.24354220453
 21
2714.058738552802
 31
0.0000000000003952
 12
6606.576875537864
 22
2724.058738552802
 32
0.0000000000003952
 13
6606.576875537864
 23
2724.058738552802
 33
0.0000000000003952
  0
MTEXT
  5
151
330
14A
100
AcDbEntity
  8
cotas
100
AcDbMText
 10
6596.348534369294
 20
2684.048152769511
 30
0.0000000000003952
 40
10.0
 41
0.0
 71
     5
 72
     1
  1
80
  7
SANINDUSA
 11
0.0000000000000001
 21
1.0
 31
0.0
 73
     1
 44
1.0
1001
ACAD
1000
MTEXTBEGIN
1070
    73
1070
     1
1070
    44
1040
1.0
1070
    74
1070
     0
1000
MTEXTEND
  0
POINT
  5
152
330
14A
100
AcDbEntity
  8
Defpoints
 62
     0
100
AcDbPoint
 10
6295.011414255466
 20
2644.037566986217
 30
0.0000000000003952
  0
POINT
  5
153
330
14A
100
AcDbEntity
  8
Defpoints
 62
     0
100
AcDbPoint
 10
6286.976706038661
 20
2724.058738552802
 30
0.0000000000003952
  0
POINT
  5
154
330
14A
100
AcDbEntity
  8
Defpoints
 62
     0
100
AcDbPoint
 10
6606.576875537864
 20
2724.058738552802
 30
0.0000000000003952
  0
ENDBLK
  5
155
330
14A
100
AcDbEntity
  8
0
100
AcDbBlockEnd
  0
BLOCK
  5
157
330
156
100
AcDbEntity
  8
0
100
AcDbBlockBegin
  2
*D28
 70
     1
 10
0.0
 20
0.0
 30
0.0
  3
*D28
  1

  0
LINE
  5
158
330
156
100
AcDbEntity
  8
cotas
100
AcDbLine
 10
6291.959508501061
 20
2644.041813825698
 30
0.0000000000003952
 11
6611.576875537863
 21
2644.041813825698
 31
0.0000000000003952
  0
LINE
  5
159
330
156
100
AcDbEntity
  8
cotas
100
AcDbLine
 10
6581.592493101293
 20
2604.027158585108
 30
0.0000000000003952
 11
6611.576875537863
 21
2604.027158585108
 31
0.0000000000003952
  0
LINE
  5
15A
330
156
100
AcDbEntity
  8
cotas
100
AcDbLine
 10
6606.576875537864
 20
2634.041813825698
 30
0.0000000000003952
 11
6606.576875537864
 21
2614.027158585108
 31
0.0000000000003952
  0
SOLID
  5
15B
330
156
100
AcDbEntity
  8
cotas
100
AcDbTrace
 10
6604.910208871197
 20
2634.041813825698
 30
0.0000000000003952
 11
6608.24354220453
 21
2634.041813825698
 31
0.0000000000003952
 12
6606.576875537864
 22
2644.041813825698
 32
0.0000000000003952
 13
6606.576875537864
 23
2644.041813825698
 33
0.0000000000003952
  0
SOLID
  5
15C
330
156
100
AcDbEntity
  8
cotas
100
AcDbTrace
 10
6604.910208871197
 20
2614.027158585108
 30
0.0000000000003952
 11
6608.24354220453
 21
2614.027158585108
 31
0.0000000000003952
 12
6606.576875537864
 22
2604.027158585108
 32
0.0000000000003952
 13
6606.576875537864
 23
2604.027158585108
 33
0.0000000000003952
  0
MTEXT
  5
15D
330
156
100
AcDbEntity
  8
cotas
100
AcDbMText
 10
6596.372040077823
 20
2624.034486205404
 30
0.0000000000003952
 40
10.0
 41
0.0
 71
     5
 72
     1
  1
40
  7
SANINDUSA
 11
0.0000000000000001
 21
1.0
 31
0.0
 73
     1
 44
1.0
1001
ACAD
1000
MTEXTBEGIN
1070
    73
1070
     1
1070
    44
1040
1.0
1070
    74
1070
     0
1000
MTEXTEND
  0
POINT
  5
15E
330
156
100
AcDbEntity
  8
Defpoints
 62
     0
100
AcDbPoint
 10
6286.959508501061
 20
2644.041813825698
 30
0.0000000000003952
  0
POINT
  5
15F
330
156
100
AcDbEntity
  8
Defpoints
 62
     0
100
AcDbPoint
 10
6576.592493101293
 20
2604.027158585108
 30
0.0000000000000109
  0
POINT
  5
160
330
156
100
AcDbEntity
  8
Defpoints
 62
     0
100
AcDbPoint
 10
6606.576875537864
 20
2604.027158585108
 30
0.0000000000003952
  0
ENDBLK
  5
161
330
156
100
AcDbEntity
  8
0
100
AcDbBlockEnd
  0
BLOCK
  5
163
330
162
100
AcDbEntity
  8
0
100
AcDbBlockBegin
  2
*D29
 70
     1
 10
0.0
 20
0.0
 30
0.0
  3
*D29
  1

  0
LINE
  5
164
330
162
100
AcDbEntity
  8
cotas
100
AcDbLine
 10
6576.014343528463
 20
2604.012943292574
 30
-0.0000000000000012
 11
6611.576875537863
 21
2604.012943292574
 31
-0.0000000000000012
  0
LINE
  5
165
330
162
100
AcDbEntity
  8
cotas
100
AcDbLine
 10
6286.354303199651
 20
2563.990509591143
 30
-0.0000000000000012
 11
6611.576875537863
 21
2563.990509591143
 31
-0.0000000000000012
  0
LINE
  5
166
330
162
100
AcDbEntity
  8
cotas
100
AcDbLine
 10
6606.576875537864
 20
2594.012943292574
 30
-0.0000000000000012
 11
6606.576875537864
 21
2573.990509591143
 31
-0.0000000000000012
  0
SOLID
  5
167
330
162
100
AcDbEntity
  8
cotas
100
AcDbTrace
 10
6604.910208871197
 20
2594.012943292574
 30
-0.0000000000000012
 11
6608.24354220453
 21
2594.012943292574
 31
-0.0000000000000012
 12
6606.576875537864
 22
2604.012943292574
 32
-0.0000000000000012
 13
6606.576875537864
 23
2604.012943292574
 33
-0.0000000000000012
  0
SOLID
  5
168
330
162
100
AcDbEntity
  8
cotas
100
AcDbTrace
 10
6604.910208871197
 20
2573.990509591143
 30
-0.0000000000000012
 11
6608.24354220453
 21
2573.990509591143
 31
-0.0000000000000012
 12
6606.576875537864
 22
2563.990509591143
 32
-0.0000000000000012
 13
6606.576875537864
 23
2563.990509591143
 33
-0.0000000000000012
  0
MTEXT
  5
169
330
162
100
AcDbEntity
  8
cotas
100
AcDbMText
 10
6596.372040077823
 20
2584.00172644186
 30
-0.0000000000000012
 40
10.0
 41
0.0
 71
     5
 72
     1
  1
40
  7
SANINDUSA
 11
0.0000000000000001
 21
1.0
 31
0.0
 73
     1
 44
1.0
1001
ACAD
1000
MTEXTBEGIN
1070
    73
1070
     1
1070
    44
1040
1.0
1070
    74
1070
     0
1000
MTEXTEND
  0
POINT
  5
16A
330
162
100
AcDbEntity
  8
Defpoints
 62
     0
100
AcDbPoint
 10
6571.014343528464
 20
2604.012943292574
 30
-0.0000000000000012
  0
POINT
  5
16B
330
162
100
AcDbEntity
  8
Defpoints
 62
     0
100
AcDbPoint
 10
6281.354303199652
 20
2563.990509591143
 30
-0.0000000000000012
  0
POINT
  5
16C
330
162
100
AcDbEntity
  8
Defpoints
 62
     0
100
AcDbPoint
 10
6606.576875537864
 20
2563.990509591143
 30
-0.0000000000000012
  0
ENDBLK
  5
16D
330
162
100
AcDbEntity
  8
0
100
AcDbBlockEnd
  0
BLOCK
  5
16F
330
16E
100
AcDbEntity
  8
0
100
AcDbBlockBegin
  2
*D30
 70
     1
 10
0.0
 20
0.0
 30
0.0
  3
*D30
  1

  0
LINE
  5
170
330
16E
100
AcDbEntity
  8
cotas
100
AcDbLine
 10
6291.961594239003
 20
2564.012850421344
 30
0.0000000000003952
 11
6611.576875537863
 21
2564.012850421344
 31
0.0000000000003952
  0
LINE
  5
171
330
16E
100
AcDbEntity
  8
cotas
100
AcDbLine
 10
6291.961594239001
 20
2484.027319764483
 30
0.0000000000003952
 11
6611.576875537863
 21
2484.027319764483
 31
0.0000000000003952
  0
LINE
  5
172
330
16E
100
AcDbEntity
  8
cotas
100
AcDbLine
 10
6606.576875537864
 20
2554.012850421344
 30
0.0000000000003952
 11
6606.576875537864
 21
2494.027319764483
 31
0.0000000000003952
  0
SOLID
  5
173
330
16E
100
AcDbEntity
  8
cotas
100
AcDbTrace
 10
6604.910208871197
 20
2554.012850421344
 30
0.0000000000003952
 11
6608.24354220453
 21
2554.012850421344
 31
0.0000000000003952
 12
6606.576875537864
 22
2564.012850421344
 32
0.0000000000003952
 13
6606.576875537864
 23
2564.012850421344
 33
0.0000000000003952
  0
SOLID
  5
174
330
16E
100
AcDbEntity
  8
cotas
100
AcDbTrace
 10
6604.910208871197
 20
2494.027319764483
 30
0.0000000000003952
 11
6608.24354220453
 21
2494.027319764483
 31
0.0000000000003952
 12
6606.576875537864
 22
2484.027319764483
 32
0.0000000000003952
 13
6606.576875537864
 23
2484.027319764483
 33
0.0000000000003952
  0
MTEXT
  5
175
330
16E
100
AcDbEntity
  8
cotas
100
AcDbMText
 10
6596.348534369294
 20
2524.020085092914
 30
0.0000000000003952
 40
10.0
 41
0.0
 71
     5
 72
     1
  1
80
  7
SANINDUSA
 11
0.0000000000000001
 21
1.0
 31
0.0
 73
     1
 44
1.0
1001
ACAD
1000
MTEXTBEGIN
1070
    73
1070
     1
1070
    44
1040
1.0
1070
    74
1070
     0
1000
MTEXTEND
  0
POINT
  5
176
330
16E
100
AcDbEntity
  8
Defpoints
 62
     0
100
AcDbPoint
 10
6286.961594239002
 20
2564.012850421344
 30
0.0000000000003952
  0
POINT
  5
177
330
16E
100
AcDbEntity
  8
Defpoints
 62
     0
100
AcDbPoint
 10
6286.961594239002
 20
2484.027319764483
 30
0.0000000000003952
  0
POINT
  5
178
330
16E
100
AcDbEntity
  8
Defpoints
 62
     0
100
AcDbPoint
 10
6606.576875537864
 20
2484.027319764483
 30
0.0000000000003952
  0
ENDBLK
  5
179
330
16E
100
AcDbEntity
  8
0
100
AcDbBlockEnd
  0
BLOCK
  5
17B
330
17A
100
AcDbEntity
  8
0
100
AcDbBlockBegin
  2
*D31
 70
     1
 10
0.0
 20
0.0
 30
0.0
  3
*D31
  1

  0
LINE
  5
17C
330
17A
100
AcDbEntity
  8
cotas
100
AcDbLine
 10
6291.961594239001
 20
2484.027319764483
 30
0.0000000000003952
 11
6611.576875537863
 21
2484.027319764483
 31
0.0000000000003952
  0
LINE
  5
17D
330
17A
100
AcDbEntity
  8
cotas
100
AcDbLine
 10
6300.101684907364
 20
2404.023774401931
 30
0.0000000000003952
 11
6611.576875537863
 21
2404.023774401931
 31
0.0000000000003952
  0
LINE
  5
17E
330
17A
100
AcDbEntity
  8
cotas
100
AcDbLine
 10
6606.576875537864
 20
2474.027319764483
 30
0.0000000000003952
 11
6606.576875537864
 21
2414.023774401931
 31
0.0000000000003952
  0
SOLID
  5
17F
330
17A
100
AcDbEntity
  8
cotas
100
AcDbTrace
 10
6604.910208871197
 20
2474.027319764483
 30
0.0000000000003952
 11
6608.24354220453
 21
2474.027319764483
 31
0.0000000000003952
 12
6606.576875537864
 22
2484.027319764483
 32
0.0000000000003952
 13
6606.576875537864
 23
2484.027319764483
 33
0.0000000000003952
  0
SOLID
  5
180
330
17A
100
AcDbEntity
  8
cotas
100
AcDbTrace
 10
6604.910208871197
 20
2414.023774401931
 30
0.0000000000003952
 11
6608.24354220453
 21
2414.023774401931
 31
0.0000000000003952
 12
6606.576875537864
 22
2404.023774401931
 32
0.0000000000003952
 13
6606.576875537864
 23
2404.023774401931
 33
0.0000000000003952
  0
MTEXT
  5
181
330
17A
100
AcDbEntity
  8
cotas
100
AcDbMText
 10
6596.348534369294
 20
2444.025547083208
 30
0.0000000000003952
 40
10.0
 41
0.0
 71
     5
 72
     1
  1
80
  7
SANINDUSA
 11
0.0000000000000001
 21
1.0
 31
0.0
 73
     1
 44
1.0
1001
ACAD
1000
MTEXTBEGIN
1070
    73
1070
     1
1070
    44
1040
1.0
1070
    74
1070
     0
1000
MTEXTEND
  0
POINT
  5
182
330
17A
100
AcDbEntity
  8
Defpoints
 62
     0
100
AcDbPoint
 10
6286.961594239002
 20
2484.027319764483
 30
0.0000000000003952
  0
POINT
  5
183
330
17A
100
AcDbEntity
  8
Defpoints
 62
     0
100
AcDbPoint
 10
6295.101684907364
 20
2404.023774401931
 30
0.0000000000003952
  0
POINT
  5
184
330
17A
100
AcDbEntity
  8
Defpoints
 62
     0
100
AcDbPoint
 10
6606.576875537864
 20
2404.023774401931
 30
0.0000000000003952
  0
ENDBLK
  5
185
330
17A
100
AcDbEntity
  8
0
100
AcDbBlockEnd
  0
BLOCK
  5
187
330
186
100
AcDbEntity
  8
0
100
AcDbBlockBegin
  2
*D32
 70
     1
 10
0.0
 20
0.0
 30
0.0
  3
*D32
  1

  0
LINE
  5
188
330
186
100
AcDbEntity
  8
cotas
100
AcDbLine
 10
6292.049779152957
 20
2404.028021241412
 30
0.0000000000003952
 11
6611.576875537863
 21
2404.028021241412
 31
0.0000000000003952
  0
LINE
  5
189
330
186
100
AcDbEntity
  8
cotas
100
AcDbLine
 10
6300.061779888813
 20
2324.02271296162
 30
0.0000000000003952
 11
6611.576875537863
 21
2324.02271296162
 31
0.0000000000003952
  0
LINE
  5
18A
330
186
100
AcDbEntity
  8
cotas
100
AcDbLine
 10
6606.576875537864
 20
2394.028021241412
 30
0.0000000000003952
 11
6606.576875537864
 21
2334.02271296162
 31
0.0000000000003952
  0
SOLID
  5
18B
330
186
100
AcDbEntity
  8
cotas
100
AcDbTrace
 10
6604.910208871197
 20
2394.028021241412
 30
0.0000000000003952
 11
6608.24354220453
 21
2394.028021241412
 31
0.0000000000003952
 12
6606.576875537864
 22
2404.028021241412
 32
0.0000000000003952
 13
6606.576875537864
 23
2404.028021241412
 33
0.0000000000003952
  0
SOLID
  5
18C
330
186
100
AcDbEntity
  8
cotas
100
AcDbTrace
 10
6604.910208871197
 20
2334.02271296162
 30
0.0000000000003952
 11
6608.24354220453
 21
2334.02271296162
 31
0.0000000000003952
 12
6606.576875537864
 22
2324.02271296162
 32
0.0000000000003952
 13
6606.576875537864
 23
2324.02271296162
 33
0.0000000000003952
  0
MTEXT
  5
18D
330
186
100
AcDbEntity
  8
cotas
100
AcDbMText
 10
6596.348534369294
 20
2364.025367101517
 30
0.0000000000003952
 40
10.0
 41
0.0
 71
     5
 72
     1
  1
80
  7
SANINDUSA
 11
0.0000000000000001
 21
1.0
 31
0.0
 73
     1
 44
1.0
1001
ACAD
1000
MTEXTBEGIN
1070
    73
1070
     1
1070
    44
1040
1.0
1070
    74
1070
     0
1000
MTEXTEND
  0
POINT
  5
18E
330
186
100
AcDbEntity
  8
Defpoints
 62
     0
100
AcDbPoint
 10
6287.049779152958
 20
2404.028021241412
 30
0.0000000000003952
  0
POINT
  5
18F
330
186
100
AcDbEntity
  8
Defpoints
 62
     0
100
AcDbPoint
 10
6295.061779888812
 20
2324.02271296162
 30
0.0000000000003952
  0
POINT
  5
190
330
186
100
AcDbEntity
  8
Defpoints
 62
     0
100
AcDbPoint
 10
6606.576875537864
 20
2324.02271296162
 30
0.0000000000003952
  0
ENDBLK
  5
191
330
186
100
AcDbEntity
  8
0
100
AcDbBlockEnd
  0
BLOCK
  5
193
330
192
100
AcDbEntity
  8
0
100
AcDbBlockBegin
  2
*D33
 70
     1
 10
0.0
 20
0.0
 30
0.0
  3
*D33
  1

  0
LINE
  5
194
330
192
100
AcDbEntity
  8
cotas
100
AcDbLine
 10
6292.009874134406
 20
2324.026959801101
 30
0.0000000000003952
 11
6611.576167731285
 21
2324.026959801101
 31
0.0000000000003952
  0
LINE
  5
195
330
192
100
AcDbEntity
  8
cotas
100
AcDbLine
 10
6576.501570348868
 20
2154.035284122777
 30
0.0000000000003952
 11
6611.576167731285
 21
2154.035284122777
 31
0.0000000000003952
  0
LINE
  5
196
330
192
100
AcDbEntity
  8
cotas
100
AcDbLine
 10
6606.576167731283
 20
2314.026959801101
 30
0.0000000000003952
 11
6606.576167731283
 21
2164.035284122777
 31
0.0000000000003952
  0
SOLID
  5
197
330
192
100
AcDbEntity
  8
cotas
100
AcDbTrace
 10
6604.909501064617
 20
2314.026959801101
 30
0.0000000000003952
 11
6608.242834397952
 21
2314.026959801101
 31
0.0000000000003952
 12
6606.576167731283
 22
2324.026959801101
 32
0.0000000000003952
 13
6606.576167731283
 23
2324.026959801101
 33
0.0000000000003952
  0
SOLID
  5
198
330
192
100
AcDbEntity
  8
cotas
100
AcDbTrace
 10
6604.909501064617
 20
2164.035284122777
 30
0.0000000000003952
 11
6608.242834397952
 21
2164.035284122777
 31
0.0000000000003952
 12
6606.576167731283
 22
2154.035284122777
 32
0.0000000000003952
 13
6606.576167731283
 23
2154.035284122777
 33
0.0000000000003952
  0
MTEXT
  5
199
330
192
100
AcDbEntity
  8
cotas
100
AcDbMText
 10
6596.371332271243
 20
2239.03112196194
 30
0.0000000000003952
 40
10.0
 41
0.0
 71
     5
 72
     1
  1
170
  7
SANINDUSA
 11
0.0000000000000001
 21
1.0
 31
0.0
 73
     1
 44
1.0
1001
ACAD
1000
MTEXTBEGIN
1070
    73
1070
     1
1070
    44
1040
1.0
1070
    74
1070
     0
1000
MTEXTEND
  0
POINT
  5
19A
330
192
100
AcDbEntity
  8
Defpoints
 62
     0
100
AcDbPoint
 10
6287.009874134406
 20
2324.026959801101
 30
0.0000000000003952
  0
POINT
  5
19B
330
192
100
AcDbEntity
  8
Defpoints
 62
     0
100
AcDbPoint
 10
6571.501570348869
 20
2154.035284122777
 30
0.0000000000003952
  0
POINT
  5
19C
330
192
100
AcDbEntity
  8
Defpoints
 62
     0
100
AcDbPoint
 10
6606.576167731283
 20
2154.035284122777
 30
0.0000000000003952
  0
ENDBLK
  5
19D
330
192
100
AcDbEntity
  8
0
100
AcDbBlockEnd
  0
BLOCK
  5
19F
330
19E
100
AcDbEntity
  8
0
100
AcDbBlockBegin
  2
*D34
 70
     1
 10
0.0
 20
0.0
 30
0.0
  3
*D34
  1

  0
LINE
  5
1A0
330
19E
100
AcDbEntity
  8
cotas
100
AcDbLine
 10
4914.47564544455
 20
2190.160992655061
 30
0.0
 11
4945.413654398933
 21
2222.565438251202
 31
0.0
  0
MTEXT
  5
1A1
330
19E
100
AcDbEntity
  8
cotas
100
AcDbMText
 10
4919.108477687792
 20
2209.796083668442
 30
0.0
 40
10.0
 41
0.0
 71
     5
 72
     1
  1
R20
  7
SANINDUSA
 11
0.6905515714747068
 21
0.7232831583369083
 31
0.0
 73
     1
 44
1.0
1001
ACAD
1000
MTEXTBEGIN
1070
    73
1070
     1
1070
    44
1040
1.0
1070
    74
1070
     0
1000
MTEXTEND
  0
LINE
  5
1A2
330
19E
100
AcDbEntity
  8
cotas
100
AcDbLine
 10
4966.130201543173
 20
2244.263933001309
 30
0.0
 11
4952.31917011368
 21
2229.798269834571
 31
0.0
  0
SOLID
  5
1A3
330
19E
100
AcDbEntity
  8
cotas
100
AcDbTrace
 10
4944.208182468372
 20
2223.716357536993
 30
0.0
 11
4946.619126329495
 21
2221.414518965411
 31
0.0
 12
4952.31917011368
 22
2229.798269834571
 32
0.0
 13
4952.31917011368
 23
2229.798269834571
 33
0.0
  0
POINT
  5
1A4
330
19E
100
AcDbEntity
  8
Defpoints
 62
     0
100
AcDbPoint
 10
4952.31917011368
 20
2229.798269834571
 30
0.0
  0
POINT
  5
1A5
330
19E
100
AcDbEntity
  8
Defpoints
 62
     0
100
AcDbPoint
 10
4966.130201543173
 20
2244.263933001309
 30
0.0
  0
ENDBLK
  5
1A6
330
19E
100
AcDbEntity
  8
0
100
AcDbBlockEnd
  0
BLOCK
  5
1A8
330
1A7
100
AcDbEntity
  8
0
100
AcDbBlockBegin
  2
*D35
 70
     1
 10
0.0
 20
0.0
 30
0.0
  3
*D35
  1

  0
LINE
  5
1A9
330
1A7
100
AcDbEntity
  8
cotas
100
AcDbLine
 10
5020.5516065477
 20
2301.726262443776
 30
0.0
 11
4988.048891154342
 21
2270.891509574437
 31
0.0
  0
MTEXT
  5
1AA
330
1A7
100
AcDbEntity
  8
cotas
100
AcDbMText
 10
5000.904185985691
 20
2297.153489449584
 30
0.0
 40
10.0
 41
0.0
 71
     5
 72
     1
  1
R10
  7
SANINDUSA
 11
0.7254765885281039
 21
0.688246844887519
 31
0.0
 73
     1
 44
1.0
1001
ACAD
1000
MTEXTBEGIN
1070
    73
1070
     1
1070
    44
1040
1.0
1070
    74
1070
     0
1000
MTEXTEND
  0
SOLID
  5
1AB
330
1A7
100
AcDbEntity
  8
cotas
100
AcDbTrace
 10
4986.90181307953
 20
2272.100637221984
 30
0.0
 11
4989.195969229155
 21
2269.682381926889
 31
0.0
 12
4980.794125269061
 22
2264.009041125561
 32
0.0
 13
4980.794125269061
 23
2264.009041125561
 33
0.0
  0
POINT
  5
1AC
330
1A7
100
AcDbEntity
  8
Defpoints
 62
     0
100
AcDbPoint
 10
4980.794125269061
 20
2264.009041125561
 30
0.0
  0
POINT
  5
1AD
330
1A7
100
AcDbEntity
  8
Defpoints
 62
     0
100
AcDbPoint
 10
4988.048891154335
 20
2270.891509574429
 30
0.0
  0
ENDBLK
  5
1AE
330
1A7
100
AcDbEntity
  8
0
100
AcDbBlockEnd
  0
BLOCK
  5
1B0
330
1AF
100
AcDbEntity
  8
0
100
AcDbBlockBegin
  2
*D36
 70
     1
 10
0.0
 20
0.0
 30
0.0
  3
*D36
  1

  0
LINE
  5
1B1
330
1AF
100
AcDbEntity
  8
cotas
100
AcDbLine
 10
5395.922043824157
 20
2299.723084772468
 30
0.0
 11
5430.837619513319
 21
2271.649768852371
 31
0.0
  0
MTEXT
  5
1B2
330
1AF
100
AcDbEntity
  8
cotas
100
AcDbMText
 10
5415.877621721204
 20
2296.772441047496
 30
0.0
 40
10.0
 41
0.0
 71
     5
 72
     1
  1
R10
  7
SANINDUSA
 11
0.7793328166865147
 21
-0.6266102144359469
 31
0.0
 73
     1
 44
1.0
1001
ACAD
1000
MTEXTBEGIN
1070
    73
1070
     1
1070
    44
1040
1.0
1070
    74
1070
     0
1000
MTEXTEND
  0
SOLID
  5
1B3
330
1AF
100
AcDbEntity
  8
cotas
100
AcDbTrace
 10
5431.881969870712
 20
2272.948656880182
 30
0.0
 11
5429.793269155926
 21
2270.35088082456
 31
0.0
 12
5438.630947680183
 22
2265.383666708011
 32
0.0
 13
5438.630947680183
 23
2265.383666708011
 33
0.0
  0
POINT
  5
1B4
330
1AF
100
AcDbEntity
  8
Defpoints
 62
     0
100
AcDbPoint
 10
5438.630947680183
 20
2265.383666708011
 30
0.0
  0
POINT
  5
1B5
330
1AF
100
AcDbEntity
  8
Defpoints
 62
     0
100
AcDbPoint
 10
5430.837619513319
 20
2271.649768852371
 30
0.0
  0
ENDBLK
  5
1B6
330
1AF
100
AcDbEntity
  8
0
100
AcDbBlockEnd
  0
BLOCK
  5
1B8
330
1B7
100
AcDbEntity
  8
0
100
AcDbBlockBegin
  2
*D37
 70
     1
 10
0.0
 20
0.0
 30
0.0
  3
*D37
  1

  0
LINE
  5
1B9
330
1B7
100
AcDbEntity
  8
cotas
100
AcDbLine
 10
4912.850340574419
 20
3016.319607486091
 30
0.0
 11
4944.761810392003
 21
2984.873358321264
 31
0.0
  0
MTEXT
  5
1BA
330
1B7
100
AcDbEntity
  8
cotas
100
AcDbMText
 10
4932.40976450305
 20
3011.377050528612
 30
0.0
 40
10.0
 41
0.0
 71
     5
 72
     1
  1
R20
  7
SANINDUSA
 11
0.7122796965729518
 21
-0.701895742863528
 31
0.0
 73
     1
 44
1.0
1001
ACAD
1000
MTEXTBEGIN
1070
    73
1070
     1
1070
    44
1040
1.0
1070
    74
1070
     0
1000
MTEXTEND
  0
LINE
  5
1BB
330
1B7
100
AcDbEntity
  8
cotas
100
AcDbLine
 10
4966.130201289193
 20
2963.816486035359
 30
0.0
 11
4951.884607357732
 21
2977.854400892629
 31
0.0
  0
SOLID
  5
1BC
330
1B7
100
AcDbEntity
  8
cotas
100
AcDbTrace
 10
4945.93163663011
 20
2986.060491148887
 30
0.0
 11
4943.591984153897
 21
2983.686225493643
 31
0.0
 12
4951.884607357732
 22
2977.854400892629
 32
0.0
 13
4951.884607357732
 23
2977.854400892629
 33
0.0
  0
POINT
  5
1BD
330
1B7
100
AcDbEntity
  8
Defpoints
 62
     0
100
AcDbPoint
 10
4951.884607357732
 20
2977.854400892629
 30
0.0
  0
POINT
  5
1BE
330
1B7
100
AcDbEntity
  8
Defpoints
 62
     0
100
AcDbPoint
 10
4966.130201289193
 20
2963.816486035359
 30
0.0
  0
ENDBLK
  5
1BF
330
1B7
100
AcDbEntity
  8
0
100
AcDbBlockEnd
  0
BLOCK
  5
1C1
330
1C0
100
AcDbEntity
  8
0
100
AcDbBlockBegin
  2
*D38
 70
     1
 10
0.0
 20
0.0
 30
0.0
  3
*D38
  1

  0
LINE
  5
1C2
330
1C0
100
AcDbEntity
  8
cotas
100
AcDbLine
 10
5017.218655978051
 20
2903.159438758875
 30
0.0
 11
4988.049102501083
 21
2937.16452135559
 31
0.0
  0
MTEXT
  5
1C3
330
1C0
100
AcDbEntity
  8
cotas
100
AcDbMText
 10
5013.634846945953
 20
2923.011081018856
 30
0.0
 40
10.0
 41
0.0
 71
     5
 72
     1
  1
R10
  7
SANINDUSA
 11
0.6510787757038356
 21
-0.7590101631915047
 31
0.0
 73
     1
 44
1.0
1001
ACAD
1000
MTEXTBEGIN
1070
    73
1070
     1
1070
    44
1040
1.0
1070
    74
1070
     0
1000
MTEXTEND
  0
SOLID
  5
1C4
330
1C0
100
AcDbEntity
  8
cotas
100
AcDbTrace
 10
4989.314119439735
 20
2938.24965264843
 30
0.0
 11
4986.78408556243
 21
2936.07939006275
 31
0.0
 12
4981.538314744043
 22
2944.754622987505
 32
0.0
 13
4981.538314744043
 23
2944.754622987505
 33
0.0
  0
POINT
  5
1C5
330
1C0
100
AcDbEntity
  8
Defpoints
 62
     0
100
AcDbPoint
 10
4981.538314744043
 20
2944.754622987505
 30
0.0
  0
POINT
  5
1C6
330
1C0
100
AcDbEntity
  8
Defpoints
 62
     0
100
AcDbPoint
 10
4988.049102501083
 20
2937.164521355589
 30
0.0
  0
ENDBLK
  5
1C7
330
1C0
100
AcDbEntity
  8
0
100
AcDbBlockEnd
  0
BLOCK
  5
1C9
330
1C8
100
AcDbEntity
  8
0
100
AcDbBlockBegin
  2
*D39
 70
     1
 10
0.0
 20
0.0
 30
0.0
  3
*D39
  1

  0
LINE
  5
1CA
330
1C8
100
AcDbEntity
  8
cotas
100
AcDbLine
 10
6536.393128248004
 20
2188.73939547704
 30
0.0000000000003952
 11
6506.377060853289
 21
2221.999644883964
 31
0.0000000000003952
  0
MTEXT
  5
1CB
330
1C8
100
AcDbEntity
  8
cotas
100
AcDbMText
 10
6532.313372361153
 20
2208.496812454002
 30
0.0000000000003952
 40
10.0
 41
0.0
 71
     5
 72
     1
  1
R20
  7
SANINDUSA
 11
0.6699733825622948
 21
-0.7423851201755306
 31
0.0
 73
     1
 44
1.0
1001
ACAD
1000
MTEXTBEGIN
1070
    73
1070
     1
1070
    44
1040
1.0
1070
    74
1070
     0
1000
MTEXTEND
  0
LINE
  5
1CC
330
1C8
100
AcDbEntity
  8
cotas
100
AcDbLine
 10
6486.277859376423
 20
2244.271198489227
 30
0.0000000000003952
 11
6499.677327027666
 21
2229.423496085719
 31
0.0000000000003952
  0
SOLID
  5
1CD
330
1C8
100
AcDbEntity
  8
cotas
100
AcDbTrace
 10
6507.614369386915
 20
2223.116267188235
 30
0.0000000000003952
 11
6505.139752319663
 21
2220.883022579694
 31
0.0000000000003952
 12
6499.677327027666
 22
2229.423496085719
 32
0.0000000000003952
 13
6499.677327027666
 23
2229.423496085719
 33
0.0000000000003952
  0
POINT
  5
1CE
330
1C8
100
AcDbEntity
  8
Defpoints
 62
     0
100
AcDbPoint
 10
6499.677327027666
 20
2229.423496085719
 30
0.0000000000003952
  0
POINT
  5
1CF
330
1C8
100
AcDbEntity
  8
Defpoints
 62
     0
100
AcDbPoint
 10
6486.277859376423
 20
2244.271198489227
 30
0.0000000000003952
  0
ENDBLK
  5
1D0
330
1C8
100
AcDbEntity
  8
0
100
AcDbBlockEnd
  0
BLOCK
  5
1D2
330
1D1
100
AcDbEntity
  8
0
100
AcDbBlockBegin
  2
*D40
 70
     1
 10
0.0
 20
0.0
 30
0.0
  3
*D40
  1

  0
LINE
  5
1D3
330
1D1
100
AcDbEntity
  8
cotas
100
AcDbLine
 10
6539.698712851246
 20
3016.170975838074
 30
0.0000000000003952
 11
6507.695501808964
 21
2984.818097574063
 31
0.0000000000003952
  0
MTEXT
  5
1D4
330
1D1
100
AcDbEntity
  8
cotas
100
AcDbMText
 10
6520.124931593286
 20
3011.285587320944
 30
0.0000000000003952
 40
10.0
 41
0.0
 71
     5
 72
     1
  1
R20
  7
SANINDUSA
 11
0.7143274058156264
 21
0.6998116584486983
 31
0.0
 73
     1
 44
1.0
1001
ACAD
1000
MTEXTBEGIN
1070
    73
1070
     1
1070
    44
1040
1.0
1070
    74
1070
     0
1000
MTEXTEND
  0
LINE
  5
1D5
330
1D1
100
AcDbEntity
  8
cotas
100
AcDbLine
 10
6486.265679634492
 20
2963.8237478206
 30
0.0000000000003952
 11
6500.552227750808
 21
2977.819980989576
 31
0.0000000000003952
  0
SOLID
  5
1D6
330
1D1
100
AcDbEntity
  8
cotas
100
AcDbTrace
 10
6506.529149044881
 20
2986.008643250422
 30
0.0000000000003952
 11
6508.861854573044
 21
2983.627551897703
 31
0.0000000000003952
 12
6500.552227750808
 22
2977.819980989576
 32
0.0000000000003952
 13
6500.552227750808
 23
2977.819980989576
 33
0.0000000000003952
  0
POINT
  5
1D7
330
1D1
100
AcDbEntity
  8
Defpoints
 62
     0
100
AcDbPoint
 10
6500.552227750808
 20
2977.819980989576
 30
0.0000000000003952
  0
POINT
  5
1D8
330
1D1
100
AcDbEntity
  8
Defpoints
 62
     0
100
AcDbPoint
 10
6486.265679634492
 20
2963.8237478206
 30
0.0000000000003952
  0
ENDBLK
  5
1D9
330
1D1
100
AcDbEntity
  8
0
100
AcDbBlockEnd
  0
BLOCK
  5
1DB
330
1DA
100
AcDbEntity
  8
0
100
AcDbBlockBegin
  2
*D41
 70
     1
 10
0.0
 20
0.0
 30
0.0
  3
*D41
  1

  0
LINE
  5
1DC
330
1DA
100
AcDbEntity
  8
cotas
100
AcDbLine
 10
6287.69932686148
 20
2692.090701330144
 30
0.000000000000107
 11
6330.71517509741
 21
2657.073593436293
 31
0.000000000000107
  0
LINE
  5
1DD
330
1DA
100
AcDbEntity
  8
cotas
100
AcDbLine
 10
6460.980584460505
 20
2551.030865428576
 30
0.000000000000107
 11
6468.735833040636
 21
2544.717695110869
 31
0.000000000000107
  0
MTEXT
  5
1DE
330
1DA
100
AcDbEntity
  8
cotas
100
AcDbMText
 10
6312.210939936955
 20
2686.19190141081
 30
0.000000000000107
 40
10.0
 41
0.0
 71
     5
 72
     1
  1
\U+2205148
  7
SANINDUSA
 11
0.7755248580130866
 21
-0.6313170317707117
 31
0.0
 73
     1
 44
1.0
1001
ACAD
1000
MTEXTBEGIN
1070
    73
1070
     1
1070
    44
1040
1.0
1070
    74
1070
     0
1000
MTEXTEND
  0
LINE
  5
1DF
330
1DA
100
AcDbEntity
  8
cotas
100
AcDbLine
 10
6453.225335880374
 20
2557.344035746283
 30
0.000000000000107
 11
6338.470423677541
 21
2650.760423118586
 31
0.000000000000107
  0
SOLID
  5
1E0
330
1DA
100
AcDbEntity
  8
cotas
100
AcDbTrace
 10
6462.032779513456
 20
2552.323406858598
 30
0.000000000000107
 11
6459.928389407552
 21
2549.738323998554
 31
0.000000000000107
 12
6453.225335880374
 22
2557.344035746283
 32
0.000000000000107
 13
6453.225335880374
 23
2557.344035746283
 33
0.000000000000107
  0
SOLID
  5
1E1
330
1DA
100
AcDbEntity
  8
cotas
100
AcDbTrace
 10
6331.767370150362
 20
2658.366134866315
 30
0.000000000000107
 11
6329.662980044459
 21
2655.781052006271
 31
0.000000000000107
 12
6338.470423677541
 22
2650.760423118586
 32
0.000000000000107
 13
6338.470423677541
 23
2650.760423118586
 33
0.000000000000107
  0
POINT
  5
1E2
330
1DA
100
AcDbEntity
  8
Defpoints
 62
     0
100
AcDbPoint
 10
6338.470423677541
 20
2650.760423118586
 30
0.000000000000107
  0
POINT
  5
1E3
330
1DA
100
AcDbEntity
  8
Defpoints
 62
     0
100
AcDbPoint
 10
6453.225335880374
 20
2557.344035746283
 30
0.000000000000107
  0
ENDBLK
  5
1E4
330
1DA
100
AcDbEntity
  8
0
100
AcDbBlockEnd
  0
BLOCK
  5
1E6
330
1E5
100
AcDbEntity
  8
0
100
AcDbBlockBegin
  2
*D42
 70
     1
 10
0.0
 20
0.0
 30
0.0
  3
*D42
  1

  0
LINE
  5
1E7
330
1E5
100
AcDbEntity
  8
cotas
100
AcDbLine
 10
6135.430613059019
 20
2924.473912950153
 30
-0.0000000000000225
 11
6135.430613059019
 21
3089.722998240311
 31
-0.0000000000000225
  0
LINE
  5
1E8
330
1E5
100
AcDbEntity
  8
cotas
100
AcDbLine
 10
6215.403949231919
 20
2924.473775951006
 30
-0.0000000000000225
 11
6215.403949231919
 21
3089.722998240311
 31
-0.0000000000000225
  0
LINE
  5
1E9
330
1E5
100
AcDbEntity
  8
cotas
100
AcDbLine
 10
6145.430613059018
 20
3084.722998240311
 30
-0.0000000000000225
 11
6205.40394923192
 21
3084.722998240311
 31
-0.0000000000000225
  0
SOLID
  5
1EA
330
1E5
100
AcDbEntity
  8
cotas
100
AcDbTrace
 10
6145.430613059018
 20
3086.389664906978
 30
-0.0000000000000225
 11
6145.430613059018
 21
3083.056331573645
 31
-0.0000000000000225
 12
6135.430613059019
 22
3084.722998240311
 32
-0.0000000000000225
 13
6135.430613059019
 23
3084.722998240311
 33
-0.0000000000000225
  0
SOLID
  5
1EB
330
1E5
100
AcDbEntity
  8
cotas
100
AcDbTrace
 10
6205.40394923192
 20
3086.389664906978
 30
-0.0000000000000225
 11
6205.40394923192
 21
3083.056331573645
 31
-0.0000000000000225
 12
6215.403949231919
 22
3084.722998240311
 32
-0.0000000000000225
 13
6215.403949231919
 23
3084.722998240311
 33
-0.0000000000000225
  0
MTEXT
  5
1EC
330
1E5
100
AcDbEntity
  8
cotas
100
AcDbMText
 10
6175.417281145469
 20
3094.951339408881
 30
-0.0000000000000225
 40
10.0
 41
0.0
 71
     5
 72
     1
  1
80
  7
SANINDUSA
 73
     1
 44
1.0
1001
ACAD
1000
MTEXTBEGIN
1070
    73
1070
     1
1070
    44
1040
1.0
1070
    74
1070
     0
1000
MTEXTEND
  0
POINT
  5
1ED
330
1E5
100
AcDbEntity
  8
Defpoints
 62
     0
100
AcDbPoint
 10
6135.430613059019
 20
2919.473912950154
 30
-0.0000000000000225
  0
POINT
  5
1EE
330
1E5
100
AcDbEntity
  8
Defpoints
 62
     0
100
AcDbPoint
 10
6215.403949231919
 20
2919.473775951006
 30
-0.0000000000000225
  0
POINT
  5
1EF
330
1E5
100
AcDbEntity
  8
Defpoints
 62
     0
100
AcDbPoint
 10
6215.403949231919
 20
3084.722998240311
 30
-0.0000000000000225
  0
ENDBLK
  5
1F0
330
1E5
100
AcDbEntity
  8
0
100
AcDbBlockEnd
  0
BLOCK
  5
1F2
330
1F1
100
AcDbEntity
  8
0
100
AcDbBlockBegin
  2
*D43
 70
     1
 10
0.0
 20
0.0
 30
0.0
  3
*D43
  1

  0
LINE
  5
1F3
330
1F1
100
AcDbEntity
  8
cotas
100
AcDbLine
 10
6395.875228080695
 20
3059.723196360277
 30
0.0
 11
6395.875228080695
 21
3089.726207311392
 31
0.0
  0
LINE
  5
1F4
330
1F1
100
AcDbEntity
  8
cotas
100
AcDbLine
 10
6575.894322821098
 20
3054.04886299155
 30
0.0
 11
6575.894322821098
 21
3089.726207311392
 31
0.0
  0
LINE
  5
1F5
330
1F1
100
AcDbEntity
  8
cotas
100
AcDbLine
 10
6405.875228080695
 20
3084.726207311392
 30
0.0
 11
6565.894322821097
 21
3084.726207311392
 31
0.0
  0
SOLID
  5
1F6
330
1F1
100
AcDbEntity
  8
cotas
100
AcDbTrace
 10
6405.875228080695
 20
3086.392873978058
 30
0.0
 11
6405.875228080695
 21
3083.059540644725
 31
0.0
 12
6395.875228080695
 22
3084.726207311392
 32
0.0
 13
6395.875228080695
 23
3084.726207311392
 33
0.0
  0
SOLID
  5
1F7
330
1F1
100
AcDbEntity
  8
cotas
100
AcDbTrace
 10
6565.894322821097
 20
3086.392873978058
 30
0.0
 11
6565.894322821097
 21
3083.059540644725
 31
0.0
 12
6575.894322821098
 22
3084.726207311392
 32
0.0
 13
6575.894322821098
 23
3084.726207311392
 33
0.0
  0
MTEXT
  5
1F8
330
1F1
100
AcDbEntity
  8
cotas
100
AcDbMText
 10
6485.884775450897
 20
3094.954548479961
 30
0.0
 40
10.0
 41
0.0
 71
     5
 72
     1
  1
180
  7
SANINDUSA
 73
     1
 44
1.0
1001
ACAD
1000
MTEXTBEGIN
1070
    73
1070
     1
1070
    44
1040
1.0
1070
    74
1070
     0
1000
MTEXTEND
  0
POINT
  5
1F9
330
1F1
100
AcDbEntity
  8
Defpoints
 62
     0
100
AcDbPoint
 10
6395.875228080695
 20
3054.723196360277
 30
-0.0000000000000423
  0
POINT
  5
1FA
330
1F1
100
AcDbEntity
  8
Defpoints
 62
     0
100
AcDbPoint
 10
6575.894322821098
 20
3049.048862991549
 30
0.0
  0
POINT
  5
1FB
330
1F1
100
AcDbEntity
  8
Defpoints
 62
     0
100
AcDbPoint
 10
6575.894322821098
 20
3084.726207311392
 30
0.0
  0
ENDBLK
  5
1FC
330
1F1
100
AcDbEntity
  8
0
100
AcDbBlockEnd
  0
BLOCK
  5
1FE
330
1FD
100
AcDbEntity
  8
0
100
AcDbBlockBegin
  2
*D44
 70
     1
 10
0.0
 20
0.0
 30
0.0
  3
*D44
  1

  0
LINE
  5
1FF
330
1FD
100
AcDbEntity
  8
cotas
100
AcDbLine
 10
3836.443887414453
 20
3666.16680745603
 30
0.0
 11
3836.443887414453
 21
3696.16680745603
 31
0.0
  0
LINE
  5
200
330
1FD
100
AcDbEntity
  8
cotas
100
AcDbLine
 10
4736.443891072267
 20
3666.16680745603
 30
0.0
 11
4736.443891072267
 21
3696.16680745603
 31
0.0
  0
LINE
  5
201
330
1FD
100
AcDbEntity
  8
cotas
100
AcDbLine
 10
3846.443887414453
 20
3691.16680745603
 30
0.0
 11
4726.443891072267
 21
3691.16680745603
 31
0.0
  0
SOLID
  5
202
330
1FD
100
AcDbEntity
  8
cotas
100
AcDbTrace
 10
3846.443887414453
 20
3692.833474122697
 30
0.0
 11
3846.443887414453
 21
3689.500140789364
 31
0.0
 12
3836.443887414453
 22
3691.16680745603
 32
0.0
 13
3836.443887414453
 23
3691.16680745603
 33
0.0
  0
SOLID
  5
203
330
1FD
100
AcDbEntity
  8
cotas
100
AcDbTrace
 10
4726.443891072267
 20
3692.833474122697
 30
0.0
 11
4726.443891072267
 21
3689.500140789364
 31
0.0
 12
4736.443891072267
 22
3691.16680745603
 32
0.0
 13
4736.443891072267
 23
3691.16680745603
 33
0.0
  0
MTEXT
  5
204
330
1FD
100
AcDbEntity
  8
cotas
100
AcDbMText
 10
4286.443889243359
 20
3701.371642916071
 30
0.0
 40
10.0
 41
0.0
 71
     5
 72
     1
  1
900
  7
SANINDUSA
 73
     1
 44
1.0
1001
ACAD
1000
MTEXTBEGIN
1070
    73
1070
     1
1070
    44
1040
1.0
1070
    74
1070
     0
1000
MTEXTEND
  0
POINT
  5
205
330
1FD
100
AcDbEntity
  8
Defpoints
 62
     0
100
AcDbPoint
 10
3836.443887414453
 20
3661.166807456031
 30
0.0
  0
POINT
  5
206
330
1FD
100
AcDbEntity
  8
Defpoints
 62
     0
100
AcDbPoint
 10
4736.443891072267
 20
3661.166807456031
 30
0.0
  0
POINT
  5
207
330
1FD
100
AcDbEntity
  8
Defpoints
 62
     0
100
AcDbPoint
 10
4736.443891072267
 20
3691.16680745603
 30
0.0
  0
ENDBLK
  5
208
330
1FD
100
AcDbEntity
  8
0
100
AcDbBlockEnd
  0
BLOCK
  5
20A
330
209
100
AcDbEntity
  8
0
100
AcDbBlockBegin
  2
*D45
 70
     1
 10
0.0
 20
0.0
 30
0.0
  3
*D45
  1

  0
LINE
  5
20B
330
209
100
AcDbEntity
  8
cotas
100
AcDbLine
 10
3903.938339414283
 20
3607.625497868486
 30
0.0
 11
3903.938339414283
 21
3514.371117733318
 31
0.0
  0
LINE
  5
20C
330
209
100
AcDbEntity
  8
cotas
100
AcDbLine
 10
3905.418772372388
 20
3578.772804762863
 30
0.0
 11
3907.665459619448
 21
3514.436174934516
 31
0.0
  0
ARC
  5
20D
330
209
100
AcDbEntity
  8
cotas
100
AcDbCircle
 10
3903.938339414284
 20
3621.1668083501
 30
0.0
 40
101.7956906167821
100
AcDbArc
 50
258.7248005625786
 51
269.9999999999998
  0
LINE
  5
20E
330
209
100
AcDbEntity
  8
cotas
100
AcDbLine
 10
3884.035076454371
 20
3521.335837445795
 30
0.0
 11
3846.93447457221
 21
3528.732570428984
 31
0.0
  0
ARC
  5
20F
330
209
100
AcDbEntity
  8
cotas
100
AcDbCircle
 10
3903.938339414284
 20
3621.1668083501
 30
0.0
 40
101.7956906167821
100
AcDbArc
 50
258.7384539308031
 51
264.3692269654014
  0
ARC
  5
210
330
209
100
AcDbEntity
  8
cotas
100
AcDbCircle
 10
3903.938339414284
 20
3621.1668083501
 30
0.0
 40
101.7956906167821
100
AcDbArc
 50
277.6307753712094
 51
283.2615484058077
  0
ARC
  5
211
330
209
100
AcDbEntity
  8
cotas
100
AcDbCircle
 10
3903.938339414284
 20
3621.1668083501
 30
0.0
 40
101.7956906167821
100
AcDbArc
 50
269.9999999999998
 51
272.0000023366111
  0
SOLID
  5
212
330
209
100
AcDbEntity
  8
cotas
100
AcDbTrace
 10
3894.032272906176
 20
3521.526952633014
 30
0.0
 11
3893.86854626347
 21
3518.197642689861
 31
0.0
 12
3903.938339414283
 22
3519.371117733318
 32
0.0
 13
3903.938339414283
 23
3519.371117733318
 33
0.0
  0
SOLID
  5
213
330
209
100
AcDbEntity
  8
cotas
100
AcDbTrace
 10
3917.595574558958
 20
3518.611799993272
 30
0.0
 11
3917.315756277257
 21
3521.933367821925
 31
0.0
 12
3907.490961932151
 22
3519.433129062496
 32
0.0
 13
3907.490961932151
 23
3519.433129062496
 33
0.0
  0
MTEXT
  5
214
330
209
100
AcDbEntity
  8
cotas
100
AcDbMText
 10
3867.703270165359
 20
3536.161749983886
 30
0.0
 40
10.0
 41
0.0
 71
     5
 72
     1
  1
2,0°
  7
SANINDUSA
 11
0.9806993822570209
 21
-0.1955216653997642
 31
0.0
 73
     1
 44
1.0
1001
ACAD
1000
MTEXTBEGIN
1070
    73
1070
     1
1070
    44
1040
1.0
1070
    74
1070
     0
1000
MTEXTEND
  0
POINT
  5
215
330
209
100
AcDbEntity
  8
Defpoints
 62
     0
100
AcDbPoint
 10
3906.307021665155
 20
3519.398679878845
 30
0.0
  0
POINT
  5
216
330
209
100
AcDbEntity
  8
Defpoints
 62
     0
100
AcDbPoint
 10
3903.938339414284
 20
3621.1668083501
 30
0.0
  0
POINT
  5
217
330
209
100
AcDbEntity
  8
Defpoints
 62
     0
100
AcDbPoint
 10
3903.938339414284
 20
3621.1668083501
 30
0.0
  0
POINT
  5
218
330
209
100
AcDbEntity
  8
Defpoints
 62
     0
100
AcDbPoint
 10
3905.244274685092
 20
3583.769758890843
 30
0.0
  0
POINT
  5
219
330
209
100
AcDbEntity
  8
Defpoints
 62
     0
100
AcDbPoint
 10
3903.938339414283
 20
3612.625497868486
 30
0.0
  0
ENDBLK
  5
21A
330
209
100
AcDbEntity
  8
0
100
AcDbBlockEnd
  0
BLOCK
  5
21C
330
21B
100
AcDbEntity
  8
0
100
AcDbBlockBegin
  2
*D46
 70
     1
 10
0.0
 20
0.0
 30
0.0
  3
*D46
  1

  0
LINE
  5
21D
330
21B
100
AcDbEntity
  8
cotas
100
AcDbLine
 10
4945.894290763884
 20
4523.29118538658
 30
0.0
 11
4945.894290763884
 21
4553.291185386579
 31
0.0
  0
LINE
  5
21E
330
21B
100
AcDbEntity
  8
cotas
100
AcDbLine
 10
4875.894290487557
 20
4523.291185386579
 30
0.0
 11
4875.894290487557
 21
4553.291185386579
 31
0.0
  0
LINE
  5
21F
330
21B
100
AcDbEntity
  8
cotas
100
AcDbLine
 10
4935.894290763885
 20
4548.29118538658
 30
0.0
 11
4885.894290487557
 21
4548.29118538658
 31
0.0
  0
SOLID
  5
220
330
21B
100
AcDbEntity
  8
cotas
100
AcDbTrace
 10
4935.894290763885
 20
4549.957852053246
 30
0.0
 11
4935.894290763885
 21
4546.624518719912
 31
0.0
 12
4945.894290763884
 22
4548.29118538658
 32
0.0
 13
4945.894290763884
 23
4548.29118538658
 33
0.0
  0
SOLID
  5
221
330
21B
100
AcDbEntity
  8
cotas
100
AcDbTrace
 10
4885.894290487557
 20
4549.957852053246
 30
0.0
 11
4885.894290487557
 21
4546.624518719912
 31
0.0
 12
4875.894290487557
 22
4548.29118538658
 32
0.0
 13
4875.894290487557
 23
4548.29118538658
 33
0.0
  0
MTEXT
  5
222
330
21B
100
AcDbEntity
  8
cotas
100
AcDbMText
 10
4910.89429062572
 20
4558.49602084662
 30
0.0
 40
10.0
 41
0.0
 71
     5
 72
     1
  1
70
  7
SANINDUSA
 73
     1
 44
1.0
1001
ACAD
1000
MTEXTBEGIN
1070
    73
1070
     1
1070
    44
1040
1.0
1070
    74
1070
     0
1000
MTEXTEND
  0
POINT
  5
223
330
21B
100
AcDbEntity
  8
Defpoints
 62
     0
100
AcDbPoint
 10
4945.894290763884
 20
4518.291185386579
 30
0.0
  0
POINT
  5
224
330
21B
100
AcDbEntity
  8
Defpoints
 62
     0
100
AcDbPoint
 10
4875.894290487557
 20
4518.291185386579
 30
0.0
  0
POINT
  5
225
330
21B
100
AcDbEntity
  8
Defpoints
 62
     0
100
AcDbPoint
 10
4875.894290487557
 20
4548.29118538658
 30
0.0
  0
ENDBLK
  5
226
330
21B
100
AcDbEntity
  8
0
100
AcDbBlockEnd
  0
BLOCK
  5
228
330
227
100
AcDbEntity
  8
0
100
AcDbBlockBegin
  2
*D47
 70
     1
 10
0.0
 20
0.0
 30
0.0
  3
*D47
  1

  0
LINE
  5
229
330
227
100
AcDbEntity
  8
cotas
100
AcDbLine
 10
4945.894290763884
 20
4523.29118538658
 30
0.0
 11
4945.894290763884
 21
4553.291185386579
 31
0.0
  0
LINE
  5
22A
330
227
100
AcDbEntity
  8
cotas
100
AcDbLine
 10
4978.301091589712
 20
4463.716535298515
 30
0.0
 11
4978.301091589712
 21
4553.291185386579
 31
0.0
  0
LINE
  5
22B
330
227
100
AcDbEntity
  8
cotas
100
AcDbLine
 10
4955.894290763885
 20
4548.29118538658
 30
0.0
 11
4968.301091589712
 21
4548.29118538658
 31
0.0
  0
LINE
  5
22C
330
227
100
AcDbEntity
  8
cotas
100
AcDbLine
 10
4978.301091589712
 20
4548.29118538658
 30
0.0
 11
5027.750386418457
 21
4548.29118538658
 31
0.0
  0
SOLID
  5
22D
330
227
100
AcDbEntity
  8
cotas
100
AcDbTrace
 10
4955.894290763885
 20
4549.957852053246
 30
0.0
 11
4955.894290763885
 21
4546.624518719912
 31
0.0
 12
4945.894290763884
 22
4548.29118538658
 32
0.0
 13
4945.894290763884
 23
4548.29118538658
 33
0.0
  0
SOLID
  5
22E
330
227
100
AcDbEntity
  8
cotas
100
AcDbTrace
 10
4968.301091589712
 20
4549.957852053246
 30
0.0
 11
4968.301091589712
 21
4546.624518719912
 31
0.0
 12
4978.301091589712
 22
4548.29118538658
 32
0.0
 13
4978.301091589712
 23
4548.29118538658
 33
0.0
  0
MTEXT
  5
22F
330
227
100
AcDbEntity
  8
cotas
100
AcDbMText
 10
5008.025739004084
 20
4559.637726689468
 30
0.0
 40
10.0
 41
0.0
 71
     5
 72
     1
  1
32,4
  7
SANINDUSA
 73
     1
 44
1.0
1001
ACAD
1000
MTEXTBEGIN
1070
    73
1070
     1
1070
    44
1040
1.0
1070
    74
1070
     0
1000
MTEXTEND
  0
POINT
  5
230
330
227
100
AcDbEntity
  8
Defpoints
 62
     0
100
AcDbPoint
 10
4945.894290763884
 20
4518.291185386579
 30
0.0
  0
POINT
  5
231
330
227
100
AcDbEntity
  8
Defpoints
 62
     0
100
AcDbPoint
 10
4978.301091589712
 20
4458.716535298516
 30
0.0
  0
POINT
  5
232
330
227
100
AcDbEntity
  8
Defpoints
 62
     0
100
AcDbPoint
 10
4978.301091589712
 20
4548.29118538658
 30
0.0
  0
ENDBLK
  5
233
330
227
100
AcDbEntity
  8
0
100
AcDbBlockEnd
  0
BLOCK
  5
235
330
234
100
AcDbEntity
  8
0
100
AcDbBlockBegin
  2
*D48
 70
     1
 10
0.0
 20
0.0
 30
0.0
  3
*D48
  1

  0
LINE
  5
236
330
234
100
AcDbEntity
  8
cotas
100
AcDbLine
 10
4978.38835362266
 20
4463.715773774285
 30
0.0
 11
4978.800428822037
 21
4487.323545929342
 31
0.0
  0
LINE
  5
237
330
234
100
AcDbEntity
  8
cotas
100
AcDbLine
 10
5528.304585957213
 20
4454.116950149958
 30
0.0
 11
5528.71666115659
 21
4477.724722305016
 31
0.0
  0
LINE
  5
238
330
234
100
AcDbEntity
  8
cotas
100
AcDbLine
 10
4988.711643740627
 20
4482.149783387677
 30
0.0
 11
5518.630922172103
 21
4472.900007895144
 31
0.0
  0
SOLID
  5
239
330
234
100
AcDbEntity
  8
cotas
100
AcDbTrace
 10
4988.740731084942
 20
4483.816196212933
 30
0.0
 11
4988.68255639631
 21
4480.483370562421
 31
0.0
 12
4978.713166789089
 22
4482.324307453573
 32
0.0
 13
4978.713166789089
 23
4482.324307453573
 33
0.0
  0
SOLID
  5
23A
330
234
100
AcDbEntity
  8
cotas
100
AcDbTrace
 10
5518.66000951642
 20
4474.566420720401
 30
0.0
 11
5518.601834827787
 21
4471.233595069888
 31
0.0
 12
5528.629399123642
 22
4472.725483829247
 32
0.0
 13
5528.629399123642
 23
4472.725483829247
 33
0.0
  0
MTEXT
  5
23B
330
234
100
AcDbEntity
  8
cotas
100
AcDbMText
 10
5253.849381893996
 20
4487.728176855554
 30
0.0
 40
10.0
 41
0.0
 71
     5
 72
     1
  1
550
  7
SANINDUSA
 11
0.9998476951537311
 21
-0.0174524065896849
 31
0.0
 73
     1
 44
1.0
1001
ACAD
1000
MTEXTBEGIN
1070
    73
1070
     1
1070
    44
1040
1.0
1070
    74
1070
     0
1000
MTEXTEND
  0
POINT
  5
23C
330
234
100
AcDbEntity
  8
Defpoints
 62
     0
100
AcDbPoint
 10
4978.301091589712
 20
4458.716535298516
 30
0.0
  0
POINT
  5
23D
330
234
100
AcDbEntity
  8
Defpoints
 62
     0
100
AcDbPoint
 10
5528.217323924264
 20
4449.11771167419
 30
0.0
  0
POINT
  5
23E
330
234
100
AcDbEntity
  8
Defpoints
 62
     0
100
AcDbPoint
 10
5528.629399123642
 20
4472.725483829247
 30
0.0
  0
ENDBLK
  5
23F
330
234
100
AcDbEntity
  8
0
100
AcDbBlockEnd
  0
BLOCK
  5
241
330
240
100
AcDbEntity
  8
0
100
AcDbBlockBegin
  2
*D49
 70
     1
 10
0.0
 20
0.0
 30
0.0
  3
*D49
  1

  0
LINE
  5
242
330
240
100
AcDbEntity
  8
cotas
100
AcDbLine
 10
5533.217323924264
 20
4449.11771167419
 30
0.0
 11
5582.703089598719
 21
4449.11771167419
 31
0.0
  0
LINE
  5
243
330
240
100
AcDbEntity
  8
cotas
100
AcDbLine
 10
5533.199720322996
 20
4426.093663733289
 30
0.0
 11
5582.703089598719
 21
4426.093663733289
 31
0.0
  0
LINE
  5
244
330
240
100
AcDbEntity
  8
cotas
100
AcDbLine
 10
5577.70308959872
 20
4459.117711674189
 30
0.0
 11
5577.70308959872
 21
4469.117711674189
 31
0.0
  0
LINE
  5
245
330
240
100
AcDbEntity
  8
cotas
100
AcDbLine
 10
5577.70308959872
 20
4416.093663733288
 30
0.0
 11
5577.70308959872
 21
4380.720930355183
 31
0.0
  0
LINE
  5
246
330
240
100
AcDbEntity
  8
cotas
100
AcDbLine
 10
5577.70308959872
 20
4449.11771167419
 30
0.0
 11
5577.70308959872
 21
4426.093663733289
 31
0.0
  0
SOLID
  5
247
330
240
100
AcDbEntity
  8
cotas
100
AcDbTrace
 10
5576.036422932053
 20
4459.117711674189
 30
0.0
 11
5579.369756265387
 21
4459.117711674189
 31
0.0
 12
5577.70308959872
 22
4449.11771167419
 32
0.0
 13
5577.70308959872
 23
4449.11771167419
 33
0.0
  0
SOLID
  5
248
330
240
100
AcDbEntity
  8
cotas
100
AcDbTrace
 10
5576.036422932053
 20
4416.093663733288
 30
0.0
 11
5579.369756265387
 21
4416.093663733288
 31
0.0
 12
5577.70308959872
 22
4426.093663733289
 32
0.0
 13
5577.70308959872
 23
4426.093663733289
 33
0.0
  0
MTEXT
  5
249
330
240
100
AcDbEntity
  8
cotas
100
AcDbMText
 10
5567.494896180317
 20
4393.407297044237
 30
0.0
 40
10.0
 41
0.0
 71
     5
 72
     1
  1
23
  7
SANINDUSA
 11
0.0000000000000001
 21
1.0
 31
0.0
 73
     1
 44
1.0
1001
ACAD
1000
MTEXTBEGIN
1070
    73
1070
     1
1070
    44
1040
1.0
1070
    74
1070
     0
1000
MTEXTEND
  0
POINT
  5
24A
330
240
100
AcDbEntity
  8
Defpoints
 62
     0
100
AcDbPoint
 10
5528.217323924264
 20
4449.11771167419
 30
0.0
  0
POINT
  5
24B
330
240
100
AcDbEntity
  8
Defpoints
 62
     0
100
AcDbPoint
 10
5528.199720322995
 20
4426.093663733289
 30
0.0
  0
POINT
  5
24C
330
240
100
AcDbEntity
  8
Defpoints
 62
     0
100
AcDbPoint
 10
5577.70308959872
 20
4426.093663733289
 30
0.0
  0
ENDBLK
  5
24D
330
240
100
AcDbEntity
  8
0
100
AcDbBlockEnd
  0
BLOCK
  5
24F
330
24E
100
AcDbEntity
  8
0
100
AcDbBlockBegin
  2
*D50
 70
     1
 10
0.0
 20
0.0
 30
0.0
  3
*D50
  1

  0
LINE
  5
250
330
24E
100
AcDbEntity
  8
cotas
100
AcDbLine
 10
4973.301091589712
 20
4458.716535298516
 30
0.0
 11
4840.196087907048
 21
4458.716535298516
 31
0.0
  0
LINE
  5
251
330
24E
100
AcDbEntity
  8
cotas
100
AcDbLine
 10
4973.301091589712
 20
4448.715011940859
 30
0.0
 11
4840.196087907048
 21
4448.715011940859
 31
0.0
  0
LINE
  5
252
330
24E
100
AcDbEntity
  8
cotas
100
AcDbLine
 10
4845.196087907048
 20
4468.716535298516
 30
0.0
 11
4845.196087907048
 21
4478.716535298516
 31
0.0
  0
LINE
  5
253
330
24E
100
AcDbEntity
  8
cotas
100
AcDbLine
 10
4845.196087907048
 20
4438.71501194086
 30
0.0
 11
4845.196087907048
 21
4404.000438401572
 31
0.0
  0
LINE
  5
254
330
24E
100
AcDbEntity
  8
cotas
100
AcDbLine
 10
4845.196087907048
 20
4458.716535298516
 30
0.0
 11
4845.196087907048
 21
4448.715011940859
 31
0.0
  0
SOLID
  5
255
330
24E
100
AcDbEntity
  8
cotas
100
AcDbTrace
 10
4843.52942124038
 20
4468.716535298516
 30
0.0
 11
4846.862754573715
 21
4468.716535298516
 31
0.0
 12
4845.196087907048
 22
4458.716535298516
 32
0.0
 13
4845.196087907048
 23
4458.716535298516
 33
0.0
  0
SOLID
  5
256
330
24E
100
AcDbEntity
  8
cotas
100
AcDbTrace
 10
4843.52942124038
 20
4438.71501194086
 30
0.0
 11
4846.862754573715
 21
4438.71501194086
 31
0.0
 12
4845.196087907048
 22
4448.715011940859
 32
0.0
 13
4845.196087907048
 23
4448.715011940859
 33
0.0
  0
MTEXT
  5
257
330
24E
100
AcDbEntity
  8
cotas
100
AcDbMText
 10
4834.991252447006
 20
4416.357725171216
 30
0.0
 40
10.0
 41
0.0
 71
     5
 72
     1
  1
10
  7
SANINDUSA
 11
0.0000000000000001
 21
1.0
 31
0.0
 73
     1
 44
1.0
1001
ACAD
1000
MTEXTBEGIN
1070
    73
1070
     1
1070
    44
1040
1.0
1070
    74
1070
     0
1000
MTEXTEND
  0
POINT
  5
258
330
24E
100
AcDbEntity
  8
Defpoints
 62
     0
100
AcDbPoint
 10
4978.301091589712
 20
4458.716535298516
 30
0.0
  0
POINT
  5
259
330
24E
100
AcDbEntity
  8
Defpoints
 62
     0
100
AcDbPoint
 10
4978.301091589712
 20
4448.715011940859
 30
0.0
  0
POINT
  5
25A
330
24E
100
AcDbEntity
  8
Defpoints
 62
     0
100
AcDbPoint
 10
4845.196087907048
 20
4448.715011940859
 30
0.0
  0
ENDBLK
  5
25B
330
24E
100
AcDbEntity
  8
0
100
AcDbBlockEnd
  0
BLOCK
  5
25D
330
25C
100
AcDbEntity
  8
0
100
AcDbBlockBegin
  2
*D51
 70
     1
 10
0.0
 20
0.0
 30
0.0
  3
*D51
  1

  0
LINE
  5
25E
330
25C
100
AcDbEntity
  8
cotas
100
AcDbLine
 10
6575.894279293088
 20
4523.29118538658
 30
0.0
 11
6575.894279293088
 21
4553.291185386579
 31
0.0
  0
LINE
  5
25F
330
25C
100
AcDbEntity
  8
cotas
100
AcDbLine
 10
6505.894301470959
 20
4523.29118538658
 30
0.0
 11
6505.894301470959
 21
4553.291185386579
 31
0.0
  0
LINE
  5
260
330
25C
100
AcDbEntity
  8
cotas
100
AcDbLine
 10
6565.894279293087
 20
4548.29118538658
 30
0.0
 11
6515.894301470961
 21
4548.29118538658
 31
0.0
  0
SOLID
  5
261
330
25C
100
AcDbEntity
  8
cotas
100
AcDbTrace
 10
6565.894279293087
 20
4549.957852053246
 30
0.0
 11
6565.894279293087
 21
4546.624518719912
 31
0.0
 12
6575.894279293088
 22
4548.29118538658
 32
0.0
 13
6575.894279293088
 23
4548.29118538658
 33
0.0
  0
SOLID
  5
262
330
25C
100
AcDbEntity
  8
cotas
100
AcDbTrace
 10
6515.894301470961
 20
4549.957852053246
 30
0.0
 11
6515.894301470961
 21
4546.624518719912
 31
0.0
 12
6505.894301470959
 22
4548.29118538658
 32
0.0
 13
6505.894301470959
 23
4548.29118538658
 33
0.0
  0
MTEXT
  5
263
330
25C
100
AcDbEntity
  8
cotas
100
AcDbMText
 10
6540.894290382024
 20
4558.49602084662
 30
0.0
 40
10.0
 41
0.0
 71
     5
 72
     1
  1
70
  7
SANINDUSA
 73
     1
 44
1.0
1001
ACAD
1000
MTEXTBEGIN
1070
    73
1070
     1
1070
    44
1040
1.0
1070
    74
1070
     0
1000
MTEXTEND
  0
POINT
  5
264
330
25C
100
AcDbEntity
  8
Defpoints
 62
     0
100
AcDbPoint
 10
6575.894279293088
 20
4518.291185386579
 30
0.0
  0
POINT
  5
265
330
25C
100
AcDbEntity
  8
Defpoints
 62
     0
100
AcDbPoint
 10
6505.894301470959
 20
4518.291185386579
 30
0.0
  0
POINT
  5
266
330
25C
100
AcDbEntity
  8
Defpoints
 62
     0
100
AcDbPoint
 10
6505.894301470959
 20
4548.29118538658
 30
0.0
  0
ENDBLK
  5
267
330
25C
100
AcDbEntity
  8
0
100
AcDbBlockEnd
  0
BLOCK
  5
269
330
268
100
AcDbEntity
  8
0
100
AcDbBlockBegin
  2
*D52
 70
     1
 10
0.0
 20
0.0
 30
0.0
  3
*D52
  1

  0
LINE
  5
26A
330
268
100
AcDbEntity
  8
cotas
100
AcDbLine
 10
6575.894279293088
 20
4523.29118538658
 30
0.0
 11
6575.894279293088
 21
4583.286185342338
 31
0.0
  0
LINE
  5
26B
330
268
100
AcDbEntity
  8
cotas
100
AcDbLine
 10
6395.894301216542
 20
4447.185864533969
 30
0.0
 11
6395.894301216542
 21
4583.286185342338
 31
0.0
  0
LINE
  5
26C
330
268
100
AcDbEntity
  8
cotas
100
AcDbLine
 10
6565.894279293087
 20
4578.286185342338
 30
0.0
 11
6405.894301216541
 21
4578.286185342338
 31
0.0
  0
SOLID
  5
26D
330
268
100
AcDbEntity
  8
cotas
100
AcDbTrace
 10
6565.894279293087
 20
4579.952852009006
 30
0.0
 11
6565.894279293087
 21
4576.619518675671
 31
0.0
 12
6575.894279293088
 22
4578.286185342338
 32
0.0
 13
6575.894279293088
 23
4578.286185342338
 33
0.0
  0
SOLID
  5
26E
330
268
100
AcDbEntity
  8
cotas
100
AcDbTrace
 10
6405.894301216541
 20
4579.952852009006
 30
0.0
 11
6405.894301216541
 21
4576.619518675671
 31
0.0
 12
6395.894301216542
 22
4578.286185342338
 32
0.0
 13
6395.894301216542
 23
4578.286185342338
 33
0.0
  0
MTEXT
  5
26F
330
268
100
AcDbEntity
  8
cotas
100
AcDbMText
 10
6485.894290254815
 20
4588.514526510908
 30
0.0
 40
10.0
 41
0.0
 71
     5
 72
     1
  1
180
  7
SANINDUSA
 73
     1
 44
1.0
1001
ACAD
1000
MTEXTBEGIN
1070
    73
1070
     1
1070
    44
1040
1.0
1070
    74
1070
     0
1000
MTEXTEND
  0
POINT
  5
270
330
268
100
AcDbEntity
  8
Defpoints
 62
     0
100
AcDbPoint
 10
6575.894279293088
 20
4518.291185386579
 30
0.0
  0
POINT
  5
271
330
268
100
AcDbEntity
  8
Defpoints
 62
     0
100
AcDbPoint
 10
6395.894301216542
 20
4442.18586453397
 30
0.0
  0
POINT
  5
272
330
268
100
AcDbEntity
  8
Defpoints
 62
     0
100
AcDbPoint
 10
6395.894301216542
 20
4578.286185342338
 30
0.0
  0
ENDBLK
  5
273
330
268
100
AcDbEntity
  8
0
100
AcDbBlockEnd
  0
BLOCK
  5
275
330
274
100
AcDbEntity
  8
0
100
AcDbBlockBegin
  2
*D53
 70
     1
 10
0.0
 20
0.0
 30
0.0
  3
*D53
  1

  0
LINE
  5
276
330
274
100
AcDbEntity
  8
cotas
100
AcDbLine
 10
4875.894290487559
 20
3666.16680745603
 30
0.0
 11
4875.894290487559
 21
3696.166807456029
 31
0.0
  0
LINE
  5
277
330
274
100
AcDbEntity
  8
cotas
100
AcDbLine
 10
6575.894322821098
 20
3666.16680745603
 30
0.0
 11
6575.894322821098
 21
3696.166807456029
 31
0.0
  0
LINE
  5
278
330
274
100
AcDbEntity
  8
cotas
100
AcDbLine
 10
4885.894290487558
 20
3691.166807456028
 30
0.0
 11
6565.894322821097
 21
3691.166807456028
 31
0.0
  0
SOLID
  5
279
330
274
100
AcDbEntity
  8
cotas
100
AcDbTrace
 10
4885.894290487558
 20
3692.833474122695
 30
0.0
 11
4885.894290487558
 21
3689.500140789363
 31
0.0
 12
4875.894290487559
 22
3691.166807456028
 32
0.0
 13
4875.894290487559
 23
3691.166807456028
 33
0.0
  0
SOLID
  5
27A
330
274
100
AcDbEntity
  8
cotas
100
AcDbTrace
 10
6565.894322821097
 20
3692.833474122695
 30
0.0
 11
6565.894322821097
 21
3689.500140789363
 31
0.0
 12
6575.894322821098
 22
3691.166807456028
 32
0.0
 13
6575.894322821098
 23
3691.166807456028
 33
0.0
  0
MTEXT
  5
27B
330
274
100
AcDbEntity
  8
cotas
100
AcDbMText
 10
5725.894306654328
 20
3701.371642916069
 30
0.0
 40
10.0
 41
0.0
 71
     5
 72
     1
  1
1700
  7
SANINDUSA
 73
     1
 44
1.0
1001
ACAD
1000
MTEXTBEGIN
1070
    73
1070
     1
1070
    44
1040
1.0
1070
    74
1070
     0
1000
MTEXTEND
  0
POINT
  5
27C
330
274
100
AcDbEntity
  8
Defpoints
 62
     0
100
AcDbPoint
 10
4875.894290487559
 20
3661.166807456031
 30
0.0
  0
POINT
  5
27D
330
274
100
AcDbEntity
  8
Defpoints
 62
     0
100
AcDbPoint
 10
6575.894322821098
 20
3661.166807456031
 30
0.0
  0
POINT
  5
27E
330
274
100
AcDbEntity
  8
Defpoints
 62
     0
100
AcDbPoint
 10
6575.894322821098
 20
3691.166807456028
 30
0.0
  0
ENDBLK
  5
27F
330
274
100
AcDbEntity
  8
0
100
AcDbBlockEnd
  0
BLOCK
  5
281
330
280
100
AcDbEntity
  8
0
100
AcDbBlockBegin
  2
*D54
 70
     1
 10
0.0
 20
0.0
 30
0.0
  3
*D54
  1

  0
LINE
  5
282
330
280
100
AcDbEntity
  8
cotas
100
AcDbLine
 10
6135.430613059019
 20
2924.473912950153
 30
-0.0000000000000225
 11
6135.430613059019
 21
3089.722998240311
 31
-0.0000000000000225
  0
LINE
  5
283
330
280
100
AcDbEntity
  8
cotas
100
AcDbLine
 10
6055.454336923975
 20
2924.474971549236
 30
-0.0000000000000225
 11
6055.454336923975
 21
3089.722998240311
 31
-0.0000000000000225
  0
LINE
  5
284
330
280
100
AcDbEntity
  8
cotas
100
AcDbLine
 10
6125.430613059019
 20
3084.722998240311
 30
-0.0000000000000225
 11
6065.454336923975
 21
3084.722998240311
 31
-0.0000000000000225
  0
SOLID
  5
285
330
280
100
AcDbEntity
  8
cotas
100
AcDbTrace
 10
6125.430613059019
 20
3086.389664906978
 30
-0.0000000000000225
 11
6125.430613059019
 21
3083.056331573645
 31
-0.0000000000000225
 12
6135.430613059019
 22
3084.722998240311
 32
-0.0000000000000225
 13
6135.430613059019
 23
3084.722998240311
 33
-0.0000000000000225
  0
SOLID
  5
286
330
280
100
AcDbEntity
  8
cotas
100
AcDbTrace
 10
6065.454336923975
 20
3086.389664906978
 30
-0.0000000000000225
 11
6065.454336923975
 21
3083.056331573645
 31
-0.0000000000000225
 12
6055.454336923975
 22
3084.722998240311
 32
-0.0000000000000225
 13
6055.454336923975
 23
3084.722998240311
 33
-0.0000000000000225
  0
MTEXT
  5
287
330
280
100
AcDbEntity
  8
cotas
100
AcDbMText
 10
6095.442474991497
 20
3094.951339408881
 30
-0.0000000000000225
 40
10.0
 41
0.0
 71
     5
 72
     1
  1
80
  7
SANINDUSA
 73
     1
 44
1.0
1001
ACAD
1000
MTEXTBEGIN
1070
    73
1070
     1
1070
    44
1040
1.0
1070
    74
1070
     0
1000
MTEXTEND
  0
POINT
  5
288
330
280
100
AcDbEntity
  8
Defpoints
 62
     0
100
AcDbPoint
 10
6135.430613059019
 20
2919.473912950154
 30
-0.0000000000000225
  0
POINT
  5
289
330
280
100
AcDbEntity
  8
Defpoints
 62
     0
100
AcDbPoint
 10
6055.454336923975
 20
2919.474971549236
 30
-0.0000000000000225
  0
POINT
  5
28A
330
280
100
AcDbEntity
  8
Defpoints
 62
     0
100
AcDbPoint
 10
6055.454336923975
 20
3084.722998240311
 30
-0.0000000000000225
  0
ENDBLK
  5
28B
330
280
100
AcDbEntity
  8
0
100
AcDbBlockEnd
  0
BLOCK
  5
28D
330
28C
100
AcDbEntity
  8
0
100
AcDbBlockBegin
  2
*D55
 70
     1
 10
0.0
 20
0.0
 30
0.0
  3
*D55
  1

  0
LINE
  5
28E
330
28C
100
AcDbEntity
  8
cotas
100
AcDbLine
 10
6055.454336923975
 20
2924.474971549236
 30
-0.0000000000000225
 11
6055.454336923975
 21
3089.722998240311
 31
-0.0000000000000225
  0
LINE
  5
28F
330
28C
100
AcDbEntity
  8
cotas
100
AcDbLine
 10
5975.487347630732
 20
2924.463349296049
 30
-0.0000000000000225
 11
5975.487347630732
 21
3089.722998240311
 31
-0.0000000000000225
  0
LINE
  5
290
330
28C
100
AcDbEntity
  8
cotas
100
AcDbLine
 10
6045.454336923976
 20
3084.722998240311
 30
-0.0000000000000225
 11
5985.487347630732
 21
3084.722998240311
 31
-0.0000000000000225
  0
SOLID
  5
291
330
28C
100
AcDbEntity
  8
cotas
100
AcDbTrace
 10
6045.454336923976
 20
3086.389664906978
 30
-0.0000000000000225
 11
6045.454336923976
 21
3083.056331573645
 31
-0.0000000000000225
 12
6055.454336923975
 22
3084.722998240311
 32
-0.0000000000000225
 13
6055.454336923975
 23
3084.722998240311
 33
-0.0000000000000225
  0
SOLID
  5
292
330
28C
100
AcDbEntity
  8
cotas
100
AcDbTrace
 10
5985.487347630732
 20
3086.389664906978
 30
-0.0000000000000225
 11
5985.487347630732
 21
3083.056331573645
 31
-0.0000000000000225
 12
5975.487347630732
 22
3084.722998240311
 32
-0.0000000000000225
 13
5975.487347630732
 23
3084.722998240311
 33
-0.0000000000000225
  0
MTEXT
  5
293
330
28C
100
AcDbEntity
  8
cotas
100
AcDbMText
 10
6015.470842277354
 20
3094.951339408881
 30
-0.0000000000000225
 40
10.0
 41
0.0
 71
     5
 72
     1
  1
80
  7
SANINDUSA
 73
     1
 44
1.0
1001
ACAD
1000
MTEXTBEGIN
1070
    73
1070
     1
1070
    44
1040
1.0
1070
    74
1070
     0
1000
MTEXTEND
  0
POINT
  5
294
330
28C
100
AcDbEntity
  8
Defpoints
 62
     0
100
AcDbPoint
 10
6055.454336923975
 20
2919.474971549236
 30
-0.0000000000000225
  0
POINT
  5
295
330
28C
100
AcDbEntity
  8
Defpoints
 62
     0
100
AcDbPoint
 10
5975.487347630732
 20
2919.463349296049
 30
-0.0000000000000225
  0
POINT
  5
296
330
28C
100
AcDbEntity
  8
Defpoints
 62
     0
100
AcDbPoint
 10
5975.487347630732
 20
3084.722998240311
 30
-0.0000000000000225
  0
ENDBLK
  5
297
330
28C
100
AcDbEntity
  8
0
100
AcDbBlockEnd
  0
BLOCK
  5
299
330
298
100
AcDbEntity
  8
0
100
AcDbBlockBegin
  2
*D56
 70
     1
 10
0.0
 20
0.0
 30
0.0
  3
*D56
  1

  0
LINE
  5
29A
330
298
100
AcDbEntity
  8
cotas
100
AcDbLine
 10
5975.487347630732
 20
2924.463349296049
 30
-0.0000000000000225
 11
5975.487347630732
 21
3089.722998240311
 31
-0.0000000000000225
  0
LINE
  5
29B
330
298
100
AcDbEntity
  8
cotas
100
AcDbLine
 10
5895.572764412113
 20
2924.456414966425
 30
-0.0000000000000225
 11
5895.572764412113
 21
3089.722998240311
 31
-0.0000000000000225
  0
LINE
  5
29C
330
298
100
AcDbEntity
  8
cotas
100
AcDbLine
 10
5965.487347630732
 20
3084.722998240311
 30
-0.0000000000000225
 11
5905.572764412113
 21
3084.722998240311
 31
-0.0000000000000225
  0
SOLID
  5
29D
330
298
100
AcDbEntity
  8
cotas
100
AcDbTrace
 10
5965.487347630732
 20
3086.389664906978
 30
-0.0000000000000225
 11
5965.487347630732
 21
3083.056331573645
 31
-0.0000000000000225
 12
5975.487347630732
 22
3084.722998240311
 32
-0.0000000000000225
 13
5975.487347630732
 23
3084.722998240311
 33
-0.0000000000000225
  0
SOLID
  5
29E
330
298
100
AcDbEntity
  8
cotas
100
AcDbTrace
 10
5905.572764412113
 20
3086.389664906978
 30
-0.0000000000000225
 11
5905.572764412113
 21
3083.056331573645
 31
-0.0000000000000225
 12
5895.572764412113
 22
3084.722998240311
 32
-0.0000000000000225
 13
5895.572764412113
 23
3084.722998240311
 33
-0.0000000000000225
  0
MTEXT
  5
29F
330
298
100
AcDbEntity
  8
cotas
100
AcDbMText
 10
5935.530056021423
 20
3094.951339408881
 30
-0.0000000000000225
 40
10.0
 41
0.0
 71
     5
 72
     1
  1
80
  7
SANINDUSA
 73
     1
 44
1.0
1001
ACAD
1000
MTEXTBEGIN
1070
    73
1070
     1
1070
    44
1040
1.0
1070
    74
1070
     0
1000
MTEXTEND
  0
POINT
  5
2A0
330
298
100
AcDbEntity
  8
Defpoints
 62
     0
100
AcDbPoint
 10
5975.487347630732
 20
2919.463349296049
 30
-0.0000000000000225
  0
POINT
  5
2A1
330
298
100
AcDbEntity
  8
Defpoints
 62
     0
100
AcDbPoint
 10
5895.572764412113
 20
2919.456414966425
 30
-0.0000000000000225
  0
POINT
  5
2A2
330
298
100
AcDbEntity
  8
Defpoints
 62
     0
100
AcDbPoint
 10
5895.572764412113
 20
3084.722998240311
 30
-0.0000000000000225
  0
ENDBLK
  5
2A3
330
298
100
AcDbEntity
  8
0
100
AcDbBlockEnd
  0
BLOCK
  5
2A5
330
2A4
100
AcDbEntity
  8
0
100
AcDbBlockBegin
  2
*D57
 70
     1
 10
0.0
 20
0.0
 30
0.0
  3
*D57
  1

  0
LINE
  5
2A6
330
2A4
100
AcDbEntity
  8
cotas
100
AcDbLine
 10
5735.595896114994
 20
3059.72299824031
 30
-0.0000000000000225
 11
5735.595896114994
 21
3089.72299824031
 31
-0.0000000000000225
  0
LINE
  5
2A7
330
2A4
100
AcDbEntity
  8
cotas
100
AcDbLine
 10
5655.605936716317
 20
2924.456545969464
 30
-0.0000000000000225
 11
5655.605936716317
 21
3089.72299824031
 31
-0.0000000000000225
  0
LINE
  5
2A8
330
2A4
100
AcDbEntity
  8
cotas
100
AcDbLine
 10
5725.595896114994
 20
3084.72299824031
 30
-0.0000000000000225
 11
5665.605936716318
 21
3084.72299824031
 31
-0.0000000000000225
  0
SOLID
  5
2A9
330
2A4
100
AcDbEntity
  8
cotas
100
AcDbTrace
 10
5725.595896114994
 20
3086.389664906977
 30
-0.0000000000000225
 11
5725.595896114994
 21
3083.056331573644
 31
-0.0000000000000225
 12
5735.595896114994
 22
3084.72299824031
 32
-0.0000000000000225
 13
5735.595896114994
 23
3084.72299824031
 33
-0.0000000000000225
  0
SOLID
  5
2AA
330
2A4
100
AcDbEntity
  8
cotas
100
AcDbTrace
 10
5665.605936716318
 20
3086.389664906977
 30
-0.0000000000000225
 11
5665.605936716318
 21
3083.056331573644
 31
-0.0000000000000225
 12
5655.605936716317
 22
3084.72299824031
 32
-0.0000000000000225
 13
5655.605936716317
 23
3084.72299824031
 33
-0.0000000000000225
  0
MTEXT
  5
2AB
330
2A4
100
AcDbEntity
  8
cotas
100
AcDbMText
 10
5695.600916415656
 20
3094.95133940888
 30
-0.0000000000000225
 40
10.0
 41
0.0
 71
     5
 72
     1
  1
80
  7
SANINDUSA
 73
     1
 44
1.0
1001
ACAD
1000
MTEXTBEGIN
1070
    73
1070
     1
1070
    44
1040
1.0
1070
    74
1070
     0
1000
MTEXTEND
  0
POINT
  5
2AC
330
2A4
100
AcDbEntity
  8
Defpoints
 62
     0
100
AcDbPoint
 10
5735.595896114994
 20
3054.72299824031
 30
-0.0000000000000225
  0
POINT
  5
2AD
330
2A4
100
AcDbEntity
  8
Defpoints
 62
     0
100
AcDbPoint
 10
5655.605936716317
 20
2919.456545969464
 30
-0.0000000000000225
  0
POINT
  5
2AE
330
2A4
100
AcDbEntity
  8
Defpoints
 62
     0
100
AcDbPoint
 10
5655.605936716317
 20
3084.72299824031
 30
-0.0000000000000225
  0
ENDBLK
  5
2AF
330
2A4
100
AcDbEntity
  8
0
100
AcDbBlockEnd
  0
BLOCK
  5
2B1
330
2B0
100
AcDbEntity
  8
0
100
AcDbBlockBegin
  2
*D58
 70
     1
 10
0.0
 20
0.0
 30
0.0
  3
*D58
  1

  0
LINE
  5
2B2
330
2B0
100
AcDbEntity
  8
cotas
100
AcDbLine
 10
6292.005366746243
 20
2884.035460963123
 30
0.0000000000003952
 11
6611.556654664349
 21
2884.035460963123
 31
0.0000000000003952
  0
LINE
  5
2B3
330
2B0
100
AcDbEntity
  8
cotas
100
AcDbLine
 10
6575.858386977081
 20
3054.048027330941
 30
0.0000000000003952
 11
6611.556654664349
 21
3054.048027330941
 31
0.0000000000003952
  0
LINE
  5
2B4
330
2B0
100
AcDbEntity
  8
cotas
100
AcDbLine
 10
6606.556654664348
 20
2894.035460963122
 30
0.0000000000003952
 11
6606.556654664348
 21
3044.048027330941
 31
0.0000000000003952
  0
SOLID
  5
2B5
330
2B0
100
AcDbEntity
  8
cotas
100
AcDbTrace
 10
6604.889987997681
 20
2894.035460963122
 30
0.0000000000003952
 11
6608.223321331016
 21
2894.035460963122
 31
0.0000000000003952
 12
6606.556654664348
 22
2884.035460963123
 32
0.0000000000003952
 13
6606.556654664348
 23
2884.035460963123
 33
0.0000000000003952
  0
SOLID
  5
2B6
330
2B0
100
AcDbEntity
  8
cotas
100
AcDbTrace
 10
6604.889987997681
 20
3044.048027330941
 30
0.0000000000003952
 11
6608.223321331016
 21
3044.048027330941
 31
0.0000000000003952
 12
6606.556654664348
 22
3054.048027330941
 32
0.0000000000003952
 13
6606.556654664348
 23
3054.048027330941
 33
0.0000000000003952
  0
MTEXT
  5
2B7
330
2B0
100
AcDbEntity
  8
cotas
100
AcDbMText
 10
6596.351819204308
 20
2969.041744147033
 30
0.0000000000003952
 40
10.0
 41
0.0
 71
     5
 72
     1
  1
170
  7
SANINDUSA
 11
0.0000000000000001
 21
1.0
 31
0.0
 73
     1
 44
1.0
1001
ACAD
1000
MTEXTBEGIN
1070
    73
1070
     1
1070
    44
1040
1.0
1070
    74
1070
     0
1000
MTEXTEND
  0
POINT
  5
2B8
330
2B0
100
AcDbEntity
  8
Defpoints
 62
     0
100
AcDbPoint
 10
6287.005366746243
 20
2884.035460963123
 30
0.0000000000003952
  0
POINT
  5
2B9
330
2B0
100
AcDbEntity
  8
Defpoints
 62
     0
100
AcDbPoint
 10
6570.85838697708
 20
3054.048027330941
 30
0.0000000000002031
  0
POINT
  5
2BA
330
2B0
100
AcDbEntity
  8
Defpoints
 62
     0
100
AcDbPoint
 10
6606.556654664348
 20
3054.048027330941
 30
0.0000000000003952
  0
ENDBLK
  5
2BB
330
2B0
100
AcDbEntity
  8
0
100
AcDbBlockEnd
  0
BLOCK
  5
2BD
330
2BC
100
AcDbEntity
  8
0
100
AcDbBlockBegin
  2
*D59
 70
     1
 10
0.0
 20
0.0
 30
0.0
  3
*D59
  1

  0
LINE
  5
2BE
330
2BC
100
AcDbEntity
  8
cotas
100
AcDbLine
 10
4875.196087907047
 20
3054.72612270645
 30
0.0
 11
4875.196087907047
 21
3089.726207311392
 31
0.0
  0
LINE
  5
2BF
330
2BC
100
AcDbEntity
  8
cotas
100
AcDbLine
 10
5247.554973058818
 20
3059.725361182227
 30
0.0
 11
5247.554973058818
 21
3089.726207311392
 31
0.0
  0
LINE
  5
2C0
330
2BC
100
AcDbEntity
  8
cotas
100
AcDbLine
 10
4885.196087907047
 20
3084.726207311392
 30
0.0
 11
5237.554973058818
 21
3084.726207311392
 31
0.0
  0
SOLID
  5
2C1
330
2BC
100
AcDbEntity
  8
cotas
100
AcDbTrace
 10
4885.196087907047
 20
3086.392873978058
 30
0.0
 11
4885.196087907047
 21
3083.059540644725
 31
0.0
 12
4875.196087907047
 22
3084.726207311392
 32
0.0
 13
4875.196087907047
 23
3084.726207311392
 33
0.0
  0
SOLID
  5
2C2
330
2BC
100
AcDbEntity
  8
cotas
100
AcDbTrace
 10
5237.554973058818
 20
3086.392873978058
 30
0.0
 11
5237.554973058818
 21
3083.059540644725
 31
0.0
 12
5247.554973058818
 22
3084.726207311392
 32
0.0
 13
5247.554973058818
 23
3084.726207311392
 33
0.0
  0
MTEXT
  5
2C3
330
2BC
100
AcDbEntity
  8
cotas
100
AcDbMText
 10
5061.375530482933
 20
3096.07274861428
 30
0.0
 40
10.0
 41
0.0
 71
     5
 72
     1
  1
372,4
  7
SANINDUSA
 73
     1
 44
1.0
1001
ACAD
1000
MTEXTBEGIN
1070
    73
1070
     1
1070
    44
1040
1.0
1070
    74
1070
     0
1000
MTEXTEND
  0
POINT
  5
2C4
330
2BC
100
AcDbEntity
  8
Defpoints
 62
     0
100
AcDbPoint
 10
4875.196087907047
 20
3049.72612270645
 30
0.0000000000000109
  0
POINT
  5
2C5
330
2BC
100
AcDbEntity
  8
Defpoints
 62
     0
100
AcDbPoint
 10
5247.554973058818
 20
3054.725361182227
 30
0.0000000000000109
  0
POINT
  5
2C6
330
2BC
100
AcDbEntity
  8
Defpoints
 62
     0
100
AcDbPoint
 10
5247.554973058818
 20
3084.726207311392
 30
0.0
  0
ENDBLK
  5
2C7
330
2BC
100
AcDbEntity
  8
0
100
AcDbBlockEnd
  0
BLOCK
  5
2C9
330
2C8
100
AcDbEntity
  8
0
100
AcDbBlockBegin
  2
*D60
 70
     1
 10
0.0
 20
0.0
 30
0.0
  3
*D60
  1

  0
LINE
  5
2CA
330
2C8
100
AcDbEntity
  8
cotas
100
AcDbLine
 10
6601.369457754806
 20
2118.193215919169
 30
0.0000000000002031
 11
6579.833886032997
 21
2147.029690644976
 31
0.0000000000002031
  0
MTEXT
  5
2CB
330
2C8
100
AcDbEntity
  8
cotas
100
AcDbMText
 10
6601.689133989791
 20
2134.65129508504
 30
0.0000000000002031
 40
10.0
 41
0.0
 71
     5
 72
     1
  1
R5
  7
SANINDUSA
 11
0.5983666037278392
 21
-0.8012224457310285
 31
0.0
 73
     1
 44
1.0
1001
ACAD
1000
MTEXTBEGIN
1070
    73
1070
     1
1070
    44
1040
1.0
1070
    74
1070
     0
1000
MTEXTEND
  0
LINE
  5
2CC
330
2C8
100
AcDbEntity
  8
cotas
100
AcDbLine
 10
6570.858386977079
 20
2159.048027330941
 30
0.0000000000002031
 11
6573.850219995718
 21
2155.041915102286
 31
0.0000000000002031
  0
SOLID
  5
2CD
330
2C8
100
AcDbEntity
  8
cotas
100
AcDbTrace
 10
6581.169256775883
 20
2148.026968317856
 30
0.0000000000002031
 11
6578.498515290111
 21
2146.032412972096
 31
0.0000000000002031
 12
6573.850219995718
 22
2155.041915102286
 32
0.0000000000002031
 13
6573.850219995718
 23
2155.041915102286
 33
0.0000000000002031
  0
POINT
  5
2CE
330
2C8
100
AcDbEntity
  8
Defpoints
 62
     0
100
AcDbPoint
 10
6573.850219995718
 20
2155.041915102286
 30
0.0000000000002031
  0
POINT
  5
2CF
330
2C8
100
AcDbEntity
  8
Defpoints
 62
     0
100
AcDbPoint
 10
6570.858386977079
 20
2159.048027330941
 30
0.0000000000002031
  0
ENDBLK
  5
2D0
330
2C8
100
AcDbEntity
  8
0
100
AcDbBlockEnd
  0
BLOCK
  5
2D2
330
2D1
100
AcDbEntity
  8
0
100
AcDbBlockBegin
  2
*D61
 70
     1
 10
0.0
 20
0.0
 30
0.0
  3
*D61
  1

  0
LINE
  5
2D3
330
2D1
100
AcDbEntity
  8
cotas
100
AcDbLine
 10
4845.05937672275
 20
2122.752686219599
 30
0.0
 11
4870.352666530536
 21
2148.356838513645
 31
0.0
  0
MTEXT
  5
2D4
330
2D1
100
AcDbEntity
  8
cotas
100
AcDbMText
 10
4847.003968745828
 20
2139.098606951972
 30
0.0
 40
10.0
 41
0.0
 71
     5
 72
     1
  1
R5
  7
SANINDUSA
 11
0.7027749304682147
 21
0.711412255380378
 31
0.0
 73
     1
 44
1.0
1001
ACAD
1000
MTEXTBEGIN
1070
    73
1070
     1
1070
    44
1040
1.0
1070
    74
1070
     0
1000
MTEXTEND
  0
LINE
  5
2D5
330
2D1
100
AcDbEntity
  8
cotas
100
AcDbLine
 10
4880.894290487558
 20
2159.02802234435
 30
0.0
 11
4877.380415835218
 21
2155.470961067449
 31
0.0
  0
SOLID
  5
2D6
330
2D1
100
AcDbEntity
  8
cotas
100
AcDbTrace
 10
4869.166979438235
 20
2149.528130064426
 30
0.0
 11
4871.538353622836
 21
2147.185546962865
 31
0.0
 12
4877.380415835218
 22
2155.470961067449
 32
0.0
 13
4877.380415835218
 23
2155.470961067449
 33
0.0
  0
POINT
  5
2D7
330
2D1
100
AcDbEntity
  8
Defpoints
 62
     0
100
AcDbPoint
 10
4877.380415835218
 20
2155.470961067449
 30
0.0
  0
POINT
  5
2D8
330
2D1
100
AcDbEntity
  8
Defpoints
 62
     0
100
AcDbPoint
 10
4880.894290487558
 20
2159.02802234435
 30
0.0
  0
ENDBLK
  5
2D9
330
2D1
100
AcDbEntity
  8
0
100
AcDbBlockEnd
  0
BLOCK
  5
2DB
330
2DA
100
AcDbEntity
  8
0
100
AcDbBlockBegin
  2
*D62
 70
     1
 10
0.0
 20
0.0
 30
0.0
  3
*D62
  1

  0
LINE
  5
2DC
330
2DA
100
AcDbEntity
  8
1
100
AcDbLine
 10
6448.704784316624
 20
4458.305408571606
 30
0.0
 11
6491.188702116918
 21
4423.976873051896
 31
0.0
  0
MTEXT
  5
2DD
330
2DA
100
AcDbEntity
  8
1
100
AcDbMText
 10
6468.550630437675
 20
4455.147438364701
 30
0.0
 40
10.0
 41
0.0
 71
     5
 72
     1
  1
R17
  7
SANINDUSA
 11
0.7778104865998913
 21
-0.6284988837979272
 31
0.0
 73
     1
 44
1.0
1001
ACAD
1000
MTEXTBEGIN
1070
    73
1070
     1
1070
    44
1040
1.0
1070
    74
1070
     0
1000
MTEXTEND
  0
SOLID
  5
2DE
330
2DA
100
AcDbEntity
  8
1
100
AcDbTrace
 10
6492.236200256582
 20
4425.273223862896
 30
0.0
 11
6490.141203977254
 21
4422.680522240897
 31
0.0
 12
6498.966806982917
 22
4417.691884213916
 32
0.0
 13
6498.966806982917
 23
4417.691884213916
 33
0.0
  0
POINT
  5
2DF
330
2DA
100
AcDbEntity
  8
Defpoints
 62
     0
100
AcDbPoint
 10
6498.966806982917
 20
4417.691884213916
 30
0.0
  0
POINT
  5
2E0
330
2DA
100
AcDbEntity
  8
Defpoints
 62
     0
100
AcDbPoint
 10
6485.744028689918
 20
4428.376365255289
 30
0.0
  0
ENDBLK
  5
2E1
330
2DA
100
AcDbEntity
  8
0
100
AcDbBlockEnd
  0
BLOCK
  5
2E3
330
2E2
100
AcDbEntity
  8
0
100
AcDbBlockBegin
  2
*D63
 70
     1
 10
0.0
 20
0.0
 30
0.0
  3
*D63
  1

  0
LINE
  5
2E4
330
2E2
100
AcDbEntity
  8
1
100
AcDbLine
 10
6580.894279293088
 20
4518.291185386579
 30
0.0
 11
6611.592493084865
 21
4518.291185386579
 31
0.0
  0
LINE
  5
2E5
330
2E2
100
AcDbEntity
  8
1
100
AcDbLine
 10
6507.263841690139
 20
4414.328871836754
 30
0.0
 11
6611.592493084865
 21
4414.328871836754
 31
0.0
  0
LINE
  5
2E6
330
2E2
100
AcDbEntity
  8
1
100
AcDbLine
 10
6606.592493084864
 20
4508.29118538658
 30
0.0
 11
6606.592493084864
 21
4424.328871836753
 31
0.0
  0
SOLID
  5
2E7
330
2E2
100
AcDbEntity
  8
1
100
AcDbTrace
 10
6604.925826418197
 20
4508.29118538658
 30
0.0
 11
6608.259159751532
 21
4508.29118538658
 31
0.0
 12
6606.592493084864
 22
4518.291185386579
 32
0.0
 13
6606.592493084864
 23
4518.291185386579
 33
0.0
  0
SOLID
  5
2E8
330
2E2
100
AcDbEntity
  8
1
100
AcDbTrace
 10
6604.925826418197
 20
4424.328871836753
 30
0.0
 11
6608.259159751532
 21
4424.328871836753
 31
0.0
 12
6606.592493084864
 22
4414.328871836754
 32
0.0
 13
6606.592493084864
 23
4414.328871836754
 33
0.0
  0
MTEXT
  5
2E9
330
2E2
100
AcDbEntity
  8
1
100
AcDbMText
 10
6596.387657624823
 20
4466.310028611668
 30
0.0
 40
10.0
 41
0.0
 71
     5
 72
     1
  1
104
  7
SANINDUSA
 11
0.0000000000000001
 21
1.0
 31
0.0
 73
     1
 44
1.0
1001
ACAD
1000
MTEXTBEGIN
1070
    73
1070
     1
1070
    44
1040
1.0
1070
    74
1070
     0
1000
MTEXTEND
  0
POINT
  5
2EA
330
2E2
100
AcDbEntity
  8
Defpoints
 62
     0
100
AcDbPoint
 10
6575.894279293088
 20
4518.291185386579
 30
0.0
  0
POINT
  5
2EB
330
2E2
100
AcDbEntity
  8
Defpoints
 62
     0
100
AcDbPoint
 10
6502.263841690139
 20
4414.328871836754
 30
0.0
  0
POINT
  5
2EC
330
2E2
100
AcDbEntity
  8
Defpoints
 62
     0
100
AcDbPoint
 10
6606.592493084864
 20
4414.328871836754
 30
0.0
  0
ENDBLK
  5
2ED
330
2E2
100
AcDbEntity
  8
0
100
AcDbBlockEnd
  0
BLOCK
  5
2EF
330
2EE
100
AcDbEntity
  8
0
100
AcDbBlockBegin
  2
*D64
 70
     1
 10
0.0
 20
0.0
 30
0.0
  3
*D64
  1

  0
LINE
  5
2F0
330
2EE
100
AcDbEntity
  8
1
100
AcDbLine
 10
4875.19532638281
 20
3054.725361182232
 30
0.0
 11
4840.196003311771
 21
3054.725361182232
 31
0.0
  0
LINE
  5
2F1
330
2EE
100
AcDbEntity
  8
1
100
AcDbLine
 10
4870.196087907047
 20
2960.756581730907
 30
0.0
 11
4840.196003311771
 21
2960.756581730907
 31
0.0
  0
LINE
  5
2F2
330
2EE
100
AcDbEntity
  8
1
100
AcDbLine
 10
4845.196003311771
 20
3044.725361182232
 30
0.0
 11
4845.196003311771
 21
2970.756581730907
 31
0.0
  0
SOLID
  5
2F3
330
2EE
100
AcDbEntity
  8
1
100
AcDbTrace
 10
4843.529336645104
 20
3044.725361182232
 30
0.0
 11
4846.862669978438
 21
3044.725361182232
 31
0.0
 12
4845.196003311771
 22
3054.725361182232
 32
0.0
 13
4845.196003311771
 23
3054.725361182232
 33
0.0
  0
SOLID
  5
2F4
330
2EE
100
AcDbEntity
  8
1
100
AcDbTrace
 10
4843.529336645104
 20
2970.756581730907
 30
0.0
 11
4846.862669978438
 21
2970.756581730907
 31
0.0
 12
4845.196003311771
 22
2960.756581730907
 32
0.0
 13
4845.196003311771
 23
2960.756581730907
 33
0.0
  0
MTEXT
  5
2F5
330
2EE
100
AcDbEntity
  8
1
100
AcDbMText
 10
4834.997883768453
 20
3007.74097145657
 30
0.0
 40
10.0
 41
0.0
 71
     5
 72
     1
  1
94
  7
SANINDUSA
 11
0.0000000000000001
 21
1.0
 31
0.0
 73
     1
 44
1.0
1001
ACAD
1000
MTEXTBEGIN
1070
    73
1070
     1
1070
    44
1040
1.0
1070
    74
1070
     0
1000
MTEXTEND
  0
POINT
  5
2F6
330
2EE
100
AcDbEntity
  8
Defpoints
 62
     0
100
AcDbPoint
 10
4880.195326382811
 20
3054.725361182232
 30
0.0000000000004129
  0
POINT
  5
2F7
330
2EE
100
AcDbEntity
  8
Defpoints
 62
     0
100
AcDbPoint
 10
4875.196087907047
 20
2960.756581730907
 30
0.0000000000002135
  0
POINT
  5
2F8
330
2EE
100
AcDbEntity
  8
Defpoints
 62
     0
100
AcDbPoint
 10
4845.196003311771
 20
2960.756581730907
 30
0.0
  0
ENDBLK
  5
2F9
330
2EE
100
AcDbEntity
  8
0
100
AcDbBlockEnd
  0
BLOCK
  5
E8E
330
E88
100
AcDbEntity
  8
0
100
AcDbBlockBegin
  2
*D66
 70
     1
 10
0.0
 20
0.0
 30
0.0
  3
*D66
  1

  0
LINE
  5
9F3F
330
E88
100
AcDbEntity
  8
cotas
100
AcDbLine
 10
199.8844937916597
 20
1662.022435345127
 30
0.0
 11
175.8678459011581
 21
1688.971832556058
 31
0.0
  0
MTEXT
  5
9F40
330
E88
100
AcDbEntity
  8
cotas
100
AcDbMText
 10
198.6683646001867
 20
1678.417499064159
 30
0.0
 40
10.0
 41
0.0
 71
     5
 72
     1
  1
R7
  7
SANINDUSA
 11
0.6653169992364026
 21
-0.7465609757595617
 31
0.0
 73
     1
 44
1.0
1001
ACAD
1000
MTEXTBEGIN
1070
    73
1070
     1
1070
    44
1040
1.0
1070
    74
1070
     0
1000
MTEXTEND
  0
SOLID
  5
9F41
330
E88
100
AcDbEntity
  8
cotas
100
AcDbTrace
 10
177.1121141940908
 20
1690.080694221452
 30
0.0
 11
174.6235776082254
 21
1687.862970890664
 31
0.0
 12
169.2146759087941
 22
1696.437442313654
 32
0.0
 13
169.2146759087941
 23
1696.437442313654
 33
0.0
  0
POINT
  5
9F42
330
E88
100
AcDbEntity
  8
Defpoints
 62
     0
100
AcDbPoint
 10
169.2146759087941
 20
1696.437442313654
 30
0.0
  0
POINT
  5
9F43
330
E88
100
AcDbEntity
  8
Defpoints
 62
     0
100
AcDbPoint
 10
173.8718949034474
 20
1691.211515483339
 30
0.0
  0
ENDBLK
  5
E8F
330
E88
100
AcDbEntity
  8
0
100
AcDbBlockEnd
  0
BLOCK
  5
E96
330
E90
100
AcDbEntity
  8
0
100
AcDbBlockBegin
  2
*D67
 70
     1
 10
0.0
 20
0.0
 30
0.0
  3
*D67
  1

  0
LINE
  5
9F3A
330
E90
100
AcDbEntity
  8
cotas
100
AcDbLine
 10
1030.08325835867
 20
1666.175456382353
 30
0.0
 11
1057.809859244785
 21
1689.290494544362
 31
0.0
  0
MTEXT
  5
9F3B
330
E90
100
AcDbEntity
  8
cotas
100
AcDbMText
 10
1033.70269904676
 20
1682.21218714853
 30
0.0
 40
10.0
 41
0.0
 71
     5
 72
     1
  1
R7
  7
SANINDUSA
 11
0.7680913250125086
 21
0.6403403129903106
 31
0.0
 73
     1
 44
1.0
1001
ACAD
1000
MTEXTBEGIN
1070
    73
1070
     1
1070
    44
1040
1.0
1070
    74
1070
     0
1000
MTEXTEND
  0
SOLID
  5
9F3C
330
E90
100
AcDbEntity
  8
cotas
100
AcDbTrace
 10
1056.742625389801
 20
1690.570646752716
 30
0.0
 11
1058.877093099769
 21
1688.010342336007
 31
0.0
 12
1065.49077249491
 22
1695.693897674265
 32
0.0
 13
1065.49077249491
 23
1695.693897674265
 33
0.0
  0
POINT
  5
9F3D
330
E90
100
AcDbEntity
  8
Defpoints
 62
     0
100
AcDbPoint
 10
1065.49077249491
 20
1695.693897674265
 30
0.0
  0
POINT
  5
9F3E
330
E90
100
AcDbEntity
  8
Defpoints
 62
     0
100
AcDbPoint
 10
1060.114133219822
 20
1691.211515483332
 30
0.0
  0
ENDBLK
  5
E97
330
E90
100
AcDbEntity
  8
0
100
AcDbBlockEnd
  0
BLOCK
  5
EA3
330
E98
100
AcDbEntity
  8
0
100
AcDbBlockBegin
  2
*D68
 70
     1
 10
0.0
 20
0.0
 30
0.0
  3
*D68
  1

  0
LINE
  5
9F30
330
E98
100
AcDbEntity
  8
cotas
100
AcDbLine
 10
1067.778458403053
 20
1653.21227785523
 30
0.0
 11
1068.305184955185
 21
1623.035214489418
 31
0.0
  0
ARC
  5
9F31
330
E98
100
AcDbEntity
  8
cotas
100
AcDbCircle
 10
1066.993017719275
 20
1698.211515483333
 30
0.0
 40
70.18775175507427
100
AcDbArc
 50
188.17013648039
 51
262.829833058809
  0
SOLID
  5
9F32
330
E98
100
AcDbEntity
  8
cotas
100
AcDbTrace
 10
995.8552086659411
 20
1688.118192496933
 30
0.0
 11
999.180073272247
 21
1688.355650831897
 31
0.0
 12
996.8052659642003
 22
1698.211515483333
 32
0.0
 13
996.8052659642003
 23
1698.211515483333
 33
0.0
  0
SOLID
  5
9F33
330
E98
100
AcDbEntity
  8
cotas
100
AcDbTrace
 10
1058.322117093847
 20
1630.236895330316
 30
0.0
 11
1058.142720043826
 21
1626.908392992994
 31
0.0
 12
1068.217925580801
 22
1628.034453011592
 32
0.0
 13
1068.217925580801
 23
1628.034453011592
 33
0.0
  0
MTEXT
  5
9F34
330
E98
100
AcDbEntity
  8
cotas
100
AcDbMText
 10
1025.748303409861
 20
1656.240611597921
 30
0.0
 40
10.0
 41
0.0
 71
     5
 72
     1
  1
91,0°
  7
SANINDUSA
 11
0.7132502628380123
 21
-0.7009094538965118
 31
0.0
 73
     1
 44
1.0
1001
ACAD
1000
MTEXTBEGIN
1070
    73
1070
     1
1070
    44
1040
1.0
1070
    74
1070
     0
1000
MTEXTEND
  0
POINT
  5
9F35
330
E98
100
AcDbEntity
  8
Defpoints
 62
     0
100
AcDbPoint
 10
1006.413830787889
 20
1662.764617069449
 30
0.0
  0
POINT
  5
9F36
330
E98
100
AcDbEntity
  8
Defpoints
 62
     0
100
AcDbPoint
 10
173.8718948455425
 20
1698.211515483334
 30
0.0
  0
POINT
  5
9F37
330
E98
100
AcDbEntity
  8
Defpoints
 62
     0
100
AcDbPoint
 10
1067.113067067858
 20
1691.333683362335
 30
0.0
  0
POINT
  5
9F38
330
E98
100
AcDbEntity
  8
Defpoints
 62
     0
100
AcDbPoint
 10
1067.691199028668
 20
1658.211516377403
 30
0.0
  0
POINT
  5
9F39
330
E98
100
AcDbEntity
  8
Defpoints
 62
     0
100
AcDbPoint
 10
1060.114137375531
 20
1698.211515483334
 30
0.0
  0
ENDBLK
  5
EA4
330
E98
100
AcDbEntity
  8
0
100
AcDbBlockEnd
  0
BLOCK
  5
EB0
330
EA5
100
AcDbEntity
  8
0
100
AcDbBlockBegin
  2
*D69
 70
     1
 10
0.0
 20
0.0
 30
0.0
  3
*D69
  1

  0
LINE
  5
9F26
330
EA5
100
AcDbEntity
  8
cotas
100
AcDbLine
 10
166.2075494488876
 20
1653.212277901619
 30
0.0
 11
165.5818655979745
 21
1617.366874037931
 31
0.0
  0
ARC
  5
9F27
330
EA5
100
AcDbEntity
  8
cotas
100
AcDbCircle
 10
166.9930140614598
 20
1698.211515483334
 30
0.0
 40
75.85695635145852
100
AcDbArc
 50
276.5586144526256
 51
352.4413855488218
  0
SOLID
  5
9F28
330
EA5
100
AcDbEntity
  8
cotas
100
AcDbTrace
 10
175.7381798443743
 20
1621.186296730349
 30
0.0
 11
175.5765497084748
 21
1624.515709112479
 31
0.0
 12
165.6691276300348
 22
1622.366112513715
 32
0.0
 13
165.6691276300348
 23
1622.366112513715
 33
0.0
  0
SOLID
  5
9F29
330
EA5
100
AcDbEntity
  8
cotas
100
AcDbTrace
 10
240.5277928515188
 20
1688.343117986723
 30
0.0
 11
243.8538773131979
 21
1688.123406209869
 31
0.0
 12
242.8499704129184
 22
1698.211515483334
 32
0.0
 13
242.8499704129184
 23
1698.211515483334
 33
0.0
  0
MTEXT
  5
9F2A
330
EA5
100
AcDbEntity
  8
cotas
100
AcDbMText
 10
212.2113152375375
 20
1652.197037910079
 30
0.0
 40
10.0
 41
0.0
 71
     5
 72
     1
  1
91,0°
  7
SANINDUSA
 11
0.713250449145331
 21
0.7009092643088574
 31
0.0
 73
     1
 44
1.0
1001
ACAD
1000
MTEXTBEGIN
1070
    73
1070
     1
1070
    44
1040
1.0
1070
    74
1070
     0
1000
MTEXTEND
  0
POINT
  5
9F2B
330
EA5
100
AcDbEntity
  8
Defpoints
 62
     0
100
AcDbPoint
 10
204.1545570359884
 20
1632.080603266282
 30
0.0
  0
POINT
  5
9F2C
330
EA5
100
AcDbEntity
  8
Defpoints
 62
     0
100
AcDbPoint
 10
166.294811480948
 20
1658.211516377403
 30
0.0
  0
POINT
  5
9F2D
330
EA5
100
AcDbEntity
  8
Defpoints
 62
     0
100
AcDbPoint
 10
173.8718948455425
 20
1698.211515483334
 30
0.0
  0
POINT
  5
9F2E
330
EA5
100
AcDbEntity
  8
Defpoints
 62
     0
100
AcDbPoint
 10
1060.114137375531
 20
1698.211515483334
 30
0.0
  0
POINT
  5
9F2F
330
EA5
100
AcDbEntity
  8
Defpoints
 62
     0
100
AcDbPoint
 10
166.8729610392509
 20
1691.333682437378
 30
0.0
  0
ENDBLK
  5
EB1
330
EA5
100
AcDbEntity
  8
0
100
AcDbBlockEnd
  0
BLOCK
  5
EBC
330
EB2
100
AcDbEntity
  8
0
100
AcDbBlockBegin
  2
*D70
 70
     1
 10
0.0
 20
0.0
 30
0.0
  3
*D70
  1

  0
LINE
  5
9EF2
330
EB2
100
AcDbEntity
  8
cotas
100
AcDbLine
 10
3844.098860877976
 20
1629.038041770943
 30
0.0
 11
3893.584626552433
 21
1629.038041770943
 31
0.0
  0
LINE
  5
9EF3
330
EB2
100
AcDbEntity
  8
cotas
100
AcDbLine
 10
4031.7758250372
 20
1698.211515483334
 30
0.0
 11
3883.584626552432
 21
1698.211515483334
 31
0.0
  0
LINE
  5
9EF4
330
EB2
100
AcDbEntity
  8
cotas
100
AcDbLine
 10
3888.584626552432
 20
1639.038041770944
 30
0.0
 11
3888.584626552432
 21
1688.211515483334
 31
0.0
  0
SOLID
  5
9EF5
330
EB2
100
AcDbEntity
  8
cotas
100
AcDbTrace
 10
3886.917959885766
 20
1639.038041770944
 30
0.0
 11
3890.251293219099
 21
1639.038041770944
 31
0.0
 12
3888.584626552432
 22
1629.038041770943
 32
0.0
 13
3888.584626552432
 23
1629.038041770943
 33
0.0
  0
SOLID
  5
9EF6
330
EB2
100
AcDbEntity
  8
cotas
100
AcDbTrace
 10
3886.917959885766
 20
1688.211515483334
 30
0.0
 11
3890.251293219099
 21
1688.211515483334
 31
0.0
 12
3888.584626552432
 22
1698.211515483334
 32
0.0
 13
3888.584626552432
 23
1698.211515483334
 33
0.0
  0
MTEXT
  5
9EF7
330
EB2
100
AcDbEntity
  8
cotas
100
AcDbMText
 10
3877.238085249544
 20
1663.62477862714
 30
0.0
 40
10.0
 41
0.0
 71
     5
 72
     1
  1
69,2
  7
SANINDUSA
 11
0.0000000000000001
 21
1.0
 31
0.0
 73
     1
 44
1.0
1001
ACAD
1000
MTEXTBEGIN
1070
    73
1070
     1
1070
    44
1040
1.0
1070
    74
1070
     0
1000
MTEXTEND
  0
POINT
  5
9EF8
330
EB2
100
AcDbEntity
  8
Defpoints
 62
     0
100
AcDbPoint
 10
3839.098860877977
 20
1629.038041770943
 30
0.0
  0
POINT
  5
9EF9
330
EB2
100
AcDbEntity
  8
Defpoints
 62
     0
100
AcDbPoint
 10
4036.7758250372
 20
1698.211515483334
 30
0.0
  0
POINT
  5
9EFA
330
EB2
100
AcDbEntity
  8
Defpoints
 62
     0
100
AcDbPoint
 10
3888.584626552432
 20
1698.211515483334
 30
0.0
  0
ENDBLK
  5
EBD
330
EB2
100
AcDbEntity
  8
0
100
AcDbBlockEnd
  0
BLOCK
  5
EC8
330
EBE
100
AcDbEntity
  8
0
100
AcDbBlockBegin
  2
*D71
 70
     1
 10
0.0
 20
0.0
 30
0.0
  3
*D71
  1

  0
LINE
  5
9ED3
330
EBE
100
AcDbEntity
  8
cotas
100
AcDbLine
 10
3284.182628543425
 20
1638.63686539527
 30
0.0
 11
3151.07762486076
 21
1638.63686539527
 31
0.0
  0
LINE
  5
9ED4
330
EBE
100
AcDbEntity
  8
cotas
100
AcDbLine
 10
3181.775827441269
 20
1698.211515483333
 30
0.0
 11
3151.07762486076
 21
1698.211515483333
 31
0.0
  0
LINE
  5
9ED5
330
EBE
100
AcDbEntity
  8
cotas
100
AcDbLine
 10
3156.07762486076
 20
1648.63686539527
 30
0.0
 11
3156.07762486076
 21
1688.211515483333
 31
0.0
  0
SOLID
  5
9ED6
330
EBE
100
AcDbEntity
  8
cotas
100
AcDbTrace
 10
3154.410958194093
 20
1648.63686539527
 30
0.0
 11
3157.744291527427
 21
1648.63686539527
 31
0.0
 12
3156.07762486076
 22
1638.63686539527
 32
0.0
 13
3156.07762486076
 23
1638.63686539527
 33
0.0
  0
SOLID
  5
9ED7
330
EBE
100
AcDbEntity
  8
cotas
100
AcDbTrace
 10
3154.410958194093
 20
1688.211515483333
 30
0.0
 11
3157.744291527427
 21
1688.211515483333
 31
0.0
 12
3156.07762486076
 22
1698.211515483333
 32
0.0
 13
3156.07762486076
 23
1698.211515483333
 33
0.0
  0
MTEXT
  5
9ED8
330
EBE
100
AcDbEntity
  8
cotas
100
AcDbMText
 10
3144.734441516233
 20
1668.424190439302
 30
0.0
 40
10.0
 41
0.0
 71
     5
 72
     1
  1
59,6
  7
SANINDUSA
 11
0.0000000000000001
 21
1.0
 31
0.0
 73
     1
 44
1.0
1001
ACAD
1000
MTEXTBEGIN
1070
    73
1070
     1
1070
    44
1040
1.0
1070
    74
1070
     0
1000
MTEXTEND
  0
POINT
  5
9ED9
330
EBE
100
AcDbEntity
  8
Defpoints
 62
     0
100
AcDbPoint
 10
3289.182628543425
 20
1638.63686539527
 30
0.0
  0
POINT
  5
9EDA
330
EBE
100
AcDbEntity
  8
Defpoints
 62
     0
100
AcDbPoint
 10
3186.775827441269
 20
1698.211515483333
 30
0.0
  0
POINT
  5
9EDB
330
EBE
100
AcDbEntity
  8
Defpoints
 62
     0
100
AcDbPoint
 10
3156.07762486076
 20
1698.211515483333
 30
0.0
  0
ENDBLK
  5
EC9
330
EBE
100
AcDbEntity
  8
0
100
AcDbBlockEnd
  0
BLOCK
  5
ED4
330
ECA
100
AcDbEntity
  8
0
100
AcDbBlockBegin
  2
*D72
 70
     1
 10
0.0
 20
0.0
 30
0.0
  3
*D72
  1

  0
ARC
  5
9ECA
330
ECA
100
AcDbEntity
  8
cotas
100
AcDbCircle
 10
3253.009641495854
 20
1694.311515483332
 30
0.0
 40
47.01428158020374
100
AcDbArc
 50
192.2099791823502
 51
259.7900208176414
  0
SOLID
  5
9ECB
330
ECA
100
AcDbEntity
  8
cotas
100
AcDbTrace
 10
3205.40165206484
 20
1684.190977515138
 30
0.0
 11
3208.716081019433
 21
1684.545479723967
 31
0.0
 12
3205.995359915651
 22
1694.311515483332
 32
0.0
 13
3205.995359915651
 23
1694.311515483332
 33
0.0
  0
SOLID
  5
9ECC
330
ECA
100
AcDbEntity
  8
cotas
100
AcDbTrace
 10
3244.795377909386
 20
1649.704107714402
 30
0.0
 11
3244.556763556095
 21
1646.379325871707
 31
0.0
 12
3254.650416260826
 22
1647.325873733184
 32
0.0
 13
3254.650416260826
 23
1647.325873733184
 33
0.0
  0
MTEXT
  5
9ECD
330
ECA
100
AcDbEntity
  8
cotas
100
AcDbMText
 10
3228.232747156857
 20
1668.654290313719
 30
0.0
 40
10.0
 41
0.0
 71
     5
 72
     1
  1
92,0°
  7
SANINDUSA
 11
0.719339800338595
 21
-0.6946583704590556
 31
0.0
 73
     1
 44
1.0
1001
ACAD
1000
MTEXTBEGIN
1070
    73
1070
     1
1070
    44
1040
1.0
1070
    74
1070
     0
1000
MTEXTEND
  0
POINT
  5
9ECE
330
ECA
100
AcDbEntity
  8
Defpoints
 62
     0
100
AcDbPoint
 10
3212.570347255728
 20
1670.332229550195
 30
0.0
  0
POINT
  5
9ECF
330
ECA
100
AcDbEntity
  8
Defpoints
 62
     0
100
AcDbPoint
 10
3193.654708283257
 20
1694.311515483333
 30
0.0
  0
POINT
  5
9ED0
330
ECA
100
AcDbEntity
  8
Defpoints
 62
     0
100
AcDbPoint
 10
3254.726560905331
 20
1645.145376407
 30
0.0
  0
POINT
  5
9ED1
330
ECA
100
AcDbEntity
  8
Defpoints
 62
     0
100
AcDbPoint
 10
3253.114117857711
 20
1691.319703923113
 30
0.0
  0
POINT
  5
9ED2
330
ECA
100
AcDbEntity
  8
Defpoints
 62
     0
100
AcDbPoint
 10
3250.016006293956
 20
1694.311515483333
 30
0.0
  0
ENDBLK
  5
ED5
330
ECA
100
AcDbEntity
  8
0
100
AcDbBlockEnd
  0
BLOCK
  5
EDD
330
ED6
100
AcDbEntity
  8
0
100
AcDbBlockBegin
  2
*D73
 70
     1
 10
0.0
 20
0.0
 30
0.0
  3
*D73
  1

  0
LINE
  5
9EC4
330
ED6
100
AcDbEntity
  8
cotas
100
AcDbLine
 10
3222.662632184996
 20
1597.321001761145
 30
0.0
 11
3255.71350879898
 21
1627.627111699694
 31
0.0
  0
MTEXT
  5
9EC5
330
ED6
100
AcDbEntity
  8
cotas
100
AcDbMText
 10
3228.733084628208
 20
1616.477723589863
 30
0.0
 40
10.0
 41
0.0
 71
     5
 72
     1
  1
R17
  7
SANINDUSA
 11
0.7370489033731
 21
0.6758394143851857
 31
0.0
 73
     1
 44
1.0
1001
ACAD
1000
MTEXTBEGIN
1070
    73
1070
     1
1070
    44
1040
1.0
1070
    74
1070
     0
1000
MTEXTEND
  0
LINE
  5
9EC6
330
ED6
100
AcDbEntity
  8
cotas
100
AcDbLine
 10
3275.613829190049
 20
1645.874775888089
 30
0.0
 11
3263.083997832711
 21
1634.385505843545
 31
0.0
  0
SOLID
  5
9EC7
330
ED6
100
AcDbEntity
  8
cotas
100
AcDbTrace
 10
3254.587109775005
 20
1628.855526538649
 30
0.0
 11
3256.839907822956
 21
1626.398696860738
 31
0.0
 12
3263.083997832711
 22
1634.385505843545
 32
0.0
 13
3263.083997832711
 23
1634.385505843545
 33
0.0
  0
POINT
  5
9EC8
330
ED6
100
AcDbEntity
  8
Defpoints
 62
     0
100
AcDbPoint
 10
3263.083997832711
 20
1634.385505843545
 30
0.0
  0
POINT
  5
9EC9
330
ED6
100
AcDbEntity
  8
Defpoints
 62
     0
100
AcDbPoint
 10
3275.613829190049
 20
1645.874775888089
 30
0.0
  0
ENDBLK
  5
EDE
330
ED6
100
AcDbEntity
  8
0
100
AcDbBlockEnd
  0
BLOCK
  5
EE6
330
EDF
100
AcDbEntity
  8
0
100
AcDbBlockBegin
  2
*D74
 70
     1
 10
0.0
 20
0.0
 30
0.0
  3
*D74
  1

  0
LINE
  5
9EBE
330
EDF
100
AcDbEntity
  8
cotas
100
AcDbLine
 10
3299.009218892278
 20
1576.867393658405
 30
0.0
 11
3285.821542796156
 21
1619.684372669524
 31
0.0
  0
MTEXT
  5
9EBF
330
EDF
100
AcDbEntity
  8
cotas
100
AcDbMText
 10
3303.639878589827
 20
1596.501251617612
 30
0.0
 40
10.0
 41
0.0
 71
     5
 72
     1
  1
R10
  7
SANINDUSA
 11
0.2943554145873942
 21
-0.9556960237978827
 31
0.0
 73
     1
 44
1.0
1001
ACAD
1000
MTEXTBEGIN
1070
    73
1070
     1
1070
    44
1040
1.0
1070
    74
1070
     0
1000
MTEXTEND
  0
LINE
  5
9EC0
330
EDF
100
AcDbEntity
  8
cotas
100
AcDbLine
 10
3279.934434504409
 20
1638.79829314548
 30
0.0
 11
3282.877988650283
 21
1629.241332907503
 31
0.0
  0
SOLID
  5
9EC1
330
EDF
100
AcDbEntity
  8
cotas
100
AcDbTrace
 10
3287.414369502486
 20
1620.17496502717
 30
0.0
 11
3284.228716089827
 21
1619.193780311879
 31
0.0
 12
3282.877988650283
 22
1629.241332907503
 32
0.0
 13
3282.877988650283
 23
1629.241332907503
 33
0.0
  0
POINT
  5
9EC2
330
EDF
100
AcDbEntity
  8
Defpoints
 62
     0
100
AcDbPoint
 10
3282.877988650283
 20
1629.241332907503
 30
0.0
  0
POINT
  5
9EC3
330
EDF
100
AcDbEntity
  8
Defpoints
 62
     0
100
AcDbPoint
 10
3279.934434504409
 20
1638.79829314548
 30
0.0
  0
ENDBLK
  5
EE7
330
EDF
100
AcDbEntity
  8
0
100
AcDbBlockEnd
  0
BLOCK
  5
EEE
330
EE8
100
AcDbEntity
  8
0
100
AcDbBlockBegin
  2
*D75
 70
     1
 10
0.0
 20
0.0
 30
0.0
  3
*D75
  1

  0
LINE
  5
9EB9
330
EE8
100
AcDbEntity
  8
cotas
100
AcDbLine
 10
3326.755124752608
 20
1598.154823301427
 30
0.0
 11
3297.359402682687
 21
1629.345769454516
 31
0.0
  0
MTEXT
  5
9EBA
330
EE8
100
AcDbEntity
  8
cotas
100
AcDbMText
 10
3325.082796061568
 20
1614.50965137483
 30
0.0
 40
10.0
 41
0.0
 71
     5
 72
     1
  1
R7
  7
SANINDUSA
 11
0.6858537116675861
 21
-0.7277394356442391
 31
0.0
 73
     1
 44
1.0
1001
ACAD
1000
MTEXTBEGIN
1070
    73
1070
     1
1070
    44
1040
1.0
1070
    74
1070
     0
1000
MTEXTEND
  0
SOLID
  5
9EBB
330
EE8
100
AcDbEntity
  8
cotas
100
AcDbTrace
 10
3298.572301742093
 20
1630.488858973962
 30
0.0
 11
3296.14650362328
 21
1628.20267993507
 31
0.0
 12
3290.500865566011
 22
1636.623163810958
 32
0.0
 13
3290.500865566011
 23
1636.623163810958
 33
0.0
  0
POINT
  5
9EBC
330
EE8
100
AcDbEntity
  8
Defpoints
 62
     0
100
AcDbPoint
 10
3290.500865566011
 20
1636.623163810958
 30
0.0
  0
POINT
  5
9EBD
330
EE8
100
AcDbEntity
  8
Defpoints
 62
     0
100
AcDbPoint
 10
3295.301841547683
 20
1631.528987761449
 30
0.0
  0
ENDBLK
  5
EEF
330
EE8
100
AcDbEntity
  8
0
100
AcDbBlockEnd
  0
BLOCK
  5
EF7
330
EF0
100
AcDbEntity
  8
0
100
AcDbBlockBegin
  2
*D76
 70
     1
 10
0.0
 20
0.0
 30
0.0
  3
*D76
  1

  0
LINE
  5
9EB3
330
EF0
100
AcDbEntity
  8
cotas
100
AcDbLine
 10
3823.069571225081
 20
1560.200608311713
 30
0.0
 11
3844.098269106146
 21
1599.806347920854
 31
0.0
  0
MTEXT
  5
9EB4
330
EF0
100
AcDbEntity
  8
cotas
100
AcDbMText
 10
3822.392093566918
 20
1580.284716659132
 30
0.0
 40
10.0
 41
0.0
 71
     5
 72
     1
  1
R17
  7
SANINDUSA
 11
0.4689490960746653
 21
0.8832251951177314
 31
0.0
 73
     1
 44
1.0
1001
ACAD
1000
MTEXTBEGIN
1070
    73
1070
     1
1070
    44
1040
1.0
1070
    74
1070
     0
1000
MTEXTEND
  0
LINE
  5
9EB5
330
EF0
100
AcDbEntity
  8
cotas
100
AcDbLine
 10
3856.761802333982
 20
1623.65702105288
 30
0.0
 11
3848.787760066892
 21
1608.638599872031
 31
0.0
  0
SOLID
  5
9EB6
330
EF0
100
AcDbEntity
  8
cotas
100
AcDbTrace
 10
3842.626227114283
 20
1600.587929747645
 30
0.0
 11
3845.570311098008
 21
1599.024766094063
 31
0.0
 12
3848.787760066892
 22
1608.638599872031
 32
0.0
 13
3848.787760066892
 23
1608.638599872031
 33
0.0
  0
POINT
  5
9EB7
330
EF0
100
AcDbEntity
  8
Defpoints
 62
     0
100
AcDbPoint
 10
3848.787760066892
 20
1608.638599872031
 30
0.0
  0
POINT
  5
9EB8
330
EF0
100
AcDbEntity
  8
Defpoints
 62
     0
100
AcDbPoint
 10
3856.761802333982
 20
1623.65702105288
 30
0.0
  0
ENDBLK
  5
EF8
330
EF0
100
AcDbEntity
  8
0
100
AcDbBlockEnd
  0
BLOCK
  5
EFF
330
EF9
100
AcDbEntity
  8
0
100
AcDbBlockBegin
  2
*D77
 70
     1
 10
0.0
 20
0.0
 30
0.0
  3
*D77
  1

  0
LINE
  5
9EAE
330
EF9
100
AcDbEntity
  8
cotas
100
AcDbLine
 10
3800.067867717755
 20
1589.829745157062
 30
0.0
 11
3830.670308003847
 21
1620.039263403694
 31
0.0
  0
MTEXT
  5
9EAF
330
EF9
100
AcDbEntity
  8
cotas
100
AcDbMText
 10
3802.329114065951
 20
1606.113597573313
 30
0.0
 40
10.0
 41
0.0
 71
     5
 72
     1
  1
R7
  7
SANINDUSA
 11
0.7116607288366465
 21
0.7025233142264341
 31
0.0
 73
     1
 44
1.0
1001
ACAD
1000
MTEXTBEGIN
1070
    73
1070
     1
1070
    44
1040
1.0
1070
    74
1070
     0
1000
MTEXTEND
  0
SOLID
  5
9EB0
330
EF9
100
AcDbEntity
  8
cotas
100
AcDbTrace
 10
3829.49943581347
 20
1621.225364618421
 30
0.0
 11
3831.841180194225
 21
1618.853162188966
 31
0.0
 12
3837.786915292214
 22
1627.064496545958
 32
0.0
 13
3837.786915292214
 23
1627.064496545958
 33
0.0
  0
POINT
  5
9EB1
330
EF9
100
AcDbEntity
  8
Defpoints
 62
     0
100
AcDbPoint
 10
3837.786915292214
 20
1627.064496545958
 30
0.0
  0
POINT
  5
9EB2
330
EF9
100
AcDbEntity
  8
Defpoints
 62
     0
100
AcDbPoint
 10
3832.80529795153
 20
1622.146841007895
 30
0.0
  0
ENDBLK
  5
F00
330
EF9
100
AcDbEntity
  8
0
100
AcDbBlockEnd
  0
BLOCK
  5
F0B
330
F01
100
AcDbEntity
  8
0
100
AcDbBlockBegin
  2
*D78
 70
     1
 10
0.0
 20
0.0
 30
0.0
  3
*D78
  1

  0
ARC
  5
9EA5
330
F01
100
AcDbEntity
  8
cotas
100
AcDbCircle
 10
-123.8443703387275
 20
1698.211515483334
 30
0.0
 40
3592.358038712758
100
AcDbArc
 50
359.1594928535919
 51
359.8405064378472
  0
SOLID
  5
9EA6
330
F01
100
AcDbEntity
  8
cotas
100
AcDbTrace
 10
3469.793593469609
 20
1645.488120728909
 30
0.0
 11
3466.460690077915
 21
1645.541656630356
 31
0.0
 12
3467.966534069422
 22
1635.51617850455
 32
0.0
 13
3467.966534069422
 23
1635.51617850455
 33
0.0
  0
SOLID
  5
9EA7
330
F01
100
AcDbEntity
  8
cotas
100
AcDbTrace
 10
3466.833084887239
 20
1688.21384490856
 30
0.0
 11
3470.166414991857
 21
1688.209205430399
 31
0.0
 12
3468.51366837403
 22
1698.211515483334
 32
0.0
 13
3468.51366837403
 23
1698.211515483334
 33
0.0
  0
MTEXT
  5
9EA8
330
F01
100
AcDbEntity
  8
cotas
100
AcDbMText
 10
3457.034130763425
 20
1666.961640085894
 30
0.0
 40
10.0
 41
0.0
 71
     5
 72
     1
  1
1,0°
  7
SANINDUSA
 11
0.0087265416814994
 21
0.9999619230102121
 31
0.0
 73
     1
 44
1.0
1001
ACAD
1000
MTEXTBEGIN
1070
    73
1070
     1
1070
    44
1040
1.0
1070
    74
1070
     0
1000
MTEXTEND
  0
POINT
  5
9EA9
330
F01
100
AcDbEntity
  8
Defpoints
 62
     0
100
AcDbPoint
 10
3468.270494142586
 20
1656.413445234001
 30
0.0
  0
POINT
  5
9EAA
330
F01
100
AcDbEntity
  8
Defpoints
 62
     0
100
AcDbPoint
 10
3276.999558500991
 20
1698.211515483334
 30
0.0
  0
POINT
  5
9EAB
330
F01
100
AcDbEntity
  8
Defpoints
 62
     0
100
AcDbPoint
 10
3544.971328432696
 20
1634.172053866566
 30
0.0
  0
POINT
  5
9EAC
330
F01
100
AcDbEntity
  8
Defpoints
 62
     0
100
AcDbPoint
 10
3295.424008479301
 20
1638.527921626038
 30
0.0
  0
POINT
  5
9EAD
330
F01
100
AcDbEntity
  8
Defpoints
 62
     0
100
AcDbPoint
 10
4296.552105274316
 20
1698.211515483334
 30
0.0
  0
ENDBLK
  5
F0C
330
F01
100
AcDbEntity
  8
0
100
AcDbBlockEnd
  0
BLOCK
  5
F17
330
F0D
100
AcDbEntity
  8
0
100
AcDbBlockBegin
  2
*D79
 70
     1
 10
0.0
 20
0.0
 30
0.0
  3
*D79
  1

  0
LINE
  5
9E8A
330
F0D
100
AcDbEntity
  8
cotas
100
AcDbLine
 10
4706.775838170254
 20
1627.106194630724
 30
0.0
 11
4706.775838170254
 21
1763.206515439093
 31
0.0
  0
LINE
  5
9E8B
330
F0D
100
AcDbEntity
  8
cotas
100
AcDbLine
 10
3186.775827441269
 20
1703.211515483333
 30
0.0
 11
3186.775827441269
 21
1763.206515439093
 31
0.0
  0
LINE
  5
9E8C
330
F0D
100
AcDbEntity
  8
cotas
100
AcDbLine
 10
4696.775838170254
 20
1758.206515439093
 30
0.0
 11
3196.775827441269
 21
1758.206515439093
 31
0.0
  0
SOLID
  5
9E8D
330
F0D
100
AcDbEntity
  8
cotas
100
AcDbTrace
 10
4696.775838170254
 20
1759.87318210576
 30
0.0
 11
4696.775838170254
 21
1756.539848772427
 31
0.0
 12
4706.775838170254
 22
1758.206515439093
 32
0.0
 13
4706.775838170254
 23
1758.206515439093
 33
0.0
  0
SOLID
  5
9E8E
330
F0D
100
AcDbEntity
  8
cotas
100
AcDbTrace
 10
3196.775827441269
 20
1759.87318210576
 30
0.0
 11
3196.775827441269
 21
1756.539848772427
 31
0.0
 12
3186.775827441269
 22
1758.206515439093
 32
0.0
 13
3186.775827441269
 23
1758.206515439093
 33
0.0
  0
MTEXT
  5
9E8F
330
F0D
100
AcDbEntity
  8
cotas
100
AcDbMText
 10
3946.775832805762
 20
1768.414708857495
 30
0.0
 40
10.0
 41
0.0
 71
     5
 72
     1
  1
1520
  7
SANINDUSA
 73
     1
 44
1.0
1001
ACAD
1000
MTEXTBEGIN
1070
    73
1070
     1
1070
    44
1040
1.0
1070
    74
1070
     0
1000
MTEXTEND
  0
POINT
  5
9E90
330
F0D
100
AcDbEntity
  8
Defpoints
 62
     0
100
AcDbPoint
 10
4706.775838170254
 20
1622.106194630724
 30
0.0
  0
POINT
  5
9E91
330
F0D
100
AcDbEntity
  8
Defpoints
 62
     0
100
AcDbPoint
 10
3186.775827441269
 20
1698.211515483333
 30
0.0
  0
POINT
  5
9E92
330
F0D
100
AcDbEntity
  8
Defpoints
 62
     0
100
AcDbPoint
 10
3186.775827441269
 20
1758.206515439093
 30
0.0
  0
ENDBLK
  5
F18
330
F0D
100
AcDbEntity
  8
0
100
AcDbBlockEnd
  0
BLOCK
  5
F23
330
F19
100
AcDbEntity
  8
0
100
AcDbBlockBegin
  2
*D80
 70
     1
 10
0.0
 20
0.0
 30
0.0
  3
*D80
  1

  0
ARC
  5
9E81
330
F19
100
AcDbEntity
  8
cotas
100
AcDbCircle
 10
4816.775838424671
 20
1698.211515483334
 30
0.0
 40
60.17204840949419
100
AcDbArc
 50
189.5329846044824
 51
258.4669963830446
  0
SOLID
  5
9E82
330
F19
100
AcDbEntity
  8
cotas
100
AcDbTrace
 10
4755.773837910868
 20
1688.107607463051
 30
0.0
 11
4759.095643328491
 21
1688.384590997885
 31
0.0
 12
4756.603790015177
 22
1698.211515483333
 32
0.0
 13
4756.603790015177
 23
1698.211515483333
 33
0.0
  0
SOLID
  5
9E83
330
F19
100
AcDbEntity
  8
cotas
100
AcDbTrace
 10
4804.941871442975
 20
1640.909416249079
 30
0.0
 11
4804.549126203411
 21
1637.59930110185
 31
0.0
 12
4814.675844264879
 22
1638.076122956774
 32
0.0
 13
4814.675844264879
 23
1638.076122956774
 33
0.0
  0
MTEXT
  5
9E84
330
F19
100
AcDbEntity
  8
cotas
100
AcDbMText
 10
4781.660948804274
 20
1664.301472007566
 30
0.0
 40
10.0
 41
0.0
 71
     5
 72
     1
  1
88,0°
  7
SANINDUSA
 11
0.694658251109633
 21
-0.7193399155929735
 31
0.0
 73
     1
 44
1.0
1001
ACAD
1000
MTEXTBEGIN
1070
    73
1070
     1
1070
    44
1040
1.0
1070
    74
1070
     0
1000
MTEXTEND
  0
POINT
  5
9E85
330
F19
100
AcDbEntity
  8
Defpoints
 62
     0
100
AcDbPoint
 10
4764.31878122054
 20
1668.733853444478
 30
0.0
  0
POINT
  5
9E86
330
F19
100
AcDbEntity
  8
Defpoints
 62
     0
100
AcDbPoint
 10
3776.999558501006
 20
1698.211515483334
 30
0.0
  0
POINT
  5
9E87
330
F19
100
AcDbEntity
  8
Defpoints
 62
     0
100
AcDbPoint
 10
4813.967847857714
 20
1617.80195140548
 30
0.0
  0
POINT
  5
9E88
330
F19
100
AcDbEntity
  8
Defpoints
 62
     0
100
AcDbPoint
 10
4816.539921895774
 20
1691.455814281649
 30
0.0
  0
POINT
  5
9E89
330
F19
100
AcDbEntity
  8
Defpoints
 62
     0
100
AcDbPoint
 10
4796.552105274329
 20
1698.211515483334
 30
0.0
  0
ENDBLK
  5
F24
330
F19
100
AcDbEntity
  8
0
100
AcDbBlockEnd
  0
BLOCK
  5
F2F
330
F25
100
AcDbEntity
  8
0
100
AcDbBlockBegin
  2
*D81
 70
     1
 10
0.0
 20
0.0
 30
0.0
  3
*D81
  1

  0
LINE
  5
9E6F
330
F25
100
AcDbEntity
  8
cotas
100
AcDbLine
 10
1201.443417134566
 20
1698.211515483333
 30
0.0
 11
1170.745214554055
 21
1698.211515483333
 31
0.0
  0
LINE
  5
9E70
330
F25
100
AcDbEntity
  8
cotas
100
AcDbLine
 10
1200.745214554056
 20
1658.211516377403
 30
0.0
 11
1170.745214554055
 21
1658.211516377403
 31
0.0
  0
LINE
  5
9E71
330
F25
100
AcDbEntity
  8
cotas
100
AcDbLine
 10
1175.745214554055
 20
1688.211515483333
 30
0.0
 11
1175.745214554055
 21
1668.211516377403
 31
0.0
  0
SOLID
  5
9E72
330
F25
100
AcDbEntity
  8
cotas
100
AcDbTrace
 10
1174.078547887389
 20
1688.211515483333
 30
0.0
 11
1177.411881220722
 21
1688.211515483333
 31
0.0
 12
1175.745214554055
 22
1698.211515483333
 32
0.0
 13
1175.745214554055
 23
1698.211515483333
 33
0.0
  0
SOLID
  5
9E73
330
F25
100
AcDbEntity
  8
cotas
100
AcDbTrace
 10
1174.078547887389
 20
1668.211516377403
 30
0.0
 11
1177.411881220722
 21
1668.211516377403
 31
0.0
 12
1175.745214554055
 22
1658.211516377403
 32
0.0
 13
1175.745214554055
 23
1658.211516377403
 33
0.0
  0
MTEXT
  5
9E74
330
F25
100
AcDbEntity
  8
cotas
100
AcDbMText
 10
1165.540379094014
 20
1678.211515930368
 30
0.0
 40
10.0
 41
0.0
 71
     5
 72
     1
  1
40
  7
SANINDUSA
 11
0.0000000000000001
 21
1.0
 31
0.0
 73
     1
 44
1.0
1001
ACAD
1000
MTEXTBEGIN
1070
    73
1070
     1
1070
    44
1040
1.0
1070
    74
1070
     0
1000
MTEXTEND
  0
POINT
  5
9E75
330
F25
100
AcDbEntity
  8
Defpoints
 62
     0
100
AcDbPoint
 10
1206.443417134566
 20
1698.211515483333
 30
0.0
  0
POINT
  5
9E76
330
F25
100
AcDbEntity
  8
Defpoints
 62
     0
100
AcDbPoint
 10
1205.745214554055
 20
1658.211516377403
 30
0.0
  0
POINT
  5
9E77
330
F25
100
AcDbEntity
  8
Defpoints
 62
     0
100
AcDbPoint
 10
1175.745214554055
 20
1658.211516377403
 30
0.0
  0
ENDBLK
  5
F30
330
F25
100
AcDbEntity
  8
0
100
AcDbBlockEnd
  0
BLOCK
  5
F37
330
F31
100
AcDbEntity
  8
0
100
AcDbBlockBegin
  2
*D82
 70
     1
 10
0.0
 20
0.0
 30
0.0
  3
*D82
  1

  0
LINE
  5
9E6A
330
F31
100
AcDbEntity
  8
cotas
100
AcDbLine
 10
1243.656503704731
 20
1666.543851161904
 30
0.0
 11
1215.649846578986
 21
1689.31876153648
 31
0.0
  0
MTEXT
  5
9E6B
330
F31
100
AcDbEntity
  8
cotas
100
AcDbMText
 10
1239.841602635414
 20
1682.535211779213
 30
0.0
 40
10.0
 41
0.0
 71
     5
 72
     1
  1
R7
  7
SANINDUSA
 11
0.7758495341438434
 21
-0.6309179822835781
 31
0.0
 73
     1
 44
1.0
1001
ACAD
1000
MTEXTBEGIN
1070
    73
1070
     1
1070
    44
1040
1.0
1070
    74
1070
     0
1000
MTEXTEND
  0
SOLID
  5
9E6C
330
F31
100
AcDbEntity
  8
cotas
100
AcDbTrace
 10
1216.701376549459
 20
1690.611844093387
 30
0.0
 11
1214.598316608514
 21
1688.025678979574
 31
0.0
 12
1207.891351237548
 22
1695.627941359316
 32
0.0
 13
1207.891351237548
 23
1695.627941359316
 33
0.0
  0
POINT
  5
9E6D
330
F31
100
AcDbEntity
  8
Defpoints
 62
     0
100
AcDbPoint
 10
1207.891351237548
 20
1695.627941359316
 30
0.0
  0
POINT
  5
9E6E
330
F31
100
AcDbEntity
  8
Defpoints
 62
     0
100
AcDbPoint
 10
1213.322297976553
 20
1691.211515483332
 30
0.0
  0
ENDBLK
  5
F38
330
F31
100
AcDbEntity
  8
0
100
AcDbBlockEnd
  0
BLOCK
  5
F3F
330
F39
100
AcDbEntity
  8
0
100
AcDbBlockBegin
  2
*D83
 70
     1
 10
0.0
 20
0.0
 30
0.0
  3
*D83
  1

  0
LINE
  5
9E65
330
F39
100
AcDbEntity
  8
cotas
100
AcDbLine
 10
2870.083077445189
 20
1665.530808368776
 30
0.0
 11
2897.302459287214
 21
1689.241030596084
 31
0.0
  0
MTEXT
  5
9E66
330
F39
100
AcDbEntity
  8
cotas
100
AcDbMText
 10
2873.354284519159
 20
1681.642179782802
 30
0.0
 40
10.0
 41
0.0
 71
     5
 72
     1
  1
R7
  7
SANINDUSA
 11
0.7540401779116763
 21
0.656828295747776
 31
0.0
 73
     1
 44
1.0
1001
ACAD
1000
MTEXTBEGIN
1070
    73
1070
     1
1070
    44
1040
1.0
1070
    74
1070
     0
1000
MTEXTEND
  0
SOLID
  5
9E67
330
F39
100
AcDbEntity
  8
cotas
100
AcDbTrace
 10
2896.207745460968
 20
1690.497764225937
 30
0.0
 11
2898.39717311346
 21
1687.984296966231
 31
0.0
 12
2904.842861066331
 22
1695.809313553562
 32
0.0
 13
2904.842861066331
 23
1695.809313553562
 33
0.0
  0
POINT
  5
9E68
330
F39
100
AcDbEntity
  8
Defpoints
 62
     0
100
AcDbPoint
 10
2904.842861066331
 20
1695.809313553562
 30
0.0
  0
POINT
  5
9E69
330
F39
100
AcDbEntity
  8
Defpoints
 62
     0
100
AcDbPoint
 10
2899.564579820948
 20
1691.211515483327
 30
0.0
  0
ENDBLK
  5
F40
330
F39
100
AcDbEntity
  8
0
100
AcDbBlockEnd
  0
BLOCK
  5
F4C
330
F41
100
AcDbEntity
  8
0
100
AcDbBlockBegin
  2
*D84
 70
     1
 10
0.0
 20
0.0
 30
0.0
  3
*D84
  1

  0
LINE
  5
9E5B
330
F41
100
AcDbEntity
  8
cotas
100
AcDbLine
 10
2907.22898732206
 20
1653.212278043616
 30
0.0
 11
2907.778010422592
 21
1621.761698372151
 31
0.0
  0
ARC
  5
9E5C
330
F41
100
AcDbEntity
  8
cotas
100
AcDbCircle
 10
2906.443449468105
 20
1698.211515483333
 30
0.0
 40
71.46146473403686
100
AcDbArc
 50
188.0242731520482
 51
262.9758200766576
  0
SOLID
  5
9E5D
330
F41
100
AcDbEntity
  8
cotas
100
AcDbTrace
 10
2834.019080441653
 20
1688.119409999271
 30
0.0
 11
2837.344244614452
 21
1688.3526359306
 31
0.0
 12
2834.981984734067
 22
1698.211515483333
 32
0.0
 13
2834.981984734067
 23
1698.211515483333
 33
0.0
  0
SOLID
  5
9E5E
330
F41
100
AcDbEntity
  8
cotas
100
AcDbTrace
 10
2897.79213157556
 20
1628.950759523234
 30
0.0
 11
2897.616978698618
 21
1625.622031150294
 31
0.0
 12
2907.690740255906
 22
1626.760936705939
 32
0.0
 13
2907.690740255906
 23
1626.760936705939
 33
0.0
  0
MTEXT
  5
9E5F
330
F41
100
AcDbEntity
  8
cotas
100
AcDbMText
 10
2864.306023973981
 20
1655.332089997963
 30
0.0
 40
10.0
 41
0.0
 71
     5
 72
     1
  1
91,0°
  7
SANINDUSA
 11
0.7132510193954568
 21
-0.7009086840176413
 31
0.0
 73
     1
 44
1.0
1001
ACAD
1000
MTEXTBEGIN
1070
    73
1070
     1
1070
    44
1040
1.0
1070
    74
1070
     0
1000
MTEXTEND
  0
POINT
  5
9E60
330
F41
100
AcDbEntity
  8
Defpoints
 62
     0
100
AcDbPoint
 10
2844.764944323518
 20
1662.121309816653
 30
0.0
  0
POINT
  5
9E61
330
F41
100
AcDbEntity
  8
Defpoints
 62
     0
100
AcDbPoint
 10
1713.322341446674
 20
1698.211515483333
 30
0.0
  0
POINT
  5
9E62
330
F41
100
AcDbEntity
  8
Defpoints
 62
     0
100
AcDbPoint
 10
2906.563513661737
 20
1691.333683778513
 30
0.0
  0
POINT
  5
9E63
330
F41
100
AcDbEntity
  8
Defpoints
 62
     0
100
AcDbPoint
 10
2907.141717155372
 20
1658.211516377402
 30
0.0
  0
POINT
  5
9E64
330
F41
100
AcDbEntity
  8
Defpoints
 62
     0
100
AcDbPoint
 10
2899.564536292946
 20
1698.211515483333
 30
0.0
  0
ENDBLK
  5
F4D
330
F41
100
AcDbEntity
  8
0
100
AcDbBlockEnd
  0
BLOCK
  5
F59
330
F4E
100
AcDbEntity
  8
0
100
AcDbBlockBegin
  2
*D85
 70
     1
 10
0.0
 20
0.0
 30
0.0
  3
*D85
  1

  0
LINE
  5
9E51
330
F4E
100
AcDbEntity
  8
cotas
100
AcDbLine
 10
1205.657952521995
 20
1653.212277901619
 30
0.0
 11
1204.85521139069
 21
1607.223269223091
 31
0.0
  0
ARC
  5
9E52
330
F4E
100
AcDbEntity
  8
cotas
100
AcDbCircle
 10
1206.443417134566
 20
1698.211515483333
 30
0.0
 40
86.00210632177359
100
AcDbArc
 50
275.6658955430543
 51
353.3341044583944
  0
SOLID
  5
9E53
330
F4E
100
AcDbEntity
  8
cotas
100
AcDbTrace
 10
1215.002028894651
 20
1610.964286142262
 30
0.0
 11
1214.866340995612
 21
1614.294856649723
 31
0.0
 12
1204.94247342275
 22
1612.222507698875
 32
0.0
 13
1204.94247342275
 23
1612.222507698875
 33
0.0
  0
SOLID
  5
9E54
330
F4E
100
AcDbEntity
  8
cotas
100
AcDbTrace
 10
1290.200294764213
 20
1688.325326839683
 30
0.0
 11
1293.527989929296
 21
1688.131533136488
 31
0.0
 12
1292.44552345634
 22
1698.211515483333
 32
0.0
 13
1292.44552345634
 23
1698.211515483333
 33
0.0
  0
MTEXT
  5
9E55
330
F4E
100
AcDbEntity
  8
cotas
100
AcDbMText
 10
1258.772547912641
 20
1644.961005137106
 30
0.0
 40
10.0
 41
0.0
 71
     5
 72
     1
  1
91,0°
  7
SANINDUSA
 11
0.7132504491453208
 21
0.7009092643088679
 31
0.0
 73
     1
 44
1.0
1001
ACAD
1000
MTEXTBEGIN
1070
    73
1070
     1
1070
    44
1040
1.0
1070
    74
1070
     0
1000
MTEXTEND
  0
POINT
  5
9E56
330
F4E
100
AcDbEntity
  8
Defpoints
 62
     0
100
AcDbPoint
 10
1248.574964769686
 20
1623.23621964763
 30
0.0
  0
POINT
  5
9E57
330
F4E
100
AcDbEntity
  8
Defpoints
 62
     0
100
AcDbPoint
 10
1205.745214554055
 20
1658.211516377403
 30
0.0
  0
POINT
  5
9E58
330
F4E
100
AcDbEntity
  8
Defpoints
 62
     0
100
AcDbPoint
 10
1213.32229791865
 20
1698.211515483334
 30
0.0
  0
POINT
  5
9E59
330
F4E
100
AcDbEntity
  8
Defpoints
 62
     0
100
AcDbPoint
 10
2399.564492764923
 20
1698.211515483333
 30
0.0
  0
POINT
  5
9E5A
330
F4E
100
AcDbEntity
  8
Defpoints
 62
     0
100
AcDbPoint
 10
1206.323364112358
 20
1691.333682437375
 30
0.0
  0
ENDBLK
  5
F5A
330
F4E
100
AcDbEntity
  8
0
100
AcDbBlockEnd
  0
BLOCK
  5
F65
330
F5B
100
AcDbEntity
  8
0
100
AcDbBlockBegin
  2
*D86
 70
     1
 10
0.0
 20
0.0
 30
0.0
  3
*D86
  1

  0
LINE
  5
9E48
330
F5B
100
AcDbEntity
  8
cotas
100
AcDbLine
 10
2911.443449468105
 20
1698.211515483333
 30
0.0
 11
2942.141717155373
 21
1698.211515483333
 31
0.0
  0
LINE
  5
9E49
330
F5B
100
AcDbEntity
  8
cotas
100
AcDbLine
 10
2783.139185397097
 20
1564.171836392121
 30
0.0
 11
2942.141717155373
 21
1564.171836392121
 31
0.0
  0
LINE
  5
9E4A
330
F5B
100
AcDbEntity
  8
cotas
100
AcDbLine
 10
2937.141717155373
 20
1688.211515483333
 30
0.0
 11
2937.141717155373
 21
1574.17183639212
 31
0.0
  0
SOLID
  5
9E4B
330
F5B
100
AcDbEntity
  8
cotas
100
AcDbTrace
 10
2935.475050488707
 20
1688.211515483333
 30
0.0
 11
2938.80838382204
 21
1688.211515483333
 31
0.0
 12
2937.141717155373
 22
1698.211515483333
 32
0.0
 13
2937.141717155373
 23
1698.211515483333
 33
0.0
  0
SOLID
  5
9E4C
330
F5B
100
AcDbEntity
  8
cotas
100
AcDbTrace
 10
2935.475050488707
 20
1574.17183639212
 30
0.0
 11
2938.80838382204
 21
1574.17183639212
 31
0.0
 12
2937.141717155373
 22
1564.171836392121
 32
0.0
 13
2937.141717155373
 23
1564.171836392121
 33
0.0
  0
MTEXT
  5
9E4D
330
F5B
100
AcDbEntity
  8
cotas
100
AcDbMText
 10
2926.933523736971
 20
1631.191675937727
 30
0.0
 40
10.0
 41
0.0
 71
     5
 72
     1
  1
134
  7
SANINDUSA
 11
0.0000000000000001
 21
1.0
 31
0.0
 73
     1
 44
1.0
1001
ACAD
1000
MTEXTBEGIN
1070
    73
1070
     1
1070
    44
1040
1.0
1070
    74
1070
     0
1000
MTEXTEND
  0
POINT
  5
9E4E
330
F5B
100
AcDbEntity
  8
Defpoints
 62
     0
100
AcDbPoint
 10
2906.443449468106
 20
1698.211515483333
 30
0.0
  0
POINT
  5
9E4F
330
F5B
100
AcDbEntity
  8
Defpoints
 62
     0
100
AcDbPoint
 10
2778.139185397096
 20
1564.171836392121
 30
0.0
  0
POINT
  5
9E50
330
F5B
100
AcDbEntity
  8
Defpoints
 62
     0
100
AcDbPoint
 10
2937.141717155373
 20
1564.171836392121
 30
0.0
  0
ENDBLK
  5
F66
330
F5B
100
AcDbEntity
  8
0
100
AcDbBlockEnd
  0
BLOCK
  5
F71
330
F67
100
AcDbEntity
  8
0
100
AcDbBlockBegin
  2
*D87
 70
     1
 10
0.0
 20
0.0
 30
0.0
  3
*D87
  1

  0
LINE
  5
9E3F
330
F67
100
AcDbEntity
  8
cotas
100
AcDbLine
 10
-310.1686030225683
 20
2071.305110581243
 30
-0.0000000000000604
 11
-310.1686030225683
 21
2101.305110581244
 31
-0.0000000000000604
  0
LINE
  5
9E40
330
F67
100
AcDbEntity
  8
cotas
100
AcDbLine
 10
-490.6398818713442
 20
1936.055690171972
 30
-0.0000000000000604
 11
-490.6398818713442
 21
2101.305110581244
 31
-0.0000000000000604
  0
LINE
  5
9E41
330
F67
100
AcDbEntity
  8
cotas
100
AcDbLine
 10
-320.1686030225683
 20
2096.305110581244
 30
-0.0000000000000604
 11
-480.6398818713441
 21
2096.305110581244
 31
-0.0000000000000604
  0
SOLID
  5
9E42
330
F67
100
AcDbEntity
  8
cotas
100
AcDbTrace
 10
-320.1686030225683
 20
2097.97177724791
 30
-0.0000000000000604
 11
-320.1686030225683
 21
2094.638443914577
 31
-0.0000000000000604
 12
-310.1686030225683
 22
2096.305110581244
 32
-0.0000000000000604
 13
-310.1686030225683
 23
2096.305110581244
 33
-0.0000000000000604
  0
SOLID
  5
9E43
330
F67
100
AcDbEntity
  8
cotas
100
AcDbTrace
 10
-480.6398818713441
 20
2097.97177724791
 30
-0.0000000000000604
 11
-480.6398818713441
 21
2094.638443914577
 31
-0.0000000000000604
 12
-490.6398818713442
 22
2096.305110581244
 32
-0.0000000000000604
 13
-490.6398818713442
 23
2096.305110581244
 33
-0.0000000000000604
  0
MTEXT
  5
9E44
330
F67
100
AcDbEntity
  8
cotas
100
AcDbMText
 10
-400.4042424469562
 20
2107.661725759216
 30
-0.0000000000000604
 40
10.0
 41
0.0
 71
     5
 72
     1
  1
180,5
  7
SANINDUSA
 73
     1
 44
1.0
1001
ACAD
1000
MTEXTBEGIN
1070
    73
1070
     1
1070
    44
1040
1.0
1070
    74
1070
     0
1000
MTEXTEND
  0
POINT
  5
9E45
330
F67
100
AcDbEntity
  8
Defpoints
 62
     0
100
AcDbPoint
 10
-310.1686030225683
 20
2066.305110581243
 30
-0.0000000000000802
  0
POINT
  5
9E46
330
F67
100
AcDbEntity
  8
Defpoints
 62
     0
100
AcDbPoint
 10
-490.6398818713442
 20
1931.055690171972
 30
-0.0000000000000604
  0
POINT
  5
9E47
330
F67
100
AcDbEntity
  8
Defpoints
 62
     0
100
AcDbPoint
 10
-490.6398818713442
 20
2096.305110581244
 30
-0.0000000000000604
  0
ENDBLK
  5
F72
330
F67
100
AcDbEntity
  8
0
100
AcDbBlockEnd
  0
BLOCK
  5
F7D
330
F73
100
AcDbEntity
  8
0
100
AcDbBlockBegin
  2
*D88
 70
     1
 10
0.0
 20
0.0
 30
0.0
  3
*D88
  1

  0
LINE
  5
9E1B
330
F73
100
AcDbEntity
  8
cotas
100
AcDbLine
 10
-810.4710666911506
 20
1936.038329187391
 30
-0.0000000000000604
 11
-810.4710666911506
 21
2101.304912461277
 31
-0.0000000000000604
  0
LINE
  5
9E1C
330
F73
100
AcDbEntity
  8
cotas
100
AcDbLine
 10
-890.4583644335589
 20
1936.038329187391
 30
-0.0000000000000604
 11
-890.4583644335589
 21
2101.304912461277
 31
-0.0000000000000604
  0
LINE
  5
9E1D
330
F73
100
AcDbEntity
  8
cotas
100
AcDbLine
 10
-820.4710666911505
 20
2096.304912461278
 30
-0.0000000000000604
 11
-880.458364433559
 21
2096.304912461278
 31
-0.0000000000000604
  0
SOLID
  5
9E1E
330
F73
100
AcDbEntity
  8
cotas
100
AcDbTrace
 10
-820.4710666911505
 20
2097.971579127944
 30
-0.0000000000000604
 11
-820.4710666911505
 21
2094.638245794611
 31
-0.0000000000000604
 12
-810.4710666911506
 22
2096.304912461278
 32
-0.0000000000000604
 13
-810.4710666911506
 23
2096.304912461278
 33
-0.0000000000000604
  0
SOLID
  5
9E1F
330
F73
100
AcDbEntity
  8
cotas
100
AcDbTrace
 10
-880.458364433559
 20
2097.971579127944
 30
-0.0000000000000604
 11
-880.458364433559
 21
2094.638245794611
 31
-0.0000000000000604
 12
-890.4583644335589
 22
2096.304912461278
 32
-0.0000000000000604
 13
-890.4583644335589
 23
2096.304912461278
 33
-0.0000000000000604
  0
MTEXT
  5
9E20
330
F73
100
AcDbEntity
  8
cotas
100
AcDbMText
 10
-850.4647155623548
 20
2106.533253629847
 30
-0.0000000000000604
 40
10.0
 41
0.0
 71
     5
 72
     1
  1
80
  7
SANINDUSA
 73
     1
 44
1.0
1001
ACAD
1000
MTEXTBEGIN
1070
    73
1070
     1
1070
    44
1040
1.0
1070
    74
1070
     0
1000
MTEXTEND
  0
POINT
  5
9E21
330
F73
100
AcDbEntity
  8
Defpoints
 62
     0
100
AcDbPoint
 10
-810.4710666911506
 20
1931.038329187391
 30
-0.0000000000000604
  0
POINT
  5
9E22
330
F73
100
AcDbEntity
  8
Defpoints
 62
     0
100
AcDbPoint
 10
-890.4583644335589
 20
1931.038329187391
 30
-0.0000000000000604
  0
POINT
  5
9E23
330
F73
100
AcDbEntity
  8
Defpoints
 62
     0
100
AcDbPoint
 10
-890.4583644335589
 20
2096.304912461278
 30
-0.0000000000000604
  0
ENDBLK
  5
F7E
330
F73
100
AcDbEntity
  8
0
100
AcDbBlockEnd
  0
BLOCK
  5
F89
330
F7F
100
AcDbEntity
  8
0
100
AcDbBlockBegin
  2
*D89
 70
     1
 10
0.0
 20
0.0
 30
0.0
  3
*D89
  1

  0
LINE
  5
9E12
330
F7F
100
AcDbEntity
  8
cotas
100
AcDbLine
 10
-890.4583644335589
 20
1936.038329187391
 30
-0.0000000000000604
 11
-890.4583644335589
 21
2101.304912461277
 31
-0.0000000000000604
  0
LINE
  5
9E13
330
F7F
100
AcDbEntity
  8
cotas
100
AcDbLine
 10
-970.4571927138241
 20
2071.304912461276
 30
-0.0000000000000604
 11
-970.4571927138241
 21
2101.304912461277
 31
-0.0000000000000604
  0
LINE
  5
9E14
330
F7F
100
AcDbEntity
  8
cotas
100
AcDbLine
 10
-900.4583644335589
 20
2096.304912461278
 30
-0.0000000000000604
 11
-960.4571927138239
 21
2096.304912461278
 31
-0.0000000000000604
  0
SOLID
  5
9E15
330
F7F
100
AcDbEntity
  8
cotas
100
AcDbTrace
 10
-900.4583644335589
 20
2097.971579127944
 30
-0.0000000000000604
 11
-900.4583644335589
 21
2094.638245794611
 31
-0.0000000000000604
 12
-890.4583644335589
 22
2096.304912461278
 32
-0.0000000000000604
 13
-890.4583644335589
 23
2096.304912461278
 33
-0.0000000000000604
  0
SOLID
  5
9E16
330
F7F
100
AcDbEntity
  8
cotas
100
AcDbTrace
 10
-960.4571927138239
 20
2097.971579127944
 30
-0.0000000000000604
 11
-960.4571927138239
 21
2094.638245794611
 31
-0.0000000000000604
 12
-970.4571927138241
 22
2096.304912461278
 32
-0.0000000000000604
 13
-970.4571927138241
 23
2096.304912461278
 33
-0.0000000000000604
  0
MTEXT
  5
9E17
330
F7F
100
AcDbEntity
  8
cotas
100
AcDbMText
 10
-930.4577785736915
 20
2106.533253629847
 30
-0.0000000000000604
 40
10.0
 41
0.0
 71
     5
 72
     1
  1
80
  7
SANINDUSA
 73
     1
 44
1.0
1001
ACAD
1000
MTEXTBEGIN
1070
    73
1070
     1
1070
    44
1040
1.0
1070
    74
1070
     0
1000
MTEXTEND
  0
POINT
  5
9E18
330
F7F
100
AcDbEntity
  8
Defpoints
 62
     0
100
AcDbPoint
 10
-890.4583644335589
 20
1931.038329187391
 30
-0.0000000000000604
  0
POINT
  5
9E19
330
F7F
100
AcDbEntity
  8
Defpoints
 62
     0
100
AcDbPoint
 10
-970.4571927138241
 20
2066.304912461276
 30
-0.0000000000000802
  0
POINT
  5
9E1A
330
F7F
100
AcDbEntity
  8
Defpoints
 62
     0
100
AcDbPoint
 10
-970.4571927138241
 20
2096.304912461278
 30
-0.0000000000000604
  0
ENDBLK
  5
F8A
330
F7F
100
AcDbEntity
  8
0
100
AcDbBlockEnd
  0
BLOCK
  5
F95
330
F8B
100
AcDbEntity
  8
0
100
AcDbBlockBegin
  2
*D90
 70
     1
 10
0.0
 20
0.0
 30
0.0
  3
*D90
  1

  0
LINE
  5
9E00
330
F8B
100
AcDbEntity
  8
cotas
100
AcDbLine
 10
-405.9865586026144
 20
1895.613128344607
 30
0.0000000000003573
 11
-94.46695556539996
 21
1895.613128344607
 31
0.0000000000003573
  0
LINE
  5
9E01
330
F8B
100
AcDbEntity
  8
cotas
100
AcDbLine
 10
-409.0472651102673
 20
1815.635531841033
 30
0.0000000000003573
 11
-94.46695556539998
 21
1815.635531841033
 31
0.0000000000003573
  0
LINE
  5
9E02
330
F8B
100
AcDbEntity
  8
cotas
100
AcDbLine
 10
-99.46695556539998
 20
1885.613128344607
 30
0.0000000000003573
 11
-99.46695556539998
 21
1825.635531841033
 31
0.0000000000003573
  0
SOLID
  5
9E03
330
F8B
100
AcDbEntity
  8
cotas
100
AcDbTrace
 10
-101.1336222320666
 20
1885.613128344607
 30
0.0000000000003573
 11
-97.8002888987333
 21
1885.613128344607
 31
0.0000000000003573
 12
-99.46695556539996
 22
1895.613128344607
 32
0.0000000000003573
 13
-99.46695556539996
 23
1895.613128344607
 33
0.0000000000003573
  0
SOLID
  5
9E04
330
F8B
100
AcDbEntity
  8
cotas
100
AcDbTrace
 10
-101.1336222320666
 20
1825.635531841033
 30
0.0000000000003573
 11
-97.8002888987333
 21
1825.635531841033
 31
0.0000000000003573
 12
-99.46695556539999
 22
1815.635531841033
 32
0.0000000000003573
 13
-99.46695556539999
 23
1815.635531841033
 33
0.0000000000003573
  0
MTEXT
  5
9E05
330
F8B
100
AcDbEntity
  8
cotas
100
AcDbMText
 10
-109.6952967339698
 20
1855.62433009282
 30
0.0000000000003573
 40
10.0
 41
0.0
 71
     5
 72
     1
  1
80
  7
SANINDUSA
 11
0.0000000000000001
 21
1.0
 31
0.0
 73
     1
 44
1.0
1001
ACAD
1000
MTEXTBEGIN
1070
    73
1070
     1
1070
    44
1040
1.0
1070
    74
1070
     0
1000
MTEXTEND
  0
POINT
  5
9E06
330
F8B
100
AcDbEntity
  8
Defpoints
 62
     0
100
AcDbPoint
 10
-410.9865586026144
 20
1895.613128344607
 30
0.0000000000003573
  0
POINT
  5
9E07
330
F8B
100
AcDbEntity
  8
Defpoints
 62
     0
100
AcDbPoint
 10
-414.0472651102673
 20
1815.635531841033
 30
0.0000000000003573
  0
POINT
  5
9E08
330
F8B
100
AcDbEntity
  8
Defpoints
 62
     0
100
AcDbPoint
 10
-99.46695556539999
 20
1815.635531841033
 30
0.0000000000003573
  0
ENDBLK
  5
F96
330
F8B
100
AcDbEntity
  8
0
100
AcDbBlockEnd
  0
BLOCK
  5
FA1
330
F97
100
AcDbEntity
  8
0
100
AcDbBlockBegin
  2
*D91
 70
     1
 10
0.0
 20
0.0
 30
0.0
  3
*D91
  1

  0
LINE
  5
9DF7
330
F97
100
AcDbEntity
  8
cotas
100
AcDbLine
 10
-409.0472651102673
 20
1815.635531841033
 30
0.0000000000003573
 11
-94.46695556539998
 21
1815.635531841033
 31
0.0000000000003573
  0
LINE
  5
9DF8
330
F97
100
AcDbEntity
  8
cotas
100
AcDbLine
 10
-414.0671250646037
 20
1735.640652773769
 30
0.0000000000003573
 11
-94.46695556539999
 21
1735.640652773769
 31
0.0000000000003573
  0
LINE
  5
9DF9
330
F97
100
AcDbEntity
  8
cotas
100
AcDbLine
 10
-99.46695556539998
 20
1805.635531841033
 30
0.0000000000003573
 11
-99.46695556539999
 21
1745.640652773769
 31
0.0000000000003573
  0
SOLID
  5
9DFA
330
F97
100
AcDbEntity
  8
cotas
100
AcDbTrace
 10
-101.1336222320666
 20
1805.635531841033
 30
0.0000000000003573
 11
-97.8002888987333
 21
1805.635531841033
 31
0.0000000000003573
 12
-99.46695556539998
 22
1815.635531841033
 32
0.0000000000003573
 13
-99.46695556539998
 23
1815.635531841033
 33
0.0000000000003573
  0
SOLID
  5
9DFB
330
F97
100
AcDbEntity
  8
cotas
100
AcDbTrace
 10
-101.1336222320666
 20
1745.640652773769
 30
0.0000000000003573
 11
-97.80028889873332
 21
1745.640652773769
 31
0.0000000000003573
 12
-99.46695556539999
 22
1735.640652773769
 32
0.0000000000003573
 13
-99.46695556539999
 23
1735.640652773769
 33
0.0000000000003573
  0
MTEXT
  5
9DFC
330
F97
100
AcDbEntity
  8
cotas
100
AcDbMText
 10
-109.6952967339698
 20
1775.638092307401
 30
0.0000000000003573
 40
10.0
 41
0.0
 71
     5
 72
     1
  1
80
  7
SANINDUSA
 11
0.0000000000000001
 21
1.0
 31
0.0
 73
     1
 44
1.0
1001
ACAD
1000
MTEXTBEGIN
1070
    73
1070
     1
1070
    44
1040
1.0
1070
    74
1070
     0
1000
MTEXTEND
  0
POINT
  5
9DFD
330
F97
100
AcDbEntity
  8
Defpoints
 62
     0
100
AcDbPoint
 10
-414.0472651102673
 20
1815.635531841033
 30
0.0000000000003573
  0
POINT
  5
9DFE
330
F97
100
AcDbEntity
  8
Defpoints
 62
     0
100
AcDbPoint
 10
-419.0671250646037
 20
1735.640652773769
 30
0.0000000000003573
  0
POINT
  5
9DFF
330
F97
100
AcDbEntity
  8
Defpoints
 62
     0
100
AcDbPoint
 10
-99.46695556539999
 20
1735.640652773769
 30
0.0000000000003573
  0
ENDBLK
  5
FA2
330
F97
100
AcDbEntity
  8
0
100
AcDbBlockEnd
  0
BLOCK
  5
FAD
330
FA3
100
AcDbEntity
  8
0
100
AcDbBlockBegin
  2
*D92
 70
     1
 10
0.0
 20
0.0
 30
0.0
  3
*D92
  1

  0
LINE
  5
9DEE
330
FA3
100
AcDbEntity
  8
cotas
100
AcDbLine
 10
-406.0324168477973
 20
1655.619481207183
 30
0.0000000000003573
 11
-94.46695556540001
 21
1655.619481207183
 31
0.0000000000003573
  0
LINE
  5
9DEF
330
FA3
100
AcDbEntity
  8
cotas
100
AcDbLine
 10
-414.0671250646037
 20
1735.640652773769
 30
0.0000000000003573
 11
-94.46695556539999
 21
1735.640652773769
 31
0.0000000000003573
  0
LINE
  5
9DF0
330
FA3
100
AcDbEntity
  8
cotas
100
AcDbLine
 10
-99.46695556539999
 20
1665.619481207183
 30
0.0000000000003573
 11
-99.46695556539999
 21
1725.640652773769
 31
0.0000000000003573
  0
SOLID
  5
9DF1
330
FA3
100
AcDbEntity
  8
cotas
100
AcDbTrace
 10
-101.1336222320666
 20
1665.619481207183
 30
0.0000000000003573
 11
-97.80028889873333
 21
1665.619481207183
 31
0.0000000000003573
 12
-99.46695556539999
 22
1655.619481207183
 32
0.0000000000003573
 13
-99.46695556539999
 23
1655.619481207183
 33
0.0000000000003573
  0
SOLID
  5
9DF2
330
FA3
100
AcDbEntity
  8
cotas
100
AcDbTrace
 10
-101.1336222320666
 20
1725.640652773769
 30
0.0000000000003573
 11
-97.80028889873332
 21
1725.640652773769
 31
0.0000000000003573
 12
-99.46695556539999
 22
1735.640652773769
 32
0.0000000000003573
 13
-99.46695556539999
 23
1735.640652773769
 33
0.0000000000003573
  0
MTEXT
  5
9DF3
330
FA3
100
AcDbEntity
  8
cotas
100
AcDbMText
 10
-109.6952967339698
 20
1695.630066990476
 30
0.0000000000003573
 40
10.0
 41
0.0
 71
     5
 72
     1
  1
80
  7
SANINDUSA
 11
0.0000000000000001
 21
1.0
 31
0.0
 73
     1
 44
1.0
1001
ACAD
1000
MTEXTBEGIN
1070
    73
1070
     1
1070
    44
1040
1.0
1070
    74
1070
     0
1000
MTEXTEND
  0
POINT
  5
9DF4
330
FA3
100
AcDbEntity
  8
Defpoints
 62
     0
100
AcDbPoint
 10
-411.0324168477973
 20
1655.619481207183
 30
0.0000000000003573
  0
POINT
  5
9DF5
330
FA3
100
AcDbEntity
  8
Defpoints
 62
     0
100
AcDbPoint
 10
-419.0671250646037
 20
1735.640652773769
 30
0.0000000000003573
  0
POINT
  5
9DF6
330
FA3
100
AcDbEntity
  8
Defpoints
 62
     0
100
AcDbPoint
 10
-99.46695556539999
 20
1735.640652773769
 30
0.0000000000003573
  0
ENDBLK
  5
FAE
330
FA3
100
AcDbEntity
  8
0
100
AcDbBlockEnd
  0
BLOCK
  5
FB9
330
FAF
100
AcDbEntity
  8
0
100
AcDbBlockBegin
  2
*D93
 70
     1
 10
0.0
 20
0.0
 30
0.0
  3
*D93
  1

  0
LINE
  5
9DE5
330
FAF
100
AcDbEntity
  8
cotas
100
AcDbLine
 10
-414.0843226022034
 20
1655.623728046665
 30
0.0000000000003573
 11
-94.46695556539996
 21
1655.623728046665
 31
0.0000000000003573
  0
LINE
  5
9DE6
330
FAF
100
AcDbEntity
  8
cotas
100
AcDbLine
 10
-124.4513380019707
 20
1615.609072806074
 30
0.0000000000003573
 11
-94.46695556539998
 21
1615.609072806074
 31
0.0000000000003573
  0
LINE
  5
9DE7
330
FAF
100
AcDbEntity
  8
cotas
100
AcDbLine
 10
-99.46695556539998
 20
1645.623728046664
 30
0.0000000000003573
 11
-99.46695556539999
 21
1625.609072806074
 31
0.0000000000003573
  0
SOLID
  5
9DE8
330
FAF
100
AcDbEntity
  8
cotas
100
AcDbTrace
 10
-101.1336222320666
 20
1645.623728046664
 30
0.0000000000003573
 11
-97.8002888987333
 21
1645.623728046664
 31
0.0000000000003573
 12
-99.46695556539998
 22
1655.623728046665
 32
0.0000000000003573
 13
-99.46695556539998
 23
1655.623728046665
 33
0.0000000000003573
  0
SOLID
  5
9DE9
330
FAF
100
AcDbEntity
  8
cotas
100
AcDbTrace
 10
-101.1336222320666
 20
1625.609072806074
 30
0.0000000000003573
 11
-97.80028889873332
 21
1625.609072806074
 31
0.0000000000003573
 12
-99.46695556539999
 22
1615.609072806074
 32
0.0000000000003573
 13
-99.46695556539999
 23
1615.609072806074
 33
0.0000000000003573
  0
MTEXT
  5
9DEA
330
FAF
100
AcDbEntity
  8
cotas
100
AcDbMText
 10
-109.6717910254405
 20
1635.616400426369
 30
0.0000000000003573
 40
10.0
 41
0.0
 71
     5
 72
     1
  1
40
  7
SANINDUSA
 11
0.0000000000000001
 21
1.0
 31
0.0
 73
     1
 44
1.0
1001
ACAD
1000
MTEXTBEGIN
1070
    73
1070
     1
1070
    44
1040
1.0
1070
    74
1070
     0
1000
MTEXTEND
  0
POINT
  5
9DEB
330
FAF
100
AcDbEntity
  8
Defpoints
 62
     0
100
AcDbPoint
 10
-419.0843226022034
 20
1655.623728046665
 30
0.0000000000003573
  0
POINT
  5
9DEC
330
FAF
100
AcDbEntity
  8
Defpoints
 62
     0
100
AcDbPoint
 10
-129.4513380019707
 20
1615.609072806074
 30
-0.000000000000027
  0
POINT
  5
9DED
330
FAF
100
AcDbEntity
  8
Defpoints
 62
     0
100
AcDbPoint
 10
-99.46695556539999
 20
1615.609072806074
 30
0.0000000000003573
  0
ENDBLK
  5
FBA
330
FAF
100
AcDbEntity
  8
0
100
AcDbBlockEnd
  0
BLOCK
  5
FC5
330
FBB
100
AcDbEntity
  8
0
100
AcDbBlockBegin
  2
*D94
 70
     1
 10
0.0
 20
0.0
 30
0.0
  3
*D94
  1

  0
LINE
  5
9DDC
330
FBB
100
AcDbEntity
  8
cotas
100
AcDbLine
 10
-130.0294875748004
 20
1615.59485751354
 30
-0.0000000000000391
 11
-94.46695556539998
 21
1615.59485751354
 31
-0.0000000000000391
  0
LINE
  5
9DDD
330
FBB
100
AcDbEntity
  8
cotas
100
AcDbLine
 10
-419.6895279036125
 20
1575.572423812109
 30
-0.0000000000000391
 11
-94.46695556539998
 21
1575.572423812109
 31
-0.0000000000000391
  0
LINE
  5
9DDE
330
FBB
100
AcDbEntity
  8
cotas
100
AcDbLine
 10
-99.46695556539999
 20
1605.594857513541
 30
-0.0000000000000391
 11
-99.46695556539999
 21
1585.572423812109
 31
-0.0000000000000391
  0
SOLID
  5
9DDF
330
FBB
100
AcDbEntity
  8
cotas
100
AcDbTrace
 10
-101.1336222320666
 20
1605.594857513541
 30
-0.0000000000000391
 11
-97.80028889873332
 21
1605.594857513541
 31
-0.0000000000000391
 12
-99.46695556539999
 22
1615.59485751354
 32
-0.0000000000000391
 13
-99.46695556539999
 23
1615.59485751354
 33
-0.0000000000000391
  0
SOLID
  5
9DE0
330
FBB
100
AcDbEntity
  8
cotas
100
AcDbTrace
 10
-101.1336222320666
 20
1585.572423812109
 30
-0.0000000000000391
 11
-97.80028889873332
 21
1585.572423812109
 31
-0.0000000000000391
 12
-99.46695556539999
 22
1575.572423812109
 32
-0.0000000000000391
 13
-99.46695556539999
 23
1575.572423812109
 33
-0.0000000000000391
  0
MTEXT
  5
9DE1
330
FBB
100
AcDbEntity
  8
cotas
100
AcDbMText
 10
-109.6717910254405
 20
1595.583640662825
 30
-0.0000000000000391
 40
10.0
 41
0.0
 71
     5
 72
     1
  1
40
  7
SANINDUSA
 11
0.0000000000000001
 21
1.0
 31
0.0
 73
     1
 44
1.0
1001
ACAD
1000
MTEXTBEGIN
1070
    73
1070
     1
1070
    44
1040
1.0
1070
    74
1070
     0
1000
MTEXTEND
  0
POINT
  5
9DE2
330
FBB
100
AcDbEntity
  8
Defpoints
 62
     0
100
AcDbPoint
 10
-135.0294875748004
 20
1615.59485751354
 30
-0.0000000000000391
  0
POINT
  5
9DE3
330
FBB
100
AcDbEntity
  8
Defpoints
 62
     0
100
AcDbPoint
 10
-424.6895279036125
 20
1575.572423812109
 30
-0.0000000000000391
  0
POINT
  5
9DE4
330
FBB
100
AcDbEntity
  8
Defpoints
 62
     0
100
AcDbPoint
 10
-99.46695556539999
 20
1575.572423812109
 30
-0.0000000000000391
  0
ENDBLK
  5
FC6
330
FBB
100
AcDbEntity
  8
0
100
AcDbBlockEnd
  0
BLOCK
  5
FD1
330
FC7
100
AcDbEntity
  8
0
100
AcDbBlockBegin
  2
*D95
 70
     1
 10
0.0
 20
0.0
 30
0.0
  3
*D95
  1

  0
LINE
  5
9DD3
330
FC7
100
AcDbEntity
  8
cotas
100
AcDbLine
 10
-414.0822368642611
 20
1575.59476464231
 30
0.0000000000003573
 11
-94.46695556539998
 21
1575.59476464231
 31
0.0000000000003573
  0
LINE
  5
9DD4
330
FC7
100
AcDbEntity
  8
cotas
100
AcDbLine
 10
-414.0822368642621
 20
1495.609233985449
 30
0.0000000000003573
 11
-94.46695556539999
 21
1495.609233985449
 31
0.0000000000003573
  0
LINE
  5
9DD5
330
FC7
100
AcDbEntity
  8
cotas
100
AcDbLine
 10
-99.46695556539998
 20
1565.59476464231
 30
0.0000000000003573
 11
-99.46695556539998
 21
1505.609233985449
 31
0.0000000000003573
  0
SOLID
  5
9DD6
330
FC7
100
AcDbEntity
  8
cotas
100
AcDbTrace
 10
-101.1336222320666
 20
1565.59476464231
 30
0.0000000000003573
 11
-97.8002888987333
 21
1565.59476464231
 31
0.0000000000003573
 12
-99.46695556539996
 22
1575.59476464231
 32
0.0000000000003573
 13
-99.46695556539996
 23
1575.59476464231
 33
0.0000000000003573
  0
SOLID
  5
9DD7
330
FC7
100
AcDbEntity
  8
cotas
100
AcDbTrace
 10
-101.1336222320666
 20
1505.609233985449
 30
0.0000000000003573
 11
-97.8002888987333
 21
1505.609233985449
 31
0.0000000000003573
 12
-99.46695556539999
 22
1495.609233985449
 32
0.0000000000003573
 13
-99.46695556539999
 23
1495.609233985449
 33
0.0000000000003573
  0
MTEXT
  5
9DD8
330
FC7
100
AcDbEntity
  8
cotas
100
AcDbMText
 10
-109.6952967339697
 20
1535.601999313879
 30
0.0000000000003573
 40
10.0
 41
0.0
 71
     5
 72
     1
  1
80
  7
SANINDUSA
 11
0.0000000000000001
 21
1.0
 31
0.0
 73
     1
 44
1.0
1001
ACAD
1000
MTEXTBEGIN
1070
    73
1070
     1
1070
    44
1040
1.0
1070
    74
1070
     0
1000
MTEXTEND
  0
POINT
  5
9DD9
330
FC7
100
AcDbEntity
  8
Defpoints
 62
     0
100
AcDbPoint
 10
-419.0822368642612
 20
1575.59476464231
 30
0.0000000000003573
  0
POINT
  5
9DDA
330
FC7
100
AcDbEntity
  8
Defpoints
 62
     0
100
AcDbPoint
 10
-419.0822368642621
 20
1495.609233985449
 30
0.0000000000003573
  0
POINT
  5
9DDB
330
FC7
100
AcDbEntity
  8
Defpoints
 62
     0
100
AcDbPoint
 10
-99.46695556539999
 20
1495.609233985449
 30
0.0000000000003573
  0
ENDBLK
  5
FD2
330
FC7
100
AcDbEntity
  8
0
100
AcDbBlockEnd
  0
BLOCK
  5
FDD
330
FD3
100
AcDbEntity
  8
0
100
AcDbBlockBegin
  2
*D96
 70
     1
 10
0.0
 20
0.0
 30
0.0
  3
*D96
  1

  0
LINE
  5
9DCA
330
FD3
100
AcDbEntity
  8
cotas
100
AcDbLine
 10
-414.0822368642621
 20
1495.609233985449
 30
0.0000000000003573
 11
-94.46695556539999
 21
1495.609233985449
 31
0.0000000000003573
  0
LINE
  5
9DCB
330
FD3
100
AcDbEntity
  8
cotas
100
AcDbLine
 10
-405.9421461959
 20
1415.605688622897
 30
0.0000000000003573
 11
-94.46695556540001
 21
1415.605688622897
 31
0.0000000000003573
  0
LINE
  5
9DCC
330
FD3
100
AcDbEntity
  8
cotas
100
AcDbLine
 10
-99.46695556539998
 20
1485.609233985449
 30
0.0000000000003573
 11
-99.46695556539999
 21
1425.605688622897
 31
0.0000000000003573
  0
SOLID
  5
9DCD
330
FD3
100
AcDbEntity
  8
cotas
100
AcDbTrace
 10
-101.1336222320666
 20
1485.609233985449
 30
0.0000000000003573
 11
-97.8002888987333
 21
1485.609233985449
 31
0.0000000000003573
 12
-99.46695556539998
 22
1495.609233985449
 32
0.0000000000003573
 13
-99.46695556539998
 23
1495.609233985449
 33
0.0000000000003573
  0
SOLID
  5
9DCE
330
FD3
100
AcDbEntity
  8
cotas
100
AcDbTrace
 10
-101.1336222320666
 20
1425.605688622897
 30
0.0000000000003573
 11
-97.80028889873332
 21
1425.605688622897
 31
0.0000000000003573
 12
-99.46695556539999
 22
1415.605688622897
 32
0.0000000000003573
 13
-99.46695556539999
 23
1415.605688622897
 33
0.0000000000003573
  0
MTEXT
  5
9DCF
330
FD3
100
AcDbEntity
  8
cotas
100
AcDbMText
 10
-109.6952967339697
 20
1455.607461304173
 30
0.0000000000003573
 40
10.0
 41
0.0
 71
     5
 72
     1
  1
80
  7
SANINDUSA
 11
0.0000000000000001
 21
1.0
 31
0.0
 73
     1
 44
1.0
1001
ACAD
1000
MTEXTBEGIN
1070
    73
1070
     1
1070
    44
1040
1.0
1070
    74
1070
     0
1000
MTEXTEND
  0
POINT
  5
9DD0
330
FD3
100
AcDbEntity
  8
Defpoints
 62
     0
100
AcDbPoint
 10
-419.0822368642621
 20
1495.609233985449
 30
0.0000000000003573
  0
POINT
  5
9DD1
330
FD3
100
AcDbEntity
  8
Defpoints
 62
     0
100
AcDbPoint
 10
-410.9421461959
 20
1415.605688622897
 30
0.0000000000003573
  0
POINT
  5
9DD2
330
FD3
100
AcDbEntity
  8
Defpoints
 62
     0
100
AcDbPoint
 10
-99.46695556539999
 20
1415.605688622897
 30
0.0000000000003573
  0
ENDBLK
  5
FDE
330
FD3
100
AcDbEntity
  8
0
100
AcDbBlockEnd
  0
BLOCK
  5
FE9
330
FDF
100
AcDbEntity
  8
0
100
AcDbBlockBegin
  2
*D97
 70
     1
 10
0.0
 20
0.0
 30
0.0
  3
*D97
  1

  0
LINE
  5
9DC1
330
FDF
100
AcDbEntity
  8
cotas
100
AcDbLine
 10
-413.9940519503061
 20
1415.609935462378
 30
0.0000000000003573
 11
-94.46695556539996
 21
1415.609935462378
 31
0.0000000000003573
  0
LINE
  5
9DC2
330
FDF
100
AcDbEntity
  8
cotas
100
AcDbLine
 10
-405.9820512144515
 20
1335.604627182586
 30
0.0000000000003573
 11
-94.46695556539998
 21
1335.604627182586
 31
0.0000000000003573
  0
LINE
  5
9DC3
330
FDF
100
AcDbEntity
  8
cotas
100
AcDbLine
 10
-99.46695556539998
 20
1405.609935462378
 30
0.0000000000003573
 11
-99.46695556539999
 21
1345.604627182586
 31
0.0000000000003573
  0
SOLID
  5
9DC4
330
FDF
100
AcDbEntity
  8
cotas
100
AcDbTrace
 10
-101.1336222320666
 20
1405.609935462378
 30
0.0000000000003573
 11
-97.8002888987333
 21
1405.609935462378
 31
0.0000000000003573
 12
-99.46695556539998
 22
1415.609935462378
 32
0.0000000000003573
 13
-99.46695556539998
 23
1415.609935462378
 33
0.0000000000003573
  0
SOLID
  5
9DC5
330
FDF
100
AcDbEntity
  8
cotas
100
AcDbTrace
 10
-101.1336222320666
 20
1345.604627182586
 30
0.0000000000003573
 11
-97.80028889873332
 21
1345.604627182586
 31
0.0000000000003573
 12
-99.46695556539999
 22
1335.604627182586
 32
0.0000000000003573
 13
-99.46695556539999
 23
1335.604627182586
 33
0.0000000000003573
  0
MTEXT
  5
9DC6
330
FDF
100
AcDbEntity
  8
cotas
100
AcDbMText
 10
-109.6952967339697
 20
1375.607281322482
 30
0.0000000000003573
 40
10.0
 41
0.0
 71
     5
 72
     1
  1
80
  7
SANINDUSA
 11
0.0000000000000001
 21
1.0
 31
0.0
 73
     1
 44
1.0
1001
ACAD
1000
MTEXTBEGIN
1070
    73
1070
     1
1070
    44
1040
1.0
1070
    74
1070
     0
1000
MTEXTEND
  0
POINT
  5
9DC7
330
FDF
100
AcDbEntity
  8
Defpoints
 62
     0
100
AcDbPoint
 10
-418.9940519503061
 20
1415.609935462378
 30
0.0000000000003573
  0
POINT
  5
9DC8
330
FDF
100
AcDbEntity
  8
Defpoints
 62
     0
100
AcDbPoint
 10
-410.9820512144515
 20
1335.604627182586
 30
0.0000000000003573
  0
POINT
  5
9DC9
330
FDF
100
AcDbEntity
  8
Defpoints
 62
     0
100
AcDbPoint
 10
-99.46695556539999
 20
1335.604627182586
 30
0.0000000000003573
  0
ENDBLK
  5
FEA
330
FDF
100
AcDbEntity
  8
0
100
AcDbBlockEnd
  0
BLOCK
  5
FF5
330
FEB
100
AcDbEntity
  8
0
100
AcDbBlockBegin
  2
*D98
 70
     1
 10
0.0
 20
0.0
 30
0.0
  3
*D98
  1

  0
LINE
  5
9DB8
330
FEB
100
AcDbEntity
  8
cotas
100
AcDbLine
 10
-414.0339569688576
 20
1335.608874022067
 30
0.0000000000003573
 11
-94.46766337198004
 21
1335.608874022067
 31
0.0000000000003573
  0
LINE
  5
9DB9
330
FEB
100
AcDbEntity
  8
cotas
100
AcDbLine
 10
-129.5422607543951
 20
1165.617198343743
 30
0.0000000000003573
 11
-94.46766337198004
 21
1165.617198343743
 31
0.0000000000003573
  0
LINE
  5
9DBA
330
FEB
100
AcDbEntity
  8
cotas
100
AcDbLine
 10
-99.46766337198001
 20
1325.608874022067
 30
0.0000000000003573
 11
-99.46766337198006
 21
1175.617198343743
 31
0.0000000000003573
  0
SOLID
  5
9DBB
330
FEB
100
AcDbEntity
  8
cotas
100
AcDbTrace
 10
-101.1343300386467
 20
1325.608874022067
 30
0.0000000000003573
 11
-97.80099670531335
 21
1325.608874022067
 31
0.0000000000003573
 12
-99.46766337198001
 22
1335.608874022067
 32
0.0000000000003573
 13
-99.46766337198001
 23
1335.608874022067
 33
0.0000000000003573
  0
SOLID
  5
9DBC
330
FEB
100
AcDbEntity
  8
cotas
100
AcDbTrace
 10
-101.1343300386467
 20
1175.617198343743
 30
0.0000000000003573
 11
-97.80099670531338
 21
1175.617198343743
 31
0.0000000000003573
 12
-99.46766337198006
 22
1165.617198343743
 32
0.0000000000003573
 13
-99.46766337198006
 23
1165.617198343743
 33
0.0000000000003573
  0
MTEXT
  5
9DBD
330
FEB
100
AcDbEntity
  8
cotas
100
AcDbMText
 10
-109.6724988320205
 20
1250.613036182905
 30
0.0000000000003573
 40
10.0
 41
0.0
 71
     5
 72
     1
  1
170
  7
SANINDUSA
 11
0.0000000000000001
 21
1.0
 31
0.0
 73
     1
 44
1.0
1001
ACAD
1000
MTEXTBEGIN
1070
    73
1070
     1
1070
    44
1040
1.0
1070
    74
1070
     0
1000
MTEXTEND
  0
POINT
  5
9DBE
330
FEB
100
AcDbEntity
  8
Defpoints
 62
     0
100
AcDbPoint
 10
-419.0339569688576
 20
1335.608874022067
 30
0.0000000000003573
  0
POINT
  5
9DBF
330
FEB
100
AcDbEntity
  8
Defpoints
 62
     0
100
AcDbPoint
 10
-134.5422607543951
 20
1165.617198343743
 30
0.0000000000003573
  0
POINT
  5
9DC0
330
FEB
100
AcDbEntity
  8
Defpoints
 62
     0
100
AcDbPoint
 10
-99.46766337198006
 20
1165.617198343743
 30
0.0000000000003573
  0
ENDBLK
  5
FF6
330
FEB
100
AcDbEntity
  8
0
100
AcDbBlockEnd
  0
BLOCK
  5
1001
330
FF7
100
AcDbEntity
  8
0
100
AcDbBlockBegin
  2
*D99
 70
     1
 10
0.0
 20
0.0
 30
0.0
  3
*D99
  1

  0
LINE
  5
9DAF
330
FF7
100
AcDbEntity
  8
cotas
100
AcDbLine
 10
-414.0384643570205
 20
1895.617375184088
 30
0.0000000000003573
 11
-94.48717643891544
 21
1895.617375184088
 31
0.0000000000003573
  0
LINE
  5
9DB0
330
FF7
100
AcDbEntity
  8
cotas
100
AcDbLine
 10
-130.185444126183
 20
2065.629941551907
 30
0.0000000000003573
 11
-94.48717643891541
 21
2065.629941551907
 31
0.0000000000003573
  0
LINE
  5
9DB1
330
FF7
100
AcDbEntity
  8
cotas
100
AcDbLine
 10
-99.48717643891544
 20
1905.617375184089
 30
0.0000000000003573
 11
-99.48717643891541
 21
2055.629941551907
 31
0.0000000000003573
  0
SOLID
  5
9DB2
330
FF7
100
AcDbEntity
  8
cotas
100
AcDbTrace
 10
-101.1538431055821
 20
1905.617375184089
 30
0.0000000000003573
 11
-97.82050977224876
 21
1905.617375184089
 31
0.0000000000003573
 12
-99.48717643891544
 22
1895.617375184088
 32
0.0000000000003573
 13
-99.48717643891544
 23
1895.617375184088
 33
0.0000000000003573
  0
SOLID
  5
9DB3
330
FF7
100
AcDbEntity
  8
cotas
100
AcDbTrace
 10
-101.1538431055821
 20
2055.629941551907
 30
0.0000000000003573
 11
-97.82050977224875
 21
2055.629941551907
 31
0.0000000000003573
 12
-99.48717643891541
 22
2065.629941551907
 32
0.0000000000003573
 13
-99.48717643891541
 23
2065.629941551907
 33
0.0000000000003573
  0
MTEXT
  5
9DB4
330
FF7
100
AcDbEntity
  8
cotas
100
AcDbMText
 10
-109.692011898956
 20
1980.623658367998
 30
0.0000000000003573
 40
10.0
 41
0.0
 71
     5
 72
     1
  1
170
  7
SANINDUSA
 11
0.0000000000000001
 21
1.0
 31
0.0
 73
     1
 44
1.0
1001
ACAD
1000
MTEXTBEGIN
1070
    73
1070
     1
1070
    44
1040
1.0
1070
    74
1070
     0
1000
MTEXTEND
  0
POINT
  5
9DB5
330
FF7
100
AcDbEntity
  8
Defpoints
 62
     0
100
AcDbPoint
 10
-419.0384643570205
 20
1895.617375184088
 30
0.0000000000003573
  0
POINT
  5
9DB6
330
FF7
100
AcDbEntity
  8
Defpoints
 62
     0
100
AcDbPoint
 10
-135.185444126183
 20
2065.629941551907
 30
0.0000000000001652
  0
POINT
  5
9DB7
330
FF7
100
AcDbEntity
  8
Defpoints
 62
     0
100
AcDbPoint
 10
-99.48717643891541
 20
2065.629941551907
 30
0.0000000000003573
  0
ENDBLK
  5
1002
330
FF7
100
AcDbEntity
  8
0
100
AcDbBlockEnd
  0
BLOCK
  5
100D
330
1003
100
AcDbEntity
  8
0
100
AcDbBlockBegin
  2
*D100
 70
     1
 10
0.0
 20
0.0
 30
0.0
  3
*D100
  1

  0
LINE
  5
9DA6
330
1003
100
AcDbEntity
  8
cotas
100
AcDbLine
 10
-1830.847743196216
 20
2066.308036927416
 30
-0.0000000000000379
 11
-1830.847743196216
 21
2101.308121532358
 31
-0.0000000000000379
  0
LINE
  5
9DA7
330
1003
100
AcDbEntity
  8
cotas
100
AcDbLine
 10
-1458.488858044446
 20
2071.307275403193
 30
-0.0000000000000379
 11
-1458.488858044446
 21
2101.308121532358
 31
-0.0000000000000379
  0
LINE
  5
9DA8
330
1003
100
AcDbEntity
  8
cotas
100
AcDbLine
 10
-1820.847743196216
 20
2096.308121532358
 30
-0.0000000000000379
 11
-1468.488858044446
 21
2096.308121532358
 31
-0.0000000000000379
  0
SOLID
  5
9DA9
330
1003
100
AcDbEntity
  8
cotas
100
AcDbTrace
 10
-1820.847743196216
 20
2097.974788199024
 30
-0.0000000000000379
 11
-1820.847743196216
 21
2094.641454865692
 31
-0.0000000000000379
 12
-1830.847743196216
 22
2096.308121532358
 32
-0.0000000000000379
 13
-1830.847743196216
 23
2096.308121532358
 33
-0.0000000000000379
  0
SOLID
  5
9DAA
330
1003
100
AcDbEntity
  8
cotas
100
AcDbTrace
 10
-1468.488858044446
 20
2097.974788199024
 30
-0.0000000000000379
 11
-1468.488858044446
 21
2094.641454865692
 31
-0.0000000000000379
 12
-1458.488858044446
 22
2096.308121532358
 32
-0.0000000000000379
 13
-1458.488858044446
 23
2096.308121532358
 33
-0.0000000000000379
  0
MTEXT
  5
9DAB
330
1003
100
AcDbEntity
  8
cotas
100
AcDbMText
 10
-1644.668300620331
 20
2107.654662835246
 30
-0.0000000000000379
 40
10.0
 41
0.0
 71
     5
 72
     1
  1
372,4
  7
SANINDUSA
 73
     1
 44
1.0
1001
ACAD
1000
MTEXTBEGIN
1070
    73
1070
     1
1070
    44
1040
1.0
1070
    74
1070
     0
1000
MTEXTEND
  0
POINT
  5
9DAC
330
1003
100
AcDbEntity
  8
Defpoints
 62
     0
100
AcDbPoint
 10
-1830.847743196216
 20
2061.308036927417
 30
-0.000000000000027
  0
POINT
  5
9DAD
330
1003
100
AcDbEntity
  8
Defpoints
 62
     0
100
AcDbPoint
 10
-1458.488858044446
 20
2066.307275403193
 30
-0.000000000000027
  0
POINT
  5
9DAE
330
1003
100
AcDbEntity
  8
Defpoints
 62
     0
100
AcDbPoint
 10
-1458.488858044446
 20
2096.308121532358
 30
-0.0000000000000379
  0
ENDBLK
  5
100E
330
1003
100
AcDbEntity
  8
0
100
AcDbBlockEnd
  0
BLOCK
  5
1016
330
100F
100
AcDbEntity
  8
0
100
AcDbBlockBegin
  2
*D101
 70
     1
 10
0.0
 20
0.0
 30
0.0
  3
*D101
  1

  0
LINE
  5
9DA0
330
100F
100
AcDbEntity
  8
cotas
100
AcDbLine
 10
-1791.568185658715
 20
1201.742906876028
 30
-0.0000000000000379
 11
-1760.63017670433
 21
1234.147352472168
 31
-0.0000000000000379
  0
MTEXT
  5
9DA1
330
100F
100
AcDbEntity
  8
cotas
100
AcDbMText
 10
-1786.935353415472
 20
1221.377997889409
 30
-0.0000000000000379
 40
10.0
 41
0.0
 71
     5
 72
     1
  1
R20
  7
SANINDUSA
 11
0.6905515714747361
 21
0.7232831583368804
 31
0.0
 73
     1
 44
1.0
1001
ACAD
1000
MTEXTBEGIN
1070
    73
1070
     1
1070
    44
1040
1.0
1070
    74
1070
     0
1000
MTEXTEND
  0
LINE
  5
9DA2
330
100F
100
AcDbEntity
  8
cotas
100
AcDbLine
 10
-1739.913629560089
 20
1255.845847222274
 30
-0.0000000000000379
 11
-1753.724660989583
 21
1241.380184055537
 31
-0.0000000000000379
  0
SOLID
  5
9DA3
330
100F
100
AcDbEntity
  8
cotas
100
AcDbTrace
 10
-1761.835648634891
 20
1235.298271757959
 30
-0.0000000000000379
 11
-1759.424704773769
 21
1232.996433186377
 31
-0.0000000000000379
 12
-1753.724660989583
 22
1241.380184055537
 32
-0.0000000000000379
 13
-1753.724660989583
 23
1241.380184055537
 33
-0.0000000000000379
  0
POINT
  5
9DA4
330
100F
100
AcDbEntity
  8
Defpoints
 62
     0
100
AcDbPoint
 10
-1753.724660989583
 20
1241.380184055537
 30
-0.0000000000000379
  0
POINT
  5
9DA5
330
100F
100
AcDbEntity
  8
Defpoints
 62
     0
100
AcDbPoint
 10
-1739.913629560089
 20
1255.845847222274
 30
-0.0000000000000379
  0
ENDBLK
  5
1017
330
100F
100
AcDbEntity
  8
0
100
AcDbBlockEnd
  0
BLOCK
  5
101E
330
1018
100
AcDbEntity
  8
0
100
AcDbBlockBegin
  2
*D102
 70
     1
 10
0.0
 20
0.0
 30
0.0
  3
*D102
  1

  0
LINE
  5
9D9B
330
1018
100
AcDbEntity
  8
cotas
100
AcDbLine
 10
-1685.492224555566
 20
1313.308176664744
 30
-0.0000000000000379
 11
-1717.994939948923
 21
1282.473423795404
 31
-0.0000000000000379
  0
MTEXT
  5
9D9C
330
1018
100
AcDbEntity
  8
cotas
100
AcDbMText
 10
-1705.139645117573
 20
1308.735403670552
 30
-0.0000000000000379
 40
10.0
 41
0.0
 71
     5
 72
     1
  1
R10
  7
SANINDUSA
 11
0.7254765885280827
 21
0.6882468448875413
 31
0.0
 73
     1
 44
1.0
1001
ACAD
1000
MTEXTBEGIN
1070
    73
1070
     1
1070
    44
1040
1.0
1070
    74
1070
     0
1000
MTEXTEND
  0
SOLID
  5
9D9D
330
1018
100
AcDbEntity
  8
cotas
100
AcDbTrace
 10
-1719.142018023735
 20
1283.682551442951
 30
-0.0000000000000379
 11
-1716.84786187411
 21
1281.264296147857
 31
-0.0000000000000379
 12
-1725.249705834204
 22
1275.590955346528
 32
-0.0000000000000379
 13
-1725.249705834204
 23
1275.590955346528
 33
-0.0000000000000379
  0
POINT
  5
9D9E
330
1018
100
AcDbEntity
  8
Defpoints
 62
     0
100
AcDbPoint
 10
-1725.249705834204
 20
1275.590955346528
 30
-0.0000000000000379
  0
POINT
  5
9D9F
330
1018
100
AcDbEntity
  8
Defpoints
 62
     0
100
AcDbPoint
 10
-1717.994939948931
 20
1282.473423795396
 30
-0.0000000000000379
  0
ENDBLK
  5
101F
330
1018
100
AcDbEntity
  8
0
100
AcDbBlockEnd
  0
BLOCK
  5
1026
330
1020
100
AcDbEntity
  8
0
100
AcDbBlockBegin
  2
*D103
 70
     1
 10
0.0
 20
0.0
 30
0.0
  3
*D103
  1

  0
LINE
  5
9D96
330
1020
100
AcDbEntity
  8
cotas
100
AcDbLine
 10
-1310.121787279106
 20
1311.304998993434
 30
-0.0000000000000379
 11
-1275.206211589946
 21
1283.231683073337
 31
-0.0000000000000379
  0
MTEXT
  5
9D97
330
1020
100
AcDbEntity
  8
cotas
100
AcDbMText
 10
-1290.16620938206
 20
1308.354355268462
 30
-0.0000000000000379
 40
10.0
 41
0.0
 71
     5
 72
     1
  1
R10
  7
SANINDUSA
 11
0.7793328166865147
 21
-0.6266102144359469
 31
0.0
 73
     1
 44
1.0
1001
ACAD
1000
MTEXTBEGIN
1070
    73
1070
     1
1070
    44
1040
1.0
1070
    74
1070
     0
1000
MTEXTEND
  0
SOLID
  5
9D98
330
1020
100
AcDbEntity
  8
cotas
100
AcDbTrace
 10
-1274.161861232552
 20
1284.530571101148
 30
-0.0000000000000379
 11
-1276.250561947339
 21
1281.932795045526
 31
-0.0000000000000379
 12
-1267.41288342308
 22
1276.965580928977
 32
-0.0000000000000379
 13
-1267.41288342308
 23
1276.965580928977
 33
-0.0000000000000379
  0
POINT
  5
9D99
330
1020
100
AcDbEntity
  8
Defpoints
 62
     0
100
AcDbPoint
 10
-1267.41288342308
 20
1276.965580928977
 30
-0.0000000000000379
  0
POINT
  5
9D9A
330
1020
100
AcDbEntity
  8
Defpoints
 62
     0
100
AcDbPoint
 10
-1275.206211589945
 20
1283.231683073337
 30
-0.0000000000000379
  0
ENDBLK
  5
1027
330
1020
100
AcDbEntity
  8
0
100
AcDbBlockEnd
  0
BLOCK
  5
102F
330
1028
100
AcDbEntity
  8
0
100
AcDbBlockBegin
  2
*D104
 70
     1
 10
0.0
 20
0.0
 30
0.0
  3
*D104
  1

  0
LINE
  5
9D90
330
1028
100
AcDbEntity
  8
cotas
100
AcDbLine
 10
-1793.193490528843
 20
2027.90152170706
 30
-0.0000000000000379
 11
-1761.282020711261
 21
1996.455272542232
 31
-0.0000000000000379
  0
MTEXT
  5
9D91
330
1028
100
AcDbEntity
  8
cotas
100
AcDbMText
 10
-1773.634066600213
 20
2022.958964749581
 30
-0.0000000000000379
 40
10.0
 41
0.0
 71
     5
 72
     1
  1
R20
  7
SANINDUSA
 11
0.7122796965729237
 21
-0.7018957428635565
 31
0.0
 73
     1
 44
1.0
1001
ACAD
1000
MTEXTBEGIN
1070
    73
1070
     1
1070
    44
1040
1.0
1070
    74
1070
     0
1000
MTEXTEND
  0
LINE
  5
9D92
330
1028
100
AcDbEntity
  8
cotas
100
AcDbLine
 10
-1739.913629814073
 20
1975.398400256325
 30
-0.0000000000000379
 11
-1754.159223745532
 21
1989.436315113596
 31
-0.0000000000000379
  0
SOLID
  5
9D93
330
1028
100
AcDbEntity
  8
cotas
100
AcDbTrace
 10
-1760.112194473155
 20
1997.642405369854
 30
-0.0000000000000379
 11
-1762.451846949367
 21
1995.26813971461
 31
-0.0000000000000379
 12
-1754.159223745532
 22
1989.436315113596
 32
-0.0000000000000379
 13
-1754.159223745532
 23
1989.436315113596
 33
-0.0000000000000379
  0
POINT
  5
9D94
330
1028
100
AcDbEntity
  8
Defpoints
 62
     0
100
AcDbPoint
 10
-1754.159223745532
 20
1989.436315113596
 30
-0.0000000000000379
  0
POINT
  5
9D95
330
1028
100
AcDbEntity
  8
Defpoints
 62
     0
100
AcDbPoint
 10
-1739.913629814073
 20
1975.398400256325
 30
-0.0000000000000379
  0
ENDBLK
  5
1030
330
1028
100
AcDbEntity
  8
0
100
AcDbBlockEnd
  0
BLOCK
  5
1037
330
1031
100
AcDbEntity
  8
0
100
AcDbBlockBegin
  2
*D105
 70
     1
 10
0.0
 20
0.0
 30
0.0
  3
*D105
  1

  0
LINE
  5
9D8B
330
1031
100
AcDbEntity
  8
cotas
100
AcDbLine
 10
-1688.825175125213
 20
1914.74135297984
 30
-0.0000000000000379
 11
-1717.994728602183
 21
1948.746435576556
 31
-0.0000000000000379
  0
MTEXT
  5
9D8C
330
1031
100
AcDbEntity
  8
cotas
100
AcDbMText
 10
-1692.40898415731
 20
1934.592995239821
 30
-0.0000000000000379
 40
10.0
 41
0.0
 71
     5
 72
     1
  1
R10
  7
SANINDUSA
 11
0.6510787757038397
 21
-0.7590101631915012
 31
0.0
 73
     1
 44
1.0
1001
ACAD
1000
MTEXTBEGIN
1070
    73
1070
     1
1070
    44
1040
1.0
1070
    74
1070
     0
1000
MTEXTEND
  0
SOLID
  5
9D8D
330
1031
100
AcDbEntity
  8
cotas
100
AcDbTrace
 10
-1716.72971166353
 20
1949.831566869396
 30
-0.0000000000000379
 11
-1719.259745540835
 21
1947.661304283716
 31
-0.0000000000000379
 12
-1724.505516359221
 22
1956.336537208471
 32
-0.0000000000000379
 13
-1724.505516359221
 23
1956.336537208471
 33
-0.0000000000000379
  0
POINT
  5
9D8E
330
1031
100
AcDbEntity
  8
Defpoints
 62
     0
100
AcDbPoint
 10
-1724.505516359221
 20
1956.336537208471
 30
-0.0000000000000379
  0
POINT
  5
9D8F
330
1031
100
AcDbEntity
  8
Defpoints
 62
     0
100
AcDbPoint
 10
-1717.994728602181
 20
1948.746435576555
 30
-0.0000000000000379
  0
ENDBLK
  5
1038
330
1031
100
AcDbEntity
  8
0
100
AcDbBlockEnd
  0
BLOCK
  5
1040
330
1039
100
AcDbEntity
  8
0
100
AcDbBlockBegin
  2
*D106
 70
     1
 10
0.0
 20
0.0
 30
0.0
  3
*D106
  1

  0
LINE
  5
9D85
330
1039
100
AcDbEntity
  8
cotas
100
AcDbLine
 10
-169.6507028552605
 20
1200.321309698006
 30
0.0000000000003573
 11
-199.6667702499753
 21
1233.58155910493
 31
0.0000000000003573
  0
MTEXT
  5
9D86
330
1039
100
AcDbEntity
  8
cotas
100
AcDbMText
 10
-173.7304587421112
 20
1220.078726674967
 30
0.0000000000003573
 40
10.0
 41
0.0
 71
     5
 72
     1
  1
R20
  7
SANINDUSA
 11
0.6699733825622883
 21
-0.7423851201755367
 31
0.0
 73
     1
 44
1.0
1001
ACAD
1000
MTEXTBEGIN
1070
    73
1070
     1
1070
    44
1040
1.0
1070
    74
1070
     0
1000
MTEXTEND
  0
LINE
  5
9D87
330
1039
100
AcDbEntity
  8
cotas
100
AcDbLine
 10
-219.7659717268407
 20
1255.853112710193
 30
0.0000000000003573
 11
-206.3665040755982
 21
1241.005410306686
 31
0.0000000000003573
  0
SOLID
  5
9D88
330
1039
100
AcDbEntity
  8
cotas
100
AcDbTrace
 10
-198.4294617163494
 20
1234.698181409201
 30
0.0000000000003573
 11
-200.9040787836012
 21
1232.46493680066
 31
0.0000000000003573
 12
-206.3665040755982
 22
1241.005410306686
 32
0.0000000000003573
 13
-206.3665040755982
 23
1241.005410306686
 33
0.0000000000003573
  0
POINT
  5
9D89
330
1039
100
AcDbEntity
  8
Defpoints
 62
     0
100
AcDbPoint
 10
-206.3665040755982
 20
1241.005410306686
 30
0.0000000000003573
  0
POINT
  5
9D8A
330
1039
100
AcDbEntity
  8
Defpoints
 62
     0
100
AcDbPoint
 10
-219.7659717268407
 20
1255.853112710193
 30
0.0000000000003573
  0
ENDBLK
  5
1041
330
1039
100
AcDbEntity
  8
0
100
AcDbBlockEnd
  0
BLOCK
  5
1049
330
1042
100
AcDbEntity
  8
0
100
AcDbBlockBegin
  2
*D107
 70
     1
 10
0.0
 20
0.0
 30
0.0
  3
*D107
  1

  0
LINE
  5
9D7F
330
1042
100
AcDbEntity
  8
cotas
100
AcDbLine
 10
-166.3451182520184
 20
2027.752890059042
 30
0.0000000000003573
 11
-198.3483292943012
 21
1996.400011795029
 31
0.0000000000003573
  0
MTEXT
  5
9D80
330
1042
100
AcDbEntity
  8
cotas
100
AcDbMText
 10
-185.9188995099787
 20
2022.86750154191
 30
0.0000000000003573
 40
10.0
 41
0.0
 71
     5
 72
     1
  1
R20
  7
SANINDUSA
 11
0.7143274058156099
 21
0.6998116584487151
 31
0.0
 73
     1
 44
1.0
1001
ACAD
1000
MTEXTBEGIN
1070
    73
1070
     1
1070
    44
1040
1.0
1070
    74
1070
     0
1000
MTEXTEND
  0
LINE
  5
9D81
330
1042
100
AcDbEntity
  8
cotas
100
AcDbLine
 10
-219.7781514687721
 20
1975.405662041566
 30
0.0000000000003573
 11
-205.4916033524575
 21
1989.401895210542
 31
0.0000000000003573
  0
SOLID
  5
9D82
330
1042
100
AcDbEntity
  8
cotas
100
AcDbTrace
 10
-199.5146820583825
 20
1997.590557471388
 30
0.0000000000003573
 11
-197.18197653022
 21
1995.20946611867
 31
0.0000000000003573
 12
-205.4916033524575
 22
1989.401895210542
 32
0.0000000000003573
 13
-205.4916033524575
 23
1989.401895210542
 33
0.0000000000003573
  0
POINT
  5
9D83
330
1042
100
AcDbEntity
  8
Defpoints
 62
     0
100
AcDbPoint
 10
-205.4916033524575
 20
1989.401895210542
 30
0.0000000000003573
  0
POINT
  5
9D84
330
1042
100
AcDbEntity
  8
Defpoints
 62
     0
100
AcDbPoint
 10
-219.7781514687721
 20
1975.405662041566
 30
0.0000000000003573
  0
ENDBLK
  5
104A
330
1042
100
AcDbEntity
  8
0
100
AcDbBlockEnd
  0
BLOCK
  5
1052
330
104B
100
AcDbEntity
  8
0
100
AcDbBlockBegin
  2
*D108
 70
     1
 10
0.0
 20
0.0
 30
0.0
  3
*D108
  1

  0
LINE
  5
9D79
330
104B
100
AcDbEntity
  8
cotas
100
AcDbLine
 10
-104.6743733484585
 20
1129.775130140134
 30
0.0000000000001652
 11
-126.2099450702674
 21
1158.611604865941
 31
0.0000000000001652
  0
MTEXT
  5
9D7A
330
104B
100
AcDbEntity
  8
cotas
100
AcDbMText
 10
-104.354697113475
 20
1146.233209306005
 30
0.0000000000001652
 40
10.0
 41
0.0
 71
     5
 72
     1
  1
R5
  7
SANINDUSA
 11
0.5983666037278108
 21
-0.8012224457310498
 31
0.0
 73
     1
 44
1.0
1001
ACAD
1000
MTEXTBEGIN
1070
    73
1070
     1
1070
    44
1040
1.0
1070
    74
1070
     0
1000
MTEXTEND
  0
LINE
  5
9D7B
330
104B
100
AcDbEntity
  8
cotas
100
AcDbLine
 10
-135.1854441261849
 20
1170.629941551908
 30
0.0000000000001652
 11
-132.1936111075455
 21
1166.623829323252
 31
0.0000000000001652
  0
SOLID
  5
9D7C
330
104B
100
AcDbEntity
  8
cotas
100
AcDbTrace
 10
-124.8745743273824
 20
1159.608882538821
 30
0.0000000000001652
 11
-127.5453158131525
 21
1157.614327193062
 31
0.0000000000001652
 12
-132.1936111075455
 22
1166.623829323252
 32
0.0000000000001652
 13
-132.1936111075455
 23
1166.623829323252
 33
0.0000000000001652
  0
POINT
  5
9D7D
330
104B
100
AcDbEntity
  8
Defpoints
 62
     0
100
AcDbPoint
 10
-132.1936111075455
 20
1166.623829323252
 30
0.0000000000001652
  0
POINT
  5
9D7E
330
104B
100
AcDbEntity
  8
Defpoints
 62
     0
100
AcDbPoint
 10
-135.1854441261849
 20
1170.629941551908
 30
0.0000000000001652
  0
ENDBLK
  5
1053
330
104B
100
AcDbEntity
  8
0
100
AcDbBlockEnd
  0
BLOCK
  5
105D
330
1054
100
AcDbEntity
  8
0
100
AcDbBlockBegin
  2
*D109
 70
     1
 10
0.0
 20
0.0
 30
0.0
  3
*D109
  1

  0
LINE
  5
9D6B
330
1054
100
AcDbEntity
  8
cotas
100
AcDbLine
 10
-418.344504241784
 20
1703.672615551109
 30
0.0000000000000691
 11
-375.3286560058532
 21
1668.655507657259
 31
0.0000000000000691
  0
LINE
  5
9D6C
330
1054
100
AcDbEntity
  8
cotas
100
AcDbLine
 10
-245.063246642759
 20
1562.612779649542
 30
0.0000000000000691
 11
-237.3079980626282
 21
1556.299609331835
 31
0.0000000000000691
  0
MTEXT
  5
9D6D
330
1054
100
AcDbEntity
  8
cotas
100
AcDbMText
 10
-393.8328911663095
 20
1697.773815631777
 30
0.0000000000000691
 40
10.0
 41
0.0
 71
     5
 72
     1
  1
\U+2205148
  7
SANINDUSA
 11
0.7755248580130877
 21
-0.6313170317707105
 31
0.0
 73
     1
 44
1.0
1001
ACAD
1000
MTEXTBEGIN
1070
    73
1070
     1
1070
    44
1040
1.0
1070
    74
1070
     0
1000
MTEXTEND
  0
LINE
  5
9D6E
330
1054
100
AcDbEntity
  8
cotas
100
AcDbLine
 10
-252.81849522289
 20
1568.925949967249
 30
0.0000000000000691
 11
-367.5734074257225
 21
1662.342337339552
 31
0.0000000000000691
  0
SOLID
  5
9D6F
330
1054
100
AcDbEntity
  8
cotas
100
AcDbTrace
 10
-244.0110515898078
 20
1563.905321079564
 30
0.0000000000000691
 11
-246.1154416957104
 21
1561.32023821952
 31
0.0000000000000691
 12
-252.81849522289
 22
1568.925949967249
 32
0.0000000000000691
 13
-252.81849522289
 23
1568.925949967249
 33
0.0000000000000691
  0
SOLID
  5
9D70
330
1054
100
AcDbEntity
  8
cotas
100
AcDbTrace
 10
-374.276460952902
 20
1669.948049087281
 30
0.0000000000000691
 11
-376.3808510588045
 21
1667.362966227237
 31
0.0000000000000691
 12
-367.5734074257225
 22
1662.342337339552
 32
0.0000000000000691
 13
-367.5734074257225
 23
1662.342337339552
 33
0.0000000000000691
  0
POINT
  5
9D71
330
1054
100
AcDbEntity
  8
Defpoints
 62
     0
100
AcDbPoint
 10
-367.5734074257225
 20
1662.342337339552
 30
0.0000000000000691
  0
POINT
  5
9D72
330
1054
100
AcDbEntity
  8
Defpoints
 62
     0
100
AcDbPoint
 10
-252.81849522289
 20
1568.925949967249
 30
0.0000000000000691
  0
ENDBLK
  5
105E
330
1054
100
AcDbEntity
  8
0
100
AcDbBlockEnd
  0
BLOCK
  5
1069
330
105F
100
AcDbEntity
  8
0
100
AcDbBlockBegin
  2
*D110
 70
     1
 10
0.0
 20
0.0
 30
0.0
  3
*D110
  1

  0
LINE
  5
9F44
330
105F
100
AcDbEntity
  8
cotas
100
AcDbLine
 10
166.9930140614606
 20
1703.211515483333
 30
0.0
 11
166.9930140614606
 21
1733.211515483333
 31
0.0
  0
LINE
  5
9F45
330
105F
100
AcDbEntity
  8
cotas
100
AcDbLine
 10
1066.993017719275
 20
1703.211515483333
 30
0.0
 11
1066.993017719275
 21
1733.211515483333
 31
0.0
  0
LINE
  5
9F46
330
105F
100
AcDbEntity
  8
cotas
100
AcDbLine
 10
176.9930140614606
 20
1728.211515483333
 30
0.0
 11
1056.993017719274
 21
1728.211515483333
 31
0.0
  0
SOLID
  5
9F47
330
105F
100
AcDbEntity
  8
cotas
100
AcDbTrace
 10
176.9930140614606
 20
1729.87818215
 30
0.0
 11
176.9930140614606
 21
1726.544848816666
 31
0.0
 12
166.9930140614606
 22
1728.211515483333
 32
0.0
 13
166.9930140614606
 23
1728.211515483333
 33
0.0
  0
SOLID
  5
9F48
330
105F
100
AcDbEntity
  8
cotas
100
AcDbTrace
 10
1056.993017719274
 20
1729.87818215
 30
0.0
 11
1056.993017719274
 21
1726.544848816666
 31
0.0
 12
1066.993017719275
 22
1728.211515483333
 32
0.0
 13
1066.993017719275
 23
1728.211515483333
 33
0.0
  0
MTEXT
  5
9F49
330
105F
100
AcDbEntity
  8
cotas
100
AcDbMText
 10
616.9930158903675
 20
1738.416350943374
 30
0.0
 40
10.0
 41
0.0
 71
     5
 72
     1
  1
900
  7
SANINDUSA
 73
     1
 44
1.0
1001
ACAD
1000
MTEXTBEGIN
1070
    73
1070
     1
1070
    44
1040
1.0
1070
    74
1070
     0
1000
MTEXTEND
  0
POINT
  5
9F4A
330
105F
100
AcDbEntity
  8
Defpoints
 62
     0
100
AcDbPoint
 10
166.9930140614606
 20
1698.211515483333
 30
0.0
  0
POINT
  5
9F4B
330
105F
100
AcDbEntity
  8
Defpoints
 62
     0
100
AcDbPoint
 10
1066.993017719275
 20
1698.211515483333
 30
0.0
  0
POINT
  5
9F4C
330
105F
100
AcDbEntity
  8
Defpoints
 62
     0
100
AcDbPoint
 10
1066.993017719275
 20
1728.211515483333
 30
0.0
  0
ENDBLK
  5
106A
330
105F
100
AcDbEntity
  8
0
100
AcDbBlockEnd
  0
BLOCK
  5
1099
330
1089
100
AcDbEntity
  8
0
100
AcDbBlockBegin
  2
*D111
 70
     1
 10
0.0
 20
0.0
 30
0.0
  3
*D111
  1

  0
LINE
  5
9F17
330
1089
100
AcDbEntity
  8
cotas
100
AcDbLine
 10
234.4874660612914
 20
1644.670205895789
 30
0.0
 11
234.4874660612916
 21
1551.415825760621
 31
0.0
  0
LINE
  5
9F18
330
1089
100
AcDbEntity
  8
cotas
100
AcDbLine
 10
235.9678990193952
 20
1615.817512790166
 30
0.0
 11
238.214586266454
 21
1551.480882961819
 31
0.0
  0
ARC
  5
9F19
330
1089
100
AcDbEntity
  8
cotas
100
AcDbCircle
 10
234.4874660612914
 20
1658.211516377403
 30
0.0
 40
101.7956906167821
100
AcDbArc
 50
258.724800562579
 51
270.0000000000002
  0
LINE
  5
9F1A
330
1089
100
AcDbEntity
  8
cotas
100
AcDbLine
 10
214.5842031013796
 20
1558.380545473098
 30
0.0
 11
177.4836012192184
 21
1565.777278456287
 31
0.0
  0
ARC
  5
9F1B
330
1089
100
AcDbEntity
  8
cotas
100
AcDbCircle
 10
234.4874660612914
 20
1658.211516377403
 30
0.0
 40
101.7956906167821
100
AcDbArc
 50
258.7384539308035
 51
264.3692269654018
  0
ARC
  5
9F1C
330
1089
100
AcDbEntity
  8
cotas
100
AcDbCircle
 10
234.4874660612914
 20
1658.211516377403
 30
0.0
 40
101.7956906167821
100
AcDbArc
 50
277.6307753712091
 51
283.2615484058075
  0
ARC
  5
9F1D
330
1089
100
AcDbEntity
  8
cotas
100
AcDbCircle
 10
234.4874660612914
 20
1658.211516377403
 30
0.0
 40
101.7956906167821
100
AcDbArc
 50
270.0000000000002
 51
272.0000023366109
  0
SOLID
  5
9F1E
330
1089
100
AcDbEntity
  8
cotas
100
AcDbTrace
 10
224.581399553185
 20
1558.571660660317
 30
0.0
 11
224.4176729104786
 21
1555.242350717163
 31
0.0
 12
234.4874660612916
 22
1556.415825760621
 32
0.0
 13
234.4874660612916
 23
1556.415825760621
 33
0.0
  0
SOLID
  5
9F1F
330
1089
100
AcDbEntity
  8
cotas
100
AcDbTrace
 10
248.1447012059649
 20
1555.656508020575
 30
0.0
 11
247.8648829242641
 21
1558.978075849227
 31
0.0
 12
238.040088579158
 22
1556.477837089798
 32
0.0
 13
238.040088579158
 23
1556.477837089798
 33
0.0
  0
MTEXT
  5
9F20
330
1089
100
AcDbEntity
  8
cotas
100
AcDbMText
 10
198.2523968123668
 20
1573.206458011188
 30
0.0
 40
10.0
 41
0.0
 71
     5
 72
     1
  1
2,0°
  7
SANINDUSA
 11
0.980699382257022
 21
-0.195521665399759
 31
0.0
 73
     1
 44
1.0
1001
ACAD
1000
MTEXTBEGIN
1070
    73
1070
     1
1070
    44
1040
1.0
1070
    74
1070
     0
1000
MTEXTEND
  0
POINT
  5
9F21
330
1089
100
AcDbEntity
  8
Defpoints
 62
     0
100
AcDbPoint
 10
236.8561483121617
 20
1556.443387906147
 30
0.0
  0
POINT
  5
9F22
330
1089
100
AcDbEntity
  8
Defpoints
 62
     0
100
AcDbPoint
 10
234.4874660612914
 20
1658.211516377403
 30
0.0
  0
POINT
  5
9F23
330
1089
100
AcDbEntity
  8
Defpoints
 62
     0
100
AcDbPoint
 10
234.4874660612914
 20
1658.211516377403
 30
0.0
  0
POINT
  5
9F24
330
1089
100
AcDbEntity
  8
Defpoints
 62
     0
100
AcDbPoint
 10
235.7934013320992
 20
1620.814466918146
 30
0.0
  0
POINT
  5
9F25
330
1089
100
AcDbEntity
  8
Defpoints
 62
     0
100
AcDbPoint
 10
234.4874660612914
 20
1649.670205895789
 30
0.0
  0
ENDBLK
  5
109A
330
1089
100
AcDbEntity
  8
0
100
AcDbBlockEnd
  0
BLOCK
  5
10A5
330
109B
100
AcDbEntity
  8
0
100
AcDbBlockBegin
  2
*D112
 70
     1
 10
0.0
 20
0.0
 30
0.0
  3
*D112
  1

  0
LINE
  5
9F0E
330
109B
100
AcDbEntity
  8
cotas
100
AcDbLine
 10
3256.775827717597
 20
1703.211515483334
 30
0.0
 11
3256.775827717597
 21
1733.211515483334
 31
0.0
  0
LINE
  5
9F0F
330
109B
100
AcDbEntity
  8
cotas
100
AcDbLine
 10
3186.775827441269
 20
1703.211515483333
 30
0.0
 11
3186.775827441269
 21
1733.211515483334
 31
0.0
  0
LINE
  5
9F10
330
109B
100
AcDbEntity
  8
cotas
100
AcDbLine
 10
3246.775827717597
 20
1728.211515483334
 30
0.0
 11
3196.775827441269
 21
1728.211515483334
 31
0.0
  0
SOLID
  5
9F11
330
109B
100
AcDbEntity
  8
cotas
100
AcDbTrace
 10
3246.775827717597
 20
1729.878182150001
 30
0.0
 11
3246.775827717597
 21
1726.544848816667
 31
0.0
 12
3256.775827717597
 22
1728.211515483334
 32
0.0
 13
3256.775827717597
 23
1728.211515483334
 33
0.0
  0
SOLID
  5
9F12
330
109B
100
AcDbEntity
  8
cotas
100
AcDbTrace
 10
3196.775827441269
 20
1729.878182150001
 30
0.0
 11
3196.775827441269
 21
1726.544848816667
 31
0.0
 12
3186.775827441269
 22
1728.211515483334
 32
0.0
 13
3186.775827441269
 23
1728.211515483334
 33
0.0
  0
MTEXT
  5
9F13
330
109B
100
AcDbEntity
  8
cotas
100
AcDbMText
 10
3221.775827579433
 20
1738.416350943374
 30
0.0
 40
10.0
 41
0.0
 71
     5
 72
     1
  1
70
  7
SANINDUSA
 73
     1
 44
1.0
1001
ACAD
1000
MTEXTBEGIN
1070
    73
1070
     1
1070
    44
1040
1.0
1070
    74
1070
     0
1000
MTEXTEND
  0
POINT
  5
9F14
330
109B
100
AcDbEntity
  8
Defpoints
 62
     0
100
AcDbPoint
 10
3256.775827717597
 20
1698.211515483334
 30
0.0
  0
POINT
  5
9F15
330
109B
100
AcDbEntity
  8
Defpoints
 62
     0
100
AcDbPoint
 10
3186.775827441269
 20
1698.211515483333
 30
0.0
  0
POINT
  5
9F16
330
109B
100
AcDbEntity
  8
Defpoints
 62
     0
100
AcDbPoint
 10
3186.775827441269
 20
1728.211515483334
 30
0.0
  0
ENDBLK
  5
10A6
330
109B
100
AcDbEntity
  8
0
100
AcDbBlockEnd
  0
BLOCK
  5
10B2
330
10A7
100
AcDbEntity
  8
0
100
AcDbBlockBegin
  2
*D113
 70
     1
 10
0.0
 20
0.0
 30
0.0
  3
*D113
  1

  0
LINE
  5
9F04
330
10A7
100
AcDbEntity
  8
cotas
100
AcDbLine
 10
3256.775827717597
 20
1703.211515483334
 30
0.0
 11
3256.775827717597
 21
1733.211515483334
 31
0.0
  0
LINE
  5
9F05
330
10A7
100
AcDbEntity
  8
cotas
100
AcDbLine
 10
3289.182628543425
 20
1643.63686539527
 30
0.0
 11
3289.182628543425
 21
1733.211515483334
 31
0.0
  0
LINE
  5
9F06
330
10A7
100
AcDbEntity
  8
cotas
100
AcDbLine
 10
3266.775827717597
 20
1728.211515483334
 30
0.0
 11
3279.182628543425
 21
1728.211515483334
 31
0.0
  0
LINE
  5
9F07
330
10A7
100
AcDbEntity
  8
cotas
100
AcDbLine
 10
3289.182628543425
 20
1728.211515483334
 30
0.0
 11
3338.631923372169
 21
1728.211515483334
 31
0.0
  0
SOLID
  5
9F08
330
10A7
100
AcDbEntity
  8
cotas
100
AcDbTrace
 10
3266.775827717597
 20
1729.878182150001
 30
0.0
 11
3266.775827717597
 21
1726.544848816667
 31
0.0
 12
3256.775827717597
 22
1728.211515483334
 32
0.0
 13
3256.775827717597
 23
1728.211515483334
 33
0.0
  0
SOLID
  5
9F09
330
10A7
100
AcDbEntity
  8
cotas
100
AcDbTrace
 10
3279.182628543425
 20
1729.878182150001
 30
0.0
 11
3279.182628543425
 21
1726.544848816667
 31
0.0
 12
3289.182628543425
 22
1728.211515483334
 32
0.0
 13
3289.182628543425
 23
1728.211515483334
 33
0.0
  0
MTEXT
  5
9F0A
330
10A7
100
AcDbEntity
  8
cotas
100
AcDbMText
 10
3318.907275957797
 20
1739.558056786222
 30
0.0
 40
10.0
 41
0.0
 71
     5
 72
     1
  1
32,4
  7
SANINDUSA
 73
     1
 44
1.0
1001
ACAD
1000
MTEXTBEGIN
1070
    73
1070
     1
1070
    44
1040
1.0
1070
    74
1070
     0
1000
MTEXTEND
  0
POINT
  5
9F0B
330
10A7
100
AcDbEntity
  8
Defpoints
 62
     0
100
AcDbPoint
 10
3256.775827717597
 20
1698.211515483334
 30
0.0
  0
POINT
  5
9F0C
330
10A7
100
AcDbEntity
  8
Defpoints
 62
     0
100
AcDbPoint
 10
3289.182628543425
 20
1638.63686539527
 30
0.0
  0
POINT
  5
9F0D
330
10A7
100
AcDbEntity
  8
Defpoints
 62
     0
100
AcDbPoint
 10
3289.182628543425
 20
1728.211515483334
 30
0.0
  0
ENDBLK
  5
10B3
330
10A7
100
AcDbEntity
  8
0
100
AcDbBlockEnd
  0
BLOCK
  5
10BE
330
10B4
100
AcDbEntity
  8
0
100
AcDbBlockBegin
  2
*D114
 70
     1
 10
0.0
 20
0.0
 30
0.0
  3
*D114
  1

  0
LINE
  5
9EFB
330
10B4
100
AcDbEntity
  8
cotas
100
AcDbLine
 10
3289.269890576374
 20
1643.636103871038
 30
0.0
 11
3289.681965775751
 21
1667.243876026097
 31
0.0
  0
LINE
  5
9EFC
330
10B4
100
AcDbEntity
  8
cotas
100
AcDbLine
 10
3839.186122910926
 20
1634.037280246712
 30
0.0
 11
3839.598198110302
 21
1657.645052401771
 31
0.0
  0
LINE
  5
9EFD
330
10B4
100
AcDbEntity
  8
cotas
100
AcDbLine
 10
3299.593180694339
 20
1662.070113484432
 30
0.0
 11
3829.512459125816
 21
1652.820337991899
 31
0.0
  0
SOLID
  5
9EFE
330
10B4
100
AcDbEntity
  8
cotas
100
AcDbTrace
 10
3299.622268038655
 20
1663.736526309688
 30
0.0
 11
3299.564093350023
 21
1660.403700659175
 31
0.0
 12
3289.594703742802
 22
1662.244637550328
 32
0.0
 13
3289.594703742802
 23
1662.244637550328
 33
0.0
  0
SOLID
  5
9EFF
330
10B4
100
AcDbEntity
  8
cotas
100
AcDbTrace
 10
3829.541546470132
 20
1654.486750817155
 30
0.0
 11
3829.483371781499
 21
1651.153925166642
 31
0.0
 12
3839.510936077353
 22
1652.645813926002
 32
0.0
 13
3839.510936077353
 23
1652.645813926002
 33
0.0
  0
MTEXT
  5
9F00
330
10B4
100
AcDbEntity
  8
cotas
100
AcDbMText
 10
3564.730918847708
 20
1667.648506952309
 30
0.0
 40
10.0
 41
0.0
 71
     5
 72
     1
  1
550
  7
SANINDUSA
 11
0.9998476951537311
 21
-0.0174524065896849
 31
0.0
 73
     1
 44
1.0
1001
ACAD
1000
MTEXTBEGIN
1070
    73
1070
     1
1070
    44
1040
1.0
1070
    74
1070
     0
1000
MTEXTEND
  0
POINT
  5
9F01
330
10B4
100
AcDbEntity
  8
Defpoints
 62
     0
100
AcDbPoint
 10
3289.182628543425
 20
1638.63686539527
 30
0.0
  0
POINT
  5
9F02
330
10B4
100
AcDbEntity
  8
Defpoints
 62
     0
100
AcDbPoint
 10
3839.098860877977
 20
1629.038041770943
 30
0.0
  0
POINT
  5
9F03
330
10B4
100
AcDbEntity
  8
Defpoints
 62
     0
100
AcDbPoint
 10
3839.510936077353
 20
1652.645813926002
 30
0.0
  0
ENDBLK
  5
10BF
330
10B4
100
AcDbEntity
  8
0
100
AcDbBlockEnd
  0
BLOCK
  5
10D5
330
10C9
100
AcDbEntity
  8
0
100
AcDbBlockBegin
  2
*D115
 70
     1
 10
0.0
 20
0.0
 30
0.0
  3
*D115
  1

  0
LINE
  5
9EE7
330
10C9
100
AcDbEntity
  8
cotas
100
AcDbLine
 10
3844.098860877976
 20
1629.038041770943
 30
0.0
 11
3893.584626552433
 21
1629.038041770943
 31
0.0
  0
LINE
  5
9EE8
330
10C9
100
AcDbEntity
  8
cotas
100
AcDbLine
 10
3844.081257276708
 20
1606.013993830043
 30
0.0
 11
3893.584626552433
 21
1606.013993830043
 31
0.0
  0
LINE
  5
9EE9
330
10C9
100
AcDbEntity
  8
cotas
100
AcDbLine
 10
3888.584626552432
 20
1639.038041770944
 30
0.0
 11
3888.584626552432
 21
1649.038041770944
 31
0.0
  0
LINE
  5
9EEA
330
10C9
100
AcDbEntity
  8
cotas
100
AcDbLine
 10
3888.584626552432
 20
1596.013993830043
 30
0.0
 11
3888.584626552432
 21
1560.641260451937
 31
0.0
  0
LINE
  5
9EEB
330
10C9
100
AcDbEntity
  8
cotas
100
AcDbLine
 10
3888.584626552432
 20
1629.038041770943
 30
0.0
 11
3888.584626552432
 21
1606.013993830043
 31
0.0
  0
SOLID
  5
9EEC
330
10C9
100
AcDbEntity
  8
cotas
100
AcDbTrace
 10
3886.917959885766
 20
1639.038041770944
 30
0.0
 11
3890.251293219099
 21
1639.038041770944
 31
0.0
 12
3888.584626552432
 22
1629.038041770943
 32
0.0
 13
3888.584626552432
 23
1629.038041770943
 33
0.0
  0
SOLID
  5
9EED
330
10C9
100
AcDbEntity
  8
cotas
100
AcDbTrace
 10
3886.917959885766
 20
1596.013993830043
 30
0.0
 11
3890.251293219099
 21
1596.013993830043
 31
0.0
 12
3888.584626552432
 22
1606.013993830043
 32
0.0
 13
3888.584626552432
 23
1606.013993830043
 33
0.0
  0
MTEXT
  5
9EEE
330
10C9
100
AcDbEntity
  8
cotas
100
AcDbMText
 10
3878.37643313403
 20
1573.327627140991
 30
0.0
 40
10.0
 41
0.0
 71
     5
 72
     1
  1
23
  7
SANINDUSA
 11
0.0000000000000001
 21
1.0
 31
0.0
 73
     1
 44
1.0
1001
ACAD
1000
MTEXTBEGIN
1070
    73
1070
     1
1070
    44
1040
1.0
1070
    74
1070
     0
1000
MTEXTEND
  0
POINT
  5
9EEF
330
10C9
100
AcDbEntity
  8
Defpoints
 62
     0
100
AcDbPoint
 10
3839.098860877977
 20
1629.038041770943
 30
0.0
  0
POINT
  5
9EF0
330
10C9
100
AcDbEntity
  8
Defpoints
 62
     0
100
AcDbPoint
 10
3839.081257276708
 20
1606.013993830043
 30
0.0
  0
POINT
  5
9EF1
330
10C9
100
AcDbEntity
  8
Defpoints
 62
     0
100
AcDbPoint
 10
3888.584626552432
 20
1606.013993830043
 30
0.0
  0
ENDBLK
  5
10D6
330
10C9
100
AcDbEntity
  8
0
100
AcDbBlockEnd
  0
BLOCK
  5
10E3
330
10D7
100
AcDbEntity
  8
0
100
AcDbBlockBegin
  2
*D116
 70
     1
 10
0.0
 20
0.0
 30
0.0
  3
*D116
  1

  0
LINE
  5
9EDC
330
10D7
100
AcDbEntity
  8
cotas
100
AcDbLine
 10
3284.182628543425
 20
1638.63686539527
 30
0.0
 11
3151.07762486076
 21
1638.63686539527
 31
0.0
  0
LINE
  5
9EDD
330
10D7
100
AcDbEntity
  8
cotas
100
AcDbLine
 10
3284.182628543425
 20
1628.635342037614
 30
0.0
 11
3151.07762486076
 21
1628.635342037614
 31
0.0
  0
LINE
  5
9EDE
330
10D7
100
AcDbEntity
  8
cotas
100
AcDbLine
 10
3156.07762486076
 20
1648.63686539527
 30
0.0
 11
3156.07762486076
 21
1658.63686539527
 31
0.0
  0
LINE
  5
9EDF
330
10D7
100
AcDbEntity
  8
cotas
100
AcDbLine
 10
3156.07762486076
 20
1618.635342037614
 30
0.0
 11
3156.07762486076
 21
1583.920768498326
 31
0.0
  0
LINE
  5
9EE0
330
10D7
100
AcDbEntity
  8
cotas
100
AcDbLine
 10
3156.07762486076
 20
1638.63686539527
 30
0.0
 11
3156.07762486076
 21
1628.635342037614
 31
0.0
  0
SOLID
  5
9EE1
330
10D7
100
AcDbEntity
  8
cotas
100
AcDbTrace
 10
3154.410958194093
 20
1648.63686539527
 30
0.0
 11
3157.744291527427
 21
1648.63686539527
 31
0.0
 12
3156.07762486076
 22
1638.63686539527
 32
0.0
 13
3156.07762486076
 23
1638.63686539527
 33
0.0
  0
SOLID
  5
9EE2
330
10D7
100
AcDbEntity
  8
cotas
100
AcDbTrace
 10
3154.410958194093
 20
1618.635342037614
 30
0.0
 11
3157.744291527427
 21
1618.635342037614
 31
0.0
 12
3156.07762486076
 22
1628.635342037614
 32
0.0
 13
3156.07762486076
 23
1628.635342037614
 33
0.0
  0
MTEXT
  5
9EE3
330
10D7
100
AcDbEntity
  8
cotas
100
AcDbMText
 10
3145.87278940072
 20
1596.27805526797
 30
0.0
 40
10.0
 41
0.0
 71
     5
 72
     1
  1
10
  7
SANINDUSA
 11
0.0000000000000001
 21
1.0
 31
0.0
 73
     1
 44
1.0
1001
ACAD
1000
MTEXTBEGIN
1070
    73
1070
     1
1070
    44
1040
1.0
1070
    74
1070
     0
1000
MTEXTEND
  0
POINT
  5
9EE4
330
10D7
100
AcDbEntity
  8
Defpoints
 62
     0
100
AcDbPoint
 10
3289.182628543425
 20
1638.63686539527
 30
0.0
  0
POINT
  5
9EE5
330
10D7
100
AcDbEntity
  8
Defpoints
 62
     0
100
AcDbPoint
 10
3289.182628543425
 20
1628.635342037614
 30
0.0
  0
POINT
  5
9EE6
330
10D7
100
AcDbEntity
  8
Defpoints
 62
     0
100
AcDbPoint
 10
3156.07762486076
 20
1628.635342037614
 30
0.0
  0
ENDBLK
  5
10E4
330
10D7
100
AcDbEntity
  8
0
100
AcDbBlockEnd
  0
BLOCK
  5
1126
330
111C
100
AcDbEntity
  8
0
100
AcDbBlockBegin
  2
*D117
 70
     1
 10
0.0
 20
0.0
 30
0.0
  3
*D117
  1

  0
LINE
  5
9E9C
330
111C
100
AcDbEntity
  8
cotas
100
AcDbLine
 10
4886.7758162468
 20
1703.211515483334
 30
0.0
 11
4886.7758162468
 21
1733.211515483334
 31
0.0
  0
LINE
  5
9E9D
330
111C
100
AcDbEntity
  8
cotas
100
AcDbLine
 10
4816.775838424672
 20
1703.211515483334
 30
0.0
 11
4816.775838424672
 21
1733.211515483334
 31
0.0
  0
LINE
  5
9E9E
330
111C
100
AcDbEntity
  8
cotas
100
AcDbLine
 10
4876.7758162468
 20
1728.211515483334
 30
0.0
 11
4826.775838424673
 21
1728.211515483334
 31
0.0
  0
SOLID
  5
9E9F
330
111C
100
AcDbEntity
  8
cotas
100
AcDbTrace
 10
4876.7758162468
 20
1729.878182150001
 30
0.0
 11
4876.7758162468
 21
1726.544848816667
 31
0.0
 12
4886.7758162468
 22
1728.211515483334
 32
0.0
 13
4886.7758162468
 23
1728.211515483334
 33
0.0
  0
SOLID
  5
9EA0
330
111C
100
AcDbEntity
  8
cotas
100
AcDbTrace
 10
4826.775838424673
 20
1729.878182150001
 30
0.0
 11
4826.775838424673
 21
1726.544848816667
 31
0.0
 12
4816.775838424672
 22
1728.211515483334
 32
0.0
 13
4816.775838424672
 23
1728.211515483334
 33
0.0
  0
MTEXT
  5
9EA1
330
111C
100
AcDbEntity
  8
cotas
100
AcDbMText
 10
4851.775827335735
 20
1738.416350943374
 30
0.0
 40
10.0
 41
0.0
 71
     5
 72
     1
  1
70
  7
SANINDUSA
 73
     1
 44
1.0
1001
ACAD
1000
MTEXTBEGIN
1070
    73
1070
     1
1070
    44
1040
1.0
1070
    74
1070
     0
1000
MTEXTEND
  0
POINT
  5
9EA2
330
111C
100
AcDbEntity
  8
Defpoints
 62
     0
100
AcDbPoint
 10
4886.7758162468
 20
1698.211515483334
 30
0.0
  0
POINT
  5
9EA3
330
111C
100
AcDbEntity
  8
Defpoints
 62
     0
100
AcDbPoint
 10
4816.775838424672
 20
1698.211515483334
 30
0.0
  0
POINT
  5
9EA4
330
111C
100
AcDbEntity
  8
Defpoints
 62
     0
100
AcDbPoint
 10
4816.775838424672
 20
1728.211515483334
 30
0.0
  0
ENDBLK
  5
1127
330
111C
100
AcDbEntity
  8
0
100
AcDbBlockEnd
  0
BLOCK
  5
1132
330
1128
100
AcDbEntity
  8
0
100
AcDbBlockBegin
  2
*D118
 70
     1
 10
0.0
 20
0.0
 30
0.0
  3
*D118
  1

  0
LINE
  5
9E93
330
1128
100
AcDbEntity
  8
cotas
100
AcDbLine
 10
4886.7758162468
 20
1703.211515483334
 30
0.0
 11
4886.7758162468
 21
1763.206515439093
 31
0.0
  0
LINE
  5
9E94
330
1128
100
AcDbEntity
  8
cotas
100
AcDbLine
 10
4706.775838170254
 20
1627.106194630724
 30
0.0
 11
4706.775838170254
 21
1763.206515439093
 31
0.0
  0
LINE
  5
9E95
330
1128
100
AcDbEntity
  8
cotas
100
AcDbLine
 10
4876.7758162468
 20
1758.206515439093
 30
0.0
 11
4716.775838170254
 21
1758.206515439093
 31
0.0
  0
SOLID
  5
9E96
330
1128
100
AcDbEntity
  8
cotas
100
AcDbTrace
 10
4876.7758162468
 20
1759.873182105759
 30
0.0
 11
4876.7758162468
 21
1756.539848772426
 31
0.0
 12
4886.7758162468
 22
1758.206515439093
 32
0.0
 13
4886.7758162468
 23
1758.206515439093
 33
0.0
  0
SOLID
  5
9E97
330
1128
100
AcDbEntity
  8
cotas
100
AcDbTrace
 10
4716.775838170254
 20
1759.873182105759
 30
0.0
 11
4716.775838170254
 21
1756.539848772426
 31
0.0
 12
4706.775838170254
 22
1758.206515439093
 32
0.0
 13
4706.775838170254
 23
1758.206515439093
 33
0.0
  0
MTEXT
  5
9E98
330
1128
100
AcDbEntity
  8
cotas
100
AcDbMText
 10
4796.775827208526
 20
1768.434856607662
 30
0.0
 40
10.0
 41
0.0
 71
     5
 72
     1
  1
180
  7
SANINDUSA
 73
     1
 44
1.0
1001
ACAD
1000
MTEXTBEGIN
1070
    73
1070
     1
1070
    44
1040
1.0
1070
    74
1070
     0
1000
MTEXTEND
  0
POINT
  5
9E99
330
1128
100
AcDbEntity
  8
Defpoints
 62
     0
100
AcDbPoint
 10
4886.7758162468
 20
1698.211515483334
 30
0.0
  0
POINT
  5
9E9A
330
1128
100
AcDbEntity
  8
Defpoints
 62
     0
100
AcDbPoint
 10
4706.775838170254
 20
1622.106194630724
 30
0.0
  0
POINT
  5
9E9B
330
1128
100
AcDbEntity
  8
Defpoints
 62
     0
100
AcDbPoint
 10
4706.775838170254
 20
1758.206515439093
 30
0.0
  0
ENDBLK
  5
1133
330
1128
100
AcDbEntity
  8
0
100
AcDbBlockEnd
  0
BLOCK
  5
1150
330
1146
100
AcDbEntity
  8
0
100
AcDbBlockBegin
  2
*D119
 70
     1
 10
0.0
 20
0.0
 30
0.0
  3
*D119
  1

  0
LINE
  5
9E78
330
1146
100
AcDbEntity
  8
cotas
100
AcDbLine
 10
1206.443417134566
 20
1703.211515483333
 30
0.0
 11
1206.443417134566
 21
1733.211515483332
 31
0.0
  0
LINE
  5
9E79
330
1146
100
AcDbEntity
  8
cotas
100
AcDbLine
 10
2906.443449468106
 20
1703.211515483333
 30
0.0
 11
2906.443449468106
 21
1733.211515483332
 31
0.0
  0
LINE
  5
9E7A
330
1146
100
AcDbEntity
  8
cotas
100
AcDbLine
 10
1216.443417134566
 20
1728.211515483331
 30
0.0
 11
2896.443449468105
 21
1728.211515483331
 31
0.0
  0
SOLID
  5
9E7B
330
1146
100
AcDbEntity
  8
cotas
100
AcDbTrace
 10
1216.443417134566
 20
1729.878182149998
 30
0.0
 11
1216.443417134566
 21
1726.544848816665
 31
0.0
 12
1206.443417134566
 22
1728.211515483331
 32
0.0
 13
1206.443417134566
 23
1728.211515483331
 33
0.0
  0
SOLID
  5
9E7C
330
1146
100
AcDbEntity
  8
cotas
100
AcDbTrace
 10
2896.443449468105
 20
1729.878182149998
 30
0.0
 11
2896.443449468105
 21
1726.544848816665
 31
0.0
 12
2906.443449468106
 22
1728.211515483331
 32
0.0
 13
2906.443449468106
 23
1728.211515483331
 33
0.0
  0
MTEXT
  5
9E7D
330
1146
100
AcDbEntity
  8
cotas
100
AcDbMText
 10
2056.443433301336
 20
1738.416350943372
 30
0.0
 40
10.0
 41
0.0
 71
     5
 72
     1
  1
1700
  7
SANINDUSA
 73
     1
 44
1.0
1001
ACAD
1000
MTEXTBEGIN
1070
    73
1070
     1
1070
    44
1040
1.0
1070
    74
1070
     0
1000
MTEXTEND
  0
POINT
  5
9E7E
330
1146
100
AcDbEntity
  8
Defpoints
 62
     0
100
AcDbPoint
 10
1206.443417134566
 20
1698.211515483333
 30
0.0
  0
POINT
  5
9E7F
330
1146
100
AcDbEntity
  8
Defpoints
 62
     0
100
AcDbPoint
 10
2906.443449468106
 20
1698.211515483333
 30
0.0
  0
POINT
  5
9E80
330
1146
100
AcDbEntity
  8
Defpoints
 62
     0
100
AcDbPoint
 10
2906.443449468106
 20
1728.211515483331
 30
0.0
  0
ENDBLK
  5
1151
330
1146
100
AcDbEntity
  8
0
100
AcDbBlockEnd
  0
BLOCK
  5
1195
330
118B
100
AcDbEntity
  8
0
100
AcDbBlockBegin
  2
*D120
 70
     1
 10
0.0
 20
0.0
 30
0.0
  3
*D120
  1

  0
LINE
  5
9E36
330
118B
100
AcDbEntity
  8
cotas
100
AcDbLine
 10
-570.6132180442454
 20
1936.05582717112
 30
-0.0000000000000604
 11
-570.6132180442454
 21
2101.304912461277
 31
-0.0000000000000604
  0
LINE
  5
9E37
330
118B
100
AcDbEntity
  8
cotas
100
AcDbLine
 10
-650.5894941792885
 20
1936.056885770202
 30
-0.0000000000000604
 11
-650.5894941792885
 21
2101.304912461277
 31
-0.0000000000000604
  0
LINE
  5
9E38
330
118B
100
AcDbEntity
  8
cotas
100
AcDbLine
 10
-580.6132180442455
 20
2096.304912461278
 30
-0.0000000000000604
 11
-640.5894941792885
 21
2096.304912461278
 31
-0.0000000000000604
  0
SOLID
  5
9E39
330
118B
100
AcDbEntity
  8
cotas
100
AcDbTrace
 10
-580.6132180442455
 20
2097.971579127944
 30
-0.0000000000000604
 11
-580.6132180442455
 21
2094.638245794611
 31
-0.0000000000000604
 12
-570.6132180442454
 22
2096.304912461278
 32
-0.0000000000000604
 13
-570.6132180442454
 23
2096.304912461278
 33
-0.0000000000000604
  0
SOLID
  5
9E3A
330
118B
100
AcDbEntity
  8
cotas
100
AcDbTrace
 10
-640.5894941792885
 20
2097.971579127944
 30
-0.0000000000000604
 11
-640.5894941792885
 21
2094.638245794611
 31
-0.0000000000000604
 12
-650.5894941792885
 22
2096.304912461278
 32
-0.0000000000000604
 13
-650.5894941792885
 23
2096.304912461278
 33
-0.0000000000000604
  0
MTEXT
  5
9E3B
330
118B
100
AcDbEntity
  8
cotas
100
AcDbMText
 10
-610.601356111767
 20
2106.533253629847
 30
-0.0000000000000604
 40
10.0
 41
0.0
 71
     5
 72
     1
  1
80
  7
SANINDUSA
 73
     1
 44
1.0
1001
ACAD
1000
MTEXTBEGIN
1070
    73
1070
     1
1070
    44
1040
1.0
1070
    74
1070
     0
1000
MTEXTEND
  0
POINT
  5
9E3C
330
118B
100
AcDbEntity
  8
Defpoints
 62
     0
100
AcDbPoint
 10
-570.6132180442454
 20
1931.05582717112
 30
-0.0000000000000604
  0
POINT
  5
9E3D
330
118B
100
AcDbEntity
  8
Defpoints
 62
     0
100
AcDbPoint
 10
-650.5894941792885
 20
1931.056885770202
 30
-0.0000000000000604
  0
POINT
  5
9E3E
330
118B
100
AcDbEntity
  8
Defpoints
 62
     0
100
AcDbPoint
 10
-650.5894941792885
 20
2096.304912461278
 30
-0.0000000000000604
  0
ENDBLK
  5
1196
330
118B
100
AcDbEntity
  8
0
100
AcDbBlockEnd
  0
BLOCK
  5
11A1
330
1197
100
AcDbEntity
  8
0
100
AcDbBlockBegin
  2
*D121
 70
     1
 10
0.0
 20
0.0
 30
0.0
  3
*D121
  1

  0
LINE
  5
9E2D
330
1197
100
AcDbEntity
  8
cotas
100
AcDbLine
 10
-650.5894941792885
 20
1936.056885770202
 30
-0.0000000000000604
 11
-650.5894941792885
 21
2101.304912461277
 31
-0.0000000000000604
  0
LINE
  5
9E2E
330
1197
100
AcDbEntity
  8
cotas
100
AcDbLine
 10
-730.5564834725319
 20
1936.045263517015
 30
-0.0000000000000604
 11
-730.5564834725319
 21
2101.304912461277
 31
-0.0000000000000604
  0
LINE
  5
9E2F
330
1197
100
AcDbEntity
  8
cotas
100
AcDbLine
 10
-660.5894941792885
 20
2096.304912461278
 30
-0.0000000000000604
 11
-720.5564834725318
 21
2096.304912461278
 31
-0.0000000000000604
  0
SOLID
  5
9E30
330
1197
100
AcDbEntity
  8
cotas
100
AcDbTrace
 10
-660.5894941792885
 20
2097.971579127944
 30
-0.0000000000000604
 11
-660.5894941792885
 21
2094.638245794611
 31
-0.0000000000000604
 12
-650.5894941792885
 22
2096.304912461278
 32
-0.0000000000000604
 13
-650.5894941792885
 23
2096.304912461278
 33
-0.0000000000000604
  0
SOLID
  5
9E31
330
1197
100
AcDbEntity
  8
cotas
100
AcDbTrace
 10
-720.5564834725318
 20
2097.971579127944
 30
-0.0000000000000604
 11
-720.5564834725318
 21
2094.638245794611
 31
-0.0000000000000604
 12
-730.5564834725319
 22
2096.304912461278
 32
-0.0000000000000604
 13
-730.5564834725319
 23
2096.304912461278
 33
-0.0000000000000604
  0
MTEXT
  5
9E32
330
1197
100
AcDbEntity
  8
cotas
100
AcDbMText
 10
-690.5729888259102
 20
2106.533253629847
 30
-0.0000000000000604
 40
10.0
 41
0.0
 71
     5
 72
     1
  1
80
  7
SANINDUSA
 73
     1
 44
1.0
1001
ACAD
1000
MTEXTBEGIN
1070
    73
1070
     1
1070
    44
1040
1.0
1070
    74
1070
     0
1000
MTEXTEND
  0
POINT
  5
9E33
330
1197
100
AcDbEntity
  8
Defpoints
 62
     0
100
AcDbPoint
 10
-650.5894941792885
 20
1931.056885770202
 30
-0.0000000000000604
  0
POINT
  5
9E34
330
1197
100
AcDbEntity
  8
Defpoints
 62
     0
100
AcDbPoint
 10
-730.5564834725319
 20
1931.045263517015
 30
-0.0000000000000604
  0
POINT
  5
9E35
330
1197
100
AcDbEntity
  8
Defpoints
 62
     0
100
AcDbPoint
 10
-730.5564834725319
 20
2096.304912461278
 30
-0.0000000000000604
  0
ENDBLK
  5
11A2
330
1197
100
AcDbEntity
  8
0
100
AcDbBlockEnd
  0
BLOCK
  5
11AD
330
11A3
100
AcDbEntity
  8
0
100
AcDbBlockBegin
  2
*D122
 70
     1
 10
0.0
 20
0.0
 30
0.0
  3
*D122
  1

  0
LINE
  5
9E24
330
11A3
100
AcDbEntity
  8
cotas
100
AcDbLine
 10
-730.5564834725319
 20
1936.045263517015
 30
-0.0000000000000604
 11
-730.5564834725319
 21
2101.304912461277
 31
-0.0000000000000604
  0
LINE
  5
9E25
330
11A3
100
AcDbEntity
  8
cotas
100
AcDbLine
 10
-810.4710666911506
 20
1936.038329187391
 30
-0.0000000000000604
 11
-810.4710666911506
 21
2101.304912461277
 31
-0.0000000000000604
  0
LINE
  5
9E26
330
11A3
100
AcDbEntity
  8
cotas
100
AcDbLine
 10
-740.5564834725319
 20
2096.304912461278
 30
-0.0000000000000604
 11
-800.4710666911504
 21
2096.304912461278
 31
-0.0000000000000604
  0
SOLID
  5
9E27
330
11A3
100
AcDbEntity
  8
cotas
100
AcDbTrace
 10
-740.5564834725319
 20
2097.971579127944
 30
-0.0000000000000604
 11
-740.5564834725319
 21
2094.638245794611
 31
-0.0000000000000604
 12
-730.5564834725319
 22
2096.304912461278
 32
-0.0000000000000604
 13
-730.5564834725319
 23
2096.304912461278
 33
-0.0000000000000604
  0
SOLID
  5
9E28
330
11A3
100
AcDbEntity
  8
cotas
100
AcDbTrace
 10
-800.4710666911504
 20
2097.971579127944
 30
-0.0000000000000604
 11
-800.4710666911504
 21
2094.638245794611
 31
-0.0000000000000604
 12
-810.4710666911506
 22
2096.304912461278
 32
-0.0000000000000604
 13
-810.4710666911506
 23
2096.304912461278
 33
-0.0000000000000604
  0
MTEXT
  5
9E29
330
11A3
100
AcDbEntity
  8
cotas
100
AcDbMText
 10
-770.5137750818412
 20
2106.533253629847
 30
-0.0000000000000604
 40
10.0
 41
0.0
 71
     5
 72
     1
  1
80
  7
SANINDUSA
 73
     1
 44
1.0
1001
ACAD
1000
MTEXTBEGIN
1070
    73
1070
     1
1070
    44
1040
1.0
1070
    74
1070
     0
1000
MTEXTEND
  0
POINT
  5
9E2A
330
11A3
100
AcDbEntity
  8
Defpoints
 62
     0
100
AcDbPoint
 10
-730.5564834725319
 20
1931.045263517015
 30
-0.0000000000000604
  0
POINT
  5
9E2B
330
11A3
100
AcDbEntity
  8
Defpoints
 62
     0
100
AcDbPoint
 10
-810.4710666911506
 20
1931.038329187391
 30
-0.0000000000000604
  0
POINT
  5
9E2C
330
11A3
100
AcDbEntity
  8
Defpoints
 62
     0
100
AcDbPoint
 10
-810.4710666911506
 20
2096.304912461278
 30
-0.0000000000000604
  0
ENDBLK
  5
11AE
330
11A3
100
AcDbEntity
  8
0
100
AcDbBlockEnd
  0
BLOCK
  5
11CB
330
11C1
100
AcDbEntity
  8
0
100
AcDbBlockBegin
  2
*D123
 70
     1
 10
0.0
 20
0.0
 30
0.0
  3
*D123
  1

  0
LINE
  5
9E09
330
11C1
100
AcDbEntity
  8
cotas
100
AcDbLine
 10
-970.4479349882694
 20
2071.304912461276
 30
-0.0000000000000604
 11
-970.4479349882694
 21
2101.304912461277
 31
-0.0000000000000604
  0
LINE
  5
9E0A
330
11C1
100
AcDbEntity
  8
cotas
100
AcDbLine
 10
-1050.437894386947
 20
1936.03846019043
 30
-0.0000000000000604
 11
-1050.437894386947
 21
2101.304912461277
 31
-0.0000000000000604
  0
LINE
  5
9E0B
330
11C1
100
AcDbEntity
  8
cotas
100
AcDbLine
 10
-980.4479349882695
 20
2096.304912461276
 30
-0.0000000000000604
 11
-1040.437894386947
 21
2096.304912461276
 31
-0.0000000000000604
  0
SOLID
  5
9E0C
330
11C1
100
AcDbEntity
  8
cotas
100
AcDbTrace
 10
-980.4479349882695
 20
2097.971579127943
 30
-0.0000000000000604
 11
-980.4479349882695
 21
2094.63824579461
 31
-0.0000000000000604
 12
-970.4479349882694
 22
2096.304912461276
 32
-0.0000000000000604
 13
-970.4479349882694
 23
2096.304912461276
 33
-0.0000000000000604
  0
SOLID
  5
9E0D
330
11C1
100
AcDbEntity
  8
cotas
100
AcDbTrace
 10
-1040.437894386947
 20
2097.971579127943
 30
-0.0000000000000604
 11
-1040.437894386947
 21
2094.63824579461
 31
-0.0000000000000604
 12
-1050.437894386947
 22
2096.304912461276
 32
-0.0000000000000604
 13
-1050.437894386947
 23
2096.304912461276
 33
-0.0000000000000604
  0
MTEXT
  5
9E0E
330
11C1
100
AcDbEntity
  8
cotas
100
AcDbMText
 10
-1010.442914687608
 20
2106.533253629846
 30
-0.0000000000000604
 40
10.0
 41
0.0
 71
     5
 72
     1
  1
80
  7
SANINDUSA
 73
     1
 44
1.0
1001
ACAD
1000
MTEXTBEGIN
1070
    73
1070
     1
1070
    44
1040
1.0
1070
    74
1070
     0
1000
MTEXTEND
  0
POINT
  5
9E0F
330
11C1
100
AcDbEntity
  8
Defpoints
 62
     0
100
AcDbPoint
 10
-970.4479349882694
 20
2066.304912461276
 30
-0.0000000000000604
  0
POINT
  5
9E10
330
11C1
100
AcDbEntity
  8
Defpoints
 62
     0
100
AcDbPoint
 10
-1050.437894386947
 20
1931.03846019043
 30
-0.0000000000000604
  0
POINT
  5
9E11
330
11C1
100
AcDbEntity
  8
Defpoints
 62
     0
100
AcDbPoint
 10
-1050.437894386947
 20
2096.304912461276
 30
-0.0000000000000604
  0
ENDBLK
  5
11CC
330
11C1
100
AcDbEntity
  8
0
100
AcDbBlockEnd
  0
BLOCK
  5
1264
330
125D
100
AcDbEntity
  8
0
100
AcDbBlockBegin
  2
*D124
 70
     1
 10
0.0
 20
0.0
 30
0.0
  3
*D124
  1

  0
LINE
  5
9D73
330
125D
100
AcDbEntity
  8
cotas
100
AcDbLine
 10
-1860.984454380503
 20
1134.334600440557
 30
-0.0000000000000379
 11
-1835.691164572725
 21
1159.938752734609
 31
-0.0000000000000379
  0
MTEXT
  5
9D74
330
125D
100
AcDbEntity
  8
cotas
100
AcDbMText
 10
-1859.039862357429
 20
1150.680521172931
 30
-0.0000000000000379
 40
10.0
 41
0.0
 71
     5
 72
     1
  1
R5
  7
SANINDUSA
 11
0.702774930468033
 21
0.7114122553805576
 31
0.0
 73
     1
 44
1.0
1001
ACAD
1000
MTEXTBEGIN
1070
    73
1070
     1
1070
    44
1040
1.0
1070
    74
1070
     0
1000
MTEXTEND
  0
LINE
  5
9D75
330
125D
100
AcDbEntity
  8
cotas
100
AcDbLine
 10
-1825.149540615704
 20
1170.609936565317
 30
-0.0000000000000379
 11
-1828.663415268044
 21
1167.052875288415
 31
-0.0000000000000379
  0
SOLID
  5
9D76
330
125D
100
AcDbEntity
  8
cotas
100
AcDbTrace
 10
-1836.876851665025
 20
1161.110044285389
 30
-0.0000000000000379
 11
-1834.505477480424
 21
1158.767461183829
 31
-0.0000000000000379
 12
-1828.663415268044
 22
1167.052875288415
 32
-0.0000000000000379
 13
-1828.663415268044
 23
1167.052875288415
 33
-0.0000000000000379
  0
POINT
  5
9D77
330
125D
100
AcDbEntity
  8
Defpoints
 62
     0
100
AcDbPoint
 10
-1828.663415268044
 20
1167.052875288415
 30
-0.0000000000000379
  0
POINT
  5
9D78
330
125D
100
AcDbEntity
  8
Defpoints
 62
     0
100
AcDbPoint
 10
-1825.149540615704
 20
1170.609936565317
 30
-0.0000000000000379
  0
ENDBLK
  5
1265
330
125D
100
AcDbEntity
  8
0
100
AcDbBlockEnd
  0
BLOCK
  5
1278
330
126E
100
AcDbEntity
  8
0
100
AcDbBlockBegin
  2
*D125
 70
     1
 10
0.0
 20
0.0
 30
0.0
  3
*D125
  1

  0
LINE
  5
9D62
330
126E
100
AcDbEntity
  8
cotas
100
AcDbLine
 10
-570.6132180442454
 20
1936.05582717112
 30
-0.0000000000000604
 11
-570.6132180442454
 21
2101.304912461277
 31
-0.0000000000000604
  0
LINE
  5
9D63
330
126E
100
AcDbEntity
  8
cotas
100
AcDbLine
 10
-490.6398818713442
 20
1936.055690171972
 30
-0.0000000000000604
 11
-490.6398818713442
 21
2101.304912461277
 31
-0.0000000000000604
  0
LINE
  5
9D64
330
126E
100
AcDbEntity
  8
cotas
100
AcDbLine
 10
-560.6132180442455
 20
2096.304912461278
 30
-0.0000000000000604
 11
-500.6398818713441
 21
2096.304912461278
 31
-0.0000000000000604
  0
SOLID
  5
9D65
330
126E
100
AcDbEntity
  8
cotas
100
AcDbTrace
 10
-560.6132180442455
 20
2097.971579127944
 30
-0.0000000000000604
 11
-560.6132180442455
 21
2094.638245794611
 31
-0.0000000000000604
 12
-570.6132180442454
 22
2096.304912461278
 32
-0.0000000000000604
 13
-570.6132180442454
 23
2096.304912461278
 33
-0.0000000000000604
  0
SOLID
  5
9D66
330
126E
100
AcDbEntity
  8
cotas
100
AcDbTrace
 10
-500.6398818713441
 20
2097.971579127944
 30
-0.0000000000000604
 11
-500.6398818713441
 21
2094.638245794611
 31
-0.0000000000000604
 12
-490.6398818713442
 22
2096.304912461278
 32
-0.0000000000000604
 13
-490.6398818713442
 23
2096.304912461278
 33
-0.0000000000000604
  0
MTEXT
  5
9D67
330
126E
100
AcDbEntity
  8
cotas
100
AcDbMText
 10
-530.6265499577948
 20
2106.533253629847
 30
-0.0000000000000604
 40
10.0
 41
0.0
 71
     5
 72
     1
  1
80
  7
SANINDUSA
 73
     1
 44
1.0
1001
ACAD
1000
MTEXTBEGIN
1070
    73
1070
     1
1070
    44
1040
1.0
1070
    74
1070
     0
1000
MTEXTEND
  0
POINT
  5
9D68
330
126E
100
AcDbEntity
  8
Defpoints
 62
     0
100
AcDbPoint
 10
-570.6132180442454
 20
1931.05582717112
 30
-0.0000000000000604
  0
POINT
  5
9D69
330
126E
100
AcDbEntity
  8
Defpoints
 62
     0
100
AcDbPoint
 10
-490.6398818713442
 20
1931.055690171972
 30
-0.0000000000000604
  0
POINT
  5
9D6A
330
126E
100
AcDbEntity
  8
Defpoints
 62
     0
100
AcDbPoint
 10
-490.6398818713442
 20
2096.304912461278
 30
-0.0000000000000604
  0
ENDBLK
  5
1279
330
126E
100
AcDbEntity
  8
0
100
AcDbBlockEnd
  0
BLOCK
  5
1284
330
127A
100
AcDbEntity
  8
0
100
AcDbBlockBegin
  2
*D126
 70
     1
 10
0.0
 20
0.0
 30
0.0
  3
*D126
  1

  0
LINE
  5
9D59
330
127A
100
AcDbEntity
  8
cotas
100
AcDbLine
 10
-310.1686030225683
 20
2071.305110581243
 30
-0.0000000000000379
 11
-310.1686030225683
 21
2101.308121532358
 31
-0.0000000000000379
  0
LINE
  5
9D5A
330
127A
100
AcDbEntity
  8
cotas
100
AcDbLine
 10
-130.1495082821666
 20
2065.630777212516
 30
-0.0000000000000379
 11
-130.1495082821666
 21
2101.308121532358
 31
-0.0000000000000379
  0
LINE
  5
9D5B
330
127A
100
AcDbEntity
  8
cotas
100
AcDbLine
 10
-300.1686030225683
 20
2096.308121532358
 30
-0.0000000000000379
 11
-140.1495082821666
 21
2096.308121532358
 31
-0.0000000000000379
  0
SOLID
  5
9D5C
330
127A
100
AcDbEntity
  8
cotas
100
AcDbTrace
 10
-300.1686030225683
 20
2097.974788199024
 30
-0.0000000000000379
 11
-300.1686030225683
 21
2094.641454865692
 31
-0.0000000000000379
 12
-310.1686030225683
 22
2096.308121532358
 32
-0.0000000000000379
 13
-310.1686030225683
 23
2096.308121532358
 33
-0.0000000000000379
  0
SOLID
  5
9D5D
330
127A
100
AcDbEntity
  8
cotas
100
AcDbTrace
 10
-140.1495082821666
 20
2097.974788199024
 30
-0.0000000000000379
 11
-140.1495082821666
 21
2094.641454865692
 31
-0.0000000000000379
 12
-130.1495082821666
 22
2096.308121532358
 32
-0.0000000000000379
 13
-130.1495082821666
 23
2096.308121532358
 33
-0.0000000000000379
  0
MTEXT
  5
9D5E
330
127A
100
AcDbEntity
  8
cotas
100
AcDbMText
 10
-220.1590556523675
 20
2106.536462700928
 30
-0.0000000000000379
 40
10.0
 41
0.0
 71
     5
 72
     1
  1
180
  7
SANINDUSA
 73
     1
 44
1.0
1001
ACAD
1000
MTEXTBEGIN
1070
    73
1070
     1
1070
    44
1040
1.0
1070
    74
1070
     0
1000
MTEXTEND
  0
POINT
  5
9D5F
330
127A
100
AcDbEntity
  8
Defpoints
 62
     0
100
AcDbPoint
 10
-310.1686030225683
 20
2066.305110581243
 30
-0.0000000000000802
  0
POINT
  5
9D60
330
127A
100
AcDbEntity
  8
Defpoints
 62
     0
100
AcDbPoint
 10
-130.1495082821666
 20
2060.630777212516
 30
-0.0000000000000379
  0
POINT
  5
9D61
330
127A
100
AcDbEntity
  8
Defpoints
 62
     0
100
AcDbPoint
 10
-130.1495082821666
 20
2096.308121532358
 30
-0.0000000000000379
  0
ENDBLK
  5
1285
330
127A
100
AcDbEntity
  8
0
100
AcDbBlockEnd
  0
BLOCK
  5
128C
330
1286
100
AcDbEntity
  8
0
100
AcDbBlockBegin
  2
*D127
 70
     1
 10
0.0
 20
0.0
 30
0.0
  3
*D127
  1

  0
LINE
  5
9D54
330
1286
100
AcDbEntity
  8
1
100
AcDbLine
 10
4759.586321270336
 20
1638.22573866836
 30
0.0
 11
4802.070239070628
 21
1603.897203148649
 31
0.0
  0
MTEXT
  5
9D55
330
1286
100
AcDbEntity
  8
1
100
AcDbMText
 10
4779.432167391387
 20
1635.067768461455
 30
0.0
 40
10.0
 41
0.0
 71
     5
 72
     1
  1
R17
  7
SANINDUSA
 11
0.777810486599872
 21
-0.6284988837979514
 31
0.0
 73
     1
 44
1.0
1001
ACAD
1000
MTEXTBEGIN
1070
    73
1070
     1
1070
    44
1040
1.0
1070
    74
1070
     0
1000
MTEXTEND
  0
SOLID
  5
9D56
330
1286
100
AcDbEntity
  8
1
100
AcDbTrace
 10
4803.117737210293
 20
1605.193553959649
 30
0.0
 11
4801.022740930965
 21
1602.600852337648
 31
0.0
 12
4809.848343936626
 22
1597.612214310669
 32
0.0
 13
4809.848343936626
 23
1597.612214310669
 33
0.0
  0
POINT
  5
9D57
330
1286
100
AcDbEntity
  8
Defpoints
 62
     0
100
AcDbPoint
 10
4809.848343936626
 20
1597.612214310669
 30
0.0
  0
POINT
  5
9D58
330
1286
100
AcDbEntity
  8
Defpoints
 62
     0
100
AcDbPoint
 10
4796.625565643628
 20
1608.296695352042
 30
0.0
  0
ENDBLK
  5
128D
330
1286
100
AcDbEntity
  8
0
100
AcDbBlockEnd
  0
BLOCK
  5
1298
330
128E
100
AcDbEntity
  8
0
100
AcDbBlockBegin
  2
*D128
 70
     1
 10
0.0
 20
0.0
 30
0.0
  3
*D128
  1

  0
LINE
  5
9D4B
330
128E
100
AcDbEntity
  8
1
100
AcDbLine
 10
4891.775816246799
 20
1698.211515483334
 30
0.0
 11
4922.474030038577
 21
1698.211515483334
 31
0.0
  0
LINE
  5
9D4C
330
128E
100
AcDbEntity
  8
1
100
AcDbLine
 10
4818.145378643851
 20
1594.249201933508
 30
0.0
 11
4922.474030038577
 21
1594.249201933508
 31
0.0
  0
LINE
  5
9D4D
330
128E
100
AcDbEntity
  8
1
100
AcDbLine
 10
4917.474030038576
 20
1688.211515483334
 30
0.0
 11
4917.474030038576
 21
1604.249201933508
 31
0.0
  0
SOLID
  5
9D4E
330
128E
100
AcDbEntity
  8
1
100
AcDbTrace
 10
4915.80736337191
 20
1688.211515483334
 30
0.0
 11
4919.140696705244
 21
1688.211515483334
 31
0.0
 12
4917.474030038576
 22
1698.211515483334
 32
0.0
 13
4917.474030038576
 23
1698.211515483334
 33
0.0
  0
SOLID
  5
9D4F
330
128E
100
AcDbEntity
  8
1
100
AcDbTrace
 10
4915.80736337191
 20
1604.249201933508
 30
0.0
 11
4919.140696705244
 21
1604.249201933508
 31
0.0
 12
4917.474030038576
 22
1594.249201933508
 32
0.0
 13
4917.474030038576
 23
1594.249201933508
 33
0.0
  0
MTEXT
  5
9D50
330
128E
100
AcDbEntity
  8
1
100
AcDbMText
 10
4907.269194578536
 20
1646.230358708422
 30
0.0
 40
10.0
 41
0.0
 71
     5
 72
     1
  1
104
  7
SANINDUSA
 11
0.0000000000000001
 21
1.0
 31
0.0
 73
     1
 44
1.0
1001
ACAD
1000
MTEXTBEGIN
1070
    73
1070
     1
1070
    44
1040
1.0
1070
    74
1070
     0
1000
MTEXTEND
  0
POINT
  5
9D51
330
128E
100
AcDbEntity
  8
Defpoints
 62
     0
100
AcDbPoint
 10
4886.7758162468
 20
1698.211515483334
 30
0.0
  0
POINT
  5
9D52
330
128E
100
AcDbEntity
  8
Defpoints
 62
     0
100
AcDbPoint
 10
4813.145378643851
 20
1594.249201933508
 30
0.0
  0
POINT
  5
9D53
330
128E
100
AcDbEntity
  8
Defpoints
 62
     0
100
AcDbPoint
 10
4917.474030038576
 20
1594.249201933508
 30
0.0
  0
ENDBLK
  5
1299
330
128E
100
AcDbEntity
  8
0
100
AcDbBlockEnd
  0
BLOCK
  5
12A4
330
129A
100
AcDbEntity
  8
0
100
AcDbBlockBegin
  2
*D129
 70
     1
 10
0.0
 20
0.0
 30
0.0
  3
*D129
  1

  0
LINE
  5
9D42
330
129A
100
AcDbEntity
  8
1
100
AcDbLine
 10
-1830.848504720454
 20
2066.307275403199
 30
-0.0000000000000379
 11
-1865.847827791492
 21
2066.307275403199
 31
-0.0000000000000379
  0
LINE
  5
9D43
330
129A
100
AcDbEntity
  8
1
100
AcDbLine
 10
-1835.847743196216
 20
1972.338495951872
 30
-0.0000000000000379
 11
-1865.847827791492
 21
1972.338495951872
 31
-0.0000000000000379
  0
LINE
  5
9D44
330
129A
100
AcDbEntity
  8
1
100
AcDbLine
 10
-1860.847827791493
 20
2056.307275403198
 30
-0.0000000000000379
 11
-1860.847827791493
 21
1982.338495951872
 31
-0.0000000000000379
  0
SOLID
  5
9D45
330
129A
100
AcDbEntity
  8
1
100
AcDbTrace
 10
-1862.514494458159
 20
2056.307275403198
 30
-0.0000000000000379
 11
-1859.181161124826
 21
2056.307275403198
 31
-0.0000000000000379
 12
-1860.847827791493
 22
2066.307275403199
 32
-0.0000000000000379
 13
-1860.847827791493
 23
2066.307275403199
 33
-0.0000000000000379
  0
SOLID
  5
9D46
330
129A
100
AcDbEntity
  8
1
100
AcDbTrace
 10
-1862.514494458159
 20
1982.338495951872
 30
-0.0000000000000379
 11
-1859.181161124826
 21
1982.338495951872
 31
-0.0000000000000379
 12
-1860.847827791493
 22
1972.338495951872
 32
-0.0000000000000379
 13
-1860.847827791493
 23
1972.338495951872
 33
-0.0000000000000379
  0
MTEXT
  5
9D47
330
129A
100
AcDbEntity
  8
1
100
AcDbMText
 10
-1871.045947334811
 20
2019.322885677535
 30
-0.0000000000000379
 40
10.0
 41
0.0
 71
     5
 72
     1
  1
94
  7
SANINDUSA
 11
0.0000000000000001
 21
1.0
 31
0.0
 73
     1
 44
1.0
1001
ACAD
1000
MTEXTBEGIN
1070
    73
1070
     1
1070
    44
1040
1.0
1070
    74
1070
     0
1000
MTEXTEND
  0
POINT
  5
9D48
330
129A
100
AcDbEntity
  8
Defpoints
 62
     0
100
AcDbPoint
 10
-1825.848504720454
 20
2066.307275403199
 30
0.000000000000375
  0
POINT
  5
9D49
330
129A
100
AcDbEntity
  8
Defpoints
 62
     0
100
AcDbPoint
 10
-1830.847743196216
 20
1972.338495951872
 30
0.0000000000001756
  0
POINT
  5
9D4A
330
129A
100
AcDbEntity
  8
Defpoints
 62
     0
100
AcDbPoint
 10
-1860.847827791493
 20
1972.338495951872
 30
-0.0000000000000379
  0
ENDBLK
  5
12A5
330
129A
100
AcDbEntity
  8
0
100
AcDbBlockEnd
  0
ENDSEC
  0
SECTION
  2
ENTITIES
  0
ARC
  5
8D6
330
23
100
AcDbEntity
  8
SANINDUSA
100
AcDbCircle
 10
2057.203245101828
 20
1698.12160066335
 30
0.0
 40
0.0209000078210028
100
AcDbArc
 50
284.3941764941281
 51
358.0000004137834
  0
ARC
  5
8D7
330
23
100
AcDbEntity
  8
SANINDUSA
100
AcDbCircle
 10
2056.263359948682
 20
1698.13595161905
 30
0.0
 40
0.0209000620965269
100
AcDbArc
 50
235.6245006375504
 51
268.7993197434998
  0
LINE
  5
8E6
330
23
100
AcDbEntity
  8
SANINDUSA
100
AcDbLine
 10
2057.037154089714
 20
1698.098821495554
 30
0.0
 11
2057.050525094472
 21
1698.089458989321
 31
0.0
  0
LINE
  5
8E7
330
23
100
AcDbEntity
  8
SANINDUSA
100
AcDbLine
 10
2057.176265632716
 20
1698.089458989321
 30
0.0
 11
2057.189602147842
 21
1698.098797296068
 31
0.0
  0
LINE
  5
8E8
330
23
100
AcDbEntity
  8
SANINDUSA
100
AcDbLine
 10
2057.050525094472
 20
1698.089458989321
 30
0.0
 11
2057.061699595331
 21
1698.07747580425
 31
0.0
  0
LINE
  5
8E9
330
23
100
AcDbEntity
  8
SANINDUSA
100
AcDbLine
 10
2057.165091131857
 20
1698.07747580425
 30
0.0
 11
2057.176265632716
 21
1698.089458989321
 31
0.0
  0
LINE
  5
917
330
23
100
AcDbEntity
  8
SANINDUSA
100
AcDbLine
 10
2055.597696399371
 20
1698.171515484235
 30
0.0
 11
2057.289094340111
 21
1698.171515484235
 31
0.0
  0
LINE
  5
91A
330
23
100
AcDbEntity
  8
SANINDUSA
100
AcDbLine
 10
2055.592697161014
 20
1698.171515484235
 30
0.0
 11
2055.59327531057
 21
1698.204637650186
 31
0.0
  0
LINE
  5
91B
330
23
100
AcDbEntity
  8
SANINDUSA
100
AcDbLine
 10
2055.592697161014
 20
1698.171515484235
 30
0.0
 11
2055.597696399371
 21
1698.171515484235
 31
0.0
  0
LINE
  5
91D
330
23
100
AcDbEntity
  8
SANINDUSA
100
AcDbLine
 10
2057.293515416619
 20
1698.204637650186
 30
0.0
 11
2057.294093620086
 21
1698.171515484235
 31
0.0
  0
LINE
  5
91E
330
23
100
AcDbEntity
  8
SANINDUSA
100
AcDbLine
 10
2057.289094340111
 20
1698.171515484235
 30
0.0
 11
2057.294093620086
 21
1698.171515484235
 31
0.0
  0
LINE
  5
91F
330
23
100
AcDbEntity
  8
SANINDUSA
100
AcDbLine
 10
2055.600274244378
 20
1698.211515483341
 30
0.0
 11
2057.286516439225
 21
1698.211515483341
 31
0.0
  0
ARC
  5
922
330
23
100
AcDbEntity
  8
SANINDUSA
100
AcDbCircle
 10
2055.600274244436
 20
1698.204515483341
 30
0.0
 40
0.0070000000000002
100
AcDbArc
 50
90.0
 51
179.0000000033055
  0
ARC
  5
923
330
23
100
AcDbEntity
  8
SANINDUSA
100
AcDbCircle
 10
2057.286516482752
 20
1698.204515483341
 30
0.0
 40
0.0070000000000002
100
AcDbArc
 50
0.9999999966945132
 51
90.0
  0
ARC
  5
95B
330
23
100
AcDbEntity
  8
SANINDUSA
100
AcDbCircle
 10
2056.222770604016
 20
1698.102718909057
 30
0.0
 40
0.0261175626207529
100
AcDbArc
 50
58.61138905368003
 51
88.99812318916989
  0
LINE
  5
95F
330
23
100
AcDbEntity
  8
SANINDUSA
100
AcDbLine
 10
2055.660889815594
 20
1698.171515484235
 30
0.0
 11
2055.661346096784
 21
1698.158449344262
 31
0.0
  0
LINE
  5
960
330
23
100
AcDbEntity
  8
SANINDUSA
100
AcDbLine
 10
2057.224299269662
 20
1698.125650641658
 30
0.0
 11
2057.225900899673
 21
1698.171515484235
 31
0.0
  0
ARC
  5
962
330
23
100
AcDbEntity
  8
SANINDUSA
100
AcDbCircle
 10
2056.263411412298
 20
1698.169327793699
 30
0.0
 40
0.0519107579507801
100
AcDbArc
 50
238.6106892496232
 51
269.0459688157807
  0
LWPOLYLINE
  5
964
330
23
100
AcDbEntity
  8
SANINDUSA
100
AcDbPolyline
 90
        9
 70
   128
 43
0.0
 10
2055.681868609096
 20
1698.138281923613
 10
2055.681926231886
 20
1698.138280917785
 10
2055.682096902335
 20
1698.138277945003
 10
2055.682374056484
 20
1698.138273102125
 10
2055.682747069801
 20
1698.138266590318
 10
2055.683201622272
 20
1698.13825865545
 10
2055.68372028699
 20
1698.138249602994
 10
2055.684283148552
 20
1698.138239783129
 10
2055.684868607725
 20
1698.138229560932
  0
ARC
  5
965
330
23
100
AcDbEntity
  8
SANINDUSA
100
AcDbCircle
 10
2055.682233365069
 20
1698.159178743743
 30
0.0
 40
0.0209
100
AcDbArc
 50
182.0000000037536
 51
268.9999999900526
  0
LINE
  5
967
330
23
100
AcDbEntity
  8
SANINDUSA
100
AcDbLine
 10
2055.684868610888
 20
1698.1382295617
 30
0.0
 11
2056.223227282012
 21
1698.128832476141
 31
0.0
  0
LWPOLYLINE
  5
968
330
23
100
AcDbEntity
  8
SANINDUSA
100
AcDbPolyline
 90
        7
 70
   128
 43
0.0
 10
2057.224134694839
 20
1698.12093884953
 10
2057.224147092606
 20
1698.121292126259
 10
2057.224184762741
 20
1698.122371313056
 10
2057.224227082039
 20
1698.123582024953
 10
2057.22425712278
 20
1698.124443624994
 10
2057.224282991196
 20
1698.125186052999
 10
2057.224286209847
 20
1698.125275310954
  0
LWPOLYLINE
  5
969
330
23
100
AcDbEntity
  8
SANINDUSA
100
AcDbPolyline
 90
       39
 70
   128
 43
0.0
 10
2057.037169706131
 20
1698.098821361443
 10
2057.037843119408
 20
1698.098815520188
 10
2057.038718950058
 20
1698.098809351107
 10
2057.039940964485
 20
1698.098802995762
 10
2057.04189325502
 20
1698.09879693844
 10
2057.044336210991
 20
1698.098793250403
 10
2057.047345887924
 20
1698.098791954002
 10
2057.050836216713
 20
1698.098792438289
 10
2057.054657947327
 20
1698.098794017813
 10
2057.058882843758
 20
1698.098796387097
 10
2057.063621770645
 20
1698.098799315175
 10
2057.068723093773
 20
1698.098802273056
 10
2057.074006568695
 20
1698.098804813704
 10
2057.079562675262
 20
1698.098806832811
 10
2057.085526000763
 20
1698.098808218619
 10
2057.091693531777
 20
1698.09880887427
 10
2057.097845565582
 20
1698.098808941325
 10
2057.104105245377
 20
1698.098808911523
 10
2057.110614191795
 20
1698.098809239349
 10
2057.117143403793
 20
1698.098810044011
 10
2057.123447310234
 20
1698.098811459622
 10
2057.129682313705
 20
1698.098813635191
 10
2057.135980259682
 20
1698.098816481313
 10
2057.142114173676
 20
1698.098819685062
 10
2057.147862326409
 20
1698.098822821757
 10
2057.153374563958
 20
1698.098825787088
 10
2057.158759128357
 20
1698.098828499099
 10
2057.163814436699
 20
1698.098830548009
 10
2057.16838992765
 20
1698.098831576189
 10
2057.172585379387
 20
1698.098831531486
 10
2057.176474463249
 20
1698.098830257437
 10
2057.179901015068
 20
1698.098827366611
 10
2057.182773005272
 20
1698.098822583338
 10
2057.185159694458
 20
1698.098815885266
 10
2057.187090288902
 20
1698.098807041428
 10
2057.188479673172
 20
1698.09880001553
 10
2057.189306866432
 20
1698.098801878175
 10
2057.189613115097
 20
1698.098805856785
 10
2057.189596306587
 20
1698.098805603465
  0
LINE
  5
96B
330
23
100
AcDbEntity
  8
SANINDUSA
100
AcDbLine
 10
2057.061699595331
 20
1698.07747580425
 30
0.0
 11
2057.165091131857
 21
1698.07747580425
 31
0.0
  0
LINE
  5
9BB
330
23
100
AcDbEntity
  8
SANINDUSA
100
AcDbLine
 10
2052.561681591312
 20
1698.579033093687
 30
0.0
 11
2054.251923220409
 21
1698.579033093687
 31
0.0
  0
ARC
  5
9C0
330
23
100
AcDbEntity
  8
SANINDUSA
100
AcDbCircle
 10
2054.251921436578
 20
1698.574032071381
 30
0.0
 40
0.0050010226247745
100
AcDbArc
 50
0.0204370116740855
 51
89.97956297529372
  0
ARC
  5
9C2
330
23
100
AcDbEntity
  8
SANINDUSA
100
AcDbCircle
 10
2052.561683375142
 20
1698.574032071381
 30
0.0
 40
0.0050010226247748
100
AcDbArc
 50
90.02043702470627
 51
179.9795629883259
  0
LINE
  5
9C3
330
23
100
AcDbEntity
  8
SANINDUSA
100
AcDbLine
 10
2054.256922458884
 20
1698.574033855212
 30
0.0
 11
2054.256922458884
 21
1697.683792226115
 31
0.0
  0
LINE
  5
9C8
330
23
100
AcDbEntity
  8
SANINDUSA
100
AcDbLine
 10
2052.556682352836
 20
1697.683792226115
 30
0.0
 11
2052.556682352836
 21
1698.574033855212
 31
0.0
  0
ELLIPSE
  5
9D3
330
23
100
AcDbEntity
  8
SANINDUSA
100
AcDbEllipse
 10
2054.166545764777
 20
1698.488656404391
 30
0.0
 11
0.0141714282369867
 21
0.0141714282369864
 31
0.0
210
0.0
220
0.0
230
1.0
 40
0.9979329808706911
 41
5.498396131367774
 42
7.067974482991453
  0
ELLIPSE
  5
9D6
330
23
100
AcDbEntity
  8
SANINDUSA
100
AcDbEllipse
 10
2052.647059042135
 20
1698.488656404391
 30
0.0
 11
0.0141714282369864
 21
-0.0141714282369866
 31
0.0
210
0.0
220
0.0
230
1.0
 40
0.9979329808706758
 41
2.356803477777961
 42
3.926381829401641
  0
LINE
  5
9D8
330
23
100
AcDbEntity
  8
SANINDUSA
100
AcDbLine
 10
2054.166578670145
 20
1698.508677126298
 30
0.0
 11
2052.647026136768
 21
1698.508677126298
 31
0.0
  0
LINE
  5
9D9
330
23
100
AcDbEntity
  8
SANINDUSA
100
AcDbLine
 10
2052.627038320228
 20
1698.488689309757
 30
0.0
 11
2052.627038320228
 21
1697.769136771569
 31
0.0
  0
LINE
  5
9DC
330
23
100
AcDbEntity
  8
SANINDUSA
100
AcDbLine
 10
2054.186566486685
 20
1697.769136771572
 30
0.0
 11
2054.186566486685
 21
1698.488689309757
 31
0.0
  0
ELLIPSE
  5
9DD
330
23
100
AcDbEntity
  8
SANINDUSA
100
AcDbEllipse
 10
2052.647059042135
 20
1697.769169676936
 30
0.0
 11
0.0141714282369748
 21
0.0141714282369981
 31
0.0
210
0.0
220
0.0
230
1.0
 40
0.9979329808706985
 41
2.356803477777122
 42
3.926381829402354
  0
ELLIPSE
  5
9E0
330
23
100
AcDbEntity
  8
SANINDUSA
100
AcDbEllipse
 10
2054.166545764777
 20
1697.769169676938
 30
0.0
 11
0.0141714282369975
 21
-0.0141714282369756
 31
0.0
210
0.0
220
0.0
230
1.0
 40
0.9979329808706888
 41
5.498396131368544
 42
7.067974482990662
  0
LINE
  5
9E1
330
23
100
AcDbEntity
  8
SANINDUSA
100
AcDbLine
 10
2052.647026136768
 20
1697.749148955029
 30
0.0
 11
2054.166578670145
 21
1697.749148955031
 31
0.0
  0
ARC
  5
9E3
330
23
100
AcDbEntity
  8
SANINDUSA
100
AcDbCircle
 10
2054.251921436578
 20
1697.683794009946
 30
0.0
 40
0.0050010226247753
100
AcDbArc
 50
270.0204370247063
 51
359.979562988326
  0
LINE
  5
9E4
330
23
100
AcDbEntity
  8
SANINDUSA
100
AcDbLine
 10
2054.251923220409
 20
1697.678792987639
 30
0.0
 11
2052.561681591312
 21
1697.678792987639
 31
0.0
  0
ARC
  5
9E6
330
23
100
AcDbEntity
  8
SANINDUSA
100
AcDbCircle
 10
2052.561683375142
 20
1697.683794009946
 30
0.0
 40
0.0050010226247746
100
AcDbArc
 50
180.0204370116741
 51
269.9795629752937
  0
ARC
  5
A2C
330
23
100
AcDbEntity
  8
SANINDUSA
100
AcDbCircle
 10
2052.669888429254
 20
1697.796707551428
 30
0.0
 40
0.0108877701390786
100
AcDbArc
 50
179.9875034900254
 51
269.9877384679862
  0
ARC
  5
A2F
330
23
100
AcDbEntity
  8
SANINDUSA
100
AcDbCircle
 10
2052.669888474838
 20
1698.461118484335
 30
0.0
 40
0.0108878157128447
100
AcDbArc
 50
90.01250136925134
 51
180.0122566857646
  0
LINE
  5
A32
330
23
100
AcDbEntity
  8
SANINDUSA
100
AcDbLine
 10
2052.659000659375
 20
1697.796709926108
 30
0.0
 11
2052.659000659375
 21
1698.461116155218
 31
0.0
  0
LINE
  5
A37
330
23
100
AcDbEntity
  8
SANINDUSA
100
AcDbLine
 10
2052.669886099225
 20
1698.472006299789
 30
0.0
 11
2053.186896351904
 21
1698.472006299789
 31
0.0
  0
LINE
  5
A39
330
23
100
AcDbEntity
  8
SANINDUSA
100
AcDbLine
 10
2053.186884398396
 20
1697.785819781538
 30
0.0
 11
2052.669886099225
 21
1697.785819781538
 31
0.0
  0
LWPOLYLINE
  5
A48
330
23
100
AcDbEntity
  8
SANINDUSA
100
AcDbPolyline
 90
        3
 70
   128
 43
0.0
 10
2053.19887200234
 20
1697.786208882972
 10
2053.19291657839
 20
1697.785930754645
 10
2053.186884398396
 20
1697.785819781538
  0
LWPOLYLINE
  5
A49
330
23
100
AcDbEntity
  8
SANINDUSA
100
AcDbPolyline
 90
        9
 70
   128
 43
0.0
 10
2053.209962322002
 20
1698.461154807883
 10
2053.209985860112
 20
1698.420680064446
 10
2053.209925695334
 20
1698.324681145205
 10
2053.209810146092
 20
1698.228682078459
 10
2053.209770759045
 20
1698.13268427974
 10
2053.209801476208
 20
1698.036684404844
 10
2053.209910081388
 20
1697.940681386983
 10
2053.209981781526
 20
1697.844677416427
 10
2053.209959610963
 20
1697.796669556539
  0
LWPOLYLINE
  5
A4C
330
23
100
AcDbEntity
  8
SANINDUSA
100
AcDbPolyline
 90
        3
 70
   128
 43
0.0
 10
2053.186896351904
 20
1698.472006299789
 10
2053.195962121916
 20
1698.4717675919
 10
2053.198872158956
 20
1698.471617835378
  0
ARC
  5
A4E
330
23
100
AcDbEntity
  8
SANINDUSA
100
AcDbCircle
 10
2053.199767208074
 20
1698.461150921115
 30
0.0
 40
0.0101951146686321
100
AcDbArc
 50
0.0218433490337565
 51
73.08829094273548
  0
ARC
  5
A4F
330
23
100
AcDbEntity
  8
SANINDUSA
100
AcDbCircle
 10
2053.199767517141
 20
1697.796673086929
 30
0.0
 40
0.0101920944339797
100
AcDbArc
 50
286.9201663986593
 51
359.9801535924314
  0
LINE
  5
A51
330
23
100
AcDbEntity
  8
SANINDUSA
100
AcDbLine
 10
2053.201143392057
 20
1697.786495703956
 30
0.0
 11
2053.19887200234
 21
1697.786208882972
 31
0.0
  0
LINE
  5
A52
330
23
100
AcDbEntity
  8
SANINDUSA
100
AcDbLine
 10
2053.198872158956
 20
1698.471617835378
 30
0.0
 11
2053.201136288739
 21
1698.471332660703
 31
0.0
  0
LINE
  5
A53
330
23
100
AcDbEntity
  8
SANINDUSA
100
AcDbLine
 10
2053.201136288739
 20
1698.471332660703
 30
0.0
 11
2053.202732943722
 21
1698.470905139442
 31
0.0
  0
LINE
  5
A54
330
23
100
AcDbEntity
  8
SANINDUSA
100
AcDbLine
 10
2053.202733813558
 20
1697.786922195969
 30
0.0
 11
2053.201143392057
 21
1697.786495703956
 31
0.0
  0
CIRCLE
  5
A74
330
23
100
AcDbEntity
  8
SANINDUSA
100
AcDbCircle
 10
2053.336482857066
 20
1698.408909179778
 30
0.0
 40
0.010748078335469
  0
CIRCLE
  5
A76
330
23
100
AcDbEntity
  8
SANINDUSA
100
AcDbCircle
 10
2053.336482066904
 20
1697.84891556114
 30
0.0
 40
0.0107478442412297
  0
CIRCLE
  5
A78
330
23
100
AcDbEntity
  8
SANINDUSA
100
AcDbCircle
 10
2053.336474476868
 20
1698.328936948788
 30
0.0
 40
0.0107479098696029
  0
CIRCLE
  5
A7A
330
23
100
AcDbEntity
  8
SANINDUSA
100
AcDbCircle
 10
2053.336472059926
 20
1697.92888842184
 30
0.0
 40
0.010748857067711
  0
CIRCLE
  5
A7C
330
23
100
AcDbEntity
  8
SANINDUSA
100
AcDbCircle
 10
2053.416474657105
 20
1698.408906201083
 30
0.0
 40
0.0107478117118693
  0
CIRCLE
  5
A7E
330
23
100
AcDbEntity
  8
SANINDUSA
100
AcDbCircle
 10
2053.416473943748
 20
1697.848918408586
 30
0.0
 40
0.0107474645197332
  0
CIRCLE
  5
A82
330
23
100
AcDbEntity
  8
SANINDUSA
100
AcDbCircle
 10
2053.41646778361
 20
1698.328938591302
 30
0.0
 40
0.0107474173452161
  0
CIRCLE
  5
A84
330
23
100
AcDbEntity
  8
SANINDUSA
100
AcDbCircle
 10
2053.416465261483
 20
1697.928886547893
 30
0.0
 40
0.0107483627442878
  0
CIRCLE
  5
AC5
330
23
100
AcDbEntity
  8
SANINDUSA
100
AcDbCircle
 10
2053.336442390894
 20
1698.248949872336
 30
0.0
 40
0.010749327233111
  0
CIRCLE
  5
AC7
330
23
100
AcDbEntity
  8
SANINDUSA
100
AcDbCircle
 10
2053.336439388613
 20
1698.008877102767
 30
0.0
 40
0.010750977270129
  0
CIRCLE
  5
AC9
330
23
100
AcDbEntity
  8
SANINDUSA
100
AcDbCircle
 10
2053.496463938015
 20
1698.408903352611
 30
0.0
 40
0.0107475947840562
  0
CIRCLE
  5
ACB
330
23
100
AcDbEntity
  8
SANINDUSA
100
AcDbCircle
 10
2053.496463319844
 20
1697.848921270555
 30
0.0
 40
0.0107471726816886
  0
CIRCLE
  5
ACD
330
23
100
AcDbEntity
  8
SANINDUSA
100
AcDbCircle
 10
2053.496459183867
 20
1698.328939037963
 30
0.0
 40
0.0107469170664786
  0
CIRCLE
  5
ACF
330
23
100
AcDbEntity
  8
SANINDUSA
100
AcDbCircle
 10
2053.496456700381
 20
1697.928885934884
 30
0.0
 40
0.010747784041664
  0
CIRCLE
  5
AD1
330
23
100
AcDbEntity
  8
SANINDUSA
100
AcDbCircle
 10
2053.416432370768
 20
1698.24895631658
 30
0.0
 40
0.0107489909333018
  0
CIRCLE
  5
AD3
330
23
100
AcDbEntity
  8
SANINDUSA
100
AcDbCircle
 10
2053.416428983392
 20
1698.008870574484
 30
0.0
 40
0.0107508708130146
  0
CIRCLE
  5
AD5
330
23
100
AcDbEntity
  8
SANINDUSA
100
AcDbCircle
 10
2053.336409656629
 20
1698.168932701524
 30
0.0
 40
0.0107519864243563
  0
CIRCLE
  5
AD7
330
23
100
AcDbEntity
  8
SANINDUSA
100
AcDbCircle
 10
2053.336408184488
 20
1698.08889611721
 30
0.0
 40
0.0107528998923702
  0
CIRCLE
  5
AD9
330
23
100
AcDbEntity
  8
SANINDUSA
100
AcDbCircle
 10
2053.576448699681
 20
1698.408901617365
 30
0.0
 40
0.0107474945161695
  0
CIRCLE
  5
ADB
330
23
100
AcDbEntity
  8
SANINDUSA
100
AcDbCircle
 10
2053.57644815294
 20
1697.848923230905
 30
0.0
 40
0.0107470928370665
  0
CIRCLE
  5
ADD
330
23
100
AcDbEntity
  8
SANINDUSA
100
AcDbCircle
 10
2053.576446293702
 20
1698.328937749379
 30
0.0
 40
0.0107464984621073
  0
CIRCLE
  5
ADF
330
23
100
AcDbEntity
  8
SANINDUSA
100
AcDbCircle
 10
2053.576444044207
 20
1697.928887191622
 30
0.0
 40
0.010747191223274
  0
CIRCLE
  5
AE1
330
23
100
AcDbEntity
  8
SANINDUSA
100
AcDbCircle
 10
2053.496422133337
 20
1698.248962231856
 30
0.0
 40
0.0107485354315965
  0
CIRCLE
  5
AE3
330
23
100
AcDbEntity
  8
SANINDUSA
100
AcDbCircle
 10
2053.496418470359
 20
1698.008864522826
 30
0.0
 40
0.0107505709649175
  0
CIRCLE
  5
AE5
330
23
100
AcDbEntity
  8
SANINDUSA
100
AcDbCircle
 10
2053.416393241582
 20
1698.168937243818
 30
0.0
 40
0.0107524439951968
  0
CIRCLE
  5
AE7
330
23
100
AcDbEntity
  8
SANINDUSA
100
AcDbCircle
 10
2053.416391479032
 20
1698.088891969601
 30
0.0
 40
0.0107535663564286
  0
CIRCLE
  5
AE9
330
23
100
AcDbEntity
  8
SANINDUSA
100
AcDbCircle
 10
2053.656426900392
 20
1698.408902361913
 30
0.0
 40
0.0107475822072366
  0
CIRCLE
  5
AEB
330
23
100
AcDbEntity
  8
SANINDUSA
100
AcDbCircle
 10
2053.656426341519
 20
1697.848922979572
 30
0.0
 40
0.010747361116989
  0
CIRCLE
  5
AED
330
23
100
AcDbEntity
  8
SANINDUSA
100
AcDbCircle
 10
2053.656426216279
 20
1698.32893432938
 30
0.0
 40
0.0107462939841581
  0
CIRCLE
  5
AEF
330
23
100
AcDbEntity
  8
SANINDUSA
100
AcDbCircle
 10
2053.656424427966
 20
1697.928890812337
 30
0.0
 40
0.0107467124647265
  0
CIRCLE
  5
AF1
330
23
100
AcDbEntity
  8
SANINDUSA
100
AcDbCircle
 10
2053.576410395557
 20
1698.248966405887
 30
0.0
 40
0.0107479746548437
  0
CIRCLE
  5
AF3
330
23
100
AcDbEntity
  8
SANINDUSA
100
AcDbCircle
 10
2053.576406663058
 20
1698.008860163534
 30
0.0
 40
0.0107500270021192
  0
CIRCLE
  5
AF5
330
23
100
AcDbEntity
  8
SANINDUSA
100
AcDbCircle
 10
2053.496376885593
 20
1698.168942187919
 30
0.0
 40
0.0107529176094266
  0
CIRCLE
  5
AF7
330
23
100
AcDbEntity
  8
SANINDUSA
100
AcDbCircle
 10
2053.496374824014
 20
1698.088887421353
 30
0.0
 40
0.0107542598261025
  0
CIRCLE
  5
AF9
330
23
100
AcDbEntity
  8
SANINDUSA
100
AcDbCircle
 10
2053.736397226191
 20
1698.408907281784
 30
0.0
 40
0.0107479310558731
  0
CIRCLE
  5
AFB
330
23
100
AcDbEntity
  8
SANINDUSA
100
AcDbCircle
 10
2053.736396474085
 20
1697.848918811935
 30
0.0
 40
0.0107481402218671
  0
CIRCLE
  5
AFD
330
23
100
AcDbEntity
  8
SANINDUSA
100
AcDbCircle
 10
2053.65639529292
 20
1698.248967404686
 30
0.0
 40
0.01074733483324
  0
CIRCLE
  5
AFF
330
23
100
AcDbEntity
  8
SANINDUSA
100
AcDbCircle
 10
2053.736396447753
 20
1698.328928946384
 30
0.0
 40
0.0107464637281192
  0
CIRCLE
  5
B01
330
23
100
AcDbEntity
  8
SANINDUSA
100
AcDbCircle
 10
2053.736395314279
 20
1697.928896690294
 30
0.0
 40
0.0107465589974131
  0
CIRCLE
  5
B03
330
23
100
AcDbEntity
  8
SANINDUSA
100
AcDbCircle
 10
2053.656391802623
 20
1698.008858938238
 30
0.0
 40
0.0107492070533009
  0
CIRCLE
  5
B05
330
23
100
AcDbEntity
  8
SANINDUSA
100
AcDbCircle
 10
2053.576360494088
 20
1698.168947208358
 30
0.0
 40
0.0107533459205027
  0
CIRCLE
  5
B07
330
23
100
AcDbEntity
  8
SANINDUSA
100
AcDbCircle
 10
2053.57635814658
 20
1698.088882761936
 30
0.0
 40
0.0107549045620849
  0
CIRCLE
  5
B09
330
23
100
AcDbEntity
  8
SANINDUSA
100
AcDbCircle
 10
2053.736374377825
 20
1698.24896358941
 30
0.0
 40
0.0107467253427318
  0
CIRCLE
  5
B0B
330
23
100
AcDbEntity
  8
SANINDUSA
100
AcDbCircle
 10
2053.736371553207
 20
1698.008862560698
 30
0.0
 40
0.0107481622027032
  0
CIRCLE
  5
B0D
330
23
100
AcDbEntity
  8
SANINDUSA
100
AcDbCircle
 10
2053.81636111988
 20
1698.408917467973
 30
0.0
 40
0.0107486119585709
  0
CIRCLE
  5
B0F
330
23
100
AcDbEntity
  8
SANINDUSA
100
AcDbCircle
 10
2053.816359993553
 20
1697.848909430144
 30
0.0
 40
0.0107494603536865
  0
CIRCLE
  5
B11
330
23
100
AcDbEntity
  8
SANINDUSA
100
AcDbCircle
 10
2053.81635694548
 20
1698.328922407907
 30
0.0
 40
0.0107471810843719
  0
CIRCLE
  5
B13
330
23
100
AcDbEntity
  8
SANINDUSA
100
AcDbCircle
 10
2053.816356555542
 20
1697.928903969741
 30
0.0
 40
0.0107469536821836
  0
CIRCLE
  5
B15
330
23
100
AcDbEntity
  8
SANINDUSA
100
AcDbCircle
 10
2053.656343728144
 20
1698.168951187794
 30
0.0
 40
0.0107536670718806
  0
CIRCLE
  5
B17
330
23
100
AcDbEntity
  8
SANINDUSA
100
AcDbCircle
 10
2053.656341232461
 20
1698.088879036546
 30
0.0
 40
0.0107553261253563
  0
CIRCLE
  5
B19
330
23
100
AcDbEntity
  8
SANINDUSA
100
AcDbCircle
 10
2053.816345540449
 20
1698.248955750302
 30
0.0
 40
0.0107461842241709
  0
CIRCLE
  5
B1B
330
23
100
AcDbEntity
  8
SANINDUSA
100
AcDbCircle
 10
2053.816343610018
 20
1698.008870199162
 30
0.0
 40
0.0107472055123122
  0
CIRCLE
  5
B1D
330
23
100
AcDbEntity
  8
SANINDUSA
100
AcDbCircle
 10
2053.736326515278
 20
1698.168952861185
 30
0.0
 40
0.0107537184135978
  0
CIRCLE
  5
B1F
330
23
100
AcDbEntity
  8
SANINDUSA
100
AcDbCircle
 10
2053.736324055063
 20
1698.088877401454
 30
0.0
 40
0.0107553401548992
  0
CIRCLE
  5
B21
330
23
100
AcDbEntity
  8
SANINDUSA
100
AcDbCircle
 10
2053.896326694962
 20
1698.408930428669
 30
0.0
 40
0.0107496975693849
  0
CIRCLE
  5
B23
330
23
100
AcDbEntity
  8
SANINDUSA
100
AcDbCircle
 10
2053.896325368789
 20
1697.848896831307
 30
0.0
 40
0.0107509736148211
  0
CIRCLE
  5
B25
330
23
100
AcDbEntity
  8
SANINDUSA
100
AcDbCircle
 10
2053.896315585647
 20
1698.328917071646
 30
0.0
 40
0.0107486858708079
  0
CIRCLE
  5
B27
330
23
100
AcDbEntity
  8
SANINDUSA
100
AcDbCircle
 10
2053.896315634021
 20
1697.928909923206
 30
0.0
 40
0.0107484154945319
  0
CIRCLE
  5
B29
330
23
100
AcDbEntity
  8
SANINDUSA
100
AcDbCircle
 10
2053.896313270501
 20
1698.248946607655
 30
0.0
 40
0.0107458028084509
  0
CIRCLE
  5
B2B
330
23
100
AcDbEntity
  8
SANINDUSA
100
AcDbCircle
 10
2053.816306457678
 20
1698.168948191237
 30
0.0
 40
0.0107535187557567
  0
CIRCLE
  5
B2D
330
23
100
AcDbEntity
  8
SANINDUSA
100
AcDbCircle
 10
2053.896312407013
 20
1698.008878860063
 30
0.0
 40
0.0107464354756585
  0
CIRCLE
  5
B2F
330
23
100
AcDbEntity
  8
SANINDUSA
100
AcDbCircle
 10
2053.81630480057
 20
1698.088881898481
 30
0.0
 40
0.0107544409171237
  0
CIRCLE
  5
B31
330
23
100
AcDbEntity
  8
SANINDUSA
100
AcDbCircle
 10
2053.896280244259
 20
1698.168933470488
 30
0.0
 40
0.010754367960456
  0
CIRCLE
  5
B33
330
23
100
AcDbEntity
  8
SANINDUSA
100
AcDbCircle
 10
2053.896280331549
 20
1698.088896950938
 30
0.0
 40
0.0107538967763078
  0
LWPOLYLINE
  5
B34
330
23
100
AcDbEntity
  8
SANINDUSA
100
AcDbPolyline
 90
       75
 70
   128
 43
0.0
 10
2054.150784443371
 20
1698.128913039616
 10
2054.150525930651
 20
1698.135002345179
 10
2054.149766624718
 20
1698.141091655417
 10
2054.148508152869
 20
1698.147125788976
 10
2054.146755735778
 20
1698.153035155458
 10
2054.144479527318
 20
1698.158857511108
 10
2054.141673729194
 20
1698.164545701501
 10
2054.138492685455
 20
1698.169813820393
 10
2054.134883855064
 20
1698.17479866488
 10
2054.130811499871
 20
1698.179529351787
 10
2054.126286135181
 20
1698.183959893251
 10
2054.121553689525
 20
1698.187868173615
 10
2054.116476833195
 20
1698.191393062289
 10
2054.111003338842
 20
1698.194544164759
 10
2054.105237839266
 20
1698.197234724738
 10
2054.099440605626
 20
1698.199362828809
 10
2054.093486462801
 20
1698.20100144775
 10
2054.087329248303
 20
1698.202150795187
 10
2054.081005985295
 20
1698.202781691084
 10
2054.074845801984
 20
1698.20287369114
 10
2054.068699211272
 20
1698.202454477964
 10
2054.062522879791
 20
1698.201508660027
 10
2054.056361167617
 20
1698.200020068259
 10
2054.050543298235
 20
1698.198082670307
 10
2054.044867594386
 20
1698.195650760289
 10
2054.039298395653
 20
1698.192684737389
 10
2054.033964592963
 20
1698.189227192885
 10
2054.029098441188
 20
1698.185451797474
 10
2054.024532671071
 20
1698.181254006736
 10
2054.020246306508
 20
1698.176584626236
 10
2054.016347498039
 20
1698.171527646763
 10
2054.013024221637
 20
1698.166368806996
 10
2054.010137295318
 20
1698.160953663643
 10
2054.007675995548
 20
1698.155238793686
 10
2054.005675776615
 20
1698.149253234558
 10
2054.004432219441
 20
1698.144293202278
 10
2054.003533821946
 20
1698.139259251687
 10
2054.002982614921
 20
1698.134099174769
 10
2054.002798037455
 20
1698.128913053981
 10
2054.003467094901
 20
1698.119048225524
 10
2054.005503888746
 20
1698.109183422875
 10
2054.00739145343
 20
1698.103347961295
 10
2054.009770603938
 20
1698.097649404508
 10
2054.012679960639
 20
1698.092052260909
 10
2054.016079817105
 20
1698.086684215335
 10
2054.019803487152
 20
1698.081776019726
 10
2054.023921198364
 20
1698.077193396275
 10
2054.028471986635
 20
1698.072911900784
 10
2054.033441274029
 20
1698.068976439406
 10
2054.038589026903
 20
1698.065566430077
 10
2054.044003139214
 20
1698.062597448489
 10
2054.049729038363
 20
1698.060059032444
 10
2054.055737497118
 20
1698.057988801756
 10
2054.061687960234
 20
1698.05648689315
 10
2054.067784955502
 20
1698.055478228967
 10
2054.074079555403
 20
1698.054976295915
 10
2054.080440495873
 20
1698.055014531783
 10
2054.08658152637
 20
1698.055572532737
 10
2054.092655102309
 20
1698.056638008969
 10
2054.098702736522
 20
1698.058230942188
 10
2054.104678600341
 20
1698.060362466113
 10
2054.110277983174
 20
1698.062911148975
 10
2054.115646629913
 20
1698.065915552624
 10
2054.120817083372
 20
1698.069408132275
 10
2054.125742446096
 20
1698.073384374684
 10
2054.130199347156
 20
1698.077654118467
 10
2054.134284552302
 20
1698.082280752817
 10
2054.138018268788
 20
1698.087306337733
 10
2054.141356990757
 20
1698.0927109214
 10
2054.144135943621
 20
1698.098203434386
 10
2054.146460918913
 20
1698.103950018738
 10
2054.148329574093
 20
1698.110004363453
 10
2054.149682867685
 20
1698.116242380218
 10
2054.150500670871
 20
1698.12253154095
 10
2054.150784443371
 20
1698.128913039616
  0
CIRCLE
  5
B36
330
23
100
AcDbEntity
  8
SANINDUSA
100
AcDbCircle
 10
2054.076802405861
 20
1698.128913040664
 30
0.0
 40
0.05
  0
ARC
  5
B38
330
23
100
AcDbEntity
  8
SANINDUSA
100
AcDbCircle
 10
2055.363842496045
 20
1698.122968626662
 30
0.0
 40
0.0208999799070886
100
AcDbArc
 50
270.5928577058853
 51
358.0161858921088
  0
ARC
  5
B39
330
23
100
AcDbEntity
  8
SANINDUSA
100
AcDbCircle
 10
2054.644047424181
 20
1698.122968660236
 30
0.0
 40
0.0208999761671718
100
AcDbArc
 50
181.9838308711247
 51
269.366471073441
  0
LINE
  5
B3A
330
23
100
AcDbEntity
  8
SANINDUSA
100
AcDbLine
 10
2054.927766960629
 20
1698.098777164158
 30
0.0
 11
2054.941074693448
 21
1698.089458989321
 31
0.0
  0
LINE
  5
B3B
330
23
100
AcDbEntity
  8
SANINDUSA
100
AcDbLine
 10
2055.066815231691
 20
1698.089458989321
 30
0.0
 11
2055.080131248083
 21
1698.098782964377
 31
0.0
  0
LINE
  5
B3C
330
23
100
AcDbEntity
  8
SANINDUSA
100
AcDbLine
 10
2054.941074693448
 20
1698.089458989321
 30
0.0
 11
2054.952249194307
 21
1698.077475804249
 31
0.0
  0
LINE
  5
B3D
330
23
100
AcDbEntity
  8
SANINDUSA
100
AcDbLine
 10
2055.055640730833
 20
1698.077475804249
 30
0.0
 11
2055.066815231691
 21
1698.089458989321
 31
0.0
  0
LINE
  5
B40
330
23
100
AcDbEntity
  8
SANINDUSA
100
AcDbLine
 10
2054.553246759973
 20
1698.17151548334
 30
0.0
 11
2054.553824909546
 21
1698.204637650186
 31
0.0
  0
LINE
  5
B41
330
23
100
AcDbEntity
  8
SANINDUSA
100
AcDbLine
 10
2054.553246759973
 20
1698.17151548334
 30
0.0
 11
2054.558245998448
 21
1698.17151548334
 31
0.0
  0
LINE
  5
B43
330
23
100
AcDbEntity
  8
SANINDUSA
100
AcDbLine
 10
2055.454065015594
 20
1698.204637650186
 30
0.0
 11
2055.454643165167
 21
1698.17151548334
 31
0.0
  0
LINE
  5
B45
330
23
100
AcDbEntity
  8
SANINDUSA
100
AcDbLine
 10
2055.449643926691
 20
1698.17151548334
 30
0.0
 11
2055.454643165167
 21
1698.17151548334
 31
0.0
  0
LINE
  5
B47
330
23
100
AcDbEntity
  8
SANINDUSA
100
AcDbLine
 10
2054.558245998448
 20
1698.17151548334
 30
0.0
 11
2055.449643926691
 21
1698.17151548334
 31
0.0
  0
LINE
  5
B49
330
23
100
AcDbEntity
  8
SANINDUSA
100
AcDbLine
 10
2054.560823843412
 20
1698.211515483341
 30
0.0
 11
2055.447066081728
 21
1698.211515483341
 31
0.0
  0
ARC
  5
B4B
330
23
100
AcDbEntity
  8
SANINDUSA
100
AcDbCircle
 10
2055.447066081728
 20
1698.204515483341
 30
0.0
 40
0.0070000000000002
100
AcDbArc
 50
0.9999999966945132
 51
90.0
  0
ARC
  5
B4C
330
23
100
AcDbEntity
  8
SANINDUSA
100
AcDbCircle
 10
2054.560823843412
 20
1698.204515483341
 30
0.0
 40
0.0070000000000002
100
AcDbArc
 50
90.0
 51
179.0000000033055
  0
LINE
  5
B51
330
23
100
AcDbEntity
  8
SANINDUSA
100
AcDbLine
 10
2055.384839841959
 20
1698.125392013636
 30
0.0
 11
2055.386450509013
 21
1698.17151548334
 31
0.0
  0
LINE
  5
B54
330
23
100
AcDbEntity
  8
SANINDUSA
100
AcDbLine
 10
2054.621439416129
 20
1698.17151548334
 30
0.0
 11
2054.6230500826
 21
1698.125392030333
 31
0.0
  0
LINE
  5
B5A
330
23
100
AcDbEntity
  8
SANINDUSA
100
AcDbLine
 10
2055.384731878644
 20
1698.122300348783
 30
0.0
 11
2055.384839841959
 21
1698.125392013636
 31
0.0
  0
LINE
  5
B5B
330
23
100
AcDbEntity
  8
SANINDUSA
100
AcDbLine
 10
2054.6230500826
 20
1698.125392030333
 30
0.0
 11
2054.623155369989
 21
1698.122376993988
 31
0.0
  0
LWPOLYLINE
  5
B5C
330
23
100
AcDbEntity
  8
SANINDUSA
100
AcDbPolyline
 90
       38
 70
   128
 43
0.0
 10
2054.92778966116
 20
1698.098809583877
 10
2054.927812211495
 20
1698.098810041748
 10
2054.928383825437
 20
1698.098811437327
 10
2054.929487376861
 20
1698.098813656029
 10
2054.931126124179
 20
1698.09881646827
 10
2054.933322220608
 20
1698.098819685294
 10
2054.93593772036
 20
1698.098822832439
 10
2054.939049402667
 20
1698.098825810808
 10
2054.942641623307
 20
1698.098828495917
 10
2054.946738111238
 20
1698.098830550329
 10
2054.951120538357
 20
1698.098831573383
 10
2054.955912453007
 20
1698.098831529009
 10
2054.961080841785
 20
1698.098830263296
 10
2054.966648677008
 20
1698.098827369698
 10
2054.972307164607
 20
1698.098822626596
 10
2054.978227377285
 20
1698.098815888006
 10
2054.984464628026
 20
1698.098807432225
 10
2054.990891144161
 20
1698.098800018798
 10
2054.997175403791
 20
1698.098800101285
 10
2055.003560532981
 20
1698.098805856933
 10
2055.009995794765
 20
1698.098800854733
 10
2055.016491856321
 20
1698.098799964555
 10
2055.022855526615
 20
1698.098807016353
 10
2055.029127705261
 20
1698.098815773047
 10
2055.035352401055
 20
1698.098823109819
 10
2055.041380227563
 20
1698.098828294502
 10
2055.046588399145
 20
1698.098831087708
 10
2055.053944992291
 20
1698.098832641727
 10
2055.060655403459
 20
1698.098831662646
 10
2055.064695817623
 20
1698.09882971295
 10
2055.068338364332
 20
1698.098826995459
 10
2055.071559855552
 20
1698.098823871008
 10
2055.07433186437
 20
1698.098820455961
 10
2055.076518097743
 20
1698.098817154383
 10
2055.078215313162
 20
1698.098814157553
 10
2055.079396910113
 20
1698.098811734726
 10
2055.080046947902
 20
1698.098810147181
 10
2055.080112604983
 20
1698.098809589484
  0
LINE
  5
B5F
330
23
100
AcDbEntity
  8
SANINDUSA
100
AcDbLine
 10
2055.00394496257
 20
1698.077475804249
 30
0.0
 11
2055.055640730833
 21
1698.077475804249
 31
0.0
  0
LINE
  5
B60
330
23
100
AcDbEntity
  8
SANINDUSA
100
AcDbLine
 10
2054.952249194307
 20
1698.077475804249
 30
0.0
 11
2055.00394496257
 21
1698.077475804249
 31
0.0
  0
LINE
  5
BF3
330
23
100
AcDbEntity
  8
SANINDUSA
100
AcDbLine
 10
2059.017486457394
 20
1698.098821497494
 30
0.0
 11
2059.030857504779
 21
1698.089458989321
 31
0.0
  0
LINE
  5
BF4
330
23
100
AcDbEntity
  8
SANINDUSA
100
AcDbLine
 10
2059.156598043023
 20
1698.089458989321
 30
0.0
 11
2059.169946759514
 21
1698.098805861234
 31
0.0
  0
ARC
  5
BF5
330
23
100
AcDbEntity
  8
SANINDUSA
100
AcDbCircle
 10
2059.01742909975
 20
1698.098739582289
 30
0.0
 40
0.0001000000031243
100
AcDbArc
 50
55.00000000459787
 51
88.82131574854918
  0
ARC
  5
BF6
330
23
100
AcDbEntity
  8
SANINDUSA
100
AcDbCircle
 10
2059.170004117157
 20
1698.098723946029
 30
0.0
 40
0.0001000000000023
100
AcDbArc
 50
90.9391883796526
 51
124.9999999954021
  0
LWPOLYLINE
  5
BF7
330
23
100
AcDbEntity
  8
SANINDUSA
100
AcDbPolyline
 90
        3
 70
   128
 43
0.0
 10
2059.017511381634
 20
1698.102738735912
 10
2059.018697315987
 20
1698.102533212158
 10
2059.019723405496
 20
1698.102016190467
  0
LWPOLYLINE
  5
BF8
330
23
100
AcDbEntity
  8
SANINDUSA
100
AcDbPolyline
 90
       38
 70
   128
 43
0.0
 10
2059.017511381634
 20
1698.102738735912
 10
2059.017690970323
 20
1698.102736945908
 10
2059.018227648251
 20
1698.102733002238
 10
2059.019137795477
 20
1698.102726983161
 10
2059.020421946185
 20
1698.102720916882
 10
2059.022386631168
 20
1698.102715403881
 10
2059.024858344987
 20
1698.102712194106
 10
2059.02787613504
 20
1698.102711239282
 10
2059.031396261737
 20
1698.102711918059
 10
2059.035269107006
 20
1698.102713598397
 10
2059.039579284853
 20
1698.102716006056
 10
2059.044377626302
 20
1698.102718849507
 10
2059.04957761411
 20
1698.102721623157
 10
2059.054879560517
 20
1698.102723877321
 10
2059.060487061987
 20
1698.102725592998
 10
2059.066454345453
 20
1698.102726673661
 10
2059.072665364815
 20
1698.102727048163
 10
2059.078789580434
 20
1698.102726947428
 10
2059.085059276877
 20
1698.102726833835
 10
2059.091526980207
 20
1698.102727146937
 10
2059.098058320685
 20
1698.102727948251
 10
2059.104343120929
 20
1698.102729395036
 10
2059.110597599198
 20
1698.10273164351
 10
2059.116866589912
 20
1698.102734497031
 10
2059.123010943816
 20
1698.102737675846
 10
2059.128737140914
 20
1698.102740711772
 10
2059.134259376747
 20
1698.102743519232
 10
2059.13960952197
 20
1698.102746020925
 10
2059.144661334501
 20
1698.102747805038
 10
2059.149168533718
 20
1698.102748569574
 10
2059.153324401296
 20
1698.102748340913
 10
2059.157144246096
 20
1698.102746950522
 10
2059.160529777212
 20
1698.102744010586
 10
2059.163330021311
 20
1698.102739344722
 10
2059.165673257771
 20
1698.102732812903
 10
2059.167556588137
 20
1698.102724629752
 10
2059.168913125248
 20
1698.102717819809
 10
2059.169687756135
 20
1698.10271841072
  0
LWPOLYLINE
  5
BF9
330
23
100
AcDbEntity
  8
SANINDUSA
100
AcDbPolyline
 90
        3
 70
   128
 43
0.0
 10
2059.167709811411
 20
1698.102000554206
 10
2059.168788874832
 20
1698.102534875849
 10
2059.169938552374
 20
1698.10272340865
  0
LWPOLYLINE
  5
BFB
330
23
100
AcDbEntity
  8
SANINDUSA
100
AcDbPolyline
 90
        4
 70
   128
 43
0.0
 10
2059.017431156797
 20
1698.09883956113
 10
2058.895096098513
 20
1698.101402057415
 10
2058.695892367736
 20
1698.105574916609
 10
2058.243254657721
 20
1698.115056351257
  0
LWPOLYLINE
  5
BFC
330
23
100
AcDbEntity
  8
SANINDUSA
100
AcDbPolyline
 90
        3
 70
   128
 43
0.0
 10
2059.188809708619
 20
1698.101366184688
 10
2059.179548262014
 20
1698.099545249548
 10
2059.170002478038
 20
1698.098823932595
  0
LINE
  5
BFD
330
23
100
AcDbEntity
  8
SANINDUSA
100
AcDbLine
 10
2059.019723405496
 20
1698.102016190467
 30
0.0
 11
2059.033430228643
 21
1698.092418569575
 31
0.0
  0
LINE
  5
BFE
330
23
100
AcDbEntity
  8
SANINDUSA
100
AcDbLine
 10
2059.154025319159
 20
1698.092418569575
 30
0.0
 11
2059.167709811411
 21
1698.102000554206
 31
0.0
  0
LWPOLYLINE
  5
C00
330
23
100
AcDbEntity
  8
SANINDUSA
100
AcDbPolyline
 90
        3
 70
   128
 43
0.0
 10
2059.017511381634
 20
1698.102738735912
 10
2058.913785390604
 20
1698.104911409028
 10
2058.243336334531
 20
1698.118955496034
  0
LWPOLYLINE
  5
C04
330
23
100
AcDbEntity
  8
SANINDUSA
100
AcDbPolyline
 90
        3
 70
   128
 43
0.0
 10
2059.187833365732
 20
1698.105141996471
 10
2059.179021253429
 20
1698.103409478494
 10
2059.169938552374
 20
1698.10272340865
  0
ARC
  5
C60
330
23
100
AcDbEntity
  8
SANINDUSA
100
AcDbCircle
 10
2058.243692361955
 20
1698.135951767737
 30
0.0
 40
0.0209000003559302
100
AcDbArc
 50
181.1935768926131
 51
268.799979030157
  0
ARC
  5
C61
330
23
100
AcDbEntity
  8
SANINDUSA
100
AcDbCircle
 10
2058.219697569001
 20
1698.13545183952
 30
0.0
 40
0.0031000000000744
100
AcDbArc
 50
1.193577856442792
 51
88.99999999005256
  0
ARC
  5
C63
330
23
100
AcDbEntity
  8
SANINDUSA
100
AcDbCircle
 10
2058.219697569002
 20
1698.135451839519
 30
0.0
 40
0.0070000000001673
100
AcDbArc
 50
1.193577882492242
 51
88.99999999005256
  0
ARC
  5
C64
330
23
100
AcDbEntity
  8
SANINDUSA
100
AcDbCircle
 10
2058.243695922815
 20
1698.13595532834
 30
0.0
 40
0.0170036349696719
100
AcDbArc
 50
181.2053219934002
 51
268.7882339929279
  0
ARC
  5
C65
330
23
100
AcDbEntity
  8
SANINDUSA
100
AcDbCircle
 10
2059.183577512096
 20
1698.121600663207
 30
0.0
 40
0.0209000000339054
100
AcDbArc
 50
284.4978888546888
 51
358.0000000353052
  0
LINE
  5
C66
330
23
100
AcDbEntity
  8
SANINDUSA
100
AcDbLine
 10
2059.273847826925
 20
1698.204637650186
 30
0.0
 11
2059.274425976498
 21
1698.17151548334
 31
0.0
  0
LINE
  5
C67
330
23
100
AcDbEntity
  8
SANINDUSA
100
AcDbLine
 10
2059.274425976498
 20
1698.17151548334
 30
0.0
 11
2059.270525382419
 21
1698.17151548334
 31
0.0
  0
LINE
  5
C68
330
23
100
AcDbEntity
  8
SANINDUSA
100
AcDbLine
 10
2059.269948420914
 20
1698.204569585801
 30
0.0
 11
2059.270525382419
 21
1698.17151548334
 31
0.0
  0
ARC
  5
C69
330
23
100
AcDbEntity
  8
SANINDUSA
100
AcDbCircle
 10
2059.266848893059
 20
1698.204515483341
 30
0.0
 40
0.0031
100
AcDbArc
 50
0.9999999966945132
 51
90.0
  0
LINE
  5
C6A
330
23
100
AcDbEntity
  8
SANINDUSA
100
AcDbLine
 10
2059.210487590514
 20
1698.20761548334
 30
0.0
 11
2059.266848893059
 21
1698.20761548334
 31
0.0
  0
ARC
  5
C6B
330
23
100
AcDbEntity
  8
SANINDUSA
100
AcDbCircle
 10
2059.210487590514
 20
1698.204515483341
 30
0.0
 40
0.0031
100
AcDbArc
 50
90.0
 51
177.9999999962464
  0
LINE
  5
C6C
330
23
100
AcDbEntity
  8
SANINDUSA
100
AcDbLine
 10
2059.204464780415
 20
1698.120871263737
 30
0.0
 11
2059.207389478951
 21
1698.20462367178
 31
0.0
  0
LINE
  5
C6D
330
23
100
AcDbEntity
  8
SANINDUSA
100
AcDbLine
 10
2059.145423542163
 20
1698.077475804249
 30
0.0
 11
2059.156598043023
 21
1698.089458989321
 31
0.0
  0
LINE
  5
C6E
330
23
100
AcDbEntity
  8
SANINDUSA
100
AcDbLine
 10
2059.042032005638
 20
1698.077475804249
 30
0.0
 11
2059.145423542163
 21
1698.077475804249
 31
0.0
  0
LINE
  5
C6F
330
23
100
AcDbEntity
  8
SANINDUSA
100
AcDbLine
 10
2059.030857504779
 20
1698.089458989321
 30
0.0
 11
2059.042032005638
 21
1698.077475804249
 31
0.0
  0
ARC
  5
C70
330
23
100
AcDbEntity
  8
SANINDUSA
100
AcDbCircle
 10
2057.682253783256
 20
1698.144832955695
 30
0.0
 40
0.0031000000000002
100
AcDbArc
 50
88.99999999005256
 51
154.6842608331306
  0
ARC
  5
C71
330
23
100
AcDbEntity
  8
SANINDUSA
100
AcDbCircle
 10
2057.666886376213
 20
1698.152102261079
 30
0.0
 40
0.0139000000000001
100
AcDbArc
 50
268.9999999900526
 51
334.6842608331306
  0
LINE
  5
C72
330
23
100
AcDbEntity
  8
SANINDUSA
100
AcDbLine
 10
2057.666643787763
 20
1698.138204378116
 30
0.0
 11
2057.662201020081
 21
1698.138281926915
 31
0.0
  0
ARC
  5
C73
330
23
100
AcDbEntity
  8
SANINDUSA
100
AcDbCircle
 10
2057.662565775375
 20
1698.159178743743
 30
0.0
 40
0.0209000000000005
100
AcDbArc
 50
182.0000000037536
 51
268.9999999900526
  0
LINE
  5
C74
330
23
100
AcDbEntity
  8
SANINDUSA
100
AcDbLine
 10
2057.640066064042
 20
1698.20462367178
 30
0.0
 11
2057.64167850709
 21
1698.158449344262
 31
0.0
  0
ARC
  5
C75
330
23
100
AcDbEntity
  8
SANINDUSA
100
AcDbCircle
 10
2057.636967952479
 20
1698.204515483341
 30
0.0
 40
0.0031
100
AcDbArc
 50
2.000000003753602
 51
90.0
  0
LINE
  5
C76
330
23
100
AcDbEntity
  8
SANINDUSA
100
AcDbLine
 10
2057.580606654743
 20
1698.20761548334
 30
0.0
 11
2057.636967952479
 21
1698.20761548334
 31
0.0
  0
ARC
  5
C77
330
23
100
AcDbEntity
  8
SANINDUSA
100
AcDbCircle
 10
2057.580606654743
 20
1698.204515483341
 30
0.0
 40
0.0031000000000001
100
AcDbArc
 50
90.0
 51
179.0000000033055
  0
LINE
  5
C78
330
23
100
AcDbEntity
  8
SANINDUSA
100
AcDbLine
 10
2057.576930165383
 20
1698.17151548334
 30
0.0
 11
2057.577507126888
 21
1698.204569585801
 31
0.0
  0
LINE
  5
C79
330
23
100
AcDbEntity
  8
SANINDUSA
100
AcDbLine
 10
2057.576930165383
 20
1698.17151548334
 30
0.0
 11
2057.573029571304
 21
1698.17151548334
 31
0.0
  0
LINE
  5
C7A
330
23
100
AcDbEntity
  8
SANINDUSA
100
AcDbLine
 10
2057.573029571304
 20
1698.17151548334
 30
0.0
 11
2057.573607720876
 21
1698.204637650186
 31
0.0
  0
ARC
  5
C7B
330
23
100
AcDbEntity
  8
SANINDUSA
100
AcDbCircle
 10
2057.580606654743
 20
1698.204515483341
 30
0.0
 40
0.0069999999999999
100
AcDbArc
 50
90.0
 51
179.0000000033055
  0
LINE
  5
C7C
330
23
100
AcDbEntity
  8
SANINDUSA
100
AcDbLine
 10
2057.580606654743
 20
1698.211515483341
 30
0.0
 11
2057.636967952479
 21
1698.211515483341
 31
0.0
  0
ARC
  5
C7D
330
23
100
AcDbEntity
  8
SANINDUSA
100
AcDbCircle
 10
2057.636967952479
 20
1698.204515483341
 30
0.0
 40
0.0069999999999999
100
AcDbArc
 50
2.000000003753602
 51
90.0
  0
LINE
  5
C7E
330
23
100
AcDbEntity
  8
SANINDUSA
100
AcDbLine
 10
2057.643963688268
 20
1698.204759779817
 30
0.0
 11
2057.645576131315
 21
1698.1585854523
 31
0.0
  0
ARC
  5
C7F
330
23
100
AcDbEntity
  8
SANINDUSA
100
AcDbCircle
 10
2057.662565775375
 20
1698.159178743743
 30
0.0
 40
0.017
100
AcDbArc
 50
182.0000000037536
 51
268.9999999900526
  0
LINE
  5
C80
330
23
100
AcDbEntity
  8
SANINDUSA
100
AcDbLine
 10
2057.666711852149
 20
1698.142103784127
 30
0.0
 11
2057.662269084465
 21
1698.142181332926
 31
0.0
  0
ARC
  5
C81
330
23
100
AcDbEntity
  8
SANINDUSA
100
AcDbCircle
 10
2057.666886376213
 20
1698.152102261079
 30
0.0
 40
0.0100000000000007
100
AcDbArc
 50
268.9999999900526
 51
334.6842608331306
  0
ARC
  5
C82
330
23
100
AcDbEntity
  8
SANINDUSA
100
AcDbCircle
 10
2057.682253783256
 20
1698.144832955695
 30
0.0
 40
0.0070000000000004
100
AcDbArc
 50
88.99999999005256
 51
154.6842608331306
  0
LINE
  5
C83
330
23
100
AcDbEntity
  8
SANINDUSA
100
AcDbLine
 10
2059.033430228643
 20
1698.092418569575
 30
0.0
 11
2059.043727773901
 21
1698.081375804249
 31
0.0
  0
LINE
  5
C84
330
23
100
AcDbEntity
  8
SANINDUSA
100
AcDbLine
 10
2059.043727773901
 20
1698.081375804249
 30
0.0
 11
2059.1437277739
 21
1698.081375804249
 31
0.0
  0
LINE
  5
C85
330
23
100
AcDbEntity
  8
SANINDUSA
100
AcDbLine
 10
2059.1437277739
 20
1698.081375804249
 30
0.0
 11
2059.154025319159
 21
1698.092418569575
 31
0.0
  0
ARC
  5
C86
330
23
100
AcDbEntity
  8
SANINDUSA
100
AcDbCircle
 10
2059.183577512103
 20
1698.121600663209
 30
0.0
 40
0.0170000000267433
100
AcDbArc
 50
284.4978888294633
 51
358.0000000353052
  0
LINE
  5
C87
330
23
100
AcDbEntity
  8
SANINDUSA
100
AcDbLine
 10
2059.200567156189
 20
1698.121007371764
 30
0.0
 11
2059.203491854725
 21
1698.204759779817
 31
0.0
  0
ARC
  5
C88
330
23
100
AcDbEntity
  8
SANINDUSA
100
AcDbCircle
 10
2059.210487590514
 20
1698.204515483341
 30
0.0
 40
0.0070000000000001
100
AcDbArc
 50
90.0
 51
177.9999999962464
  0
LINE
  5
C89
330
23
100
AcDbEntity
  8
SANINDUSA
100
AcDbLine
 10
2059.210487590514
 20
1698.211515483341
 30
0.0
 11
2059.266848893059
 21
1698.211515483341
 31
0.0
  0
ARC
  5
C8A
330
23
100
AcDbEntity
  8
SANINDUSA
100
AcDbCircle
 10
2059.266848893059
 20
1698.204515483341
 30
0.0
 40
0.0069999999999999
100
AcDbArc
 50
0.9999999966945132
 51
90.0
  0
LINE
  5
C8B
330
23
100
AcDbEntity
  8
SANINDUSA
100
AcDbLine
 10
2058.219751671462
 20
1698.138551367375
 30
0.0
 11
2057.682307885716
 21
1698.14793248355
 31
0.0
  0
LINE
  5
C8C
330
23
100
AcDbEntity
  8
SANINDUSA
100
AcDbLine
 10
2058.219819735847
 20
1698.142450773385
 30
0.0
 11
2057.682375950101
 21
1698.151831889561
 31
0.0
  0
LINE
  5
CD0
330
23
100
AcDbEntity
  8
SANINDUSA
100
AcDbLine
 10
2057.666643787763
 20
1698.138204378116
 30
0.0
 11
2057.686640741667
 21
1698.137855329988
 31
0.0
  0
ARC
  5
CDF
330
23
100
AcDbEntity
  8
SANINDUSA
100
AcDbCircle
 10
2058.242199495026
 20
1698.166621687621
 30
0.0
 40
0.0487469298320875
100
AcDbArc
 50
238.5078232847996
 51
257.3318663964198
  0
LINE
  5
CE1
330
23
100
AcDbEntity
  8
SANINDUSA
100
AcDbLine
 10
2058.214750030882
 20
1698.126139966021
 30
0.0
 11
2058.216734969567
 21
1698.125054619993
 31
0.0
  0
LINE
  5
CE2
330
23
100
AcDbEntity
  8
SANINDUSA
100
AcDbLine
 10
2058.212050008519
 20
1698.127287126232
 30
0.0
 11
2058.214750030882
 21
1698.126139966021
 31
0.0
  0
LWPOLYLINE
  5
CE3
330
23
100
AcDbEntity
  8
SANINDUSA
100
AcDbPolyline
 90
        3
 70
   128
 43
0.0
 10
2058.203650994346
 20
1698.128830882459
 10
2058.207856674398
 20
1698.128415310788
 10
2058.212050008519
 20
1698.127287126232
  0
LINE
  5
CE5
330
23
100
AcDbEntity
  8
SANINDUSA
100
AcDbLine
 10
2057.686640741667
 20
1698.137855329988
 30
0.0
 11
2058.203650994346
 21
1698.128830882459
 31
0.0
  0
LINE
  5
CEC
330
23
100
AcDbEntity
  8
SANINDUSA
100
AcDbLine
 10
2059.183504038185
 20
1698.211515483341
 30
0.0
 11
2059.210487590514
 21
1698.211515483341
 31
0.0
  0
LINE
  5
CEE
330
23
100
AcDbEntity
  8
SANINDUSA
100
AcDbLine
 10
2057.636967952479
 20
1698.211515483341
 30
0.0
 11
2057.663951504808
 21
1698.211515483341
 31
0.0
  0
LINE
  5
CEF
330
23
100
AcDbEntity
  8
SANINDUSA
100
AcDbLine
 10
2057.663951504808
 20
1698.211515483341
 30
0.0
 11
2059.183504038185
 21
1698.211515483341
 31
0.0
  0
LINE
  5
CF5
330
23
100
AcDbEntity
  8
SANINDUSA
100
AcDbLine
 10
2057.578029997848
 20
1698.17151548334
 30
0.0
 11
2057.576930165383
 21
1698.17151548334
 31
0.0
  0
LINE
  5
CF7
330
23
100
AcDbEntity
  8
SANINDUSA
100
AcDbLine
 10
2059.270525382419
 20
1698.17151548334
 30
0.0
 11
2059.269425549954
 21
1698.17151548334
 31
0.0
  0
LINE
  5
CF8
330
23
100
AcDbEntity
  8
SANINDUSA
100
AcDbLine
 10
2059.269425549954
 20
1698.17151548334
 30
0.0
 11
2059.206233315534
 21
1698.17151548334
 31
0.0
  0
LINE
  5
CF9
330
23
100
AcDbEntity
  8
SANINDUSA
100
AcDbLine
 10
2057.641222227459
 20
1698.17151548334
 30
0.0
 11
2057.578029997848
 21
1698.17151548334
 31
0.0
  0
LINE
  5
E72
330
23
100
AcDbEntity
  8
SANINDUSA
100
AcDbLine
 10
2055.080131248083
 20
1698.098782964377
 30
0.0
 11
2055.364058750942
 21
1698.102069765594
 31
0.0
  0
LINE
  5
E73
330
23
100
AcDbEntity
  8
SANINDUSA
100
AcDbLine
 10
2054.927766960629
 20
1698.098777164158
 30
0.0
 11
2054.64381633439
 21
1698.102069961681
 31
0.0
  0
LINE
  5
E74
330
23
100
AcDbEntity
  8
SANINDUSA
100
AcDbLine
 10
2056.262922002719
 20
1698.115056145881
 30
0.0
 11
2057.037154089714
 21
1698.098821495554
 31
0.0
  0
ARC
  5
E75
330
23
100
AcDbEntity
  8
SANINDUSA
100
AcDbCircle
 10
2057.188572248256
 20
1698.17724647124
 30
0.0
 40
0.0784475200359873
100
AcDbArc
 50
270.7602410645652
 51
284.679187420771
  0
ENDSEC
  0
SECTION
  2
OBJECTS
  0
DICTIONARY
  5
C
330
0
100
AcDbDictionary
281
     1
  3
ACAD_COLOR
350
1C
  3
ACAD_GROUP
350
D
  3
ACAD_LAYOUT
350
1A
  3
ACAD_MATERIAL
350
1B
  3
ACAD_MLINESTYLE
350
17
  3
ACAD_PLOTSETTINGS
350
19
  3
ACAD_PLOTSTYLENAME
350
E
  3
ACAD_TABLESTYLE
350
1D
  3
ACDBHEADERROUNDTRIPXREC
350
9F63
  3
AcDbVariableDictionary
350
9F4E
  0
DICTIONARY
  5
30B
330
2
100
AcDbDictionary
280
     1
281
     1
  3
ACAD_LAYERSTATES
360
30C
  0
DICTIONARY
  5
1C
102
{ACAD_REACTORS
330
C
102
}
330
C
100
AcDbDictionary
281
     1
  0
DICTIONARY
  5
D
102
{ACAD_REACTORS
330
C
102
}
330
C
100
AcDbDictionary
281
     1
  0
DICTIONARY
  5
1A
102
{ACAD_REACTORS
330
C
102
}
330
C
100
AcDbDictionary
281
     1
  3
Layout1
350
22
  3
Layout2
350
2A
  3
Model
350
26
  0
DICTIONARY
  5
1B
102
{ACAD_REACTORS
330
C
102
}
330
C
100
AcDbDictionary
281
     1
  0
DICTIONARY
  5
17
102
{ACAD_REACTORS
330
C
102
}
330
C
100
AcDbDictionary
281
     1
  3
Standard
350
18
  0
DICTIONARY
  5
19
102
{ACAD_REACTORS
330
C
102
}
330
C
100
AcDbDictionary
281
     1
  0
ACDBDICTIONARYWDFLT
  5
E
102
{ACAD_REACTORS
330
C
102
}
330
C
100
AcDbDictionary
281
     1
  3
Normal
350
F
100
AcDbDictionaryWithDefault
340
F
  0
DICTIONARY
  5
1D
102
{ACAD_REACTORS
330
C
102
}
330
C
100
AcDbDictionary
281
     1
  3
Standard
350
1E
  0
DICTIONARY
  5
9F63
102
{ACAD_REACTORS
330
C
102
}
330
C
100
AcDbDictionary
281
     1
  0
DICTIONARY
  5
9F4E
102
{ACAD_REACTORS
330
C
102
}
330
C
100
AcDbDictionary
281
     1
  3
CTABLESTYLE
350
9F4F
  3
DIMASSOC
350
9F60
  3
HIDETEXT
350
9F5F
  3
PROJECTNAME
350
9F61
  0
DICTIONARY
  5
30C
102
{ACAD_REACTORS
330
30B
102
}
330
30B
100
AcDbDictionary
281
     1
  0
LAYOUT
  5
22
102
{ACAD_XDICTIONARY
360
9F64
102
}
102
{ACAD_REACTORS
330
1A
102
}
330
1A
100
AcDbPlotSettings
  1

  2
C:\Documents and Settings\Julio\Application Data\Autodesk\AutoCAD 2006\R16.2\enu\plotters\Default Windows System Printer.pc3
  4

  6

 40
0.0
 41
0.0
 42
0.0
 43
0.0
 44
0.0
 45
0.0
 46
0.0
 47
0.0
 48
0.0
 49
0.0
140
0.0
141
0.0
142
1.0
143
1.0
 70
   688
 72
     0
 73
     0
 74
     5
  7

 75
    16
147
1.0
148
0.0
149
0.0
100
AcDbLayout
  1
Layout1
 70
     1
 71
     1
 10
0.0
 20
0.0
 11
420.0
 21
297.0
 12
0.0
 22
0.0
 32
0.0
 14
1.000000000000000E+20
 24
1.000000000000000E+20
 34
1.000000000000000E+20
 15
-1.000000000000000E+20
 25
-1.000000000000000E+20
 35
-1.000000000000000E+20
146
0.0
 13
0.0
 23
0.0
 33
0.0
 16
1.0
 26
0.0
 36
0.0
 17
0.0
 27
1.0
 37
0.0
 76
     0
330
1F
  0
LAYOUT
  5
2A
102
{ACAD_XDICTIONARY
360
9F68
102
}
102
{ACAD_REACTORS
330
1A
102
}
330
1A
100
AcDbPlotSettings
  1

  2
C:\Documents and Settings\Julio\Application Data\Autodesk\AutoCAD 2006\R16.2\enu\plotters\Default Windows System Printer.pc3
  4

  6

 40
0.0
 41
0.0
 42
0.0
 43
0.0
 44
0.0
 45
0.0
 46
0.0
 47
0.0
 48
0.0
 49
0.0
140
0.0
141
0.0
142
1.0
143
1.0
 70
   688
 72
     0
 73
     0
 74
     5
  7

 75
    16
147
1.0
148
0.0
149
0.0
100
AcDbLayout
  1
Layout2
 70
     1
 71
     2
 10
0.0
 20
0.0
 11
12.0
 21
9.0
 12
0.0
 22
0.0
 32
0.0
 14
0.0
 24
0.0
 34
0.0
 15
0.0
 25
0.0
 35
0.0
146
0.0
 13
0.0
 23
0.0
 33
0.0
 16
1.0
 26
0.0
 36
0.0
 17
0.0
 27
1.0
 37
0.0
 76
     0
330
27
  0
LAYOUT
  5
26
102
{ACAD_XDICTIONARY
360
9F66
102
}
102
{ACAD_REACTORS
330
1A
102
}
330
1A
100
AcDbPlotSettings
  1

  2
C:\Documents and Settings\Julio\Application Data\Autodesk\AutoCAD 2006\R16.2\enu\plotters\Default Windows System Printer.pc3
  4

  6

 40
0.0
 41
0.0
 42
0.0
 43
0.0
 44
0.0
 45
0.0
 46
0.0
 47
0.0
 48
0.0
 49
0.0
140
0.0
141
0.0
142
1.0
143
1.0
 70
  1712
 72
     0
 73
     0
 74
     0
  7

 75
     0
147
1.0
148
0.0
149
0.0
100
AcDbLayout
  1
Model
 70
     1
 71
     0
 10
0.0
 20
0.0
 11
12.0
 21
9.0
 12
0.0
 22
0.0
 32
0.0
 14
0.0
 24
0.0
 34
0.0
 15
0.0
 25
0.0
 35
0.0
146
0.0
 13
0.0
 23
0.0
 33
0.0
 16
1.0
 26
0.0
 36
0.0
 17
0.0
 27
1.0
 37
0.0
 76
     0
330
23
  0
MLINESTYLE
  5
18
102
{ACAD_REACTORS
330
17
102
}
330
17
100
AcDbMlineStyle
  2
STANDARD
 70
     0
  3

 62
   256
 51
90.0
 52
90.0
 71
     2
 49
0.5
 62
   256
  6
BYLAYER
 49
-0.5
 62
   256
  6
BYLAYER
  0
ACDBPLACEHOLDER
  5
F
102
{ACAD_REACTORS
330
E
102
}
330
E
  0
TABLESTYLE
  5
1E
102
{ACAD_REACTORS
330
1D
102
}
330
1D
100
AcDbTableStyle
  3
Standard
 70
     0
 71
     0
 40
1.5
 41
1.5
280
     0
281
     0
  7
Standard
140
4.5
170
     2
 62
     0
 63
     7
283
     0
274
    -2
284
     1
 64
     0
275
    -2
285
     1
 65
     0
276
    -2
286
     1
 66
     0
277
    -2
287
     1
 67
     0
278
    -2
288
     1
 68
     0
279
    -2
289
     1
 69
     0
  7
Standard
140
6.0
170
     5
 62
     0
 63
     7
283
     0
274
    -2
284
     1
 64
     0
275
    -2
285
     1
 65
     0
276
    -2
286
     1
 66
     0
277
    -2
287
     1
 67
     0
278
    -2
288
     1
 68
     0
279
    -2
289
     1
 69
     0
  7
Standard
140
4.5
170
     5
 62
     0
 63
     7
283
     0
274
    -2
284
     1
 64
     0
275
    -2
285
     1
 65
     0
276
    -2
286
     1
 66
     0
277
    -2
287
     1
 67
     0
278
    -2
288
     1
 68
     0
279
    -2
289
     1
 69
     0
  0
DICTIONARYVAR
  5
9F4F
102
{ACAD_REACTORS
330
9F4E
102
}
330
9F4E
100
DictionaryVariables
280
     0
  1
STANDARD
  0
DICTIONARYVAR
  5
9F60
102
{ACAD_REACTORS
330
9F4E
102
}
330
9F4E
100
DictionaryVariables
280
     0
  1
2
  0
DICTIONARYVAR
  5
9F5F
102
{ACAD_REACTORS
330
9F4E
102
}
330
9F4E
100
DictionaryVariables
280
     0
  1
1
  0
DICTIONARYVAR
  5
9F61
102
{ACAD_REACTORS
330
9F4E
102
}
330
9F4E
100
DictionaryVariables
280
     0
  1

  0
DICTIONARY
  5
9F64
330
22
100
AcDbDictionary
280
     1
281
     1
  3
ACAD_XREC_ROUNDTRIP
360
9F65
  0
DICTIONARY
  5
9F68
330
2A
100
AcDbDictionary
280
     1
281
     1
  3
ACAD_XREC_ROUNDTRIP
360
9F69
  0
DICTIONARY
  5
9F66
330
26
100
AcDbDictionary
280
     1
281
     1
  3
ACAD_XREC_ROUNDTRIP
360
9F67
  0
XRECORD
  5
9F65
102
{ACAD_REACTORS
330
9F64
102
}
330
9F64
100
AcDbXrecord
280
     1
102
SHADEPLOT
 70
     0
102
SHADEPLOTRESLEVEL
 70
     2
102
SHADEPLOTCUSTOMDPI
 70
   300
  0
XRECORD
  5
9F69
102
{ACAD_REACTORS
330
9F68
102
}
330
9F68
100
AcDbXrecord
280
     1
102
SHADEPLOT
 70
     0
102
SHADEPLOTRESLEVEL
 70
     2
102
SHADEPLOTCUSTOMDPI
 70
   300
  0
XRECORD
  5
9F67
102
{ACAD_REACTORS
330
9F66
102
}
330
9F66
100
AcDbXrecord
280
     1
102
SHADEPLOT
 70
     0
102
SHADEPLOTRESLEVEL
 70
     2
102
SHADEPLOTCUSTOMDPI
 70
   300
  0
ENDSEC
  0
EOF
