  0
SECTION
  2
HEADER
  9
$ACADVER
  1
AC1015
  9
$ACADMAINTVER
 70
    20
  9
$DWGCODEPAGE
  3
ANSI_1252
  9
$INSBASE
 10
0.0
 20
0.0
 30
0.0
  9
$EXTMIN
 10
2055.025398911363
 20
1720.298974179782
 30
0.0
  9
$EXTMAX
 10
2061.585375299979
 20
1721.199214312324
 30
0.0
  9
$LIMMIN
 10
0.0
 20
0.0
  9
$LIMMAX
 10
420.0
 20
297.0
  9
$ORTHOMODE
 70
     0
  9
$REGENMODE
 70
     1
  9
$FILLMODE
 70
     1
  9
$QTEXTMODE
 70
     0
  9
$MIRRTEXT
 70
     0
  9
$LTSCALE
 40
1.0
  9
$ATTMODE
 70
     1
  9
$TEXTSIZE
 40
2.5
  9
$TRACEWID
 40
1.0
  9
$TEXTSTYLE
  7
Standard
  9
$CLAYER
  8
0
  9
$CELTYPE
  6
ByLayer
  9
$CECOLOR
 62
   256
  9
$CELTSCALE
 40
1.0
  9
$DISPSILH
 70
     0
  9
$DIMSCALE
 40
1.0
  9
$DIMASZ
 40
2.5
  9
$DIMEXO
 40
0.625
  9
$DIMDLI
 40
3.75
  9
$DIMRND
 40
0.0
  9
$DIMDLE
 40
0.0
  9
$DIMEXE
 40
1.25
  9
$DIMTP
 40
0.0
  9
$DIMTM
 40
0.0
  9
$DIMTXT
 40
2.5
  9
$DIMCEN
 40
2.5
  9
$DIMTSZ
 40
0.0
  9
$DIMTOL
 70
     0
  9
$DIMLIM
 70
     0
  9
$DIMTIH
 70
     0
  9
$DIMTOH
 70
     0
  9
$DIMSE1
 70
     0
  9
$DIMSE2
 70
     0
  9
$DIMTAD
 70
     1
  9
$DIMZIN
 70
     8
  9
$DIMBLK
  1

  9
$DIMASO
 70
     1
  9
$DIMSHO
 70
     1
  9
$DIMPOST
  1

  9
$DIMAPOST
  1

  9
$DIMALT
 70
     0
  9
$DIMALTD
 70
     3
  9
$DIMALTF
 40
0.03937007874016
  9
$DIMLFAC
 40
1.0
  9
$DIMTOFL
 70
     1
  9
$DIMTVP
 40
0.0
  9
$DIMTIX
 70
     0
  9
$DIMSOXD
 70
     0
  9
$DIMSAH
 70
     0
  9
$DIMBLK1
  1

  9
$DIMBLK2
  1

  9
$DIMSTYLE
  2
ISO-25
  9
$DIMCLRD
 70
     0
  9
$DIMCLRE
 70
     0
  9
$DIMCLRT
 70
     0
  9
$DIMTFAC
 40
1.0
  9
$DIMGAP
 40
0.625
  9
$DIMJUST
 70
     0
  9
$DIMSD1
 70
     0
  9
$DIMSD2
 70
     0
  9
$DIMTOLJ
 70
     0
  9
$DIMTZIN
 70
     8
  9
$DIMALTZ
 70
     0
  9
$DIMALTTZ
 70
     0
  9
$DIMUPT
 70
     0
  9
$DIMDEC
 70
     2
  9
$DIMTDEC
 70
     2
  9
$DIMALTU
 70
     2
  9
$DIMALTTD
 70
     3
  9
$DIMTXSTY
  7
Standard
  9
$DIMAUNIT
 70
     0
  9
$DIMADEC
 70
     0
  9
$DIMALTRND
 40
0.0
  9
$DIMAZIN
 70
     0
  9
$DIMDSEP
 70
    44
  9
$DIMATFIT
 70
     3
  9
$DIMFRAC
 70
     0
  9
$DIMLDRBLK
  1

  9
$DIMLUNIT
 70
     2
  9
$DIMLWD
 70
    -2
  9
$DIMLWE
 70
    -2
  9
$DIMTMOVE
 70
     0
  9
$LUNITS
 70
     2
  9
$LUPREC
 70
     4
  9
$SKETCHINC
 40
1.0
  9
$FILLETRAD
 40
0.0
  9
$AUNITS
 70
     0
  9
$AUPREC
 70
     0
  9
$MENU
  1
.
  9
$ELEVATION
 40
0.0
  9
$PELEVATION
 40
0.0
  9
$THICKNESS
 40
0.0
  9
$LIMCHECK
 70
     0
  9
$CHAMFERA
 40
0.0
  9
$CHAMFERB
 40
0.0
  9
$CHAMFERC
 40
0.0
  9
$CHAMFERD
 40
0.0
  9
$SKPOLY
 70
     0
  9
$TDCREATE
 40
2454930.723318137
  9
$TDUCREATE
 40
2454930.681651470
  9
$TDUPDATE
 40
2454930.726357777
  9
$TDUUPDATE
 40
2454930.684691111
  9
$TDINDWG
 40
0.0030401852
  9
$TDUSRTIMER
 40
0.0030401852
  9
$USRTIMER
 70
     1
  9
$ANGBASE
 50
0.0
  9
$ANGDIR
 70
     0
  9
$PDMODE
 70
     0
  9
$PDSIZE
 40
0.0
  9
$PLINEWID
 40
0.0
  9
$SPLFRAME
 70
     0
  9
$SPLINETYPE
 70
     6
  9
$SPLINESEGS
 70
     8
  9
$HANDSEED
  5
A167
  9
$SURFTAB1
 70
     6
  9
$SURFTAB2
 70
     6
  9
$SURFTYPE
 70
     6
  9
$SURFU
 70
     6
  9
$SURFV
 70
     6
  9
$UCSBASE
  2

  9
$UCSNAME
  2

  9
$UCSORG
 10
0.0
 20
0.0
 30
0.0
  9
$UCSXDIR
 10
1.0
 20
0.0
 30
0.0
  9
$UCSYDIR
 10
0.0
 20
1.0
 30
0.0
  9
$UCSORTHOREF
  2

  9
$UCSORTHOVIEW
 70
     0
  9
$UCSORGTOP
 10
0.0
 20
0.0
 30
0.0
  9
$UCSORGBOTTOM
 10
0.0
 20
0.0
 30
0.0
  9
$UCSORGLEFT
 10
0.0
 20
0.0
 30
0.0
  9
$UCSORGRIGHT
 10
0.0
 20
0.0
 30
0.0
  9
$UCSORGFRONT
 10
0.0
 20
0.0
 30
0.0
  9
$UCSORGBACK
 10
0.0
 20
0.0
 30
0.0
  9
$PUCSBASE
  2

  9
$PUCSNAME
  2

  9
$PUCSORG
 10
0.0
 20
0.0
 30
0.0
  9
$PUCSXDIR
 10
1.0
 20
0.0
 30
0.0
  9
$PUCSYDIR
 10
0.0
 20
1.0
 30
0.0
  9
$PUCSORTHOREF
  2

  9
$PUCSORTHOVIEW
 70
     0
  9
$PUCSORGTOP
 10
0.0
 20
0.0
 30
0.0
  9
$PUCSORGBOTTOM
 10
0.0
 20
0.0
 30
0.0
  9
$PUCSORGLEFT
 10
0.0
 20
0.0
 30
0.0
  9
$PUCSORGRIGHT
 10
0.0
 20
0.0
 30
0.0
  9
$PUCSORGFRONT
 10
0.0
 20
0.0
 30
0.0
  9
$PUCSORGBACK
 10
0.0
 20
0.0
 30
0.0
  9
$USERI1
 70
     0
  9
$USERI2
 70
     0
  9
$USERI3
 70
     0
  9
$USERI4
 70
     0
  9
$USERI5
 70
     0
  9
$USERR1
 40
0.0
  9
$USERR2
 40
0.0
  9
$USERR3
 40
0.0
  9
$USERR4
 40
0.0
  9
$USERR5
 40
0.0
  9
$WORLDVIEW
 70
     1
  9
$SHADEDGE
 70
     3
  9
$SHADEDIF
 70
    70
  9
$TILEMODE
 70
     1
  9
$MAXACTVP
 70
    64
  9
$PINSBASE
 10
0.0
 20
0.0
 30
0.0
  9
$PLIMCHECK
 70
     0
  9
$PEXTMIN
 10
1.000000000000000E+20
 20
1.000000000000000E+20
 30
1.000000000000000E+20
  9
$PEXTMAX
 10
-1.000000000000000E+20
 20
-1.000000000000000E+20
 30
-1.000000000000000E+20
  9
$PLIMMIN
 10
0.0
 20
0.0
  9
$PLIMMAX
 10
420.0
 20
297.0
  9
$UNITMODE
 70
     0
  9
$VISRETAIN
 70
     1
  9
$PLINEGEN
 70
     0
  9
$PSLTSCALE
 70
     1
  9
$TREEDEPTH
 70
  3020
  9
$CMLSTYLE
  2
Standard
  9
$CMLJUST
 70
     0
  9
$CMLSCALE
 40
20.0
  9
$PROXYGRAPHICS
 70
     1
  9
$MEASUREMENT
 70
     1
  9
$CELWEIGHT
370
    -1
  9
$ENDCAPS
280
     0
  9
$JOINSTYLE
280
     0
  9
$LWDISPLAY
290
     0
  9
$INSUNITS
 70
     4
  9
$HYPERLINKBASE
  1

  9
$STYLESHEET
  1

  9
$XEDIT
290
     1
  9
$CEPSNTYPE
380
     0
  9
$PSTYLEMODE
290
     1
  9
$FINGERPRINTGUID
  2
{A68A1AF2-EEDD-4F20-A4A3-D10B3FBC8566}
  9
$VERSIONGUID
  2
{637DF31F-4701-455B-B0E0-823F24E5C03A}
  9
$EXTNAMES
290
     1
  9
$PSVPSCALE
 40
0.0
  9
$OLESTARTUP
290
     0
  0
ENDSEC
  0
SECTION
  2
CLASSES
  0
CLASS
  1
ACDBDICTIONARYWDFLT
  2
AcDbDictionaryWithDefault
  3
ObjectDBX Classes
 90
        0
280
     0
281
     0
  0
CLASS
  1
TABLESTYLE
  2
AcDbTableStyle
  3
ObjectDBX Classes
 90
     2047
280
     0
281
     0
  0
CLASS
  1
DIMASSOC
  2
AcDbDimAssoc
  3
"AcDbDimAssoc|Product Desc:     AcDim ARX App For Dimension|Company:          Autodesk, Inc.|WEB Address:      www.autodesk.com"
 90
        0
280
     0
281
     0
  0
CLASS
  1
SORTENTSTABLE
  2
AcDbSortentsTable
  3
ObjectDBX Classes
 90
        0
280
     0
281
     0
  0
CLASS
  1
DICTIONARYVAR
  2
AcDbDictionaryVar
  3
ObjectDBX Classes
 90
        0
280
     0
281
     0
  0
CLASS
  1
ACDBPLACEHOLDER
  2
AcDbPlaceHolder
  3
ObjectDBX Classes
 90
        0
280
     0
281
     0
  0
CLASS
  1
LAYOUT
  2
AcDbLayout
  3
ObjectDBX Classes
 90
        0
280
     0
281
     0
  0
ENDSEC
  0
SECTION
  2
TABLES
  0
TABLE
  2
VPORT
  5
8
330
0
100
AcDbSymbolTable
 70
     9
  0
VPORT
  5
A15F
330
8
100
AcDbSymbolTableRecord
100
AcDbViewportTableRecord
  2
*Active
 70
     0
 10
0.0
 20
0.0
 11
1.0
 21
1.0
 12
2058.305387105671
 22
1720.749094246053
 13
0.0
 23
0.0
 14
10.0
 24
10.0
 15
10.0
 25
10.0
 16
0.0
 26
0.0
 36
1.0
 17
0.0
 27
0.0
 37
0.0
 40
4.110342558980073
 41
1.602030456852791
 42
50.0
 43
0.0
 44
0.0
 50
0.0
 51
0.0
 71
     0
 72
  1000
 73
     1
 74
     3
 75
     0
 76
     0
 77
     0
 78
     0
281
     0
 65
     1
110
0.0
120
0.0
130
0.0
111
1.0
121
0.0
131
0.0
112
0.0
122
1.0
132
0.0
 79
     0
146
0.0
  0
ENDTAB
  0
TABLE
  2
LTYPE
  5
5
330
0
100
AcDbSymbolTable
 70
     3
  0
LTYPE
  5
14
330
5
100
AcDbSymbolTableRecord
100
AcDbLinetypeTableRecord
  2
ByBlock
 70
     0
  3

 72
    65
 73
     0
 40
0.0
  0
LTYPE
  5
15
330
5
100
AcDbSymbolTableRecord
100
AcDbLinetypeTableRecord
  2
ByLayer
 70
     0
  3

 72
    65
 73
     0
 40
0.0
  0
LTYPE
  5
16
330
5
100
AcDbSymbolTableRecord
100
AcDbLinetypeTableRecord
  2
Continuous
 70
     0
  3
Solid line
 72
    65
 73
     0
 40
0.0
  0
LTYPE
  5
2FA
330
5
100
AcDbSymbolTableRecord
100
AcDbLinetypeTableRecord
  2
DASHDOT
 70
     0
  3
Dash dot __ . __ . __ . __ . __ . __ . __ . __
 72
    65
 73
     4
 40
25.4
 49
12.7
 74
     0
 49
-6.349999999999999
 74
     0
 49
0.0
 74
     0
 49
-6.349999999999999
 74
     0
  0
LTYPE
  5
2FB
330
5
100
AcDbSymbolTableRecord
100
AcDbLinetypeTableRecord
  2
HIDDEN
 70
     0
  3
Hidden __ __ __ __ __ __ __ __ __ __ __ __ __ _
 72
    65
 73
     2
 40
9.524999999999998
 49
6.349999999999999
 74
     0
 49
-3.174999999999999
 74
     0
  0
ENDTAB
  0
TABLE
  2
LAYER
  5
2
102
{ACAD_XDICTIONARY
360
30B
102
}
330
0
100
AcDbSymbolTable
 70
     9
  0
LAYER
  5
10
330
2
100
AcDbSymbolTableRecord
100
AcDbLayerTableRecord
  2
0
 70
     0
 62
     7
  6
Continuous
370
    -3
390
F
  0
LAYER
  5
2FC
330
2
100
AcDbSymbolTableRecord
100
AcDbLayerTableRecord
  2
1
 70
     0
 62
     1
  6
Continuous
370
    -3
390
F
  0
LAYER
  5
2FD
330
2
100
AcDbSymbolTableRecord
100
AcDbLayerTableRecord
  2
4
 70
     0
 62
     4
  6
Continuous
370
    -3
390
F
  0
LAYER
  5
2FE
330
2
100
AcDbSymbolTableRecord
100
AcDbLayerTableRecord
  2
cen
 70
     0
 62
     7
  6
DASHDOT
370
    -3
390
F
  0
LAYER
  5
2FF
330
2
100
AcDbSymbolTableRecord
100
AcDbLayerTableRecord
  2
9
 70
     0
 62
     9
  6
Continuous
370
    -3
390
F
  0
LAYER
  5
300
330
2
100
AcDbSymbolTableRecord
100
AcDbLayerTableRecord
  2
cotas
 70
     0
 62
     1
  6
Continuous
370
    -3
390
F
  0
LAYER
  5
301
330
2
100
AcDbSymbolTableRecord
100
AcDbLayerTableRecord
  2
Defpoints
 70
     0
 62
     7
  6
Continuous
290
     0
370
    -3
390
F
  0
LAYER
  5
302
330
2
100
AcDbSymbolTableRecord
100
AcDbLayerTableRecord
  2
SANINDUSA
 70
     0
 62
     3
  6
Continuous
370
    -3
390
F
  0
LAYER
  5
303
330
2
100
AcDbSymbolTableRecord
100
AcDbLayerTableRecord
  2
hid1
 70
     0
 62
     9
  6
HIDDEN
370
    -3
390
F
1001
AcAecLayerStandard
1000

1000

  0
ENDTAB
  0
TABLE
  2
STYLE
  5
3
330
0
100
AcDbSymbolTable
 70
     2
  0
STYLE
  5
11
330
3
100
AcDbSymbolTableRecord
100
AcDbTextStyleTableRecord
  2
Standard
 70
     0
 40
0.0
 41
1.0
 50
0.0
 71
     0
 42
2.5
  3
txt
  4

  0
STYLE
  5
304
330
3
100
AcDbSymbolTableRecord
100
AcDbTextStyleTableRecord
  2
SANINDUSA
 70
     0
 40
0.0
 41
1.0
 50
0.0
 71
     0
 42
2.5
  3
verdana.TTF
  4

1001
ACAD
1000
Verdana
1071
       34
  0
ENDTAB
  0
TABLE
  2
VIEW
  5
6
330
0
100
AcDbSymbolTable
 70
     0
  0
ENDTAB
  0
TABLE
  2
UCS
  5
7
330
0
100
AcDbSymbolTable
 70
     0
  0
ENDTAB
  0
TABLE
  2
APPID
  5
9
330
0
100
AcDbSymbolTable
 70
     6
  0
APPID
  5
12
330
9
100
AcDbSymbolTableRecord
100
AcDbRegAppTableRecord
  2
ACAD
 70
     0
  0
APPID
  5
306
330
9
100
AcDbSymbolTableRecord
100
AcDbRegAppTableRecord
  2
ACAD_DSTYLE_DIMEXT_LENGTH
 70
     0
  0
APPID
  5
307
330
9
100
AcDbSymbolTableRecord
100
AcDbRegAppTableRecord
  2
ACAD_DSTYLE_DIMEXT_ENABLED
 70
     0
  0
APPID
  5
308
330
9
100
AcDbSymbolTableRecord
100
AcDbRegAppTableRecord
  2
ACAD_DSTYLE_DIMJOGGED_JOGANGLE_SYMBOL
 70
     0
  0
APPID
  5
309
330
9
100
AcDbSymbolTableRecord
100
AcDbRegAppTableRecord
  2
ACAD_DSTYLE_DIMARC_LENGTH_SYMBOL
 70
     0
  0
APPID
  5
30A
330
9
100
AcDbSymbolTableRecord
100
AcDbRegAppTableRecord
  2
AcAecLayerStandard
 70
     0
  0
ENDTAB
  0
TABLE
  2
DIMSTYLE
  5
A
330
0
100
AcDbSymbolTable
 70
     2
100
AcDbDimStyleTable
 71
     0
  0
DIMSTYLE
105
2B
330
A
100
AcDbSymbolTableRecord
100
AcDbDimStyleTableRecord
  2
ISO-25
 70
     0
 41
2.5
 42
0.625
 43
3.75
 44
1.25
 73
     0
 74
     0
 77
     1
 78
     8
140
2.5
141
2.5
143
0.03937007874016
147
0.625
171
     3
172
     1
271
     2
272
     2
274
     3
278
    44
283
     0
284
     8
340
11
  0
DIMSTYLE
105
305
102
{ACAD_REACTORS
330
7F2
330
7F5
330
7F6
330
7F7
330
7F8
330
7FA
330
80C
330
80F
330
812
330
815
330
816
330
819
330
81C
330
81D
330
81E
330
81F
330
820
330
821
330
822
330
824
330
826
330
829
330
82C
330
82D
330
832
330
835
330
836
330
837
330
838
330
839
330
83A
330
848
330
851
330
854
330
857
330
85A
330
85B
330
85C
330
85F
330
860
330
861
330
862
330
863
330
864
330
865
330
866
330
867
330
868
330
86B
330
86C
330
86D
330
86E
330
86F
330
870
330
871
330
872
330
873
330
876
330
89A
330
8A7
330
8AA
330
8AD
330
8B2
330
8BD
102
}
330
A
100
AcDbSymbolTableRecord
100
AcDbDimStyleTableRecord
  2
SANINDUSA
 70
     0
 40
5.0
 41
2.0
 42
1.0
 43
1.0
 44
1.0
 73
     0
 74
     0
 77
     1
 78
     8
140
2.0
141
0.0
143
0.03937007874016
147
1.0
171
     3
172
     1
176
   256
177
   256
178
   256
179
     1
271
     1
272
     1
274
     3
278
    44
283
     0
284
     8
340
304
371
    -1
372
    -1
1001
ACAD_DSTYLE_DIMEXT_LENGTH
1070
   378
1040
1.0
1001
ACAD_DSTYLE_DIMEXT_ENABLED
1070
   383
1070
     0
1001
ACAD_DSTYLE_DIMARC_LENGTH_SYMBOL
1070
   379
1070
     0
1001
ACAD_DSTYLE_DIMJOGGED_JOGANGLE_SYMBOL
1070
   384
1040
1.570796326794896
  0
ENDTAB
  0
TABLE
  2
BLOCK_RECORD
  5
1
330
0
100
AcDbSymbolTable
 70
   130
  0
BLOCK_RECORD
  5
23
330
1
100
AcDbSymbolTableRecord
100
AcDbBlockTableRecord
  2
*Model_Space
340
26
  0
BLOCK_RECORD
  5
1F
330
1
100
AcDbSymbolTableRecord
100
AcDbBlockTableRecord
  2
*Paper_Space
340
22
  0
BLOCK_RECORD
  5
27
330
1
100
AcDbSymbolTableRecord
100
AcDbBlockTableRecord
  2
*Paper_Space0
340
2A
  0
BLOCK_RECORD
  5
2F
330
1
100
AcDbSymbolTableRecord
100
AcDbBlockTableRecord
  2
*D1
340
0
  0
BLOCK_RECORD
  5
37
330
1
100
AcDbSymbolTableRecord
100
AcDbBlockTableRecord
  2
*D2
340
0
  0
BLOCK_RECORD
  5
3F
330
1
100
AcDbSymbolTableRecord
100
AcDbBlockTableRecord
  2
*D3
340
0
  0
BLOCK_RECORD
  5
4C
330
1
100
AcDbSymbolTableRecord
100
AcDbBlockTableRecord
  2
*D4
340
0
  0
BLOCK_RECORD
  5
59
330
1
100
AcDbSymbolTableRecord
100
AcDbBlockTableRecord
  2
*D5
340
0
  0
BLOCK_RECORD
  5
65
330
1
100
AcDbSymbolTableRecord
100
AcDbBlockTableRecord
  2
*D6
340
0
  0
BLOCK_RECORD
  5
71
330
1
100
AcDbSymbolTableRecord
100
AcDbBlockTableRecord
  2
*D7
340
0
  0
BLOCK_RECORD
  5
7D
330
1
100
AcDbSymbolTableRecord
100
AcDbBlockTableRecord
  2
*D8
340
0
  0
BLOCK_RECORD
  5
86
330
1
100
AcDbSymbolTableRecord
100
AcDbBlockTableRecord
  2
*D9
340
0
  0
BLOCK_RECORD
  5
8F
330
1
100
AcDbSymbolTableRecord
100
AcDbBlockTableRecord
  2
*D10
340
0
  0
BLOCK_RECORD
  5
97
330
1
100
AcDbSymbolTableRecord
100
AcDbBlockTableRecord
  2
*D11
340
0
  0
BLOCK_RECORD
  5
A0
330
1
100
AcDbSymbolTableRecord
100
AcDbBlockTableRecord
  2
*D12
340
0
  0
BLOCK_RECORD
  5
A8
330
1
100
AcDbSymbolTableRecord
100
AcDbBlockTableRecord
  2
*D13
340
0
  0
BLOCK_RECORD
  5
B4
330
1
100
AcDbSymbolTableRecord
100
AcDbBlockTableRecord
  2
*D14
340
0
  0
BLOCK_RECORD
  5
C0
330
1
100
AcDbSymbolTableRecord
100
AcDbBlockTableRecord
  2
*D15
340
0
  0
BLOCK_RECORD
  5
CC
330
1
100
AcDbSymbolTableRecord
100
AcDbBlockTableRecord
  2
*D16
340
0
  0
BLOCK_RECORD
  5
D8
330
1
100
AcDbSymbolTableRecord
100
AcDbBlockTableRecord
  2
*D17
340
0
  0
BLOCK_RECORD
  5
E0
330
1
100
AcDbSymbolTableRecord
100
AcDbBlockTableRecord
  2
*D18
340
0
  0
BLOCK_RECORD
  5
E8
330
1
100
AcDbSymbolTableRecord
100
AcDbBlockTableRecord
  2
*D19
340
0
  0
BLOCK_RECORD
  5
F5
330
1
100
AcDbSymbolTableRecord
100
AcDbBlockTableRecord
  2
*D20
340
0
  0
BLOCK_RECORD
  5
102
330
1
100
AcDbSymbolTableRecord
100
AcDbBlockTableRecord
  2
*D21
340
0
  0
BLOCK_RECORD
  5
10E
330
1
100
AcDbSymbolTableRecord
100
AcDbBlockTableRecord
  2
*D22
340
0
  0
BLOCK_RECORD
  5
11A
330
1
100
AcDbSymbolTableRecord
100
AcDbBlockTableRecord
  2
*D23
340
0
  0
BLOCK_RECORD
  5
126
330
1
100
AcDbSymbolTableRecord
100
AcDbBlockTableRecord
  2
*D24
340
0
  0
BLOCK_RECORD
  5
132
330
1
100
AcDbSymbolTableRecord
100
AcDbBlockTableRecord
  2
*D25
340
0
  0
BLOCK_RECORD
  5
13E
330
1
100
AcDbSymbolTableRecord
100
AcDbBlockTableRecord
  2
*D26
340
0
  0
BLOCK_RECORD
  5
14A
330
1
100
AcDbSymbolTableRecord
100
AcDbBlockTableRecord
  2
*D27
340
0
  0
BLOCK_RECORD
  5
156
330
1
100
AcDbSymbolTableRecord
100
AcDbBlockTableRecord
  2
*D28
340
0
  0
BLOCK_RECORD
  5
162
330
1
100
AcDbSymbolTableRecord
100
AcDbBlockTableRecord
  2
*D29
340
0
  0
BLOCK_RECORD
  5
16B
330
1
100
AcDbSymbolTableRecord
100
AcDbBlockTableRecord
  2
*D30
340
0
  0
BLOCK_RECORD
  5
173
330
1
100
AcDbSymbolTableRecord
100
AcDbBlockTableRecord
  2
*D31
340
0
  0
BLOCK_RECORD
  5
17B
330
1
100
AcDbSymbolTableRecord
100
AcDbBlockTableRecord
  2
*D32
340
0
  0
BLOCK_RECORD
  5
184
330
1
100
AcDbSymbolTableRecord
100
AcDbBlockTableRecord
  2
*D33
340
0
  0
BLOCK_RECORD
  5
18C
330
1
100
AcDbSymbolTableRecord
100
AcDbBlockTableRecord
  2
*D34
340
0
  0
BLOCK_RECORD
  5
195
330
1
100
AcDbSymbolTableRecord
100
AcDbBlockTableRecord
  2
*D35
340
0
  0
BLOCK_RECORD
  5
19E
330
1
100
AcDbSymbolTableRecord
100
AcDbBlockTableRecord
  2
*D36
340
0
  0
BLOCK_RECORD
  5
1A9
330
1
100
AcDbSymbolTableRecord
100
AcDbBlockTableRecord
  2
*D37
340
0
  0
BLOCK_RECORD
  5
1B5
330
1
100
AcDbSymbolTableRecord
100
AcDbBlockTableRecord
  2
*D38
340
0
  0
BLOCK_RECORD
  5
1C7
330
1
100
AcDbSymbolTableRecord
100
AcDbBlockTableRecord
  2
*D39
340
0
  0
BLOCK_RECORD
  5
1D3
330
1
100
AcDbSymbolTableRecord
100
AcDbBlockTableRecord
  2
*D40
340
0
  0
BLOCK_RECORD
  5
1E0
330
1
100
AcDbSymbolTableRecord
100
AcDbBlockTableRecord
  2
*D41
340
0
  0
BLOCK_RECORD
  5
1EC
330
1
100
AcDbSymbolTableRecord
100
AcDbBlockTableRecord
  2
*D42
340
0
  0
BLOCK_RECORD
  5
1FA
330
1
100
AcDbSymbolTableRecord
100
AcDbBlockTableRecord
  2
*D43
340
0
  0
BLOCK_RECORD
  5
208
330
1
100
AcDbSymbolTableRecord
100
AcDbBlockTableRecord
  2
*D44
340
0
  0
BLOCK_RECORD
  5
214
330
1
100
AcDbSymbolTableRecord
100
AcDbBlockTableRecord
  2
*D45
340
0
  0
BLOCK_RECORD
  5
220
330
1
100
AcDbSymbolTableRecord
100
AcDbBlockTableRecord
  2
*D46
340
0
  0
BLOCK_RECORD
  5
22C
330
1
100
AcDbSymbolTableRecord
100
AcDbBlockTableRecord
  2
*D47
340
0
  0
BLOCK_RECORD
  5
238
330
1
100
AcDbSymbolTableRecord
100
AcDbBlockTableRecord
  2
*D48
340
0
  0
BLOCK_RECORD
  5
244
330
1
100
AcDbSymbolTableRecord
100
AcDbBlockTableRecord
  2
*D49
340
0
  0
BLOCK_RECORD
  5
250
330
1
100
AcDbSymbolTableRecord
100
AcDbBlockTableRecord
  2
*D50
340
0
  0
BLOCK_RECORD
  5
25C
330
1
100
AcDbSymbolTableRecord
100
AcDbBlockTableRecord
  2
*D51
340
0
  0
BLOCK_RECORD
  5
268
330
1
100
AcDbSymbolTableRecord
100
AcDbBlockTableRecord
  2
*D52
340
0
  0
BLOCK_RECORD
  5
274
330
1
100
AcDbSymbolTableRecord
100
AcDbBlockTableRecord
  2
*D53
340
0
  0
BLOCK_RECORD
  5
280
330
1
100
AcDbSymbolTableRecord
100
AcDbBlockTableRecord
  2
*D54
340
0
  0
BLOCK_RECORD
  5
28C
330
1
100
AcDbSymbolTableRecord
100
AcDbBlockTableRecord
  2
*D55
340
0
  0
BLOCK_RECORD
  5
298
330
1
100
AcDbSymbolTableRecord
100
AcDbBlockTableRecord
  2
*D56
340
0
  0
BLOCK_RECORD
  5
2A4
330
1
100
AcDbSymbolTableRecord
100
AcDbBlockTableRecord
  2
*D57
340
0
  0
BLOCK_RECORD
  5
2B0
330
1
100
AcDbSymbolTableRecord
100
AcDbBlockTableRecord
  2
*D58
340
0
  0
BLOCK_RECORD
  5
2B9
330
1
100
AcDbSymbolTableRecord
100
AcDbBlockTableRecord
  2
*D59
340
0
  0
BLOCK_RECORD
  5
2C2
330
1
100
AcDbSymbolTableRecord
100
AcDbBlockTableRecord
  2
*D60
340
0
  0
BLOCK_RECORD
  5
2CE
330
1
100
AcDbSymbolTableRecord
100
AcDbBlockTableRecord
  2
*D61
340
0
  0
BLOCK_RECORD
  5
2DA
330
1
100
AcDbSymbolTableRecord
100
AcDbBlockTableRecord
  2
*D62
340
0
  0
BLOCK_RECORD
  5
2E2
330
1
100
AcDbSymbolTableRecord
100
AcDbBlockTableRecord
  2
*D63
340
0
  0
BLOCK_RECORD
  5
2EE
330
1
100
AcDbSymbolTableRecord
100
AcDbBlockTableRecord
  2
*D64
340
0
  0
BLOCK_RECORD
  5
E7A
330
1
100
AcDbSymbolTableRecord
100
AcDbBlockTableRecord
  2
*D66
340
0
  0
BLOCK_RECORD
  5
E87
330
1
100
AcDbSymbolTableRecord
100
AcDbBlockTableRecord
  2
*D67
340
0
  0
BLOCK_RECORD
  5
E93
330
1
100
AcDbSymbolTableRecord
100
AcDbBlockTableRecord
  2
*D68
340
0
  0
BLOCK_RECORD
  5
E9F
330
1
100
AcDbSymbolTableRecord
100
AcDbBlockTableRecord
  2
*D69
340
0
  0
BLOCK_RECORD
  5
EAB
330
1
100
AcDbSymbolTableRecord
100
AcDbBlockTableRecord
  2
*D70
340
0
  0
BLOCK_RECORD
  5
EB4
330
1
100
AcDbSymbolTableRecord
100
AcDbBlockTableRecord
  2
*D71
340
0
  0
BLOCK_RECORD
  5
EBD
330
1
100
AcDbSymbolTableRecord
100
AcDbBlockTableRecord
  2
*D72
340
0
  0
BLOCK_RECORD
  5
EC5
330
1
100
AcDbSymbolTableRecord
100
AcDbBlockTableRecord
  2
*D73
340
0
  0
BLOCK_RECORD
  5
ECE
330
1
100
AcDbSymbolTableRecord
100
AcDbBlockTableRecord
  2
*D74
340
0
  0
BLOCK_RECORD
  5
ED6
330
1
100
AcDbSymbolTableRecord
100
AcDbBlockTableRecord
  2
*D75
340
0
  0
BLOCK_RECORD
  5
EE2
330
1
100
AcDbSymbolTableRecord
100
AcDbBlockTableRecord
  2
*D76
340
0
  0
BLOCK_RECORD
  5
EEE
330
1
100
AcDbSymbolTableRecord
100
AcDbBlockTableRecord
  2
*D77
340
0
  0
BLOCK_RECORD
  5
EFA
330
1
100
AcDbSymbolTableRecord
100
AcDbBlockTableRecord
  2
*D78
340
0
  0
BLOCK_RECORD
  5
F06
330
1
100
AcDbSymbolTableRecord
100
AcDbBlockTableRecord
  2
*D79
340
0
  0
BLOCK_RECORD
  5
F0E
330
1
100
AcDbSymbolTableRecord
100
AcDbBlockTableRecord
  2
*D80
340
0
  0
BLOCK_RECORD
  5
F16
330
1
100
AcDbSymbolTableRecord
100
AcDbBlockTableRecord
  2
*D81
340
0
  0
BLOCK_RECORD
  5
F23
330
1
100
AcDbSymbolTableRecord
100
AcDbBlockTableRecord
  2
*D82
340
0
  0
BLOCK_RECORD
  5
F30
330
1
100
AcDbSymbolTableRecord
100
AcDbBlockTableRecord
  2
*D83
340
0
  0
BLOCK_RECORD
  5
F3C
330
1
100
AcDbSymbolTableRecord
100
AcDbBlockTableRecord
  2
*D84
340
0
  0
BLOCK_RECORD
  5
F48
330
1
100
AcDbSymbolTableRecord
100
AcDbBlockTableRecord
  2
*D85
340
0
  0
BLOCK_RECORD
  5
F54
330
1
100
AcDbSymbolTableRecord
100
AcDbBlockTableRecord
  2
*D86
340
0
  0
BLOCK_RECORD
  5
F60
330
1
100
AcDbSymbolTableRecord
100
AcDbBlockTableRecord
  2
*D87
340
0
  0
BLOCK_RECORD
  5
F6C
330
1
100
AcDbSymbolTableRecord
100
AcDbBlockTableRecord
  2
*D88
340
0
  0
BLOCK_RECORD
  5
F78
330
1
100
AcDbSymbolTableRecord
100
AcDbBlockTableRecord
  2
*D89
340
0
  0
BLOCK_RECORD
  5
F84
330
1
100
AcDbSymbolTableRecord
100
AcDbBlockTableRecord
  2
*D90
340
0
  0
BLOCK_RECORD
  5
F90
330
1
100
AcDbSymbolTableRecord
100
AcDbBlockTableRecord
  2
*D91
340
0
  0
BLOCK_RECORD
  5
F9C
330
1
100
AcDbSymbolTableRecord
100
AcDbBlockTableRecord
  2
*D92
340
0
  0
BLOCK_RECORD
  5
FA8
330
1
100
AcDbSymbolTableRecord
100
AcDbBlockTableRecord
  2
*D93
340
0
  0
BLOCK_RECORD
  5
FB4
330
1
100
AcDbSymbolTableRecord
100
AcDbBlockTableRecord
  2
*D94
340
0
  0
BLOCK_RECORD
  5
FC0
330
1
100
AcDbSymbolTableRecord
100
AcDbBlockTableRecord
  2
*D95
340
0
  0
BLOCK_RECORD
  5
FCC
330
1
100
AcDbSymbolTableRecord
100
AcDbBlockTableRecord
  2
*D96
340
0
  0
BLOCK_RECORD
  5
FD8
330
1
100
AcDbSymbolTableRecord
100
AcDbBlockTableRecord
  2
*D97
340
0
  0
BLOCK_RECORD
  5
FE1
330
1
100
AcDbSymbolTableRecord
100
AcDbBlockTableRecord
  2
*D98
340
0
  0
BLOCK_RECORD
  5
FE9
330
1
100
AcDbSymbolTableRecord
100
AcDbBlockTableRecord
  2
*D99
340
0
  0
BLOCK_RECORD
  5
FF1
330
1
100
AcDbSymbolTableRecord
100
AcDbBlockTableRecord
  2
*D100
340
0
  0
BLOCK_RECORD
  5
FFA
330
1
100
AcDbSymbolTableRecord
100
AcDbBlockTableRecord
  2
*D101
340
0
  0
BLOCK_RECORD
  5
1002
330
1
100
AcDbSymbolTableRecord
100
AcDbBlockTableRecord
  2
*D102
340
0
  0
BLOCK_RECORD
  5
100B
330
1
100
AcDbSymbolTableRecord
100
AcDbBlockTableRecord
  2
*D103
340
0
  0
BLOCK_RECORD
  5
1014
330
1
100
AcDbSymbolTableRecord
100
AcDbBlockTableRecord
  2
*D104
340
0
  0
BLOCK_RECORD
  5
101F
330
1
100
AcDbSymbolTableRecord
100
AcDbBlockTableRecord
  2
*D105
340
0
  0
BLOCK_RECORD
  5
1027
330
1
100
AcDbSymbolTableRecord
100
AcDbBlockTableRecord
  2
*D106
340
0
  0
BLOCK_RECORD
  5
102F
330
1
100
AcDbSymbolTableRecord
100
AcDbBlockTableRecord
  2
*D107
340
0
  0
BLOCK_RECORD
  5
1046
330
1
100
AcDbSymbolTableRecord
100
AcDbBlockTableRecord
  2
*D108
340
0
  0
BLOCK_RECORD
  5
1058
330
1
100
AcDbSymbolTableRecord
100
AcDbBlockTableRecord
  2
*D109
340
0
  0
BLOCK_RECORD
  5
1064
330
1
100
AcDbSymbolTableRecord
100
AcDbBlockTableRecord
  2
*D110
340
0
  0
BLOCK_RECORD
  5
1071
330
1
100
AcDbSymbolTableRecord
100
AcDbBlockTableRecord
  2
*D111
340
0
  0
BLOCK_RECORD
  5
1086
330
1
100
AcDbSymbolTableRecord
100
AcDbBlockTableRecord
  2
*D112
340
0
  0
BLOCK_RECORD
  5
1094
330
1
100
AcDbSymbolTableRecord
100
AcDbBlockTableRecord
  2
*D113
340
0
  0
BLOCK_RECORD
  5
10D9
330
1
100
AcDbSymbolTableRecord
100
AcDbBlockTableRecord
  2
*D114
340
0
  0
BLOCK_RECORD
  5
10E5
330
1
100
AcDbSymbolTableRecord
100
AcDbBlockTableRecord
  2
*D115
340
0
  0
BLOCK_RECORD
  5
1103
330
1
100
AcDbSymbolTableRecord
100
AcDbBlockTableRecord
  2
*D116
340
0
  0
BLOCK_RECORD
  5
1148
330
1
100
AcDbSymbolTableRecord
100
AcDbBlockTableRecord
  2
*D117
340
0
  0
BLOCK_RECORD
  5
1154
330
1
100
AcDbSymbolTableRecord
100
AcDbBlockTableRecord
  2
*D118
340
0
  0
BLOCK_RECORD
  5
1160
330
1
100
AcDbSymbolTableRecord
100
AcDbBlockTableRecord
  2
*D119
340
0
  0
BLOCK_RECORD
  5
117E
330
1
100
AcDbSymbolTableRecord
100
AcDbBlockTableRecord
  2
*D120
340
0
  0
BLOCK_RECORD
  5
11DB
330
1
100
AcDbSymbolTableRecord
100
AcDbBlockTableRecord
  2
*D121
340
0
  0
BLOCK_RECORD
  5
1217
330
1
100
AcDbSymbolTableRecord
100
AcDbBlockTableRecord
  2
*D122
340
0
  0
BLOCK_RECORD
  5
1220
330
1
100
AcDbSymbolTableRecord
100
AcDbBlockTableRecord
  2
*D123
340
0
  0
BLOCK_RECORD
  5
1231
330
1
100
AcDbSymbolTableRecord
100
AcDbBlockTableRecord
  2
*D124
340
0
  0
BLOCK_RECORD
  5
123D
330
1
100
AcDbSymbolTableRecord
100
AcDbBlockTableRecord
  2
*D125
340
0
  0
BLOCK_RECORD
  5
1249
330
1
100
AcDbSymbolTableRecord
100
AcDbBlockTableRecord
  2
*D126
340
0
  0
BLOCK_RECORD
  5
1251
330
1
100
AcDbSymbolTableRecord
100
AcDbBlockTableRecord
  2
*D127
340
0
  0
BLOCK_RECORD
  5
125D
330
1
100
AcDbSymbolTableRecord
100
AcDbBlockTableRecord
  2
*D128
340
0
  0
BLOCK_RECORD
  5
1269
330
1
100
AcDbSymbolTableRecord
100
AcDbBlockTableRecord
  2
*D129
340
0
  0
ENDTAB
  0
ENDSEC
  0
SECTION
  2
BLOCKS
  0
BLOCK
  5
24
330
23
100
AcDbEntity
  8
0
100
AcDbBlockBegin
  2
*Model_Space
 70
     0
 10
0.0
 20
0.0
 30
0.0
  3
*Model_Space
  1

  0
ENDBLK
  5
25
330
23
100
AcDbEntity
  8
0
100
AcDbBlockEnd
  0
BLOCK
  5
20
330
1F
100
AcDbEntity
 67
     1
  8
0
100
AcDbBlockBegin
  2
*Paper_Space
 70
     0
 10
0.0
 20
0.0
 30
0.0
  3
*Paper_Space
  1

  0
ENDBLK
  5
21
330
1F
100
AcDbEntity
 67
     1
  8
0
100
AcDbBlockEnd
  0
BLOCK
  5
28
330
27
100
AcDbEntity
 67
     1
  8
0
100
AcDbBlockBegin
  2
*Paper_Space0
 70
     0
 10
0.0
 20
0.0
 30
0.0
  3
*Paper_Space0
  1

  0
ENDBLK
  5
29
330
27
100
AcDbEntity
 67
     1
  8
0
100
AcDbBlockEnd
  0
BLOCK
  5
30
330
2F
100
AcDbEntity
  8
0
100
AcDbBlockBegin
  2
*D1
 70
     1
 10
0.0
 20
0.0
 30
0.0
  3
*D1
  1

  0
LINE
  5
31
330
2F
100
AcDbEntity
  8
cotas
100
AcDbLine
 10
3842.953108074661
 20
3582.502289207558
 30
0.0
 11
3818.936460184175
 21
3609.451686418504
 31
0.0
  0
MTEXT
  5
32
330
2F
100
AcDbEntity
  8
cotas
100
AcDbMText
 10
3841.736978883198
 20
3598.89735292659
 30
0.0
 40
10.0
 41
0.0
 71
     5
 72
     1
  1
R7
  7
SANINDUSA
 11
0.6653169992359418
 21
-0.7465609757599724
 31
0.0
 73
     1
 44
1.0
1001
ACAD
1000
MTEXTBEGIN
1070
    73
1070
     1
1070
    44
1040
1.0
1070
    74
1070
     0
1000
MTEXTEND
  0
SOLID
  5
33
330
2F
100
AcDbEntity
  8
cotas
100
AcDbTrace
 10
3820.180728477109
 20
3610.560548083898
 30
0.0
 11
3817.692191891242
 21
3608.342824753111
 31
0.0
 12
3812.283290191816
 22
3616.917296176104
 32
0.0
 13
3812.283290191816
 23
3616.917296176104
 33
0.0
  0
POINT
  5
34
330
2F
100
AcDbEntity
  8
Defpoints
 62
     0
100
AcDbPoint
 10
3812.283290191816
 20
3616.917296176104
 30
0.0
  0
POINT
  5
35
330
2F
100
AcDbEntity
  8
Defpoints
 62
     0
100
AcDbPoint
 10
3816.940509186468
 20
3611.691369345784
 30
0.0
  0
ENDBLK
  5
36
330
2F
100
AcDbEntity
  8
0
100
AcDbBlockEnd
  0
BLOCK
  5
38
330
37
100
AcDbEntity
  8
0
100
AcDbBlockBegin
  2
*D2
 70
     1
 10
0.0
 20
0.0
 30
0.0
  3
*D2
  1

  0
LINE
  5
39
330
37
100
AcDbEntity
  8
cotas
100
AcDbLine
 10
4673.151872641696
 20
3586.655310244803
 30
0.0
 11
4700.878473527808
 21
3609.770348406813
 31
0.0
  0
MTEXT
  5
3A
330
37
100
AcDbEntity
  8
cotas
100
AcDbMText
 10
4676.771313329786
 20
3602.69204101098
 30
0.0
 40
10.0
 41
0.0
 71
     5
 72
     1
  1
R7
  7
SANINDUSA
 11
0.7680913250124711
 21
0.6403403129903557
 31
0.0
 73
     1
 44
1.0
1001
ACAD
1000
MTEXTBEGIN
1070
    73
1070
     1
1070
    44
1040
1.0
1070
    74
1070
     0
1000
MTEXTEND
  0
SOLID
  5
3B
330
37
100
AcDbEntity
  8
cotas
100
AcDbTrace
 10
4699.811239672825
 20
3611.050500615167
 30
0.0
 11
4701.945707382793
 21
3608.490196198459
 31
0.0
 12
4708.559386777934
 22
3616.173751536717
 32
0.0
 13
4708.559386777934
 23
3616.173751536717
 33
0.0
  0
POINT
  5
3C
330
37
100
AcDbEntity
  8
Defpoints
 62
     0
100
AcDbPoint
 10
4708.559386777934
 20
3616.173751536717
 30
0.0
  0
POINT
  5
3D
330
37
100
AcDbEntity
  8
Defpoints
 62
     0
100
AcDbPoint
 10
4703.182747502848
 20
3611.691369345785
 30
0.0
  0
ENDBLK
  5
3E
330
37
100
AcDbEntity
  8
0
100
AcDbBlockEnd
  0
BLOCK
  5
40
330
3F
100
AcDbEntity
  8
0
100
AcDbBlockBegin
  2
*D3
 70
     1
 10
0.0
 20
0.0
 30
0.0
  3
*D3
  1

  0
LINE
  5
41
330
3F
100
AcDbEntity
  8
cotas
100
AcDbLine
 10
4710.847072686077
 20
3573.692131717681
 30
0.0
 11
4711.373799238212
 21
3543.515068351871
 31
0.0
  0
ARC
  5
42
330
3F
100
AcDbEntity
  8
cotas
100
AcDbCircle
 10
4710.061632002298
 20
3618.691369345786
 30
0.0
 40
70.18775175507343
100
AcDbArc
 50
188.17013648039
 51
262.8298330588107
  0
SOLID
  5
43
330
3F
100
AcDbEntity
  8
cotas
100
AcDbTrace
 10
4638.923822948965
 20
3608.598046359384
 30
0.0
 11
4642.248687555271
 21
3608.83550469435
 31
0.0
 12
4639.873880247225
 22
3618.691369345786
 32
0.0
 13
4639.873880247225
 23
3618.691369345786
 33
0.0
  0
SOLID
  5
44
330
3F
100
AcDbEntity
  8
cotas
100
AcDbTrace
 10
4701.390731376872
 20
3550.716749192768
 30
0.0
 11
4701.211334326852
 21
3547.388246855446
 31
0.0
 12
4711.286539863826
 22
3548.514306874045
 32
0.0
 13
4711.286539863826
 23
3548.514306874045
 33
0.0
  0
MTEXT
  5
45
330
3F
100
AcDbEntity
  8
cotas
100
AcDbMText
 10
4668.816917692886
 20
3576.720465460372
 30
0.0
 40
10.0
 41
0.0
 71
     5
 72
     1
  1
91,0°
  7
SANINDUSA
 11
0.7132502628380123
 21
-0.7009094538965118
 31
0.0
 73
     1
 44
1.0
1001
ACAD
1000
MTEXTBEGIN
1070
    73
1070
     1
1070
    44
1040
1.0
1070
    74
1070
     0
1000
MTEXTEND
  0
POINT
  5
46
330
3F
100
AcDbEntity
  8
Defpoints
 62
     0
100
AcDbPoint
 10
4649.482445070914
 20
3583.244470931902
 30
0.0
  0
POINT
  5
47
330
3F
100
AcDbEntity
  8
Defpoints
 62
     0
100
AcDbPoint
 10
3816.940509128567
 20
3618.691369345786
 30
0.0
  0
POINT
  5
48
330
3F
100
AcDbEntity
  8
Defpoints
 62
     0
100
AcDbPoint
 10
4710.181681350882
 20
3611.813537224787
 30
0.0
  0
POINT
  5
49
330
3F
100
AcDbEntity
  8
Defpoints
 62
     0
100
AcDbPoint
 10
4710.759813311693
 20
3578.691370239855
 30
0.0
  0
POINT
  5
4A
330
3F
100
AcDbEntity
  8
Defpoints
 62
     0
100
AcDbPoint
 10
4703.182751658555
 20
3618.691369345786
 30
0.0
  0
ENDBLK
  5
4B
330
3F
100
AcDbEntity
  8
0
100
AcDbBlockEnd
  0
BLOCK
  5
4D
330
4C
100
AcDbEntity
  8
0
100
AcDbBlockBegin
  2
*D4
 70
     1
 10
0.0
 20
0.0
 30
0.0
  3
*D4
  1

  0
LINE
  5
4E
330
4C
100
AcDbEntity
  8
cotas
100
AcDbLine
 10
3809.276163731912
 20
3573.692131764071
 30
0.0
 11
3808.650479880997
 21
3537.846727900383
 31
0.0
  0
ARC
  5
4F
330
4C
100
AcDbEntity
  8
cotas
100
AcDbCircle
 10
3810.061628344485
 20
3618.691369345786
 30
0.0
 40
75.85695635145871
100
AcDbArc
 50
276.5586144526234
 51
352.4413855488218
  0
SOLID
  5
50
330
4C
100
AcDbEntity
  8
cotas
100
AcDbTrace
 10
3818.806794127397
 20
3541.666150592801
 30
0.0
 11
3818.645163991498
 21
3544.995562974931
 31
0.0
 12
3808.737741913057
 22
3542.845966376167
 32
0.0
 13
3808.737741913057
 23
3542.845966376167
 33
0.0
  0
SOLID
  5
51
330
4C
100
AcDbEntity
  8
cotas
100
AcDbTrace
 10
3883.596407134544
 20
3608.822971849175
 30
0.0
 11
3886.922491596223
 21
3608.603260072321
 31
0.0
 12
3885.918584695943
 22
3618.691369345786
 32
0.0
 13
3885.918584695943
 23
3618.691369345786
 33
0.0
  0
MTEXT
  5
52
330
4C
100
AcDbEntity
  8
cotas
100
AcDbMText
 10
3855.279929520562
 20
3572.676891772531
 30
0.0
 40
10.0
 41
0.0
 71
     5
 72
     1
  1
91,0°
  7
SANINDUSA
 11
0.7132504491453286
 21
0.70090926430886
 31
0.0
 73
     1
 44
1.0
1001
ACAD
1000
MTEXTBEGIN
1070
    73
1070
     1
1070
    44
1040
1.0
1070
    74
1070
     0
1000
MTEXTEND
  0
POINT
  5
53
330
4C
100
AcDbEntity
  8
Defpoints
 62
     0
100
AcDbPoint
 10
3847.223171319012
 20
3552.560457128733
 30
0.0
  0
POINT
  5
54
330
4C
100
AcDbEntity
  8
Defpoints
 62
     0
100
AcDbPoint
 10
3809.363425763972
 20
3578.691370239855
 30
0.0
  0
POINT
  5
55
330
4C
100
AcDbEntity
  8
Defpoints
 62
     0
100
AcDbPoint
 10
3816.940509128567
 20
3618.691369345786
 30
0.0
  0
POINT
  5
56
330
4C
100
AcDbEntity
  8
Defpoints
 62
     0
100
AcDbPoint
 10
4703.182751658555
 20
3618.691369345785
 30
0.0
  0
POINT
  5
57
330
4C
100
AcDbEntity
  8
Defpoints
 62
     0
100
AcDbPoint
 10
3809.941575322277
 20
3611.813536299831
 30
0.0
  0
ENDBLK
  5
58
330
4C
100
AcDbEntity
  8
0
100
AcDbBlockEnd
  0
BLOCK
  5
5A
330
59
100
AcDbEntity
  8
0
100
AcDbBlockBegin
  2
*D5
 70
     1
 10
0.0
 20
0.0
 30
0.0
  3
*D5
  1

  0
LINE
  5
5B
330
59
100
AcDbEntity
  8
cotas
100
AcDbLine
 10
5453.534871874403
 20
4367.456287407192
 30
0.0
 11
5503.020637548859
 21
4367.456287407192
 31
0.0
  0
LINE
  5
5C
330
59
100
AcDbEntity
  8
cotas
100
AcDbLine
 10
5691.196614810621
 20
4434.88452455878
 30
0.0
 11
5493.020637548859
 21
4434.88452455878
 31
0.0
  0
LINE
  5
5D
330
59
100
AcDbEntity
  8
cotas
100
AcDbLine
 10
5498.020637548859
 20
4377.456287407191
 30
0.0
 11
5498.020637548859
 21
4424.88452455878
 31
0.0
  0
SOLID
  5
5E
330
59
100
AcDbEntity
  8
cotas
100
AcDbTrace
 10
5496.353970882192
 20
4377.456287407191
 30
0.0
 11
5499.687304215526
 21
4377.456287407191
 31
0.0
 12
5498.020637548859
 22
4367.456287407192
 32
0.0
 13
5498.020637548859
 23
4367.456287407192
 33
0.0
  0
SOLID
  5
5F
330
59
100
AcDbEntity
  8
cotas
100
AcDbTrace
 10
5496.353970882192
 20
4424.88452455878
 30
0.0
 11
5499.687304215526
 21
4424.88452455878
 31
0.0
 12
5498.020637548859
 22
4434.88452455878
 32
0.0
 13
5498.020637548859
 23
4434.88452455878
 33
0.0
  0
MTEXT
  5
60
330
59
100
AcDbEntity
  8
cotas
100
AcDbMText
 10
5486.684170121055
 20
4401.170405982986
 30
0.0
 40
10.0
 41
0.0
 71
     5
 72
     1
  1
67,4
  7
SANINDUSA
 11
0.0000000000000001
 21
1.0
 31
0.0
 73
     1
 44
1.0
1001
ACAD
1000
MTEXTBEGIN
1070
    73
1070
     1
1070
    44
1040
1.0
1070
    74
1070
     0
1000
MTEXTEND
  0
POINT
  5
61
330
59
100
AcDbEntity
  8
Defpoints
 62
     0
100
AcDbPoint
 10
5448.534871874403
 20
4367.456287407192
 30
0.0
  0
POINT
  5
62
330
59
100
AcDbEntity
  8
Defpoints
 62
     0
100
AcDbPoint
 10
5696.196614810621
 20
4434.88452455878
 30
0.0
  0
POINT
  5
63
330
59
100
AcDbEntity
  8
Defpoints
 62
     0
100
AcDbPoint
 10
5498.020637548859
 20
4434.88452455878
 30
0.0
  0
ENDBLK
  5
64
330
59
100
AcDbEntity
  8
0
100
AcDbBlockEnd
  0
BLOCK
  5
66
330
65
100
AcDbEntity
  8
0
100
AcDbBlockBegin
  2
*D6
 70
     1
 10
0.0
 20
0.0
 30
0.0
  3
*D6
  1

  0
LINE
  5
67
330
65
100
AcDbEntity
  8
cotas
100
AcDbLine
 10
4993.603409126757
 20
4375.309874470716
 30
0.0
 11
4860.498405444094
 21
4375.309874470716
 31
0.0
  0
LINE
  5
68
330
65
100
AcDbEntity
  8
cotas
100
AcDbLine
 10
4891.196608024602
 20
4434.88452455878
 30
0.0
 11
4860.498405444094
 21
4434.88452455878
 31
0.0
  0
LINE
  5
69
330
65
100
AcDbEntity
  8
cotas
100
AcDbLine
 10
4865.498405444093
 20
4385.309874470716
 30
0.0
 11
4865.498405444093
 21
4424.88452455878
 31
0.0
  0
SOLID
  5
6A
330
65
100
AcDbEntity
  8
cotas
100
AcDbTrace
 10
4863.831738777426
 20
4385.309874470716
 30
0.0
 11
4867.165072110759
 21
4385.309874470716
 31
0.0
 12
4865.498405444093
 22
4375.309874470716
 32
0.0
 13
4865.498405444093
 23
4375.309874470716
 33
0.0
  0
SOLID
  5
6B
330
65
100
AcDbEntity
  8
cotas
100
AcDbTrace
 10
4863.831738777426
 20
4424.88452455878
 30
0.0
 11
4867.165072110759
 21
4424.88452455878
 31
0.0
 12
4865.498405444093
 22
4434.88452455878
 32
0.0
 13
4865.498405444093
 23
4434.88452455878
 33
0.0
  0
MTEXT
  5
6C
330
65
100
AcDbEntity
  8
cotas
100
AcDbMText
 10
4854.155222099565
 20
4405.097199514749
 30
0.0
 40
10.0
 41
0.0
 71
     5
 72
     1
  1
59,6
  7
SANINDUSA
 11
0.0000000000000001
 21
1.0
 31
0.0
 73
     1
 44
1.0
1001
ACAD
1000
MTEXTBEGIN
1070
    73
1070
     1
1070
    44
1040
1.0
1070
    74
1070
     0
1000
MTEXTEND
  0
POINT
  5
6D
330
65
100
AcDbEntity
  8
Defpoints
 62
     0
100
AcDbPoint
 10
4998.603409126758
 20
4375.309874470716
 30
0.0
  0
POINT
  5
6E
330
65
100
AcDbEntity
  8
Defpoints
 62
     0
100
AcDbPoint
 10
4896.196608024602
 20
4434.88452455878
 30
0.0
  0
POINT
  5
6F
330
65
100
AcDbEntity
  8
Defpoints
 62
     0
100
AcDbPoint
 10
4865.498405444093
 20
4434.88452455878
 30
0.0
  0
ENDBLK
  5
70
330
65
100
AcDbEntity
  8
0
100
AcDbBlockEnd
  0
BLOCK
  5
72
330
71
100
AcDbEntity
  8
0
100
AcDbBlockBegin
  2
*D7
 70
     1
 10
0.0
 20
0.0
 30
0.0
  3
*D7
  1

  0
ARC
  5
73
330
71
100
AcDbEntity
  8
cotas
100
AcDbCircle
 10
4962.430422079188
 20
4430.98452455878
 30
0.0
 40
47.01428158020761
100
AcDbArc
 50
192.2099791823496
 51
259.7900208176411
  0
SOLID
  5
74
330
71
100
AcDbEntity
  8
cotas
100
AcDbTrace
 10
4914.822432648169
 20
4420.863986590584
 30
0.0
 11
4918.136861602762
 21
4421.218488799413
 31
0.0
 12
4915.41614049898
 22
4430.98452455878
 32
0.0
 13
4915.41614049898
 23
4430.98452455878
 33
0.0
  0
SOLID
  5
75
330
71
100
AcDbEntity
  8
cotas
100
AcDbTrace
 10
4954.216158492718
 20
4386.377116789845
 30
0.0
 11
4953.977544139428
 21
4383.052334947151
 31
0.0
 12
4964.071196844159
 22
4383.998882808627
 32
0.0
 13
4964.071196844159
 23
4383.998882808627
 33
0.0
  0
MTEXT
  5
76
330
71
100
AcDbEntity
  8
cotas
100
AcDbMText
 10
4937.653527740189
 20
4405.327299389164
 30
0.0
 40
10.0
 41
0.0
 71
     5
 72
     1
  1
92,0°
  7
SANINDUSA
 11
0.719339800338595
 21
-0.6946583704590556
 31
0.0
 73
     1
 44
1.0
1001
ACAD
1000
MTEXTBEGIN
1070
    73
1070
     1
1070
    44
1040
1.0
1070
    74
1070
     0
1000
MTEXTEND
  0
POINT
  5
77
330
71
100
AcDbEntity
  8
Defpoints
 62
     0
100
AcDbPoint
 10
4921.991127839058
 20
4407.005238625639
 30
0.0
  0
POINT
  5
78
330
71
100
AcDbEntity
  8
Defpoints
 62
     0
100
AcDbPoint
 10
4903.07548886659
 20
4430.98452455878
 30
0.0
  0
POINT
  5
79
330
71
100
AcDbEntity
  8
Defpoints
 62
     0
100
AcDbPoint
 10
4964.147341488663
 20
4381.818385482446
 30
0.0
  0
POINT
  5
7A
330
71
100
AcDbEntity
  8
Defpoints
 62
     0
100
AcDbPoint
 10
4962.534898441045
 20
4427.992712998561
 30
0.0
  0
POINT
  5
7B
330
71
100
AcDbEntity
  8
Defpoints
 62
     0
100
AcDbPoint
 10
4959.436786877289
 20
4430.98452455878
 30
0.0
  0
ENDBLK
  5
7C
330
71
100
AcDbEntity
  8
0
100
AcDbBlockEnd
  0
BLOCK
  5
7E
330
7D
100
AcDbEntity
  8
0
100
AcDbBlockBegin
  2
*D8
 70
     1
 10
0.0
 20
0.0
 30
0.0
  3
*D8
  1

  0
LINE
  5
7F
330
7D
100
AcDbEntity
  8
cotas
100
AcDbLine
 10
4932.083412768324
 20
4333.99401083659
 30
0.0
 11
4965.13428938231
 21
4364.300120775136
 31
0.0
  0
MTEXT
  5
80
330
7D
100
AcDbEntity
  8
cotas
100
AcDbMText
 10
4938.153865211538
 20
4353.150732665309
 30
0.0
 40
10.0
 41
0.0
 71
     5
 72
     1
  1
R17
  7
SANINDUSA
 11
0.7370489033731538
 21
0.6758394143851272
 31
0.0
 73
     1
 44
1.0
1001
ACAD
1000
MTEXTBEGIN
1070
    73
1070
     1
1070
    44
1040
1.0
1070
    74
1070
     0
1000
MTEXTEND
  0
LINE
  5
81
330
7D
100
AcDbEntity
  8
cotas
100
AcDbLine
 10
4985.034609773379
 20
4382.54778496353
 30
0.0
 11
4972.504778416042
 21
4371.058514918988
 31
0.0
  0
SOLID
  5
82
330
7D
100
AcDbEntity
  8
cotas
100
AcDbTrace
 10
4964.007890358335
 20
4365.528535614092
 30
0.0
 11
4966.260688406286
 21
4363.071705936181
 31
0.0
 12
4972.504778416042
 22
4371.058514918988
 32
0.0
 13
4972.504778416042
 23
4371.058514918988
 33
0.0
  0
POINT
  5
83
330
7D
100
AcDbEntity
  8
Defpoints
 62
     0
100
AcDbPoint
 10
4972.504778416042
 20
4371.058514918988
 30
0.0
  0
POINT
  5
84
330
7D
100
AcDbEntity
  8
Defpoints
 62
     0
100
AcDbPoint
 10
4985.034609773379
 20
4382.54778496353
 30
0.0
  0
ENDBLK
  5
85
330
7D
100
AcDbEntity
  8
0
100
AcDbBlockEnd
  0
BLOCK
  5
87
330
86
100
AcDbEntity
  8
0
100
AcDbBlockBegin
  2
*D9
 70
     1
 10
0.0
 20
0.0
 30
0.0
  3
*D9
  1

  0
LINE
  5
88
330
86
100
AcDbEntity
  8
cotas
100
AcDbLine
 10
5008.429999475609
 20
4313.540402733845
 30
0.0
 11
4995.242323379478
 21
4356.357381744962
 31
0.0
  0
MTEXT
  5
89
330
86
100
AcDbEntity
  8
cotas
100
AcDbMText
 10
5013.060659173154
 20
4333.174260693053
 30
0.0
 40
10.0
 41
0.0
 71
     5
 72
     1
  1
R10
  7
SANINDUSA
 11
0.294355414587598
 21
-0.95569602379782
 31
0.0
 73
     1
 44
1.0
1001
ACAD
1000
MTEXTBEGIN
1070
    73
1070
     1
1070
    44
1040
1.0
1070
    74
1070
     0
1000
MTEXTEND
  0
LINE
  5
8A
330
86
100
AcDbEntity
  8
cotas
100
AcDbLine
 10
4989.355215087727
 20
4375.471302220915
 30
0.0
 11
4992.298769233602
 21
4365.91434198294
 31
0.0
  0
SOLID
  5
8B
330
86
100
AcDbEntity
  8
cotas
100
AcDbTrace
 10
4996.835150085808
 20
4356.847974102609
 30
0.0
 11
4993.649496673148
 21
4355.866789387316
 31
0.0
 12
4992.298769233602
 22
4365.91434198294
 32
0.0
 13
4992.298769233602
 23
4365.91434198294
 33
0.0
  0
POINT
  5
8C
330
86
100
AcDbEntity
  8
Defpoints
 62
     0
100
AcDbPoint
 10
4992.298769233602
 20
4365.91434198294
 30
0.0
  0
POINT
  5
8D
330
86
100
AcDbEntity
  8
Defpoints
 62
     0
100
AcDbPoint
 10
4989.355215087727
 20
4375.471302220915
 30
0.0
  0
ENDBLK
  5
8E
330
86
100
AcDbEntity
  8
0
100
AcDbBlockEnd
  0
BLOCK
  5
90
330
8F
100
AcDbEntity
  8
0
100
AcDbBlockBegin
  2
*D10
 70
     1
 10
0.0
 20
0.0
 30
0.0
  3
*D10
  1

  0
LINE
  5
91
330
8F
100
AcDbEntity
  8
cotas
100
AcDbLine
 10
5036.175905335959
 20
4334.827832376885
 30
0.0
 11
5006.78018326602
 21
4366.018778529968
 31
0.0
  0
MTEXT
  5
92
330
8F
100
AcDbEntity
  8
cotas
100
AcDbMText
 10
5034.503576644912
 20
4351.182660450289
 30
0.0
 40
10.0
 41
0.0
 71
     5
 72
     1
  1
R7
  7
SANINDUSA
 11
0.6858537116678557
 21
-0.7277394356439851
 31
0.0
 73
     1
 44
1.0
1001
ACAD
1000
MTEXTBEGIN
1070
    73
1070
     1
1070
    44
1040
1.0
1070
    74
1070
     0
1000
MTEXTEND
  0
SOLID
  5
93
330
8F
100
AcDbEntity
  8
cotas
100
AcDbTrace
 10
5007.993082325427
 20
4367.161868049415
 30
0.0
 11
5005.567284206613
 21
4364.875689010522
 31
0.0
 12
4999.921646149342
 22
4373.296172886408
 32
0.0
 13
4999.921646149342
 23
4373.296172886408
 33
0.0
  0
POINT
  5
94
330
8F
100
AcDbEntity
  8
Defpoints
 62
     0
100
AcDbPoint
 10
4999.921646149342
 20
4373.296172886408
 30
0.0
  0
POINT
  5
95
330
8F
100
AcDbEntity
  8
Defpoints
 62
     0
100
AcDbPoint
 10
5004.722622131017
 20
4368.201996836901
 30
0.0
  0
ENDBLK
  5
96
330
8F
100
AcDbEntity
  8
0
100
AcDbBlockEnd
  0
BLOCK
  5
98
330
97
100
AcDbEntity
  8
0
100
AcDbBlockBegin
  2
*D11
 70
     1
 10
0.0
 20
0.0
 30
0.0
  3
*D11
  1

  0
LINE
  5
99
330
97
100
AcDbEntity
  8
cotas
100
AcDbLine
 10
5432.505582221526
 20
4298.618853947959
 30
0.0
 11
5453.534280102584
 21
4338.224593557103
 31
0.0
  0
MTEXT
  5
9A
330
97
100
AcDbEntity
  8
cotas
100
AcDbMText
 10
5431.82810456336
 20
4318.702962295378
 30
0.0
 40
10.0
 41
0.0
 71
     5
 72
     1
  1
R17
  7
SANINDUSA
 11
0.4689490960744926
 21
0.8832251951178228
 31
0.0
 73
     1
 44
1.0
1001
ACAD
1000
MTEXTBEGIN
1070
    73
1070
     1
1070
    44
1040
1.0
1070
    74
1070
     0
1000
MTEXTEND
  0
LINE
  5
9B
330
97
100
AcDbEntity
  8
cotas
100
AcDbLine
 10
5466.197813330417
 20
4362.075266689134
 30
0.0
 11
5458.223771063328
 21
4347.056845508281
 31
0.0
  0
SOLID
  5
9C
330
97
100
AcDbEntity
  8
cotas
100
AcDbTrace
 10
5452.062238110721
 20
4339.006175383894
 30
0.0
 11
5455.006322094447
 21
4337.443011730313
 31
0.0
 12
5458.223771063328
 22
4347.056845508281
 32
0.0
 13
5458.223771063328
 23
4347.056845508281
 33
0.0
  0
POINT
  5
9D
330
97
100
AcDbEntity
  8
Defpoints
 62
     0
100
AcDbPoint
 10
5458.223771063328
 20
4347.056845508281
 30
0.0
  0
POINT
  5
9E
330
97
100
AcDbEntity
  8
Defpoints
 62
     0
100
AcDbPoint
 10
5466.197813330417
 20
4362.075266689134
 30
0.0
  0
ENDBLK
  5
9F
330
97
100
AcDbEntity
  8
0
100
AcDbBlockEnd
  0
BLOCK
  5
A1
330
A0
100
AcDbEntity
  8
0
100
AcDbBlockBegin
  2
*D12
 70
     1
 10
0.0
 20
0.0
 30
0.0
  3
*D12
  1

  0
LINE
  5
A2
330
A0
100
AcDbEntity
  8
cotas
100
AcDbLine
 10
5409.503878714204
 20
4328.247990793286
 30
0.0
 11
5440.106319000281
 21
4358.45750903994
 31
0.0
  0
MTEXT
  5
A3
330
A0
100
AcDbEntity
  8
cotas
100
AcDbMText
 10
5411.765125062391
 20
4344.531843209539
 30
0.0
 40
10.0
 41
0.0
 71
     5
 72
     1
  1
R7
  7
SANINDUSA
 11
0.7116607288362113
 21
0.702523314226875
 31
0.0
 73
     1
 44
1.0
1001
ACAD
1000
MTEXTBEGIN
1070
    73
1070
     1
1070
    44
1040
1.0
1070
    74
1070
     0
1000
MTEXTEND
  0
SOLID
  5
A4
330
A0
100
AcDbEntity
  8
cotas
100
AcDbTrace
 10
5438.935446809903
 20
4359.643610254667
 30
0.0
 11
5441.277191190659
 21
4357.271407825214
 31
0.0
 12
5447.222926288643
 22
4365.482742182209
 32
0.0
 13
5447.222926288643
 23
4365.482742182209
 33
0.0
  0
POINT
  5
A5
330
A0
100
AcDbEntity
  8
Defpoints
 62
     0
100
AcDbPoint
 10
5447.222926288643
 20
4365.482742182209
 30
0.0
  0
POINT
  5
A6
330
A0
100
AcDbEntity
  8
Defpoints
 62
     0
100
AcDbPoint
 10
5442.241308947963
 20
4360.565086644143
 30
0.0
  0
ENDBLK
  5
A7
330
A0
100
AcDbEntity
  8
0
100
AcDbBlockEnd
  0
BLOCK
  5
A9
330
A8
100
AcDbEntity
  8
0
100
AcDbBlockBegin
  2
*D13
 70
     1
 10
0.0
 20
0.0
 30
0.0
  3
*D13
  1

  0
ARC
  5
AA
330
A8
100
AcDbEntity
  8
cotas
100
AcDbCircle
 10
1585.576410244198
 20
4434.884524558781
 30
0.0
 40
3592.358038713256
100
AcDbArc
 50
359.1594928535919
 51
359.8405064378472
  0
SOLID
  5
AB
330
A8
100
AcDbEntity
  8
cotas
100
AcDbTrace
 10
5179.214374053032
 20
4382.161129804352
 30
0.0
 11
5175.881470661338
 21
4382.214665705798
 31
0.0
 12
5177.387314652845
 22
4372.189187579991
 32
0.0
 13
5177.387314652845
 23
4372.189187579991
 33
0.0
  0
SOLID
  5
AC
330
A8
100
AcDbEntity
  8
cotas
100
AcDbTrace
 10
5176.253865470663
 20
4424.886853984006
 30
0.0
 11
5179.58719557528
 21
4424.882214505845
 31
0.0
 12
5177.934448957453
 22
4434.884524558781
 32
0.0
 13
5177.934448957453
 23
4434.884524558781
 33
0.0
  0
MTEXT
  5
AD
330
A8
100
AcDbEntity
  8
cotas
100
AcDbMText
 10
5166.454911346848
 20
4403.634649161335
 30
0.0
 40
10.0
 41
0.0
 71
     5
 72
     1
  1
1,0°
  7
SANINDUSA
 11
0.0087265416814994
 21
0.9999619230102121
 31
0.0
 73
     1
 44
1.0
1001
ACAD
1000
MTEXTBEGIN
1070
    73
1070
     1
1070
    44
1040
1.0
1070
    74
1070
     0
1000
MTEXTEND
  0
POINT
  5
AE
330
A8
100
AcDbEntity
  8
Defpoints
 62
     0
100
AcDbPoint
 10
5177.691274726008
 20
4393.086454309446
 30
0.0
  0
POINT
  5
AF
330
A8
100
AcDbEntity
  8
Defpoints
 62
     0
100
AcDbPoint
 10
4986.420339084324
 20
4434.884524558781
 30
0.0
  0
POINT
  5
B0
330
A8
100
AcDbEntity
  8
Defpoints
 62
     0
100
AcDbPoint
 10
5254.392109016028
 20
4370.845062942012
 30
0.0
  0
POINT
  5
B1
330
A8
100
AcDbEntity
  8
Defpoints
 62
     0
100
AcDbPoint
 10
5004.844789062634
 20
4375.200930701484
 30
0.0
  0
POINT
  5
B2
330
A8
100
AcDbEntity
  8
Defpoints
 62
     0
100
AcDbPoint
 10
6005.972885857648
 20
4434.884524558781
 30
0.0
  0
ENDBLK
  5
B3
330
A8
100
AcDbEntity
  8
0
100
AcDbBlockEnd
  0
BLOCK
  5
B5
330
B4
100
AcDbEntity
  8
0
100
AcDbBlockBegin
  2
*D14
 70
     1
 10
0.0
 20
0.0
 30
0.0
  3
*D14
  1

  0
LINE
  5
B6
330
B4
100
AcDbEntity
  8
cotas
100
AcDbLine
 10
6316.196618753572
 20
4363.77920370617
 30
0.0
 11
6316.196618753572
 21
4499.879524514539
 31
0.0
  0
LINE
  5
B7
330
B4
100
AcDbEntity
  8
cotas
100
AcDbLine
 10
4896.196608024602
 20
4439.88452455878
 30
0.0
 11
4896.196608024602
 21
4499.879524514539
 31
0.0
  0
LINE
  5
B8
330
B4
100
AcDbEntity
  8
cotas
100
AcDbLine
 10
6306.196618753573
 20
4494.879524514539
 30
0.0
 11
4906.196608024602
 21
4494.879524514539
 31
0.0
  0
SOLID
  5
B9
330
B4
100
AcDbEntity
  8
cotas
100
AcDbTrace
 10
6306.196618753573
 20
4496.546191181206
 30
0.0
 11
6306.196618753573
 21
4493.212857847872
 31
0.0
 12
6316.196618753572
 22
4494.879524514539
 32
0.0
 13
6316.196618753572
 23
4494.879524514539
 33
0.0
  0
SOLID
  5
BA
330
B4
100
AcDbEntity
  8
cotas
100
AcDbTrace
 10
4906.196608024602
 20
4496.546191181206
 30
0.0
 11
4906.196608024602
 21
4493.212857847872
 31
0.0
 12
4896.196608024602
 22
4494.879524514539
 32
0.0
 13
4896.196608024602
 23
4494.879524514539
 33
0.0
  0
MTEXT
  5
BB
330
B4
100
AcDbEntity
  8
cotas
100
AcDbMText
 10
5606.196613389087
 20
4505.087717932941
 30
0.0
 40
10.0
 41
0.0
 71
     5
 72
     1
  1
1420
  7
SANINDUSA
 73
     1
 44
1.0
1001
ACAD
1000
MTEXTBEGIN
1070
    73
1070
     1
1070
    44
1040
1.0
1070
    74
1070
     0
1000
MTEXTEND
  0
POINT
  5
BC
330
B4
100
AcDbEntity
  8
Defpoints
 62
     0
100
AcDbPoint
 10
6316.196618753572
 20
4358.77920370617
 30
0.0
  0
POINT
  5
BD
330
B4
100
AcDbEntity
  8
Defpoints
 62
     0
100
AcDbPoint
 10
4896.196608024602
 20
4434.88452455878
 30
0.0
  0
POINT
  5
BE
330
B4
100
AcDbEntity
  8
Defpoints
 62
     0
100
AcDbPoint
 10
4896.196608024602
 20
4494.879524514539
 30
0.0
  0
ENDBLK
  5
BF
330
B4
100
AcDbEntity
  8
0
100
AcDbBlockEnd
  0
BLOCK
  5
C1
330
C0
100
AcDbEntity
  8
0
100
AcDbBlockBegin
  2
*D15
 70
     1
 10
0.0
 20
0.0
 30
0.0
  3
*D15
  1

  0
ARC
  5
C2
330
C0
100
AcDbEntity
  8
cotas
100
AcDbCircle
 10
6426.196619007992
 20
4434.88452455878
 30
0.0
 40
60.17204840949706
100
AcDbArc
 50
189.532984604482
 51
258.4669963830444
  0
SOLID
  5
C3
330
C0
100
AcDbEntity
  8
cotas
100
AcDbTrace
 10
6365.194618494186
 20
4424.780616538497
 30
0.0
 11
6368.516423911809
 21
4425.057600073332
 31
0.0
 12
6366.024570598495
 22
4434.88452455878
 32
0.0
 13
6366.024570598495
 23
4434.88452455878
 33
0.0
  0
SOLID
  5
C4
330
C0
100
AcDbEntity
  8
cotas
100
AcDbTrace
 10
6414.362652026294
 20
4377.582425324521
 30
0.0
 11
6413.969906786731
 21
4374.272310177294
 31
0.0
 12
6424.0966248482
 22
4374.749132032217
 32
0.0
 13
6424.0966248482
 23
4374.749132032217
 33
0.0
  0
MTEXT
  5
C5
330
C0
100
AcDbEntity
  8
cotas
100
AcDbMText
 10
6391.081729387591
 20
4400.97448108301
 30
0.0
 40
10.0
 41
0.0
 71
     5
 72
     1
  1
88,0°
  7
SANINDUSA
 11
0.694658251109633
 21
-0.7193399155929735
 31
0.0
 73
     1
 44
1.0
1001
ACAD
1000
MTEXTBEGIN
1070
    73
1070
     1
1070
    44
1040
1.0
1070
    74
1070
     0
1000
MTEXTEND
  0
POINT
  5
C6
330
C0
100
AcDbEntity
  8
Defpoints
 62
     0
100
AcDbPoint
 10
6373.739561803859
 20
4405.406862519923
 30
0.0
  0
POINT
  5
C7
330
C0
100
AcDbEntity
  8
Defpoints
 62
     0
100
AcDbPoint
 10
5386.420339084323
 20
4434.88452455878
 30
0.0
  0
POINT
  5
C8
330
C0
100
AcDbEntity
  8
Defpoints
 62
     0
100
AcDbPoint
 10
6423.388628441031
 20
4354.474960480926
 30
0.0
  0
POINT
  5
C9
330
C0
100
AcDbEntity
  8
Defpoints
 62
     0
100
AcDbPoint
 10
6425.960702479094
 20
4428.128823357094
 30
0.0
  0
POINT
  5
CA
330
C0
100
AcDbEntity
  8
Defpoints
 62
     0
100
AcDbPoint
 10
6405.972885857647
 20
4434.88452455878
 30
0.0
  0
ENDBLK
  5
CB
330
C0
100
AcDbEntity
  8
0
100
AcDbBlockEnd
  0
BLOCK
  5
CD
330
CC
100
AcDbEntity
  8
0
100
AcDbBlockBegin
  2
*D16
 70
     1
 10
0.0
 20
0.0
 30
0.0
  3
*D16
  1

  0
LINE
  5
CE
330
CC
100
AcDbEntity
  8
cotas
100
AcDbLine
 10
4891.196608024603
 20
3618.691369345786
 30
0.0
 11
4860.498405444094
 21
3618.691369345786
 31
0.0
  0
LINE
  5
CF
330
CC
100
AcDbEntity
  8
cotas
100
AcDbLine
 10
4890.498405444093
 20
3578.691370239855
 30
0.0
 11
4860.498405444094
 21
3578.691370239855
 31
0.0
  0
LINE
  5
D0
330
CC
100
AcDbEntity
  8
cotas
100
AcDbLine
 10
4865.498405444093
 20
3608.691369345785
 30
0.0
 11
4865.498405444093
 21
3588.691370239855
 31
0.0
  0
SOLID
  5
D1
330
CC
100
AcDbEntity
  8
cotas
100
AcDbTrace
 10
4863.831738777426
 20
3608.691369345785
 30
0.0
 11
4867.165072110759
 21
3608.691369345785
 31
0.0
 12
4865.498405444093
 22
3618.691369345786
 32
0.0
 13
4865.498405444093
 23
3618.691369345786
 33
0.0
  0
SOLID
  5
D2
330
CC
100
AcDbEntity
  8
cotas
100
AcDbTrace
 10
4863.831738777426
 20
3588.691370239855
 30
0.0
 11
4867.165072110759
 21
3588.691370239855
 31
0.0
 12
4865.498405444093
 22
3578.691370239855
 32
0.0
 13
4865.498405444093
 23
3578.691370239855
 33
0.0
  0
MTEXT
  5
D3
330
CC
100
AcDbEntity
  8
cotas
100
AcDbMText
 10
4855.293569984052
 20
3598.691369792821
 30
0.0
 40
10.0
 41
0.0
 71
     5
 72
     1
  1
40
  7
SANINDUSA
 11
0.0000000000000001
 21
1.0
 31
0.0
 73
     1
 44
1.0
1001
ACAD
1000
MTEXTBEGIN
1070
    73
1070
     1
1070
    44
1040
1.0
1070
    74
1070
     0
1000
MTEXTEND
  0
POINT
  5
D4
330
CC
100
AcDbEntity
  8
Defpoints
 62
     0
100
AcDbPoint
 10
4896.196608024604
 20
3618.691369345786
 30
0.0
  0
POINT
  5
D5
330
CC
100
AcDbEntity
  8
Defpoints
 62
     0
100
AcDbPoint
 10
4895.498405444093
 20
3578.691370239855
 30
0.0
  0
POINT
  5
D6
330
CC
100
AcDbEntity
  8
Defpoints
 62
     0
100
AcDbPoint
 10
4865.498405444093
 20
3578.691370239855
 30
0.0
  0
ENDBLK
  5
D7
330
CC
100
AcDbEntity
  8
0
100
AcDbBlockEnd
  0
BLOCK
  5
D9
330
D8
100
AcDbEntity
  8
0
100
AcDbBlockBegin
  2
*D17
 70
     1
 10
0.0
 20
0.0
 30
0.0
  3
*D17
  1

  0
LINE
  5
DA
330
D8
100
AcDbEntity
  8
cotas
100
AcDbLine
 10
4933.409694594767
 20
3587.023705024356
 30
0.0
 11
4905.403037469024
 21
3609.798615398933
 31
0.0
  0
MTEXT
  5
DB
330
D8
100
AcDbEntity
  8
cotas
100
AcDbMText
 10
4929.594793525451
 20
3603.015065641664
 30
0.0
 40
10.0
 41
0.0
 71
     5
 72
     1
  1
R7
  7
SANINDUSA
 11
0.7758495341438144
 21
-0.6309179822836138
 31
0.0
 73
     1
 44
1.0
1001
ACAD
1000
MTEXTBEGIN
1070
    73
1070
     1
1070
    44
1040
1.0
1070
    74
1070
     0
1000
MTEXTEND
  0
SOLID
  5
DC
330
D8
100
AcDbEntity
  8
cotas
100
AcDbTrace
 10
4906.454567439497
 20
3611.091697955839
 30
0.0
 11
4904.35150749855
 21
3608.505532842026
 31
0.0
 12
4897.644542127586
 22
3616.107795221768
 32
0.0
 13
4897.644542127586
 23
3616.107795221768
 33
0.0
  0
POINT
  5
DD
330
D8
100
AcDbEntity
  8
Defpoints
 62
     0
100
AcDbPoint
 10
4897.644542127586
 20
3616.107795221768
 30
0.0
  0
POINT
  5
DE
330
D8
100
AcDbEntity
  8
Defpoints
 62
     0
100
AcDbPoint
 10
4903.075488866591
 20
3611.691369345785
 30
0.0
  0
ENDBLK
  5
DF
330
D8
100
AcDbEntity
  8
0
100
AcDbBlockEnd
  0
BLOCK
  5
E1
330
E0
100
AcDbEntity
  8
0
100
AcDbBlockBegin
  2
*D18
 70
     1
 10
0.0
 20
0.0
 30
0.0
  3
*D18
  1

  0
LINE
  5
E2
330
E0
100
AcDbEntity
  8
cotas
100
AcDbLine
 10
6459.836268335173
 20
3586.010662231251
 30
0.0
 11
6487.05565017722
 21
3609.72088445854
 31
0.0
  0
MTEXT
  5
E3
330
E0
100
AcDbEntity
  8
cotas
100
AcDbMText
 10
6463.107475409156
 20
3602.122033645274
 30
0.0
 40
10.0
 41
0.0
 71
     5
 72
     1
  1
R7
  7
SANINDUSA
 11
0.7540401779122068
 21
0.6568282957471668
 31
0.0
 73
     1
 44
1.0
1001
ACAD
1000
MTEXTBEGIN
1070
    73
1070
     1
1070
    44
1040
1.0
1070
    74
1070
     0
1000
MTEXTEND
  0
SOLID
  5
E4
330
E0
100
AcDbEntity
  8
cotas
100
AcDbTrace
 10
6485.960936350974
 20
3610.977618088393
 30
0.0
 11
6488.150364003465
 21
3608.464150828685
 31
0.0
 12
6494.596051956341
 22
3616.289167416011
 32
0.0
 13
6494.596051956341
 23
3616.289167416011
 33
0.0
  0
POINT
  5
E5
330
E0
100
AcDbEntity
  8
Defpoints
 62
     0
100
AcDbPoint
 10
6494.596051956341
 20
3616.289167416011
 30
0.0
  0
POINT
  5
E6
330
E0
100
AcDbEntity
  8
Defpoints
 62
     0
100
AcDbPoint
 10
6489.317770710957
 20
3611.691369345782
 30
0.0
  0
ENDBLK
  5
E7
330
E0
100
AcDbEntity
  8
0
100
AcDbBlockEnd
  0
BLOCK
  5
E9
330
E8
100
AcDbEntity
  8
0
100
AcDbBlockBegin
  2
*D19
 70
     1
 10
0.0
 20
0.0
 30
0.0
  3
*D19
  1

  0
LINE
  5
EA
330
E8
100
AcDbEntity
  8
cotas
100
AcDbLine
 10
6496.982178212068
 20
3573.692131906065
 30
0.0
 11
6497.5312013126
 21
3542.241552234601
 31
0.0
  0
ARC
  5
EB
330
E8
100
AcDbEntity
  8
cotas
100
AcDbCircle
 10
6496.196640358111
 20
3618.691369345782
 30
0.0
 40
71.46146473403632
100
AcDbArc
 50
188.0242731520483
 51
262.9758200766588
  0
SOLID
  5
EC
330
E8
100
AcDbEntity
  8
cotas
100
AcDbTrace
 10
6423.77227133166
 20
3608.599263861721
 30
0.0
 11
6427.09743550446
 21
3608.83248979305
 31
0.0
 12
6424.735175624075
 22
3618.691369345782
 32
0.0
 13
6424.735175624075
 23
3618.691369345782
 33
0.0
  0
SOLID
  5
ED
330
E8
100
AcDbEntity
  8
cotas
100
AcDbTrace
 10
6487.545322465567
 20
3549.430613385683
 30
0.0
 11
6487.370169588626
 21
3546.101885012744
 31
0.0
 12
6497.443931145915
 22
3547.240790568389
 32
0.0
 13
6497.443931145915
 23
3547.240790568389
 33
0.0
  0
MTEXT
  5
EE
330
E8
100
AcDbEntity
  8
cotas
100
AcDbMText
 10
6454.059214863988
 20
3575.811943860412
 30
0.0
 40
10.0
 41
0.0
 71
     5
 72
     1
  1
91,0°
  7
SANINDUSA
 11
0.7132510193954568
 21
-0.7009086840176413
 31
0.0
 73
     1
 44
1.0
1001
ACAD
1000
MTEXTBEGIN
1070
    73
1070
     1
1070
    44
1040
1.0
1070
    74
1070
     0
1000
MTEXTEND
  0
POINT
  5
EF
330
E8
100
AcDbEntity
  8
Defpoints
 62
     0
100
AcDbPoint
 10
6434.518135213527
 20
3582.601163679102
 30
0.0
  0
POINT
  5
F0
330
E8
100
AcDbEntity
  8
Defpoints
 62
     0
100
AcDbPoint
 10
5303.075532336682
 20
3618.691369345782
 30
0.0
  0
POINT
  5
F1
330
E8
100
AcDbEntity
  8
Defpoints
 62
     0
100
AcDbPoint
 10
6496.316704551744
 20
3611.813537640962
 30
0.0
  0
POINT
  5
F2
330
E8
100
AcDbEntity
  8
Defpoints
 62
     0
100
AcDbPoint
 10
6496.894908045381
 20
3578.691370239852
 30
0.0
  0
POINT
  5
F3
330
E8
100
AcDbEntity
  8
Defpoints
 62
     0
100
AcDbPoint
 10
6489.317727182956
 20
3618.691369345782
 30
0.0
  0
ENDBLK
  5
F4
330
E8
100
AcDbEntity
  8
0
100
AcDbBlockEnd
  0
BLOCK
  5
F6
330
F5
100
AcDbEntity
  8
0
100
AcDbBlockBegin
  2
*D20
 70
     1
 10
0.0
 20
0.0
 30
0.0
  3
*D20
  1

  0
LINE
  5
F7
330
F5
100
AcDbEntity
  8
cotas
100
AcDbLine
 10
4895.411143412031
 20
3573.69213176407
 30
0.0
 11
4894.608402280727
 21
3527.703123085543
 31
0.0
  0
ARC
  5
F8
330
F5
100
AcDbEntity
  8
cotas
100
AcDbCircle
 10
4896.196608024602
 20
3618.691369345785
 30
0.0
 40
86.00210632177262
100
AcDbArc
 50
275.6658955430546
 51
353.3341044583943
  0
SOLID
  5
F9
330
F5
100
AcDbEntity
  8
cotas
100
AcDbTrace
 10
4904.755219784688
 20
3531.444140004715
 30
0.0
 11
4904.619531885649
 21
3534.774710512175
 31
0.0
 12
4894.695664312787
 22
3532.702361561327
 32
0.0
 13
4894.695664312787
 23
3532.702361561327
 33
0.0
  0
SOLID
  5
FA
330
F5
100
AcDbEntity
  8
cotas
100
AcDbTrace
 10
4979.953485654249
 20
3608.805180702135
 30
0.0
 11
4983.281180819332
 21
3608.611386998939
 31
0.0
 12
4982.198714346376
 22
3618.691369345785
 32
0.0
 13
4982.198714346376
 23
3618.691369345785
 33
0.0
  0
MTEXT
  5
FB
330
F5
100
AcDbEntity
  8
cotas
100
AcDbMText
 10
4948.525738802679
 20
3565.440858999558
 30
0.0
 40
10.0
 41
0.0
 71
     5
 72
     1
  1
91,0°
  7
SANINDUSA
 11
0.7132504491453208
 21
0.7009092643088679
 31
0.0
 73
     1
 44
1.0
1001
ACAD
1000
MTEXTBEGIN
1070
    73
1070
     1
1070
    44
1040
1.0
1070
    74
1070
     0
1000
MTEXTEND
  0
POINT
  5
FC
330
F5
100
AcDbEntity
  8
Defpoints
 62
     0
100
AcDbPoint
 10
4938.328155659722
 20
3543.716073510082
 30
0.0
  0
POINT
  5
FD
330
F5
100
AcDbEntity
  8
Defpoints
 62
     0
100
AcDbPoint
 10
4895.498405444092
 20
3578.691370239854
 30
0.0
  0
POINT
  5
FE
330
F5
100
AcDbEntity
  8
Defpoints
 62
     0
100
AcDbPoint
 10
4903.075488808688
 20
3618.691369345785
 30
0.0
  0
POINT
  5
FF
330
F5
100
AcDbEntity
  8
Defpoints
 62
     0
100
AcDbPoint
 10
6089.317683654959
 20
3618.691369345785
 30
0.0
  0
POINT
  5
100
330
F5
100
AcDbEntity
  8
Defpoints
 62
     0
100
AcDbPoint
 10
4896.076555002395
 20
3611.813536299827
 30
0.0
  0
ENDBLK
  5
101
330
F5
100
AcDbEntity
  8
0
100
AcDbBlockEnd
  0
BLOCK
  5
103
330
102
100
AcDbEntity
  8
0
100
AcDbBlockBegin
  2
*D21
 70
     1
 10
0.0
 20
0.0
 30
0.0
  3
*D21
  1

  0
LINE
  5
104
330
102
100
AcDbEntity
  8
cotas
100
AcDbLine
 10
6501.196640358114
 20
3618.691369345782
 30
0.0
 11
6531.894908045382
 21
3618.691369345782
 31
0.0
  0
LINE
  5
105
330
102
100
AcDbEntity
  8
cotas
100
AcDbLine
 10
6372.892376287104
 20
3486.746391645537
 30
0.0
 11
6531.894908045382
 21
3486.746391645537
 31
0.0
  0
LINE
  5
106
330
102
100
AcDbEntity
  8
cotas
100
AcDbLine
 10
6526.894908045381
 20
3608.691369345782
 30
0.0
 11
6526.894908045381
 21
3496.746391645537
 31
0.0
  0
SOLID
  5
107
330
102
100
AcDbEntity
  8
cotas
100
AcDbTrace
 10
6525.228241378714
 20
3608.691369345782
 30
0.0
 11
6528.561574712049
 21
3608.691369345782
 31
0.0
 12
6526.894908045381
 22
3618.691369345782
 32
0.0
 13
6526.894908045381
 23
3618.691369345782
 33
0.0
  0
SOLID
  5
108
330
102
100
AcDbEntity
  8
cotas
100
AcDbTrace
 10
6525.228241378714
 20
3496.746391645537
 30
0.0
 11
6528.561574712049
 21
3496.746391645537
 31
0.0
 12
6526.894908045381
 22
3486.746391645537
 32
0.0
 13
6526.894908045381
 23
3486.746391645537
 33
0.0
  0
MTEXT
  5
109
330
102
100
AcDbEntity
  8
cotas
100
AcDbMText
 10
6515.548366742493
 20
3552.71888049566
 30
0.0
 40
10.0
 41
0.0
 71
     5
 72
     1
  1
131,9
  7
SANINDUSA
 11
0.0000000000000001
 21
1.0
 31
0.0
 73
     1
 44
1.0
1001
ACAD
1000
MTEXTBEGIN
1070
    73
1070
     1
1070
    44
1040
1.0
1070
    74
1070
     0
1000
MTEXTEND
  0
POINT
  5
10A
330
102
100
AcDbEntity
  8
Defpoints
 62
     0
100
AcDbPoint
 10
6496.196640358114
 20
3618.691369345782
 30
0.0
  0
POINT
  5
10B
330
102
100
AcDbEntity
  8
Defpoints
 62
     0
100
AcDbPoint
 10
6367.892376287104
 20
3486.746391645537
 30
0.0
  0
POINT
  5
10C
330
102
100
AcDbEntity
  8
Defpoints
 62
     0
100
AcDbPoint
 10
6526.894908045381
 20
3486.746391645537
 30
0.0
  0
ENDBLK
  5
10D
330
102
100
AcDbEntity
  8
0
100
AcDbBlockEnd
  0
BLOCK
  5
10F
330
10E
100
AcDbEntity
  8
0
100
AcDbBlockBegin
  2
*D22
 70
     1
 10
0.0
 20
0.0
 30
0.0
  3
*D22
  1

  0
LINE
  5
110
330
10E
100
AcDbEntity
  8
cotas
100
AcDbLine
 10
6316.172055685782
 20
3017.250769201147
 30
0.0
 11
6316.172055685782
 21
3047.250769201148
 31
0.0
  0
LINE
  5
111
330
10E
100
AcDbEntity
  8
cotas
100
AcDbLine
 10
6135.700776837007
 20
2882.001348791876
 30
0.0
 11
6135.700776837007
 21
3047.250769201148
 31
0.0
  0
LINE
  5
112
330
10E
100
AcDbEntity
  8
cotas
100
AcDbLine
 10
6306.172055685783
 20
3042.250769201148
 30
0.0
 11
6145.700776837006
 21
3042.250769201148
 31
0.0
  0
SOLID
  5
113
330
10E
100
AcDbEntity
  8
cotas
100
AcDbTrace
 10
6306.172055685783
 20
3043.917435867815
 30
0.0
 11
6306.172055685783
 21
3040.584102534481
 31
0.0
 12
6316.172055685782
 22
3042.250769201148
 32
0.0
 13
6316.172055685782
 23
3042.250769201148
 33
0.0
  0
SOLID
  5
114
330
10E
100
AcDbEntity
  8
cotas
100
AcDbTrace
 10
6145.700776837006
 20
3043.917435867815
 30
0.0
 11
6145.700776837006
 21
3040.584102534481
 31
0.0
 12
6135.700776837007
 22
3042.250769201148
 32
0.0
 13
6135.700776837007
 23
3042.250769201148
 33
0.0
  0
MTEXT
  5
115
330
10E
100
AcDbEntity
  8
cotas
100
AcDbMText
 10
6225.936416261395
 20
3053.60738437912
 30
0.0
 40
10.0
 41
0.0
 71
     5
 72
     1
  1
180,5
  7
SANINDUSA
 73
     1
 44
1.0
1001
ACAD
1000
MTEXTBEGIN
1070
    73
1070
     1
1070
    44
1040
1.0
1070
    74
1070
     0
1000
MTEXTEND
  0
POINT
  5
116
330
10E
100
AcDbEntity
  8
Defpoints
 62
     0
100
AcDbPoint
 10
6316.172055685782
 20
3012.250769201147
 30
-0.0000000000000197
  0
POINT
  5
117
330
10E
100
AcDbEntity
  8
Defpoints
 62
     0
100
AcDbPoint
 10
6135.700776837007
 20
2877.001348791876
 30
0.0
  0
POINT
  5
118
330
10E
100
AcDbEntity
  8
Defpoints
 62
     0
100
AcDbPoint
 10
6135.700776837007
 20
3042.250769201148
 30
0.0
  0
ENDBLK
  5
119
330
10E
100
AcDbEntity
  8
0
100
AcDbBlockEnd
  0
BLOCK
  5
11B
330
11A
100
AcDbEntity
  8
0
100
AcDbBlockBegin
  2
*D23
 70
     1
 10
0.0
 20
0.0
 30
0.0
  3
*D23
  1

  0
LINE
  5
11C
330
11A
100
AcDbEntity
  8
cotas
100
AcDbLine
 10
5815.8695920172
 20
2881.983987807295
 30
0.0
 11
5815.8695920172
 21
3047.250571081181
 31
0.0
  0
LINE
  5
11D
330
11A
100
AcDbEntity
  8
cotas
100
AcDbLine
 10
5735.882294274792
 20
2881.983987807295
 30
0.0
 11
5735.882294274792
 21
3047.250571081181
 31
0.0
  0
LINE
  5
11E
330
11A
100
AcDbEntity
  8
cotas
100
AcDbLine
 10
5805.8695920172
 20
3042.250571081182
 30
0.0
 11
5745.882294274792
 21
3042.250571081182
 31
0.0
  0
SOLID
  5
11F
330
11A
100
AcDbEntity
  8
cotas
100
AcDbTrace
 10
5805.8695920172
 20
3043.917237747848
 30
0.0
 11
5805.8695920172
 21
3040.583904414515
 31
0.0
 12
5815.8695920172
 22
3042.250571081182
 32
0.0
 13
5815.8695920172
 23
3042.250571081182
 33
0.0
  0
SOLID
  5
120
330
11A
100
AcDbEntity
  8
cotas
100
AcDbTrace
 10
5745.882294274792
 20
3043.917237747848
 30
0.0
 11
5745.882294274792
 21
3040.583904414515
 31
0.0
 12
5735.882294274792
 22
3042.250571081182
 32
0.0
 13
5735.882294274792
 23
3042.250571081182
 33
0.0
  0
MTEXT
  5
121
330
11A
100
AcDbEntity
  8
cotas
100
AcDbMText
 10
5775.875943145996
 20
3052.478912249751
 30
0.0
 40
10.0
 41
0.0
 71
     5
 72
     1
  1
80
  7
SANINDUSA
 73
     1
 44
1.0
1001
ACAD
1000
MTEXTBEGIN
1070
    73
1070
     1
1070
    44
1040
1.0
1070
    74
1070
     0
1000
MTEXTEND
  0
POINT
  5
122
330
11A
100
AcDbEntity
  8
Defpoints
 62
     0
100
AcDbPoint
 10
5815.8695920172
 20
2876.983987807296
 30
0.0
  0
POINT
  5
123
330
11A
100
AcDbEntity
  8
Defpoints
 62
     0
100
AcDbPoint
 10
5735.882294274792
 20
2876.983987807296
 30
0.0
  0
POINT
  5
124
330
11A
100
AcDbEntity
  8
Defpoints
 62
     0
100
AcDbPoint
 10
5735.882294274792
 20
3042.250571081182
 30
0.0
  0
ENDBLK
  5
125
330
11A
100
AcDbEntity
  8
0
100
AcDbBlockEnd
  0
BLOCK
  5
127
330
126
100
AcDbEntity
  8
0
100
AcDbBlockBegin
  2
*D24
 70
     1
 10
0.0
 20
0.0
 30
0.0
  3
*D24
  1

  0
LINE
  5
128
330
126
100
AcDbEntity
  8
cotas
100
AcDbLine
 10
5735.882294274792
 20
2881.983987807295
 30
0.0
 11
5735.882294274792
 21
3047.250571081181
 31
0.0
  0
LINE
  5
129
330
126
100
AcDbEntity
  8
cotas
100
AcDbLine
 10
5655.883465994527
 20
3017.25057108118
 30
0.0
 11
5655.883465994527
 21
3047.250571081181
 31
0.0
  0
LINE
  5
12A
330
126
100
AcDbEntity
  8
cotas
100
AcDbLine
 10
5725.882294274792
 20
3042.250571081182
 30
0.0
 11
5665.883465994527
 21
3042.250571081182
 31
0.0
  0
SOLID
  5
12B
330
126
100
AcDbEntity
  8
cotas
100
AcDbTrace
 10
5725.882294274792
 20
3043.917237747848
 30
0.0
 11
5725.882294274792
 21
3040.583904414515
 31
0.0
 12
5735.882294274792
 22
3042.250571081182
 32
0.0
 13
5735.882294274792
 23
3042.250571081182
 33
0.0
  0
SOLID
  5
12C
330
126
100
AcDbEntity
  8
cotas
100
AcDbTrace
 10
5665.883465994527
 20
3043.917237747848
 30
0.0
 11
5665.883465994527
 21
3040.583904414515
 31
0.0
 12
5655.883465994527
 22
3042.250571081182
 32
0.0
 13
5655.883465994527
 23
3042.250571081182
 33
0.0
  0
MTEXT
  5
12D
330
126
100
AcDbEntity
  8
cotas
100
AcDbMText
 10
5695.882880134659
 20
3052.478912249751
 30
0.0
 40
10.0
 41
0.0
 71
     5
 72
     1
  1
80
  7
SANINDUSA
 73
     1
 44
1.0
1001
ACAD
1000
MTEXTBEGIN
1070
    73
1070
     1
1070
    44
1040
1.0
1070
    74
1070
     0
1000
MTEXTEND
  0
POINT
  5
12E
330
126
100
AcDbEntity
  8
Defpoints
 62
     0
100
AcDbPoint
 10
5735.882294274792
 20
2876.983987807296
 30
0.0
  0
POINT
  5
12F
330
126
100
AcDbEntity
  8
Defpoints
 62
     0
100
AcDbPoint
 10
5655.883465994527
 20
3012.25057108118
 30
-0.0000000000000197
  0
POINT
  5
130
330
126
100
AcDbEntity
  8
Defpoints
 62
     0
100
AcDbPoint
 10
5655.883465994527
 20
3042.250571081182
 30
0.0
  0
ENDBLK
  5
131
330
126
100
AcDbEntity
  8
0
100
AcDbBlockEnd
  0
BLOCK
  5
133
330
132
100
AcDbEntity
  8
0
100
AcDbBlockBegin
  2
*D25
 70
     1
 10
0.0
 20
0.0
 30
0.0
  3
*D25
  1

  0
LINE
  5
134
330
132
100
AcDbEntity
  8
cotas
100
AcDbLine
 10
6212.277473638725
 20
2601.567211376062
 30
0.0000000000001922
 11
6531.89484067553
 21
2601.567211376062
 31
0.0000000000001922
  0
LINE
  5
135
330
132
100
AcDbEntity
  8
cotas
100
AcDbLine
 10
6502.517803173802
 20
2561.560681673141
 30
0.0000000000001922
 11
6531.89484067553
 21
2561.560681673141
 31
0.0000000000001922
  0
LINE
  5
136
330
132
100
AcDbEntity
  8
cotas
100
AcDbLine
 10
6526.894840675528
 20
2591.567211376062
 30
0.0000000000001922
 11
6526.894840675528
 21
2571.560681673141
 31
0.0000000000001922
  0
SOLID
  5
137
330
132
100
AcDbEntity
  8
cotas
100
AcDbTrace
 10
6525.228174008862
 20
2591.567211376062
 30
0.0000000000001922
 11
6528.561507342196
 21
2591.567211376062
 31
0.0000000000001922
 12
6526.894840675528
 22
2601.567211376062
 32
0.0000000000001922
 13
6526.894840675528
 23
2601.567211376062
 33
0.0000000000001922
  0
SOLID
  5
138
330
132
100
AcDbEntity
  8
cotas
100
AcDbTrace
 10
6525.228174008862
 20
2571.560681673141
 30
0.0000000000001922
 11
6528.561507342196
 21
2571.560681673141
 31
0.0000000000001922
 12
6526.894840675528
 22
2561.560681673141
 32
0.0000000000001922
 13
6526.894840675528
 23
2561.560681673141
 33
0.0000000000001922
  0
MTEXT
  5
139
330
132
100
AcDbEntity
  8
cotas
100
AcDbMText
 10
6516.690005215489
 20
2581.563946524602
 30
0.0000000000001922
 40
10.0
 41
0.0
 71
     5
 72
     1
  1
40
  7
SANINDUSA
 11
0.0000000000000001
 21
1.0
 31
0.0
 73
     1
 44
1.0
1001
ACAD
1000
MTEXTBEGIN
1070
    73
1070
     1
1070
    44
1040
1.0
1070
    74
1070
     0
1000
MTEXTEND
  0
POINT
  5
13A
330
132
100
AcDbEntity
  8
Defpoints
 62
     0
100
AcDbPoint
 10
6207.277473638725
 20
2601.567211376062
 30
0.0000000000001922
  0
POINT
  5
13B
330
132
100
AcDbEntity
  8
Defpoints
 62
     0
100
AcDbPoint
 10
6497.517803173801
 20
2561.560681673141
 30
0.0000000000001922
  0
POINT
  5
13C
330
132
100
AcDbEntity
  8
Defpoints
 62
     0
100
AcDbPoint
 10
6526.894840675528
 20
2561.560681673141
 30
0.0000000000001922
  0
ENDBLK
  5
13D
330
132
100
AcDbEntity
  8
0
100
AcDbBlockEnd
  0
BLOCK
  5
13F
330
13E
100
AcDbEntity
  8
0
100
AcDbBlockBegin
  2
*D26
 70
     1
 10
0.0
 20
0.0
 30
0.0
  3
*D26
  1

  0
LINE
  5
140
330
13E
100
AcDbEntity
  8
cotas
100
AcDbLine
 10
6501.93959970548
 20
2561.560681673139
 30
0.0000000000001922
 11
6531.89484067553
 21
2561.560681673139
 31
0.0000000000001922
  0
LINE
  5
141
330
13E
100
AcDbEntity
  8
cotas
100
AcDbLine
 10
6212.279559376668
 20
2521.538247971708
 30
0.0000000000001922
 11
6531.89484067553
 21
2521.538247971708
 31
0.0000000000001922
  0
LINE
  5
142
330
13E
100
AcDbEntity
  8
cotas
100
AcDbLine
 10
6526.894840675528
 20
2551.560681673139
 30
0.0000000000001922
 11
6526.894840675528
 21
2531.538247971707
 31
0.0000000000001922
  0
SOLID
  5
143
330
13E
100
AcDbEntity
  8
cotas
100
AcDbTrace
 10
6525.228174008862
 20
2551.560681673139
 30
0.0000000000001922
 11
6528.561507342196
 21
2551.560681673139
 31
0.0000000000001922
 12
6526.894840675528
 22
2561.560681673139
 32
0.0000000000001922
 13
6526.894840675528
 23
2561.560681673139
 33
0.0000000000001922
  0
SOLID
  5
144
330
13E
100
AcDbEntity
  8
cotas
100
AcDbTrace
 10
6525.228174008862
 20
2531.538247971707
 30
0.0000000000001922
 11
6528.561507342196
 21
2531.538247971707
 31
0.0000000000001922
 12
6526.894840675528
 22
2521.538247971708
 32
0.0000000000001922
 13
6526.894840675528
 23
2521.538247971708
 33
0.0000000000001922
  0
MTEXT
  5
145
330
13E
100
AcDbEntity
  8
cotas
100
AcDbMText
 10
6516.690005215489
 20
2541.549464822424
 30
0.0000000000001922
 40
10.0
 41
0.0
 71
     5
 72
     1
  1
40
  7
SANINDUSA
 11
0.0000000000000001
 21
1.0
 31
0.0
 73
     1
 44
1.0
1001
ACAD
1000
MTEXTBEGIN
1070
    73
1070
     1
1070
    44
1040
1.0
1070
    74
1070
     0
1000
MTEXTEND
  0
POINT
  5
146
330
13E
100
AcDbEntity
  8
Defpoints
 62
     0
100
AcDbPoint
 10
6496.939599705481
 20
2561.560681673139
 30
0.0000000000001922
  0
POINT
  5
147
330
13E
100
AcDbEntity
  8
Defpoints
 62
     0
100
AcDbPoint
 10
6207.279559376668
 20
2521.538247971708
 30
0.0000000000001922
  0
POINT
  5
148
330
13E
100
AcDbEntity
  8
Defpoints
 62
     0
100
AcDbPoint
 10
6526.894840675528
 20
2521.538247971708
 30
0.0000000000001922
  0
ENDBLK
  5
149
330
13E
100
AcDbEntity
  8
0
100
AcDbBlockEnd
  0
BLOCK
  5
14B
330
14A
100
AcDbEntity
  8
0
100
AcDbBlockBegin
  2
*D27
 70
     1
 10
0.0
 20
0.0
 30
0.0
  3
*D27
  1

  0
LINE
  5
14C
330
14A
100
AcDbEntity
  8
cotas
100
AcDbLine
 10
6212.279559376668
 20
2521.538247971708
 30
0.0000000000001922
 11
6531.89484067553
 21
2521.538247971708
 31
0.0000000000001922
  0
LINE
  5
14D
330
14A
100
AcDbEntity
  8
cotas
100
AcDbLine
 10
6212.279559376667
 20
2441.552717314847
 30
0.0000000000001922
 11
6531.89484067553
 21
2441.552717314847
 31
0.0000000000001922
  0
LINE
  5
14E
330
14A
100
AcDbEntity
  8
cotas
100
AcDbLine
 10
6526.894840675528
 20
2511.538247971707
 30
0.0000000000001922
 11
6526.894840675528
 21
2451.552717314847
 31
0.0000000000001922
  0
SOLID
  5
14F
330
14A
100
AcDbEntity
  8
cotas
100
AcDbTrace
 10
6525.228174008862
 20
2511.538247971707
 30
0.0000000000001922
 11
6528.561507342196
 21
2511.538247971707
 31
0.0000000000001922
 12
6526.894840675528
 22
2521.538247971708
 32
0.0000000000001922
 13
6526.894840675528
 23
2521.538247971708
 33
0.0000000000001922
  0
SOLID
  5
150
330
14A
100
AcDbEntity
  8
cotas
100
AcDbTrace
 10
6525.228174008862
 20
2451.552717314847
 30
0.0000000000001922
 11
6528.561507342196
 21
2451.552717314847
 31
0.0000000000001922
 12
6526.894840675528
 22
2441.552717314847
 32
0.0000000000001922
 13
6526.894840675528
 23
2441.552717314847
 33
0.0000000000001922
  0
MTEXT
  5
151
330
14A
100
AcDbEntity
  8
cotas
100
AcDbMText
 10
6516.666499506958
 20
2481.545482643278
 30
0.0000000000001922
 40
10.0
 41
0.0
 71
     5
 72
     1
  1
80
  7
SANINDUSA
 11
0.0000000000000001
 21
1.0
 31
0.0
 73
     1
 44
1.0
1001
ACAD
1000
MTEXTBEGIN
1070
    73
1070
     1
1070
    44
1040
1.0
1070
    74
1070
     0
1000
MTEXTEND
  0
POINT
  5
152
330
14A
100
AcDbEntity
  8
Defpoints
 62
     0
100
AcDbPoint
 10
6207.279559376668
 20
2521.538247971708
 30
0.0000000000001922
  0
POINT
  5
153
330
14A
100
AcDbEntity
  8
Defpoints
 62
     0
100
AcDbPoint
 10
6207.279559376667
 20
2441.552717314847
 30
0.0000000000001922
  0
POINT
  5
154
330
14A
100
AcDbEntity
  8
Defpoints
 62
     0
100
AcDbPoint
 10
6526.894840675528
 20
2441.552717314847
 30
0.0000000000001922
  0
ENDBLK
  5
155
330
14A
100
AcDbEntity
  8
0
100
AcDbBlockEnd
  0
BLOCK
  5
157
330
156
100
AcDbEntity
  8
0
100
AcDbBlockBegin
  2
*D28
 70
     1
 10
0.0
 20
0.0
 30
0.0
  3
*D28
  1

  0
LINE
  5
158
330
156
100
AcDbEntity
  8
cotas
100
AcDbLine
 10
6212.327839272071
 20
2281.552357351465
 30
0.0000000000001922
 11
6531.894132868949
 21
2281.552357351465
 31
0.0000000000001922
  0
LINE
  5
159
330
156
100
AcDbEntity
  8
cotas
100
AcDbLine
 10
6496.819535486534
 20
2111.560681673141
 30
0.0000000000001922
 11
6531.894132868949
 21
2111.560681673141
 31
0.0000000000001922
  0
LINE
  5
15A
330
156
100
AcDbEntity
  8
cotas
100
AcDbLine
 10
6526.89413286895
 20
2271.552357351465
 30
0.0000000000001922
 11
6526.89413286895
 21
2121.560681673141
 31
0.0000000000001922
  0
SOLID
  5
15B
330
156
100
AcDbEntity
  8
cotas
100
AcDbTrace
 10
6525.227466202281
 20
2271.552357351465
 30
0.0000000000001922
 11
6528.560799535616
 21
2271.552357351465
 31
0.0000000000001922
 12
6526.89413286895
 22
2281.552357351465
 32
0.0000000000001922
 13
6526.89413286895
 23
2281.552357351465
 33
0.0000000000001922
  0
SOLID
  5
15C
330
156
100
AcDbEntity
  8
cotas
100
AcDbTrace
 10
6525.227466202281
 20
2121.560681673141
 30
0.0000000000001922
 11
6528.560799535616
 21
2121.560681673141
 31
0.0000000000001922
 12
6526.89413286895
 22
2111.560681673141
 32
0.0000000000001922
 13
6526.89413286895
 23
2111.560681673141
 33
0.0000000000001922
  0
MTEXT
  5
15D
330
156
100
AcDbEntity
  8
cotas
100
AcDbMText
 10
6516.689297408908
 20
2196.556519512304
 30
0.0000000000001922
 40
10.0
 41
0.0
 71
     5
 72
     1
  1
170
  7
SANINDUSA
 11
0.0000000000000001
 21
1.0
 31
0.0
 73
     1
 44
1.0
1001
ACAD
1000
MTEXTBEGIN
1070
    73
1070
     1
1070
    44
1040
1.0
1070
    74
1070
     0
1000
MTEXTEND
  0
POINT
  5
15E
330
156
100
AcDbEntity
  8
Defpoints
 62
     0
100
AcDbPoint
 10
6207.327839272071
 20
2281.552357351465
 30
0.0000000000001922
  0
POINT
  5
15F
330
156
100
AcDbEntity
  8
Defpoints
 62
     0
100
AcDbPoint
 10
6491.819535486533
 20
2111.560681673141
 30
0.0000000000001922
  0
POINT
  5
160
330
156
100
AcDbEntity
  8
Defpoints
 62
     0
100
AcDbPoint
 10
6526.89413286895
 20
2111.560681673141
 30
0.0000000000001922
  0
ENDBLK
  5
161
330
156
100
AcDbEntity
  8
0
100
AcDbBlockEnd
  0
BLOCK
  5
163
330
162
100
AcDbEntity
  8
0
100
AcDbBlockBegin
  2
*D29
 70
     1
 10
0.0
 20
0.0
 30
0.0
  3
*D29
  1

  0
LINE
  5
164
330
162
100
AcDbEntity
  8
cotas
100
AcDbLine
 10
4934.777962981595
 20
2147.685554544816
 30
0.0
 11
4965.715971935979
 21
2180.090000140958
 31
0.0
  0
MTEXT
  5
165
330
162
100
AcDbEntity
  8
cotas
100
AcDbMText
 10
4939.410795224837
 20
2167.320645558198
 30
0.0
 40
10.0
 41
0.0
 71
     5
 72
     1
  1
R20
  7
SANINDUSA
 11
0.6905515714747068
 21
0.7232831583369083
 31
0.0
 73
     1
 44
1.0
1001
ACAD
1000
MTEXTBEGIN
1070
    73
1070
     1
1070
    44
1040
1.0
1070
    74
1070
     0
1000
MTEXTEND
  0
LINE
  5
166
330
162
100
AcDbEntity
  8
cotas
100
AcDbLine
 10
4986.432519080219
 20
2201.788494891064
 30
0.0
 11
4972.621487650726
 21
2187.322831724327
 31
0.0
  0
SOLID
  5
167
330
162
100
AcDbEntity
  8
cotas
100
AcDbTrace
 10
4964.510500005417
 20
2181.240919426749
 30
0.0
 11
4966.92144386654
 21
2178.939080855167
 31
0.0
 12
4972.621487650726
 22
2187.322831724327
 32
0.0
 13
4972.621487650726
 23
2187.322831724327
 33
0.0
  0
POINT
  5
168
330
162
100
AcDbEntity
  8
Defpoints
 62
     0
100
AcDbPoint
 10
4972.621487650726
 20
2187.322831724327
 30
0.0
  0
POINT
  5
169
330
162
100
AcDbEntity
  8
Defpoints
 62
     0
100
AcDbPoint
 10
4986.432519080219
 20
2201.788494891064
 30
0.0
  0
ENDBLK
  5
16A
330
162
100
AcDbEntity
  8
0
100
AcDbBlockEnd
  0
BLOCK
  5
16C
330
16B
100
AcDbEntity
  8
0
100
AcDbBlockBegin
  2
*D30
 70
     1
 10
0.0
 20
0.0
 30
0.0
  3
*D30
  1

  0
LINE
  5
16D
330
16B
100
AcDbEntity
  8
cotas
100
AcDbLine
 10
5040.853924084744
 20
2259.250824333532
 30
0.0
 11
5008.351208691386
 21
2228.416071464193
 31
0.0
  0
MTEXT
  5
16E
330
16B
100
AcDbEntity
  8
cotas
100
AcDbMText
 10
5021.206503522736
 20
2254.67805133934
 30
0.0
 40
10.0
 41
0.0
 71
     5
 72
     1
  1
R10
  7
SANINDUSA
 11
0.7254765885281058
 21
0.688246844887517
 31
0.0
 73
     1
 44
1.0
1001
ACAD
1000
MTEXTBEGIN
1070
    73
1070
     1
1070
    44
1040
1.0
1070
    74
1070
     0
1000
MTEXTEND
  0
SOLID
  5
16F
330
16B
100
AcDbEntity
  8
cotas
100
AcDbTrace
 10
5007.204130616573
 20
2229.62519911174
 30
0.0
 11
5009.498286766199
 21
2227.206943816646
 31
0.0
 12
5001.096442806105
 22
2221.533603015318
 32
0.0
 13
5001.096442806105
 23
2221.533603015318
 33
0.0
  0
POINT
  5
170
330
16B
100
AcDbEntity
  8
Defpoints
 62
     0
100
AcDbPoint
 10
5001.096442806105
 20
2221.533603015318
 30
0.0
  0
POINT
  5
171
330
16B
100
AcDbEntity
  8
Defpoints
 62
     0
100
AcDbPoint
 10
5008.351208691378
 20
2228.416071464185
 30
0.0
  0
ENDBLK
  5
172
330
16B
100
AcDbEntity
  8
0
100
AcDbBlockEnd
  0
BLOCK
  5
174
330
173
100
AcDbEntity
  8
0
100
AcDbBlockBegin
  2
*D31
 70
     1
 10
0.0
 20
0.0
 30
0.0
  3
*D31
  1

  0
LINE
  5
175
330
173
100
AcDbEntity
  8
cotas
100
AcDbLine
 10
5416.224361361208
 20
2257.247646662225
 30
0.0
 11
5451.139937050363
 21
2229.174330742125
 31
0.0
  0
MTEXT
  5
176
330
173
100
AcDbEntity
  8
cotas
100
AcDbMText
 10
5436.179939258252
 20
2254.29700293725
 30
0.0
 40
10.0
 41
0.0
 71
     5
 72
     1
  1
R10
  7
SANINDUSA
 11
0.7793328166864434
 21
-0.6266102144360355
 31
0.0
 73
     1
 44
1.0
1001
ACAD
1000
MTEXTBEGIN
1070
    73
1070
     1
1070
    44
1040
1.0
1070
    74
1070
     0
1000
MTEXTEND
  0
SOLID
  5
177
330
173
100
AcDbEntity
  8
cotas
100
AcDbTrace
 10
5452.184287407757
 20
2230.473218769935
 30
0.0
 11
5450.095586692969
 21
2227.875442714314
 31
0.0
 12
5458.933265217227
 22
2222.908228597765
 32
0.0
 13
5458.933265217227
 23
2222.908228597765
 33
0.0
  0
POINT
  5
178
330
173
100
AcDbEntity
  8
Defpoints
 62
     0
100
AcDbPoint
 10
5458.933265217227
 20
2222.908228597765
 30
0.0
  0
POINT
  5
179
330
173
100
AcDbEntity
  8
Defpoints
 62
     0
100
AcDbPoint
 10
5451.139937050363
 20
2229.174330742124
 30
0.0
  0
ENDBLK
  5
17A
330
173
100
AcDbEntity
  8
0
100
AcDbBlockEnd
  0
BLOCK
  5
17C
330
17B
100
AcDbEntity
  8
0
100
AcDbBlockBegin
  2
*D32
 70
     1
 10
0.0
 20
0.0
 30
0.0
  3
*D32
  1

  0
LINE
  5
17D
330
17B
100
AcDbEntity
  8
cotas
100
AcDbLine
 10
4933.152658111468
 20
2973.844169375848
 30
0.0
 11
4965.06412792905
 21
2942.397920211022
 31
0.0
  0
MTEXT
  5
17E
330
17B
100
AcDbEntity
  8
cotas
100
AcDbMText
 10
4952.712082040098
 20
2968.901612418369
 30
0.0
 40
10.0
 41
0.0
 71
     5
 72
     1
  1
R20
  7
SANINDUSA
 11
0.7122796965729293
 21
-0.7018957428635507
 31
0.0
 73
     1
 44
1.0
1001
ACAD
1000
MTEXTBEGIN
1070
    73
1070
     1
1070
    44
1040
1.0
1070
    74
1070
     0
1000
MTEXTEND
  0
LINE
  5
17F
330
17B
100
AcDbEntity
  8
cotas
100
AcDbLine
 10
4986.432518826238
 20
2921.341047925114
 30
0.0
 11
4972.186924894779
 21
2935.378962782385
 31
0.0
  0
SOLID
  5
180
330
17B
100
AcDbEntity
  8
cotas
100
AcDbTrace
 10
4966.233954167155
 20
2943.585053038642
 30
0.0
 11
4963.894301690944
 21
2941.210787383399
 31
0.0
 12
4972.186924894779
 22
2935.378962782385
 32
0.0
 13
4972.186924894779
 23
2935.378962782385
 33
0.0
  0
POINT
  5
181
330
17B
100
AcDbEntity
  8
Defpoints
 62
     0
100
AcDbPoint
 10
4972.186924894779
 20
2935.378962782385
 30
0.0
  0
POINT
  5
182
330
17B
100
AcDbEntity
  8
Defpoints
 62
     0
100
AcDbPoint
 10
4986.432518826238
 20
2921.341047925114
 30
0.0
  0
ENDBLK
  5
183
330
17B
100
AcDbEntity
  8
0
100
AcDbBlockEnd
  0
BLOCK
  5
185
330
184
100
AcDbEntity
  8
0
100
AcDbBlockBegin
  2
*D33
 70
     1
 10
0.0
 20
0.0
 30
0.0
  3
*D33
  1

  0
LINE
  5
186
330
184
100
AcDbEntity
  8
cotas
100
AcDbLine
 10
5037.520973515093
 20
2860.684000648633
 30
0.0
 11
5008.351420038125
 21
2894.689083245348
 31
0.0
  0
MTEXT
  5
187
330
184
100
AcDbEntity
  8
cotas
100
AcDbMText
 10
5033.937164482995
 20
2880.535642908614
 30
0.0
 40
10.0
 41
0.0
 71
     5
 72
     1
  1
R10
  7
SANINDUSA
 11
0.6510787757038356
 21
-0.7590101631915047
 31
0.0
 73
     1
 44
1.0
1001
ACAD
1000
MTEXTBEGIN
1070
    73
1070
     1
1070
    44
1040
1.0
1070
    74
1070
     0
1000
MTEXTEND
  0
SOLID
  5
188
330
184
100
AcDbEntity
  8
cotas
100
AcDbTrace
 10
5009.616436976778
 20
2895.774214538187
 30
0.0
 11
5007.086403099473
 21
2893.603951952508
 31
0.0
 12
5001.840632281087
 22
2902.279184877262
 32
0.0
 13
5001.840632281087
 23
2902.279184877262
 33
0.0
  0
POINT
  5
189
330
184
100
AcDbEntity
  8
Defpoints
 62
     0
100
AcDbPoint
 10
5001.840632281087
 20
2902.279184877262
 30
0.0
  0
POINT
  5
18A
330
184
100
AcDbEntity
  8
Defpoints
 62
     0
100
AcDbPoint
 10
5008.351420038126
 20
2894.689083245347
 30
0.0
  0
ENDBLK
  5
18B
330
184
100
AcDbEntity
  8
0
100
AcDbBlockEnd
  0
BLOCK
  5
18D
330
18C
100
AcDbEntity
  8
0
100
AcDbBlockBegin
  2
*D34
 70
     1
 10
0.0
 20
0.0
 30
0.0
  3
*D34
  1

  0
LINE
  5
18E
330
18C
100
AcDbEntity
  8
cotas
100
AcDbLine
 10
6456.711093385679
 20
2146.264793027409
 30
0.0000000000001922
 11
6426.695025990958
 21
2179.525042434327
 31
0.0000000000001922
  0
MTEXT
  5
18F
330
18C
100
AcDbEntity
  8
cotas
100
AcDbMText
 10
6452.631337498823
 20
2166.022210004371
 30
0.0000000000001922
 40
10.0
 41
0.0
 71
     5
 72
     1
  1
R20
  7
SANINDUSA
 11
0.6699733825624307
 21
-0.742385120175408
 31
0.0
 73
     1
 44
1.0
1001
ACAD
1000
MTEXTBEGIN
1070
    73
1070
     1
1070
    44
1040
1.0
1070
    74
1070
     0
1000
MTEXTEND
  0
LINE
  5
190
330
18C
100
AcDbEntity
  8
cotas
100
AcDbLine
 10
6406.595824514091
 20
2201.796596039584
 30
0.0000000000001922
 11
6419.995292165333
 21
2186.948893636082
 31
0.0000000000001922
  0
SOLID
  5
191
330
18C
100
AcDbEntity
  8
cotas
100
AcDbTrace
 10
6427.932334524584
 20
2180.641664738599
 30
0.0000000000001922
 11
6425.457717457333
 21
2178.408420130057
 31
0.0000000000001922
 12
6419.995292165333
 22
2186.948893636082
 32
0.0000000000001922
 13
6419.995292165333
 23
2186.948893636082
 33
0.0000000000001922
  0
POINT
  5
192
330
18C
100
AcDbEntity
  8
Defpoints
 62
     0
100
AcDbPoint
 10
6419.995292165333
 20
2186.948893636082
 30
0.0000000000001922
  0
POINT
  5
193
330
18C
100
AcDbEntity
  8
Defpoints
 62
     0
100
AcDbPoint
 10
6406.595824514091
 20
2201.796596039584
 30
0.0000000000001922
  0
ENDBLK
  5
194
330
18C
100
AcDbEntity
  8
0
100
AcDbBlockEnd
  0
BLOCK
  5
196
330
195
100
AcDbEntity
  8
0
100
AcDbBlockBegin
  2
*D35
 70
     1
 10
0.0
 20
0.0
 30
0.0
  3
*D35
  1

  0
LINE
  5
197
330
195
100
AcDbEntity
  8
cotas
100
AcDbLine
 10
6460.016677988912
 20
2973.696373388436
 30
0.0000000000001922
 11
6428.013466946628
 21
2942.343495124426
 31
0.0000000000001922
  0
MTEXT
  5
198
330
195
100
AcDbEntity
  8
cotas
100
AcDbMText
 10
6440.442896730949
 20
2968.810984871305
 30
0.0000000000001922
 40
10.0
 41
0.0
 71
     5
 72
     1
  1
R20
  7
SANINDUSA
 11
0.7143274058156273
 21
0.6998116584486973
 31
0.0
 73
     1
 44
1.0
1001
ACAD
1000
MTEXTBEGIN
1070
    73
1070
     1
1070
    44
1040
1.0
1070
    74
1070
     0
1000
MTEXTEND
  0
LINE
  5
199
330
195
100
AcDbEntity
  8
cotas
100
AcDbLine
 10
6406.583644772158
 20
2921.349145370963
 30
0.0000000000001922
 11
6420.870192888471
 21
2935.345378539938
 31
0.0000000000001922
  0
SOLID
  5
19A
330
195
100
AcDbEntity
  8
cotas
100
AcDbTrace
 10
6426.847114182547
 20
2943.534040800785
 30
0.0000000000001922
 11
6429.17981971071
 21
2941.152949448067
 31
0.0000000000001922
 12
6420.870192888471
 22
2935.345378539938
 32
0.0000000000001922
 13
6420.870192888471
 23
2935.345378539938
 33
0.0000000000001922
  0
POINT
  5
19B
330
195
100
AcDbEntity
  8
Defpoints
 62
     0
100
AcDbPoint
 10
6420.870192888471
 20
2935.345378539938
 30
0.0000000000001922
  0
POINT
  5
19C
330
195
100
AcDbEntity
  8
Defpoints
 62
     0
100
AcDbPoint
 10
6406.583644772158
 20
2921.349145370963
 30
0.0000000000001922
  0
ENDBLK
  5
19D
330
195
100
AcDbEntity
  8
0
100
AcDbBlockEnd
  0
BLOCK
  5
19F
330
19E
100
AcDbEntity
  8
0
100
AcDbBlockBegin
  2
*D36
 70
     1
 10
0.0
 20
0.0
 30
0.0
  3
*D36
  1

  0
LINE
  5
1A0
330
19E
100
AcDbEntity
  8
cotas
100
AcDbLine
 10
6208.017291999141
 20
2649.616098880505
 30
-0.0000000000000961
 11
6251.033140235072
 21
2614.598990986656
 31
-0.0000000000000961
  0
LINE
  5
1A1
330
19E
100
AcDbEntity
  8
cotas
100
AcDbLine
 10
6381.298549598169
 20
2508.55626297894
 30
-0.0000000000000961
 11
6389.053798178299
 21
2502.243092661232
 31
-0.0000000000000961
  0
MTEXT
  5
1A2
330
19E
100
AcDbEntity
  8
cotas
100
AcDbMText
 10
6232.528905074615
 20
2643.717298961173
 30
-0.0000000000000961
 40
10.0
 41
0.0
 71
     5
 72
     1
  1
\U+2205148
  7
SANINDUSA
 11
0.7755248580130978
 21
-0.6313170317706981
 31
0.0
 73
     1
 44
1.0
1001
ACAD
1000
MTEXTBEGIN
1070
    73
1070
     1
1070
    44
1040
1.0
1070
    74
1070
     0
1000
MTEXTEND
  0
LINE
  5
1A3
330
19E
100
AcDbEntity
  8
cotas
100
AcDbLine
 10
6373.543301018038
 20
2514.869433296647
 30
-0.0000000000000961
 11
6258.788388815203
 21
2608.285820668949
 31
-0.0000000000000961
  0
SOLID
  5
1A4
330
19E
100
AcDbEntity
  8
cotas
100
AcDbTrace
 10
6382.350744651121
 20
2509.848804408961
 30
-0.0000000000000961
 11
6380.246354545217
 21
2507.263721548917
 31
-0.0000000000000961
 12
6373.543301018038
 22
2514.869433296647
 32
-0.0000000000000961
 13
6373.543301018038
 23
2514.869433296647
 33
-0.0000000000000961
  0
SOLID
  5
1A5
330
19E
100
AcDbEntity
  8
cotas
100
AcDbTrace
 10
6252.085335288023
 20
2615.891532416677
 30
-0.0000000000000961
 11
6249.980945182119
 21
2613.306449556633
 31
-0.0000000000000961
 12
6258.788388815203
 22
2608.285820668949
 32
-0.0000000000000961
 13
6258.788388815203
 23
2608.285820668949
 33
-0.0000000000000961
  0
POINT
  5
1A6
330
19E
100
AcDbEntity
  8
Defpoints
 62
     0
100
AcDbPoint
 10
6258.788388815203
 20
2608.285820668949
 30
-0.0000000000000961
  0
POINT
  5
1A7
330
19E
100
AcDbEntity
  8
Defpoints
 62
     0
100
AcDbPoint
 10
6373.543301018038
 20
2514.869433296647
 30
-0.0000000000000961
  0
ENDBLK
  5
1A8
330
19E
100
AcDbEntity
  8
0
100
AcDbBlockEnd
  0
BLOCK
  5
1AA
330
1A9
100
AcDbEntity
  8
0
100
AcDbBlockBegin
  2
*D37
 70
     1
 10
0.0
 20
0.0
 30
0.0
  3
*D37
  1

  0
LINE
  5
1AB
330
1A9
100
AcDbEntity
  8
cotas
100
AcDbLine
 10
3810.061628344485
 20
3623.691369345786
 30
0.0
 11
3810.061628344485
 21
3653.691369345786
 31
0.0
  0
LINE
  5
1AC
330
1A9
100
AcDbEntity
  8
cotas
100
AcDbLine
 10
4710.061632002299
 20
3623.691369345786
 30
0.0
 11
4710.061632002299
 21
3653.691369345786
 31
0.0
  0
LINE
  5
1AD
330
1A9
100
AcDbEntity
  8
cotas
100
AcDbLine
 10
3820.061628344485
 20
3648.691369345786
 30
0.0
 11
4700.061632002299
 21
3648.691369345786
 31
0.0
  0
SOLID
  5
1AE
330
1A9
100
AcDbEntity
  8
cotas
100
AcDbTrace
 10
3820.061628344485
 20
3650.358036012452
 30
0.0
 11
3820.061628344485
 21
3647.024702679119
 31
0.0
 12
3810.061628344485
 22
3648.691369345786
 32
0.0
 13
3810.061628344485
 23
3648.691369345786
 33
0.0
  0
SOLID
  5
1AF
330
1A9
100
AcDbEntity
  8
cotas
100
AcDbTrace
 10
4700.061632002299
 20
3650.358036012452
 30
0.0
 11
4700.061632002299
 21
3647.024702679119
 31
0.0
 12
4710.061632002299
 22
3648.691369345786
 32
0.0
 13
4710.061632002299
 23
3648.691369345786
 33
0.0
  0
MTEXT
  5
1B0
330
1A9
100
AcDbEntity
  8
cotas
100
AcDbMText
 10
4260.061630173392
 20
3658.896204805826
 30
0.0
 40
10.0
 41
0.0
 71
     5
 72
     1
  1
900
  7
SANINDUSA
 73
     1
 44
1.0
1001
ACAD
1000
MTEXTBEGIN
1070
    73
1070
     1
1070
    44
1040
1.0
1070
    74
1070
     0
1000
MTEXTEND
  0
POINT
  5
1B1
330
1A9
100
AcDbEntity
  8
Defpoints
 62
     0
100
AcDbPoint
 10
3810.061628344485
 20
3618.691369345786
 30
0.0
  0
POINT
  5
1B2
330
1A9
100
AcDbEntity
  8
Defpoints
 62
     0
100
AcDbPoint
 10
4710.061632002299
 20
3618.691369345786
 30
0.0
  0
POINT
  5
1B3
330
1A9
100
AcDbEntity
  8
Defpoints
 62
     0
100
AcDbPoint
 10
4710.061632002299
 20
3648.691369345786
 30
0.0
  0
ENDBLK
  5
1B4
330
1A9
100
AcDbEntity
  8
0
100
AcDbBlockEnd
  0
BLOCK
  5
1B6
330
1B5
100
AcDbEntity
  8
0
100
AcDbBlockBegin
  2
*D38
 70
     1
 10
0.0
 20
0.0
 30
0.0
  3
*D38
  1

  0
LINE
  5
1B7
330
1B5
100
AcDbEntity
  8
cotas
100
AcDbLine
 10
3877.556080344316
 20
3565.150059758241
 30
0.0
 11
3877.556080344316
 21
3471.895679622827
 31
0.0
  0
LINE
  5
1B8
330
1B5
100
AcDbEntity
  8
cotas
100
AcDbLine
 10
3879.03651330242
 20
3536.297366652619
 30
0.0
 11
3881.283200549487
 21
3471.960736824025
 31
0.0
  0
ARC
  5
1B9
330
1B5
100
AcDbEntity
  8
cotas
100
AcDbCircle
 10
3877.556080344316
 20
3578.691370239856
 30
0.0
 40
101.7956906170291
100
AcDbArc
 50
258.7248005626061
 51
269.9999999999998
  0
LINE
  5
1BA
330
1B5
100
AcDbEntity
  8
cotas
100
AcDbLine
 10
3857.652817384404
 20
3478.860399335299
 30
0.0
 11
3820.552215502239
 21
3486.257132318471
 31
0.0
  0
ARC
  5
1BB
330
1B5
100
AcDbEntity
  8
cotas
100
AcDbCircle
 10
3877.556080344316
 20
3578.691370239856
 30
0.0
 40
101.7956906170291
100
AcDbArc
 50
258.7384539308305
 51
264.3692269654151
  0
ARC
  5
1BC
330
1B5
100
AcDbEntity
  8
cotas
100
AcDbCircle
 10
3877.556080344316
 20
3578.691370239856
 30
0.0
 40
101.7956906170291
100
AcDbArc
 50
277.630775371195
 51
283.2615484057797
  0
ARC
  5
1BD
330
1B5
100
AcDbEntity
  8
cotas
100
AcDbCircle
 10
3877.556080344316
 20
3578.691370239856
 30
0.0
 40
101.7956906170291
100
AcDbArc
 50
269.9999999999998
 51
272.0000023366103
  0
SOLID
  5
1BE
330
1B5
100
AcDbEntity
  8
cotas
100
AcDbTrace
 10
3867.650013836209
 20
3479.051514522521
 30
0.0
 11
3867.486287193503
 21
3475.722204579368
 31
0.0
 12
3877.556080344316
 22
3476.895679622827
 32
0.0
 13
3877.556080344316
 23
3476.895679622827
 33
0.0
  0
SOLID
  5
1BF
330
1B5
100
AcDbEntity
  8
cotas
100
AcDbTrace
 10
3891.213315488997
 20
3476.13636188278
 30
0.0
 11
3890.933497207297
 21
3479.457929711432
 31
0.0
 12
3881.108702862191
 22
3476.957690952005
 32
0.0
 13
3881.108702862191
 23
3476.957690952005
 33
0.0
  0
MTEXT
  5
1C0
330
1B5
100
AcDbEntity
  8
cotas
100
AcDbMText
 10
3841.321011095384
 20
3493.686311873381
 30
0.0
 40
10.0
 41
0.0
 71
     5
 72
     1
  1
2,0°
  7
SANINDUSA
 11
0.9806993822571159
 21
-0.1955216653992877
 31
0.0
 73
     1
 44
1.0
1001
ACAD
1000
MTEXTBEGIN
1070
    73
1070
     1
1070
    44
1040
1.0
1070
    74
1070
     0
1000
MTEXTEND
  0
POINT
  5
1C1
330
1B5
100
AcDbEntity
  8
Defpoints
 62
     0
100
AcDbPoint
 10
3879.924762595191
 20
3476.923241768353
 30
0.0
  0
POINT
  5
1C2
330
1B5
100
AcDbEntity
  8
Defpoints
 62
     0
100
AcDbPoint
 10
3877.556080344316
 20
3578.691370239856
 30
0.0
  0
POINT
  5
1C3
330
1B5
100
AcDbEntity
  8
Defpoints
 62
     0
100
AcDbPoint
 10
3877.556080344316
 20
3578.691370239856
 30
0.0
  0
POINT
  5
1C4
330
1B5
100
AcDbEntity
  8
Defpoints
 62
     0
100
AcDbPoint
 10
3878.862015615124
 20
3541.294320780598
 30
0.0
  0
POINT
  5
1C5
330
1B5
100
AcDbEntity
  8
Defpoints
 62
     0
100
AcDbPoint
 10
3877.556080344316
 20
3570.150059758241
 30
0.0
  0
ENDBLK
  5
1C6
330
1B5
100
AcDbEntity
  8
0
100
AcDbBlockEnd
  0
BLOCK
  5
1C8
330
1C7
100
AcDbEntity
  8
0
100
AcDbBlockBegin
  2
*D39
 70
     1
 10
0.0
 20
0.0
 30
0.0
  3
*D39
  1

  0
LINE
  5
1C9
330
1C7
100
AcDbEntity
  8
cotas
100
AcDbLine
 10
4966.19660830093
 20
4439.88452455878
 30
0.0
 11
4966.19660830093
 21
4469.884524558781
 31
0.0
  0
LINE
  5
1CA
330
1C7
100
AcDbEntity
  8
cotas
100
AcDbLine
 10
4896.196608024602
 20
4439.88452455878
 30
0.0
 11
4896.196608024602
 21
4469.884524558781
 31
0.0
  0
LINE
  5
1CB
330
1C7
100
AcDbEntity
  8
cotas
100
AcDbLine
 10
4956.19660830093
 20
4464.88452455878
 30
0.0
 11
4906.196608024602
 21
4464.88452455878
 31
0.0
  0
SOLID
  5
1CC
330
1C7
100
AcDbEntity
  8
cotas
100
AcDbTrace
 10
4956.19660830093
 20
4466.551191225447
 30
0.0
 11
4956.19660830093
 21
4463.217857892114
 31
0.0
 12
4966.19660830093
 22
4464.88452455878
 32
0.0
 13
4966.19660830093
 23
4464.88452455878
 33
0.0
  0
SOLID
  5
1CD
330
1C7
100
AcDbEntity
  8
cotas
100
AcDbTrace
 10
4906.196608024602
 20
4466.551191225447
 30
0.0
 11
4906.196608024602
 21
4463.217857892114
 31
0.0
 12
4896.196608024602
 22
4464.88452455878
 32
0.0
 13
4896.196608024602
 23
4464.88452455878
 33
0.0
  0
MTEXT
  5
1CE
330
1C7
100
AcDbEntity
  8
cotas
100
AcDbMText
 10
4931.196608162766
 20
4475.089360018821
 30
0.0
 40
10.0
 41
0.0
 71
     5
 72
     1
  1
70
  7
SANINDUSA
 73
     1
 44
1.0
1001
ACAD
1000
MTEXTBEGIN
1070
    73
1070
     1
1070
    44
1040
1.0
1070
    74
1070
     0
1000
MTEXTEND
  0
POINT
  5
1CF
330
1C7
100
AcDbEntity
  8
Defpoints
 62
     0
100
AcDbPoint
 10
4966.19660830093
 20
4434.884524558781
 30
0.0
  0
POINT
  5
1D0
330
1C7
100
AcDbEntity
  8
Defpoints
 62
     0
100
AcDbPoint
 10
4896.196608024602
 20
4434.88452455878
 30
0.0
  0
POINT
  5
1D1
330
1C7
100
AcDbEntity
  8
Defpoints
 62
     0
100
AcDbPoint
 10
4896.196608024602
 20
4464.88452455878
 30
0.0
  0
ENDBLK
  5
1D2
330
1C7
100
AcDbEntity
  8
0
100
AcDbBlockEnd
  0
BLOCK
  5
1D4
330
1D3
100
AcDbEntity
  8
0
100
AcDbBlockBegin
  2
*D40
 70
     1
 10
0.0
 20
0.0
 30
0.0
  3
*D40
  1

  0
LINE
  5
1D5
330
1D3
100
AcDbEntity
  8
cotas
100
AcDbLine
 10
4966.19660830093
 20
4439.88452455878
 30
0.0
 11
4966.19660830093
 21
4469.884524558781
 31
0.0
  0
LINE
  5
1D6
330
1D3
100
AcDbEntity
  8
cotas
100
AcDbLine
 10
4998.603409126758
 20
4380.309874470717
 30
0.0
 11
4998.603409126758
 21
4469.884524558781
 31
0.0
  0
LINE
  5
1D7
330
1D3
100
AcDbEntity
  8
cotas
100
AcDbLine
 10
4976.196608300931
 20
4464.88452455878
 30
0.0
 11
4988.603409126757
 21
4464.88452455878
 31
0.0
  0
LINE
  5
1D8
330
1D3
100
AcDbEntity
  8
cotas
100
AcDbLine
 10
4998.603409126758
 20
4464.88452455878
 30
0.0
 11
5048.052703955502
 21
4464.88452455878
 31
0.0
  0
SOLID
  5
1D9
330
1D3
100
AcDbEntity
  8
cotas
100
AcDbTrace
 10
4976.196608300931
 20
4466.551191225447
 30
0.0
 11
4976.196608300931
 21
4463.217857892114
 31
0.0
 12
4966.19660830093
 22
4464.88452455878
 32
0.0
 13
4966.19660830093
 23
4464.88452455878
 33
0.0
  0
SOLID
  5
1DA
330
1D3
100
AcDbEntity
  8
cotas
100
AcDbTrace
 10
4988.603409126757
 20
4466.551191225447
 30
0.0
 11
4988.603409126757
 21
4463.217857892114
 31
0.0
 12
4998.603409126758
 22
4464.88452455878
 32
0.0
 13
4998.603409126758
 23
4464.88452455878
 33
0.0
  0
MTEXT
  5
1DB
330
1D3
100
AcDbEntity
  8
cotas
100
AcDbMText
 10
5028.32805654113
 20
4476.231065861669
 30
0.0
 40
10.0
 41
0.0
 71
     5
 72
     1
  1
32,4
  7
SANINDUSA
 73
     1
 44
1.0
1001
ACAD
1000
MTEXTBEGIN
1070
    73
1070
     1
1070
    44
1040
1.0
1070
    74
1070
     0
1000
MTEXTEND
  0
POINT
  5
1DC
330
1D3
100
AcDbEntity
  8
Defpoints
 62
     0
100
AcDbPoint
 10
4966.19660830093
 20
4434.884524558781
 30
0.0
  0
POINT
  5
1DD
330
1D3
100
AcDbEntity
  8
Defpoints
 62
     0
100
AcDbPoint
 10
4998.603409126758
 20
4375.309874470716
 30
0.0
  0
POINT
  5
1DE
330
1D3
100
AcDbEntity
  8
Defpoints
 62
     0
100
AcDbPoint
 10
4998.603409126758
 20
4464.88452455878
 30
0.0
  0
ENDBLK
  5
1DF
330
1D3
100
AcDbEntity
  8
0
100
AcDbBlockEnd
  0
BLOCK
  5
1E1
330
1E0
100
AcDbEntity
  8
0
100
AcDbBlockBegin
  2
*D41
 70
     1
 10
0.0
 20
0.0
 30
0.0
  3
*D41
  1

  0
LINE
  5
1E2
330
1E0
100
AcDbEntity
  8
cotas
100
AcDbLine
 10
4998.690671205241
 20
4380.309112945689
 30
0.0
 11
4999.102746619646
 21
4403.91688509699
 31
0.0
  0
LINE
  5
1E3
330
1E0
100
AcDbEntity
  8
cotas
100
AcDbLine
 10
5448.622133952887
 20
4372.455525882165
 30
0.0
 11
5449.034209367293
 21
4396.063298033465
 31
0.0
  0
LINE
  5
1E4
330
1E0
100
AcDbEntity
  8
cotas
100
AcDbLine
 10
5009.013961491111
 20
4398.743122465049
 30
0.0
 11
5438.948470338861
 21
4391.238583715458
 31
0.0
  0
SOLID
  5
1E5
330
1E0
100
AcDbEntity
  8
cotas
100
AcDbTrace
 10
5009.043048850606
 20
4400.40953529004
 30
0.0
 11
5008.984874131616
 21
4397.076709640057
 31
0.0
 12
4999.015484541164
 22
4398.917646622016
 32
0.0
 13
4999.015484541164
 23
4398.917646622016
 33
0.0
  0
SOLID
  5
1E6
330
1E0
100
AcDbEntity
  8
cotas
100
AcDbTrace
 10
5438.977557698356
 20
4392.904996540449
 30
0.0
 11
5438.919382979367
 21
4389.572170890466
 31
0.0
 12
5448.94694728881
 22
4391.06405955849
 32
0.0
 13
5448.94694728881
 23
4391.06405955849
 33
0.0
  0
MTEXT
  5
1E7
330
1E0
100
AcDbEntity
  8
cotas
100
AcDbMText
 10
5224.159314945551
 20
4405.194134302775
 30
0.0
 40
10.0
 41
0.0
 71
     5
 72
     1
  1
450
  7
SANINDUSA
 11
0.999847694994767
 21
-0.0174524156967227
 31
0.0
 73
     1
 44
1.0
1001
ACAD
1000
MTEXTBEGIN
1070
    73
1070
     1
1070
    44
1040
1.0
1070
    74
1070
     0
1000
MTEXTEND
  0
POINT
  5
1E8
330
1E0
100
AcDbEntity
  8
Defpoints
 62
     0
100
AcDbPoint
 10
4998.603409126758
 20
4375.309874470715
 30
0.0
  0
POINT
  5
1E9
330
1E0
100
AcDbEntity
  8
Defpoints
 62
     0
100
AcDbPoint
 10
5448.534871874404
 20
4367.456287407192
 30
0.0
  0
POINT
  5
1EA
330
1E0
100
AcDbEntity
  8
Defpoints
 62
     0
100
AcDbPoint
 10
5448.94694728881
 20
4391.06405955849
 30
0.0
  0
ENDBLK
  5
1EB
330
1E0
100
AcDbEntity
  8
0
100
AcDbBlockEnd
  0
BLOCK
  5
1ED
330
1EC
100
AcDbEntity
  8
0
100
AcDbBlockBegin
  2
*D42
 70
     1
 10
0.0
 20
0.0
 30
0.0
  3
*D42
  1

  0
LINE
  5
1EE
330
1EC
100
AcDbEntity
  8
cotas
100
AcDbLine
 10
5453.534871874403
 20
4367.456287407192
 30
0.0
 11
5503.020637548859
 21
4367.456287407192
 31
0.0
  0
LINE
  5
1EF
330
1EC
100
AcDbEntity
  8
cotas
100
AcDbLine
 10
5453.534871874403
 20
4345.437471723077
 30
0.0
 11
5503.020637548859
 21
4345.437471723077
 31
0.0
  0
LINE
  5
1F0
330
1EC
100
AcDbEntity
  8
cotas
100
AcDbLine
 10
5498.020637548859
 20
4377.456287407191
 30
0.0
 11
5498.020637548859
 21
4387.456287407192
 31
0.0
  0
LINE
  5
1F1
330
1EC
100
AcDbEntity
  8
cotas
100
AcDbLine
 10
5498.020637548859
 20
4335.437471723078
 30
0.0
 11
5498.020637548859
 21
4299.923704093796
 31
0.0
  0
LINE
  5
1F2
330
1EC
100
AcDbEntity
  8
cotas
100
AcDbLine
 10
5498.020637548859
 20
4367.456287407192
 30
0.0
 11
5498.020637548859
 21
4345.437471723077
 31
0.0
  0
SOLID
  5
1F3
330
1EC
100
AcDbEntity
  8
cotas
100
AcDbTrace
 10
5496.353970882192
 20
4377.456287407191
 30
0.0
 11
5499.687304215526
 21
4377.456287407191
 31
0.0
 12
5498.020637548859
 22
4367.456287407192
 32
0.0
 13
5498.020637548859
 23
4367.456287407192
 33
0.0
  0
SOLID
  5
1F4
330
1EC
100
AcDbEntity
  8
cotas
100
AcDbTrace
 10
5496.353970882192
 20
4335.437471723078
 30
0.0
 11
5499.687304215526
 21
4335.437471723078
 31
0.0
 12
5498.020637548859
 22
4345.437471723077
 32
0.0
 13
5498.020637548859
 23
4345.437471723077
 33
0.0
  0
MTEXT
  5
1F5
330
1EC
100
AcDbEntity
  8
cotas
100
AcDbMText
 10
5487.916540839656
 20
4312.680587908437
 30
0.0
 40
10.0
 41
0.0
 71
     5
 72
     1
  1
22
  7
SANINDUSA
 11
0.0000000000000001
 21
1.0
 31
0.0
 73
     1
 44
1.0
1001
ACAD
1000
MTEXTBEGIN
1070
    73
1070
     1
1070
    44
1040
1.0
1070
    74
1070
     0
1000
MTEXTEND
  0
POINT
  5
1F6
330
1EC
100
AcDbEntity
  8
Defpoints
 62
     0
100
AcDbPoint
 10
5448.534871874403
 20
4367.456287407192
 30
0.0
  0
POINT
  5
1F7
330
1EC
100
AcDbEntity
  8
Defpoints
 62
     0
100
AcDbPoint
 10
5448.534871874403
 20
4345.437471723077
 30
0.0
  0
POINT
  5
1F8
330
1EC
100
AcDbEntity
  8
Defpoints
 62
     0
100
AcDbPoint
 10
5498.020637548859
 20
4345.437471723077
 30
0.0
  0
ENDBLK
  5
1F9
330
1EC
100
AcDbEntity
  8
0
100
AcDbBlockEnd
  0
BLOCK
  5
1FB
330
1FA
100
AcDbEntity
  8
0
100
AcDbBlockBegin
  2
*D43
 70
     1
 10
0.0
 20
0.0
 30
0.0
  3
*D43
  1

  0
LINE
  5
1FC
330
1FA
100
AcDbEntity
  8
cotas
100
AcDbLine
 10
4993.603409126757
 20
4375.309874470716
 30
0.0
 11
4860.498405444094
 21
4375.309874470716
 31
0.0
  0
LINE
  5
1FD
330
1FA
100
AcDbEntity
  8
cotas
100
AcDbLine
 10
4993.603409126757
 20
4365.308351113061
 30
0.0
 11
4860.498405444094
 21
4365.308351113061
 31
0.0
  0
LINE
  5
1FE
330
1FA
100
AcDbEntity
  8
cotas
100
AcDbLine
 10
4865.498405444093
 20
4385.309874470716
 30
0.0
 11
4865.498405444093
 21
4395.309874470717
 31
0.0
  0
LINE
  5
1FF
330
1FA
100
AcDbEntity
  8
cotas
100
AcDbLine
 10
4865.498405444093
 20
4355.308351113061
 30
0.0
 11
4865.498405444093
 21
4320.593777573773
 31
0.0
  0
LINE
  5
200
330
1FA
100
AcDbEntity
  8
cotas
100
AcDbLine
 10
4865.498405444093
 20
4375.309874470716
 30
0.0
 11
4865.498405444093
 21
4365.308351113061
 31
0.0
  0
SOLID
  5
201
330
1FA
100
AcDbEntity
  8
cotas
100
AcDbTrace
 10
4863.831738777426
 20
4385.309874470716
 30
0.0
 11
4867.165072110759
 21
4385.309874470716
 31
0.0
 12
4865.498405444093
 22
4375.309874470716
 32
0.0
 13
4865.498405444093
 23
4375.309874470716
 33
0.0
  0
SOLID
  5
202
330
1FA
100
AcDbEntity
  8
cotas
100
AcDbTrace
 10
4863.831738777426
 20
4355.308351113061
 30
0.0
 11
4867.165072110759
 21
4355.308351113061
 31
0.0
 12
4865.498405444093
 22
4365.308351113061
 32
0.0
 13
4865.498405444093
 23
4365.308351113061
 33
0.0
  0
MTEXT
  5
203
330
1FA
100
AcDbEntity
  8
cotas
100
AcDbMText
 10
4855.293569984052
 20
4332.951064343418
 30
0.0
 40
10.0
 41
0.0
 71
     5
 72
     1
  1
10
  7
SANINDUSA
 11
0.0000000000000001
 21
1.0
 31
0.0
 73
     1
 44
1.0
1001
ACAD
1000
MTEXTBEGIN
1070
    73
1070
     1
1070
    44
1040
1.0
1070
    74
1070
     0
1000
MTEXTEND
  0
POINT
  5
204
330
1FA
100
AcDbEntity
  8
Defpoints
 62
     0
100
AcDbPoint
 10
4998.603409126758
 20
4375.309874470716
 30
0.0
  0
POINT
  5
205
330
1FA
100
AcDbEntity
  8
Defpoints
 62
     0
100
AcDbPoint
 10
4998.603409126758
 20
4365.308351113061
 30
0.0
  0
POINT
  5
206
330
1FA
100
AcDbEntity
  8
Defpoints
 62
     0
100
AcDbPoint
 10
4865.498405444093
 20
4365.308351113061
 30
0.0
  0
ENDBLK
  5
207
330
1FA
100
AcDbEntity
  8
0
100
AcDbBlockEnd
  0
BLOCK
  5
209
330
208
100
AcDbEntity
  8
0
100
AcDbBlockBegin
  2
*D44
 70
     1
 10
0.0
 20
0.0
 30
0.0
  3
*D44
  1

  0
LINE
  5
20A
330
208
100
AcDbEntity
  8
cotas
100
AcDbLine
 10
6496.196596830118
 20
4439.88452455878
 30
0.0
 11
6496.196596830118
 21
4469.884524558779
 31
0.0
  0
LINE
  5
20B
330
208
100
AcDbEntity
  8
cotas
100
AcDbLine
 10
6426.196619007992
 20
4439.88452455878
 30
0.0
 11
6426.196619007992
 21
4469.884524558779
 31
0.0
  0
LINE
  5
20C
330
208
100
AcDbEntity
  8
cotas
100
AcDbLine
 10
6486.196596830118
 20
4464.88452455878
 30
0.0
 11
6436.196619007991
 21
4464.88452455878
 31
0.0
  0
SOLID
  5
20D
330
208
100
AcDbEntity
  8
cotas
100
AcDbTrace
 10
6486.196596830118
 20
4466.551191225447
 30
0.0
 11
6486.196596830118
 21
4463.217857892113
 31
0.0
 12
6496.196596830118
 22
4464.88452455878
 32
0.0
 13
6496.196596830118
 23
4464.88452455878
 33
0.0
  0
SOLID
  5
20E
330
208
100
AcDbEntity
  8
cotas
100
AcDbTrace
 10
6436.196619007991
 20
4466.551191225447
 30
0.0
 11
6436.196619007991
 21
4463.217857892113
 31
0.0
 12
6426.196619007992
 22
4464.88452455878
 32
0.0
 13
6426.196619007992
 23
4464.88452455878
 33
0.0
  0
MTEXT
  5
20F
330
208
100
AcDbEntity
  8
cotas
100
AcDbMText
 10
6461.196607919055
 20
4475.089360018819
 30
0.0
 40
10.0
 41
0.0
 71
     5
 72
     1
  1
70
  7
SANINDUSA
 73
     1
 44
1.0
1001
ACAD
1000
MTEXTBEGIN
1070
    73
1070
     1
1070
    44
1040
1.0
1070
    74
1070
     0
1000
MTEXTEND
  0
POINT
  5
210
330
208
100
AcDbEntity
  8
Defpoints
 62
     0
100
AcDbPoint
 10
6496.196596830118
 20
4434.88452455878
 30
0.0
  0
POINT
  5
211
330
208
100
AcDbEntity
  8
Defpoints
 62
     0
100
AcDbPoint
 10
6426.196619007992
 20
4434.88452455878
 30
0.0
  0
POINT
  5
212
330
208
100
AcDbEntity
  8
Defpoints
 62
     0
100
AcDbPoint
 10
6426.196619007992
 20
4464.88452455878
 30
0.0
  0
ENDBLK
  5
213
330
208
100
AcDbEntity
  8
0
100
AcDbBlockEnd
  0
BLOCK
  5
215
330
214
100
AcDbEntity
  8
0
100
AcDbBlockBegin
  2
*D45
 70
     1
 10
0.0
 20
0.0
 30
0.0
  3
*D45
  1

  0
LINE
  5
216
330
214
100
AcDbEntity
  8
cotas
100
AcDbLine
 10
6496.196596830118
 20
4439.88452455878
 30
0.0
 11
6496.196596830118
 21
4499.879524514539
 31
0.0
  0
LINE
  5
217
330
214
100
AcDbEntity
  8
cotas
100
AcDbLine
 10
6316.196618753572
 20
4363.77920370617
 30
0.0
 11
6316.196618753572
 21
4499.879524514539
 31
0.0
  0
LINE
  5
218
330
214
100
AcDbEntity
  8
cotas
100
AcDbLine
 10
6486.196596830118
 20
4494.879524514538
 30
0.0
 11
6326.196618753573
 21
4494.879524514538
 31
0.0
  0
SOLID
  5
219
330
214
100
AcDbEntity
  8
cotas
100
AcDbTrace
 10
6486.196596830118
 20
4496.546191181205
 30
0.0
 11
6486.196596830118
 21
4493.212857847871
 31
0.0
 12
6496.196596830118
 22
4494.879524514538
 32
0.0
 13
6496.196596830118
 23
4494.879524514538
 33
0.0
  0
SOLID
  5
21A
330
214
100
AcDbEntity
  8
cotas
100
AcDbTrace
 10
6326.196618753573
 20
4496.546191181205
 30
0.0
 11
6326.196618753573
 21
4493.212857847871
 31
0.0
 12
6316.196618753572
 22
4494.879524514538
 32
0.0
 13
6316.196618753572
 23
4494.879524514538
 33
0.0
  0
MTEXT
  5
21B
330
214
100
AcDbEntity
  8
cotas
100
AcDbMText
 10
6406.196607791845
 20
4505.107865683108
 30
0.0
 40
10.0
 41
0.0
 71
     5
 72
     1
  1
180
  7
SANINDUSA
 73
     1
 44
1.0
1001
ACAD
1000
MTEXTBEGIN
1070
    73
1070
     1
1070
    44
1040
1.0
1070
    74
1070
     0
1000
MTEXTEND
  0
POINT
  5
21C
330
214
100
AcDbEntity
  8
Defpoints
 62
     0
100
AcDbPoint
 10
6496.196596830118
 20
4434.88452455878
 30
0.0
  0
POINT
  5
21D
330
214
100
AcDbEntity
  8
Defpoints
 62
     0
100
AcDbPoint
 10
6316.196618753572
 20
4358.77920370617
 30
0.0
  0
POINT
  5
21E
330
214
100
AcDbEntity
  8
Defpoints
 62
     0
100
AcDbPoint
 10
6316.196618753572
 20
4494.879524514538
 30
0.0
  0
ENDBLK
  5
21F
330
214
100
AcDbEntity
  8
0
100
AcDbBlockEnd
  0
BLOCK
  5
221
330
220
100
AcDbEntity
  8
0
100
AcDbBlockBegin
  2
*D46
 70
     1
 10
0.0
 20
0.0
 30
0.0
  3
*D46
  1

  0
LINE
  5
222
330
220
100
AcDbEntity
  8
cotas
100
AcDbLine
 10
4896.196608024604
 20
3623.691369345786
 30
0.0
 11
4896.196608024604
 21
3653.691369345785
 31
0.0
  0
LINE
  5
223
330
220
100
AcDbEntity
  8
cotas
100
AcDbLine
 10
6496.196640358114
 20
3623.691369345782
 30
0.0
 11
6496.196640358114
 21
3653.691369345785
 31
0.0
  0
LINE
  5
224
330
220
100
AcDbEntity
  8
cotas
100
AcDbLine
 10
4906.196608024604
 20
3648.691369345784
 30
0.0
 11
6486.196640358113
 21
3648.691369345784
 31
0.0
  0
SOLID
  5
225
330
220
100
AcDbEntity
  8
cotas
100
AcDbTrace
 10
4906.196608024604
 20
3650.358036012451
 30
0.0
 11
4906.196608024604
 21
3647.024702679118
 31
0.0
 12
4896.196608024604
 22
3648.691369345784
 32
0.0
 13
4896.196608024604
 23
3648.691369345784
 33
0.0
  0
SOLID
  5
226
330
220
100
AcDbEntity
  8
cotas
100
AcDbTrace
 10
6486.196640358113
 20
3650.358036012451
 30
0.0
 11
6486.196640358113
 21
3647.024702679118
 31
0.0
 12
6496.196640358114
 22
3648.691369345784
 32
0.0
 13
6496.196640358114
 23
3648.691369345784
 33
0.0
  0
MTEXT
  5
227
330
220
100
AcDbEntity
  8
cotas
100
AcDbMText
 10
5696.196624191358
 20
3658.896204805825
 30
0.0
 40
10.0
 41
0.0
 71
     5
 72
     1
  1
1600
  7
SANINDUSA
 73
     1
 44
1.0
1001
ACAD
1000
MTEXTBEGIN
1070
    73
1070
     1
1070
    44
1040
1.0
1070
    74
1070
     0
1000
MTEXTEND
  0
POINT
  5
228
330
220
100
AcDbEntity
  8
Defpoints
 62
     0
100
AcDbPoint
 10
4896.196608024604
 20
3618.691369345786
 30
0.0
  0
POINT
  5
229
330
220
100
AcDbEntity
  8
Defpoints
 62
     0
100
AcDbPoint
 10
6496.196640358114
 20
3618.691369345782
 30
0.0
  0
POINT
  5
22A
330
220
100
AcDbEntity
  8
Defpoints
 62
     0
100
AcDbPoint
 10
6496.196640358114
 20
3648.691369345784
 30
0.0
  0
ENDBLK
  5
22B
330
220
100
AcDbEntity
  8
0
100
AcDbBlockEnd
  0
BLOCK
  5
22D
330
22C
100
AcDbEntity
  8
0
100
AcDbBlockBegin
  2
*D47
 70
     1
 10
0.0
 20
0.0
 30
0.0
  3
*D47
  1

  0
LINE
  5
22E
330
22C
100
AcDbEntity
  8
cotas
100
AcDbLine
 10
6055.727440664106
 20
2882.001485791024
 30
0.0
 11
6055.727440664106
 21
3047.250571081181
 31
0.0
  0
LINE
  5
22F
330
22C
100
AcDbEntity
  8
cotas
100
AcDbLine
 10
5975.751164529063
 20
2882.002544390106
 30
0.0
 11
5975.751164529063
 21
3047.250571081181
 31
0.0
  0
LINE
  5
230
330
22C
100
AcDbEntity
  8
cotas
100
AcDbLine
 10
6045.727440664105
 20
3042.250571081182
 30
0.0
 11
5985.751164529062
 21
3042.250571081182
 31
0.0
  0
SOLID
  5
231
330
22C
100
AcDbEntity
  8
cotas
100
AcDbTrace
 10
6045.727440664105
 20
3043.917237747848
 30
0.0
 11
6045.727440664105
 21
3040.583904414515
 31
0.0
 12
6055.727440664106
 22
3042.250571081182
 32
0.0
 13
6055.727440664106
 23
3042.250571081182
 33
0.0
  0
SOLID
  5
232
330
22C
100
AcDbEntity
  8
cotas
100
AcDbTrace
 10
5985.751164529062
 20
3043.917237747848
 30
0.0
 11
5985.751164529062
 21
3040.583904414515
 31
0.0
 12
5975.751164529063
 22
3042.250571081182
 32
0.0
 13
5975.751164529063
 23
3042.250571081182
 33
0.0
  0
MTEXT
  5
233
330
22C
100
AcDbEntity
  8
cotas
100
AcDbMText
 10
6015.739302596584
 20
3052.478912249751
 30
0.0
 40
10.0
 41
0.0
 71
     5
 72
     1
  1
80
  7
SANINDUSA
 73
     1
 44
1.0
1001
ACAD
1000
MTEXTBEGIN
1070
    73
1070
     1
1070
    44
1040
1.0
1070
    74
1070
     0
1000
MTEXTEND
  0
POINT
  5
234
330
22C
100
AcDbEntity
  8
Defpoints
 62
     0
100
AcDbPoint
 10
6055.727440664106
 20
2877.001485791024
 30
0.0
  0
POINT
  5
235
330
22C
100
AcDbEntity
  8
Defpoints
 62
     0
100
AcDbPoint
 10
5975.751164529063
 20
2877.002544390106
 30
0.0
  0
POINT
  5
236
330
22C
100
AcDbEntity
  8
Defpoints
 62
     0
100
AcDbPoint
 10
5975.751164529063
 20
3042.250571081182
 30
0.0
  0
ENDBLK
  5
237
330
22C
100
AcDbEntity
  8
0
100
AcDbBlockEnd
  0
BLOCK
  5
239
330
238
100
AcDbEntity
  8
0
100
AcDbBlockBegin
  2
*D48
 70
     1
 10
0.0
 20
0.0
 30
0.0
  3
*D48
  1

  0
LINE
  5
23A
330
238
100
AcDbEntity
  8
cotas
100
AcDbLine
 10
5975.751164529063
 20
2882.002544390106
 30
0.0
 11
5975.751164529063
 21
3047.250571081181
 31
0.0
  0
LINE
  5
23B
330
238
100
AcDbEntity
  8
cotas
100
AcDbLine
 10
5895.784175235819
 20
2881.990922136919
 30
0.0
 11
5895.784175235819
 21
3047.250571081181
 31
0.0
  0
LINE
  5
23C
330
238
100
AcDbEntity
  8
cotas
100
AcDbLine
 10
5965.751164529063
 20
3042.250571081182
 30
0.0
 11
5905.784175235819
 21
3042.250571081182
 31
0.0
  0
SOLID
  5
23D
330
238
100
AcDbEntity
  8
cotas
100
AcDbTrace
 10
5965.751164529063
 20
3043.917237747848
 30
0.0
 11
5965.751164529063
 21
3040.583904414515
 31
0.0
 12
5975.751164529063
 22
3042.250571081182
 32
0.0
 13
5975.751164529063
 23
3042.250571081182
 33
0.0
  0
SOLID
  5
23E
330
238
100
AcDbEntity
  8
cotas
100
AcDbTrace
 10
5905.784175235819
 20
3043.917237747848
 30
0.0
 11
5905.784175235819
 21
3040.583904414515
 31
0.0
 12
5895.784175235819
 22
3042.250571081182
 32
0.0
 13
5895.784175235819
 23
3042.250571081182
 33
0.0
  0
MTEXT
  5
23F
330
238
100
AcDbEntity
  8
cotas
100
AcDbMText
 10
5935.767669882441
 20
3052.478912249751
 30
0.0
 40
10.0
 41
0.0
 71
     5
 72
     1
  1
80
  7
SANINDUSA
 73
     1
 44
1.0
1001
ACAD
1000
MTEXTBEGIN
1070
    73
1070
     1
1070
    44
1040
1.0
1070
    74
1070
     0
1000
MTEXTEND
  0
POINT
  5
240
330
238
100
AcDbEntity
  8
Defpoints
 62
     0
100
AcDbPoint
 10
5975.751164529063
 20
2877.002544390106
 30
0.0
  0
POINT
  5
241
330
238
100
AcDbEntity
  8
Defpoints
 62
     0
100
AcDbPoint
 10
5895.784175235819
 20
2876.990922136919
 30
0.0
  0
POINT
  5
242
330
238
100
AcDbEntity
  8
Defpoints
 62
     0
100
AcDbPoint
 10
5895.784175235819
 20
3042.250571081182
 30
0.0
  0
ENDBLK
  5
243
330
238
100
AcDbEntity
  8
0
100
AcDbBlockEnd
  0
BLOCK
  5
245
330
244
100
AcDbEntity
  8
0
100
AcDbBlockBegin
  2
*D49
 70
     1
 10
0.0
 20
0.0
 30
0.0
  3
*D49
  1

  0
LINE
  5
246
330
244
100
AcDbEntity
  8
cotas
100
AcDbLine
 10
5895.784175235819
 20
2881.990922136919
 30
0.0
 11
5895.784175235819
 21
3047.250571081181
 31
0.0
  0
LINE
  5
247
330
244
100
AcDbEntity
  8
cotas
100
AcDbLine
 10
5815.8695920172
 20
2881.983987807295
 30
0.0
 11
5815.8695920172
 21
3047.250571081181
 31
0.0
  0
LINE
  5
248
330
244
100
AcDbEntity
  8
cotas
100
AcDbLine
 10
5885.784175235819
 20
3042.250571081182
 30
0.0
 11
5825.8695920172
 21
3042.250571081182
 31
0.0
  0
SOLID
  5
249
330
244
100
AcDbEntity
  8
cotas
100
AcDbTrace
 10
5885.784175235819
 20
3043.917237747848
 30
0.0
 11
5885.784175235819
 21
3040.583904414515
 31
0.0
 12
5895.784175235819
 22
3042.250571081182
 32
0.0
 13
5895.784175235819
 23
3042.250571081182
 33
0.0
  0
SOLID
  5
24A
330
244
100
AcDbEntity
  8
cotas
100
AcDbTrace
 10
5825.8695920172
 20
3043.917237747848
 30
0.0
 11
5825.8695920172
 21
3040.583904414515
 31
0.0
 12
5815.8695920172
 22
3042.250571081182
 32
0.0
 13
5815.8695920172
 23
3042.250571081182
 33
0.0
  0
MTEXT
  5
24B
330
244
100
AcDbEntity
  8
cotas
100
AcDbMText
 10
5855.82688362651
 20
3052.478912249751
 30
0.0
 40
10.0
 41
0.0
 71
     5
 72
     1
  1
80
  7
SANINDUSA
 73
     1
 44
1.0
1001
ACAD
1000
MTEXTBEGIN
1070
    73
1070
     1
1070
    44
1040
1.0
1070
    74
1070
     0
1000
MTEXTEND
  0
POINT
  5
24C
330
244
100
AcDbEntity
  8
Defpoints
 62
     0
100
AcDbPoint
 10
5895.784175235819
 20
2876.990922136919
 30
0.0
  0
POINT
  5
24D
330
244
100
AcDbEntity
  8
Defpoints
 62
     0
100
AcDbPoint
 10
5815.8695920172
 20
2876.983987807296
 30
0.0
  0
POINT
  5
24E
330
244
100
AcDbEntity
  8
Defpoints
 62
     0
100
AcDbPoint
 10
5815.8695920172
 20
3042.250571081182
 30
0.0
  0
ENDBLK
  5
24F
330
244
100
AcDbEntity
  8
0
100
AcDbBlockEnd
  0
BLOCK
  5
251
330
250
100
AcDbEntity
  8
0
100
AcDbBlockBegin
  2
*D50
 70
     1
 10
0.0
 20
0.0
 30
0.0
  3
*D50
  1

  0
LINE
  5
252
330
250
100
AcDbEntity
  8
cotas
100
AcDbLine
 10
5655.892723720081
 20
3017.25057108118
 30
0.0
 11
5655.892723720081
 21
3047.250571081181
 31
0.0
  0
LINE
  5
253
330
250
100
AcDbEntity
  8
cotas
100
AcDbLine
 10
5575.902764321404
 20
2881.984118810334
 30
0.0
 11
5575.902764321404
 21
3047.250571081181
 31
0.0
  0
LINE
  5
254
330
250
100
AcDbEntity
  8
cotas
100
AcDbLine
 10
5645.892723720081
 20
3042.25057108118
 30
0.0
 11
5585.902764321404
 21
3042.25057108118
 31
0.0
  0
SOLID
  5
255
330
250
100
AcDbEntity
  8
cotas
100
AcDbTrace
 10
5645.892723720081
 20
3043.917237747847
 30
0.0
 11
5645.892723720081
 21
3040.583904414514
 31
0.0
 12
5655.892723720081
 22
3042.25057108118
 32
0.0
 13
5655.892723720081
 23
3042.25057108118
 33
0.0
  0
SOLID
  5
256
330
250
100
AcDbEntity
  8
cotas
100
AcDbTrace
 10
5585.902764321404
 20
3043.917237747847
 30
0.0
 11
5585.902764321404
 21
3040.583904414514
 31
0.0
 12
5575.902764321404
 22
3042.25057108118
 32
0.0
 13
5575.902764321404
 23
3042.25057108118
 33
0.0
  0
MTEXT
  5
257
330
250
100
AcDbEntity
  8
cotas
100
AcDbMText
 10
5615.897744020743
 20
3052.47891224975
 30
0.0
 40
10.0
 41
0.0
 71
     5
 72
     1
  1
80
  7
SANINDUSA
 73
     1
 44
1.0
1001
ACAD
1000
MTEXTBEGIN
1070
    73
1070
     1
1070
    44
1040
1.0
1070
    74
1070
     0
1000
MTEXTEND
  0
POINT
  5
258
330
250
100
AcDbEntity
  8
Defpoints
 62
     0
100
AcDbPoint
 10
5655.892723720081
 20
3012.25057108118
 30
0.0
  0
POINT
  5
259
330
250
100
AcDbEntity
  8
Defpoints
 62
     0
100
AcDbPoint
 10
5575.902764321404
 20
2876.984118810334
 30
0.0
  0
POINT
  5
25A
330
250
100
AcDbEntity
  8
Defpoints
 62
     0
100
AcDbPoint
 10
5575.902764321404
 20
3042.25057108118
 30
0.0
  0
ENDBLK
  5
25B
330
250
100
AcDbEntity
  8
0
100
AcDbBlockEnd
  0
BLOCK
  5
25D
330
25C
100
AcDbEntity
  8
0
100
AcDbBlockBegin
  2
*D51
 70
     1
 10
0.0
 20
0.0
 30
0.0
  3
*D51
  1

  0
LINE
  5
25E
330
25C
100
AcDbEntity
  8
cotas
100
AcDbLine
 10
6220.375237638315
 20
2841.556611674005
 30
0.0000000000001922
 11
6531.89484067553
 21
2841.556611674005
 31
0.0000000000001922
  0
LINE
  5
25F
330
25C
100
AcDbEntity
  8
cotas
100
AcDbLine
 10
6217.314531130662
 20
2761.579015170431
 30
0.0000000000001922
 11
6531.89484067553
 21
2761.579015170431
 31
0.0000000000001922
  0
LINE
  5
260
330
25C
100
AcDbEntity
  8
cotas
100
AcDbLine
 10
6526.894840675528
 20
2831.556611674005
 30
0.0000000000001922
 11
6526.894840675528
 21
2771.579015170431
 31
0.0000000000001922
  0
SOLID
  5
261
330
25C
100
AcDbEntity
  8
cotas
100
AcDbTrace
 10
6525.228174008862
 20
2831.556611674005
 30
0.0000000000001922
 11
6528.561507342196
 21
2831.556611674005
 31
0.0000000000001922
 12
6526.894840675528
 22
2841.556611674005
 32
0.0000000000001922
 13
6526.894840675528
 23
2841.556611674005
 33
0.0000000000001922
  0
SOLID
  5
262
330
25C
100
AcDbEntity
  8
cotas
100
AcDbTrace
 10
6525.228174008862
 20
2771.579015170431
 30
0.0000000000001922
 11
6528.561507342196
 21
2771.579015170431
 31
0.0000000000001922
 12
6526.894840675528
 22
2761.579015170431
 32
0.0000000000001922
 13
6526.894840675528
 23
2761.579015170431
 33
0.0000000000001922
  0
MTEXT
  5
263
330
25C
100
AcDbEntity
  8
cotas
100
AcDbMText
 10
6516.666499506958
 20
2801.567813422219
 30
0.0000000000001922
 40
10.0
 41
0.0
 71
     5
 72
     1
  1
80
  7
SANINDUSA
 11
0.0000000000000001
 21
1.0
 31
0.0
 73
     1
 44
1.0
1001
ACAD
1000
MTEXTBEGIN
1070
    73
1070
     1
1070
    44
1040
1.0
1070
    74
1070
     0
1000
MTEXTEND
  0
POINT
  5
264
330
25C
100
AcDbEntity
  8
Defpoints
 62
     0
100
AcDbPoint
 10
6215.375237638315
 20
2841.556611674005
 30
0.0000000000001922
  0
POINT
  5
265
330
25C
100
AcDbEntity
  8
Defpoints
 62
     0
100
AcDbPoint
 10
6212.314531130662
 20
2761.579015170431
 30
0.0000000000001922
  0
POINT
  5
266
330
25C
100
AcDbEntity
  8
Defpoints
 62
     0
100
AcDbPoint
 10
6526.894840675528
 20
2761.579015170431
 30
0.0000000000001922
  0
ENDBLK
  5
267
330
25C
100
AcDbEntity
  8
0
100
AcDbBlockEnd
  0
BLOCK
  5
269
330
268
100
AcDbEntity
  8
0
100
AcDbBlockBegin
  2
*D52
 70
     1
 10
0.0
 20
0.0
 30
0.0
  3
*D52
  1

  0
LINE
  5
26A
330
268
100
AcDbEntity
  8
cotas
100
AcDbLine
 10
6217.314531130662
 20
2761.579015170431
 30
0.0000000000001922
 11
6531.89484067553
 21
2761.579015170431
 31
0.0000000000001922
  0
LINE
  5
26B
330
268
100
AcDbEntity
  8
cotas
100
AcDbLine
 10
6212.294671176326
 20
2681.584136103166
 30
0.0000000000001922
 11
6531.89484067553
 21
2681.584136103166
 31
0.0000000000001922
  0
LINE
  5
26C
330
268
100
AcDbEntity
  8
cotas
100
AcDbLine
 10
6526.894840675528
 20
2751.579015170431
 30
0.0000000000001922
 11
6526.894840675528
 21
2691.584136103167
 31
0.0000000000001922
  0
SOLID
  5
26D
330
268
100
AcDbEntity
  8
cotas
100
AcDbTrace
 10
6525.228174008862
 20
2751.579015170431
 30
0.0000000000001922
 11
6528.561507342196
 21
2751.579015170431
 31
0.0000000000001922
 12
6526.894840675528
 22
2761.579015170431
 32
0.0000000000001922
 13
6526.894840675528
 23
2761.579015170431
 33
0.0000000000001922
  0
SOLID
  5
26E
330
268
100
AcDbEntity
  8
cotas
100
AcDbTrace
 10
6525.228174008862
 20
2691.584136103167
 30
0.0000000000001922
 11
6528.561507342196
 21
2691.584136103167
 31
0.0000000000001922
 12
6526.894840675528
 22
2681.584136103166
 32
0.0000000000001922
 13
6526.894840675528
 23
2681.584136103166
 33
0.0000000000001922
  0
MTEXT
  5
26F
330
268
100
AcDbEntity
  8
cotas
100
AcDbMText
 10
6516.666499506958
 20
2721.581575636799
 30
0.0000000000001922
 40
10.0
 41
0.0
 71
     5
 72
     1
  1
80
  7
SANINDUSA
 11
0.0000000000000001
 21
1.0
 31
0.0
 73
     1
 44
1.0
1001
ACAD
1000
MTEXTBEGIN
1070
    73
1070
     1
1070
    44
1040
1.0
1070
    74
1070
     0
1000
MTEXTEND
  0
POINT
  5
270
330
268
100
AcDbEntity
  8
Defpoints
 62
     0
100
AcDbPoint
 10
6212.314531130662
 20
2761.579015170431
 30
0.0000000000001922
  0
POINT
  5
271
330
268
100
AcDbEntity
  8
Defpoints
 62
     0
100
AcDbPoint
 10
6207.294671176325
 20
2681.584136103166
 30
0.0000000000001922
  0
POINT
  5
272
330
268
100
AcDbEntity
  8
Defpoints
 62
     0
100
AcDbPoint
 10
6526.894840675528
 20
2681.584136103166
 30
0.0000000000001922
  0
ENDBLK
  5
273
330
268
100
AcDbEntity
  8
0
100
AcDbBlockEnd
  0
BLOCK
  5
275
330
274
100
AcDbEntity
  8
0
100
AcDbBlockBegin
  2
*D53
 70
     1
 10
0.0
 20
0.0
 30
0.0
  3
*D53
  1

  0
LINE
  5
276
330
274
100
AcDbEntity
  8
cotas
100
AcDbLine
 10
6220.329379393131
 20
2601.562964536581
 30
0.0000000000001922
 11
6531.89484067553
 21
2601.562964536581
 31
0.0000000000001922
  0
LINE
  5
277
330
274
100
AcDbEntity
  8
cotas
100
AcDbLine
 10
6212.294671176326
 20
2681.584136103166
 30
0.0000000000001922
 11
6531.89484067553
 21
2681.584136103166
 31
0.0000000000001922
  0
LINE
  5
278
330
274
100
AcDbEntity
  8
cotas
100
AcDbLine
 10
6526.894840675528
 20
2611.562964536581
 30
0.0000000000001922
 11
6526.894840675528
 21
2671.584136103167
 31
0.0000000000001922
  0
SOLID
  5
279
330
274
100
AcDbEntity
  8
cotas
100
AcDbTrace
 10
6525.228174008862
 20
2611.562964536581
 30
0.0000000000001922
 11
6528.561507342196
 21
2611.562964536581
 31
0.0000000000001922
 12
6526.894840675528
 22
2601.562964536581
 32
0.0000000000001922
 13
6526.894840675528
 23
2601.562964536581
 33
0.0000000000001922
  0
SOLID
  5
27A
330
274
100
AcDbEntity
  8
cotas
100
AcDbTrace
 10
6525.228174008862
 20
2671.584136103167
 30
0.0000000000001922
 11
6528.561507342196
 21
2671.584136103167
 31
0.0000000000001922
 12
6526.894840675528
 22
2681.584136103166
 32
0.0000000000001922
 13
6526.894840675528
 23
2681.584136103166
 33
0.0000000000001922
  0
MTEXT
  5
27B
330
274
100
AcDbEntity
  8
cotas
100
AcDbMText
 10
6516.666499506958
 20
2641.573550319874
 30
0.0000000000001922
 40
10.0
 41
0.0
 71
     5
 72
     1
  1
80
  7
SANINDUSA
 11
0.0000000000000001
 21
1.0
 31
0.0
 73
     1
 44
1.0
1001
ACAD
1000
MTEXTBEGIN
1070
    73
1070
     1
1070
    44
1040
1.0
1070
    74
1070
     0
1000
MTEXTEND
  0
POINT
  5
27C
330
274
100
AcDbEntity
  8
Defpoints
 62
     0
100
AcDbPoint
 10
6215.329379393132
 20
2601.562964536581
 30
0.0000000000001922
  0
POINT
  5
27D
330
274
100
AcDbEntity
  8
Defpoints
 62
     0
100
AcDbPoint
 10
6207.294671176325
 20
2681.584136103166
 30
0.0000000000001922
  0
POINT
  5
27E
330
274
100
AcDbEntity
  8
Defpoints
 62
     0
100
AcDbPoint
 10
6526.894840675528
 20
2681.584136103166
 30
0.0000000000001922
  0
ENDBLK
  5
27F
330
274
100
AcDbEntity
  8
0
100
AcDbBlockEnd
  0
BLOCK
  5
281
330
280
100
AcDbEntity
  8
0
100
AcDbBlockBegin
  2
*D54
 70
     1
 10
0.0
 20
0.0
 30
0.0
  3
*D54
  1

  0
LINE
  5
282
330
280
100
AcDbEntity
  8
cotas
100
AcDbLine
 10
6212.279559376667
 20
2441.552717314847
 30
0.0000000000001922
 11
6531.89484067553
 21
2441.552717314847
 31
0.0000000000001922
  0
LINE
  5
283
330
280
100
AcDbEntity
  8
cotas
100
AcDbLine
 10
6220.419650045029
 20
2361.549171952294
 30
0.0000000000001922
 11
6531.89484067553
 21
2361.549171952294
 31
0.0000000000001922
  0
LINE
  5
284
330
280
100
AcDbEntity
  8
cotas
100
AcDbLine
 10
6526.894840675528
 20
2431.552717314847
 30
0.0000000000001922
 11
6526.894840675528
 21
2371.549171952294
 31
0.0000000000001922
  0
SOLID
  5
285
330
280
100
AcDbEntity
  8
cotas
100
AcDbTrace
 10
6525.228174008862
 20
2431.552717314847
 30
0.0000000000001922
 11
6528.561507342196
 21
2431.552717314847
 31
0.0000000000001922
 12
6526.894840675528
 22
2441.552717314847
 32
0.0000000000001922
 13
6526.894840675528
 23
2441.552717314847
 33
0.0000000000001922
  0
SOLID
  5
286
330
280
100
AcDbEntity
  8
cotas
100
AcDbTrace
 10
6525.228174008862
 20
2371.549171952294
 30
0.0000000000001922
 11
6528.561507342196
 21
2371.549171952294
 31
0.0000000000001922
 12
6526.894840675528
 22
2361.549171952294
 32
0.0000000000001922
 13
6526.894840675528
 23
2361.549171952294
 33
0.0000000000001922
  0
MTEXT
  5
287
330
280
100
AcDbEntity
  8
cotas
100
AcDbMText
 10
6516.666499506958
 20
2401.550944633572
 30
0.0000000000001922
 40
10.0
 41
0.0
 71
     5
 72
     1
  1
80
  7
SANINDUSA
 11
0.0000000000000001
 21
1.0
 31
0.0
 73
     1
 44
1.0
1001
ACAD
1000
MTEXTBEGIN
1070
    73
1070
     1
1070
    44
1040
1.0
1070
    74
1070
     0
1000
MTEXTEND
  0
POINT
  5
288
330
280
100
AcDbEntity
  8
Defpoints
 62
     0
100
AcDbPoint
 10
6207.279559376667
 20
2441.552717314847
 30
0.0000000000001922
  0
POINT
  5
289
330
280
100
AcDbEntity
  8
Defpoints
 62
     0
100
AcDbPoint
 10
6215.419650045029
 20
2361.549171952294
 30
0.0000000000001922
  0
POINT
  5
28A
330
280
100
AcDbEntity
  8
Defpoints
 62
     0
100
AcDbPoint
 10
6526.894840675528
 20
2361.549171952294
 30
0.0000000000001922
  0
ENDBLK
  5
28B
330
280
100
AcDbEntity
  8
0
100
AcDbBlockEnd
  0
BLOCK
  5
28D
330
28C
100
AcDbEntity
  8
0
100
AcDbBlockBegin
  2
*D55
 70
     1
 10
0.0
 20
0.0
 30
0.0
  3
*D55
  1

  0
LINE
  5
28E
330
28C
100
AcDbEntity
  8
cotas
100
AcDbLine
 10
6212.367744290623
 20
2361.553418791776
 30
0.0000000000001922
 11
6531.89484067553
 21
2361.553418791776
 31
0.0000000000001922
  0
LINE
  5
28F
330
28C
100
AcDbEntity
  8
cotas
100
AcDbLine
 10
6220.379745026477
 20
2281.548110511983
 30
0.0000000000001922
 11
6531.89484067553
 21
2281.548110511983
 31
0.0000000000001922
  0
LINE
  5
290
330
28C
100
AcDbEntity
  8
cotas
100
AcDbLine
 10
6526.894840675528
 20
2351.553418791775
 30
0.0000000000001922
 11
6526.894840675528
 21
2291.548110511984
 31
0.0000000000001922
  0
SOLID
  5
291
330
28C
100
AcDbEntity
  8
cotas
100
AcDbTrace
 10
6525.228174008862
 20
2351.553418791775
 30
0.0000000000001922
 11
6528.561507342196
 21
2351.553418791775
 31
0.0000000000001922
 12
6526.894840675528
 22
2361.553418791776
 32
0.0000000000001922
 13
6526.894840675528
 23
2361.553418791776
 33
0.0000000000001922
  0
SOLID
  5
292
330
28C
100
AcDbEntity
  8
cotas
100
AcDbTrace
 10
6525.228174008862
 20
2291.548110511984
 30
0.0000000000001922
 11
6528.561507342196
 21
2291.548110511984
 31
0.0000000000001922
 12
6526.894840675528
 22
2281.548110511983
 32
0.0000000000001922
 13
6526.894840675528
 23
2281.548110511983
 33
0.0000000000001922
  0
MTEXT
  5
293
330
28C
100
AcDbEntity
  8
cotas
100
AcDbMText
 10
6516.666499506958
 20
2321.550764651881
 30
0.0000000000001922
 40
10.0
 41
0.0
 71
     5
 72
     1
  1
80
  7
SANINDUSA
 11
0.0000000000000001
 21
1.0
 31
0.0
 73
     1
 44
1.0
1001
ACAD
1000
MTEXTBEGIN
1070
    73
1070
     1
1070
    44
1040
1.0
1070
    74
1070
     0
1000
MTEXTEND
  0
POINT
  5
294
330
28C
100
AcDbEntity
  8
Defpoints
 62
     0
100
AcDbPoint
 10
6207.367744290623
 20
2361.553418791776
 30
0.0000000000001922
  0
POINT
  5
295
330
28C
100
AcDbEntity
  8
Defpoints
 62
     0
100
AcDbPoint
 10
6215.379745026478
 20
2281.548110511983
 30
0.0000000000001922
  0
POINT
  5
296
330
28C
100
AcDbEntity
  8
Defpoints
 62
     0
100
AcDbPoint
 10
6526.894840675528
 20
2281.548110511983
 30
0.0000000000001922
  0
ENDBLK
  5
297
330
28C
100
AcDbEntity
  8
0
100
AcDbBlockEnd
  0
BLOCK
  5
299
330
298
100
AcDbEntity
  8
0
100
AcDbBlockBegin
  2
*D56
 70
     1
 10
0.0
 20
0.0
 30
0.0
  3
*D56
  1

  0
LINE
  5
29A
330
298
100
AcDbEntity
  8
cotas
100
AcDbLine
 10
6212.323331883908
 20
2841.560858513486
 30
0.0000000000001922
 11
6531.874619802014
 21
2841.560858513486
 31
0.0000000000001922
  0
LINE
  5
29B
330
298
100
AcDbEntity
  8
cotas
100
AcDbLine
 10
6496.176352114746
 20
3011.573424881305
 30
0.0000000000001922
 11
6531.874619802014
 21
3011.573424881305
 31
0.0000000000001922
  0
LINE
  5
29C
330
298
100
AcDbEntity
  8
cotas
100
AcDbLine
 10
6526.874619802014
 20
2851.560858513486
 30
0.0000000000001922
 11
6526.874619802014
 21
3001.573424881305
 31
0.0000000000001922
  0
SOLID
  5
29D
330
298
100
AcDbEntity
  8
cotas
100
AcDbTrace
 10
6525.207953135347
 20
2851.560858513486
 30
0.0000000000001922
 11
6528.54128646868
 21
2851.560858513486
 31
0.0000000000001922
 12
6526.874619802014
 22
2841.560858513486
 32
0.0000000000001922
 13
6526.874619802014
 23
2841.560858513486
 33
0.0000000000001922
  0
SOLID
  5
29E
330
298
100
AcDbEntity
  8
cotas
100
AcDbTrace
 10
6525.207953135347
 20
3001.573424881305
 30
0.0000000000001922
 11
6528.54128646868
 21
3001.573424881305
 31
0.0000000000001922
 12
6526.874619802014
 22
3011.573424881305
 32
0.0000000000001922
 13
6526.874619802014
 23
3011.573424881305
 33
0.0000000000001922
  0
MTEXT
  5
29F
330
298
100
AcDbEntity
  8
cotas
100
AcDbMText
 10
6516.669784341972
 20
2926.567141697396
 30
0.0000000000001922
 40
10.0
 41
0.0
 71
     5
 72
     1
  1
170
  7
SANINDUSA
 11
0.0000000000000001
 21
1.0
 31
0.0
 73
     1
 44
1.0
1001
ACAD
1000
MTEXTBEGIN
1070
    73
1070
     1
1070
    44
1040
1.0
1070
    74
1070
     0
1000
MTEXTEND
  0
POINT
  5
2A0
330
298
100
AcDbEntity
  8
Defpoints
 62
     0
100
AcDbPoint
 10
6207.323331883909
 20
2841.560858513486
 30
0.0000000000001922
  0
POINT
  5
2A1
330
298
100
AcDbEntity
  8
Defpoints
 62
     0
100
AcDbPoint
 10
6491.176352114746
 20
3011.573424881305
 30
0.0
  0
POINT
  5
2A2
330
298
100
AcDbEntity
  8
Defpoints
 62
     0
100
AcDbPoint
 10
6526.874619802014
 20
3011.573424881305
 30
0.0000000000001922
  0
ENDBLK
  5
2A3
330
298
100
AcDbEntity
  8
0
100
AcDbBlockEnd
  0
BLOCK
  5
2A5
330
2A4
100
AcDbEntity
  8
0
100
AcDbBlockBegin
  2
*D57
 70
     1
 10
0.0
 20
0.0
 30
0.0
  3
*D57
  1

  0
LINE
  5
2A6
330
2A4
100
AcDbEntity
  8
cotas
100
AcDbLine
 10
4895.49840542763
 20
3012.251548355451
 30
0.0
 11
4895.49840542763
 21
3047.250769201147
 31
0.0
  0
LINE
  5
2A7
330
2A4
100
AcDbEntity
  8
cotas
100
AcDbLine
 10
5217.753172032338
 20
3017.250769201147
 30
0.0
 11
5217.753172032338
 21
3047.250769201147
 31
0.0
  0
LINE
  5
2A8
330
2A4
100
AcDbEntity
  8
cotas
100
AcDbLine
 10
4905.498405427629
 20
3042.250769201147
 30
0.0
 11
5207.753172032338
 21
3042.250769201147
 31
0.0
  0
SOLID
  5
2A9
330
2A4
100
AcDbEntity
  8
cotas
100
AcDbTrace
 10
4905.498405427629
 20
3043.917435867813
 30
0.0
 11
4905.498405427629
 21
3040.58410253448
 31
0.0
 12
4895.49840542763
 22
3042.250769201147
 32
0.0
 13
4895.49840542763
 23
3042.250769201147
 33
0.0
  0
SOLID
  5
2AA
330
2A4
100
AcDbEntity
  8
cotas
100
AcDbTrace
 10
5207.753172032338
 20
3043.917435867813
 30
0.0
 11
5207.753172032338
 21
3040.58410253448
 31
0.0
 12
5217.753172032338
 22
3042.250769201147
 32
0.0
 13
5217.753172032338
 23
3042.250769201147
 33
0.0
  0
MTEXT
  5
2AB
330
2A4
100
AcDbEntity
  8
cotas
100
AcDbMText
 10
5056.625788729983
 20
3053.597310504035
 30
0.0
 40
10.0
 41
0.0
 71
     5
 72
     1
  1
322,3
  7
SANINDUSA
 73
     1
 44
1.0
1001
ACAD
1000
MTEXTBEGIN
1070
    73
1070
     1
1070
    44
1040
1.0
1070
    74
1070
     0
1000
MTEXTEND
  0
POINT
  5
2AC
330
2A4
100
AcDbEntity
  8
Defpoints
 62
     0
100
AcDbPoint
 10
4895.49840542763
 20
3007.251548355451
 30
0.0000000000000001
  0
POINT
  5
2AD
330
2A4
100
AcDbEntity
  8
Defpoints
 62
     0
100
AcDbPoint
 10
5217.753172032338
 20
3012.250769201147
 30
0.0
  0
POINT
  5
2AE
330
2A4
100
AcDbEntity
  8
Defpoints
 62
     0
100
AcDbPoint
 10
5217.753172032338
 20
3042.250769201147
 30
0.0
  0
ENDBLK
  5
2AF
330
2A4
100
AcDbEntity
  8
0
100
AcDbBlockEnd
  0
BLOCK
  5
2B1
330
2B0
100
AcDbEntity
  8
0
100
AcDbBlockBegin
  2
*D58
 70
     1
 10
0.0
 20
0.0
 30
0.0
  3
*D58
  1

  0
LINE
  5
2B2
330
2B0
100
AcDbEntity
  8
cotas
100
AcDbLine
 10
6521.687422892438
 20
2075.718613469507
 30
0.0
 11
6500.151851170652
 21
2104.555088195331
 31
0.0
  0
MTEXT
  5
2B3
330
2B0
100
AcDbEntity
  8
cotas
100
AcDbMText
 10
6522.007099127435
 20
2092.176692635376
 30
0.0
 40
10.0
 41
0.0
 71
     5
 72
     1
  1
R5
  7
SANINDUSA
 11
0.5983666037271546
 21
-0.8012224457315399
 31
0.0
 73
     1
 44
1.0
1001
ACAD
1000
MTEXTBEGIN
1070
    73
1070
     1
1070
    44
1040
1.0
1070
    74
1070
     0
1000
MTEXTEND
  0
LINE
  5
2B4
330
2B0
100
AcDbEntity
  8
cotas
100
AcDbLine
 10
6491.176352114746
 20
2116.573424881304
 30
0.0
 11
6494.168185133381
 21
2112.567312652647
 31
0.0
  0
SOLID
  5
2B5
330
2B0
100
AcDbEntity
  8
cotas
100
AcDbTrace
 10
6501.48722191354
 20
2105.55236586821
 30
0.0
 11
6498.816480427767
 21
2103.557810522453
 31
0.0
 12
6494.168185133381
 22
2112.567312652647
 32
0.0
 13
6494.168185133381
 23
2112.567312652647
 33
0.0
  0
POINT
  5
2B6
330
2B0
100
AcDbEntity
  8
Defpoints
 62
     0
100
AcDbPoint
 10
6494.168185133381
 20
2112.567312652647
 30
0.0
  0
POINT
  5
2B7
330
2B0
100
AcDbEntity
  8
Defpoints
 62
     0
100
AcDbPoint
 10
6491.176352114746
 20
2116.573424881304
 30
0.0
  0
ENDBLK
  5
2B8
330
2B0
100
AcDbEntity
  8
0
100
AcDbBlockEnd
  0
BLOCK
  5
2BA
330
2B9
100
AcDbEntity
  8
0
100
AcDbBlockBegin
  2
*D59
 70
     1
 10
0.0
 20
0.0
 30
0.0
  3
*D59
  1

  0
LINE
  5
2BB
330
2B9
100
AcDbEntity
  8
cotas
100
AcDbLine
 10
4865.361694259792
 20
2080.277248109359
 30
0.0
 11
4890.65498406758
 21
2105.881400403402
 31
0.0
  0
MTEXT
  5
2BC
330
2B9
100
AcDbEntity
  8
cotas
100
AcDbMText
 10
4867.306286282872
 20
2096.623168841733
 30
0.0
 40
10.0
 41
0.0
 71
     5
 72
     1
  1
R5
  7
SANINDUSA
 11
0.7027749304683059
 21
0.7114122553802879
 31
0.0
 73
     1
 44
1.0
1001
ACAD
1000
MTEXTBEGIN
1070
    73
1070
     1
1070
    44
1040
1.0
1070
    74
1070
     0
1000
MTEXTEND
  0
LINE
  5
2BD
330
2B9
100
AcDbEntity
  8
cotas
100
AcDbLine
 10
4901.196608024604
 20
2116.552584234106
 30
0.0
 11
4897.682733372263
 21
2112.995522957205
 31
0.0
  0
SOLID
  5
2BE
330
2B9
100
AcDbEntity
  8
cotas
100
AcDbTrace
 10
4889.469296975279
 20
2107.052691954183
 30
0.0
 11
4891.840671159879
 21
2104.710108852621
 31
0.0
 12
4897.682733372263
 22
2112.995522957205
 32
0.0
 13
4897.682733372263
 23
2112.995522957205
 33
0.0
  0
POINT
  5
2BF
330
2B9
100
AcDbEntity
  8
Defpoints
 62
     0
100
AcDbPoint
 10
4897.682733372263
 20
2112.995522957205
 30
0.0
  0
POINT
  5
2C0
330
2B9
100
AcDbEntity
  8
Defpoints
 62
     0
100
AcDbPoint
 10
4901.196608024604
 20
2116.552584234106
 30
0.0
  0
ENDBLK
  5
2C1
330
2B9
100
AcDbEntity
  8
0
100
AcDbBlockEnd
  0
BLOCK
  5
2C3
330
2C2
100
AcDbEntity
  8
0
100
AcDbBlockBegin
  2
*D60
 70
     1
 10
0.0
 20
0.0
 30
0.0
  3
*D60
  1

  0
LINE
  5
2C4
330
2C2
100
AcDbEntity
  8
1
100
AcDbLine
 10
6055.727440664106
 20
2882.001485791024
 30
0.0
 11
6055.727440664106
 21
3047.250571081181
 31
0.0
  0
LINE
  5
2C5
330
2C2
100
AcDbEntity
  8
1
100
AcDbLine
 10
6135.700776837007
 20
2882.001348791876
 30
0.0
 11
6135.700776837007
 21
3047.250571081181
 31
0.0
  0
LINE
  5
2C6
330
2C2
100
AcDbEntity
  8
1
100
AcDbLine
 10
6065.727440664105
 20
3042.250571081182
 30
0.0
 11
6125.700776837007
 21
3042.250571081182
 31
0.0
  0
SOLID
  5
2C7
330
2C2
100
AcDbEntity
  8
1
100
AcDbTrace
 10
6065.727440664105
 20
3043.917237747848
 30
0.0
 11
6065.727440664105
 21
3040.583904414515
 31
0.0
 12
6055.727440664106
 22
3042.250571081182
 32
0.0
 13
6055.727440664106
 23
3042.250571081182
 33
0.0
  0
SOLID
  5
2C8
330
2C2
100
AcDbEntity
  8
1
100
AcDbTrace
 10
6125.700776837007
 20
3043.917237747848
 30
0.0
 11
6125.700776837007
 21
3040.583904414515
 31
0.0
 12
6135.700776837007
 22
3042.250571081182
 32
0.0
 13
6135.700776837007
 23
3042.250571081182
 33
0.0
  0
MTEXT
  5
2C9
330
2C2
100
AcDbEntity
  8
1
100
AcDbMText
 10
6095.714108750556
 20
3052.478912249751
 30
0.0
 40
10.0
 41
0.0
 71
     5
 72
     1
  1
80
  7
SANINDUSA
 73
     1
 44
1.0
1001
ACAD
1000
MTEXTBEGIN
1070
    73
1070
     1
1070
    44
1040
1.0
1070
    74
1070
     0
1000
MTEXTEND
  0
POINT
  5
2CA
330
2C2
100
AcDbEntity
  8
Defpoints
 62
     0
100
AcDbPoint
 10
6055.727440664106
 20
2877.001485791024
 30
0.0
  0
POINT
  5
2CB
330
2C2
100
AcDbEntity
  8
Defpoints
 62
     0
100
AcDbPoint
 10
6135.700776837007
 20
2877.001348791876
 30
0.0
  0
POINT
  5
2CC
330
2C2
100
AcDbEntity
  8
Defpoints
 62
     0
100
AcDbPoint
 10
6135.700776837007
 20
3042.250571081182
 30
0.0
  0
ENDBLK
  5
2CD
330
2C2
100
AcDbEntity
  8
0
100
AcDbBlockEnd
  0
BLOCK
  5
2CF
330
2CE
100
AcDbEntity
  8
0
100
AcDbBlockBegin
  2
*D61
 70
     1
 10
0.0
 20
0.0
 30
0.0
  3
*D61
  1

  0
LINE
  5
2D0
330
2CE
100
AcDbEntity
  8
1
100
AcDbLine
 10
6316.172055685782
 20
3017.250769201147
 30
0.0
 11
6316.172055685782
 21
3047.250769201147
 31
0.0
  0
LINE
  5
2D1
330
2CE
100
AcDbEntity
  8
1
100
AcDbLine
 10
6496.176352114746
 20
3011.573424881305
 30
0.0
 11
6496.176352114746
 21
3047.250769201147
 31
0.0
  0
LINE
  5
2D2
330
2CE
100
AcDbEntity
  8
1
100
AcDbLine
 10
6326.172055685783
 20
3042.250769201147
 30
0.0
 11
6486.176352114746
 21
3042.250769201147
 31
0.0
  0
SOLID
  5
2D3
330
2CE
100
AcDbEntity
  8
1
100
AcDbTrace
 10
6326.172055685783
 20
3043.917435867813
 30
0.0
 11
6326.172055685783
 21
3040.58410253448
 31
0.0
 12
6316.172055685782
 22
3042.250769201147
 32
0.0
 13
6316.172055685782
 23
3042.250769201147
 33
0.0
  0
SOLID
  5
2D4
330
2CE
100
AcDbEntity
  8
1
100
AcDbTrace
 10
6486.176352114746
 20
3043.917435867813
 30
0.0
 11
6486.176352114746
 21
3040.58410253448
 31
0.0
 12
6496.176352114746
 22
3042.250769201147
 32
0.0
 13
6496.176352114746
 23
3042.250769201147
 33
0.0
  0
MTEXT
  5
2D5
330
2CE
100
AcDbEntity
  8
1
100
AcDbMText
 10
6406.174203900263
 20
3052.479110369716
 30
0.0
 40
10.0
 41
0.0
 71
     5
 72
     1
  1
180
  7
SANINDUSA
 73
     1
 44
1.0
1001
ACAD
1000
MTEXTBEGIN
1070
    73
1070
     1
1070
    44
1040
1.0
1070
    74
1070
     0
1000
MTEXTEND
  0
POINT
  5
2D6
330
2CE
100
AcDbEntity
  8
Defpoints
 62
     0
100
AcDbPoint
 10
6316.172055685782
 20
3012.250769201147
 30
-0.0000000000000197
  0
POINT
  5
2D7
330
2CE
100
AcDbEntity
  8
Defpoints
 62
     0
100
AcDbPoint
 10
6496.176352114746
 20
3006.573424881305
 30
0.0
  0
POINT
  5
2D8
330
2CE
100
AcDbEntity
  8
Defpoints
 62
     0
100
AcDbPoint
 10
6496.176352114746
 20
3042.250769201147
 30
0.0
  0
ENDBLK
  5
2D9
330
2CE
100
AcDbEntity
  8
0
100
AcDbBlockEnd
  0
BLOCK
  5
2DB
330
2DA
100
AcDbEntity
  8
0
100
AcDbBlockBegin
  2
*D62
 70
     1
 10
0.0
 20
0.0
 30
0.0
  3
*D62
  1

  0
LINE
  5
2DC
330
2DA
100
AcDbEntity
  8
1
100
AcDbLine
 10
6372.928822661936
 20
4370.060543623483
 30
0.0
 11
6411.864639031346
 21
4342.994763939869
 31
0.0
  0
MTEXT
  5
2DD
330
2DA
100
AcDbEntity
  8
1
100
AcDbMText
 10
6392.950713815733
 20
4368.341747907375
 30
0.0
 40
10.0
 41
0.0
 71
     5
 72
     1
  1
R17
  7
SANINDUSA
 11
0.821102930755962
 21
-0.5707801477836889
 31
0.0
 73
     1
 44
1.0
1001
ACAD
1000
MTEXTBEGIN
1070
    73
1070
     1
1070
    44
1040
1.0
1070
    74
1070
     0
1000
MTEXTEND
  0
SOLID
  5
2DE
330
2DA
100
AcDbEntity
  8
1
100
AcDbTrace
 10
6412.815939277653
 20
4344.363268824462
 30
0.0
 11
6410.913338785039
 21
4341.626259055275
 31
0.0
 12
6420.075668338906
 22
4337.286962462031
 32
0.0
 13
6420.075668338906
 23
4337.286962462031
 33
0.0
  0
POINT
  5
2DF
330
2DA
100
AcDbEntity
  8
Defpoints
 62
     0
100
AcDbPoint
 10
6420.075668338906
 20
4337.286962462031
 30
0.0
  0
POINT
  5
2E0
330
2DA
100
AcDbEntity
  8
Defpoints
 62
     0
100
AcDbPoint
 10
6406.11695724036
 20
4346.990198055602
 30
0.0
  0
ENDBLK
  5
2E1
330
2DA
100
AcDbEntity
  8
0
100
AcDbBlockEnd
  0
BLOCK
  5
2E3
330
2E2
100
AcDbEntity
  8
0
100
AcDbBlockBegin
  2
*D63
 70
     1
 10
0.0
 20
0.0
 30
0.0
  3
*D63
  1

  0
LINE
  5
2E4
330
2E2
100
AcDbEntity
  8
1
100
AcDbLine
 10
6501.196596830118
 20
4434.88452455878
 30
0.0
 11
6531.894840675544
 21
4434.88452455878
 31
0.0
  0
LINE
  5
2E5
330
2E2
100
AcDbEntity
  8
1
100
AcDbLine
 10
6427.632512556255
 20
4332.822183377053
 30
0.0
 11
6531.894840675544
 21
4332.822183377053
 31
0.0
  0
LINE
  5
2E6
330
2E2
100
AcDbEntity
  8
1
100
AcDbLine
 10
6526.894840675544
 20
4424.88452455878
 30
0.0
 11
6526.894840675544
 21
4342.822183377053
 31
0.0
  0
SOLID
  5
2E7
330
2E2
100
AcDbEntity
  8
1
100
AcDbTrace
 10
6525.228174008876
 20
4424.88452455878
 30
0.0
 11
6528.56150734221
 21
4424.88452455878
 31
0.0
 12
6526.894840675544
 22
4434.88452455878
 32
0.0
 13
6526.894840675544
 23
4434.88452455878
 33
0.0
  0
SOLID
  5
2E8
330
2E2
100
AcDbEntity
  8
1
100
AcDbTrace
 10
6525.228174008876
 20
4342.822183377053
 30
0.0
 11
6528.56150734221
 21
4342.822183377053
 31
0.0
 12
6526.894840675544
 22
4332.822183377053
 32
0.0
 13
6526.894840675544
 23
4332.822183377053
 33
0.0
  0
MTEXT
  5
2E9
330
2E2
100
AcDbEntity
  8
1
100
AcDbMText
 10
6515.548299372655
 20
4383.853353967918
 30
0.0
 40
10.0
 41
0.0
 71
     5
 72
     1
  1
102,1
  7
SANINDUSA
 11
0.0000000000000001
 21
1.0
 31
0.0
 73
     1
 44
1.0
1001
ACAD
1000
MTEXTBEGIN
1070
    73
1070
     1
1070
    44
1040
1.0
1070
    74
1070
     0
1000
MTEXTEND
  0
POINT
  5
2EA
330
2E2
100
AcDbEntity
  8
Defpoints
 62
     0
100
AcDbPoint
 10
6496.196596830118
 20
4434.88452455878
 30
0.0
  0
POINT
  5
2EB
330
2E2
100
AcDbEntity
  8
Defpoints
 62
     0
100
AcDbPoint
 10
6422.632512556255
 20
4332.822183377053
 30
0.0
  0
POINT
  5
2EC
330
2E2
100
AcDbEntity
  8
Defpoints
 62
     0
100
AcDbPoint
 10
6526.894840675544
 20
4332.822183377053
 30
0.0
  0
ENDBLK
  5
2ED
330
2E2
100
AcDbEntity
  8
0
100
AcDbBlockEnd
  0
BLOCK
  5
2EF
330
2EE
100
AcDbEntity
  8
0
100
AcDbBlockBegin
  2
*D64
 70
     1
 10
0.0
 20
0.0
 30
0.0
  3
*D64
  1

  0
LINE
  5
2F0
330
2EE
100
AcDbEntity
  8
1
100
AcDbLine
 10
4895.497643903412
 20
3012.250786831234
 30
0.0
 11
4860.497661523834
 21
3012.250786831234
 31
0.0
  0
LINE
  5
2F1
330
2EE
100
AcDbEntity
  8
1
100
AcDbLine
 10
4890.498405444093
 20
2918.193349571227
 30
0.0
 11
4860.497661523834
 21
2918.193349571227
 31
0.0
  0
LINE
  5
2F2
330
2EE
100
AcDbEntity
  8
1
100
AcDbLine
 10
4865.497661523834
 20
3002.250786831234
 30
0.0
 11
4865.497661523834
 21
2928.193349571227
 31
0.0
  0
SOLID
  5
2F3
330
2EE
100
AcDbEntity
  8
1
100
AcDbTrace
 10
4863.830994857167
 20
3002.250786831234
 30
0.0
 11
4867.164328190501
 21
3002.250786831234
 31
0.0
 12
4865.497661523834
 22
3012.250786831234
 32
0.0
 13
4865.497661523834
 23
3012.250786831234
 33
0.0
  0
SOLID
  5
2F4
330
2EE
100
AcDbEntity
  8
1
100
AcDbTrace
 10
4863.830994857167
 20
2928.193349571227
 30
0.0
 11
4867.164328190501
 21
2928.193349571227
 31
0.0
 12
4865.497661523834
 22
2918.193349571227
 32
0.0
 13
4865.497661523834
 23
2918.193349571227
 33
0.0
  0
MTEXT
  5
2F5
330
2EE
100
AcDbEntity
  8
1
100
AcDbMText
 10
4854.154478179307
 20
2965.222068201232
 30
0.0
 40
10.0
 41
0.0
 71
     5
 72
     1
  1
94,1
  7
SANINDUSA
 11
0.0000000000000001
 21
1.0
 31
0.0
 73
     1
 44
1.0
1001
ACAD
1000
MTEXTBEGIN
1070
    73
1070
     1
1070
    44
1040
1.0
1070
    74
1070
     0
1000
MTEXTEND
  0
POINT
  5
2F6
330
2EE
100
AcDbEntity
  8
Defpoints
 62
     0
100
AcDbPoint
 10
4900.497643903412
 20
3012.250786831234
 30
0.0000000000004019
  0
POINT
  5
2F7
330
2EE
100
AcDbEntity
  8
Defpoints
 62
     0
100
AcDbPoint
 10
4895.498405444093
 20
2918.193349571227
 30
-0.0000000000001915
  0
POINT
  5
2F8
330
2EE
100
AcDbEntity
  8
Defpoints
 62
     0
100
AcDbPoint
 10
4865.497661523834
 20
2918.193349571227
 30
0.0
  0
ENDBLK
  5
2F9
330
2EE
100
AcDbEntity
  8
0
100
AcDbBlockEnd
  0
BLOCK
  5
E85
330
E7A
100
AcDbEntity
  8
0
100
AcDbBlockBegin
  2
*D66
 70
     1
 10
0.0
 20
0.0
 30
0.0
  3
*D66
  1

  0
LINE
  5
A123
330
E7A
100
AcDbEntity
  8
cotas
100
AcDbLine
 10
171.93285962172
 20
1675.802711052349
 30
0.0
 11
171.3071757708067
 21
1639.957307188662
 31
0.0
  0
ARC
  5
A124
330
E7A
100
AcDbEntity
  8
cotas
100
AcDbCircle
 10
172.7183242342921
 20
1720.801948634064
 30
0.0
 40
75.85695635145859
100
AcDbArc
 50
276.5586144526253
 51
352.4413855488218
  0
SOLID
  5
A125
330
E7A
100
AcDbEntity
  8
cotas
100
AcDbTrace
 10
181.4634900172066
 20
1643.77672988108
 30
0.0
 11
181.301859881307
 21
1647.10614226321
 31
0.0
 12
171.3944378028669
 22
1644.956545664445
 32
0.0
 13
171.3944378028669
 23
1644.956545664445
 33
0.0
  0
SOLID
  5
A126
330
E7A
100
AcDbEntity
  8
cotas
100
AcDbTrace
 10
246.2531030243511
 20
1710.933551137453
 30
0.0
 11
249.5791874860302
 21
1710.7138393606
 31
0.0
 12
248.5752805857507
 22
1720.801948634064
 32
0.0
 13
248.5752805857507
 23
1720.801948634064
 33
0.0
  0
MTEXT
  5
A127
330
E7A
100
AcDbEntity
  8
cotas
100
AcDbMText
 10
217.9366254103697
 20
1674.78747106081
 30
0.0
 40
10.0
 41
0.0
 71
     5
 72
     1
  1
91,0°
  7
SANINDUSA
 11
0.713250449145331
 21
0.7009092643088574
 31
0.0
 73
     1
 44
1.0
1001
ACAD
1000
MTEXTBEGIN
1070
    73
1070
     1
1070
    44
1040
1.0
1070
    74
1070
     0
1000
MTEXTEND
  0
POINT
  5
A128
330
E7A
100
AcDbEntity
  8
Defpoints
 62
     0
100
AcDbPoint
 10
209.8798672088205
 20
1654.671036417013
 30
0.0
  0
POINT
  5
A129
330
E7A
100
AcDbEntity
  8
Defpoints
 62
     0
100
AcDbPoint
 10
172.0201216537802
 20
1680.801949528133
 30
0.0
  0
POINT
  5
A12A
330
E7A
100
AcDbEntity
  8
Defpoints
 62
     0
100
AcDbPoint
 10
179.5972050183747
 20
1720.801948634064
 30
0.0
  0
POINT
  5
A12B
330
E7A
100
AcDbEntity
  8
Defpoints
 62
     0
100
AcDbPoint
 10
1065.839447548363
 20
1720.801948634064
 30
0.0
  0
POINT
  5
A12C
330
E7A
100
AcDbEntity
  8
Defpoints
 62
     0
100
AcDbPoint
 10
172.5982712120833
 20
1713.924115588109
 30
0.0
  0
ENDBLK
  5
E86
330
E7A
100
AcDbEntity
  8
0
100
AcDbBlockEnd
  0
BLOCK
  5
E91
330
E87
100
AcDbEntity
  8
0
100
AcDbBlockBegin
  2
*D67
 70
     1
 10
0.0
 20
0.0
 30
0.0
  3
*D67
  1

  0
LINE
  5
A0EF
330
E87
100
AcDbEntity
  8
cotas
100
AcDbLine
 10
3747.538855636448
 20
1653.373711482472
 30
0.0
 11
3797.024621310904
 21
1653.373711482472
 31
0.0
  0
LINE
  5
A0F0
330
E87
100
AcDbEntity
  8
cotas
100
AcDbLine
 10
3985.200598572666
 20
1720.80194863406
 30
0.0
 11
3787.024621310904
 21
1720.80194863406
 31
0.0
  0
LINE
  5
A0F1
330
E87
100
AcDbEntity
  8
cotas
100
AcDbLine
 10
3792.024621310904
 20
1663.373711482472
 30
0.0
 11
3792.024621310904
 21
1710.80194863406
 31
0.0
  0
SOLID
  5
A0F2
330
E87
100
AcDbEntity
  8
cotas
100
AcDbTrace
 10
3790.357954644238
 20
1663.373711482472
 30
0.0
 11
3793.691287977571
 21
1663.373711482472
 31
0.0
 12
3792.024621310904
 22
1653.373711482472
 32
0.0
 13
3792.024621310904
 23
1653.373711482472
 33
0.0
  0
SOLID
  5
A0F3
330
E87
100
AcDbEntity
  8
cotas
100
AcDbTrace
 10
3790.357954644238
 20
1710.80194863406
 30
0.0
 11
3793.691287977571
 21
1710.80194863406
 31
0.0
 12
3792.024621310904
 22
1720.80194863406
 32
0.0
 13
3792.024621310904
 23
1720.80194863406
 33
0.0
  0
MTEXT
  5
A0F4
330
E87
100
AcDbEntity
  8
cotas
100
AcDbMText
 10
3780.6881538831
 20
1687.087830058267
 30
0.0
 40
10.0
 41
0.0
 71
     5
 72
     1
  1
67,4
  7
SANINDUSA
 11
0.0000000000000001
 21
1.0
 31
0.0
 73
     1
 44
1.0
1001
ACAD
1000
MTEXTBEGIN
1070
    73
1070
     1
1070
    44
1040
1.0
1070
    74
1070
     0
1000
MTEXTEND
  0
POINT
  5
A0F5
330
E87
100
AcDbEntity
  8
Defpoints
 62
     0
100
AcDbPoint
 10
3742.538855636448
 20
1653.373711482472
 30
0.0
  0
POINT
  5
A0F6
330
E87
100
AcDbEntity
  8
Defpoints
 62
     0
100
AcDbPoint
 10
3990.200598572667
 20
1720.80194863406
 30
0.0
  0
POINT
  5
A0F7
330
E87
100
AcDbEntity
  8
Defpoints
 62
     0
100
AcDbPoint
 10
3792.024621310904
 20
1720.80194863406
 30
0.0
  0
ENDBLK
  5
E92
330
E87
100
AcDbEntity
  8
0
100
AcDbBlockEnd
  0
BLOCK
  5
E9D
330
E93
100
AcDbEntity
  8
0
100
AcDbBlockBegin
  2
*D68
 70
     1
 10
0.0
 20
0.0
 30
0.0
  3
*D68
  1

  0
LINE
  5
A0D0
330
E93
100
AcDbEntity
  8
cotas
100
AcDbLine
 10
3287.607392888803
 20
1661.227298545997
 30
0.0
 11
3154.502389206138
 21
1661.227298545997
 31
0.0
  0
LINE
  5
A0D1
330
E93
100
AcDbEntity
  8
cotas
100
AcDbLine
 10
3185.200591786648
 20
1720.80194863406
 30
0.0
 11
3154.502389206138
 21
1720.80194863406
 31
0.0
  0
LINE
  5
A0D2
330
E93
100
AcDbEntity
  8
cotas
100
AcDbLine
 10
3159.502389206138
 20
1671.227298545997
 30
0.0
 11
3159.502389206138
 21
1710.80194863406
 31
0.0
  0
SOLID
  5
A0D3
330
E93
100
AcDbEntity
  8
cotas
100
AcDbTrace
 10
3157.835722539472
 20
1671.227298545997
 30
0.0
 11
3161.169055872805
 21
1671.227298545997
 31
0.0
 12
3159.502389206138
 22
1661.227298545997
 32
0.0
 13
3159.502389206138
 23
1661.227298545997
 33
0.0
  0
SOLID
  5
A0D4
330
E93
100
AcDbEntity
  8
cotas
100
AcDbTrace
 10
3157.835722539472
 20
1710.80194863406
 30
0.0
 11
3161.169055872805
 21
1710.80194863406
 31
0.0
 12
3159.502389206138
 22
1720.80194863406
 32
0.0
 13
3159.502389206138
 23
1720.80194863406
 33
0.0
  0
MTEXT
  5
A0D5
330
E93
100
AcDbEntity
  8
cotas
100
AcDbMText
 10
3148.159205861611
 20
1691.014623590029
 30
0.0
 40
10.0
 41
0.0
 71
     5
 72
     1
  1
59,6
  7
SANINDUSA
 11
0.0000000000000001
 21
1.0
 31
0.0
 73
     1
 44
1.0
1001
ACAD
1000
MTEXTBEGIN
1070
    73
1070
     1
1070
    44
1040
1.0
1070
    74
1070
     0
1000
MTEXTEND
  0
POINT
  5
A0D6
330
E93
100
AcDbEntity
  8
Defpoints
 62
     0
100
AcDbPoint
 10
3292.607392888803
 20
1661.227298545997
 30
0.0
  0
POINT
  5
A0D7
330
E93
100
AcDbEntity
  8
Defpoints
 62
     0
100
AcDbPoint
 10
3190.200591786647
 20
1720.80194863406
 30
0.0
  0
POINT
  5
A0D8
330
E93
100
AcDbEntity
  8
Defpoints
 62
     0
100
AcDbPoint
 10
3159.502389206138
 20
1720.80194863406
 30
0.0
  0
ENDBLK
  5
E9E
330
E93
100
AcDbEntity
  8
0
100
AcDbBlockEnd
  0
BLOCK
  5
EA9
330
E9F
100
AcDbEntity
  8
0
100
AcDbBlockBegin
  2
*D69
 70
     1
 10
0.0
 20
0.0
 30
0.0
  3
*D69
  1

  0
ARC
  5
A0C7
330
E9F
100
AcDbEntity
  8
cotas
100
AcDbCircle
 10
3256.434405841233
 20
1716.90194863406
 30
0.0
 40
47.01428158020574
100
AcDbArc
 50
192.2099791823491
 51
259.7900208176415
  0
SOLID
  5
A0C8
330
E9F
100
AcDbEntity
  8
cotas
100
AcDbTrace
 10
3208.826416410215
 20
1706.781410665865
 30
0.0
 11
3212.140845364809
 21
1707.135912874694
 31
0.0
 12
3209.420124261027
 22
1716.90194863406
 32
0.0
 13
3209.420124261027
 23
1716.90194863406
 33
0.0
  0
SOLID
  5
A0C9
330
E9F
100
AcDbEntity
  8
cotas
100
AcDbTrace
 10
3248.220142254764
 20
1672.294540865127
 30
0.0
 11
3247.981527901474
 21
1668.969759022432
 31
0.0
 12
3258.075180606204
 22
1669.916306883909
 32
0.0
 13
3258.075180606204
 23
1669.916306883909
 33
0.0
  0
MTEXT
  5
A0CA
330
E9F
100
AcDbEntity
  8
cotas
100
AcDbMText
 10
3231.657511502235
 20
1691.244723464445
 30
0.0
 40
10.0
 41
0.0
 71
     5
 72
     1
  1
92,0°
  7
SANINDUSA
 11
0.719339800338595
 21
-0.6946583704590556
 31
0.0
 73
     1
 44
1.0
1001
ACAD
1000
MTEXTBEGIN
1070
    73
1070
     1
1070
    44
1040
1.0
1070
    74
1070
     0
1000
MTEXTEND
  0
POINT
  5
A0CB
330
E9F
100
AcDbEntity
  8
Defpoints
 62
     0
100
AcDbPoint
 10
3215.995111601105
 20
1692.922662700921
 30
0.0
  0
POINT
  5
A0CC
330
E9F
100
AcDbEntity
  8
Defpoints
 62
     0
100
AcDbPoint
 10
3197.079472628635
 20
1716.90194863406
 30
0.0
  0
POINT
  5
A0CD
330
E9F
100
AcDbEntity
  8
Defpoints
 62
     0
100
AcDbPoint
 10
3258.151325250709
 20
1667.735809557727
 30
0.0
  0
POINT
  5
A0CE
330
E9F
100
AcDbEntity
  8
Defpoints
 62
     0
100
AcDbPoint
 10
3256.538882203089
 20
1713.91013707384
 30
0.0
  0
POINT
  5
A0CF
330
E9F
100
AcDbEntity
  8
Defpoints
 62
     0
100
AcDbPoint
 10
3253.440770639334
 20
1716.90194863406
 30
0.0
  0
ENDBLK
  5
EAA
330
E9F
100
AcDbEntity
  8
0
100
AcDbBlockEnd
  0
BLOCK
  5
EB2
330
EAB
100
AcDbEntity
  8
0
100
AcDbBlockBegin
  2
*D70
 70
     1
 10
0.0
 20
0.0
 30
0.0
  3
*D70
  1

  0
LINE
  5
A0C1
330
EAB
100
AcDbEntity
  8
cotas
100
AcDbLine
 10
3226.087396530372
 20
1619.911434911871
 30
0.0
 11
3259.138273144357
 21
1650.217544850418
 31
0.0
  0
MTEXT
  5
A0C2
330
EAB
100
AcDbEntity
  8
cotas
100
AcDbMText
 10
3232.157848973585
 20
1639.068156740589
 30
0.0
 40
10.0
 41
0.0
 71
     5
 72
     1
  1
R17
  7
SANINDUSA
 11
0.7370489033731291
 21
0.6758394143851538
 31
0.0
 73
     1
 44
1.0
1001
ACAD
1000
MTEXTBEGIN
1070
    73
1070
     1
1070
    44
1040
1.0
1070
    74
1070
     0
1000
MTEXTEND
  0
LINE
  5
A0C3
330
EAB
100
AcDbEntity
  8
cotas
100
AcDbLine
 10
3279.038593535425
 20
1668.465209038811
 30
0.0
 11
3266.508762178089
 21
1656.97593899427
 31
0.0
  0
SOLID
  5
A0C4
330
EAB
100
AcDbEntity
  8
cotas
100
AcDbTrace
 10
3258.011874120382
 20
1651.445959689374
 30
0.0
 11
3260.264672168332
 21
1648.989130011463
 31
0.0
 12
3266.508762178089
 22
1656.97593899427
 32
0.0
 13
3266.508762178089
 23
1656.97593899427
 33
0.0
  0
POINT
  5
A0C5
330
EAB
100
AcDbEntity
  8
Defpoints
 62
     0
100
AcDbPoint
 10
3266.508762178089
 20
1656.97593899427
 30
0.0
  0
POINT
  5
A0C6
330
EAB
100
AcDbEntity
  8
Defpoints
 62
     0
100
AcDbPoint
 10
3279.038593535425
 20
1668.465209038811
 30
0.0
  0
ENDBLK
  5
EB3
330
EAB
100
AcDbEntity
  8
0
100
AcDbBlockEnd
  0
BLOCK
  5
EBB
330
EB4
100
AcDbEntity
  8
0
100
AcDbBlockBegin
  2
*D71
 70
     1
 10
0.0
 20
0.0
 30
0.0
  3
*D71
  1

  0
LINE
  5
A0BB
330
EB4
100
AcDbEntity
  8
cotas
100
AcDbLine
 10
3302.433983237647
 20
1599.457826809123
 30
0.0
 11
3289.246307141517
 21
1642.27480582024
 31
0.0
  0
MTEXT
  5
A0BC
330
EB4
100
AcDbEntity
  8
cotas
100
AcDbMText
 10
3307.064642935191
 20
1619.091684768331
 30
0.0
 40
10.0
 41
0.0
 71
     5
 72
     1
  1
R10
  7
SANINDUSA
 11
0.2943554145875895
 21
-0.9556960237978225
 31
0.0
 73
     1
 44
1.0
1001
ACAD
1000
MTEXTBEGIN
1070
    73
1070
     1
1070
    44
1040
1.0
1070
    74
1070
     0
1000
MTEXTEND
  0
LINE
  5
A0BD
330
EB4
100
AcDbEntity
  8
cotas
100
AcDbLine
 10
3283.359198849766
 20
1661.388726296193
 30
0.0
 11
3286.302752995641
 21
1651.831766058218
 31
0.0
  0
SOLID
  5
A0BE
330
EB4
100
AcDbEntity
  8
cotas
100
AcDbTrace
 10
3290.839133847847
 20
1642.765398177886
 30
0.0
 11
3287.653480435187
 21
1641.784213462594
 31
0.0
 12
3286.302752995641
 22
1651.831766058218
 32
0.0
 13
3286.302752995641
 23
1651.831766058218
 33
0.0
  0
POINT
  5
A0BF
330
EB4
100
AcDbEntity
  8
Defpoints
 62
     0
100
AcDbPoint
 10
3286.302752995641
 20
1651.831766058218
 30
0.0
  0
POINT
  5
A0C0
330
EB4
100
AcDbEntity
  8
Defpoints
 62
     0
100
AcDbPoint
 10
3283.359198849766
 20
1661.388726296193
 30
0.0
  0
ENDBLK
  5
EBC
330
EB4
100
AcDbEntity
  8
0
100
AcDbBlockEnd
  0
BLOCK
  5
EC3
330
EBD
100
AcDbEntity
  8
0
100
AcDbBlockBegin
  2
*D72
 70
     1
 10
0.0
 20
0.0
 30
0.0
  3
*D72
  1

  0
LINE
  5
A0B6
330
EBD
100
AcDbEntity
  8
cotas
100
AcDbLine
 10
3330.179889097979
 20
1620.745256452143
 30
0.0
 11
3300.784167028063
 21
1651.936202605243
 31
0.0
  0
MTEXT
  5
A0B7
330
EBD
100
AcDbEntity
  8
cotas
100
AcDbMText
 10
3328.507560406944
 20
1637.100084525546
 30
0.0
 40
10.0
 41
0.0
 71
     5
 72
     1
  1
R7
  7
SANINDUSA
 11
0.6858537116673839
 21
-0.7277394356444298
 31
0.0
 73
     1
 44
1.0
1001
ACAD
1000
MTEXTBEGIN
1070
    73
1070
     1
1070
    44
1040
1.0
1070
    74
1070
     0
1000
MTEXTEND
  0
SOLID
  5
A0B8
330
EBD
100
AcDbEntity
  8
cotas
100
AcDbTrace
 10
3301.997066087471
 20
1653.079292124688
 30
0.0
 11
3299.571267968655
 21
1650.793113085797
 31
0.0
 12
3293.925629911389
 22
1659.213596961687
 32
0.0
 13
3293.925629911389
 23
1659.213596961687
 33
0.0
  0
POINT
  5
A0B9
330
EBD
100
AcDbEntity
  8
Defpoints
 62
     0
100
AcDbPoint
 10
3293.925629911389
 20
1659.213596961687
 30
0.0
  0
POINT
  5
A0BA
330
EBD
100
AcDbEntity
  8
Defpoints
 62
     0
100
AcDbPoint
 10
3298.72660589306
 20
1654.119420912177
 30
0.0
  0
ENDBLK
  5
EC4
330
EBD
100
AcDbEntity
  8
0
100
AcDbBlockEnd
  0
BLOCK
  5
ECC
330
EC5
100
AcDbEntity
  8
0
100
AcDbBlockBegin
  2
*D73
 70
     1
 10
0.0
 20
0.0
 30
0.0
  3
*D73
  1

  0
LINE
  5
A0B0
330
EC5
100
AcDbEntity
  8
cotas
100
AcDbLine
 10
3726.509565983572
 20
1584.536278023237
 30
0.0
 11
3747.538263864628
 21
1624.142017632383
 31
0.0
  0
MTEXT
  5
A0B1
330
EC5
100
AcDbEntity
  8
cotas
100
AcDbMText
 10
3725.832088325404
 20
1604.620386370656
 30
0.0
 40
10.0
 41
0.0
 71
     5
 72
     1
  1
R17
  7
SANINDUSA
 11
0.4689490960744704
 21
0.8832251951178346
 31
0.0
 73
     1
 44
1.0
1001
ACAD
1000
MTEXTBEGIN
1070
    73
1070
     1
1070
    44
1040
1.0
1070
    74
1070
     0
1000
MTEXTEND
  0
LINE
  5
A0B2
330
EC5
100
AcDbEntity
  8
cotas
100
AcDbLine
 10
3760.201797092461
 20
1647.992690764415
 30
0.0
 11
3752.227754825373
 21
1632.974269583561
 31
0.0
  0
SOLID
  5
A0B3
330
EC5
100
AcDbEntity
  8
cotas
100
AcDbTrace
 10
3746.066221872765
 20
1624.923599459173
 30
0.0
 11
3749.01030585649
 21
1623.360435805592
 31
0.0
 12
3752.227754825373
 22
1632.974269583561
 32
0.0
 13
3752.227754825373
 23
1632.974269583561
 33
0.0
  0
POINT
  5
A0B4
330
EC5
100
AcDbEntity
  8
Defpoints
 62
     0
100
AcDbPoint
 10
3752.227754825373
 20
1632.974269583561
 30
0.0
  0
POINT
  5
A0B5
330
EC5
100
AcDbEntity
  8
Defpoints
 62
     0
100
AcDbPoint
 10
3760.201797092461
 20
1647.992690764415
 30
0.0
  0
ENDBLK
  5
ECD
330
EC5
100
AcDbEntity
  8
0
100
AcDbBlockEnd
  0
BLOCK
  5
ED4
330
ECE
100
AcDbEntity
  8
0
100
AcDbBlockBegin
  2
*D74
 70
     1
 10
0.0
 20
0.0
 30
0.0
  3
*D74
  1

  0
LINE
  5
A0AB
330
ECE
100
AcDbEntity
  8
cotas
100
AcDbLine
 10
3703.50786247625
 20
1614.165414868566
 30
0.0
 11
3734.110302762327
 21
1644.374933115221
 31
0.0
  0
MTEXT
  5
A0AC
330
ECE
100
AcDbEntity
  8
cotas
100
AcDbMText
 10
3705.769108824436
 20
1630.449267284818
 30
0.0
 40
10.0
 41
0.0
 71
     5
 72
     1
  1
R7
  7
SANINDUSA
 11
0.7116607288361952
 21
0.7025233142268914
 31
0.0
 73
     1
 44
1.0
1001
ACAD
1000
MTEXTBEGIN
1070
    73
1070
     1
1070
    44
1040
1.0
1070
    74
1070
     0
1000
MTEXTEND
  0
SOLID
  5
A0AD
330
ECE
100
AcDbEntity
  8
cotas
100
AcDbTrace
 10
3732.939430571949
 20
1645.561034329948
 30
0.0
 11
3735.281174952705
 21
1643.188831900493
 31
0.0
 12
3741.226910050688
 22
1651.40016625749
 32
0.0
 13
3741.226910050688
 23
1651.40016625749
 33
0.0
  0
POINT
  5
A0AE
330
ECE
100
AcDbEntity
  8
Defpoints
 62
     0
100
AcDbPoint
 10
3741.226910050688
 20
1651.40016625749
 30
0.0
  0
POINT
  5
A0AF
330
ECE
100
AcDbEntity
  8
Defpoints
 62
     0
100
AcDbPoint
 10
3736.245292710008
 20
1646.482510719424
 30
0.0
  0
ENDBLK
  5
ED5
330
ECE
100
AcDbEntity
  8
0
100
AcDbBlockEnd
  0
BLOCK
  5
EE0
330
ED6
100
AcDbEntity
  8
0
100
AcDbBlockBegin
  2
*D75
 70
     1
 10
0.0
 20
0.0
 30
0.0
  3
*D75
  1

  0
ARC
  5
A0A2
330
ED6
100
AcDbEntity
  8
cotas
100
AcDbCircle
 10
-120.4196059934061
 20
1720.801948634061
 30
0.0
 40
3592.358038712873
100
AcDbArc
 50
359.1594928535919
 51
359.8405064378472
  0
SOLID
  5
A0A3
330
ED6
100
AcDbEntity
  8
cotas
100
AcDbTrace
 10
3473.218357815046
 20
1668.078553879636
 30
0.0
 11
3469.885454423351
 21
1668.132089781082
 31
0.0
 12
3471.391298414859
 22
1658.106611655276
 32
0.0
 13
3471.391298414859
 23
1658.106611655276
 33
0.0
  0
SOLID
  5
A0A4
330
ED6
100
AcDbEntity
  8
cotas
100
AcDbTrace
 10
3470.257849232675
 20
1710.804278059288
 30
0.0
 11
3473.591179337293
 21
1710.799638581127
 31
0.0
 12
3471.938432719467
 22
1720.801948634061
 32
0.0
 13
3471.938432719467
 23
1720.801948634061
 33
0.0
  0
MTEXT
  5
A0A5
330
ED6
100
AcDbEntity
  8
cotas
100
AcDbMText
 10
3460.458895108862
 20
1689.552073236621
 30
0.0
 40
10.0
 41
0.0
 71
     5
 72
     1
  1
1,0°
  7
SANINDUSA
 11
0.0087265416814994
 21
0.9999619230102121
 31
0.0
 73
     1
 44
1.0
1001
ACAD
1000
MTEXTBEGIN
1070
    73
1070
     1
1070
    44
1040
1.0
1070
    74
1070
     0
1000
MTEXTEND
  0
POINT
  5
A0A6
330
ED6
100
AcDbEntity
  8
Defpoints
 62
     0
100
AcDbPoint
 10
3471.695258488022
 20
1679.003878384728
 30
0.0
  0
POINT
  5
A0A7
330
ED6
100
AcDbEntity
  8
Defpoints
 62
     0
100
AcDbPoint
 10
3280.424322846369
 20
1720.801948634061
 30
0.0
  0
POINT
  5
A0A8
330
ED6
100
AcDbEntity
  8
Defpoints
 62
     0
100
AcDbPoint
 10
3548.396092778074
 20
1656.762487017293
 30
0.0
  0
POINT
  5
A0A9
330
ED6
100
AcDbEntity
  8
Defpoints
 62
     0
100
AcDbPoint
 10
3298.848772824679
 20
1661.118354776765
 30
0.0
  0
POINT
  5
A0AA
330
ED6
100
AcDbEntity
  8
Defpoints
 62
     0
100
AcDbPoint
 10
4299.976869619693
 20
1720.801948634061
 30
0.0
  0
ENDBLK
  5
EE1
330
ED6
100
AcDbEntity
  8
0
100
AcDbBlockEnd
  0
BLOCK
  5
EEC
330
EE2
100
AcDbEntity
  8
0
100
AcDbBlockBegin
  2
*D76
 70
     1
 10
0.0
 20
0.0
 30
0.0
  3
*D76
  1

  0
LINE
  5
A087
330
EE2
100
AcDbEntity
  8
cotas
100
AcDbLine
 10
4610.200602515617
 20
1649.69662778145
 30
0.0
 11
4610.200602515617
 21
1785.79694858982
 31
0.0
  0
LINE
  5
A088
330
EE2
100
AcDbEntity
  8
cotas
100
AcDbLine
 10
3190.200591786647
 20
1725.80194863406
 30
0.0
 11
3190.200591786647
 21
1785.79694858982
 31
0.0
  0
LINE
  5
A089
330
EE2
100
AcDbEntity
  8
cotas
100
AcDbLine
 10
4600.200602515617
 20
1780.79694858982
 30
0.0
 11
3200.200591786647
 21
1780.79694858982
 31
0.0
  0
SOLID
  5
A08A
330
EE2
100
AcDbEntity
  8
cotas
100
AcDbTrace
 10
4600.200602515617
 20
1782.463615256486
 30
0.0
 11
4600.200602515617
 21
1779.130281923153
 31
0.0
 12
4610.200602515617
 22
1780.79694858982
 32
0.0
 13
4610.200602515617
 23
1780.79694858982
 33
0.0
  0
SOLID
  5
A08B
330
EE2
100
AcDbEntity
  8
cotas
100
AcDbTrace
 10
3200.200591786647
 20
1782.463615256486
 30
0.0
 11
3200.200591786647
 21
1779.130281923153
 31
0.0
 12
3190.200591786647
 22
1780.79694858982
 32
0.0
 13
3190.200591786647
 23
1780.79694858982
 33
0.0
  0
MTEXT
  5
A08C
330
EE2
100
AcDbEntity
  8
cotas
100
AcDbMText
 10
3900.200597151132
 20
1791.005142008221
 30
0.0
 40
10.0
 41
0.0
 71
     5
 72
     1
  1
1420
  7
SANINDUSA
 73
     1
 44
1.0
1001
ACAD
1000
MTEXTBEGIN
1070
    73
1070
     1
1070
    44
1040
1.0
1070
    74
1070
     0
1000
MTEXTEND
  0
POINT
  5
A08D
330
EE2
100
AcDbEntity
  8
Defpoints
 62
     0
100
AcDbPoint
 10
4610.200602515617
 20
1644.69662778145
 30
0.0
  0
POINT
  5
A08E
330
EE2
100
AcDbEntity
  8
Defpoints
 62
     0
100
AcDbPoint
 10
3190.200591786647
 20
1720.80194863406
 30
0.0
  0
POINT
  5
A08F
330
EE2
100
AcDbEntity
  8
Defpoints
 62
     0
100
AcDbPoint
 10
3190.200591786647
 20
1780.79694858982
 30
0.0
  0
ENDBLK
  5
EED
330
EE2
100
AcDbEntity
  8
0
100
AcDbBlockEnd
  0
BLOCK
  5
EF8
330
EEE
100
AcDbEntity
  8
0
100
AcDbBlockBegin
  2
*D77
 70
     1
 10
0.0
 20
0.0
 30
0.0
  3
*D77
  1

  0
ARC
  5
A07E
330
EEE
100
AcDbEntity
  8
cotas
100
AcDbCircle
 10
4720.200602770036
 20
1720.80194863406
 30
0.0
 40
60.17204840949684
100
AcDbArc
 50
189.532984604482
 51
258.4669963830446
  0
SOLID
  5
A07F
330
EEE
100
AcDbEntity
  8
cotas
100
AcDbTrace
 10
4659.19860225623
 20
1710.698040613778
 30
0.0
 11
4662.520407673852
 21
1710.975024148612
 31
0.0
 12
4660.028554360539
 22
1720.801948634061
 32
0.0
 13
4660.028554360539
 23
1720.801948634061
 33
0.0
  0
SOLID
  5
A080
330
EEE
100
AcDbEntity
  8
cotas
100
AcDbTrace
 10
4708.36663578834
 20
1663.499849399804
 30
0.0
 11
4707.973890548776
 21
1660.189734252574
 31
0.0
 12
4718.100608610243
 22
1660.666556107499
 32
0.0
 13
4718.100608610243
 23
1660.666556107499
 33
0.0
  0
MTEXT
  5
A081
330
EEE
100
AcDbEntity
  8
cotas
100
AcDbMText
 10
4685.085713149636
 20
1686.891905158291
 30
0.0
 40
10.0
 41
0.0
 71
     5
 72
     1
  1
88,0°
  7
SANINDUSA
 11
0.694658251109633
 21
-0.7193399155929735
 31
0.0
 73
     1
 44
1.0
1001
ACAD
1000
MTEXTBEGIN
1070
    73
1070
     1
1070
    44
1040
1.0
1070
    74
1070
     0
1000
MTEXTEND
  0
POINT
  5
A082
330
EEE
100
AcDbEntity
  8
Defpoints
 62
     0
100
AcDbPoint
 10
4667.743545565904
 20
1691.324286595203
 30
0.0
  0
POINT
  5
A083
330
EEE
100
AcDbEntity
  8
Defpoints
 62
     0
100
AcDbPoint
 10
3680.424322846369
 20
1720.80194863406
 30
0.0
  0
POINT
  5
A084
330
EEE
100
AcDbEntity
  8
Defpoints
 62
     0
100
AcDbPoint
 10
4717.392612203076
 20
1640.392384556206
 30
0.0
  0
POINT
  5
A085
330
EEE
100
AcDbEntity
  8
Defpoints
 62
     0
100
AcDbPoint
 10
4719.964686241137
 20
1714.046247432375
 30
0.0
  0
POINT
  5
A086
330
EEE
100
AcDbEntity
  8
Defpoints
 62
     0
100
AcDbPoint
 10
4699.976869619693
 20
1720.80194863406
 30
0.0
  0
ENDBLK
  5
EF9
330
EEE
100
AcDbEntity
  8
0
100
AcDbBlockEnd
  0
BLOCK
  5
F04
330
EFA
100
AcDbEntity
  8
0
100
AcDbBlockBegin
  2
*D78
 70
     1
 10
0.0
 20
0.0
 30
0.0
  3
*D78
  1

  0
LINE
  5
A06C
330
EFA
100
AcDbEntity
  8
cotas
100
AcDbLine
 10
1253.853303914411
 20
1720.801948634064
 30
0.0
 11
1223.1551013339
 21
1720.801948634064
 31
0.0
  0
LINE
  5
A06D
330
EFA
100
AcDbEntity
  8
cotas
100
AcDbLine
 10
1253.155101333901
 20
1680.801949528133
 30
0.0
 11
1223.1551013339
 21
1680.801949528133
 31
0.0
  0
LINE
  5
A06E
330
EFA
100
AcDbEntity
  8
cotas
100
AcDbLine
 10
1228.1551013339
 20
1710.801948634064
 30
0.0
 11
1228.1551013339
 21
1690.801949528134
 31
0.0
  0
SOLID
  5
A06F
330
EFA
100
AcDbEntity
  8
cotas
100
AcDbTrace
 10
1226.488434667234
 20
1710.801948634064
 30
0.0
 11
1229.821768000567
 21
1710.801948634064
 31
0.0
 12
1228.1551013339
 22
1720.801948634064
 32
0.0
 13
1228.1551013339
 23
1720.801948634064
 33
0.0
  0
SOLID
  5
A070
330
EFA
100
AcDbEntity
  8
cotas
100
AcDbTrace
 10
1226.488434667234
 20
1690.801949528134
 30
0.0
 11
1229.821768000567
 21
1690.801949528134
 31
0.0
 12
1228.1551013339
 22
1680.801949528133
 32
0.0
 13
1228.1551013339
 23
1680.801949528133
 33
0.0
  0
MTEXT
  5
A071
330
EFA
100
AcDbEntity
  8
cotas
100
AcDbMText
 10
1217.95026587386
 20
1700.801949081099
 30
0.0
 40
10.0
 41
0.0
 71
     5
 72
     1
  1
40
  7
SANINDUSA
 11
0.0000000000000001
 21
1.0
 31
0.0
 73
     1
 44
1.0
1001
ACAD
1000
MTEXTBEGIN
1070
    73
1070
     1
1070
    44
1040
1.0
1070
    74
1070
     0
1000
MTEXTEND
  0
POINT
  5
A072
330
EFA
100
AcDbEntity
  8
Defpoints
 62
     0
100
AcDbPoint
 10
1258.853303914411
 20
1720.801948634064
 30
0.0
  0
POINT
  5
A073
330
EFA
100
AcDbEntity
  8
Defpoints
 62
     0
100
AcDbPoint
 10
1258.1551013339
 20
1680.801949528133
 30
0.0
  0
POINT
  5
A074
330
EFA
100
AcDbEntity
  8
Defpoints
 62
     0
100
AcDbPoint
 10
1228.1551013339
 20
1680.801949528133
 30
0.0
  0
ENDBLK
  5
F05
330
EFA
100
AcDbEntity
  8
0
100
AcDbBlockEnd
  0
BLOCK
  5
F0C
330
F06
100
AcDbEntity
  8
0
100
AcDbBlockBegin
  2
*D79
 70
     1
 10
0.0
 20
0.0
 30
0.0
  3
*D79
  1

  0
LINE
  5
A067
330
F06
100
AcDbEntity
  8
cotas
100
AcDbLine
 10
1296.066390484577
 20
1689.134284312636
 30
0.0
 11
1268.059733358832
 21
1711.909194687212
 31
0.0
  0
MTEXT
  5
A068
330
F06
100
AcDbEntity
  8
cotas
100
AcDbMText
 10
1292.25148941526
 20
1705.125644929944
 30
0.0
 40
10.0
 41
0.0
 71
     5
 72
     1
  1
R7
  7
SANINDUSA
 11
0.7758495341438563
 21
-0.6309179822835622
 31
0.0
 73
     1
 44
1.0
1001
ACAD
1000
MTEXTBEGIN
1070
    73
1070
     1
1070
    44
1040
1.0
1070
    74
1070
     0
1000
MTEXTEND
  0
SOLID
  5
A069
330
F06
100
AcDbEntity
  8
cotas
100
AcDbTrace
 10
1269.111263329304
 20
1713.202277244118
 30
0.0
 11
1267.00820338836
 21
1710.616112130306
 31
0.0
 12
1260.301238017394
 22
1718.218374510048
 32
0.0
 13
1260.301238017394
 23
1718.218374510048
 33
0.0
  0
POINT
  5
A06A
330
F06
100
AcDbEntity
  8
Defpoints
 62
     0
100
AcDbPoint
 10
1260.301238017394
 20
1718.218374510048
 30
0.0
  0
POINT
  5
A06B
330
F06
100
AcDbEntity
  8
Defpoints
 62
     0
100
AcDbPoint
 10
1265.732184756399
 20
1713.801948634064
 30
0.0
  0
ENDBLK
  5
F0D
330
F06
100
AcDbEntity
  8
0
100
AcDbBlockEnd
  0
BLOCK
  5
F14
330
F0E
100
AcDbEntity
  8
0
100
AcDbBlockBegin
  2
*D80
 70
     1
 10
0.0
 20
0.0
 30
0.0
  3
*D80
  1

  0
LINE
  5
A062
330
F0E
100
AcDbEntity
  8
cotas
100
AcDbLine
 10
2822.492964224976
 20
1688.121241519535
 30
0.0
 11
2849.712346067025
 21
1711.831463746817
 31
0.0
  0
MTEXT
  5
A063
330
F0E
100
AcDbEntity
  8
cotas
100
AcDbMText
 10
2825.764171298961
 20
1704.232612933558
 30
0.0
 40
10.0
 41
0.0
 71
     5
 72
     1
  1
R7
  7
SANINDUSA
 11
0.7540401779123317
 21
0.6568282957470235
 31
0.0
 73
     1
 44
1.0
1001
ACAD
1000
MTEXTBEGIN
1070
    73
1070
     1
1070
    44
1040
1.0
1070
    74
1070
     0
1000
MTEXTEND
  0
SOLID
  5
A064
330
F0E
100
AcDbEntity
  8
cotas
100
AcDbTrace
 10
2848.61763224078
 20
1713.088197376671
 30
0.0
 11
2850.80705989327
 21
1710.574730116963
 31
0.0
 12
2857.252747846148
 22
1718.399746704287
 32
0.0
 13
2857.252747846148
 23
1718.399746704287
 33
0.0
  0
POINT
  5
A065
330
F0E
100
AcDbEntity
  8
Defpoints
 62
     0
100
AcDbPoint
 10
2857.252747846148
 20
1718.399746704287
 30
0.0
  0
POINT
  5
A066
330
F0E
100
AcDbEntity
  8
Defpoints
 62
     0
100
AcDbPoint
 10
2851.974466600763
 20
1713.801948634059
 30
0.0
  0
ENDBLK
  5
F15
330
F0E
100
AcDbEntity
  8
0
100
AcDbBlockEnd
  0
BLOCK
  5
F21
330
F16
100
AcDbEntity
  8
0
100
AcDbBlockBegin
  2
*D81
 70
     1
 10
0.0
 20
0.0
 30
0.0
  3
*D81
  1

  0
LINE
  5
A058
330
F16
100
AcDbEntity
  8
cotas
100
AcDbLine
 10
2859.638874101875
 20
1675.802711194342
 30
0.0
 11
2860.187897202408
 21
1644.35213152288
 31
0.0
  0
ARC
  5
A059
330
F16
100
AcDbEntity
  8
cotas
100
AcDbCircle
 10
2858.85333624792
 20
1720.80194863406
 30
0.0
 40
71.46146473403565
100
AcDbArc
 50
188.0242731520483
 51
262.9758200766588
  0
SOLID
  5
A05A
330
F16
100
AcDbEntity
  8
cotas
100
AcDbTrace
 10
2786.428967221469
 20
1710.709843149998
 30
0.0
 11
2789.754131394268
 21
1710.943069081326
 31
0.0
 12
2787.391871513884
 22
1720.80194863406
 32
0.0
 13
2787.391871513884
 23
1720.80194863406
 33
0.0
  0
SOLID
  5
A05B
330
F16
100
AcDbEntity
  8
cotas
100
AcDbTrace
 10
2850.202018355375
 20
1651.541192673961
 30
0.0
 11
2850.026865478433
 21
1648.212464301022
 31
0.0
 12
2860.100627035722
 22
1649.351369856666
 32
0.0
 13
2860.100627035722
 23
1649.351369856666
 33
0.0
  0
MTEXT
  5
A05C
330
F16
100
AcDbEntity
  8
cotas
100
AcDbMText
 10
2816.715910753797
 20
1677.92252314869
 30
0.0
 40
10.0
 41
0.0
 71
     5
 72
     1
  1
91,0°
  7
SANINDUSA
 11
0.7132510193954568
 21
-0.7009086840176413
 31
0.0
 73
     1
 44
1.0
1001
ACAD
1000
MTEXTBEGIN
1070
    73
1070
     1
1070
    44
1040
1.0
1070
    74
1070
     0
1000
MTEXTEND
  0
POINT
  5
A05D
330
F16
100
AcDbEntity
  8
Defpoints
 62
     0
100
AcDbPoint
 10
2797.174831103335
 20
1684.711742967379
 30
0.0
  0
POINT
  5
A05E
330
F16
100
AcDbEntity
  8
Defpoints
 62
     0
100
AcDbPoint
 10
1665.732228226489
 20
1720.80194863406
 30
0.0
  0
POINT
  5
A05F
330
F16
100
AcDbEntity
  8
Defpoints
 62
     0
100
AcDbPoint
 10
2858.973400441552
 20
1713.92411692924
 30
0.0
  0
POINT
  5
A060
330
F16
100
AcDbEntity
  8
Defpoints
 62
     0
100
AcDbPoint
 10
2859.551603935189
 20
1680.80194952813
 30
0.0
  0
POINT
  5
A061
330
F16
100
AcDbEntity
  8
Defpoints
 62
     0
100
AcDbPoint
 10
2851.974423072762
 20
1720.80194863406
 30
0.0
  0
ENDBLK
  5
F22
330
F16
100
AcDbEntity
  8
0
100
AcDbBlockEnd
  0
BLOCK
  5
F2E
330
F23
100
AcDbEntity
  8
0
100
AcDbBlockBegin
  2
*D82
 70
     1
 10
0.0
 20
0.0
 30
0.0
  3
*D82
  1

  0
LINE
  5
A04E
330
F23
100
AcDbEntity
  8
cotas
100
AcDbLine
 10
1258.06783930184
 20
1675.802711052349
 30
0.0
 11
1257.265098170535
 21
1629.813702373821
 31
0.0
  0
ARC
  5
A04F
330
F23
100
AcDbEntity
  8
cotas
100
AcDbCircle
 10
1258.853303914412
 20
1720.801948634064
 30
0.0
 40
86.00210632177377
100
AcDbArc
 50
275.665895543054
 51
353.3341044583944
  0
SOLID
  5
A050
330
F23
100
AcDbEntity
  8
cotas
100
AcDbTrace
 10
1267.411915674496
 20
1633.554719292992
 30
0.0
 11
1267.276227775457
 21
1636.885289800453
 31
0.0
 12
1257.352360202595
 22
1634.812940849605
 32
0.0
 13
1257.352360202595
 23
1634.812940849605
 33
0.0
  0
SOLID
  5
A051
330
F23
100
AcDbEntity
  8
cotas
100
AcDbTrace
 10
1342.610181544059
 20
1710.915759990414
 30
0.0
 11
1345.937876709142
 21
1710.721966287219
 31
0.0
 12
1344.855410236185
 22
1720.801948634064
 32
0.0
 13
1344.855410236185
 23
1720.801948634064
 33
0.0
  0
MTEXT
  5
A052
330
F23
100
AcDbEntity
  8
cotas
100
AcDbMText
 10
1311.182434692486
 20
1667.551438287836
 30
0.0
 40
10.0
 41
0.0
 71
     5
 72
     1
  1
91,0°
  7
SANINDUSA
 11
0.7132504491453208
 21
0.7009092643088679
 31
0.0
 73
     1
 44
1.0
1001
ACAD
1000
MTEXTBEGIN
1070
    73
1070
     1
1070
    44
1040
1.0
1070
    74
1070
     0
1000
MTEXTEND
  0
POINT
  5
A053
330
F23
100
AcDbEntity
  8
Defpoints
 62
     0
100
AcDbPoint
 10
1300.984851549531
 20
1645.82665279836
 30
0.0
  0
POINT
  5
A054
330
F23
100
AcDbEntity
  8
Defpoints
 62
     0
100
AcDbPoint
 10
1258.1551013339
 20
1680.801949528133
 30
0.0
  0
POINT
  5
A055
330
F23
100
AcDbEntity
  8
Defpoints
 62
     0
100
AcDbPoint
 10
1265.732184698495
 20
1720.801948634064
 30
0.0
  0
POINT
  5
A056
330
F23
100
AcDbEntity
  8
Defpoints
 62
     0
100
AcDbPoint
 10
2451.974379544767
 20
1720.801948634064
 30
0.0
  0
POINT
  5
A057
330
F23
100
AcDbEntity
  8
Defpoints
 62
     0
100
AcDbPoint
 10
1258.733250892203
 20
1713.924115588106
 30
0.0
  0
ENDBLK
  5
F2F
330
F23
100
AcDbEntity
  8
0
100
AcDbBlockEnd
  0
BLOCK
  5
F3A
330
F30
100
AcDbEntity
  8
0
100
AcDbBlockBegin
  2
*D83
 70
     1
 10
0.0
 20
0.0
 30
0.0
  3
*D83
  1

  0
LINE
  5
A045
330
F30
100
AcDbEntity
  8
cotas
100
AcDbLine
 10
2863.853336247921
 20
1720.80194863406
 30
0.0
 11
2894.551603935189
 21
1720.80194863406
 31
0.0
  0
LINE
  5
A046
330
F30
100
AcDbEntity
  8
cotas
100
AcDbLine
 10
2735.549072176912
 20
1588.856970933816
 30
0.0
 11
2894.551603935189
 21
1588.856970933816
 31
0.0
  0
LINE
  5
A047
330
F30
100
AcDbEntity
  8
cotas
100
AcDbLine
 10
2889.551603935189
 20
1710.80194863406
 30
0.0
 11
2889.551603935189
 21
1598.856970933816
 31
0.0
  0
SOLID
  5
A048
330
F30
100
AcDbEntity
  8
cotas
100
AcDbTrace
 10
2887.884937268522
 20
1710.80194863406
 30
0.0
 11
2891.218270601855
 21
1710.80194863406
 31
0.0
 12
2889.551603935189
 22
1720.80194863406
 32
0.0
 13
2889.551603935189
 23
1720.80194863406
 33
0.0
  0
SOLID
  5
A049
330
F30
100
AcDbEntity
  8
cotas
100
AcDbTrace
 10
2887.884937268522
 20
1598.856970933816
 30
0.0
 11
2891.218270601855
 21
1598.856970933816
 31
0.0
 12
2889.551603935189
 22
1588.856970933816
 32
0.0
 13
2889.551603935189
 23
1588.856970933816
 33
0.0
  0
MTEXT
  5
A04A
330
F30
100
AcDbEntity
  8
cotas
100
AcDbMText
 10
2878.2050626323
 20
1654.829459783939
 30
0.0
 40
10.0
 41
0.0
 71
     5
 72
     1
  1
131,9
  7
SANINDUSA
 11
0.0000000000000001
 21
1.0
 31
0.0
 73
     1
 44
1.0
1001
ACAD
1000
MTEXTBEGIN
1070
    73
1070
     1
1070
    44
1040
1.0
1070
    74
1070
     0
1000
MTEXTEND
  0
POINT
  5
A04B
330
F30
100
AcDbEntity
  8
Defpoints
 62
     0
100
AcDbPoint
 10
2858.853336247921
 20
1720.80194863406
 30
0.0
  0
POINT
  5
A04C
330
F30
100
AcDbEntity
  8
Defpoints
 62
     0
100
AcDbPoint
 10
2730.549072176912
 20
1588.856970933816
 30
0.0
  0
POINT
  5
A04D
330
F30
100
AcDbEntity
  8
Defpoints
 62
     0
100
AcDbPoint
 10
2889.551603935189
 20
1588.856970933816
 30
0.0
  0
ENDBLK
  5
F3B
330
F30
100
AcDbEntity
  8
0
100
AcDbBlockEnd
  0
BLOCK
  5
F46
330
F3C
100
AcDbEntity
  8
0
100
AcDbBlockBegin
  2
*D84
 70
     1
 10
0.0
 20
0.0
 30
0.0
  3
*D84
  1

  0
LINE
  5
A03C
330
F3C
100
AcDbEntity
  8
cotas
100
AcDbLine
 10
-348.9820634939229
 20
2123.645732343904
 30
0.0
 11
-348.9820634939229
 21
2153.645732343905
 31
0.0
  0
LINE
  5
A03D
330
F3C
100
AcDbEntity
  8
cotas
100
AcDbLine
 10
-529.4533423426988
 20
1988.396311934633
 30
0.0
 11
-529.4533423426988
 21
2153.645732343905
 31
0.0
  0
LINE
  5
A03E
330
F3C
100
AcDbEntity
  8
cotas
100
AcDbLine
 10
-358.9820634939229
 20
2148.645732343905
 30
0.0
 11
-519.4533423426987
 21
2148.645732343905
 31
0.0
  0
SOLID
  5
A03F
330
F3C
100
AcDbEntity
  8
cotas
100
AcDbTrace
 10
-358.9820634939229
 20
2150.312399010571
 30
0.0
 11
-358.9820634939229
 21
2146.979065677239
 31
0.0
 12
-348.9820634939229
 22
2148.645732343905
 32
0.0
 13
-348.9820634939229
 23
2148.645732343905
 33
0.0
  0
SOLID
  5
A040
330
F3C
100
AcDbEntity
  8
cotas
100
AcDbTrace
 10
-519.4533423426987
 20
2150.312399010571
 30
0.0
 11
-519.4533423426987
 21
2146.979065677239
 31
0.0
 12
-529.4533423426988
 22
2148.645732343905
 32
0.0
 13
-529.4533423426988
 23
2148.645732343905
 33
0.0
  0
MTEXT
  5
A041
330
F3C
100
AcDbEntity
  8
cotas
100
AcDbMText
 10
-439.2177029183108
 20
2160.002347521877
 30
0.0
 40
10.0
 41
0.0
 71
     5
 72
     1
  1
180,5
  7
SANINDUSA
 73
     1
 44
1.0
1001
ACAD
1000
MTEXTBEGIN
1070
    73
1070
     1
1070
    44
1040
1.0
1070
    74
1070
     0
1000
MTEXTEND
  0
POINT
  5
A042
330
F3C
100
AcDbEntity
  8
Defpoints
 62
     0
100
AcDbPoint
 10
-348.9820634939229
 20
2118.645732343904
 30
-0.0000000000000197
  0
POINT
  5
A043
330
F3C
100
AcDbEntity
  8
Defpoints
 62
     0
100
AcDbPoint
 10
-529.4533423426988
 20
1983.396311934633
 30
0.0
  0
POINT
  5
A044
330
F3C
100
AcDbEntity
  8
Defpoints
 62
     0
100
AcDbPoint
 10
-529.4533423426988
 20
2148.645732343905
 30
0.0
  0
ENDBLK
  5
F47
330
F3C
100
AcDbEntity
  8
0
100
AcDbBlockEnd
  0
BLOCK
  5
F52
330
F48
100
AcDbEntity
  8
0
100
AcDbBlockBegin
  2
*D85
 70
     1
 10
0.0
 20
0.0
 30
0.0
  3
*D85
  1

  0
LINE
  5
A018
330
F48
100
AcDbEntity
  8
cotas
100
AcDbLine
 10
-849.2845271625052
 20
1988.378950950052
 30
0.0
 11
-849.2845271625052
 21
2153.645534223938
 31
0.0
  0
LINE
  5
A019
330
F48
100
AcDbEntity
  8
cotas
100
AcDbLine
 10
-929.2718249049135
 20
1988.378950950052
 30
0.0
 11
-929.2718249049135
 21
2153.645534223938
 31
0.0
  0
LINE
  5
A01A
330
F48
100
AcDbEntity
  8
cotas
100
AcDbLine
 10
-859.2845271625051
 20
2148.645534223939
 30
0.0
 11
-919.2718249049134
 21
2148.645534223939
 31
0.0
  0
SOLID
  5
A01B
330
F48
100
AcDbEntity
  8
cotas
100
AcDbTrace
 10
-859.2845271625051
 20
2150.312200890605
 30
0.0
 11
-859.2845271625051
 21
2146.978867557272
 31
0.0
 12
-849.2845271625052
 22
2148.645534223939
 32
0.0
 13
-849.2845271625052
 23
2148.645534223939
 33
0.0
  0
SOLID
  5
A01C
330
F48
100
AcDbEntity
  8
cotas
100
AcDbTrace
 10
-919.2718249049134
 20
2150.312200890605
 30
0.0
 11
-919.2718249049134
 21
2146.978867557272
 31
0.0
 12
-929.2718249049135
 22
2148.645534223939
 32
0.0
 13
-929.2718249049135
 23
2148.645534223939
 33
0.0
  0
MTEXT
  5
A01D
330
F48
100
AcDbEntity
  8
cotas
100
AcDbMText
 10
-889.2781760337093
 20
2158.873875392508
 30
0.0
 40
10.0
 41
0.0
 71
     5
 72
     1
  1
80
  7
SANINDUSA
 73
     1
 44
1.0
1001
ACAD
1000
MTEXTBEGIN
1070
    73
1070
     1
1070
    44
1040
1.0
1070
    74
1070
     0
1000
MTEXTEND
  0
POINT
  5
A01E
330
F48
100
AcDbEntity
  8
Defpoints
 62
     0
100
AcDbPoint
 10
-849.2845271625052
 20
1983.378950950052
 30
0.0
  0
POINT
  5
A01F
330
F48
100
AcDbEntity
  8
Defpoints
 62
     0
100
AcDbPoint
 10
-929.2718249049135
 20
1983.378950950052
 30
0.0
  0
POINT
  5
A020
330
F48
100
AcDbEntity
  8
Defpoints
 62
     0
100
AcDbPoint
 10
-929.2718249049135
 20
2148.645534223939
 30
0.0
  0
ENDBLK
  5
F53
330
F48
100
AcDbEntity
  8
0
100
AcDbBlockEnd
  0
BLOCK
  5
F5E
330
F54
100
AcDbEntity
  8
0
100
AcDbBlockBegin
  2
*D86
 70
     1
 10
0.0
 20
0.0
 30
0.0
  3
*D86
  1

  0
LINE
  5
A00F
330
F54
100
AcDbEntity
  8
cotas
100
AcDbLine
 10
-929.2718249049135
 20
1988.378950950052
 30
0.0
 11
-929.2718249049135
 21
2153.645534223938
 31
0.0
  0
LINE
  5
A010
330
F54
100
AcDbEntity
  8
cotas
100
AcDbLine
 10
-1009.270653185178
 20
2123.645534223937
 30
0.0
 11
-1009.270653185178
 21
2153.645534223938
 31
0.0
  0
LINE
  5
A011
330
F54
100
AcDbEntity
  8
cotas
100
AcDbLine
 10
-939.2718249049135
 20
2148.645534223939
 30
0.0
 11
-999.2706531851784
 21
2148.645534223939
 31
0.0
  0
SOLID
  5
A012
330
F54
100
AcDbEntity
  8
cotas
100
AcDbTrace
 10
-939.2718249049135
 20
2150.312200890605
 30
0.0
 11
-939.2718249049135
 21
2146.978867557272
 31
0.0
 12
-929.2718249049135
 22
2148.645534223939
 32
0.0
 13
-929.2718249049135
 23
2148.645534223939
 33
0.0
  0
SOLID
  5
A013
330
F54
100
AcDbEntity
  8
cotas
100
AcDbTrace
 10
-999.2706531851784
 20
2150.312200890605
 30
0.0
 11
-999.2706531851784
 21
2146.978867557272
 31
0.0
 12
-1009.270653185178
 22
2148.645534223939
 32
0.0
 13
-1009.270653185178
 23
2148.645534223939
 33
0.0
  0
MTEXT
  5
A014
330
F54
100
AcDbEntity
  8
cotas
100
AcDbMText
 10
-969.2712390450459
 20
2158.873875392508
 30
0.0
 40
10.0
 41
0.0
 71
     5
 72
     1
  1
80
  7
SANINDUSA
 73
     1
 44
1.0
1001
ACAD
1000
MTEXTBEGIN
1070
    73
1070
     1
1070
    44
1040
1.0
1070
    74
1070
     0
1000
MTEXTEND
  0
POINT
  5
A015
330
F54
100
AcDbEntity
  8
Defpoints
 62
     0
100
AcDbPoint
 10
-929.2718249049135
 20
1983.378950950052
 30
0.0
  0
POINT
  5
A016
330
F54
100
AcDbEntity
  8
Defpoints
 62
     0
100
AcDbPoint
 10
-1009.270653185178
 20
2118.645534223937
 30
-0.0000000000000197
  0
POINT
  5
A017
330
F54
100
AcDbEntity
  8
Defpoints
 62
     0
100
AcDbPoint
 10
-1009.270653185178
 20
2148.645534223939
 30
0.0
  0
ENDBLK
  5
F5F
330
F54
100
AcDbEntity
  8
0
100
AcDbBlockEnd
  0
BLOCK
  5
F6A
330
F60
100
AcDbEntity
  8
0
100
AcDbBlockBegin
  2
*D87
 70
     1
 10
0.0
 20
0.0
 30
0.0
  3
*D87
  1

  0
LINE
  5
9FFD
330
F60
100
AcDbEntity
  8
cotas
100
AcDbLine
 10
-444.7788815413909
 20
1947.951574816762
 30
0.0000000000001922
 11
-133.2592785041766
 21
1947.951574816762
 31
0.0000000000001922
  0
LINE
  5
9FFE
330
F60
100
AcDbEntity
  8
cotas
100
AcDbLine
 10
-447.8395880490438
 20
1867.973978313187
 30
0.0000000000001922
 11
-133.2592785041765
 21
1867.973978313187
 31
0.0000000000001922
  0
LINE
  5
9FFF
330
F60
100
AcDbEntity
  8
cotas
100
AcDbLine
 10
-138.2592785041765
 20
1937.951574816761
 30
0.0000000000001922
 11
-138.2592785041765
 21
1877.973978313187
 31
0.0000000000001922
  0
SOLID
  5
A000
330
F60
100
AcDbEntity
  8
cotas
100
AcDbTrace
 10
-139.9259451708432
 20
1937.951574816761
 30
0.0000000000001922
 11
-136.5926118375099
 21
1937.951574816761
 31
0.0000000000001922
 12
-138.2592785041765
 22
1947.951574816762
 32
0.0000000000001922
 13
-138.2592785041765
 23
1947.951574816762
 33
0.0000000000001922
  0
SOLID
  5
A001
330
F60
100
AcDbEntity
  8
cotas
100
AcDbTrace
 10
-139.9259451708432
 20
1877.973978313187
 30
0.0000000000001922
 11
-136.5926118375099
 21
1877.973978313187
 31
0.0000000000001922
 12
-138.2592785041765
 22
1867.973978313187
 32
0.0000000000001922
 13
-138.2592785041765
 23
1867.973978313187
 33
0.0000000000001922
  0
MTEXT
  5
A002
330
F60
100
AcDbEntity
  8
cotas
100
AcDbMText
 10
-148.4876196727463
 20
1907.962776564975
 30
0.0000000000001922
 40
10.0
 41
0.0
 71
     5
 72
     1
  1
80
  7
SANINDUSA
 11
0.0000000000000001
 21
1.0
 31
0.0
 73
     1
 44
1.0
1001
ACAD
1000
MTEXTBEGIN
1070
    73
1070
     1
1070
    44
1040
1.0
1070
    74
1070
     0
1000
MTEXTEND
  0
POINT
  5
A003
330
F60
100
AcDbEntity
  8
Defpoints
 62
     0
100
AcDbPoint
 10
-449.778881541391
 20
1947.951574816762
 30
0.0000000000001922
  0
POINT
  5
A004
330
F60
100
AcDbEntity
  8
Defpoints
 62
     0
100
AcDbPoint
 10
-452.8395880490438
 20
1867.973978313187
 30
0.0000000000001922
  0
POINT
  5
A005
330
F60
100
AcDbEntity
  8
Defpoints
 62
     0
100
AcDbPoint
 10
-138.2592785041765
 20
1867.973978313187
 30
0.0000000000001922
  0
ENDBLK
  5
F6B
330
F60
100
AcDbEntity
  8
0
100
AcDbBlockEnd
  0
BLOCK
  5
F76
330
F6C
100
AcDbEntity
  8
0
100
AcDbBlockBegin
  2
*D88
 70
     1
 10
0.0
 20
0.0
 30
0.0
  3
*D88
  1

  0
LINE
  5
9FF4
330
F6C
100
AcDbEntity
  8
cotas
100
AcDbLine
 10
-447.8395880490438
 20
1867.973978313187
 30
0.0000000000001922
 11
-133.2592785041765
 21
1867.973978313187
 31
0.0000000000001922
  0
LINE
  5
9FF5
330
F6C
100
AcDbEntity
  8
cotas
100
AcDbLine
 10
-452.8594480033802
 20
1787.979099245923
 30
0.0000000000001922
 11
-133.2592785041765
 21
1787.979099245923
 31
0.0000000000001922
  0
LINE
  5
9FF6
330
F6C
100
AcDbEntity
  8
cotas
100
AcDbLine
 10
-138.2592785041765
 20
1857.973978313187
 30
0.0000000000001922
 11
-138.2592785041765
 21
1797.979099245923
 31
0.0000000000001922
  0
SOLID
  5
9FF7
330
F6C
100
AcDbEntity
  8
cotas
100
AcDbTrace
 10
-139.9259451708432
 20
1857.973978313187
 30
0.0000000000001922
 11
-136.5926118375099
 21
1857.973978313187
 31
0.0000000000001922
 12
-138.2592785041765
 22
1867.973978313187
 32
0.0000000000001922
 13
-138.2592785041765
 23
1867.973978313187
 33
0.0000000000001922
  0
SOLID
  5
9FF8
330
F6C
100
AcDbEntity
  8
cotas
100
AcDbTrace
 10
-139.9259451708432
 20
1797.979099245923
 30
0.0000000000001922
 11
-136.5926118375099
 21
1797.979099245923
 31
0.0000000000001922
 12
-138.2592785041765
 22
1787.979099245923
 32
0.0000000000001922
 13
-138.2592785041765
 23
1787.979099245923
 33
0.0000000000001922
  0
MTEXT
  5
9FF9
330
F6C
100
AcDbEntity
  8
cotas
100
AcDbMText
 10
-148.4876196727463
 20
1827.976538779555
 30
0.0000000000001922
 40
10.0
 41
0.0
 71
     5
 72
     1
  1
80
  7
SANINDUSA
 11
0.0000000000000001
 21
1.0
 31
0.0
 73
     1
 44
1.0
1001
ACAD
1000
MTEXTBEGIN
1070
    73
1070
     1
1070
    44
1040
1.0
1070
    74
1070
     0
1000
MTEXTEND
  0
POINT
  5
9FFA
330
F6C
100
AcDbEntity
  8
Defpoints
 62
     0
100
AcDbPoint
 10
-452.8395880490438
 20
1867.973978313187
 30
0.0000000000001922
  0
POINT
  5
9FFB
330
F6C
100
AcDbEntity
  8
Defpoints
 62
     0
100
AcDbPoint
 10
-457.8594480033802
 20
1787.979099245923
 30
0.0000000000001922
  0
POINT
  5
9FFC
330
F6C
100
AcDbEntity
  8
Defpoints
 62
     0
100
AcDbPoint
 10
-138.2592785041765
 20
1787.979099245923
 30
0.0000000000001922
  0
ENDBLK
  5
F77
330
F6C
100
AcDbEntity
  8
0
100
AcDbBlockEnd
  0
BLOCK
  5
F82
330
F78
100
AcDbEntity
  8
0
100
AcDbBlockBegin
  2
*D89
 70
     1
 10
0.0
 20
0.0
 30
0.0
  3
*D89
  1

  0
LINE
  5
9FEB
330
F78
100
AcDbEntity
  8
cotas
100
AcDbLine
 10
-444.8247397865738
 20
1707.957927679338
 30
0.0000000000001922
 11
-133.2592785041766
 21
1707.957927679338
 31
0.0000000000001922
  0
LINE
  5
9FEC
330
F78
100
AcDbEntity
  8
cotas
100
AcDbLine
 10
-452.8594480033802
 20
1787.979099245923
 30
0.0000000000001922
 11
-133.2592785041765
 21
1787.979099245923
 31
0.0000000000001922
  0
LINE
  5
9FED
330
F78
100
AcDbEntity
  8
cotas
100
AcDbLine
 10
-138.2592785041766
 20
1717.957927679337
 30
0.0000000000001922
 11
-138.2592785041765
 21
1777.979099245923
 31
0.0000000000001922
  0
SOLID
  5
9FEE
330
F78
100
AcDbEntity
  8
cotas
100
AcDbTrace
 10
-139.9259451708432
 20
1717.957927679337
 30
0.0000000000001922
 11
-136.5926118375099
 21
1717.957927679337
 31
0.0000000000001922
 12
-138.2592785041766
 22
1707.957927679338
 32
0.0000000000001922
 13
-138.2592785041766
 23
1707.957927679338
 33
0.0000000000001922
  0
SOLID
  5
9FEF
330
F78
100
AcDbEntity
  8
cotas
100
AcDbTrace
 10
-139.9259451708432
 20
1777.979099245923
 30
0.0000000000001922
 11
-136.5926118375099
 21
1777.979099245923
 31
0.0000000000001922
 12
-138.2592785041765
 22
1787.979099245923
 32
0.0000000000001922
 13
-138.2592785041765
 23
1787.979099245923
 33
0.0000000000001922
  0
MTEXT
  5
9FF0
330
F78
100
AcDbEntity
  8
cotas
100
AcDbMText
 10
-148.4876196727463
 20
1747.96851346263
 30
0.0000000000001922
 40
10.0
 41
0.0
 71
     5
 72
     1
  1
80
  7
SANINDUSA
 11
0.0000000000000001
 21
1.0
 31
0.0
 73
     1
 44
1.0
1001
ACAD
1000
MTEXTBEGIN
1070
    73
1070
     1
1070
    44
1040
1.0
1070
    74
1070
     0
1000
MTEXTEND
  0
POINT
  5
9FF1
330
F78
100
AcDbEntity
  8
Defpoints
 62
     0
100
AcDbPoint
 10
-449.8247397865738
 20
1707.957927679338
 30
0.0000000000001922
  0
POINT
  5
9FF2
330
F78
100
AcDbEntity
  8
Defpoints
 62
     0
100
AcDbPoint
 10
-457.8594480033802
 20
1787.979099245923
 30
0.0000000000001922
  0
POINT
  5
9FF3
330
F78
100
AcDbEntity
  8
Defpoints
 62
     0
100
AcDbPoint
 10
-138.2592785041765
 20
1787.979099245923
 30
0.0000000000001922
  0
ENDBLK
  5
F83
330
F78
100
AcDbEntity
  8
0
100
AcDbBlockEnd
  0
BLOCK
  5
F8E
330
F84
100
AcDbEntity
  8
0
100
AcDbBlockBegin
  2
*D90
 70
     1
 10
0.0
 20
0.0
 30
0.0
  3
*D90
  1

  0
LINE
  5
9FE2
330
F84
100
AcDbEntity
  8
cotas
100
AcDbLine
 10
-452.87664554098
 20
1707.962174518819
 30
0.0000000000001922
 11
-133.2592785041766
 21
1707.962174518819
 31
0.0000000000001922
  0
LINE
  5
9FE3
330
F84
100
AcDbEntity
  8
cotas
100
AcDbLine
 10
-162.636316005904
 20
1667.955644815897
 30
0.0000000000001922
 11
-133.2592785041765
 21
1667.955644815897
 31
0.0000000000001922
  0
LINE
  5
9FE4
330
F84
100
AcDbEntity
  8
cotas
100
AcDbLine
 10
-138.2592785041765
 20
1697.962174518819
 30
0.0000000000001922
 11
-138.2592785041765
 21
1677.955644815898
 31
0.0000000000001922
  0
SOLID
  5
9FE5
330
F84
100
AcDbEntity
  8
cotas
100
AcDbTrace
 10
-139.9259451708432
 20
1697.962174518819
 30
0.0000000000001922
 11
-136.5926118375099
 21
1697.962174518819
 31
0.0000000000001922
 12
-138.2592785041765
 22
1707.962174518819
 32
0.0000000000001922
 13
-138.2592785041765
 23
1707.962174518819
 33
0.0000000000001922
  0
SOLID
  5
9FE6
330
F84
100
AcDbEntity
  8
cotas
100
AcDbTrace
 10
-139.9259451708432
 20
1677.955644815898
 30
0.0000000000001922
 11
-136.5926118375099
 21
1677.955644815898
 31
0.0000000000001922
 12
-138.2592785041765
 22
1667.955644815897
 32
0.0000000000001922
 13
-138.2592785041765
 23
1667.955644815897
 33
0.0000000000001922
  0
MTEXT
  5
9FE7
330
F84
100
AcDbEntity
  8
cotas
100
AcDbMText
 10
-148.4641139642171
 20
1687.958909667358
 30
0.0000000000001922
 40
10.0
 41
0.0
 71
     5
 72
     1
  1
40
  7
SANINDUSA
 11
0.0000000000000001
 21
1.0
 31
0.0
 73
     1
 44
1.0
1001
ACAD
1000
MTEXTBEGIN
1070
    73
1070
     1
1070
    44
1040
1.0
1070
    74
1070
     0
1000
MTEXTEND
  0
POINT
  5
9FE8
330
F84
100
AcDbEntity
  8
Defpoints
 62
     0
100
AcDbPoint
 10
-457.87664554098
 20
1707.962174518819
 30
0.0000000000001922
  0
POINT
  5
9FE9
330
F84
100
AcDbEntity
  8
Defpoints
 62
     0
100
AcDbPoint
 10
-167.636316005904
 20
1667.955644815897
 30
0.0000000000001922
  0
POINT
  5
9FEA
330
F84
100
AcDbEntity
  8
Defpoints
 62
     0
100
AcDbPoint
 10
-138.2592785041765
 20
1667.955644815897
 30
0.0000000000001922
  0
ENDBLK
  5
F8F
330
F84
100
AcDbEntity
  8
0
100
AcDbBlockEnd
  0
BLOCK
  5
F9A
330
F90
100
AcDbEntity
  8
0
100
AcDbBlockBegin
  2
*D91
 70
     1
 10
0.0
 20
0.0
 30
0.0
  3
*D91
  1

  0
LINE
  5
9FD9
330
F90
100
AcDbEntity
  8
cotas
100
AcDbLine
 10
-163.2145194742256
 20
1667.955644815896
 30
0.0000000000001922
 11
-133.2592785041765
 21
1667.955644815896
 31
0.0000000000001922
  0
LINE
  5
9FDA
330
F90
100
AcDbEntity
  8
cotas
100
AcDbLine
 10
-452.8745598030377
 20
1627.933211114464
 30
0.0000000000001922
 11
-133.2592785041765
 21
1627.933211114464
 31
0.0000000000001922
  0
LINE
  5
9FDB
330
F90
100
AcDbEntity
  8
cotas
100
AcDbLine
 10
-138.2592785041765
 20
1657.955644815896
 30
0.0000000000001922
 11
-138.2592785041765
 21
1637.933211114464
 31
0.0000000000001922
  0
SOLID
  5
9FDC
330
F90
100
AcDbEntity
  8
cotas
100
AcDbTrace
 10
-139.9259451708432
 20
1657.955644815896
 30
0.0000000000001922
 11
-136.5926118375099
 21
1657.955644815896
 31
0.0000000000001922
 12
-138.2592785041765
 22
1667.955644815896
 32
0.0000000000001922
 13
-138.2592785041765
 23
1667.955644815896
 33
0.0000000000001922
  0
SOLID
  5
9FDD
330
F90
100
AcDbEntity
  8
cotas
100
AcDbTrace
 10
-139.9259451708432
 20
1637.933211114464
 30
0.0000000000001922
 11
-136.5926118375099
 21
1637.933211114464
 31
0.0000000000001922
 12
-138.2592785041765
 22
1627.933211114464
 32
0.0000000000001922
 13
-138.2592785041765
 23
1627.933211114464
 33
0.0000000000001922
  0
MTEXT
  5
9FDE
330
F90
100
AcDbEntity
  8
cotas
100
AcDbMText
 10
-148.4641139642171
 20
1647.94442796518
 30
0.0000000000001922
 40
10.0
 41
0.0
 71
     5
 72
     1
  1
40
  7
SANINDUSA
 11
0.0000000000000001
 21
1.0
 31
0.0
 73
     1
 44
1.0
1001
ACAD
1000
MTEXTBEGIN
1070
    73
1070
     1
1070
    44
1040
1.0
1070
    74
1070
     0
1000
MTEXTEND
  0
POINT
  5
9FDF
330
F90
100
AcDbEntity
  8
Defpoints
 62
     0
100
AcDbPoint
 10
-168.2145194742256
 20
1667.955644815896
 30
0.0000000000001922
  0
POINT
  5
9FE0
330
F90
100
AcDbEntity
  8
Defpoints
 62
     0
100
AcDbPoint
 10
-457.8745598030377
 20
1627.933211114464
 30
0.0000000000001922
  0
POINT
  5
9FE1
330
F90
100
AcDbEntity
  8
Defpoints
 62
     0
100
AcDbPoint
 10
-138.2592785041765
 20
1627.933211114464
 30
0.0000000000001922
  0
ENDBLK
  5
F9B
330
F90
100
AcDbEntity
  8
0
100
AcDbBlockEnd
  0
BLOCK
  5
FA6
330
F9C
100
AcDbEntity
  8
0
100
AcDbBlockBegin
  2
*D92
 70
     1
 10
0.0
 20
0.0
 30
0.0
  3
*D92
  1

  0
LINE
  5
9FD0
330
F9C
100
AcDbEntity
  8
cotas
100
AcDbLine
 10
-452.8745598030377
 20
1627.933211114464
 30
0.0000000000001922
 11
-133.2592785041765
 21
1627.933211114464
 31
0.0000000000001922
  0
LINE
  5
9FD1
330
F9C
100
AcDbEntity
  8
cotas
100
AcDbLine
 10
-452.8745598030386
 20
1547.947680457603
 30
0.0000000000001922
 11
-133.2592785041765
 21
1547.947680457603
 31
0.0000000000001922
  0
LINE
  5
9FD2
330
F9C
100
AcDbEntity
  8
cotas
100
AcDbLine
 10
-138.2592785041765
 20
1617.933211114464
 30
0.0000000000001922
 11
-138.2592785041765
 21
1557.947680457603
 31
0.0000000000001922
  0
SOLID
  5
9FD3
330
F9C
100
AcDbEntity
  8
cotas
100
AcDbTrace
 10
-139.9259451708432
 20
1617.933211114464
 30
0.0000000000001922
 11
-136.5926118375099
 21
1617.933211114464
 31
0.0000000000001922
 12
-138.2592785041765
 22
1627.933211114464
 32
0.0000000000001922
 13
-138.2592785041765
 23
1627.933211114464
 33
0.0000000000001922
  0
SOLID
  5
9FD4
330
F9C
100
AcDbEntity
  8
cotas
100
AcDbTrace
 10
-139.9259451708432
 20
1557.947680457603
 30
0.0000000000001922
 11
-136.5926118375099
 21
1557.947680457603
 31
0.0000000000001922
 12
-138.2592785041765
 22
1547.947680457603
 32
0.0000000000001922
 13
-138.2592785041765
 23
1547.947680457603
 33
0.0000000000001922
  0
MTEXT
  5
9FD5
330
F9C
100
AcDbEntity
  8
cotas
100
AcDbMText
 10
-148.4876196727463
 20
1587.940445786034
 30
0.0000000000001922
 40
10.0
 41
0.0
 71
     5
 72
     1
  1
80
  7
SANINDUSA
 11
0.0000000000000001
 21
1.0
 31
0.0
 73
     1
 44
1.0
1001
ACAD
1000
MTEXTBEGIN
1070
    73
1070
     1
1070
    44
1040
1.0
1070
    74
1070
     0
1000
MTEXTEND
  0
POINT
  5
9FD6
330
F9C
100
AcDbEntity
  8
Defpoints
 62
     0
100
AcDbPoint
 10
-457.8745598030377
 20
1627.933211114464
 30
0.0000000000001922
  0
POINT
  5
9FD7
330
F9C
100
AcDbEntity
  8
Defpoints
 62
     0
100
AcDbPoint
 10
-457.8745598030386
 20
1547.947680457603
 30
0.0000000000001922
  0
POINT
  5
9FD8
330
F9C
100
AcDbEntity
  8
Defpoints
 62
     0
100
AcDbPoint
 10
-138.2592785041765
 20
1547.947680457603
 30
0.0000000000001922
  0
ENDBLK
  5
FA7
330
F9C
100
AcDbEntity
  8
0
100
AcDbBlockEnd
  0
BLOCK
  5
FB2
330
FA8
100
AcDbEntity
  8
0
100
AcDbBlockBegin
  2
*D93
 70
     1
 10
0.0
 20
0.0
 30
0.0
  3
*D93
  1

  0
LINE
  5
9FC7
330
FA8
100
AcDbEntity
  8
cotas
100
AcDbLine
 10
-452.8745598030386
 20
1547.947680457603
 30
0.0000000000001922
 11
-133.2592785041765
 21
1547.947680457603
 31
0.0000000000001922
  0
LINE
  5
9FC8
330
FA8
100
AcDbEntity
  8
cotas
100
AcDbLine
 10
-444.7344691346765
 20
1467.944135095051
 30
0.0000000000001922
 11
-133.2592785041766
 21
1467.944135095051
 31
0.0000000000001922
  0
LINE
  5
9FC9
330
FA8
100
AcDbEntity
  8
cotas
100
AcDbLine
 10
-138.2592785041765
 20
1537.947680457603
 30
0.0000000000001922
 11
-138.2592785041765
 21
1477.944135095051
 31
0.0000000000001922
  0
SOLID
  5
9FCA
330
FA8
100
AcDbEntity
  8
cotas
100
AcDbTrace
 10
-139.9259451708432
 20
1537.947680457603
 30
0.0000000000001922
 11
-136.5926118375099
 21
1537.947680457603
 31
0.0000000000001922
 12
-138.2592785041765
 22
1547.947680457603
 32
0.0000000000001922
 13
-138.2592785041765
 23
1547.947680457603
 33
0.0000000000001922
  0
SOLID
  5
9FCB
330
FA8
100
AcDbEntity
  8
cotas
100
AcDbTrace
 10
-139.9259451708432
 20
1477.944135095051
 30
0.0000000000001922
 11
-136.5926118375099
 21
1477.944135095051
 31
0.0000000000001922
 12
-138.2592785041765
 22
1467.944135095051
 32
0.0000000000001922
 13
-138.2592785041765
 23
1467.944135095051
 33
0.0000000000001922
  0
MTEXT
  5
9FCC
330
FA8
100
AcDbEntity
  8
cotas
100
AcDbMText
 10
-148.4876196727463
 20
1507.945907776327
 30
0.0000000000001922
 40
10.0
 41
0.0
 71
     5
 72
     1
  1
80
  7
SANINDUSA
 11
0.0000000000000001
 21
1.0
 31
0.0
 73
     1
 44
1.0
1001
ACAD
1000
MTEXTBEGIN
1070
    73
1070
     1
1070
    44
1040
1.0
1070
    74
1070
     0
1000
MTEXTEND
  0
POINT
  5
9FCD
330
FA8
100
AcDbEntity
  8
Defpoints
 62
     0
100
AcDbPoint
 10
-457.8745598030386
 20
1547.947680457603
 30
0.0000000000001922
  0
POINT
  5
9FCE
330
FA8
100
AcDbEntity
  8
Defpoints
 62
     0
100
AcDbPoint
 10
-449.7344691346766
 20
1467.944135095051
 30
0.0000000000001922
  0
POINT
  5
9FCF
330
FA8
100
AcDbEntity
  8
Defpoints
 62
     0
100
AcDbPoint
 10
-138.2592785041765
 20
1467.944135095051
 30
0.0000000000001922
  0
ENDBLK
  5
FB3
330
FA8
100
AcDbEntity
  8
0
100
AcDbBlockEnd
  0
BLOCK
  5
FBE
330
FB4
100
AcDbEntity
  8
0
100
AcDbBlockBegin
  2
*D94
 70
     1
 10
0.0
 20
0.0
 30
0.0
  3
*D94
  1

  0
LINE
  5
9FBE
330
FB4
100
AcDbEntity
  8
cotas
100
AcDbLine
 10
-452.7863748890827
 20
1467.948381934532
 30
0.0000000000001922
 11
-133.2592785041766
 21
1467.948381934532
 31
0.0000000000001922
  0
LINE
  5
9FBF
330
FB4
100
AcDbEntity
  8
cotas
100
AcDbLine
 10
-444.774374153228
 20
1387.94307365474
 30
0.0000000000001922
 11
-133.2592785041765
 21
1387.94307365474
 31
0.0000000000001922
  0
LINE
  5
9FC0
330
FB4
100
AcDbEntity
  8
cotas
100
AcDbLine
 10
-138.2592785041765
 20
1457.948381934532
 30
0.0000000000001922
 11
-138.2592785041765
 21
1397.94307365474
 31
0.0000000000001922
  0
SOLID
  5
9FC1
330
FB4
100
AcDbEntity
  8
cotas
100
AcDbTrace
 10
-139.9259451708432
 20
1457.948381934532
 30
0.0000000000001922
 11
-136.5926118375099
 21
1457.948381934532
 31
0.0000000000001922
 12
-138.2592785041765
 22
1467.948381934532
 32
0.0000000000001922
 13
-138.2592785041765
 23
1467.948381934532
 33
0.0000000000001922
  0
SOLID
  5
9FC2
330
FB4
100
AcDbEntity
  8
cotas
100
AcDbTrace
 10
-139.9259451708432
 20
1397.94307365474
 30
0.0000000000001922
 11
-136.5926118375099
 21
1397.94307365474
 31
0.0000000000001922
 12
-138.2592785041765
 22
1387.94307365474
 32
0.0000000000001922
 13
-138.2592785041765
 23
1387.94307365474
 33
0.0000000000001922
  0
MTEXT
  5
9FC3
330
FB4
100
AcDbEntity
  8
cotas
100
AcDbMText
 10
-148.4876196727463
 20
1427.945727794636
 30
0.0000000000001922
 40
10.0
 41
0.0
 71
     5
 72
     1
  1
80
  7
SANINDUSA
 11
0.0000000000000001
 21
1.0
 31
0.0
 73
     1
 44
1.0
1001
ACAD
1000
MTEXTBEGIN
1070
    73
1070
     1
1070
    44
1040
1.0
1070
    74
1070
     0
1000
MTEXTEND
  0
POINT
  5
9FC4
330
FB4
100
AcDbEntity
  8
Defpoints
 62
     0
100
AcDbPoint
 10
-457.7863748890827
 20
1467.948381934532
 30
0.0000000000001922
  0
POINT
  5
9FC5
330
FB4
100
AcDbEntity
  8
Defpoints
 62
     0
100
AcDbPoint
 10
-449.7743741532281
 20
1387.94307365474
 30
0.0000000000001922
  0
POINT
  5
9FC6
330
FB4
100
AcDbEntity
  8
Defpoints
 62
     0
100
AcDbPoint
 10
-138.2592785041765
 20
1387.94307365474
 30
0.0000000000001922
  0
ENDBLK
  5
FBF
330
FB4
100
AcDbEntity
  8
0
100
AcDbBlockEnd
  0
BLOCK
  5
FCA
330
FC0
100
AcDbEntity
  8
0
100
AcDbBlockBegin
  2
*D95
 70
     1
 10
0.0
 20
0.0
 30
0.0
  3
*D95
  1

  0
LINE
  5
9FB5
330
FC0
100
AcDbEntity
  8
cotas
100
AcDbLine
 10
-452.8262799076342
 20
1387.947320494222
 30
0.0000000000001922
 11
-133.2599863107566
 21
1387.947320494222
 31
0.0000000000001922
  0
LINE
  5
9FB6
330
FC0
100
AcDbEntity
  8
cotas
100
AcDbLine
 10
-168.3345836931717
 20
1217.955644815897
 30
0.0000000000001922
 11
-133.2599863107566
 21
1217.955644815897
 31
0.0000000000001922
  0
LINE
  5
9FB7
330
FC0
100
AcDbEntity
  8
cotas
100
AcDbLine
 10
-138.2599863107566
 20
1377.947320494222
 30
0.0000000000001922
 11
-138.2599863107566
 21
1227.955644815897
 31
0.0000000000001922
  0
SOLID
  5
9FB8
330
FC0
100
AcDbEntity
  8
cotas
100
AcDbTrace
 10
-139.9266529774232
 20
1377.947320494222
 30
0.0000000000001922
 11
-136.5933196440899
 21
1377.947320494222
 31
0.0000000000001922
 12
-138.2599863107566
 22
1387.947320494222
 32
0.0000000000001922
 13
-138.2599863107566
 23
1387.947320494222
 33
0.0000000000001922
  0
SOLID
  5
9FB9
330
FC0
100
AcDbEntity
  8
cotas
100
AcDbTrace
 10
-139.9266529774233
 20
1227.955644815897
 30
0.0000000000001922
 11
-136.59331964409
 21
1227.955644815897
 31
0.0000000000001922
 12
-138.2599863107566
 22
1217.955644815897
 32
0.0000000000001922
 13
-138.2599863107566
 23
1217.955644815897
 33
0.0000000000001922
  0
MTEXT
  5
9FBA
330
FC0
100
AcDbEntity
  8
cotas
100
AcDbMText
 10
-148.4648217707971
 20
1302.951482655059
 30
0.0000000000001922
 40
10.0
 41
0.0
 71
     5
 72
     1
  1
170
  7
SANINDUSA
 11
0.0000000000000001
 21
1.0
 31
0.0
 73
     1
 44
1.0
1001
ACAD
1000
MTEXTBEGIN
1070
    73
1070
     1
1070
    44
1040
1.0
1070
    74
1070
     0
1000
MTEXTEND
  0
POINT
  5
9FBB
330
FC0
100
AcDbEntity
  8
Defpoints
 62
     0
100
AcDbPoint
 10
-457.8262799076342
 20
1387.947320494222
 30
0.0000000000001922
  0
POINT
  5
9FBC
330
FC0
100
AcDbEntity
  8
Defpoints
 62
     0
100
AcDbPoint
 10
-173.3345836931716
 20
1217.955644815897
 30
0.0000000000001922
  0
POINT
  5
9FBD
330
FC0
100
AcDbEntity
  8
Defpoints
 62
     0
100
AcDbPoint
 10
-138.2599863107566
 20
1217.955644815897
 30
0.0000000000001922
  0
ENDBLK
  5
FCB
330
FC0
100
AcDbEntity
  8
0
100
AcDbBlockEnd
  0
BLOCK
  5
FD6
330
FCC
100
AcDbEntity
  8
0
100
AcDbBlockBegin
  2
*D96
 70
     1
 10
0.0
 20
0.0
 30
0.0
  3
*D96
  1

  0
LINE
  5
9FA3
330
FCC
100
AcDbEntity
  8
cotas
100
AcDbLine
 10
-1769.655713752076
 20
2118.646511498209
 30
0.0
 11
-1769.655713752076
 21
2153.645732343904
 31
0.0
  0
LINE
  5
9FA4
330
FCC
100
AcDbEntity
  8
cotas
100
AcDbLine
 10
-1447.400947147367
 20
2123.645732343904
 30
0.0
 11
-1447.400947147367
 21
2153.645732343904
 31
0.0
  0
LINE
  5
9FA5
330
FCC
100
AcDbEntity
  8
cotas
100
AcDbLine
 10
-1759.655713752076
 20
2148.645732343904
 30
0.0
 11
-1457.400947147367
 21
2148.645732343904
 31
0.0
  0
SOLID
  5
9FA6
330
FCC
100
AcDbEntity
  8
cotas
100
AcDbTrace
 10
-1759.655713752076
 20
2150.312399010571
 30
0.0
 11
-1759.655713752076
 21
2146.979065677237
 31
0.0
 12
-1769.655713752076
 22
2148.645732343904
 32
0.0
 13
-1769.655713752076
 23
2148.645732343904
 33
0.0
  0
SOLID
  5
9FA7
330
FCC
100
AcDbEntity
  8
cotas
100
AcDbTrace
 10
-1457.400947147367
 20
2150.312399010571
 30
0.0
 11
-1457.400947147367
 21
2146.979065677237
 31
0.0
 12
-1447.400947147367
 22
2148.645732343904
 32
0.0
 13
-1447.400947147367
 23
2148.645732343904
 33
0.0
  0
MTEXT
  5
9FA8
330
FCC
100
AcDbEntity
  8
cotas
100
AcDbMText
 10
-1608.528330449721
 20
2159.992273646792
 30
0.0
 40
10.0
 41
0.0
 71
     5
 72
     1
  1
322,3
  7
SANINDUSA
 73
     1
 44
1.0
1001
ACAD
1000
MTEXTBEGIN
1070
    73
1070
     1
1070
    44
1040
1.0
1070
    74
1070
     0
1000
MTEXTEND
  0
POINT
  5
9FA9
330
FCC
100
AcDbEntity
  8
Defpoints
 62
     0
100
AcDbPoint
 10
-1769.655713752076
 20
2113.646511498208
 30
0.0000000000000001
  0
POINT
  5
9FAA
330
FCC
100
AcDbEntity
  8
Defpoints
 62
     0
100
AcDbPoint
 10
-1447.400947147367
 20
2118.645732343904
 30
0.0
  0
POINT
  5
9FAB
330
FCC
100
AcDbEntity
  8
Defpoints
 62
     0
100
AcDbPoint
 10
-1447.400947147367
 20
2148.645732343904
 30
0.0
  0
ENDBLK
  5
FD7
330
FCC
100
AcDbEntity
  8
0
100
AcDbBlockEnd
  0
BLOCK
  5
FDF
330
FD8
100
AcDbEntity
  8
0
100
AcDbBlockBegin
  2
*D97
 70
     1
 10
0.0
 20
0.0
 30
0.0
  3
*D97
  1

  0
LINE
  5
9F9D
330
FD8
100
AcDbEntity
  8
cotas
100
AcDbLine
 10
-1730.37615619811
 20
1254.080517687573
 30
0.0
 11
-1699.438147243727
 21
1286.484963283714
 31
0.0
  0
MTEXT
  5
9F9E
330
FD8
100
AcDbEntity
  8
cotas
100
AcDbMText
 10
-1725.743323954868
 20
1273.715608700954
 30
0.0
 40
10.0
 41
0.0
 71
     5
 72
     1
  1
R20
  7
SANINDUSA
 11
0.6905515714747068
 21
0.7232831583369083
 31
0.0
 73
     1
 44
1.0
1001
ACAD
1000
MTEXTBEGIN
1070
    73
1070
     1
1070
    44
1040
1.0
1070
    74
1070
     0
1000
MTEXTEND
  0
LINE
  5
9F9F
330
FD8
100
AcDbEntity
  8
cotas
100
AcDbLine
 10
-1678.721600099486
 20
1308.183458033821
 30
0.0
 11
-1692.53263152898
 21
1293.717794867083
 31
0.0
  0
SOLID
  5
9FA0
330
FD8
100
AcDbEntity
  8
cotas
100
AcDbTrace
 10
-1700.643619174288
 20
1287.635882569505
 30
0.0
 11
-1698.232675313165
 21
1285.334043997923
 31
0.0
 12
-1692.53263152898
 22
1293.717794867083
 32
0.0
 13
-1692.53263152898
 23
1293.717794867083
 33
0.0
  0
POINT
  5
9FA1
330
FD8
100
AcDbEntity
  8
Defpoints
 62
     0
100
AcDbPoint
 10
-1692.53263152898
 20
1293.717794867083
 30
0.0
  0
POINT
  5
9FA2
330
FD8
100
AcDbEntity
  8
Defpoints
 62
     0
100
AcDbPoint
 10
-1678.721600099486
 20
1308.183458033821
 30
0.0
  0
ENDBLK
  5
FE0
330
FD8
100
AcDbEntity
  8
0
100
AcDbBlockEnd
  0
BLOCK
  5
FE7
330
FE1
100
AcDbEntity
  8
0
100
AcDbBlockBegin
  2
*D98
 70
     1
 10
0.0
 20
0.0
 30
0.0
  3
*D98
  1

  0
LINE
  5
9F98
330
FE1
100
AcDbEntity
  8
cotas
100
AcDbLine
 10
-1624.300195094961
 20
1365.64578747629
 30
0.0
 11
-1656.80291048832
 21
1334.81103460695
 31
0.0
  0
MTEXT
  5
9F99
330
FE1
100
AcDbEntity
  8
cotas
100
AcDbMText
 10
-1643.947615656968
 20
1361.073014482099
 30
0.0
 40
10.0
 41
0.0
 71
     5
 72
     1
  1
R10
  7
SANINDUSA
 11
0.7254765885281046
 21
0.688246844887518
 31
0.0
 73
     1
 44
1.0
1001
ACAD
1000
MTEXTBEGIN
1070
    73
1070
     1
1070
    44
1040
1.0
1070
    74
1070
     0
1000
MTEXTEND
  0
SOLID
  5
9F9A
330
FE1
100
AcDbEntity
  8
cotas
100
AcDbTrace
 10
-1657.949988563132
 20
1336.020162254496
 30
0.0
 11
-1655.655832413508
 21
1333.601906959402
 31
0.0
 12
-1664.057676373601
 22
1327.928566158074
 32
0.0
 13
-1664.057676373601
 23
1327.928566158074
 33
0.0
  0
POINT
  5
9F9B
330
FE1
100
AcDbEntity
  8
Defpoints
 62
     0
100
AcDbPoint
 10
-1664.057676373601
 20
1327.928566158074
 30
0.0
  0
POINT
  5
9F9C
330
FE1
100
AcDbEntity
  8
Defpoints
 62
     0
100
AcDbPoint
 10
-1656.802910488328
 20
1334.811034606942
 30
0.0
  0
ENDBLK
  5
FE8
330
FE1
100
AcDbEntity
  8
0
100
AcDbBlockEnd
  0
BLOCK
  5
FEF
330
FE9
100
AcDbEntity
  8
0
100
AcDbBlockBegin
  2
*D99
 70
     1
 10
0.0
 20
0.0
 30
0.0
  3
*D99
  1

  0
LINE
  5
9F93
330
FE9
100
AcDbEntity
  8
cotas
100
AcDbLine
 10
-1248.929757818497
 20
1363.642609804983
 30
0.0
 11
-1214.014182129342
 21
1335.569293884882
 31
0.0
  0
MTEXT
  5
9F94
330
FE9
100
AcDbEntity
  8
cotas
100
AcDbMText
 10
-1228.974179921451
 20
1360.691966080008
 30
0.0
 40
10.0
 41
0.0
 71
     5
 72
     1
  1
R10
  7
SANINDUSA
 11
0.7793328166864122
 21
-0.6266102144360744
 31
0.0
 73
     1
 44
1.0
1001
ACAD
1000
MTEXTBEGIN
1070
    73
1070
     1
1070
    44
1040
1.0
1070
    74
1070
     0
1000
MTEXTEND
  0
SOLID
  5
9F95
330
FE9
100
AcDbEntity
  8
cotas
100
AcDbTrace
 10
-1212.969831771949
 20
1336.868181912693
 30
0.0
 11
-1215.058532486736
 21
1334.270405857071
 31
0.0
 12
-1206.220853962478
 22
1329.303191740521
 32
0.0
 13
-1206.220853962478
 23
1329.303191740521
 33
0.0
  0
POINT
  5
9F96
330
FE9
100
AcDbEntity
  8
Defpoints
 62
     0
100
AcDbPoint
 10
-1206.220853962478
 20
1329.303191740521
 30
0.0
  0
POINT
  5
9F97
330
FE9
100
AcDbEntity
  8
Defpoints
 62
     0
100
AcDbPoint
 10
-1214.014182129341
 20
1335.569293884881
 30
0.0
  0
ENDBLK
  5
FF0
330
FE9
100
AcDbEntity
  8
0
100
AcDbBlockEnd
  0
BLOCK
  5
FF8
330
FF1
100
AcDbEntity
  8
0
100
AcDbBlockBegin
  2
*D100
 70
     1
 10
0.0
 20
0.0
 30
0.0
  3
*D100
  1

  0
LINE
  5
9F8D
330
FF1
100
AcDbEntity
  8
cotas
100
AcDbLine
 10
-1732.001461068238
 20
2080.239132518608
 30
0.0
 11
-1700.089991250656
 21
2048.79288335378
 31
0.0
  0
MTEXT
  5
9F8E
330
FF1
100
AcDbEntity
  8
cotas
100
AcDbMText
 10
-1712.442037139608
 20
2075.296575561129
 30
0.0
 40
10.0
 41
0.0
 71
     5
 72
     1
  1
R20
  7
SANINDUSA
 11
0.7122796965729125
 21
-0.7018957428635679
 31
0.0
 73
     1
 44
1.0
1001
ACAD
1000
MTEXTBEGIN
1070
    73
1070
     1
1070
    44
1040
1.0
1070
    74
1070
     0
1000
MTEXTEND
  0
LINE
  5
9F8F
330
FF1
100
AcDbEntity
  8
cotas
100
AcDbLine
 10
-1678.721600353467
 20
2027.736011067871
 30
0.0
 11
-1692.967194284927
 21
2041.773925925144
 31
0.0
  0
SOLID
  5
9F90
330
FF1
100
AcDbEntity
  8
cotas
100
AcDbTrace
 10
-1698.92016501255
 20
2049.980016181402
 30
0.0
 11
-1701.259817488762
 21
2047.605750526158
 31
0.0
 12
-1692.967194284927
 22
2041.773925925144
 32
0.0
 13
-1692.967194284927
 23
2041.773925925144
 33
0.0
  0
POINT
  5
9F91
330
FF1
100
AcDbEntity
  8
Defpoints
 62
     0
100
AcDbPoint
 10
-1692.967194284927
 20
2041.773925925144
 30
0.0
  0
POINT
  5
9F92
330
FF1
100
AcDbEntity
  8
Defpoints
 62
     0
100
AcDbPoint
 10
-1678.721600353467
 20
2027.736011067871
 30
0.0
  0
ENDBLK
  5
FF9
330
FF1
100
AcDbEntity
  8
0
100
AcDbBlockEnd
  0
BLOCK
  5
1000
330
FFA
100
AcDbEntity
  8
0
100
AcDbBlockBegin
  2
*D101
 70
     1
 10
0.0
 20
0.0
 30
0.0
  3
*D101
  1

  0
LINE
  5
9F88
330
FFA
100
AcDbEntity
  8
cotas
100
AcDbLine
 10
-1627.633145664613
 20
1967.078963791385
 30
0.0
 11
-1656.802699141581
 21
2001.084046388106
 31
0.0
  0
MTEXT
  5
9F89
330
FFA
100
AcDbEntity
  8
cotas
100
AcDbMText
 10
-1631.216954696708
 20
1986.930606051366
 30
0.0
 40
10.0
 41
0.0
 71
     5
 72
     1
  1
R10
  7
SANINDUSA
 11
0.6510787757037797
 21
-0.7590101631915527
 31
0.0
 73
     1
 44
1.0
1001
ACAD
1000
MTEXTBEGIN
1070
    73
1070
     1
1070
    44
1040
1.0
1070
    74
1070
     0
1000
MTEXTEND
  0
SOLID
  5
9F8A
330
FFA
100
AcDbEntity
  8
cotas
100
AcDbTrace
 10
-1655.537682202929
 20
2002.169177680945
 30
0.0
 11
-1658.067716080234
 21
1999.998915095266
 31
0.0
 12
-1663.313486898619
 22
2008.674148020021
 32
0.0
 13
-1663.313486898619
 23
2008.674148020021
 33
0.0
  0
POINT
  5
9F8B
330
FFA
100
AcDbEntity
  8
Defpoints
 62
     0
100
AcDbPoint
 10
-1663.313486898619
 20
2008.674148020021
 30
0.0
  0
POINT
  5
9F8C
330
FFA
100
AcDbEntity
  8
Defpoints
 62
     0
100
AcDbPoint
 10
-1656.80269914158
 20
2001.084046388104
 30
0.0
  0
ENDBLK
  5
1001
330
FFA
100
AcDbEntity
  8
0
100
AcDbBlockEnd
  0
BLOCK
  5
1009
330
1002
100
AcDbEntity
  8
0
100
AcDbBlockBegin
  2
*D102
 70
     1
 10
0.0
 20
0.0
 30
0.0
  3
*D102
  1

  0
LINE
  5
9F82
330
1002
100
AcDbEntity
  8
cotas
100
AcDbLine
 10
-208.4430257940252
 20
1252.659756170168
 30
0.0000000000001922
 11
-238.4590931887474
 21
1285.920005577085
 31
0.0000000000001922
  0
MTEXT
  5
9F83
330
1002
100
AcDbEntity
  8
cotas
100
AcDbMText
 10
-212.5227816808804
 20
1272.417173147128
 30
0.0000000000001922
 40
10.0
 41
0.0
 71
     5
 72
     1
  1
R20
  7
SANINDUSA
 11
0.6699733825624563
 21
-0.7423851201753849
 31
0.0
 73
     1
 44
1.0
1001
ACAD
1000
MTEXTBEGIN
1070
    73
1070
     1
1070
    44
1040
1.0
1070
    74
1070
     0
1000
MTEXTEND
  0
LINE
  5
9F84
330
1002
100
AcDbEntity
  8
cotas
100
AcDbLine
 10
-258.5582946656161
 20
1308.191559182341
 30
0.0000000000001922
 11
-245.158827014372
 21
1293.343856778839
 31
0.0000000000001922
  0
SOLID
  5
9F85
330
1002
100
AcDbEntity
  8
cotas
100
AcDbTrace
 10
-237.2217846551218
 20
1287.036627881356
 30
0.0000000000001922
 11
-239.696401722373
 21
1284.803383272814
 31
0.0000000000001922
 12
-245.158827014372
 22
1293.343856778839
 32
0.0000000000001922
 13
-245.158827014372
 23
1293.343856778839
 33
0.0000000000001922
  0
POINT
  5
9F86
330
1002
100
AcDbEntity
  8
Defpoints
 62
     0
100
AcDbPoint
 10
-245.158827014372
 20
1293.343856778839
 30
0.0000000000001922
  0
POINT
  5
9F87
330
1002
100
AcDbEntity
  8
Defpoints
 62
     0
100
AcDbPoint
 10
-258.5582946656161
 20
1308.191559182341
 30
0.0000000000001922
  0
ENDBLK
  5
100A
330
1002
100
AcDbEntity
  8
0
100
AcDbBlockEnd
  0
BLOCK
  5
1012
330
100B
100
AcDbEntity
  8
0
100
AcDbBlockBegin
  2
*D103
 70
     1
 10
0.0
 20
0.0
 30
0.0
  3
*D103
  1

  0
LINE
  5
9F7C
330
100B
100
AcDbEntity
  8
cotas
100
AcDbLine
 10
-205.1374411907947
 20
2080.091336531193
 30
0.0000000000001922
 11
-237.1406522330783
 21
2048.738458267182
 31
0.0000000000001922
  0
MTEXT
  5
9F7D
330
100B
100
AcDbEntity
  8
cotas
100
AcDbMText
 10
-224.7112224487551
 20
2075.205948014062
 30
0.0000000000001922
 40
10.0
 41
0.0
 71
     5
 72
     1
  1
R20
  7
SANINDUSA
 11
0.7143274058156251
 21
0.6998116584486996
 31
0.0
 73
     1
 44
1.0
1001
ACAD
1000
MTEXTBEGIN
1070
    73
1070
     1
1070
    44
1040
1.0
1070
    74
1070
     0
1000
MTEXTEND
  0
LINE
  5
9F7E
330
100B
100
AcDbEntity
  8
cotas
100
AcDbLine
 10
-258.5704744075479
 20
2027.74410851372
 30
0.0000000000001922
 11
-244.2839262912345
 21
2041.740341682695
 31
0.0000000000001922
  0
SOLID
  5
9F7F
330
100B
100
AcDbEntity
  8
cotas
100
AcDbTrace
 10
-238.3070049971595
 20
2049.929003943541
 30
0.0000000000001922
 11
-235.9742994689971
 21
2047.547912590822
 31
0.0000000000001922
 12
-244.2839262912345
 22
2041.740341682695
 32
0.0000000000001922
 13
-244.2839262912345
 23
2041.740341682695
 33
0.0000000000001922
  0
POINT
  5
9F80
330
100B
100
AcDbEntity
  8
Defpoints
 62
     0
100
AcDbPoint
 10
-244.2839262912345
 20
2041.740341682695
 30
0.0000000000001922
  0
POINT
  5
9F81
330
100B
100
AcDbEntity
  8
Defpoints
 62
     0
100
AcDbPoint
 10
-258.5704744075479
 20
2027.74410851372
 30
0.0000000000001922
  0
ENDBLK
  5
1013
330
100B
100
AcDbEntity
  8
0
100
AcDbBlockEnd
  0
BLOCK
  5
101D
330
1014
100
AcDbEntity
  8
0
100
AcDbBlockBegin
  2
*D104
 70
     1
 10
0.0
 20
0.0
 30
0.0
  3
*D104
  1

  0
LINE
  5
9F68
330
1014
100
AcDbEntity
  8
cotas
100
AcDbLine
 10
-457.1368271805652
 20
1756.011062023262
 30
-0.0000000000000961
 11
-414.1209789446336
 21
1720.993954129412
 31
-0.0000000000000961
  0
LINE
  5
9F69
330
1014
100
AcDbEntity
  8
cotas
100
AcDbLine
 10
-283.8555695815362
 20
1614.951226121697
 30
-0.0000000000000961
 11
-276.1003210014052
 21
1608.63805580399
 31
-0.0000000000000961
  0
MTEXT
  5
9F6A
330
1014
100
AcDbEntity
  8
cotas
100
AcDbMText
 10
-432.6252141050905
 20
1750.11226210393
 30
-0.0000000000000961
 40
10.0
 41
0.0
 71
     5
 72
     1
  1
\U+2205148
  7
SANINDUSA
 11
0.7755248580130989
 21
-0.6313170317706966
 31
0.0
 73
     1
 44
1.0
1001
ACAD
1000
MTEXTBEGIN
1070
    73
1070
     1
1070
    44
1040
1.0
1070
    74
1070
     0
1000
MTEXTEND
  0
LINE
  5
9F6B
330
1014
100
AcDbEntity
  8
cotas
100
AcDbLine
 10
-291.6108181616671
 20
1621.264396439404
 30
-0.0000000000000961
 11
-406.3657303645027
 21
1714.680783811705
 31
-0.0000000000000961
  0
SOLID
  5
9F6C
330
1014
100
AcDbEntity
  8
cotas
100
AcDbTrace
 10
-282.803374528585
 20
1616.243767551719
 30
-0.0000000000000961
 11
-284.9077646344874
 21
1613.658684691675
 31
-0.0000000000000961
 12
-291.6108181616671
 22
1621.264396439404
 32
-0.0000000000000961
 13
-291.6108181616671
 23
1621.264396439404
 33
-0.0000000000000961
  0
SOLID
  5
9F6D
330
1014
100
AcDbEntity
  8
cotas
100
AcDbTrace
 10
-413.0687838916824
 20
1722.286495559434
 30
-0.0000000000000961
 11
-415.1731739975848
 21
1719.701412699391
 31
-0.0000000000000961
 12
-406.3657303645027
 22
1714.680783811705
 32
-0.0000000000000961
 13
-406.3657303645027
 23
1714.680783811705
 33
-0.0000000000000961
  0
POINT
  5
9F6E
330
1014
100
AcDbEntity
  8
Defpoints
 62
     0
100
AcDbPoint
 10
-406.3657303645027
 20
1714.680783811705
 30
-0.0000000000000961
  0
POINT
  5
9F6F
330
1014
100
AcDbEntity
  8
Defpoints
 62
     0
100
AcDbPoint
 10
-291.6108181616671
 20
1621.264396439404
 30
-0.0000000000000961
  0
ENDBLK
  5
101E
330
1014
100
AcDbEntity
  8
0
100
AcDbBlockEnd
  0
BLOCK
  5
1025
330
101F
100
AcDbEntity
  8
0
100
AcDbBlockBegin
  2
*D105
 70
     1
 10
0.0
 20
0.0
 30
0.0
  3
*D105
  1

  0
LINE
  5
A13C
330
101F
100
AcDbEntity
  8
cotas
100
AcDbLine
 10
205.6098039644685
 20
1684.612868495835
 30
0.0
 11
181.5931560739834
 21
1711.562265706781
 31
0.0
  0
MTEXT
  5
A13D
330
101F
100
AcDbEntity
  8
cotas
100
AcDbMText
 10
204.3936747730057
 20
1701.007932214867
 30
0.0
 40
10.0
 41
0.0
 71
     5
 72
     1
  1
R7
  7
SANINDUSA
 11
0.6653169992359378
 21
-0.7465609757599758
 31
0.0
 73
     1
 44
1.0
1001
ACAD
1000
MTEXTBEGIN
1070
    73
1070
     1
1070
    44
1040
1.0
1070
    74
1070
     0
1000
MTEXTEND
  0
SOLID
  5
A13E
330
101F
100
AcDbEntity
  8
cotas
100
AcDbTrace
 10
182.8374243669168
 20
1712.671127372175
 30
0.0
 11
180.3488877810501
 21
1710.453404041388
 31
0.0
 12
174.939986081624
 22
1719.027875464381
 32
0.0
 13
174.939986081624
 23
1719.027875464381
 33
0.0
  0
POINT
  5
A13F
330
101F
100
AcDbEntity
  8
Defpoints
 62
     0
100
AcDbPoint
 10
174.939986081624
 20
1719.027875464381
 30
0.0
  0
POINT
  5
A140
330
101F
100
AcDbEntity
  8
Defpoints
 62
     0
100
AcDbPoint
 10
179.597205076275
 20
1713.801948634062
 30
0.0
  0
ENDBLK
  5
1026
330
101F
100
AcDbEntity
  8
0
100
AcDbBlockEnd
  0
BLOCK
  5
102D
330
1027
100
AcDbEntity
  8
0
100
AcDbBlockBegin
  2
*D106
 70
     1
 10
0.0
 20
0.0
 30
0.0
  3
*D106
  1

  0
LINE
  5
A137
330
1027
100
AcDbEntity
  8
cotas
100
AcDbLine
 10
1035.808568531502
 20
1688.765889533082
 30
0.0
 11
1063.535169417616
 21
1711.880927695091
 31
0.0
  0
MTEXT
  5
A138
330
1027
100
AcDbEntity
  8
cotas
100
AcDbMText
 10
1039.428009219593
 20
1704.802620299259
 30
0.0
 40
10.0
 41
0.0
 71
     5
 72
     1
  1
R7
  7
SANINDUSA
 11
0.7680913250124972
 21
0.6403403129903243
 31
0.0
 73
     1
 44
1.0
1001
ACAD
1000
MTEXTBEGIN
1070
    73
1070
     1
1070
    44
1040
1.0
1070
    74
1070
     0
1000
MTEXTEND
  0
SOLID
  5
A139
330
1027
100
AcDbEntity
  8
cotas
100
AcDbTrace
 10
1062.467935562632
 20
1713.161079903446
 30
0.0
 11
1064.6024032726
 21
1710.600775486738
 31
0.0
 12
1071.216082667741
 22
1718.284330824995
 32
0.0
 13
1071.216082667741
 23
1718.284330824995
 33
0.0
  0
POINT
  5
A13A
330
1027
100
AcDbEntity
  8
Defpoints
 62
     0
100
AcDbPoint
 10
1071.216082667741
 20
1718.284330824995
 30
0.0
  0
POINT
  5
A13B
330
1027
100
AcDbEntity
  8
Defpoints
 62
     0
100
AcDbPoint
 10
1065.839443392655
 20
1713.801948634063
 30
0.0
  0
ENDBLK
  5
102E
330
1027
100
AcDbEntity
  8
0
100
AcDbBlockEnd
  0
BLOCK
  5
103A
330
102F
100
AcDbEntity
  8
0
100
AcDbBlockBegin
  2
*D107
 70
     1
 10
0.0
 20
0.0
 30
0.0
  3
*D107
  1

  0
LINE
  5
A12D
330
102F
100
AcDbEntity
  8
cotas
100
AcDbLine
 10
1073.503768575885
 20
1675.80271100596
 30
0.0
 11
1074.030495128018
 21
1645.625647640149
 31
0.0
  0
ARC
  5
A12E
330
102F
100
AcDbEntity
  8
cotas
100
AcDbCircle
 10
1072.718327892106
 20
1720.801948634064
 30
0.0
 40
70.18775175507446
100
AcDbArc
 50
188.17013648039
 51
262.8298330588094
  0
SOLID
  5
A12F
330
102F
100
AcDbEntity
  8
cotas
100
AcDbTrace
 10
1001.580518838773
 20
1710.708625647663
 30
0.0
 11
1004.905383445079
 21
1710.946083982628
 31
0.0
 12
1002.530576137032
 22
1720.801948634064
 32
0.0
 13
1002.530576137032
 23
1720.801948634064
 33
0.0
  0
SOLID
  5
A130
330
102F
100
AcDbEntity
  8
cotas
100
AcDbTrace
 10
1064.047427266679
 20
1652.827328481046
 30
0.0
 11
1063.868030216658
 21
1649.498826143724
 31
0.0
 12
1073.943235753633
 22
1650.624886162322
 32
0.0
 13
1073.943235753633
 23
1650.624886162322
 33
0.0
  0
MTEXT
  5
A131
330
102F
100
AcDbEntity
  8
cotas
100
AcDbMText
 10
1031.473613582694
 20
1678.831044748651
 30
0.0
 40
10.0
 41
0.0
 71
     5
 72
     1
  1
91,0°
  7
SANINDUSA
 11
0.7132502628380123
 21
-0.7009094538965118
 31
0.0
 73
     1
 44
1.0
1001
ACAD
1000
MTEXTBEGIN
1070
    73
1070
     1
1070
    44
1040
1.0
1070
    74
1070
     0
1000
MTEXTEND
  0
POINT
  5
A132
330
102F
100
AcDbEntity
  8
Defpoints
 62
     0
100
AcDbPoint
 10
1012.139140960721
 20
1685.35505022018
 30
0.0
  0
POINT
  5
A133
330
102F
100
AcDbEntity
  8
Defpoints
 62
     0
100
AcDbPoint
 10
179.5972050183749
 20
1720.801948634064
 30
0.0
  0
POINT
  5
A134
330
102F
100
AcDbEntity
  8
Defpoints
 62
     0
100
AcDbPoint
 10
1072.838377240691
 20
1713.924116513065
 30
0.0
  0
POINT
  5
A135
330
102F
100
AcDbEntity
  8
Defpoints
 62
     0
100
AcDbPoint
 10
1073.4165092015
 20
1680.801949528133
 30
0.0
  0
POINT
  5
A136
330
102F
100
AcDbEntity
  8
Defpoints
 62
     0
100
AcDbPoint
 10
1065.839447548363
 20
1720.801948634064
 30
0.0
  0
ENDBLK
  5
103B
330
102F
100
AcDbEntity
  8
0
100
AcDbBlockEnd
  0
BLOCK
  5
1056
330
1046
100
AcDbEntity
  8
0
100
AcDbBlockBegin
  2
*D108
 70
     1
 10
0.0
 20
0.0
 30
0.0
  3
*D108
  1

  0
LINE
  5
A114
330
1046
100
AcDbEntity
  8
cotas
100
AcDbLine
 10
240.2127762341236
 20
1667.26063904652
 30
0.0
 11
240.2127762341231
 21
1574.006258911105
 31
0.0
  0
LINE
  5
A115
330
1046
100
AcDbEntity
  8
cotas
100
AcDbLine
 10
241.6932091922275
 20
1638.407945940897
 30
0.0
 11
243.9398964392949
 21
1574.071316112303
 31
0.0
  0
ARC
  5
A116
330
1046
100
AcDbEntity
  8
cotas
100
AcDbCircle
 10
240.2127762341236
 20
1680.801949528133
 30
0.0
 40
101.7956906170288
100
AcDbArc
 50
258.724800562606
 51
269.9999999999998
  0
LINE
  5
A117
330
1046
100
AcDbEntity
  8
cotas
100
AcDbLine
 10
220.3095132742107
 20
1580.970978623577
 30
0.0
 11
183.2089113920459
 21
1588.367711606748
 31
0.0
  0
ARC
  5
A118
330
1046
100
AcDbEntity
  8
cotas
100
AcDbCircle
 10
240.2127762341236
 20
1680.801949528133
 30
0.0
 40
101.7956906170288
100
AcDbArc
 50
258.7384539308304
 51
264.3692269654151
  0
ARC
  5
A119
330
1046
100
AcDbEntity
  8
cotas
100
AcDbCircle
 10
240.2127762341236
 20
1680.801949528133
 30
0.0
 40
101.7956906170288
100
AcDbArc
 50
277.6307753711955
 51
283.2615484057802
  0
ARC
  5
A11A
330
1046
100
AcDbEntity
  8
cotas
100
AcDbCircle
 10
240.2127762341236
 20
1680.801949528133
 30
0.0
 40
101.7956906170288
100
AcDbArc
 50
269.9999999999998
 51
272.0000023366109
  0
SOLID
  5
A11B
330
1046
100
AcDbEntity
  8
cotas
100
AcDbTrace
 10
230.3067097260163
 20
1581.162093810799
 30
0.0
 11
230.1429830833102
 21
1577.832783867646
 31
0.0
 12
240.2127762341231
 22
1579.006258911104
 32
0.0
 13
240.2127762341231
 23
1579.006258911104
 33
0.0
  0
SOLID
  5
A11C
330
1046
100
AcDbEntity
  8
cotas
100
AcDbTrace
 10
253.8700113788057
 20
1578.246941171057
 30
0.0
 11
253.5901930971053
 21
1581.568508999709
 31
0.0
 12
243.7653987519988
 22
1579.068270240282
 32
0.0
 13
243.7653987519988
 23
1579.068270240282
 33
0.0
  0
MTEXT
  5
A11D
330
1046
100
AcDbEntity
  8
cotas
100
AcDbMText
 10
203.9777069851909
 20
1595.79689116166
 30
0.0
 40
10.0
 41
0.0
 71
     5
 72
     1
  1
2,0°
  7
SANINDUSA
 11
0.9806993822571151
 21
-0.195521665399293
 31
0.0
 73
     1
 44
1.0
1001
ACAD
1000
MTEXTBEGIN
1070
    73
1070
     1
1070
    44
1040
1.0
1070
    74
1070
     0
1000
MTEXTEND
  0
POINT
  5
A11E
330
1046
100
AcDbEntity
  8
Defpoints
 62
     0
100
AcDbPoint
 10
242.5814584849995
 20
1579.033821056631
 30
0.0
  0
POINT
  5
A11F
330
1046
100
AcDbEntity
  8
Defpoints
 62
     0
100
AcDbPoint
 10
240.2127762341236
 20
1680.801949528133
 30
0.0
  0
POINT
  5
A120
330
1046
100
AcDbEntity
  8
Defpoints
 62
     0
100
AcDbPoint
 10
240.2127762341236
 20
1680.801949528133
 30
0.0
  0
POINT
  5
A121
330
1046
100
AcDbEntity
  8
Defpoints
 62
     0
100
AcDbPoint
 10
241.5187115049314
 20
1643.404900068876
 30
0.0
  0
POINT
  5
A122
330
1046
100
AcDbEntity
  8
Defpoints
 62
     0
100
AcDbPoint
 10
240.2127762341236
 20
1672.260639046519
 30
0.0
  0
ENDBLK
  5
1057
330
1046
100
AcDbEntity
  8
0
100
AcDbBlockEnd
  0
BLOCK
  5
1062
330
1058
100
AcDbEntity
  8
0
100
AcDbBlockBegin
  2
*D109
 70
     1
 10
0.0
 20
0.0
 30
0.0
  3
*D109
  1

  0
LINE
  5
A10B
330
1058
100
AcDbEntity
  8
cotas
100
AcDbLine
 10
3260.200592062976
 20
1725.801948634061
 30
0.0
 11
3260.200592062976
 21
1755.801948634061
 31
0.0
  0
LINE
  5
A10C
330
1058
100
AcDbEntity
  8
cotas
100
AcDbLine
 10
3190.200591786647
 20
1725.80194863406
 30
0.0
 11
3190.200591786647
 21
1755.801948634061
 31
0.0
  0
LINE
  5
A10D
330
1058
100
AcDbEntity
  8
cotas
100
AcDbLine
 10
3250.200592062976
 20
1750.801948634061
 30
0.0
 11
3200.200591786647
 21
1750.801948634061
 31
0.0
  0
SOLID
  5
A10E
330
1058
100
AcDbEntity
  8
cotas
100
AcDbTrace
 10
3250.200592062976
 20
1752.468615300728
 30
0.0
 11
3250.200592062976
 21
1749.135281967394
 31
0.0
 12
3260.200592062976
 22
1750.801948634061
 32
0.0
 13
3260.200592062976
 23
1750.801948634061
 33
0.0
  0
SOLID
  5
A10F
330
1058
100
AcDbEntity
  8
cotas
100
AcDbTrace
 10
3200.200591786647
 20
1752.468615300728
 30
0.0
 11
3200.200591786647
 21
1749.135281967394
 31
0.0
 12
3190.200591786647
 22
1750.801948634061
 32
0.0
 13
3190.200591786647
 23
1750.801948634061
 33
0.0
  0
MTEXT
  5
A110
330
1058
100
AcDbEntity
  8
cotas
100
AcDbMText
 10
3225.200591924811
 20
1761.006784094101
 30
0.0
 40
10.0
 41
0.0
 71
     5
 72
     1
  1
70
  7
SANINDUSA
 73
     1
 44
1.0
1001
ACAD
1000
MTEXTBEGIN
1070
    73
1070
     1
1070
    44
1040
1.0
1070
    74
1070
     0
1000
MTEXTEND
  0
POINT
  5
A111
330
1058
100
AcDbEntity
  8
Defpoints
 62
     0
100
AcDbPoint
 10
3260.200592062976
 20
1720.801948634061
 30
0.0
  0
POINT
  5
A112
330
1058
100
AcDbEntity
  8
Defpoints
 62
     0
100
AcDbPoint
 10
3190.200591786647
 20
1720.80194863406
 30
0.0
  0
POINT
  5
A113
330
1058
100
AcDbEntity
  8
Defpoints
 62
     0
100
AcDbPoint
 10
3190.200591786647
 20
1750.801948634061
 30
0.0
  0
ENDBLK
  5
1063
330
1058
100
AcDbEntity
  8
0
100
AcDbBlockEnd
  0
BLOCK
  5
106F
330
1064
100
AcDbEntity
  8
0
100
AcDbBlockBegin
  2
*D110
 70
     1
 10
0.0
 20
0.0
 30
0.0
  3
*D110
  1

  0
LINE
  5
A101
330
1064
100
AcDbEntity
  8
cotas
100
AcDbLine
 10
3260.200592062976
 20
1725.801948634061
 30
0.0
 11
3260.200592062976
 21
1755.801948634061
 31
0.0
  0
LINE
  5
A102
330
1064
100
AcDbEntity
  8
cotas
100
AcDbLine
 10
3292.607392888803
 20
1666.227298545997
 30
0.0
 11
3292.607392888803
 21
1755.801948634061
 31
0.0
  0
LINE
  5
A103
330
1064
100
AcDbEntity
  8
cotas
100
AcDbLine
 10
3270.200592062975
 20
1750.801948634061
 30
0.0
 11
3282.607392888803
 21
1750.801948634061
 31
0.0
  0
LINE
  5
A104
330
1064
100
AcDbEntity
  8
cotas
100
AcDbLine
 10
3292.607392888803
 20
1750.801948634061
 30
0.0
 11
3342.056687717547
 21
1750.801948634061
 31
0.0
  0
SOLID
  5
A105
330
1064
100
AcDbEntity
  8
cotas
100
AcDbTrace
 10
3270.200592062975
 20
1752.468615300728
 30
0.0
 11
3270.200592062975
 21
1749.135281967394
 31
0.0
 12
3260.200592062976
 22
1750.801948634061
 32
0.0
 13
3260.200592062976
 23
1750.801948634061
 33
0.0
  0
SOLID
  5
A106
330
1064
100
AcDbEntity
  8
cotas
100
AcDbTrace
 10
3282.607392888803
 20
1752.468615300728
 30
0.0
 11
3282.607392888803
 21
1749.135281967394
 31
0.0
 12
3292.607392888803
 22
1750.801948634061
 32
0.0
 13
3292.607392888803
 23
1750.801948634061
 33
0.0
  0
MTEXT
  5
A107
330
1064
100
AcDbEntity
  8
cotas
100
AcDbMText
 10
3322.332040303175
 20
1762.148489936949
 30
0.0
 40
10.0
 41
0.0
 71
     5
 72
     1
  1
32,4
  7
SANINDUSA
 73
     1
 44
1.0
1001
ACAD
1000
MTEXTBEGIN
1070
    73
1070
     1
1070
    44
1040
1.0
1070
    74
1070
     0
1000
MTEXTEND
  0
POINT
  5
A108
330
1064
100
AcDbEntity
  8
Defpoints
 62
     0
100
AcDbPoint
 10
3260.200592062976
 20
1720.801948634061
 30
0.0
  0
POINT
  5
A109
330
1064
100
AcDbEntity
  8
Defpoints
 62
     0
100
AcDbPoint
 10
3292.607392888803
 20
1661.227298545997
 30
0.0
  0
POINT
  5
A10A
330
1064
100
AcDbEntity
  8
Defpoints
 62
     0
100
AcDbPoint
 10
3292.607392888803
 20
1750.801948634061
 30
0.0
  0
ENDBLK
  5
1070
330
1064
100
AcDbEntity
  8
0
100
AcDbBlockEnd
  0
BLOCK
  5
107B
330
1071
100
AcDbEntity
  8
0
100
AcDbBlockBegin
  2
*D111
 70
     1
 10
0.0
 20
0.0
 30
0.0
  3
*D111
  1

  0
LINE
  5
A0F8
330
1071
100
AcDbEntity
  8
cotas
100
AcDbLine
 10
3292.694654967287
 20
1666.226537020971
 30
0.0
 11
3293.106730381693
 21
1689.834309172286
 31
0.0
  0
LINE
  5
A0F9
330
1071
100
AcDbEntity
  8
cotas
100
AcDbLine
 10
3742.626117714932
 20
1658.372949957446
 30
0.0
 11
3743.038193129339
 21
1681.980722108761
 31
0.0
  0
LINE
  5
A0FA
330
1071
100
AcDbEntity
  8
cotas
100
AcDbLine
 10
3303.017945253156
 20
1684.660546540345
 30
0.0
 11
3732.952454100907
 21
1677.156007790754
 31
0.0
  0
SOLID
  5
A0FB
330
1071
100
AcDbEntity
  8
cotas
100
AcDbTrace
 10
3303.047032612651
 20
1686.326959365336
 30
0.0
 11
3302.988857893662
 21
1682.994133715354
 31
0.0
 12
3293.019468303209
 22
1684.835070697312
 32
0.0
 13
3293.019468303209
 23
1684.835070697312
 33
0.0
  0
SOLID
  5
A0FC
330
1071
100
AcDbEntity
  8
cotas
100
AcDbTrace
 10
3732.981541460401
 20
1678.822420615746
 30
0.0
 11
3732.923366741412
 21
1675.489594965763
 31
0.0
 12
3742.950931050855
 22
1676.981483633787
 32
0.0
 13
3742.950931050855
 23
1676.981483633787
 33
0.0
  0
MTEXT
  5
A0FD
330
1071
100
AcDbEntity
  8
cotas
100
AcDbMText
 10
3518.163298707597
 20
1691.111558378072
 30
0.0
 40
10.0
 41
0.0
 71
     5
 72
     1
  1
450
  7
SANINDUSA
 11
0.999847694994767
 21
-0.0174524156967227
 31
0.0
 73
     1
 44
1.0
1001
ACAD
1000
MTEXTBEGIN
1070
    73
1070
     1
1070
    44
1040
1.0
1070
    74
1070
     0
1000
MTEXTEND
  0
POINT
  5
A0FE
330
1071
100
AcDbEntity
  8
Defpoints
 62
     0
100
AcDbPoint
 10
3292.607392888803
 20
1661.227298545997
 30
0.0
  0
POINT
  5
A0FF
330
1071
100
AcDbEntity
  8
Defpoints
 62
     0
100
AcDbPoint
 10
3742.538855636448
 20
1653.373711482472
 30
0.0
  0
POINT
  5
A100
330
1071
100
AcDbEntity
  8
Defpoints
 62
     0
100
AcDbPoint
 10
3742.950931050855
 20
1676.981483633787
 30
0.0
  0
ENDBLK
  5
107C
330
1071
100
AcDbEntity
  8
0
100
AcDbBlockEnd
  0
BLOCK
  5
1092
330
1086
100
AcDbEntity
  8
0
100
AcDbBlockBegin
  2
*D112
 70
     1
 10
0.0
 20
0.0
 30
0.0
  3
*D112
  1

  0
LINE
  5
A0E4
330
1086
100
AcDbEntity
  8
cotas
100
AcDbLine
 10
3747.538855636448
 20
1653.373711482472
 30
0.0
 11
3797.024621310904
 21
1653.373711482472
 31
0.0
  0
LINE
  5
A0E5
330
1086
100
AcDbEntity
  8
cotas
100
AcDbLine
 10
3747.538855636448
 20
1631.354895798358
 30
0.0
 11
3797.024621310904
 21
1631.354895798358
 31
0.0
  0
LINE
  5
A0E6
330
1086
100
AcDbEntity
  8
cotas
100
AcDbLine
 10
3792.024621310904
 20
1663.373711482472
 30
0.0
 11
3792.024621310904
 21
1673.373711482472
 31
0.0
  0
LINE
  5
A0E7
330
1086
100
AcDbEntity
  8
cotas
100
AcDbLine
 10
3792.024621310904
 20
1621.354895798358
 30
0.0
 11
3792.024621310904
 21
1585.841128169076
 31
0.0
  0
LINE
  5
A0E8
330
1086
100
AcDbEntity
  8
cotas
100
AcDbLine
 10
3792.024621310904
 20
1653.373711482472
 30
0.0
 11
3792.024621310904
 21
1631.354895798358
 31
0.0
  0
SOLID
  5
A0E9
330
1086
100
AcDbEntity
  8
cotas
100
AcDbTrace
 10
3790.357954644238
 20
1663.373711482472
 30
0.0
 11
3793.691287977571
 21
1663.373711482472
 31
0.0
 12
3792.024621310904
 22
1653.373711482472
 32
0.0
 13
3792.024621310904
 23
1653.373711482472
 33
0.0
  0
SOLID
  5
A0EA
330
1086
100
AcDbEntity
  8
cotas
100
AcDbTrace
 10
3790.357954644238
 20
1621.354895798358
 30
0.0
 11
3793.691287977571
 21
1621.354895798358
 31
0.0
 12
3792.024621310904
 22
1631.354895798358
 32
0.0
 13
3792.024621310904
 23
1631.354895798358
 33
0.0
  0
MTEXT
  5
A0EB
330
1086
100
AcDbEntity
  8
cotas
100
AcDbMText
 10
3781.920524601703
 20
1598.598011983718
 30
0.0
 40
10.0
 41
0.0
 71
     5
 72
     1
  1
22
  7
SANINDUSA
 11
0.0000000000000001
 21
1.0
 31
0.0
 73
     1
 44
1.0
1001
ACAD
1000
MTEXTBEGIN
1070
    73
1070
     1
1070
    44
1040
1.0
1070
    74
1070
     0
1000
MTEXTEND
  0
POINT
  5
A0EC
330
1086
100
AcDbEntity
  8
Defpoints
 62
     0
100
AcDbPoint
 10
3742.538855636448
 20
1653.373711482472
 30
0.0
  0
POINT
  5
A0ED
330
1086
100
AcDbEntity
  8
Defpoints
 62
     0
100
AcDbPoint
 10
3742.538855636448
 20
1631.354895798358
 30
0.0
  0
POINT
  5
A0EE
330
1086
100
AcDbEntity
  8
Defpoints
 62
     0
100
AcDbPoint
 10
3792.024621310904
 20
1631.354895798358
 30
0.0
  0
ENDBLK
  5
1093
330
1086
100
AcDbEntity
  8
0
100
AcDbBlockEnd
  0
BLOCK
  5
10A0
330
1094
100
AcDbEntity
  8
0
100
AcDbBlockBegin
  2
*D113
 70
     1
 10
0.0
 20
0.0
 30
0.0
  3
*D113
  1

  0
LINE
  5
A0D9
330
1094
100
AcDbEntity
  8
cotas
100
AcDbLine
 10
3287.607392888803
 20
1661.227298545997
 30
0.0
 11
3154.502389206138
 21
1661.227298545997
 31
0.0
  0
LINE
  5
A0DA
330
1094
100
AcDbEntity
  8
cotas
100
AcDbLine
 10
3287.607392888803
 20
1651.225775188341
 30
0.0
 11
3154.502389206138
 21
1651.225775188341
 31
0.0
  0
LINE
  5
A0DB
330
1094
100
AcDbEntity
  8
cotas
100
AcDbLine
 10
3159.502389206138
 20
1671.227298545997
 30
0.0
 11
3159.502389206138
 21
1681.227298545997
 31
0.0
  0
LINE
  5
A0DC
330
1094
100
AcDbEntity
  8
cotas
100
AcDbLine
 10
3159.502389206138
 20
1641.225775188341
 30
0.0
 11
3159.502389206138
 21
1606.511201649053
 31
0.0
  0
LINE
  5
A0DD
330
1094
100
AcDbEntity
  8
cotas
100
AcDbLine
 10
3159.502389206138
 20
1661.227298545997
 30
0.0
 11
3159.502389206138
 21
1651.225775188341
 31
0.0
  0
SOLID
  5
A0DE
330
1094
100
AcDbEntity
  8
cotas
100
AcDbTrace
 10
3157.835722539472
 20
1671.227298545997
 30
0.0
 11
3161.169055872805
 21
1671.227298545997
 31
0.0
 12
3159.502389206138
 22
1661.227298545997
 32
0.0
 13
3159.502389206138
 23
1661.227298545997
 33
0.0
  0
SOLID
  5
A0DF
330
1094
100
AcDbEntity
  8
cotas
100
AcDbTrace
 10
3157.835722539472
 20
1641.225775188341
 30
0.0
 11
3161.169055872805
 21
1641.225775188341
 31
0.0
 12
3159.502389206138
 22
1651.225775188341
 32
0.0
 13
3159.502389206138
 23
1651.225775188341
 33
0.0
  0
MTEXT
  5
A0E0
330
1094
100
AcDbEntity
  8
cotas
100
AcDbMText
 10
3149.297553746098
 20
1618.868488418697
 30
0.0
 40
10.0
 41
0.0
 71
     5
 72
     1
  1
10
  7
SANINDUSA
 11
0.0000000000000001
 21
1.0
 31
0.0
 73
     1
 44
1.0
1001
ACAD
1000
MTEXTBEGIN
1070
    73
1070
     1
1070
    44
1040
1.0
1070
    74
1070
     0
1000
MTEXTEND
  0
POINT
  5
A0E1
330
1094
100
AcDbEntity
  8
Defpoints
 62
     0
100
AcDbPoint
 10
3292.607392888803
 20
1661.227298545997
 30
0.0
  0
POINT
  5
A0E2
330
1094
100
AcDbEntity
  8
Defpoints
 62
     0
100
AcDbPoint
 10
3292.607392888803
 20
1651.225775188341
 30
0.0
  0
POINT
  5
A0E3
330
1094
100
AcDbEntity
  8
Defpoints
 62
     0
100
AcDbPoint
 10
3159.502389206138
 20
1651.225775188341
 30
0.0
  0
ENDBLK
  5
10A1
330
1094
100
AcDbEntity
  8
0
100
AcDbBlockEnd
  0
BLOCK
  5
10E3
330
10D9
100
AcDbEntity
  8
0
100
AcDbBlockBegin
  2
*D114
 70
     1
 10
0.0
 20
0.0
 30
0.0
  3
*D114
  1

  0
LINE
  5
A099
330
10D9
100
AcDbEntity
  8
cotas
100
AcDbLine
 10
4790.200580592164
 20
1725.80194863406
 30
0.0
 11
4790.200580592164
 21
1755.80194863406
 31
0.0
  0
LINE
  5
A09A
330
10D9
100
AcDbEntity
  8
cotas
100
AcDbLine
 10
4720.200602770036
 20
1725.80194863406
 30
0.0
 11
4720.200602770036
 21
1755.80194863406
 31
0.0
  0
LINE
  5
A09B
330
10D9
100
AcDbEntity
  8
cotas
100
AcDbLine
 10
4780.200580592164
 20
1750.80194863406
 30
0.0
 11
4730.200602770036
 21
1750.80194863406
 31
0.0
  0
SOLID
  5
A09C
330
10D9
100
AcDbEntity
  8
cotas
100
AcDbTrace
 10
4780.200580592164
 20
1752.468615300727
 30
0.0
 11
4780.200580592164
 21
1749.135281967394
 31
0.0
 12
4790.200580592164
 22
1750.80194863406
 32
0.0
 13
4790.200580592164
 23
1750.80194863406
 33
0.0
  0
SOLID
  5
A09D
330
10D9
100
AcDbEntity
  8
cotas
100
AcDbTrace
 10
4730.200602770036
 20
1752.468615300727
 30
0.0
 11
4730.200602770036
 21
1749.135281967394
 31
0.0
 12
4720.200602770036
 22
1750.80194863406
 32
0.0
 13
4720.200602770036
 23
1750.80194863406
 33
0.0
  0
MTEXT
  5
A09E
330
10D9
100
AcDbEntity
  8
cotas
100
AcDbMText
 10
4755.200591681099
 20
1761.006784094101
 30
0.0
 40
10.0
 41
0.0
 71
     5
 72
     1
  1
70
  7
SANINDUSA
 73
     1
 44
1.0
1001
ACAD
1000
MTEXTBEGIN
1070
    73
1070
     1
1070
    44
1040
1.0
1070
    74
1070
     0
1000
MTEXTEND
  0
POINT
  5
A09F
330
10D9
100
AcDbEntity
  8
Defpoints
 62
     0
100
AcDbPoint
 10
4790.200580592164
 20
1720.80194863406
 30
0.0
  0
POINT
  5
A0A0
330
10D9
100
AcDbEntity
  8
Defpoints
 62
     0
100
AcDbPoint
 10
4720.200602770036
 20
1720.80194863406
 30
0.0
  0
POINT
  5
A0A1
330
10D9
100
AcDbEntity
  8
Defpoints
 62
     0
100
AcDbPoint
 10
4720.200602770036
 20
1750.80194863406
 30
0.0
  0
ENDBLK
  5
10E4
330
10D9
100
AcDbEntity
  8
0
100
AcDbBlockEnd
  0
BLOCK
  5
10EF
330
10E5
100
AcDbEntity
  8
0
100
AcDbBlockBegin
  2
*D115
 70
     1
 10
0.0
 20
0.0
 30
0.0
  3
*D115
  1

  0
LINE
  5
A090
330
10E5
100
AcDbEntity
  8
cotas
100
AcDbLine
 10
4790.200580592164
 20
1725.80194863406
 30
0.0
 11
4790.200580592164
 21
1785.796948589819
 31
0.0
  0
LINE
  5
A091
330
10E5
100
AcDbEntity
  8
cotas
100
AcDbLine
 10
4610.200602515617
 20
1649.69662778145
 30
0.0
 11
4610.200602515617
 21
1785.796948589819
 31
0.0
  0
LINE
  5
A092
330
10E5
100
AcDbEntity
  8
cotas
100
AcDbLine
 10
4780.200580592164
 20
1780.796948589818
 30
0.0
 11
4620.200602515618
 21
1780.796948589818
 31
0.0
  0
SOLID
  5
A093
330
10E5
100
AcDbEntity
  8
cotas
100
AcDbTrace
 10
4780.200580592164
 20
1782.463615256485
 30
0.0
 11
4780.200580592164
 21
1779.130281923152
 31
0.0
 12
4790.200580592164
 22
1780.796948589818
 32
0.0
 13
4790.200580592164
 23
1780.796948589818
 33
0.0
  0
SOLID
  5
A094
330
10E5
100
AcDbEntity
  8
cotas
100
AcDbTrace
 10
4620.200602515618
 20
1782.463615256485
 30
0.0
 11
4620.200602515618
 21
1779.130281923152
 31
0.0
 12
4610.200602515617
 22
1780.796948589818
 32
0.0
 13
4610.200602515617
 23
1780.796948589818
 33
0.0
  0
MTEXT
  5
A095
330
10E5
100
AcDbEntity
  8
cotas
100
AcDbMText
 10
4700.20059155389
 20
1791.025289758388
 30
0.0
 40
10.0
 41
0.0
 71
     5
 72
     1
  1
180
  7
SANINDUSA
 73
     1
 44
1.0
1001
ACAD
1000
MTEXTBEGIN
1070
    73
1070
     1
1070
    44
1040
1.0
1070
    74
1070
     0
1000
MTEXTEND
  0
POINT
  5
A096
330
10E5
100
AcDbEntity
  8
Defpoints
 62
     0
100
AcDbPoint
 10
4790.200580592164
 20
1720.80194863406
 30
0.0
  0
POINT
  5
A097
330
10E5
100
AcDbEntity
  8
Defpoints
 62
     0
100
AcDbPoint
 10
4610.200602515617
 20
1644.69662778145
 30
0.0
  0
POINT
  5
A098
330
10E5
100
AcDbEntity
  8
Defpoints
 62
     0
100
AcDbPoint
 10
4610.200602515617
 20
1780.796948589818
 30
0.0
  0
ENDBLK
  5
10F0
330
10E5
100
AcDbEntity
  8
0
100
AcDbBlockEnd
  0
BLOCK
  5
110D
330
1103
100
AcDbEntity
  8
0
100
AcDbBlockBegin
  2
*D116
 70
     1
 10
0.0
 20
0.0
 30
0.0
  3
*D116
  1

  0
LINE
  5
A075
330
1103
100
AcDbEntity
  8
cotas
100
AcDbLine
 10
1258.853303914411
 20
1725.801948634064
 30
0.0
 11
1258.853303914411
 21
1755.801948634063
 31
0.0
  0
LINE
  5
A076
330
1103
100
AcDbEntity
  8
cotas
100
AcDbLine
 10
2858.853336247921
 20
1725.80194863406
 30
0.0
 11
2858.853336247921
 21
1755.801948634063
 31
0.0
  0
LINE
  5
A077
330
1103
100
AcDbEntity
  8
cotas
100
AcDbLine
 10
1268.853303914411
 20
1750.801948634063
 30
0.0
 11
2848.853336247922
 21
1750.801948634063
 31
0.0
  0
SOLID
  5
A078
330
1103
100
AcDbEntity
  8
cotas
100
AcDbTrace
 10
1268.853303914411
 20
1752.46861530073
 30
0.0
 11
1268.853303914411
 21
1749.135281967396
 31
0.0
 12
1258.853303914411
 22
1750.801948634063
 32
0.0
 13
1258.853303914411
 23
1750.801948634063
 33
0.0
  0
SOLID
  5
A079
330
1103
100
AcDbEntity
  8
cotas
100
AcDbTrace
 10
2848.853336247922
 20
1752.46861530073
 30
0.0
 11
2848.853336247922
 21
1749.135281967396
 31
0.0
 12
2858.853336247921
 22
1750.801948634063
 32
0.0
 13
2858.853336247921
 23
1750.801948634063
 33
0.0
  0
MTEXT
  5
A07A
330
1103
100
AcDbEntity
  8
cotas
100
AcDbMText
 10
2058.853320081166
 20
1761.006784094103
 30
0.0
 40
10.0
 41
0.0
 71
     5
 72
     1
  1
1600
  7
SANINDUSA
 73
     1
 44
1.0
1001
ACAD
1000
MTEXTBEGIN
1070
    73
1070
     1
1070
    44
1040
1.0
1070
    74
1070
     0
1000
MTEXTEND
  0
POINT
  5
A07B
330
1103
100
AcDbEntity
  8
Defpoints
 62
     0
100
AcDbPoint
 10
1258.853303914411
 20
1720.801948634064
 30
0.0
  0
POINT
  5
A07C
330
1103
100
AcDbEntity
  8
Defpoints
 62
     0
100
AcDbPoint
 10
2858.853336247921
 20
1720.80194863406
 30
0.0
  0
POINT
  5
A07D
330
1103
100
AcDbEntity
  8
Defpoints
 62
     0
100
AcDbPoint
 10
2858.853336247921
 20
1750.801948634063
 30
0.0
  0
ENDBLK
  5
110E
330
1103
100
AcDbEntity
  8
0
100
AcDbBlockEnd
  0
BLOCK
  5
1152
330
1148
100
AcDbEntity
  8
0
100
AcDbBlockBegin
  2
*D117
 70
     1
 10
0.0
 20
0.0
 30
0.0
  3
*D117
  1

  0
LINE
  5
A033
330
1148
100
AcDbEntity
  8
cotas
100
AcDbLine
 10
-609.4266785156
 20
1988.39644893378
 30
0.0
 11
-609.4266785156
 21
2153.645534223938
 31
0.0
  0
LINE
  5
A034
330
1148
100
AcDbEntity
  8
cotas
100
AcDbLine
 10
-689.402954650643
 20
1988.397507532862
 30
0.0
 11
-689.402954650643
 21
2153.645534223938
 31
0.0
  0
LINE
  5
A035
330
1148
100
AcDbEntity
  8
cotas
100
AcDbLine
 10
-619.4266785156001
 20
2148.645534223939
 30
0.0
 11
-679.4029546506431
 21
2148.645534223939
 31
0.0
  0
SOLID
  5
A036
330
1148
100
AcDbEntity
  8
cotas
100
AcDbTrace
 10
-619.4266785156001
 20
2150.312200890605
 30
0.0
 11
-619.4266785156001
 21
2146.978867557272
 31
0.0
 12
-609.4266785156
 22
2148.645534223939
 32
0.0
 13
-609.4266785156
 23
2148.645534223939
 33
0.0
  0
SOLID
  5
A037
330
1148
100
AcDbEntity
  8
cotas
100
AcDbTrace
 10
-679.4029546506431
 20
2150.312200890605
 30
0.0
 11
-679.4029546506431
 21
2146.978867557272
 31
0.0
 12
-689.402954650643
 22
2148.645534223939
 32
0.0
 13
-689.402954650643
 23
2148.645534223939
 33
0.0
  0
MTEXT
  5
A038
330
1148
100
AcDbEntity
  8
cotas
100
AcDbMText
 10
-649.4148165831216
 20
2158.873875392508
 30
0.0
 40
10.0
 41
0.0
 71
     5
 72
     1
  1
80
  7
SANINDUSA
 73
     1
 44
1.0
1001
ACAD
1000
MTEXTBEGIN
1070
    73
1070
     1
1070
    44
1040
1.0
1070
    74
1070
     0
1000
MTEXTEND
  0
POINT
  5
A039
330
1148
100
AcDbEntity
  8
Defpoints
 62
     0
100
AcDbPoint
 10
-609.4266785156
 20
1983.39644893378
 30
0.0
  0
POINT
  5
A03A
330
1148
100
AcDbEntity
  8
Defpoints
 62
     0
100
AcDbPoint
 10
-689.402954650643
 20
1983.397507532863
 30
0.0
  0
POINT
  5
A03B
330
1148
100
AcDbEntity
  8
Defpoints
 62
     0
100
AcDbPoint
 10
-689.402954650643
 20
2148.645534223939
 30
0.0
  0
ENDBLK
  5
1153
330
1148
100
AcDbEntity
  8
0
100
AcDbBlockEnd
  0
BLOCK
  5
115E
330
1154
100
AcDbEntity
  8
0
100
AcDbBlockBegin
  2
*D118
 70
     1
 10
0.0
 20
0.0
 30
0.0
  3
*D118
  1

  0
LINE
  5
A02A
330
1154
100
AcDbEntity
  8
cotas
100
AcDbLine
 10
-689.402954650643
 20
1988.397507532862
 30
0.0
 11
-689.402954650643
 21
2153.645534223938
 31
0.0
  0
LINE
  5
A02B
330
1154
100
AcDbEntity
  8
cotas
100
AcDbLine
 10
-769.3699439438865
 20
1988.385885279676
 30
0.0
 11
-769.3699439438865
 21
2153.645534223938
 31
0.0
  0
LINE
  5
A02C
330
1154
100
AcDbEntity
  8
cotas
100
AcDbLine
 10
-699.4029546506431
 20
2148.645534223939
 30
0.0
 11
-759.3699439438864
 21
2148.645534223939
 31
0.0
  0
SOLID
  5
A02D
330
1154
100
AcDbEntity
  8
cotas
100
AcDbTrace
 10
-699.4029546506431
 20
2150.312200890605
 30
0.0
 11
-699.4029546506431
 21
2146.978867557272
 31
0.0
 12
-689.402954650643
 22
2148.645534223939
 32
0.0
 13
-689.402954650643
 23
2148.645534223939
 33
0.0
  0
SOLID
  5
A02E
330
1154
100
AcDbEntity
  8
cotas
100
AcDbTrace
 10
-759.3699439438864
 20
2150.312200890605
 30
0.0
 11
-759.3699439438864
 21
2146.978867557272
 31
0.0
 12
-769.3699439438865
 22
2148.645534223939
 32
0.0
 13
-769.3699439438865
 23
2148.645534223939
 33
0.0
  0
MTEXT
  5
A02F
330
1154
100
AcDbEntity
  8
cotas
100
AcDbMText
 10
-729.3864492972647
 20
2158.873875392508
 30
0.0
 40
10.0
 41
0.0
 71
     5
 72
     1
  1
80
  7
SANINDUSA
 73
     1
 44
1.0
1001
ACAD
1000
MTEXTBEGIN
1070
    73
1070
     1
1070
    44
1040
1.0
1070
    74
1070
     0
1000
MTEXTEND
  0
POINT
  5
A030
330
1154
100
AcDbEntity
  8
Defpoints
 62
     0
100
AcDbPoint
 10
-689.402954650643
 20
1983.397507532863
 30
0.0
  0
POINT
  5
A031
330
1154
100
AcDbEntity
  8
Defpoints
 62
     0
100
AcDbPoint
 10
-769.3699439438865
 20
1983.385885279676
 30
0.0
  0
POINT
  5
A032
330
1154
100
AcDbEntity
  8
Defpoints
 62
     0
100
AcDbPoint
 10
-769.3699439438865
 20
2148.645534223939
 30
0.0
  0
ENDBLK
  5
115F
330
1154
100
AcDbEntity
  8
0
100
AcDbBlockEnd
  0
BLOCK
  5
116A
330
1160
100
AcDbEntity
  8
0
100
AcDbBlockBegin
  2
*D119
 70
     1
 10
0.0
 20
0.0
 30
0.0
  3
*D119
  1

  0
LINE
  5
A021
330
1160
100
AcDbEntity
  8
cotas
100
AcDbLine
 10
-769.3699439438865
 20
1988.385885279676
 30
0.0
 11
-769.3699439438865
 21
2153.645534223938
 31
0.0
  0
LINE
  5
A022
330
1160
100
AcDbEntity
  8
cotas
100
AcDbLine
 10
-849.2845271625052
 20
1988.378950950052
 30
0.0
 11
-849.2845271625052
 21
2153.645534223938
 31
0.0
  0
LINE
  5
A023
330
1160
100
AcDbEntity
  8
cotas
100
AcDbLine
 10
-779.3699439438865
 20
2148.645534223939
 30
0.0
 11
-839.284527162505
 21
2148.645534223939
 31
0.0
  0
SOLID
  5
A024
330
1160
100
AcDbEntity
  8
cotas
100
AcDbTrace
 10
-779.3699439438865
 20
2150.312200890605
 30
0.0
 11
-779.3699439438865
 21
2146.978867557272
 31
0.0
 12
-769.3699439438865
 22
2148.645534223939
 32
0.0
 13
-769.3699439438865
 23
2148.645534223939
 33
0.0
  0
SOLID
  5
A025
330
1160
100
AcDbEntity
  8
cotas
100
AcDbTrace
 10
-839.284527162505
 20
2150.312200890605
 30
0.0
 11
-839.284527162505
 21
2146.978867557272
 31
0.0
 12
-849.2845271625052
 22
2148.645534223939
 32
0.0
 13
-849.2845271625052
 23
2148.645534223939
 33
0.0
  0
MTEXT
  5
A026
330
1160
100
AcDbEntity
  8
cotas
100
AcDbMText
 10
-809.3272355531958
 20
2158.873875392508
 30
0.0
 40
10.0
 41
0.0
 71
     5
 72
     1
  1
80
  7
SANINDUSA
 73
     1
 44
1.0
1001
ACAD
1000
MTEXTBEGIN
1070
    73
1070
     1
1070
    44
1040
1.0
1070
    74
1070
     0
1000
MTEXTEND
  0
POINT
  5
A027
330
1160
100
AcDbEntity
  8
Defpoints
 62
     0
100
AcDbPoint
 10
-769.3699439438865
 20
1983.385885279676
 30
0.0
  0
POINT
  5
A028
330
1160
100
AcDbEntity
  8
Defpoints
 62
     0
100
AcDbPoint
 10
-849.2845271625052
 20
1983.378950950052
 30
0.0
  0
POINT
  5
A029
330
1160
100
AcDbEntity
  8
Defpoints
 62
     0
100
AcDbPoint
 10
-849.2845271625052
 20
2148.645534223939
 30
0.0
  0
ENDBLK
  5
116B
330
1160
100
AcDbEntity
  8
0
100
AcDbBlockEnd
  0
BLOCK
  5
1188
330
117E
100
AcDbEntity
  8
0
100
AcDbBlockBegin
  2
*D120
 70
     1
 10
0.0
 20
0.0
 30
0.0
  3
*D120
  1

  0
LINE
  5
A006
330
117E
100
AcDbEntity
  8
cotas
100
AcDbLine
 10
-1009.261395459624
 20
2123.645534223937
 30
0.0
 11
-1009.261395459624
 21
2153.645534223938
 31
0.0
  0
LINE
  5
A007
330
117E
100
AcDbEntity
  8
cotas
100
AcDbLine
 10
-1089.251354858301
 20
1988.379081953091
 30
0.0
 11
-1089.251354858301
 21
2153.645534223938
 31
0.0
  0
LINE
  5
A008
330
117E
100
AcDbEntity
  8
cotas
100
AcDbLine
 10
-1019.261395459624
 20
2148.645534223938
 30
0.0
 11
-1079.251354858301
 21
2148.645534223938
 31
0.0
  0
SOLID
  5
A009
330
117E
100
AcDbEntity
  8
cotas
100
AcDbTrace
 10
-1019.261395459624
 20
2150.312200890604
 30
0.0
 11
-1019.261395459624
 21
2146.978867557271
 31
0.0
 12
-1009.261395459624
 22
2148.645534223938
 32
0.0
 13
-1009.261395459624
 23
2148.645534223938
 33
0.0
  0
SOLID
  5
A00A
330
117E
100
AcDbEntity
  8
cotas
100
AcDbTrace
 10
-1079.251354858301
 20
2150.312200890604
 30
0.0
 11
-1079.251354858301
 21
2146.978867557271
 31
0.0
 12
-1089.251354858301
 22
2148.645534223938
 32
0.0
 13
-1089.251354858301
 23
2148.645534223938
 33
0.0
  0
MTEXT
  5
A00B
330
117E
100
AcDbEntity
  8
cotas
100
AcDbMText
 10
-1049.256375158962
 20
2158.873875392507
 30
0.0
 40
10.0
 41
0.0
 71
     5
 72
     1
  1
80
  7
SANINDUSA
 73
     1
 44
1.0
1001
ACAD
1000
MTEXTBEGIN
1070
    73
1070
     1
1070
    44
1040
1.0
1070
    74
1070
     0
1000
MTEXTEND
  0
POINT
  5
A00C
330
117E
100
AcDbEntity
  8
Defpoints
 62
     0
100
AcDbPoint
 10
-1009.261395459624
 20
2118.645534223937
 30
0.0
  0
POINT
  5
A00D
330
117E
100
AcDbEntity
  8
Defpoints
 62
     0
100
AcDbPoint
 10
-1089.251354858301
 20
1983.37908195309
 30
0.0
  0
POINT
  5
A00E
330
117E
100
AcDbEntity
  8
Defpoints
 62
     0
100
AcDbPoint
 10
-1089.251354858301
 20
2148.645534223938
 30
0.0
  0
ENDBLK
  5
1189
330
117E
100
AcDbEntity
  8
0
100
AcDbBlockEnd
  0
BLOCK
  5
11E5
330
11DB
100
AcDbEntity
  8
0
100
AcDbBlockBegin
  2
*D121
 70
     1
 10
0.0
 20
0.0
 30
0.0
  3
*D121
  1

  0
LINE
  5
9FAC
330
11DB
100
AcDbEntity
  8
cotas
100
AcDbLine
 10
-452.8307872957971
 20
1947.955821656243
 30
0.0000000000001922
 11
-133.279499377692
 21
1947.955821656243
 31
0.0000000000001922
  0
LINE
  5
9FAD
330
11DB
100
AcDbEntity
  8
cotas
100
AcDbLine
 10
-168.9777670649596
 20
2117.968388024062
 30
0.0000000000001922
 11
-133.279499377692
 21
2117.968388024062
 31
0.0000000000001922
  0
LINE
  5
9FAE
330
11DB
100
AcDbEntity
  8
cotas
100
AcDbLine
 10
-138.279499377692
 20
1957.955821656243
 30
0.0000000000001922
 11
-138.279499377692
 21
2107.968388024062
 31
0.0000000000001922
  0
SOLID
  5
9FAF
330
11DB
100
AcDbEntity
  8
cotas
100
AcDbTrace
 10
-139.9461660443587
 20
1957.955821656243
 30
0.0000000000001922
 11
-136.6128327110254
 21
1957.955821656243
 31
0.0000000000001922
 12
-138.279499377692
 22
1947.955821656243
 32
0.0000000000001922
 13
-138.279499377692
 23
1947.955821656243
 33
0.0000000000001922
  0
SOLID
  5
9FB0
330
11DB
100
AcDbEntity
  8
cotas
100
AcDbTrace
 10
-139.9461660443586
 20
2107.968388024062
 30
0.0000000000001922
 11
-136.6128327110253
 21
2107.968388024062
 31
0.0000000000001922
 12
-138.279499377692
 22
2117.968388024062
 32
0.0000000000001922
 13
-138.279499377692
 23
2117.968388024062
 33
0.0000000000001922
  0
MTEXT
  5
9FB1
330
11DB
100
AcDbEntity
  8
cotas
100
AcDbMText
 10
-148.4843348377326
 20
2032.962104840152
 30
0.0000000000001922
 40
10.0
 41
0.0
 71
     5
 72
     1
  1
170
  7
SANINDUSA
 11
0.0000000000000001
 21
1.0
 31
0.0
 73
     1
 44
1.0
1001
ACAD
1000
MTEXTBEGIN
1070
    73
1070
     1
1070
    44
1040
1.0
1070
    74
1070
     0
1000
MTEXTEND
  0
POINT
  5
9FB2
330
11DB
100
AcDbEntity
  8
Defpoints
 62
     0
100
AcDbPoint
 10
-457.8307872957971
 20
1947.955821656243
 30
0.0000000000001922
  0
POINT
  5
9FB3
330
11DB
100
AcDbEntity
  8
Defpoints
 62
     0
100
AcDbPoint
 10
-173.9777670649596
 20
2117.968388024062
 30
0.0
  0
POINT
  5
9FB4
330
11DB
100
AcDbEntity
  8
Defpoints
 62
     0
100
AcDbPoint
 10
-138.279499377692
 20
2117.968388024062
 30
0.0000000000001922
  0
ENDBLK
  5
11E6
330
11DB
100
AcDbEntity
  8
0
100
AcDbBlockEnd
  0
BLOCK
  5
121E
330
1217
100
AcDbEntity
  8
0
100
AcDbBlockBegin
  2
*D122
 70
     1
 10
0.0
 20
0.0
 30
0.0
  3
*D122
  1

  0
LINE
  5
9F76
330
1217
100
AcDbEntity
  8
cotas
100
AcDbLine
 10
-143.4666962872576
 20
1182.113576612271
 30
0.0
 11
-165.0022680090495
 21
1210.950051338091
 31
0.0
  0
MTEXT
  5
9F77
330
1217
100
AcDbEntity
  8
cotas
100
AcDbMText
 10
-143.1470200522644
 20
1198.571655778141
 30
0.0
 40
10.0
 41
0.0
 71
     5
 72
     1
  1
R5
  7
SANINDUSA
 11
0.5983666037273439
 21
-0.8012224457313985
 31
0.0
 73
     1
 44
1.0
1001
ACAD
1000
MTEXTBEGIN
1070
    73
1070
     1
1070
    44
1040
1.0
1070
    74
1070
     0
1000
MTEXTEND
  0
LINE
  5
9F78
330
1217
100
AcDbEntity
  8
cotas
100
AcDbLine
 10
-173.9777670649596
 20
1222.968388024062
 30
0.0
 11
-170.9859340463229
 21
1218.962275795405
 31
0.0
  0
SOLID
  5
9F79
330
1217
100
AcDbEntity
  8
cotas
100
AcDbTrace
 10
-163.6668972661638
 20
1211.94732901097
 30
0.0
 11
-166.3376387519351
 21
1209.952773665212
 31
0.0
 12
-170.9859340463229
 22
1218.962275795405
 32
0.0
 13
-170.9859340463229
 23
1218.962275795405
 33
0.0
  0
POINT
  5
9F7A
330
1217
100
AcDbEntity
  8
Defpoints
 62
     0
100
AcDbPoint
 10
-170.9859340463229
 20
1218.962275795405
 30
0.0
  0
POINT
  5
9F7B
330
1217
100
AcDbEntity
  8
Defpoints
 62
     0
100
AcDbPoint
 10
-173.9777670649596
 20
1222.968388024062
 30
0.0
  0
ENDBLK
  5
121F
330
1217
100
AcDbEntity
  8
0
100
AcDbBlockEnd
  0
BLOCK
  5
1227
330
1220
100
AcDbEntity
  8
0
100
AcDbBlockBegin
  2
*D123
 70
     1
 10
0.0
 20
0.0
 30
0.0
  3
*D123
  1

  0
LINE
  5
9F70
330
1220
100
AcDbEntity
  8
cotas
100
AcDbLine
 10
-1799.792424919915
 20
1186.672211252117
 30
0.0
 11
-1774.499135112126
 21
1212.276363546159
 31
0.0
  0
MTEXT
  5
9F71
330
1220
100
AcDbEntity
  8
cotas
100
AcDbMText
 10
-1797.847832896835
 20
1203.018131984491
 30
0.0
 40
10.0
 41
0.0
 71
     5
 72
     1
  1
R5
  7
SANINDUSA
 11
0.7027749304683297
 21
0.7114122553802643
 31
0.0
 73
     1
 44
1.0
1001
ACAD
1000
MTEXTBEGIN
1070
    73
1070
     1
1070
    44
1040
1.0
1070
    74
1070
     0
1000
MTEXTEND
  0
LINE
  5
9F72
330
1220
100
AcDbEntity
  8
cotas
100
AcDbLine
 10
-1763.957511155101
 20
1222.947547376863
 30
0.0
 11
-1767.471385807443
 21
1219.390486099962
 31
0.0
  0
SOLID
  5
9F73
330
1220
100
AcDbEntity
  8
cotas
100
AcDbTrace
 10
-1775.684822204426
 20
1213.44765509694
 30
0.0
 11
-1773.313448019825
 21
1211.105071995379
 31
0.0
 12
-1767.471385807443
 22
1219.390486099962
 32
0.0
 13
-1767.471385807443
 23
1219.390486099962
 33
0.0
  0
POINT
  5
9F74
330
1220
100
AcDbEntity
  8
Defpoints
 62
     0
100
AcDbPoint
 10
-1767.471385807443
 20
1219.390486099962
 30
0.0
  0
POINT
  5
9F75
330
1220
100
AcDbEntity
  8
Defpoints
 62
     0
100
AcDbPoint
 10
-1763.957511155101
 20
1222.947547376863
 30
0.0
  0
ENDBLK
  5
1228
330
1220
100
AcDbEntity
  8
0
100
AcDbBlockEnd
  0
BLOCK
  5
123B
330
1231
100
AcDbEntity
  8
0
100
AcDbBlockBegin
  2
*D124
 70
     1
 10
0.0
 20
0.0
 30
0.0
  3
*D124
  1

  0
LINE
  5
9F5F
330
1231
100
AcDbEntity
  8
1
100
AcDbLine
 10
-609.4266785156
 20
1988.39644893378
 30
0.0
 11
-609.4266785156
 21
2153.645534223938
 31
0.0
  0
LINE
  5
9F60
330
1231
100
AcDbEntity
  8
1
100
AcDbLine
 10
-529.4533423426988
 20
1988.396311934633
 30
0.0
 11
-529.4533423426988
 21
2153.645534223938
 31
0.0
  0
LINE
  5
9F61
330
1231
100
AcDbEntity
  8
1
100
AcDbLine
 10
-599.4266785156001
 20
2148.645534223939
 30
0.0
 11
-539.4533423426987
 21
2148.645534223939
 31
0.0
  0
SOLID
  5
9F62
330
1231
100
AcDbEntity
  8
1
100
AcDbTrace
 10
-599.4266785156001
 20
2150.312200890605
 30
0.0
 11
-599.4266785156001
 21
2146.978867557272
 31
0.0
 12
-609.4266785156
 22
2148.645534223939
 32
0.0
 13
-609.4266785156
 23
2148.645534223939
 33
0.0
  0
SOLID
  5
9F63
330
1231
100
AcDbEntity
  8
1
100
AcDbTrace
 10
-539.4533423426987
 20
2150.312200890605
 30
0.0
 11
-539.4533423426987
 21
2146.978867557272
 31
0.0
 12
-529.4533423426988
 22
2148.645534223939
 32
0.0
 13
-529.4533423426988
 23
2148.645534223939
 33
0.0
  0
MTEXT
  5
9F64
330
1231
100
AcDbEntity
  8
1
100
AcDbMText
 10
-569.4400104291494
 20
2158.873875392508
 30
0.0
 40
10.0
 41
0.0
 71
     5
 72
     1
  1
80
  7
SANINDUSA
 73
     1
 44
1.0
1001
ACAD
1000
MTEXTBEGIN
1070
    73
1070
     1
1070
    44
1040
1.0
1070
    74
1070
     0
1000
MTEXTEND
  0
POINT
  5
9F65
330
1231
100
AcDbEntity
  8
Defpoints
 62
     0
100
AcDbPoint
 10
-609.4266785156
 20
1983.39644893378
 30
0.0
  0
POINT
  5
9F66
330
1231
100
AcDbEntity
  8
Defpoints
 62
     0
100
AcDbPoint
 10
-529.4533423426988
 20
1983.396311934633
 30
0.0
  0
POINT
  5
9F67
330
1231
100
AcDbEntity
  8
Defpoints
 62
     0
100
AcDbPoint
 10
-529.4533423426988
 20
2148.645534223939
 30
0.0
  0
ENDBLK
  5
123C
330
1231
100
AcDbEntity
  8
0
100
AcDbBlockEnd
  0
BLOCK
  5
1247
330
123D
100
AcDbEntity
  8
0
100
AcDbBlockBegin
  2
*D125
 70
     1
 10
0.0
 20
0.0
 30
0.0
  3
*D125
  1

  0
LINE
  5
9F56
330
123D
100
AcDbEntity
  8
1
100
AcDbLine
 10
-348.9820634939229
 20
2123.645732343904
 30
0.0
 11
-348.9820634939229
 21
2153.645732343904
 31
0.0
  0
LINE
  5
9F57
330
123D
100
AcDbEntity
  8
1
100
AcDbLine
 10
-168.9777670649596
 20
2117.968388024062
 30
0.0
 11
-168.9777670649596
 21
2153.645732343904
 31
0.0
  0
LINE
  5
9F58
330
123D
100
AcDbEntity
  8
1
100
AcDbLine
 10
-338.9820634939229
 20
2148.645732343904
 30
0.0
 11
-178.9777670649596
 21
2148.645732343904
 31
0.0
  0
SOLID
  5
9F59
330
123D
100
AcDbEntity
  8
1
100
AcDbTrace
 10
-338.9820634939229
 20
2150.312399010571
 30
0.0
 11
-338.9820634939229
 21
2146.979065677237
 31
0.0
 12
-348.9820634939229
 22
2148.645732343904
 32
0.0
 13
-348.9820634939229
 23
2148.645732343904
 33
0.0
  0
SOLID
  5
9F5A
330
123D
100
AcDbEntity
  8
1
100
AcDbTrace
 10
-178.9777670649596
 20
2150.312399010571
 30
0.0
 11
-178.9777670649596
 21
2146.979065677237
 31
0.0
 12
-168.9777670649596
 22
2148.645732343904
 32
0.0
 13
-168.9777670649596
 23
2148.645732343904
 33
0.0
  0
MTEXT
  5
9F5B
330
123D
100
AcDbEntity
  8
1
100
AcDbMText
 10
-258.9799152794412
 20
2158.874073512473
 30
0.0
 40
10.0
 41
0.0
 71
     5
 72
     1
  1
180
  7
SANINDUSA
 73
     1
 44
1.0
1001
ACAD
1000
MTEXTBEGIN
1070
    73
1070
     1
1070
    44
1040
1.0
1070
    74
1070
     0
1000
MTEXTEND
  0
POINT
  5
9F5C
330
123D
100
AcDbEntity
  8
Defpoints
 62
     0
100
AcDbPoint
 10
-348.9820634939229
 20
2118.645732343904
 30
-0.0000000000000197
  0
POINT
  5
9F5D
330
123D
100
AcDbEntity
  8
Defpoints
 62
     0
100
AcDbPoint
 10
-168.9777670649596
 20
2112.968388024062
 30
0.0
  0
POINT
  5
9F5E
330
123D
100
AcDbEntity
  8
Defpoints
 62
     0
100
AcDbPoint
 10
-168.9777670649596
 20
2148.645732343904
 30
0.0
  0
ENDBLK
  5
1248
330
123D
100
AcDbEntity
  8
0
100
AcDbBlockEnd
  0
BLOCK
  5
124F
330
1249
100
AcDbEntity
  8
0
100
AcDbBlockBegin
  2
*D126
 70
     1
 10
0.0
 20
0.0
 30
0.0
  3
*D126
  1

  0
LINE
  5
9F51
330
1249
100
AcDbEntity
  8
1
100
AcDbLine
 10
4666.932806423986
 20
1655.977967698763
 30
0.0
 11
4705.868622793397
 21
1628.912188015151
 31
0.0
  0
MTEXT
  5
9F52
330
1249
100
AcDbEntity
  8
1
100
AcDbMText
 10
4686.954697577783
 20
1654.259171982658
 30
0.0
 40
10.0
 41
0.0
 71
     5
 72
     1
  1
R17
  7
SANINDUSA
 11
0.8211029307559732
 21
-0.5707801477836729
 31
0.0
 73
     1
 44
1.0
1001
ACAD
1000
MTEXTBEGIN
1070
    73
1070
     1
1070
    44
1040
1.0
1070
    74
1070
     0
1000
MTEXTEND
  0
SOLID
  5
9F53
330
1249
100
AcDbEntity
  8
1
100
AcDbTrace
 10
4706.819923039703
 20
1630.280692899744
 30
0.0
 11
4704.917322547092
 21
1627.543683130557
 31
0.0
 12
4714.079652100956
 22
1623.204386537314
 32
0.0
 13
4714.079652100956
 23
1623.204386537314
 33
0.0
  0
POINT
  5
9F54
330
1249
100
AcDbEntity
  8
Defpoints
 62
     0
100
AcDbPoint
 10
4714.079652100956
 20
1623.204386537314
 30
0.0
  0
POINT
  5
9F55
330
1249
100
AcDbEntity
  8
Defpoints
 62
     0
100
AcDbPoint
 10
4700.120941002411
 20
1632.907622130886
 30
0.0
  0
ENDBLK
  5
1250
330
1249
100
AcDbEntity
  8
0
100
AcDbBlockEnd
  0
BLOCK
  5
125B
330
1251
100
AcDbEntity
  8
0
100
AcDbBlockBegin
  2
*D127
 70
     1
 10
0.0
 20
0.0
 30
0.0
  3
*D127
  1

  0
LINE
  5
9F48
330
1251
100
AcDbEntity
  8
1
100
AcDbLine
 10
4795.200580592164
 20
1720.80194863406
 30
0.0
 11
4825.898824437588
 21
1720.80194863406
 31
0.0
  0
LINE
  5
9F49
330
1251
100
AcDbEntity
  8
1
100
AcDbLine
 10
4721.6364963183
 20
1618.739607452333
 30
0.0
 11
4825.898824437588
 21
1618.739607452333
 31
0.0
  0
LINE
  5
9F4A
330
1251
100
AcDbEntity
  8
1
100
AcDbLine
 10
4820.898824437588
 20
1710.80194863406
 30
0.0
 11
4820.898824437588
 21
1628.739607452333
 31
0.0
  0
SOLID
  5
9F4B
330
1251
100
AcDbEntity
  8
1
100
AcDbTrace
 10
4819.232157770922
 20
1710.80194863406
 30
0.0
 11
4822.565491104256
 21
1710.80194863406
 31
0.0
 12
4820.898824437588
 22
1720.80194863406
 32
0.0
 13
4820.898824437588
 23
1720.80194863406
 33
0.0
  0
SOLID
  5
9F4C
330
1251
100
AcDbEntity
  8
1
100
AcDbTrace
 10
4819.232157770922
 20
1628.739607452333
 30
0.0
 11
4822.565491104256
 21
1628.739607452333
 31
0.0
 12
4820.898824437588
 22
1618.739607452333
 32
0.0
 13
4820.898824437588
 23
1618.739607452333
 33
0.0
  0
MTEXT
  5
9F4D
330
1251
100
AcDbEntity
  8
1
100
AcDbMText
 10
4809.552283134701
 20
1669.770778043198
 30
0.0
 40
10.0
 41
0.0
 71
     5
 72
     1
  1
102,1
  7
SANINDUSA
 11
0.0000000000000001
 21
1.0
 31
0.0
 73
     1
 44
1.0
1001
ACAD
1000
MTEXTBEGIN
1070
    73
1070
     1
1070
    44
1040
1.0
1070
    74
1070
     0
1000
MTEXTEND
  0
POINT
  5
9F4E
330
1251
100
AcDbEntity
  8
Defpoints
 62
     0
100
AcDbPoint
 10
4790.200580592164
 20
1720.80194863406
 30
0.0
  0
POINT
  5
9F4F
330
1251
100
AcDbEntity
  8
Defpoints
 62
     0
100
AcDbPoint
 10
4716.6364963183
 20
1618.739607452333
 30
0.0
  0
POINT
  5
9F50
330
1251
100
AcDbEntity
  8
Defpoints
 62
     0
100
AcDbPoint
 10
4820.898824437588
 20
1618.739607452333
 30
0.0
  0
ENDBLK
  5
125C
330
1251
100
AcDbEntity
  8
0
100
AcDbBlockEnd
  0
BLOCK
  5
1267
330
125D
100
AcDbEntity
  8
0
100
AcDbBlockBegin
  2
*D128
 70
     1
 10
0.0
 20
0.0
 30
0.0
  3
*D128
  1

  0
LINE
  5
9F3F
330
125D
100
AcDbEntity
  8
1
100
AcDbLine
 10
-1769.656475276293
 20
2118.645749973991
 30
0.0
 11
-1804.656457655871
 21
2118.645749973991
 31
0.0
  0
LINE
  5
9F40
330
125D
100
AcDbEntity
  8
1
100
AcDbLine
 10
-1774.655713735612
 20
2024.588312713984
 30
0.0
 11
-1804.656457655871
 21
2024.588312713984
 31
0.0
  0
LINE
  5
9F41
330
125D
100
AcDbEntity
  8
1
100
AcDbLine
 10
-1799.656457655871
 20
2108.645749973991
 30
0.0
 11
-1799.656457655871
 21
2034.588312713984
 31
0.0
  0
SOLID
  5
9F42
330
125D
100
AcDbEntity
  8
1
100
AcDbTrace
 10
-1801.323124322538
 20
2108.645749973991
 30
0.0
 11
-1797.989790989205
 21
2108.645749973991
 31
0.0
 12
-1799.656457655871
 22
2118.645749973991
 32
0.0
 13
-1799.656457655871
 23
2118.645749973991
 33
0.0
  0
SOLID
  5
9F43
330
125D
100
AcDbEntity
  8
1
100
AcDbTrace
 10
-1801.323124322538
 20
2034.588312713984
 30
0.0
 11
-1797.989790989205
 21
2034.588312713984
 31
0.0
 12
-1799.656457655871
 22
2024.588312713984
 32
0.0
 13
-1799.656457655871
 23
2024.588312713984
 33
0.0
  0
MTEXT
  5
9F44
330
125D
100
AcDbEntity
  8
1
100
AcDbMText
 10
-1810.999641000398
 20
2071.617031343988
 30
0.0
 40
10.0
 41
0.0
 71
     5
 72
     1
  1
94,1
  7
SANINDUSA
 11
0.0000000000000001
 21
1.0
 31
0.0
 73
     1
 44
1.0
1001
ACAD
1000
MTEXTBEGIN
1070
    73
1070
     1
1070
    44
1040
1.0
1070
    74
1070
     0
1000
MTEXTEND
  0
POINT
  5
9F45
330
125D
100
AcDbEntity
  8
Defpoints
 62
     0
100
AcDbPoint
 10
-1764.656475276294
 20
2118.645749973991
 30
0.0000000000004019
  0
POINT
  5
9F46
330
125D
100
AcDbEntity
  8
Defpoints
 62
     0
100
AcDbPoint
 10
-1769.655713735612
 20
2024.588312713984
 30
-0.0000000000001915
  0
POINT
  5
9F47
330
125D
100
AcDbEntity
  8
Defpoints
 62
     0
100
AcDbPoint
 10
-1799.656457655871
 20
2024.588312713984
 30
0.0
  0
ENDBLK
  5
1268
330
125D
100
AcDbEntity
  8
0
100
AcDbBlockEnd
  0
BLOCK
  5
1273
330
1269
100
AcDbEntity
  8
0
100
AcDbBlockBegin
  2
*D129
 70
     1
 10
0.0
 20
0.0
 30
0.0
  3
*D129
  1

  0
LINE
  5
A141
330
1269
100
AcDbEntity
  8
cotas
100
AcDbLine
 10
172.7183242342928
 20
1725.801948634064
 30
0.0
 11
172.7183242342928
 21
1755.801948634064
 31
0.0
  0
LINE
  5
A142
330
1269
100
AcDbEntity
  8
cotas
100
AcDbLine
 10
1072.718327892107
 20
1725.801948634064
 30
0.0
 11
1072.718327892107
 21
1755.801948634064
 31
0.0
  0
LINE
  5
A143
330
1269
100
AcDbEntity
  8
cotas
100
AcDbLine
 10
182.7183242342928
 20
1750.801948634064
 30
0.0
 11
1062.718327892107
 21
1750.801948634064
 31
0.0
  0
SOLID
  5
A144
330
1269
100
AcDbEntity
  8
cotas
100
AcDbTrace
 10
182.7183242342928
 20
1752.468615300731
 30
0.0
 11
182.7183242342928
 21
1749.135281967397
 31
0.0
 12
172.7183242342928
 22
1750.801948634064
 32
0.0
 13
172.7183242342928
 23
1750.801948634064
 33
0.0
  0
SOLID
  5
A145
330
1269
100
AcDbEntity
  8
cotas
100
AcDbTrace
 10
1062.718327892107
 20
1752.468615300731
 30
0.0
 11
1062.718327892107
 21
1749.135281967397
 31
0.0
 12
1072.718327892107
 22
1750.801948634064
 32
0.0
 13
1072.718327892107
 23
1750.801948634064
 33
0.0
  0
MTEXT
  5
A146
330
1269
100
AcDbEntity
  8
cotas
100
AcDbMText
 10
622.7183260631997
 20
1761.006784094104
 30
0.0
 40
10.0
 41
0.0
 71
     5
 72
     1
  1
900
  7
SANINDUSA
 73
     1
 44
1.0
1001
ACAD
1000
MTEXTBEGIN
1070
    73
1070
     1
1070
    44
1040
1.0
1070
    74
1070
     0
1000
MTEXTEND
  0
POINT
  5
A147
330
1269
100
AcDbEntity
  8
Defpoints
 62
     0
100
AcDbPoint
 10
172.7183242342928
 20
1720.801948634064
 30
0.0
  0
POINT
  5
A148
330
1269
100
AcDbEntity
  8
Defpoints
 62
     0
100
AcDbPoint
 10
1072.718327892107
 20
1720.801948634064
 30
0.0
  0
POINT
  5
A149
330
1269
100
AcDbEntity
  8
Defpoints
 62
     0
100
AcDbPoint
 10
1072.718327892107
 20
1750.801948634064
 30
0.0
  0
ENDBLK
  5
1274
330
1269
100
AcDbEntity
  8
0
100
AcDbBlockEnd
  0
ENDSEC
  0
SECTION
  2
ENTITIES
  0
ARC
  5
8C8
330
23
100
AcDbEntity
  8
SANINDUSA
100
AcDbCircle
 10
2059.548420516439
 20
1720.773518188573
 30
0.0
 40
0.082173245559876
100
AcDbArc
 50
270.7849942570192
 51
283.9501051840755
  0
ARC
  5
8CA
330
23
100
AcDbEntity
  8
SANINDUSA
100
AcDbCircle
 10
2059.563250056356
 20
1720.714054422336
 30
0.0
 40
0.0209000678669012
100
AcDbArc
 50
283.7708626771917
 51
358.0001034463125
  0
ARC
  5
8CB
330
23
100
AcDbEntity
  8
SANINDUSA
100
AcDbCircle
 10
2058.623315686788
 20
1720.728478458089
 30
0.0
 40
0.0209000446543084
100
AcDbArc
 50
238.9976393620477
 51
268.8005984177376
  0
LINE
  5
8DE
330
23
100
AcDbEntity
  8
SANINDUSA
100
AcDbLine
 10
2059.397131635497
 20
1720.691319142556
 30
0.0
 11
2059.410459510334
 21
1720.681986841436
 31
0.0
  0
LINE
  5
8DF
330
23
100
AcDbEntity
  8
SANINDUSA
100
AcDbLine
 10
2059.536200048579
 20
1720.681986841436
 30
0.0
 11
2059.549546315025
 21
1720.691352655267
 31
0.0
  0
LINE
  5
8E0
330
23
100
AcDbEntity
  8
SANINDUSA
100
AcDbLine
 10
2059.410459510334
 20
1720.681986841436
 30
0.0
 11
2059.421634011194
 21
1720.670003656364
 31
0.0
  0
LINE
  5
8E1
330
23
100
AcDbEntity
  8
SANINDUSA
100
AcDbLine
 10
2059.525025547719
 20
1720.670003656364
 30
0.0
 11
2059.536200048579
 21
1720.681986841436
 31
0.0
  0
LINE
  5
902
330
23
100
AcDbEntity
  8
SANINDUSA
100
AcDbLine
 10
2058.057630815233
 20
1720.761948634958
 30
0.0
 11
2059.649028732131
 21
1720.761948634958
 31
0.0
  0
LINE
  5
905
330
23
100
AcDbEntity
  8
SANINDUSA
100
AcDbLine
 10
2058.052631576876
 20
1720.761948634958
 30
0.0
 11
2058.053209726432
 21
1720.795070800909
 31
0.0
  0
LINE
  5
906
330
23
100
AcDbEntity
  8
SANINDUSA
100
AcDbLine
 10
2058.052631576876
 20
1720.761948634958
 30
0.0
 11
2058.057630815233
 21
1720.761948634958
 31
0.0
  0
LINE
  5
908
330
23
100
AcDbEntity
  8
SANINDUSA
100
AcDbLine
 10
2059.65344983248
 20
1720.795070800909
 30
0.0
 11
2059.654028012107
 21
1720.761948634958
 31
0.0
  0
LINE
  5
909
330
23
100
AcDbEntity
  8
SANINDUSA
100
AcDbLine
 10
2059.649028732131
 20
1720.761948634958
 30
0.0
 11
2059.654028012107
 21
1720.761948634958
 31
0.0
  0
LINE
  5
90A
330
23
100
AcDbEntity
  8
SANINDUSA
100
AcDbLine
 10
2058.06020866024
 20
1720.801948634064
 30
0.0
 11
2059.646450950454
 21
1720.801948634064
 31
0.0
  0
ARC
  5
90D
330
23
100
AcDbEntity
  8
SANINDUSA
100
AcDbCircle
 10
2058.060208660298
 20
1720.794948634064
 30
0.0
 40
0.0070000000000002
100
AcDbArc
 50
90.0
 51
179.0000000033055
  0
ARC
  5
90E
330
23
100
AcDbEntity
  8
SANINDUSA
100
AcDbCircle
 10
2059.646450898615
 20
1720.794948634064
 30
0.0
 40
0.0070000000000002
100
AcDbArc
 50
0.9999999966945132
 51
90.0
  0
LWPOLYLINE
  5
96B
330
23
100
AcDbEntity
  8
SANINDUSA
100
AcDbPolyline
 90
       39
 70
   128
 43
0.0
 10
2059.549546315025
 20
1720.691356723284
 10
2059.549525811027
 20
1720.691357147968
 10
2059.548972322295
 20
1720.691374597227
 10
2059.547879411529
 20
1720.691390407359
 10
2059.546235038589
 20
1720.69140106169
 10
2059.54406018431
 20
1720.691407141363
 10
2059.541278316329
 20
1720.691409428692
 10
2059.537973000358
 20
1720.691408340907
 10
2059.534410669158
 20
1720.691405211663
 10
2059.530434681724
 20
1720.691400979733
 10
2059.525940729926
 20
1720.691395756876
 10
2059.521070195983
 20
1720.69138978151
 10
2059.515967084716
 20
1720.691383575177
 10
2059.51057179148
 20
1720.691377145326
 10
2059.504753782104
 20
1720.691370827233
 10
2059.498708679031
 20
1720.691365678882
 10
2059.492636157821
 20
1720.69136179713
 10
2059.486430718253
 20
1720.69135858593
 10
2059.47995097811
 20
1720.691355940974
 10
2059.473423196624
 20
1720.691354204988
 10
2059.467075063537
 20
1720.691353139555
 10
2059.460770322631
 20
1720.691352364695
 10
2059.454373432945
 20
1720.691351969814
 10
2059.44811542208
 20
1720.69135205177
 10
2059.442218853782
 20
1720.691352588212
 10
2059.436536981414
 20
1720.691353318369
 10
2059.430956436942
 20
1720.691353750503
 10
2059.425686075042
 20
1720.691353906965
 10
2059.420904828857
 20
1720.691354160285
 10
2059.416484786819
 20
1720.691354570067
 10
2059.412346913169
 20
1720.691355136311
 10
2059.408653928588
 20
1720.691355933523
 10
2059.405516578506
 20
1720.691357036209
 10
2059.402846528838
 20
1720.691358548677
 10
2059.40060789759
 20
1720.691360828555
 10
2059.398900105308
 20
1720.691363376653
 10
2059.397763444732
 20
1720.691365291452
 10
2059.397148920844
 20
1720.691366975283
 10
2059.3971008795
 20
1720.691366997635
  0
ARC
  5
970
330
23
100
AcDbEntity
  8
SANINDUSA
100
AcDbCircle
 10
2058.58258660547
 20
1720.694912837243
 30
0.0
 40
0.0261043597396043
100
AcDbArc
 50
58.3534725658108
 51
88.9992828443049
  0
LINE
  5
974
330
23
100
AcDbEntity
  8
SANINDUSA
100
AcDbLine
 10
2058.120824231456
 20
1720.761948634958
 30
0.0
 11
2058.121280513455
 21
1720.748882494985
 31
0.0
  0
LINE
  5
975
330
23
100
AcDbEntity
  8
SANINDUSA
100
AcDbLine
 10
2059.584295001204
 20
1720.717839148996
 30
0.0
 11
2059.585835291694
 21
1720.761948634958
 31
0.0
  0
ARC
  5
977
330
23
100
AcDbEntity
  8
SANINDUSA
100
AcDbCircle
 10
2058.623517100365
 20
1720.761326326872
 30
0.0
 40
0.0519088251598646
100
AcDbArc
 50
238.3551047737737
 51
269.0184375666985
  0
LWPOLYLINE
  5
979
330
23
100
AcDbEntity
  8
SANINDUSA
100
AcDbPolyline
 90
        9
 70
   128
 43
0.0
 10
2058.141803024958
 20
1720.728715074336
 10
2058.141860655199
 20
1720.728714068508
 10
2058.142031318198
 20
1720.728711095726
 10
2058.142308472346
 20
1720.728706252849
 10
2058.142681485663
 20
1720.728699741042
 10
2058.143136038135
 20
1720.728691806173
 10
2058.143654702853
 20
1720.728682753717
 10
2058.144217564414
 20
1720.728672933853
 10
2058.144803031038
 20
1720.728662711656
  0
ARC
  5
97A
330
23
100
AcDbEntity
  8
SANINDUSA
100
AcDbCircle
 10
2058.14216778174
 20
1720.749611894466
 30
0.0
 40
0.0208999999999999
100
AcDbArc
 50
182.0000000037536
 51
268.9999999900526
  0
LINE
  5
97C
330
23
100
AcDbEntity
  8
SANINDUSA
100
AcDbLine
 10
2058.144803027561
 20
1720.728662712423
 30
0.0
 11
2058.583042500183
 21
1720.721013213974
 31
0.0
  0
LWPOLYLINE
  5
97D
330
23
100
AcDbEntity
  8
SANINDUSA
100
AcDbPolyline
 90
        4
 70
   128
 43
0.0
 10
2059.584221197914
 20
1720.71572479335
 10
2059.584234310936
 20
1720.716102180159
 10
2059.584258272002
 20
1720.716787678277
 10
2059.584281994651
 20
1720.717465368187
  0
LINE
  5
980
330
23
100
AcDbEntity
  8
SANINDUSA
100
AcDbLine
 10
2059.473329779456
 20
1720.670003656364
 30
0.0
 11
2059.525025547719
 21
1720.670003656364
 31
0.0
  0
LINE
  5
981
330
23
100
AcDbEntity
  8
SANINDUSA
100
AcDbLine
 10
2059.421634011194
 20
1720.670003656364
 30
0.0
 11
2059.473329779456
 21
1720.670003656364
 31
0.0
  0
ARC
  5
9E4
330
23
100
AcDbEntity
  8
SANINDUSA
100
AcDbCircle
 10
2055.030399964889
 20
1721.194213258813
 30
0.0
 40
0.0050010538408701
100
AcDbArc
 50
90.02079442259093
 51
179.9796810570312
  0
LINE
  5
9E6
330
23
100
AcDbEntity
  8
SANINDUSA
100
AcDbLine
 10
2055.030398149838
 20
1721.199214285831
 30
0.0
 11
2056.620639778935
 21
1721.199214285831
 31
0.0
  0
ARC
  5
9EA
330
23
100
AcDbEntity
  8
SANINDUSA
100
AcDbCircle
 10
2056.620637938257
 20
1721.194213218598
 30
0.0
 40
0.0050010940544066
100
AcDbArc
 50
0.0207794930126366
 51
89.97922050698738
  0
LINE
  5
9ED
330
23
100
AcDbEntity
  8
SANINDUSA
100
AcDbLine
 10
2055.025398911363
 20
1720.303973418258
 30
0.0
 11
2055.025398911363
 21
1721.194215047355
 31
0.0
  0
LINE
  5
9EE
330
23
100
AcDbEntity
  8
SANINDUSA
100
AcDbLine
 10
2056.625639017411
 20
1721.194215047355
 30
0.0
 11
2056.625639017411
 21
1720.303973418258
 31
0.0
  0
ELLIPSE
  5
9FB
330
23
100
AcDbEntity
  8
SANINDUSA
100
AcDbEllipse
 10
2056.535262340579
 20
1721.108837596535
 30
0.0
 11
0.0141714282369861
 21
0.014171428236987
 31
0.0
210
0.0
220
0.0
230
1.0
 40
0.9979329808707115
 41
5.49839613136775
 42
7.067974482991402
  0
LINE
  5
9FD
330
23
100
AcDbEntity
  8
SANINDUSA
100
AcDbLine
 10
2056.535295245946
 20
1721.128858318442
 30
0.0
 11
2055.115742696399
 21
1721.128858318442
 31
0.0
  0
ELLIPSE
  5
9FF
330
23
100
AcDbEntity
  8
SANINDUSA
100
AcDbEllipse
 10
2055.115775601766
 20
1721.108837596535
 30
0.0
 11
-0.0141714282340621
 21
0.0141714282398871
 31
0.0
210
0.0
220
0.0
230
1.0
 40
0.9979329808715316
 41
5.498396131573046
 42
7.067974482786258
  0
LINE
  5
A01
330
23
100
AcDbEntity
  8
SANINDUSA
100
AcDbLine
 10
2055.095754879859
 20
1721.10887050191
 30
0.0
 11
2055.095754879563
 21
1720.389317963721
 31
0.0
  0
LINE
  5
A04
330
23
100
AcDbEntity
  8
SANINDUSA
100
AcDbLine
 10
2056.555283062486
 20
1720.389317963715
 30
0.0
 11
2056.555283062486
 21
1721.108870501902
 31
0.0
  0
ELLIPSE
  5
A05
330
23
100
AcDbEntity
  8
SANINDUSA
100
AcDbEllipse
 10
2055.11577560147
 20
1720.389350869079
 30
0.0
 11
0.0141714282398977
 21
0.0141714282340996
 31
0.0
210
0.0
220
0.0
230
1.0
 40
0.9979329808698404
 41
2.356803477571814
 42
3.92638182960778
  0
ELLIPSE
  5
A08
330
23
100
AcDbEntity
  8
SANINDUSA
100
AcDbEllipse
 10
2056.535262340579
 20
1720.389350869082
 30
0.0
 11
0.0141714282369998
 21
-0.0141714282369731
 31
0.0
210
0.0
220
0.0
230
1.0
 40
0.997932980870661
 41
5.498396131368645
 42
7.067974482990502
  0
LINE
  5
A09
330
23
100
AcDbEntity
  8
SANINDUSA
100
AcDbLine
 10
2055.115742696104
 20
1720.369330147172
 30
0.0
 11
2056.535295245946
 21
1720.369330147175
 31
0.0
  0
ARC
  5
A0B
330
23
100
AcDbEntity
  8
SANINDUSA
100
AcDbCircle
 10
2056.620637969357
 20
1720.303975242424
 30
0.0
 40
0.005001062959576
100
AcDbArc
 50
270.0204233457729
 51
359.9791011876277
  0
LINE
  5
A0C
330
23
100
AcDbEntity
  8
SANINDUSA
100
AcDbLine
 10
2056.620639778935
 20
1720.298974179782
 30
0.0
 11
2055.030398149838
 21
1720.298974179782
 31
0.0
  0
ARC
  5
A0E
330
23
100
AcDbEntity
  8
SANINDUSA
100
AcDbCircle
 10
2055.03039993379
 20
1720.30397520221
 30
0.0
 40
0.0050010227454458
100
AcDbArc
 50
180.0204382492914
 51
269.9795617507039
  0
ARC
  5
A58
330
23
100
AcDbEntity
  8
SANINDUSA
100
AcDbCircle
 10
2055.138604990591
 20
1720.416888742835
 30
0.0
 40
0.0108877684203434
100
AcDbArc
 50
179.9875125441738
 51
269.987747300669
  0
ARC
  5
A5B
330
23
100
AcDbEntity
  8
SANINDUSA
100
AcDbCircle
 10
2055.138605054507
 20
1721.081299664853
 30
0.0
 40
0.0108878323195326
100
AcDbArc
 50
90.0125889665116
 51
180.0120727758064
  0
LINE
  5
A5E
330
23
100
AcDbEntity
  8
SANINDUSA
100
AcDbLine
 10
2055.127717219984
 20
1720.416891118898
 30
0.0
 11
2055.127717219984
 21
1721.081297346715
 31
0.0
  0
LINE
  5
A5F
330
23
100
AcDbEntity
  8
SANINDUSA
100
AcDbLine
 10
2055.138602659835
 20
1721.092187491285
 30
0.0
 11
2055.555404671254
 21
1721.092187491285
 31
0.0
  0
LINE
  5
A61
330
23
100
AcDbEntity
  8
SANINDUSA
100
AcDbLine
 10
2055.555426301697
 20
1720.406000974328
 30
0.0
 11
2055.138602659835
 21
1720.406000974328
 31
0.0
  0
LWPOLYLINE
  5
A70
330
23
100
AcDbEntity
  8
SANINDUSA
100
AcDbPolyline
 90
        3
 70
   128
 43
0.0
 10
2055.567601631738
 20
1720.406400214026
 10
2055.561553846455
 20
1720.406115355977
 10
2055.555426310158
 20
1720.406000974664
  0
LWPOLYLINE
  5
A71
330
23
100
AcDbEntity
  8
SANINDUSA
100
AcDbPolyline
 90
        3
 70
   128
 43
0.0
 10
2055.555404673672
 20
1721.09218749691
 10
2055.564470480538
 20
1721.091948780307
 10
2055.567601393319
 20
1721.091787072906
  0
LWPOLYLINE
  5
A72
330
23
100
AcDbEntity
  8
SANINDUSA
100
AcDbPolyline
 90
        7
 70
   128
 43
0.0
 10
2055.578647266484
 20
1721.081362995395
 10
2055.578647624112
 20
1721.067362996826
 10
2055.578603159047
 20
1720.930519673118
 10
2055.578536938287
 20
1720.79367646862
 10
2055.57853801117
 20
1720.656833472738
 10
2055.578649054623
 20
1720.464831593522
 10
2055.578651498414
 20
1720.416827875266
  0
ARC
  5
A75
330
23
100
AcDbEntity
  8
SANINDUSA
100
AcDbCircle
 10
2055.568499517472
 20
1720.416827790812
 30
0.0
 40
0.0101519809420697
100
AcDbArc
 50
287.0769298653197
 51
0.000476639044228
  0
ARC
  5
A78
330
23
100
AcDbEntity
  8
SANINDUSA
100
AcDbCircle
 10
2055.568499272836
 20
1721.081363201146
 30
0.0
 40
0.0101479936500234
100
AcDbArc
 50
359.9988383331902
 51
72.90449905410604
  0
LINE
  5
A79
330
23
100
AcDbEntity
  8
SANINDUSA
100
AcDbLine
 10
2055.567601422418
 20
1721.0917870987
 30
0.0
 11
2055.570003596715
 21
1721.091470016269
 31
0.0
  0
LINE
  5
A7A
330
23
100
AcDbEntity
  8
SANINDUSA
100
AcDbLine
 10
2055.569990422457
 20
1720.406714146256
 30
0.0
 11
2055.567601630105
 21
1720.406400210559
 31
0.0
  0
LINE
  5
A7B
330
23
100
AcDbEntity
  8
SANINDUSA
100
AcDbLine
 10
2055.571480691562
 20
1720.407123395818
 30
0.0
 11
2055.569990422457
 21
1720.406714146256
 31
0.0
  0
LINE
  5
A7C
330
23
100
AcDbEntity
  8
SANINDUSA
100
AcDbLine
 10
2055.570003596715
 20
1721.091470016269
 30
0.0
 11
2055.571482420232
 21
1721.091062843691
 31
0.0
  0
CIRCLE
  5
A9C
330
23
100
AcDbEntity
  8
SANINDUSA
100
AcDbCircle
 10
2055.705195429181
 20
1720.469089940175
 30
0.0
 40
0.0107489907799661
  0
CIRCLE
  5
A9E
330
23
100
AcDbEntity
  8
SANINDUSA
100
AcDbCircle
 10
2055.705193706069
 20
1721.029099494743
 30
0.0
 40
0.0107488661608701
  0
CIRCLE
  5
AA0
330
23
100
AcDbEntity
  8
SANINDUSA
100
AcDbCircle
 10
2055.705185015748
 20
1720.549077332707
 30
0.0
 40
0.0107496293083675
  0
CIRCLE
  5
AA2
330
23
100
AcDbEntity
  8
SANINDUSA
100
AcDbCircle
 10
2055.705183076574
 20
1720.949111980407
 30
0.0
 40
0.0107490055301487
  0
CIRCLE
  5
AA5
330
23
100
AcDbEntity
  8
SANINDUSA
100
AcDbCircle
 10
2055.785184865046
 20
1720.469090391465
 30
0.0
 40
0.0107488093919143
  0
CIRCLE
  5
AA8
330
23
100
AcDbEntity
  8
SANINDUSA
100
AcDbCircle
 10
2055.785182963194
 20
1721.029098751875
 30
0.0
 40
0.010748744287587
  0
CIRCLE
  5
AAA
330
23
100
AcDbEntity
  8
SANINDUSA
100
AcDbCircle
 10
2055.705164749477
 20
1720.629073000643
 30
0.0
 40
0.0107505838761408
  0
CIRCLE
  5
AEB
330
23
100
AcDbEntity
  8
SANINDUSA
100
AcDbCircle
 10
2055.705162622155
 20
1720.86911548629
 30
0.0
 40
0.010749850340983
  0
CIRCLE
  5
AED
330
23
100
AcDbEntity
  8
SANINDUSA
100
AcDbCircle
 10
2055.785174120461
 20
1720.549075191903
 30
0.0
 40
0.0107494811303221
  0
CIRCLE
  5
AEF
330
23
100
AcDbEntity
  8
SANINDUSA
100
AcDbCircle
 10
2055.785172052931
 20
1720.949114200292
 30
0.0
 40
0.0107486876639133
  0
CIRCLE
  5
AF1
330
23
100
AcDbEntity
  8
SANINDUSA
100
AcDbCircle
 10
2055.705146219759
 20
1720.709083491288
 30
0.0
 40
0.0107515894546118
  0
CIRCLE
  5
AF3
330
23
100
AcDbEntity
  8
SANINDUSA
100
AcDbCircle
 10
2055.705145316688
 20
1720.789103563965
 30
0.0
 40
0.0107511813188331
  0
CIRCLE
  5
AF5
330
23
100
AcDbEntity
  8
SANINDUSA
100
AcDbCircle
 10
2055.865172881402
 20
1720.469090933335
 30
0.0
 40
0.0107486169995157
  0
CIRCLE
  5
AF7
330
23
100
AcDbEntity
  8
SANINDUSA
100
AcDbCircle
 10
2055.865170901212
 20
1721.029098293382
 30
0.0
 40
0.0107485706288872
  0
CIRCLE
  5
AF9
330
23
100
AcDbEntity
  8
SANINDUSA
100
AcDbCircle
 10
2055.785151362052
 20
1720.629068983888
 30
0.0
 40
0.0107506033502914
  0
CIRCLE
  5
AFB
330
23
100
AcDbEntity
  8
SANINDUSA
100
AcDbCircle
 10
2055.785148902598
 20
1720.869119514444
 30
0.0
 40
0.0107497251418514
  0
CIRCLE
  5
AFD
330
23
100
AcDbEntity
  8
SANINDUSA
100
AcDbCircle
 10
2055.865162097106
 20
1720.549073926235
 30
0.0
 40
0.0107491495836826
  0
CIRCLE
  5
AFF
330
23
100
AcDbEntity
  8
SANINDUSA
100
AcDbCircle
 10
2055.865159827002
 20
1720.949115610136
 30
0.0
 40
0.0107484990728227
  0
CIRCLE
  5
B01
330
23
100
AcDbEntity
  8
SANINDUSA
100
AcDbCircle
 10
2055.785129444332
 20
1720.709081153401
 30
0.0
 40
0.0107518973365045
  0
CIRCLE
  5
B03
330
23
100
AcDbEntity
  8
SANINDUSA
100
AcDbCircle
 10
2055.785128410442
 20
1720.789105692864
 30
0.0
 40
0.0107514412548017
  0
CIRCLE
  5
B05
330
23
100
AcDbEntity
  8
SANINDUSA
100
AcDbCircle
 10
2055.945158270441
 20
1720.469091221403
 30
0.0
 40
0.0107484293159939
  0
CIRCLE
  5
B07
330
23
100
AcDbEntity
  8
SANINDUSA
100
AcDbCircle
 10
2055.945156339877
 20
1721.029098405965
 30
0.0
 40
0.0107484525398028
  0
CIRCLE
  5
B09
330
23
100
AcDbEntity
  8
SANINDUSA
100
AcDbCircle
 10
2055.865137480766
 20
1720.629065631237
 30
0.0
 40
0.0107504608712337
  0
CIRCLE
  5
B0B
330
23
100
AcDbEntity
  8
SANINDUSA
100
AcDbCircle
 10
2055.865134839691
 20
1720.869123211699
 30
0.0
 40
0.0107495259972925
  0
CIRCLE
  5
B0D
330
23
100
AcDbEntity
  8
SANINDUSA
100
AcDbCircle
 10
2055.945147286349
 20
1720.54907275152
 30
0.0
 40
0.0107489829399681
  0
CIRCLE
  5
B0F
330
23
100
AcDbEntity
  8
SANINDUSA
100
AcDbCircle
 10
2055.94514522821
 20
1720.949116901532
 30
0.0
 40
0.0107481204639086
  0
CIRCLE
  5
B11
330
23
100
AcDbEntity
  8
SANINDUSA
100
AcDbCircle
 10
2055.865112558232
 20
1720.709078690888
 30
0.0
 40
0.010752256295935
  0
CIRCLE
  5
B13
330
23
100
AcDbEntity
  8
SANINDUSA
100
AcDbCircle
 10
2056.025139364296
 20
1720.469089791571
 30
0.0
 40
0.0107485433472988
  0
CIRCLE
  5
B15
330
23
100
AcDbEntity
  8
SANINDUSA
100
AcDbCircle
 10
2055.865111421552
 20
1720.789107593737
 30
0.0
 40
0.0107517837849434
  0
CIRCLE
  5
B17
330
23
100
AcDbEntity
  8
SANINDUSA
100
AcDbCircle
 10
2056.025137839117
 20
1721.029100255148
 30
0.0
 40
0.0107482804544307
  0
CIRCLE
  5
B19
330
23
100
AcDbEntity
  8
SANINDUSA
100
AcDbCircle
 10
2055.945122241142
 20
1720.629063094898
 30
0.0
 40
0.0107503057879356
  0
CIRCLE
  5
B1B
330
23
100
AcDbEntity
  8
SANINDUSA
100
AcDbCircle
 10
2055.945119361267
 20
1720.869125518382
 30
0.0
 40
0.0107494903470957
  0
CIRCLE
  5
B1D
330
23
100
AcDbEntity
  8
SANINDUSA
100
AcDbCircle
 10
2056.025128106457
 20
1720.549073401233
 30
0.0
 40
0.0107485956270214
  0
CIRCLE
  5
B1F
330
23
100
AcDbEntity
  8
SANINDUSA
100
AcDbCircle
 10
2056.02512620719
 20
1720.949116893465
 30
0.0
 40
0.0107479916293539
  0
CIRCLE
  5
B21
330
23
100
AcDbEntity
  8
SANINDUSA
100
AcDbCircle
 10
2055.945095736277
 20
1720.70907666926
 30
0.0
 40
0.0107524914694862
  0
CIRCLE
  5
B23
330
23
100
AcDbEntity
  8
SANINDUSA
100
AcDbCircle
 10
2055.94509433906
 20
1720.789109705562
 30
0.0
 40
0.01075192197915
  0
CIRCLE
  5
B25
330
23
100
AcDbEntity
  8
SANINDUSA
100
AcDbCircle
 10
2056.105115092763
 20
1720.469086463319
 30
0.0
 40
0.0107488968409093
  0
CIRCLE
  5
B27
330
23
100
AcDbEntity
  8
SANINDUSA
100
AcDbCircle
 10
2056.105114092764
 20
1721.029103914303
 30
0.0
 40
0.0107484664957416
  0
CIRCLE
  5
B29
330
23
100
AcDbEntity
  8
SANINDUSA
100
AcDbCircle
 10
2056.025104477765
 20
1720.629063038101
 30
0.0
 40
0.0107499323612636
  0
CIRCLE
  5
B2B
330
23
100
AcDbEntity
  8
SANINDUSA
100
AcDbCircle
 10
2056.025101719874
 20
1720.869126715527
 30
0.0
 40
0.0107492335914448
  0
CIRCLE
  5
B2D
330
23
100
AcDbEntity
  8
SANINDUSA
100
AcDbCircle
 10
2056.105102956733
 20
1720.54907431237
 30
0.0
 40
0.0107486350589459
  0
CIRCLE
  5
B2F
330
23
100
AcDbEntity
  8
SANINDUSA
100
AcDbCircle
 10
2056.105101599706
 20
1720.949115350527
 30
0.0
 40
0.0107480847840487
  0
CIRCLE
  5
B31
330
23
100
AcDbEntity
  8
SANINDUSA
100
AcDbCircle
 10
2056.025078689231
 20
1720.709075827885
 30
0.0
 40
0.0107524748339821
  0
CIRCLE
  5
B33
330
23
100
AcDbEntity
  8
SANINDUSA
100
AcDbCircle
 10
2056.025076835612
 20
1720.789110092903
 30
0.0
 40
0.0107521828572017
  0
CIRCLE
  5
B35
330
23
100
AcDbEntity
  8
SANINDUSA
100
AcDbCircle
 10
2056.105083008828
 20
1720.629065488414
 30
0.0
 40
0.0107496286772549
  0
CIRCLE
  5
B37
330
23
100
AcDbEntity
  8
SANINDUSA
100
AcDbCircle
 10
2056.185086315757
 20
1720.469080924335
 30
0.0
 40
0.0107495835779844
  0
CIRCLE
  5
B39
330
23
100
AcDbEntity
  8
SANINDUSA
100
AcDbCircle
 10
2056.105080557461
 20
1720.86912537524
 30
0.0
 40
0.0107491002053046
  0
CIRCLE
  5
B3B
330
23
100
AcDbEntity
  8
SANINDUSA
100
AcDbCircle
 10
2056.185085937656
 20
1721.029110669089
 30
0.0
 40
0.0107488893734387
  0
CIRCLE
  5
B3D
330
23
100
AcDbEntity
  8
SANINDUSA
100
AcDbCircle
 10
2056.185073053616
 20
1720.549076754081
 30
0.0
 40
0.0107487786770618
  0
CIRCLE
  5
B3F
330
23
100
AcDbEntity
  8
SANINDUSA
100
AcDbCircle
 10
2056.18507231344
 20
1720.949112408758
 30
0.0
 40
0.0107484460143888
  0
CIRCLE
  5
B41
330
23
100
AcDbEntity
  8
SANINDUSA
100
AcDbCircle
 10
2056.105061068361
 20
1720.70907630643
 30
0.0
 40
0.010752376406906
  0
CIRCLE
  5
B43
330
23
100
AcDbEntity
  8
SANINDUSA
100
AcDbCircle
 10
2056.105058875251
 20
1720.789109368591
 30
0.0
 40
0.0107520662527161
  0
CIRCLE
  5
B45
330
23
100
AcDbEntity
  8
SANINDUSA
100
AcDbCircle
 10
2056.185057840275
 20
1720.629070127303
 30
0.0
 40
0.010749567697178
  0
CIRCLE
  5
B47
330
23
100
AcDbEntity
  8
SANINDUSA
100
AcDbCircle
 10
2056.185056717321
 20
1720.869121764702
 30
0.0
 40
0.0107490219525524
  0
CIRCLE
  5
B49
330
23
100
AcDbEntity
  8
SANINDUSA
100
AcDbCircle
 10
2056.265057835406
 20
1720.46907402324
 30
0.0
 40
0.0107508080877733
  0
CIRCLE
  5
B4B
330
23
100
AcDbEntity
  8
SANINDUSA
100
AcDbCircle
 10
2056.265058600231
 20
1721.029118639273
 30
0.0
 40
0.0107498057753815
  0
CIRCLE
  5
B4D
330
23
100
AcDbEntity
  8
SANINDUSA
100
AcDbCircle
 10
2056.185043138762
 20
1720.709080762022
 30
0.0
 40
0.0107516330182591
  0
CIRCLE
  5
B4F
330
23
100
AcDbEntity
  8
SANINDUSA
100
AcDbCircle
 10
2056.265044572275
 20
1720.549079838389
 30
0.0
 40
0.0107494079428412
  0
CIRCLE
  5
B51
330
23
100
AcDbEntity
  8
SANINDUSA
100
AcDbCircle
 10
2056.185039847898
 20
1720.789104324738
 30
0.0
 40
0.0107521820566169
  0
CIRCLE
  5
B53
330
23
100
AcDbEntity
  8
SANINDUSA
100
AcDbCircle
 10
2056.265043817038
 20
1720.949108062385
 30
0.0
 40
0.0107493287447603
  0
CIRCLE
  5
B55
330
23
100
AcDbEntity
  8
SANINDUSA
100
AcDbCircle
 10
2056.265034100995
 20
1720.62907505563
 30
0.0
 40
0.0107497464485037
  0
CIRCLE
  5
B57
330
23
100
AcDbEntity
  8
SANINDUSA
100
AcDbCircle
 10
2056.265035474607
 20
1720.869116708853
 30
0.0
 40
0.0107490881146669
  0
CIRCLE
  5
B59
330
23
100
AcDbEntity
  8
SANINDUSA
100
AcDbCircle
 10
2056.265023812776
 20
1720.7090880191
 30
0.0
 40
0.0107509748879561
  0
CIRCLE
  5
B5B
330
23
100
AcDbEntity
  8
SANINDUSA
100
AcDbCircle
 10
2056.265020369441
 20
1720.78909795522
 30
0.0
 40
0.0107522723337635
  0
CIRCLE
  5
B5C
330
23
100
AcDbEntity
  8
SANINDUSA
100
AcDbCircle
 10
2056.445588966484
 20
1720.749105370425
 30
0.0
 40
0.0739966103093779
  0
CIRCLE
  5
B5E
330
23
100
AcDbEntity
  8
SANINDUSA
100
AcDbCircle
 10
2056.445518964387
 20
1720.749094232807
 30
0.0
 40
0.0499999999999997
  0
ARC
  5
B5F
330
23
100
AcDbEntity
  8
SANINDUSA
100
AcDbCircle
 10
2057.777154105917
 20
1720.715168242715
 30
0.0
 40
0.020899873789546
100
AcDbArc
 50
270.7135601351524
 51
358.0506177221031
  0
ARC
  5
B60
330
23
100
AcDbEntity
  8
SANINDUSA
100
AcDbCircle
 10
2057.05723558807
 20
1720.715166048758
 30
0.0
 40
0.020899910067655
100
AcDbArc
 50
181.9487766540273
 51
269.3194533694977
  0
LINE
  5
B61
330
23
100
AcDbEntity
  8
SANINDUSA
100
AcDbLine
 10
2057.340975050326
 20
1720.691334252333
 30
0.0
 11
2057.354324530654
 21
1720.681986841436
 31
0.0
  0
LINE
  5
B62
330
23
100
AcDbEntity
  8
SANINDUSA
100
AcDbLine
 10
2057.480065068898
 20
1720.681986841436
 30
0.0
 11
2057.4933877629
 21
1720.691315499222
 31
0.0
  0
LINE
  5
B63
330
23
100
AcDbEntity
  8
SANINDUSA
100
AcDbLine
 10
2057.354324530654
 20
1720.681986841436
 30
0.0
 11
2057.365499031513
 21
1720.670003656364
 31
0.0
  0
LINE
  5
B64
330
23
100
AcDbEntity
  8
SANINDUSA
100
AcDbLine
 10
2057.468890568038
 20
1720.670003656364
 30
0.0
 11
2057.480065068898
 21
1720.681986841436
 31
0.0
  0
LINE
  5
B67
330
23
100
AcDbEntity
  8
SANINDUSA
100
AcDbLine
 10
2056.966496597196
 20
1720.761948634958
 30
0.0
 11
2056.967074746752
 21
1720.795070800909
 31
0.0
  0
LINE
  5
B68
330
23
100
AcDbEntity
  8
SANINDUSA
100
AcDbLine
 10
2056.966496597196
 20
1720.761948634958
 30
0.0
 11
2056.971495835553
 21
1720.761948634958
 31
0.0
  0
LINE
  5
B6A
330
23
100
AcDbEntity
  8
SANINDUSA
100
AcDbLine
 10
2057.867314852801
 20
1720.795070800909
 30
0.0
 11
2057.867892984743
 21
1720.761948634958
 31
0.0
  0
LINE
  5
B6C
330
23
100
AcDbEntity
  8
SANINDUSA
100
AcDbLine
 10
2057.862893764372
 20
1720.761948634958
 30
0.0
 11
2057.867892984743
 21
1720.761948634958
 31
0.0
  0
LINE
  5
B6E
330
23
100
AcDbEntity
  8
SANINDUSA
100
AcDbLine
 10
2056.971495835553
 20
1720.761948634958
 30
0.0
 11
2057.862893764372
 21
1720.761948634958
 31
0.0
  0
LINE
  5
B70
330
23
100
AcDbEntity
  8
SANINDUSA
100
AcDbLine
 10
2056.97407368056
 20
1720.801948634064
 30
0.0
 11
2057.86031592309
 21
1720.801948634064
 31
0.0
  0
ARC
  5
B72
330
23
100
AcDbEntity
  8
SANINDUSA
100
AcDbCircle
 10
2057.860315918934
 20
1720.794948634064
 30
0.0
 40
0.0070000000000002
100
AcDbArc
 50
0.9999999966945132
 51
90.0
  0
ARC
  5
B73
330
23
100
AcDbEntity
  8
SANINDUSA
100
AcDbCircle
 10
2056.974073680618
 20
1720.794948634064
 30
0.0
 40
0.0070000000000002
100
AcDbArc
 50
90.0
 51
179.0000000033055
  0
LINE
  5
B78
330
23
100
AcDbEntity
  8
SANINDUSA
100
AcDbLine
 10
2057.798151005213
 20
1720.717581312554
 30
0.0
 11
2057.799700323934
 21
1720.761948634958
 31
0.0
  0
LINE
  5
B7B
330
23
100
AcDbEntity
  8
SANINDUSA
100
AcDbLine
 10
2057.034689251776
 20
1720.761948634958
 30
0.0
 11
2057.036238583478
 21
1720.717581623682
 31
0.0
  0
LWPOLYLINE
  5
B81
330
23
100
AcDbEntity
  8
SANINDUSA
100
AcDbPolyline
 90
        4
 70
   128
 43
0.0
 10
2057.798046175833
 20
1720.714579005813
 10
2057.798050526972
 20
1720.71470318464
 10
2057.798082892294
 20
1720.715630647814
 10
2057.798151020403
 20
1720.717581314122
  0
LWPOLYLINE
  5
B82
330
23
100
AcDbEntity
  8
SANINDUSA
100
AcDbPolyline
 90
        4
 70
   128
 43
0.0
 10
2057.03623858511
 20
1720.717581627047
 10
2057.036306407745
 20
1720.715639342641
 10
2057.03633867621
 20
1720.714715343987
 10
2057.036343004997
 20
1720.714591396129
  0
LWPOLYLINE
  5
B84
330
23
100
AcDbEntity
  8
SANINDUSA
100
AcDbPolyline
 90
       37
 70
   128
 43
0.0
 10
2057.340972427721
 20
1720.691336122429
 10
2057.341259006853
 20
1720.691337865865
 10
2057.342102263565
 20
1720.691340525722
 10
2057.34355035841
 20
1720.691343952989
 10
2057.345572386379
 20
1720.691348177469
 10
2057.347896460886
 20
1720.691353154456
 10
2057.350666527148
 20
1720.691359167075
 10
2057.353959385748
 20
1720.691365582025
 10
2057.357683007117
 20
1720.691371773457
 10
2057.361801330443
 20
1720.691377614712
 10
2057.366295252438
 20
1720.691382748162
 10
2057.371278796788
 20
1720.691387166357
 10
2057.37659192502
 20
1720.69139041481
 10
2057.382215533848
 20
1720.691391524946
 10
2057.388092700835
 20
1720.691389468586
 10
2057.394373212452
 20
1720.691383366561
 10
2057.400829170342
 20
1720.691372421658
 10
2057.406999741192
 20
1720.691357170319
 10
2057.413237635489
 20
1720.691339959478
 10
2057.419669453497
 20
1720.691338290548
 10
2057.426084582205
 20
1720.691354406154
 10
2057.432326321001
 20
1720.691369076347
 10
2057.438465033169
 20
1720.691379946744
 10
2057.444631610508
 20
1720.69138720361
 10
2057.450597200985
 20
1720.691389364278
 10
2057.456173900957
 20
1720.691388902342
 10
2057.461480472679
 20
1720.69138630954
 10
2057.46662071764
 20
1720.691381861543
 10
2057.471399251814
 20
1720.691376757895
 10
2057.475668374892
 20
1720.69137168405
 10
2057.479532424803
 20
1720.691366319632
 10
2057.48305660903
 20
1720.691360552883
 10
2057.486098055239
 20
1720.691354920244
 10
2057.488177244063
 20
1720.691350665962
 10
2057.489920083876
 20
1720.691346776759
 10
2057.491341714259
 20
1720.69134331969
 10
2057.492398445006
 20
1720.691340458667
  0
LINE
  5
B86
330
23
100
AcDbEntity
  8
SANINDUSA
100
AcDbLine
 10
2057.365499031513
 20
1720.670003656364
 30
0.0
 11
2057.468890568038
 21
1720.670003656364
 31
0.0
  0
LWPOLYLINE
  5
C0D
330
23
100
AcDbEntity
  8
SANINDUSA
100
AcDbPolyline
 90
        3
 70
   128
 43
0.0
 10
2061.328380098868
 20
1720.691367668187
 10
2061.11707662635
 20
1720.695793767547
 10
2060.554225316574
 20
1720.707583834505
  0
LWPOLYLINE
  5
C0E
330
23
100
AcDbEntity
  8
SANINDUSA
100
AcDbPolyline
 90
        3
 70
   128
 43
0.0
 10
2061.499613752891
 20
1720.693765294826
 10
2061.490411868621
 20
1720.692037207162
 10
2061.480952015449
 20
1720.69135192511
  0
ARC
  5
C0F
330
23
100
AcDbEntity
  8
SANINDUSA
100
AcDbCircle
 10
2061.328378033272
 20
1720.691267686413
 30
0.0
 40
0.0001000000509267
100
AcDbArc
 50
55.00000000459787
 51
88.8287253197687
  0
LWPOLYLINE
  5
C10
330
23
100
AcDbEntity
  8
SANINDUSA
100
AcDbPolyline
 90
        3
 70
   128
 43
0.0
 10
2061.480896225501
 20
1720.691333850002
 10
2061.480923166801
 20
1720.691347179091
 10
2061.480952015449
 20
1720.69135192511
  0
LINE
  5
C11
330
23
100
AcDbEntity
  8
SANINDUSA
100
AcDbLine
 10
2061.328435390916
 20
1720.691349601617
 30
0.0
 11
2061.34180676036
 21
1720.681986843323
 31
0.0
  0
LINE
  5
C12
330
23
100
AcDbEntity
  8
SANINDUSA
100
AcDbLine
 10
2061.467547288467
 20
1720.681986843323
 30
0.0
 11
2061.480896225501
 21
1720.691333850002
 31
0.0
  0
LWPOLYLINE
  5
C13
330
23
100
AcDbEntity
  8
SANINDUSA
100
AcDbPolyline
 90
        3
 70
   128
 43
0.0
 10
2061.328459849883
 20
1720.695266847586
 10
2061.329642167617
 20
1720.695062679326
 10
2061.330672374297
 20
1720.694544297731
  0
LWPOLYLINE
  5
C14
330
23
100
AcDbEntity
  8
SANINDUSA
100
AcDbPolyline
 90
       37
 70
   128
 43
0.0
 10
2061.328459849883
 20
1720.695266847586
 10
2061.328973522712
 20
1720.695264113223
 10
2061.32996212535
 20
1720.695261781192
 10
2061.331461539794
 20
1720.695259166038
 10
2061.333530655433
 20
1720.695256059145
 10
2061.336116662551
 20
1720.695253622806
 10
2061.339121690322
 20
1720.695252222097
 10
2061.342580190231
 20
1720.695251193917
 10
2061.346589675475
 20
1720.695250366902
 10
2061.351024261046
 20
1720.695249890065
 10
2061.355712881614
 20
1720.695249837911
 10
2061.360739818145
 20
1720.69525008378
 10
2061.366231194068
 20
1720.695250389254
 10
2061.372003784705
 20
1720.695250635123
 10
2061.37783884101
 20
1720.695250873541
 10
2061.383859029342
 20
1720.695251201367
 10
2061.390204539824
 20
1720.695251663303
 10
2061.396655788947
 20
1720.695252363658
 10
2061.406821480323
 20
1720.695254420018
 10
2061.411994805862
 20
1720.695256051695
 10
2061.417134037543
 20
1720.695258152758
 10
2061.42228089862
 20
1720.695260805166
 10
2061.427343836356
 20
1720.695263979113
 10
2061.432394853164
 20
1720.69526766715
 10
2061.43730854087
 20
1720.695271660661
 10
2061.442915788223
 20
1720.695276630199
 10
2061.448257794906
 20
1720.695281629538
 10
2061.453438511421
 20
1720.695286450064
 10
2061.458261361648
 20
1720.69529089061
 10
2061.462560763885
 20
1720.695295055485
 10
2061.466462007095
 20
1720.695298683917
 10
2061.470030417968
 20
1720.695300837135
 10
2061.473124256659
 20
1720.695301075554
 10
2061.475653162528
 20
1720.695299443876
 10
2061.477700701285
 20
1720.695293595171
 10
2061.479289045859
 20
1720.695284050977
 10
2061.480345717002
 20
1720.695270706987
  0
LWPOLYLINE
  5
C15
330
23
100
AcDbEntity
  8
SANINDUSA
100
AcDbPolyline
 90
        3
 70
   128
 43
0.0
 10
2061.478659263183
 20
1720.694528547203
 10
2061.479734173346
 20
1720.695061546838
 10
2061.480891218711
 20
1720.695251447236
  0
LINE
  5
C17
330
23
100
AcDbEntity
  8
SANINDUSA
100
AcDbLine
 10
2061.330672374297
 20
1720.694544297731
 30
0.0
 11
2061.34437952207
 21
1720.684946421689
 31
0.0
  0
LINE
  5
C18
330
23
100
AcDbEntity
  8
SANINDUSA
100
AcDbLine
 10
2061.464974612587
 20
1720.684946421689
 30
0.0
 11
2061.478659263183
 21
1720.694528547203
 31
0.0
  0
LWPOLYLINE
  5
C1A
330
23
100
AcDbEntity
  8
SANINDUSA
100
AcDbPolyline
 90
        3
 70
   128
 43
0.0
 10
2061.328459849883
 20
1720.695266847586
 10
2061.084767928649
 20
1720.700371158397
 10
2060.554306974937
 20
1720.711482976651
  0
LWPOLYLINE
  5
C26
330
23
100
AcDbEntity
  8
SANINDUSA
100
AcDbPolyline
 90
        3
 70
   128
 43
0.0
 10
2061.498677721549
 20
1720.697551292455
 10
2061.489907255698
 20
1720.695904438471
 10
2061.480891218711
 20
1720.695251447236
  0
LINE
  5
C84
330
23
100
AcDbEntity
  8
SANINDUSA
100
AcDbLine
 10
2061.584797120353
 20
1720.795070800909
 30
0.0
 11
2061.585375299979
 21
1720.761948634958
 31
0.0
  0
LINE
  5
C85
330
23
100
AcDbEntity
  8
SANINDUSA
100
AcDbLine
 10
2061.585375299979
 20
1720.761948634958
 30
0.0
 11
2061.581474652816
 21
1720.761948634958
 31
0.0
  0
LINE
  5
C86
330
23
100
AcDbEntity
  8
SANINDUSA
100
AcDbLine
 10
2061.580897714342
 20
1720.795002736524
 30
0.0
 11
2061.581474652816
 21
1720.761948634958
 31
0.0
  0
ARC
  5
C87
330
23
100
AcDbEntity
  8
SANINDUSA
100
AcDbCircle
 10
2061.577798186487
 20
1720.794948634064
 30
0.0
 40
0.0031000000000006
100
AcDbArc
 50
0.9999999966945132
 51
90.0
  0
LINE
  5
C88
330
23
100
AcDbEntity
  8
SANINDUSA
100
AcDbLine
 10
2061.521436901217
 20
1720.798048634064
 30
0.0
 11
2061.577798186487
 21
1720.798048634064
 31
0.0
  0
ARC
  5
C89
330
23
100
AcDbEntity
  8
SANINDUSA
100
AcDbCircle
 10
2061.521436901217
 20
1720.794948634064
 30
0.0
 40
0.0031000000000006
100
AcDbArc
 50
90.0
 51
177.9999999962464
  0
LINE
  5
C8A
330
23
100
AcDbEntity
  8
SANINDUSA
100
AcDbLine
 10
2061.515484681655
 20
1720.713324946439
 30
0.0
 11
2061.518338789653
 21
1720.795056822504
 31
0.0
  0
ARC
  5
C8B
330
23
100
AcDbEntity
  8
SANINDUSA
100
AcDbCircle
 10
2061.494597286274
 20
1720.714054468054
 30
0.0
 40
0.0209001312817948
100
AcDbArc
 50
283.8877690970305
 51
357.9996775502045
  0
LINE
  5
C8C
330
23
100
AcDbEntity
  8
SANINDUSA
100
AcDbLine
 10
2061.456372848082
 20
1720.670003649866
 30
0.0
 11
2061.467547288467
 21
1720.681986843323
 31
0.0
  0
LINE
  5
C8D
330
23
100
AcDbEntity
  8
SANINDUSA
100
AcDbLine
 10
2061.352981319953
 20
1720.670003649866
 30
0.0
 11
2061.456372848082
 21
1720.670003649866
 31
0.0
  0
LINE
  5
C8E
330
23
100
AcDbEntity
  8
SANINDUSA
100
AcDbLine
 10
2061.34180676036
 20
1720.681986843323
 30
0.0
 11
2061.352981319953
 21
1720.670003649866
 31
0.0
  0
ARC
  5
C8F
330
23
100
AcDbEntity
  8
SANINDUSA
100
AcDbCircle
 10
2060.554667413907
 20
1720.728483723996
 30
0.0
 40
0.0209045648314578
100
AcDbArc
 50
182.0398035197565
 51
268.7881976900303
  0
ARC
  5
C90
330
23
100
AcDbEntity
  8
SANINDUSA
100
AcDbCircle
 10
2060.530677954732
 20
1720.727629867781
 30
0.0
 40
0.0031000852193715
100
AcDbArc
 50
2.029452270700438
 51
88.99949071764792
  0
LINE
  5
C91
330
23
100
AcDbEntity
  8
SANINDUSA
100
AcDbLine
 10
2060.53073208623
 20
1720.730729480362
 30
0.0
 11
2060.093257181227
 21
1720.73836563425
 31
0.0
  0
ARC
  5
C92
330
23
100
AcDbEntity
  8
SANINDUSA
100
AcDbCircle
 10
2060.093203078767
 20
1720.735266106396
 30
0.0
 40
0.0030999999999999
100
AcDbArc
 50
88.99999999005256
 51
154.6842608331306
  0
ARC
  5
C93
330
23
100
AcDbEntity
  8
SANINDUSA
100
AcDbCircle
 10
2060.077835671724
 20
1720.742535411779
 30
0.0
 40
0.0139000000000001
100
AcDbArc
 50
268.9999999900526
 51
334.6842608331306
  0
LINE
  5
C94
330
23
100
AcDbEntity
  8
SANINDUSA
100
AcDbLine
 10
2060.077593083274
 20
1720.728637528817
 30
0.0
 11
2060.073150314465
 21
1720.728715077635
 31
0.0
  0
ARC
  5
C95
330
23
100
AcDbEntity
  8
SANINDUSA
100
AcDbCircle
 10
2060.07351506976
 20
1720.749611894463
 30
0.0
 40
0.0209000000000002
100
AcDbArc
 50
182.0000000037536
 51
268.9999999900526
  0
LINE
  5
C96
330
23
100
AcDbEntity
  8
SANINDUSA
100
AcDbLine
 10
2060.051015358427
 20
1720.795056822504
 30
0.0
 11
2060.052627801475
 21
1720.748882494983
 31
0.0
  0
ARC
  5
C97
330
23
100
AcDbEntity
  8
SANINDUSA
100
AcDbCircle
 10
2060.047917246864
 20
1720.794948634064
 30
0.0
 40
0.0031000000000006
100
AcDbArc
 50
2.000000003753602
 51
90.0
  0
LINE
  5
C98
330
23
100
AcDbEntity
  8
SANINDUSA
100
AcDbLine
 10
2059.99155594817
 20
1720.798048634064
 30
0.0
 11
2060.047917246864
 21
1720.798048634064
 31
0.0
  0
ARC
  5
C99
330
23
100
AcDbEntity
  8
SANINDUSA
100
AcDbCircle
 10
2059.99155594817
 20
1720.794948634064
 30
0.0
 40
0.0031000000000006
100
AcDbArc
 50
90.0
 51
179.0000000033055
  0
LINE
  5
C9A
330
23
100
AcDbEntity
  8
SANINDUSA
100
AcDbLine
 10
2059.987879458884
 20
1720.761948634958
 30
0.0
 11
2059.988456420315
 21
1720.795002736524
 31
0.0
  0
LINE
  5
C9B
330
23
100
AcDbEntity
  8
SANINDUSA
100
AcDbLine
 10
2059.987879458884
 20
1720.761948634958
 30
0.0
 11
2059.983978864748
 21
1720.761948634958
 31
0.0
  0
LINE
  5
C9C
330
23
100
AcDbEntity
  8
SANINDUSA
100
AcDbLine
 10
2059.983978864748
 20
1720.761948634958
 30
0.0
 11
2059.984557014304
 21
1720.795070800909
 31
0.0
  0
ARC
  5
C9D
330
23
100
AcDbEntity
  8
SANINDUSA
100
AcDbCircle
 10
2059.99155594817
 20
1720.794948634064
 30
0.0
 40
0.0070000000000005
100
AcDbArc
 50
90.0
 51
179.0000000033055
  0
LINE
  5
C9E
330
23
100
AcDbEntity
  8
SANINDUSA
100
AcDbLine
 10
2059.99155594817
 20
1720.801948634064
 30
0.0
 11
2060.047917246864
 21
1720.801948634064
 31
0.0
  0
ARC
  5
C9F
330
23
100
AcDbEntity
  8
SANINDUSA
100
AcDbCircle
 10
2060.047917246864
 20
1720.794948634064
 30
0.0
 40
0.0070000000000005
100
AcDbArc
 50
2.000000003753602
 51
90.0
  0
ARC
  5
CA1
330
23
100
AcDbEntity
  8
SANINDUSA
100
AcDbCircle
 10
2060.07351506976
 20
1720.749611894463
 30
0.0
 40
0.0170000000000006
100
AcDbArc
 50
182.0000000037536
 51
268.9999999900526
  0
LINE
  5
CA2
330
23
100
AcDbEntity
  8
SANINDUSA
100
AcDbLine
 10
2060.077661147659
 20
1720.732536934828
 30
0.0
 11
2060.073218378851
 21
1720.732614483646
 31
0.0
  0
ARC
  5
CA3
330
23
100
AcDbEntity
  8
SANINDUSA
100
AcDbCircle
 10
2060.077835671724
 20
1720.742535411779
 30
0.0
 40
0.0100000000000007
100
AcDbArc
 50
268.9999999900526
 51
334.6842608331306
  0
ARC
  5
CA4
330
23
100
AcDbEntity
  8
SANINDUSA
100
AcDbCircle
 10
2060.093203078767
 20
1720.735266106396
 30
0.0
 40
0.0070000000000004
100
AcDbArc
 50
88.99999999005256
 51
154.6842608331306
  0
LINE
  5
CA5
330
23
100
AcDbEntity
  8
SANINDUSA
100
AcDbLine
 10
2060.53098148972
 20
1720.734625718062
 30
0.0
 11
2060.093325245612
 21
1720.742265040261
 31
0.0
  0
ARC
  5
CA6
330
23
100
AcDbEntity
  8
SANINDUSA
100
AcDbCircle
 10
2060.530677950164
 20
1720.7276298698
 30
0.0
 40
0.0070000802580626
100
AcDbArc
 50
2.028642765225465
 51
88.99970263005373
  0
ARC
  5
CA7
330
23
100
AcDbEntity
  8
SANINDUSA
100
AcDbCircle
 10
2060.554666582097
 20
1720.728482886895
 30
0.0
 40
0.0170037132891675
100
AcDbArc
 50
182.039784461432
 51
268.7881759550152
  0
LINE
  5
CA8
330
23
100
AcDbEntity
  8
SANINDUSA
100
AcDbLine
 10
2061.34437952207
 20
1720.684946421689
 30
0.0
 11
2061.354677072097
 21
1720.67390365628
 31
0.0
  0
LINE
  5
CA9
330
23
100
AcDbEntity
  8
SANINDUSA
100
AcDbLine
 10
2061.354677072097
 20
1720.67390365628
 30
0.0
 11
2061.454677095939
 21
1720.67390365628
 31
0.0
  0
LINE
  5
CAA
330
23
100
AcDbEntity
  8
SANINDUSA
100
AcDbLine
 10
2061.454677095939
 20
1720.67390365628
 30
0.0
 11
2061.464974612587
 21
1720.684946421689
 31
0.0
  0
ARC
  5
CAB
330
23
100
AcDbEntity
  8
SANINDUSA
100
AcDbCircle
 10
2061.494597416544
 20
1720.714054307561
 30
0.0
 40
0.0169999528386689
100
AcDbArc
 50
283.8876385779333
 51
358.0001210046494
  0
LINE
  5
CAC
330
23
100
AcDbEntity
  8
SANINDUSA
100
AcDbLine
 10
2061.511587013393
 20
1720.713461015547
 30
0.0
 11
2061.514441165428
 21
1720.795192930541
 31
0.0
  0
ARC
  5
CAD
330
23
100
AcDbEntity
  8
SANINDUSA
100
AcDbCircle
 10
2061.521436901217
 20
1720.794948634064
 30
0.0
 40
0.0070000000000005
100
AcDbArc
 50
90.0
 51
177.9999999962464
  0
LINE
  5
CAE
330
23
100
AcDbEntity
  8
SANINDUSA
100
AcDbLine
 10
2061.521436901217
 20
1720.801948634064
 30
0.0
 11
2061.577798186487
 21
1720.801948634064
 31
0.0
  0
ARC
  5
CAF
330
23
100
AcDbEntity
  8
SANINDUSA
100
AcDbCircle
 10
2061.577798186487
 20
1720.794948634064
 30
0.0
 40
0.0070000000000005
100
AcDbArc
 50
0.9999999966945132
 51
90.0
  0
LINE
  5
CB0
330
23
100
AcDbEntity
  8
SANINDUSA
100
AcDbLine
 10
2060.0565254257
 20
1720.74901860302
 30
0.0
 11
2060.054912982653
 21
1720.795192930541
 31
0.0
  0
LINE
  5
D0D
330
23
100
AcDbEntity
  8
SANINDUSA
100
AcDbLine
 10
2061.494453348887
 20
1720.801948634064
 30
0.0
 11
2061.521436901217
 21
1720.801948634064
 31
0.0
  0
LINE
  5
D0F
330
23
100
AcDbEntity
  8
SANINDUSA
100
AcDbLine
 10
2060.047917246864
 20
1720.801948634064
 30
0.0
 11
2060.074900799341
 21
1720.801948634064
 31
0.0
  0
LINE
  5
D10
330
23
100
AcDbEntity
  8
SANINDUSA
100
AcDbLine
 10
2060.074900799341
 20
1720.801948634064
 30
0.0
 11
2061.494453348887
 21
1720.801948634064
 31
0.0
  0
LINE
  5
D16
330
23
100
AcDbEntity
  8
SANINDUSA
100
AcDbLine
 10
2059.988979291473
 20
1720.761948634958
 30
0.0
 11
2059.987879458884
 21
1720.761948634958
 31
0.0
  0
LINE
  5
D18
330
23
100
AcDbEntity
  8
SANINDUSA
100
AcDbLine
 10
2061.581474652816
 20
1720.761948634958
 30
0.0
 11
2061.580374827911
 21
1720.761948634958
 31
0.0
  0
LINE
  5
D19
330
23
100
AcDbEntity
  8
SANINDUSA
100
AcDbLine
 10
2061.580374827911
 20
1720.761948634958
 30
0.0
 11
2061.517182579566
 21
1720.761948634958
 31
0.0
  0
LINE
  5
D1A
330
23
100
AcDbEntity
  8
SANINDUSA
100
AcDbLine
 10
2060.052171519328
 20
1720.761948634958
 30
0.0
 11
2059.988979291473
 21
1720.761948634958
 31
0.0
  0
LINE
  5
E5B
330
23
100
AcDbEntity
  8
SANINDUSA
100
AcDbLine
 10
2057.777414385672
 20
1720.694269989705
 30
0.0
 11
2057.4933877629
 21
1720.691315499222
 31
0.0
  0
LINE
  5
E5C
330
23
100
AcDbEntity
  8
SANINDUSA
100
AcDbLine
 10
2057.340972427721
 20
1720.691336122429
 30
0.0
 11
2057.056987349386
 21
1720.694267612969
 31
0.0
  0
LINE
  5
E5D
330
23
100
AcDbEntity
  8
SANINDUSA
100
AcDbLine
 10
2058.622878207515
 20
1720.707582992589
 30
0.0
 11
2059.397131635497
 21
1720.691319142556
 31
0.0
  0
ENDSEC
  0
SECTION
  2
OBJECTS
  0
DICTIONARY
  5
C
330
0
100
AcDbDictionary
281
     1
  3
ACAD_COLOR
350
1C
  3
ACAD_GROUP
350
D
  3
ACAD_LAYOUT
350
1A
  3
ACAD_MATERIAL
350
1B
  3
ACAD_MLINESTYLE
350
17
  3
ACAD_PLOTSETTINGS
350
19
  3
ACAD_PLOTSTYLENAME
350
E
  3
ACAD_TABLESTYLE
350
1D
  3
ACDBHEADERROUNDTRIPXREC
350
A160
  3
AcDbVariableDictionary
350
A14B
  0
DICTIONARY
  5
30B
330
2
100
AcDbDictionary
280
     1
281
     1
  3
ACAD_LAYERSTATES
360
30C
  0
DICTIONARY
  5
1C
102
{ACAD_REACTORS
330
C
102
}
330
C
100
AcDbDictionary
281
     1
  0
DICTIONARY
  5
D
102
{ACAD_REACTORS
330
C
102
}
330
C
100
AcDbDictionary
281
     1
  0
DICTIONARY
  5
1A
102
{ACAD_REACTORS
330
C
102
}
330
C
100
AcDbDictionary
281
     1
  3
Layout1
350
22
  3
Layout2
350
2A
  3
Model
350
26
  0
DICTIONARY
  5
1B
102
{ACAD_REACTORS
330
C
102
}
330
C
100
AcDbDictionary
281
     1
  0
DICTIONARY
  5
17
102
{ACAD_REACTORS
330
C
102
}
330
C
100
AcDbDictionary
281
     1
  3
Standard
350
18
  0
DICTIONARY
  5
19
102
{ACAD_REACTORS
330
C
102
}
330
C
100
AcDbDictionary
281
     1
  0
ACDBDICTIONARYWDFLT
  5
E
102
{ACAD_REACTORS
330
C
102
}
330
C
100
AcDbDictionary
281
     1
  3
Normal
350
F
100
AcDbDictionaryWithDefault
340
F
  0
DICTIONARY
  5
1D
102
{ACAD_REACTORS
330
C
102
}
330
C
100
AcDbDictionary
281
     1
  3
Standard
350
1E
  0
DICTIONARY
  5
A160
102
{ACAD_REACTORS
330
C
102
}
330
C
100
AcDbDictionary
281
     1
  0
DICTIONARY
  5
A14B
102
{ACAD_REACTORS
330
C
102
}
330
C
100
AcDbDictionary
281
     1
  3
CTABLESTYLE
350
A14C
  3
DIMASSOC
350
A15D
  3
HIDETEXT
350
A15C
  3
PROJECTNAME
350
A15E
  0
DICTIONARY
  5
30C
102
{ACAD_REACTORS
330
30B
102
}
330
30B
100
AcDbDictionary
281
     1
  0
LAYOUT
  5
22
102
{ACAD_XDICTIONARY
360
A161
102
}
102
{ACAD_REACTORS
330
1A
102
}
330
1A
100
AcDbPlotSettings
  1

  2
C:\Documents and Settings\Julio\Application Data\Autodesk\AutoCAD 2006\R16.2\enu\plotters\Default Windows System Printer.pc3
  4

  6

 40
0.0
 41
0.0
 42
0.0
 43
0.0
 44
0.0
 45
0.0
 46
0.0
 47
0.0
 48
0.0
 49
0.0
140
0.0
141
0.0
142
1.0
143
1.0
 70
   688
 72
     0
 73
     0
 74
     5
  7

 75
    16
147
1.0
148
0.0
149
0.0
100
AcDbLayout
  1
Layout1
 70
     1
 71
     1
 10
0.0
 20
0.0
 11
420.0
 21
297.0
 12
0.0
 22
0.0
 32
0.0
 14
1.000000000000000E+20
 24
1.000000000000000E+20
 34
1.000000000000000E+20
 15
-1.000000000000000E+20
 25
-1.000000000000000E+20
 35
-1.000000000000000E+20
146
0.0
 13
0.0
 23
0.0
 33
0.0
 16
1.0
 26
0.0
 36
0.0
 17
0.0
 27
1.0
 37
0.0
 76
     0
330
1F
  0
LAYOUT
  5
2A
102
{ACAD_XDICTIONARY
360
A165
102
}
102
{ACAD_REACTORS
330
1A
102
}
330
1A
100
AcDbPlotSettings
  1

  2
C:\Documents and Settings\Julio\Application Data\Autodesk\AutoCAD 2006\R16.2\enu\plotters\Default Windows System Printer.pc3
  4

  6

 40
0.0
 41
0.0
 42
0.0
 43
0.0
 44
0.0
 45
0.0
 46
0.0
 47
0.0
 48
0.0
 49
0.0
140
0.0
141
0.0
142
1.0
143
1.0
 70
   688
 72
     0
 73
     0
 74
     5
  7

 75
    16
147
1.0
148
0.0
149
0.0
100
AcDbLayout
  1
Layout2
 70
     1
 71
     2
 10
0.0
 20
0.0
 11
12.0
 21
9.0
 12
0.0
 22
0.0
 32
0.0
 14
0.0
 24
0.0
 34
0.0
 15
0.0
 25
0.0
 35
0.0
146
0.0
 13
0.0
 23
0.0
 33
0.0
 16
1.0
 26
0.0
 36
0.0
 17
0.0
 27
1.0
 37
0.0
 76
     0
330
27
  0
LAYOUT
  5
26
102
{ACAD_XDICTIONARY
360
A163
102
}
102
{ACAD_REACTORS
330
1A
102
}
330
1A
100
AcDbPlotSettings
  1

  2
C:\Documents and Settings\Julio\Application Data\Autodesk\AutoCAD 2006\R16.2\enu\plotters\Default Windows System Printer.pc3
  4

  6

 40
0.0
 41
0.0
 42
0.0
 43
0.0
 44
0.0
 45
0.0
 46
0.0
 47
0.0
 48
0.0
 49
0.0
140
0.0
141
0.0
142
1.0
143
1.0
 70
  1712
 72
     0
 73
     0
 74
     0
  7

 75
     0
147
1.0
148
0.0
149
0.0
100
AcDbLayout
  1
Model
 70
     1
 71
     0
 10
0.0
 20
0.0
 11
12.0
 21
9.0
 12
0.0
 22
0.0
 32
0.0
 14
0.0
 24
0.0
 34
0.0
 15
0.0
 25
0.0
 35
0.0
146
0.0
 13
0.0
 23
0.0
 33
0.0
 16
1.0
 26
0.0
 36
0.0
 17
0.0
 27
1.0
 37
0.0
 76
     0
330
23
  0
MLINESTYLE
  5
18
102
{ACAD_REACTORS
330
17
102
}
330
17
100
AcDbMlineStyle
  2
STANDARD
 70
     0
  3

 62
   256
 51
90.0
 52
90.0
 71
     2
 49
0.5
 62
   256
  6
BYLAYER
 49
-0.5
 62
   256
  6
BYLAYER
  0
ACDBPLACEHOLDER
  5
F
102
{ACAD_REACTORS
330
E
102
}
330
E
  0
TABLESTYLE
  5
1E
102
{ACAD_REACTORS
330
1D
102
}
330
1D
100
AcDbTableStyle
  3
Standard
 70
     0
 71
     0
 40
1.5
 41
1.5
280
     0
281
     0
  7
Standard
140
4.5
170
     2
 62
     0
 63
     7
283
     0
274
    -2
284
     1
 64
     0
275
    -2
285
     1
 65
     0
276
    -2
286
     1
 66
     0
277
    -2
287
     1
 67
     0
278
    -2
288
     1
 68
     0
279
    -2
289
     1
 69
     0
  7
Standard
140
6.0
170
     5
 62
     0
 63
     7
283
     0
274
    -2
284
     1
 64
     0
275
    -2
285
     1
 65
     0
276
    -2
286
     1
 66
     0
277
    -2
287
     1
 67
     0
278
    -2
288
     1
 68
     0
279
    -2
289
     1
 69
     0
  7
Standard
140
4.5
170
     5
 62
     0
 63
     7
283
     0
274
    -2
284
     1
 64
     0
275
    -2
285
     1
 65
     0
276
    -2
286
     1
 66
     0
277
    -2
287
     1
 67
     0
278
    -2
288
     1
 68
     0
279
    -2
289
     1
 69
     0
  0
DICTIONARYVAR
  5
A14C
102
{ACAD_REACTORS
330
A14B
102
}
330
A14B
100
DictionaryVariables
280
     0
  1
STANDARD
  0
DICTIONARYVAR
  5
A15D
102
{ACAD_REACTORS
330
A14B
102
}
330
A14B
100
DictionaryVariables
280
     0
  1
2
  0
DICTIONARYVAR
  5
A15C
102
{ACAD_REACTORS
330
A14B
102
}
330
A14B
100
DictionaryVariables
280
     0
  1
1
  0
DICTIONARYVAR
  5
A15E
102
{ACAD_REACTORS
330
A14B
102
}
330
A14B
100
DictionaryVariables
280
     0
  1

  0
DICTIONARY
  5
A161
330
22
100
AcDbDictionary
280
     1
281
     1
  3
ACAD_XREC_ROUNDTRIP
360
A162
  0
DICTIONARY
  5
A165
330
2A
100
AcDbDictionary
280
     1
281
     1
  3
ACAD_XREC_ROUNDTRIP
360
A166
  0
DICTIONARY
  5
A163
330
26
100
AcDbDictionary
280
     1
281
     1
  3
ACAD_XREC_ROUNDTRIP
360
A164
  0
XRECORD
  5
A162
102
{ACAD_REACTORS
330
A161
102
}
330
A161
100
AcDbXrecord
280
     1
102
SHADEPLOT
 70
     0
102
SHADEPLOTRESLEVEL
 70
     2
102
SHADEPLOTCUSTOMDPI
 70
   300
  0
XRECORD
  5
A166
102
{ACAD_REACTORS
330
A165
102
}
330
A165
100
AcDbXrecord
280
     1
102
SHADEPLOT
 70
     0
102
SHADEPLOTRESLEVEL
 70
     2
102
SHADEPLOTCUSTOMDPI
 70
   300
  0
XRECORD
  5
A164
102
{ACAD_REACTORS
330
A163
102
}
330
A163
100
AcDbXrecord
280
     1
102
SHADEPLOT
 70
     0
102
SHADEPLOTRESLEVEL
 70
     2
102
SHADEPLOTCUSTOMDPI
 70
   300
  0
ENDSEC
  0
EOF
