  0
SECTION
  2
HEADER
  9
$ACADVER
  1
AC1015
  9
$ACADMAINTVER
 70
    20
  9
$DWGCODEPAGE
  3
ANSI_1252
  9
$INSBASE
 10
0.0
 20
0.0
 30
0.0
  9
$EXTMIN
 10
5168.427789610021
 20
2756.539524642936
 30
0.0
  9
$EXTMAX
 10
5172.121359592784
 20
2757.289833372849
 30
0.0
  9
$LIMMIN
 10
0.0
 20
0.0
  9
$LIMMAX
 10
420.0
 20
297.0
  9
$ORTHOMODE
 70
     1
  9
$REGENMODE
 70
     1
  9
$FILLMODE
 70
     1
  9
$QTEXTMODE
 70
     0
  9
$MIRRTEXT
 70
     1
  9
$LTSCALE
 40
1.0
  9
$ATTMODE
 70
     1
  9
$TEXTSIZE
 40
2.5
  9
$TRACEWID
 40
1.0
  9
$TEXTSTYLE
  7
SANINDUSA
  9
$CLAYER
  8
0
  9
$CELTYPE
  6
ByLayer
  9
$CECOLOR
 62
   256
  9
$CELTSCALE
 40
1.0
  9
$DISPSILH
 70
     0
  9
$DIMSCALE
 40
1.0
  9
$DIMASZ
 40
2.0
  9
$DIMEXO
 40
1.0
  9
$DIMDLI
 40
1.0
  9
$DIMRND
 40
0.0
  9
$DIMDLE
 40
0.0
  9
$DIMEXE
 40
1.0
  9
$DIMTP
 40
0.0
  9
$DIMTM
 40
0.0
  9
$DIMTXT
 40
2.0
  9
$DIMCEN
 40
0.0
  9
$DIMTSZ
 40
0.0
  9
$DIMTOL
 70
     0
  9
$DIMLIM
 70
     0
  9
$DIMTIH
 70
     0
  9
$DIMTOH
 70
     0
  9
$DIMSE1
 70
     0
  9
$DIMSE2
 70
     0
  9
$DIMTAD
 70
     1
  9
$DIMZIN
 70
     8
  9
$DIMBLK
  1

  9
$DIMASO
 70
     1
  9
$DIMSHO
 70
     1
  9
$DIMPOST
  1

  9
$DIMAPOST
  1

  9
$DIMALT
 70
     0
  9
$DIMALTD
 70
     3
  9
$DIMALTF
 40
0.03937007874016
  9
$DIMLFAC
 40
1.0
  9
$DIMTOFL
 70
     1
  9
$DIMTVP
 40
0.0
  9
$DIMTIX
 70
     0
  9
$DIMSOXD
 70
     0
  9
$DIMSAH
 70
     0
  9
$DIMBLK1
  1

  9
$DIMBLK2
  1

  9
$DIMSTYLE
  2
SANINDUSA
  9
$DIMCLRD
 70
   256
  9
$DIMCLRE
 70
   256
  9
$DIMCLRT
 70
   256
  9
$DIMTFAC
 40
1.0
  9
$DIMGAP
 40
1.0
  9
$DIMJUST
 70
     0
  9
$DIMSD1
 70
     0
  9
$DIMSD2
 70
     0
  9
$DIMTOLJ
 70
     0
  9
$DIMTZIN
 70
     8
  9
$DIMALTZ
 70
     0
  9
$DIMALTTZ
 70
     0
  9
$DIMUPT
 70
     0
  9
$DIMDEC
 70
     1
  9
$DIMTDEC
 70
     1
  9
$DIMALTU
 70
     2
  9
$DIMALTTD
 70
     3
  9
$DIMTXSTY
  7
SANINDUSA
  9
$DIMAUNIT
 70
     0
  9
$DIMADEC
 70
     1
  9
$DIMALTRND
 40
0.0
  9
$DIMAZIN
 70
     0
  9
$DIMDSEP
 70
    44
  9
$DIMATFIT
 70
     3
  9
$DIMFRAC
 70
     0
  9
$DIMLDRBLK
  1

  9
$DIMLUNIT
 70
     2
  9
$DIMLWD
 70
    -1
  9
$DIMLWE
 70
    -1
  9
$DIMTMOVE
 70
     0
  9
$LUNITS
 70
     2
  9
$LUPREC
 70
     4
  9
$SKETCHINC
 40
1.0
  9
$FILLETRAD
 40
3.0
  9
$AUNITS
 70
     0
  9
$AUPREC
 70
     0
  9
$MENU
  1
.
  9
$ELEVATION
 40
0.0
  9
$PELEVATION
 40
0.0
  9
$THICKNESS
 40
0.0
  9
$LIMCHECK
 70
     0
  9
$CHAMFERA
 40
10.0
  9
$CHAMFERB
 40
10.0
  9
$CHAMFERC
 40
20.0
  9
$CHAMFERD
 40
0.0
  9
$SKPOLY
 70
     0
  9
$TDCREATE
 40
2454316.460914711
  9
$TDUCREATE
 40
2454316.460914711
  9
$TDUPDATE
 40
2454478.651774803
  9
$TDUUPDATE
 40
2454478.651774803
  9
$TDINDWG
 40
0.0021733912
  9
$TDUSRTIMER
 40
0.0021733912
  9
$USRTIMER
 70
     1
  9
$ANGBASE
 50
0.0
  9
$ANGDIR
 70
     0
  9
$PDMODE
 70
     0
  9
$PDSIZE
 40
0.0
  9
$PLINEWID
 40
0.0
  9
$SPLFRAME
 70
     0
  9
$SPLINETYPE
 70
     6
  9
$SPLINESEGS
 70
     8
  9
$HANDSEED
  5
2934
  9
$SURFTAB1
 70
     6
  9
$SURFTAB2
 70
     6
  9
$SURFTYPE
 70
     6
  9
$SURFU
 70
     6
  9
$SURFV
 70
     6
  9
$UCSBASE
  2

  9
$UCSNAME
  2

  9
$UCSORG
 10
0.0
 20
0.0
 30
0.0
  9
$UCSXDIR
 10
1.0
 20
0.0
 30
0.0
  9
$UCSYDIR
 10
0.0
 20
1.0
 30
0.0
  9
$UCSORTHOREF
  2

  9
$UCSORTHOVIEW
 70
     0
  9
$UCSORGTOP
 10
0.0
 20
0.0
 30
0.0
  9
$UCSORGBOTTOM
 10
0.0
 20
0.0
 30
0.0
  9
$UCSORGLEFT
 10
0.0
 20
0.0
 30
0.0
  9
$UCSORGRIGHT
 10
0.0
 20
0.0
 30
0.0
  9
$UCSORGFRONT
 10
0.0
 20
0.0
 30
0.0
  9
$UCSORGBACK
 10
0.0
 20
0.0
 30
0.0
  9
$PUCSBASE
  2

  9
$PUCSNAME
  2

  9
$PUCSORG
 10
0.0
 20
0.0
 30
0.0
  9
$PUCSXDIR
 10
1.0
 20
0.0
 30
0.0
  9
$PUCSYDIR
 10
0.0
 20
1.0
 30
0.0
  9
$PUCSORTHOREF
  2

  9
$PUCSORTHOVIEW
 70
     0
  9
$PUCSORGTOP
 10
0.0
 20
0.0
 30
0.0
  9
$PUCSORGBOTTOM
 10
0.0
 20
0.0
 30
0.0
  9
$PUCSORGLEFT
 10
0.0
 20
0.0
 30
0.0
  9
$PUCSORGRIGHT
 10
0.0
 20
0.0
 30
0.0
  9
$PUCSORGFRONT
 10
0.0
 20
0.0
 30
0.0
  9
$PUCSORGBACK
 10
0.0
 20
0.0
 30
0.0
  9
$USERI1
 70
     0
  9
$USERI2
 70
     0
  9
$USERI3
 70
     0
  9
$USERI4
 70
     0
  9
$USERI5
 70
     0
  9
$USERR1
 40
0.0
  9
$USERR2
 40
0.0
  9
$USERR3
 40
0.0
  9
$USERR4
 40
0.0
  9
$USERR5
 40
0.0
  9
$WORLDVIEW
 70
     1
  9
$SHADEDGE
 70
     3
  9
$SHADEDIF
 70
    70
  9
$TILEMODE
 70
     1
  9
$MAXACTVP
 70
    64
  9
$PINSBASE
 10
0.0
 20
0.0
 30
0.0
  9
$PLIMCHECK
 70
     0
  9
$PEXTMIN
 10
1.000000000000000E+20
 20
1.000000000000000E+20
 30
1.000000000000000E+20
  9
$PEXTMAX
 10
-1.000000000000000E+20
 20
-1.000000000000000E+20
 30
-1.000000000000000E+20
  9
$PLIMMIN
 10
0.0
 20
0.0
  9
$PLIMMAX
 10
420.0
 20
297.0
  9
$UNITMODE
 70
     0
  9
$VISRETAIN
 70
     1
  9
$PLINEGEN
 70
     0
  9
$PSLTSCALE
 70
     1
  9
$TREEDEPTH
 70
  3020
  9
$CMLSTYLE
  2
Standard
  9
$CMLJUST
 70
     0
  9
$CMLSCALE
 40
20.0
  9
$PROXYGRAPHICS
 70
     1
  9
$MEASUREMENT
 70
     1
  9
$CELWEIGHT
370
    -1
  9
$ENDCAPS
280
     0
  9
$JOINSTYLE
280
     0
  9
$LWDISPLAY
290
     0
  9
$INSUNITS
 70
     4
  9
$HYPERLINKBASE
  1

  9
$STYLESHEET
  1
sanindusa.ctb
  9
$XEDIT
290
     1
  9
$CEPSNTYPE
380
     0
  9
$PSTYLEMODE
290
     1
  9
$FINGERPRINTGUID
  2
{B180EC98-789D-4C55-8882-2EED14507536}
  9
$VERSIONGUID
  2
{E70271EE-D9AA-4149-9798-6CDC2C5143CD}
  9
$EXTNAMES
290
     1
  9
$PSVPSCALE
 40
0.0
  9
$OLESTARTUP
290
     0
  0
ENDSEC
  0
SECTION
  2
CLASSES
  0
CLASS
  1
ACDBDICTIONARYWDFLT
  2
AcDbDictionaryWithDefault
  3
ObjectDBX Classes
 90
        0
280
     0
281
     0
  0
CLASS
  1
ACDBPLACEHOLDER
  2
AcDbPlaceHolder
  3
ObjectDBX Classes
 90
        0
280
     0
281
     0
  0
CLASS
  1
LAYOUT
  2
AcDbLayout
  3
ObjectDBX Classes
 90
        0
280
     0
281
     0
  0
CLASS
  1
DICTIONARYVAR
  2
AcDbDictionaryVar
  3
ObjectDBX Classes
 90
        0
280
     0
281
     0
  0
CLASS
  1
DIMASSOC
  2
AcDbDimAssoc
  3
"AcDbDimAssoc|Product Desc:     AcDim ARX App For Dimension|Company:          Autodesk, Inc.|WEB Address:      www.autodesk.com"
 90
    32768
280
     0
281
     0
  0
CLASS
  1
TABLESTYLE
  2
AcDbTableStyle
  3
ObjectDBX Classes
 90
     2047
280
     0
281
     0
  0
ENDSEC
  0
SECTION
  2
TABLES
  0
TABLE
  2
VPORT
  5
8
330
0
100
AcDbSymbolTable
 70
     2
  0
VPORT
  5
292C
330
8
100
AcDbSymbolTableRecord
100
AcDbViewportTableRecord
  2
*Active
 70
     0
 10
0.0
 20
0.0
 11
1.0
 21
1.0
 12
5170.274574601402
 22
2756.924077233033
 13
0.0
 23
0.0
 14
10.0
 24
10.0
 15
10.0
 25
10.0
 16
0.0
 26
0.0
 36
1.0
 17
0.0
 27
0.0
 37
0.0
 40
2.347206728786792
 41
1.579579579579579
 42
50.0
 43
0.0
 44
0.0
 50
0.0
 51
0.0
 71
     0
 72
   100
 73
     1
 74
     2
 75
     0
 76
     0
 77
     0
 78
     0
281
     0
 65
     1
110
0.0
120
0.0
130
0.0
111
1.0
121
0.0
131
0.0
112
0.0
122
1.0
132
0.0
 79
     0
146
0.0
  0
ENDTAB
  0
TABLE
  2
LTYPE
  5
5
330
0
100
AcDbSymbolTable
 70
     5
  0
LTYPE
  5
14
330
5
100
AcDbSymbolTableRecord
100
AcDbLinetypeTableRecord
  2
ByBlock
 70
     0
  3

 72
    65
 73
     0
 40
0.0
  0
LTYPE
  5
15
330
5
100
AcDbSymbolTableRecord
100
AcDbLinetypeTableRecord
  2
ByLayer
 70
     0
  3

 72
    65
 73
     0
 40
0.0
  0
LTYPE
  5
16
330
5
100
AcDbSymbolTableRecord
100
AcDbLinetypeTableRecord
  2
Continuous
 70
     0
  3
Solid line
 72
    65
 73
     0
 40
0.0
  0
LTYPE
  5
2D
330
5
100
AcDbSymbolTableRecord
100
AcDbLinetypeTableRecord
  2
DASHDOT
 70
     0
  3
Dash dot __ . __ . __ . __ . __ . __ . __ . __
 72
    65
 73
     4
 40
25.4
 49
12.7
 74
     0
 49
-6.349999999999999
 74
     0
 49
0.0
 74
     0
 49
-6.349999999999999
 74
     0
  0
LTYPE
  5
2E
330
5
100
AcDbSymbolTableRecord
100
AcDbLinetypeTableRecord
  2
HIDDEN
 70
     0
  3
Hidden __ __ __ __ __ __ __ __ __ __ __ __ __ _
 72
    65
 73
     2
 40
9.524999999999998
 49
6.349999999999999
 74
     0
 49
-3.174999999999999
 74
     0
  0
LTYPE
  5
C75
330
5
100
AcDbSymbolTableRecord
100
AcDbLinetypeTableRecord
  2
AM_ISO02W050
 70
     0
  3
__ __ __ __ __ __ __ __ __ __ __ __ __ __ __
 72
    65
 73
     2
 40
7.5
 49
6.0
 74
     0
 49
-1.5
 74
     0
  0
LTYPE
  5
C76
330
5
100
AcDbSymbolTableRecord
100
AcDbLinetypeTableRecord
  2
AM_ISO08W050
 70
     0
  3
____ . ____ . ____ . ____ . ____ . ____ . ____
 72
    65
 73
     4
 40
18.0
 49
12.0
 74
     0
 49
-1.5
 74
     0
 49
3.0
 74
     0
 49
-1.5
 74
     0
  0
ENDTAB
  0
TABLE
  2
LAYER
  5
2
102
{ACAD_XDICTIONARY
360
1051
102
}
330
0
100
AcDbSymbolTable
 70
    16
  0
LAYER
  5
10
330
2
100
AcDbSymbolTableRecord
100
AcDbLayerTableRecord
  2
0
 70
     0
 62
     7
  6
Continuous
370
    -3
390
F
  0
LAYER
  5
2F
330
2
100
AcDbSymbolTableRecord
100
AcDbLayerTableRecord
  2
1
 70
     0
 62
     1
  6
Continuous
370
    -3
390
F
  0
LAYER
  5
30
330
2
100
AcDbSymbolTableRecord
100
AcDbLayerTableRecord
  2
2
 70
     0
 62
     2
  6
Continuous
370
    -3
390
F
  0
LAYER
  5
31
330
2
100
AcDbSymbolTableRecord
100
AcDbLayerTableRecord
  2
3
 70
     0
 62
     3
  6
Continuous
370
    -3
390
F
  0
LAYER
  5
32
330
2
100
AcDbSymbolTableRecord
100
AcDbLayerTableRecord
  2
4
 70
     0
 62
     4
  6
Continuous
370
    -3
390
F
  0
LAYER
  5
33
330
2
100
AcDbSymbolTableRecord
100
AcDbLayerTableRecord
  2
5
 70
     0
 62
     5
  6
Continuous
370
    -3
390
F
  0
LAYER
  5
34
330
2
100
AcDbSymbolTableRecord
100
AcDbLayerTableRecord
  2
6
 70
     0
 62
     6
  6
Continuous
370
    -3
390
F
  0
LAYER
  5
35
330
2
100
AcDbSymbolTableRecord
100
AcDbLayerTableRecord
  2
7
 70
     0
 62
     7
  6
Continuous
370
    -3
390
F
  0
LAYER
  5
36
330
2
100
AcDbSymbolTableRecord
100
AcDbLayerTableRecord
  2
cen
 70
     0
 62
     7
  6
DASHDOT
370
    -3
390
F
  0
LAYER
  5
37
330
2
100
AcDbSymbolTableRecord
100
AcDbLayerTableRecord
  2
hid
 70
     0
 62
     7
  6
HIDDEN
370
    -3
390
F
  0
LAYER
  5
5D6
330
2
100
AcDbSymbolTableRecord
100
AcDbLayerTableRecord
  2
hatch
 70
     0
 62
     9
  6
Continuous
370
    -3
390
F
  0
LAYER
  5
8AF
330
2
100
AcDbSymbolTableRecord
100
AcDbLayerTableRecord
  2
9
 70
     0
 62
     9
  6
Continuous
370
    -3
390
F
  0
LAYER
  5
8F8
330
2
100
AcDbSymbolTableRecord
100
AcDbLayerTableRecord
  2
leg fin
 70
     0
 62
     9
  6
Continuous
370
    -3
390
F
  0
LAYER
  5
91D
330
2
100
AcDbSymbolTableRecord
100
AcDbLayerTableRecord
  2
cotas
 70
     0
 62
     1
  6
Continuous
370
    -3
390
F
  0
LAYER
  5
92F
330
2
100
AcDbSymbolTableRecord
100
AcDbLayerTableRecord
  2
Defpoints
 70
     0
 62
     7
  6
Continuous
290
     0
370
    -3
390
F
  0
LAYER
  5
C7B
330
2
100
AcDbSymbolTableRecord
100
AcDbLayerTableRecord
  2
SANINDUSA
 70
     0
 62
     3
  6
Continuous
370
    -3
390
F
  0
ENDTAB
  0
TABLE
  2
STYLE
  5
3
330
0
100
AcDbSymbolTable
 70
     4
  0
STYLE
  5
11
330
3
100
AcDbSymbolTableRecord
100
AcDbTextStyleTableRecord
  2
Standard
 70
     0
 40
0.0
 41
1.0
 50
0.0
 71
     0
 42
2.5
  3
Avgardn.ttf
  4

1001
ACAD
1000
AvantGarde Bk BT
1071
       34
  0
STYLE
  5
2C
330
3
100
AcDbSymbolTableRecord
100
AcDbTextStyleTableRecord
  2

 70
     1
 40
0.0
 41
1.0
 50
0.0
 71
     0
 42
2.5
  3
ltypeshp.shx
  4

  0
STYLE
  5
91F
330
3
100
AcDbSymbolTableRecord
100
AcDbTextStyleTableRecord
  2
SANINDUSA
 70
     0
 40
0.0
 41
1.0
 50
0.0
 71
     0
 42
2.5
  3
verdana.TTF
  4

1001
ACAD
1000
Verdana
1071
       34
  0
STYLE
  5
C7C
330
3
100
AcDbSymbolTableRecord
100
AcDbTextStyleTableRecord
  2
futura
 70
     0
 40
0.0
 41
1.0
 50
0.0
 71
     0
 42
2.5
  3
ZURCHN.TTF
  4

1001
ACAD
1000
Zurich BT
1071
       34
  0
ENDTAB
  0
TABLE
  2
VIEW
  5
6
330
0
100
AcDbSymbolTable
 70
     0
  0
ENDTAB
  0
TABLE
  2
UCS
  5
7
330
0
100
AcDbSymbolTable
 70
     0
  0
ENDTAB
  0
TABLE
  2
APPID
  5
9
330
0
100
AcDbSymbolTable
 70
    10
  0
APPID
  5
12
330
9
100
AcDbSymbolTableRecord
100
AcDbRegAppTableRecord
  2
ACAD
 70
     0
  0
APPID
  5
3A
330
9
100
AcDbSymbolTableRecord
100
AcDbRegAppTableRecord
  2
DCO15
 70
     0
  0
APPID
  5
EEE
330
9
100
AcDbSymbolTableRecord
100
AcDbRegAppTableRecord
  2
ACAD_DSTYLE_DIMTEXT_FILL
 70
     0
  0
APPID
  5
EEF
330
9
100
AcDbSymbolTableRecord
100
AcDbRegAppTableRecord
  2
ACAD_DSTYLE_DIMEXT_LENGTH
 70
     0
  0
APPID
  5
EF0
330
9
100
AcDbSymbolTableRecord
100
AcDbRegAppTableRecord
  2
ACAD_DSTYLE_DIMEXT_ENABLED
 70
     0
  0
APPID
  5
EF1
330
9
100
AcDbSymbolTableRecord
100
AcDbRegAppTableRecord
  2
ACAD_DSTYLE_DIM_LINETYPE
 70
     0
  0
APPID
  5
EF2
330
9
100
AcDbSymbolTableRecord
100
AcDbRegAppTableRecord
  2
ACAD_DSTYLE_DIM_EXT1_LINETYPE
 70
     0
  0
APPID
  5
EF3
330
9
100
AcDbSymbolTableRecord
100
AcDbRegAppTableRecord
  2
ACAD_DSTYLE_DIM_EXT2_LINETYPE
 70
     0
  0
APPID
  5
FAF
330
9
100
AcDbSymbolTableRecord
100
AcDbRegAppTableRecord
  2
ACAD_DSTYLE_DIMJOGGED_JOGANGLE_SYMBOL
 70
     0
  0
APPID
  5
1013
330
9
100
AcDbSymbolTableRecord
100
AcDbRegAppTableRecord
  2
ACAD_DSTYLE_DIMARC_LENGTH_SYMBOL
 70
     0
  0
ENDTAB
  0
TABLE
  2
DIMSTYLE
  5
A
330
0
100
AcDbSymbolTable
 70
     3
100
AcDbDimStyleTable
 71
     1
340
921
  0
DIMSTYLE
105
45
330
A
100
AcDbSymbolTableRecord
100
AcDbDimStyleTableRecord
  2
STANDARD
 70
     0
289
     0
340
11
  0
DIMSTYLE
105
921
330
A
100
AcDbSymbolTableRecord
100
AcDbDimStyleTableRecord
  2
SANINDUSA
 70
     0
 41
2.0
 42
1.0
 43
1.0
 44
1.0
 73
     0
 74
     0
 77
     1
 78
     8
140
2.0
141
0.0
143
0.03937007874016
147
1.0
171
     3
172
     1
176
   256
177
   256
178
   256
179
     1
271
     1
272
     1
274
     3
278
    44
283
     0
284
     8
340
91F
371
    -1
372
    -1
1001
ACAD_DSTYLE_DIMEXT_LENGTH
1070
   378
1040
1.0
1001
ACAD_DSTYLE_DIMEXT_ENABLED
1070
   383
1070
     0
1001
ACAD_DSTYLE_DIMARC_LENGTH_SYMBOL
1070
   379
1070
     0
1001
ACAD_DSTYLE_DIMJOGGED_JOGANGLE_SYMBOL
1070
   384
1040
1.570796326794896
  0
DIMSTYLE
105
C7D
330
A
100
AcDbSymbolTableRecord
100
AcDbDimStyleTableRecord
  2
AM_ISO
 70
     0
  4
"
 41
2.5
 42
1.0
 43
10.0
 44
1.0
 47
0.1
 48
0.1
 73
     0
 74
     0
 77
     1
 78
     8
 79
     2
140
3.5
141
0.0
143
0.0393701
146
0.71
147
1.5
172
     1
176
   256
177
   256
178
     2
271
     2
272
     3
274
     4
283
     0
284
     8
340
11
371
    -1
372
    -1
  0
ENDTAB
  0
TABLE
  2
BLOCK_RECORD
  5
1
330
0
100
AcDbSymbolTable
 70
   121
  0
BLOCK_RECORD
  5
1F
330
1
100
AcDbSymbolTableRecord
100
AcDbBlockTableRecord
  2
*Model_Space
340
22
  0
BLOCK_RECORD
  5
1B
330
1
100
AcDbSymbolTableRecord
100
AcDbBlockTableRecord
  2
*Paper_Space
340
1E
  0
BLOCK_RECORD
  5
23
330
1
100
AcDbSymbolTableRecord
100
AcDbBlockTableRecord
  2
*Paper_Space0
340
26
  0
BLOCK_RECORD
  5
919
330
1
100
AcDbSymbolTableRecord
100
AcDbBlockTableRecord
  2
_DotSmall
340
0
  0
BLOCK_RECORD
  5
922
330
1
100
AcDbSymbolTableRecord
100
AcDbBlockTableRecord
  2
base para cotas
340
0
310
2800000020000000200000000100080000000000000400000000000000000000000000000000000000000000000080000080000000808000800000008000800080800000C0C0C000C0DCC000F0CAA6000020400000206000002080000020A0000020C0000020E00000400000004020000040400000406000004080000040A0
310
000040C0000040E00000600000006020000060400000606000006080000060A0000060C0000060E00000800000008020000080400000806000008080000080A0000080C0000080E00000A0000000A0200000A0400000A0600000A0800000A0A00000A0C00000A0E00000C0000000C0200000C0400000C0600000C0800000C0
310
A00000C0C00000C0E00000E0000000E0200000E0400000E0600000E0800000E0A00000E0C00000E0E00040000000400020004000400040006000400080004000A0004000C0004000E00040200000402020004020400040206000402080004020A0004020C0004020E000404000004040200040404000404060004040800040
310
40A0004040C0004040E00040600000406020004060400040606000406080004060A0004060C0004060E00040800000408020004080400040806000408080004080A0004080C0004080E00040A0000040A0200040A0400040A0600040A0800040A0A00040A0C00040A0E00040C0000040C0200040C0400040C0600040C08000
310
40C0A00040C0C00040C0E00040E0000040E0200040E0400040E0600040E0800040E0A00040E0C00040E0E00080000000800020008000400080006000800080008000A0008000C0008000E00080200000802020008020400080206000802080008020A0008020C0008020E00080400000804020008040400080406000804080
310
008040A0008040C0008040E00080600000806020008060400080606000806080008060A0008060C0008060E00080800000808020008080400080806000808080008080A0008080C0008080E00080A0000080A0200080A0400080A0600080A0800080A0A00080A0C00080A0E00080C0000080C0200080C0400080C0600080C0
310
800080C0A00080C0C00080C0E00080E0000080E0200080E0400080E0600080E0800080E0A00080E0C00080E0E000C0000000C0002000C0004000C0006000C0008000C000A000C000C000C000E000C0200000C0202000C0204000C0206000C0208000C020A000C020C000C020E000C0400000C0402000C0404000C0406000C0
310
408000C040A000C040C000C040E000C0600000C0602000C0604000C0606000C0608000C060A000C060C000C060E000C0800000C0802000C0804000C0806000C0808000C080A000C080C000C080E000C0A00000C0A02000C0A04000C0A06000C0A08000C0A0A000C0A0C000C0A0E000C0C00000C0C02000C0C04000C0C06000
310
C0C08000C0C0A000F0FBFF00A4A0A000808080000000FF0000FF000000FFFF00FF000000FF00FF00FFFF0000FFFFFF00A4A4A4A4A4A4A4A4A4A4A4A4A4A4A4A4A4A4A4A4A4A4A4A4A4A4A4A4A4A4A4A4A4A4A4A4A4A4A4A4A4A4A4A4A4A4A4A4A4A4A4A4A4A4A4A4A4A4A4A4A4A4A4A4A4A4A4A4A4A4A4A4A4A4A4A4A4A4A4
310
A4A4A4A4A4A4A4A4A4A4A4A4A4A4A4A4A4A4A4A4A4A4A4A4A4A4A4A4A4A4A4A4A4A4A4A4A4A4A4A4A4A4A4A4A4A4A4A4A4A4A4A4A4A4A4A4A4A4A4A4A4A4A4A4A4A4A4A4A4A4A4A4A4A4A4A4A4A4A4A4A4A4A4A4A4A4A4A4A4A4A4A4A4A4A4A4A4A4A4A4A4A4A4A4A4A4A4A4A4A4A4A4A4A4A4A4A4A4A4A4A4A4A4A4A4A4A4
310
A4A4A4A4A4A4A4A4A4A4A4A4A4A4A4A4A4A4A4A4A4A4A4A4A4A4A4A4A4A4A4A4A4A4A4A4A4A4A4A4A4A4A4A4A4A4A4A4A4A4A4A4A4A4A4A4A4A4A4A4A4A4A4A4A4A4A4A4A4A4A4A4A4A4A4A4A4A4A4A4A4A4A4A4A4A4A4A4A4A4A4A4A4A4A4A4A4A4A4A4A4A4A4A4A4A4A4A4A4A4A4A4A4A4A4A4A4A4A4A4A4A4A4A4A4A4A4
310
A4A4A4A4A4A4A4A4A4A4A4A4A4A4A4A4A4A4A4A4A4A4A4A4A4A4A4A4A4A4A4A4A4A4A4A4A4A4A4A4A4A4A4A4A4A4A4A4A4A4A4A4A4A4A4A4A4A4A4A4A4A4A4A4A4A4A4A4A4A4A4A4A4A4A4A4A4A4A4A4A4A4A4A4A4A4A4A4A4A4A4A4A4A4A4A4A4A4A4A4A4A4A4A4A4A4A4A4A4A4A4A4A4A4A4A4F9F9F9F9F9F9F9F9F9F9F9
310
F9F9F9F9F9F9F9F9F9F9F9F9F9F9F9F9F9F9F9A4A4F9F9F9F9F9F9F9F9F9F9F9F9F9F9F9F9F9F9F9F9F9F9F9F9F9F9F9F9F9F9A4A4F9F9F9F9F9F9F9F9F9F9F9F9F9F9F9F9F9F9F9F9F9F9F9F9F9F9F9F9F9F9A4A4F9A4A4A4A4A4A4A4A4A4A4A4A4A4A4A4A4A4A4A4A4A4A4A4A4A4A4A4A4F9A4A4A4A4A4A4A4A4A4A4A4A4
310
A4A4A4A4A4A4A4A4A4A4A4A4A4A4A4A4A4A4A4A4A4A4A4A4A4A4A4A4A4A4A4A4A4A4A4A4A4A4A4A4A4A4A4A4A4A4A4A4A4A4A4A4A4A4A4A4A4A4A4A4A4A4A4A4A4A4A4A4A4A4A4A4A4A4A4A4A4A4A4A4A4A4A4A4A4A4A4A4A4A4A4A4A4A4A4A4A4A4A4A4A4A4A4A4A4A4A4A4A4A4A4A4A4A4A4A4A4A4A4A4A4A4A4A4A4A4A4
310
A4A4A4A4A4A4A4A4A4A4A4A4A4A4A4A4A4A4A4A4A4A4A4A4A4A4A4A4A4A4A4A4A4A4A4A4A4A4A4A4A4A4A4A4A4A4A4A4A4A4A4A4A4A4A4A4A4A4A4A4A4A4A4A4A4A4A4A4A4A4A4A4A4A4A4A4A4A4A4A4A4A4A4A4A4A4A4A4A4A4A4A4A4A4A4A4A4A4A4A4A4A4A4A4A4A4A4A4A4A4A4A4A4A4A4A4A4A4A4A4A4A4A4A4A4A4A4
310
A4A4A4A4A4A4A4A4A4A4A4A4A4A4A4A4A4A4A4A4A4A4A4A4A4A4A4A4A4A4A4A4A4A4A4A4A4A4A4A4A4A4A4A4A4A4A4A4A4A4A4A4A4A4A4A4A4A4A4A4A4A4A4A4A4A4A4A4A4A4A4A4A4A4A4A4A4A4A4A4A4A4A4A4A4A4A4A4A4A4A4A4A4A4A4A4A4A4A4A4A4A4A4A4A4A4A4A4A4A4A4A4A4A4A4A4A4A4A4A4A4A4A4A4A4A4A4
310
A4A4A4A4A4A4A4A4A4A4A4A4A4A4A4A4A4A4A4A4A4A4A4A4A4A4A4A4A4A4A4A4A4A4A4A4A4A4A4A4A4A4A4A4A4A4A4A4A4A4A4A4A4A4A4A4
1001
ACAD
1000
DesignCenter Data
1002
{
1070
     1
1070
     4
1002
}
  0
BLOCK_RECORD
  5
AA8
330
1
100
AcDbSymbolTableRecord
100
AcDbBlockTableRecord
  2
_CLOSED
340
0
  0
BLOCK_RECORD
  5
B79
330
1
100
AcDbSymbolTableRecord
100
AcDbBlockTableRecord
  2
nota revisoes
340
0
1001
ACAD
1000
DesignCenter Data
1002
{
1070
     1
1070
     4
1002
}
  0
BLOCK_RECORD
  5
B8E
330
1
100
AcDbSymbolTableRecord
100
AcDbBlockTableRecord
  2
a3l
340
0
1001
ACAD
1000
DesignCenter Data
1002
{
1070
     1
1070
     4
1002
}
  0
BLOCK_RECORD
  5
B9E
330
1
100
AcDbSymbolTableRecord
100
AcDbBlockTableRecord
  2
legenda desenvolvimento
340
0
1001
ACAD
1000
DesignCenter Data
1002
{
1070
     1
1070
     4
1002
}
  0
ENDTAB
  0
ENDSEC
  0
SECTION
  2
BLOCKS
  0
BLOCK
  5
20
330
1F
100
AcDbEntity
  8
0
100
AcDbBlockBegin
  2
*Model_Space
 70
     0
 10
0.0
 20
0.0
 30
0.0
  3
*Model_Space
  1

  0
ENDBLK
  5
21
330
1F
100
AcDbEntity
  8
0
100
AcDbBlockEnd
  0
BLOCK
  5
1C
330
1B
100
AcDbEntity
 67
     1
  8
0
100
AcDbBlockBegin
  2
*Paper_Space
 70
     0
 10
0.0
 20
0.0
 30
0.0
  3
*Paper_Space
  1

  0
ENDBLK
  5
1D
330
1B
100
AcDbEntity
 67
     1
  8
0
100
AcDbBlockEnd
  0
BLOCK
  5
24
330
23
100
AcDbEntity
 67
     1
  8
0
100
AcDbBlockBegin
  2
*Paper_Space0
 70
     0
 10
0.0
 20
0.0
 30
0.0
  3
*Paper_Space0
  1

  0
ENDBLK
  5
25
330
23
100
AcDbEntity
 67
     1
  8
0
100
AcDbBlockEnd
  0
BLOCK
  5
91B
330
919
100
AcDbEntity
  8
0
100
AcDbBlockBegin
  2
_DotSmall
 70
     0
 10
0.0
 20
0.0
 30
0.0
  3
_DotSmall
  1

  0
LWPOLYLINE
  5
91A
330
919
100
AcDbEntity
  8
0
  6
ByBlock
 62
     0
100
AcDbPolyline
 90
        2
 70
     1
 43
0.5
 10
-0.0625
 20
0.0
 42
1.0
 10
0.0625
 20
0.0
 42
1.0
  0
ENDBLK
  5
91C
330
919
100
AcDbEntity
  8
0
100
AcDbBlockEnd
  0
BLOCK
  5
92A
330
922
100
AcDbEntity
  8
0
100
AcDbBlockBegin
  2
base para cotas
 70
     0
 10
0.0
 20
0.0
 30
0.0
  3
base para cotas
  1

  0
LINE
  5
B36
330
922
100
AcDbEntity
  8
cotas
100
AcDbLine
 10
0.0
 20
-30.0
 30
0.0
 11
327.1260136525398
 21
-30.0
 31
0.0
  0
LINE
  5
B37
330
922
100
AcDbEntity
  8
cotas
100
AcDbLine
 10
0.0
 20
-25.0
 30
0.0
 11
327.1260136525398
 21
-25.0
 31
0.0
  0
LINE
  5
B38
330
922
100
AcDbEntity
  8
cotas
100
AcDbLine
 10
0.0
 20
-20.0
 30
0.0
 11
327.1260136525398
 21
-20.0
 31
0.0
  0
LINE
  5
B39
330
922
100
AcDbEntity
  8
cotas
100
AcDbLine
 10
0.0
 20
-15.0
 30
0.0
 11
327.1260136525398
 21
-15.0
 31
0.0
  0
LINE
  5
B3A
330
922
100
AcDbEntity
  8
cotas
100
AcDbLine
 10
0.0
 20
-10.0
 30
0.0
 11
327.1260136525398
 21
-10.0
 31
0.0
  0
LINE
  5
B3B
330
922
100
AcDbEntity
  8
cotas
100
AcDbLine
 10
0.0
 20
0.0
 30
0.0
 11
0.0
 21
-30.0
 31
0.0
  0
LINE
  5
B3C
330
922
100
AcDbEntity
  8
cotas
100
AcDbLine
 10
327.1260136525398
 20
-30.0
 30
0.0
 11
327.1260136525398
 21
0.0
 31
0.0
  0
ENDBLK
  5
92B
330
922
100
AcDbEntity
  8
0
100
AcDbBlockEnd
  0
BLOCK
  5
AAD
330
AA8
100
AcDbEntity
  8
0
100
AcDbBlockBegin
  2
_CLOSED
 70
     0
 10
0.0
 20
0.0
 30
0.0
  3
_CLOSED
  1

  0
LINE
  5
AA9
330
AA8
100
AcDbEntity
  8
0
100
AcDbLine
 10
-1.0
 20
0.166667
 30
0.0
 11
0.0
 21
0.0
 31
0.0
  0
LINE
  5
AAA
330
AA8
100
AcDbEntity
  8
0
100
AcDbLine
 10
0.0
 20
0.0
 30
0.0
 11
-1.0
 21
-0.166667
 31
0.0
  0
LINE
  5
AAB
330
AA8
100
AcDbEntity
  8
0
100
AcDbLine
 10
-1.0
 20
0.166667
 30
0.0
 11
-1.0
 21
-0.166667
 31
0.0
  0
LINE
  5
AAC
330
AA8
100
AcDbEntity
  8
0
100
AcDbLine
 10
0.0
 20
0.0
 30
0.0
 11
-1.0
 21
0.0
 31
0.0
  0
ENDBLK
  5
AAE
330
AA8
100
AcDbEntity
  8
0
100
AcDbBlockEnd
  0
BLOCK
  5
B7C
330
B79
100
AcDbEntity
  8
0
100
AcDbBlockBegin
  2
nota revisoes
 70
     0
 10
0.0
 20
0.0
 30
0.0
  3
nota revisoes
  1

  0
CIRCLE
  5
B7A
330
B79
100
AcDbEntity
  8
4
100
AcDbCircle
 10
0.0
 20
0.0
 30
0.0
 40
13.69426055101189
  0
TEXT
  5
B7B
330
B79
100
AcDbEntity
  8
4
100
AcDbText
 10
-5.496248358154345
 20
-5.354545554066362
 30
0.0
 40
12.0
  1
1
  7
SANINDUSA
 72
     1
 11
-0.249774214433728
 21
-5.354545554066362
 31
0.0
100
AcDbText
  0
ENDBLK
  5
B7D
330
B79
100
AcDbEntity
  8
0
100
AcDbBlockEnd
  0
BLOCK
  5
B9C
330
B8E
100
AcDbEntity
  8
0
100
AcDbBlockBegin
  2
a3l
 70
     0
 10
0.0
 20
0.0
 30
0.0
  3
a3l
  1

  0
LINE
  5
B8F
330
B8E
100
AcDbEntity
  8
1
100
AcDbLine
 10
-364.2925296599447
 20
-362.1188951399395
 30
0.0
 11
-364.2925296599447
 21
-65.11889513993946
 31
0.0
  0
LINE
  5
B90
330
B8E
100
AcDbEntity
  8
4
100
AcDbLine
 10
-369.2925296599447
 20
-357.1188951399395
 30
0.0
 11
-369.2925296599447
 21
-70.11889513993946
 31
0.0
  0
LINE
  5
B91
330
B8E
100
AcDbEntity
  8
1
100
AcDbLine
 10
-784.2925296599446
 20
-65.11889513993946
 30
0.0
 11
-784.2925296599446
 21
-362.1188951399395
 31
0.0
  0
LINE
  5
B92
330
B8E
100
AcDbEntity
  8
4
100
AcDbLine
 10
-759.2925296599446
 20
-357.1188951399395
 30
0.0
 11
-759.2925296599446
 21
-70.11889513993946
 31
0.0
  0
LINE
  5
B93
330
B8E
100
AcDbEntity
  8
1
100
AcDbLine
 10
-784.2925296599446
 20
-362.1188951399395
 30
0.0
 11
-364.2925296599447
 21
-362.1188951399395
 31
0.0
  0
LINE
  5
B94
330
B8E
100
AcDbEntity
  8
4
100
AcDbLine
 10
-759.2925296599446
 20
-357.1188951399395
 30
0.0
 11
-369.2925296599447
 21
-357.1188951399395
 31
0.0
  0
LINE
  5
B95
330
B8E
100
AcDbEntity
  8
1
100
AcDbLine
 10
-654.2925296599446
 20
-357.1188951399395
 30
0.0
 11
-654.2925296599446
 21
-362.1188951399395
 31
0.0
  0
LINE
  5
B96
330
B8E
100
AcDbEntity
  8
1
100
AcDbLine
 10
-364.2925296599447
 20
-65.11889513993946
 30
0.0
 11
-784.2925296599446
 21
-65.11889513993946
 31
0.0
  0
LINE
  5
B97
330
B8E
100
AcDbEntity
  8
4
100
AcDbLine
 10
-369.2925296599447
 20
-70.11889513993946
 30
0.0
 11
-759.2925296599446
 21
-70.11889513993946
 31
0.0
  0
LINE
  5
B98
330
B8E
100
AcDbEntity
  8
1
100
AcDbLine
 10
-654.2925296599446
 20
-65.11889513993946
 30
0.0
 11
-654.2925296599446
 21
-70.11889513993946
 31
0.0
  0
LINE
  5
B99
330
B8E
100
AcDbEntity
  8
1
100
AcDbLine
 10
-549.2925296599446
 20
-70.11889513993946
 30
0.0
 11
-549.2925296599446
 21
-65.11889513993946
 31
0.0
  0
LINE
  5
B9A
330
B8E
100
AcDbEntity
  8
1
100
AcDbLine
 10
-369.2925296599447
 20
-65.11889513993946
 30
0.0
 11
-364.2925296599447
 21
-65.11889513993946
 31
0.0
  0
LINE
  5
B9B
330
B8E
100
AcDbEntity
  8
1
100
AcDbLine
 10
-549.2925296599446
 20
-357.1188951399395
 30
0.0
 11
-549.2925296599446
 21
-362.1188951399395
 31
0.0
  0
ENDBLK
  5
B9D
330
B8E
100
AcDbEntity
  8
0
100
AcDbBlockEnd
  0
BLOCK
  5
C13
330
B9E
100
AcDbEntity
  8
0
100
AcDbBlockBegin
  2
legenda desenvolvimento
 70
     2
 10
0.0
 20
0.0
 30
0.0
  3
legenda desenvolvimento
  1

  0
ATTDEF
  5
B9F
330
B9E
100
AcDbEntity
  8
1
100
AcDbText
 10
-108.606245802552
 20
55.5
 30
0.0
 40
4.0
  1
XXXXXXXXXXXXXX
 41
0.8
  7
SANINDUSA
 72
     4
 11
-87.5
 21
57.5
 31
0.0
100
AcDbAttributeDefinition
  3
Nome do Produto:
  2
PRODUTO
 70
     0
  0
ATTDEF
  5
BA0
330
B9E
100
AcDbEntity
  8
1
100
AcDbText
 10
-97.9997966101695
 20
41.25
 30
0.0
 40
3.0
  1
XXXXXXXXX
 41
0.8
  7
futura
 72
     4
 11
-87.5
 21
42.75
 31
0.0
100
AcDbAttributeDefinition
  3
Nome da Peça:
  2
PECA
 70
     0
  0
ATTDEF
  5
BA1
330
B9E
100
AcDbEntity
  8
1
100
AcDbText
 10
-133.4422431161853
 20
21.11745296763252
 30
0.0
 40
2.5
  1
X
 41
0.8
  7
SANINDUSA
 72
     4
 11
-132.5
 21
22.36745296763252
 31
0.0
100
AcDbAttributeDefinition
  3
Cod. TESTE:
  2
TESTE
 70
     0
  0
ATTDEF
  5
BA2
330
B9E
100
AcDbEntity
  8
1
100
AcDbText
 10
-124.3844862323707
 20
21.11745296763252
 30
0.0
 40
2.5
  1
XX
 41
0.8
  7
SANINDUSA
 72
     4
 11
-122.5
 21
22.36745296763252
 31
0.0
100
AcDbAttributeDefinition
  3
Cod. Ano:
  2
ANO
 70
     0
  0
ATTDEF
  5
BA3
330
B9E
100
AcDbEntity
  8
1
100
AcDbText
 10
-112.526889953052
 20
21.11745296763252
 30
0.0
 40
2.5
  1
XXX
 41
0.8
  7
SANINDUSA
 72
     4
 11
-109.700160604496
 21
22.36745296763252
 31
0.0
100
AcDbAttributeDefinition
  3
Cod. Sequência:
  2
SEQUENCIA
 70
     0
  0
ATTDEF
  5
BA4
330
B9E
100
AcDbEntity
  8
1
100
AcDbText
 10
-99.35382430979316
 20
21.11745296763252
 30
0.0
 40
2.5
  1
XX
 41
0.8
  7
SANINDUSA
 72
     4
 11
-97.46933807742244
 21
22.36745296763252
 31
0.0
100
AcDbAttributeDefinition
  3
Cod. Tipo:
  2
TIPO
 70
     0
  0
ATTDEF
  5
BA5
330
B9E
100
AcDbEntity
  8
1
100
AcDbText
 10
-87.42035911468438
 20
21.11745296763252
 30
0.0
 40
2.5
  1
XXX
 41
0.8
  7
SANINDUSA
 72
     4
 11
-84.59362976612828
 21
22.36745296763252
 31
0.0
100
AcDbAttributeDefinition
  3
Cod. Produto:
  2
PRODUTO
 70
     0
  0
ATTDEF
  5
BA6
330
B9E
100
AcDbEntity
  8
1
100
AcDbText
 10
-74.62051971917853
 20
21.11745296763252
 30
0.0
 40
2.5
  1
XXX
 41
0.8
  7
SANINDUSA
 72
     4
 11
-71.79379037062244
 21
22.36745296763252
 31
0.0
100
AcDbAttributeDefinition
  3
Cod. Peça:
  2
PECA
 70
     0
  0
ATTDEF
  5
BA7
330
B9E
100
AcDbEntity
  8
1
100
AcDbText
 10
-61.10603446650329
 20
21.11745296763252
 30
0.0
 40
2.5
  1
XX
 41
0.8
  7
SANINDUSA
 72
     4
 11
-59.22154823413257
 21
22.36745296763252
 31
0.0
100
AcDbAttributeDefinition
  3
Cod. Revisão:
  2
REV
 70
     0
  0
ATTDEF
  5
BA8
330
B9E
100
AcDbEntity
  8
1
100
AcDbText
 10
-48.43615325006194
 20
21.11745296763252
 30
0.0
 40
2.5
  1
XX
 41
0.8
  7
SANINDUSA
 72
     4
 11
-46.55166701769121
 21
22.36745296763252
 31
0.0
100
AcDbAttributeDefinition
  3
Cod. Alteração:
  2
ALT
 70
     0
  0
ATTDEF
  5
BA9
330
B9E
100
AcDbEntity
  8
1
100
AcDbText
 10
-35.19086635325722
 20
23.98875083948959
 30
0.0
 40
3.0
  1
1/XXX
 41
0.8
  7
SANINDUSA
 72
     4
 11
-30.0
 21
25.25
 31
0.0
100
AcDbAttributeDefinition
  3
Escala geral:
  2
ESCALA
 70
     0
  0
ATTDEF
  5
BAA
330
B9E
100
AcDbEntity
  8
1
100
AcDbText
 10
-15.65345869711215
 20
23.75
 30
0.0
 40
3.0
  1
XXXXX
 41
0.8
  7
SANINDUSA
 72
     4
 11
-10.0
 21
25.25
 31
0.0
100
AcDbAttributeDefinition
  3
Folha:
  2
FOLHA
 70
     0
  0
ATTDEF
  5
BAB
330
B9E
100
AcDbEntity
  8
1
100
AcDbText
 10
-178.5146998822042
 20
56.9531347542807
 30
0.0
 40
2.0
  1
xx
 41
0.8
  7
SANINDUSA
 72
     4
 11
-177.2123493113513
 21
57.70330265219877
 31
0.0
100
AcDbAttributeDefinition
  3
revisão
  2
REV.
 70
     0
  0
ATTDEF
  5
BAC
330
B9E
100
AcDbEntity
  8
1
100
AcDbText
 10
-172.7849640077129
 20
56.9531347542807
 30
0.0
 40
2.0
  1
xx
 41
0.8
  7
SANINDUSA
 72
     4
 11
-171.48261343686
 21
57.70330265219877
 31
0.0
100
AcDbAttributeDefinition
  3
alteração
  2
ALT.
 70
     0
  0
ATTDEF
  5
BAD
330
B9E
100
AcDbEntity
  8
1
100
AcDbText
 10
-168.007199951307
 20
56.70330265219877
 30
0.0
 40
2.0
  1
xx/xx/xxxx
 41
0.8
  7
SANINDUSA
 11
-168.007199951307
 21
57.70330265219877
 31
0.0
100
AcDbAttributeDefinition
  3
data
  2
DATA
 70
     0
 74
     2
  0
ATTDEF
  5
BAE
330
B9E
100
AcDbEntity
  8
1
100
AcDbText
 10
-168.5396372253371
 20
13.15916722632639
 30
0.0
 40
2.0
  1
XX/XX/XXXX
 41
0.8
  7
SANINDUSA
 72
     4
 11
-161.5099528734231
 21
14.0
 31
0.0
100
AcDbAttributeDefinition
  3
Data projecto
  2
DATA_PROJ
 70
     0
  0
ATTDEF
  5
BAF
330
B9E
100
AcDbEntity
  8
1
100
AcDbText
 10
-150.8658110728766
 20
13.24983210208193
 30
0.0
 40
2.0
  1
xxxxxxxx
 41
0.8
  7
SANINDUSA
 72
     4
 11
-145.6564087894649
 21
14.0
 31
0.0
100
AcDbAttributeDefinition
  3
nome de quem projectou
  2
NOME
 70
     0
  0
ATTDEF
  5
BB0
330
B9E
100
AcDbEntity
  8
1
100
AcDbText
 10
-168.5396372253371
 20
9.159167226326394
 30
0.0
 40
2.0
  1
XX/XX/XXXX
 41
0.8
  7
SANINDUSA
 72
     4
 11
-161.5099528734231
 21
10.0
 31
0.0
100
AcDbAttributeDefinition
  3
Data desenhou
  2
DATA_DES
 70
     0
  0
ATTDEF
  5
BB1
330
B9E
100
AcDbEntity
  8
1
100
AcDbText
 10
-151.516986358303
 20
9.249832102081933
 30
0.0
 40
2.0
  1
xxxxxxxxx
 41
0.8
  7
SANINDUSA
 72
     4
 11
-145.6564087894649
 21
10.0
 31
0.0
100
AcDbAttributeDefinition
  3
nome
  2
NOME
 70
     0
  0
ATTDEF
  5
BB2
330
B9E
100
AcDbEntity
  8
1
100
AcDbText
 10
-127.2924214135946
 20
14.1979876583216
 30
0.0
 40
2.0
  1
Vitreous China
 41
0.8
  7
SANINDUSA
 72
     4
 11
-119.231709526422
 21
15.22216495852308
 31
0.0
100
AcDbAttributeDefinition
  3
Nome do Material:
  2
MATERIAL
 70
     0
  0
ATTDEF
  5
BB3
330
B9E
100
AcDbEntity
  8
1
100
AcDbText
 10
-103.1563452122093
 20
14.38019043949261
 30
0.0
 40
2.0
  1
Branco
 41
0.8
  7
SANINDUSA
 72
     4
 11
-99.33418268702462
 21
15.35937109765245
 31
0.0
100
AcDbAttributeDefinition
  3
cor da peça
  2
COR
 70
     0
  0
ATTDEF
  5
BB4
330
B9E
100
AcDbEntity
  8
1
100
AcDbText
 10
-116.7235057085292
 20
5.975822699798522
 30
0.0
 40
2.0
  1
Vidrado
 41
0.8
  7
SANINDUSA
 72
     4
 11
-112.5
 21
7.0
 31
0.0
100
AcDbAttributeDefinition
  3
Tipo de acabamento:
  2
ACABAMENTO
 70
     0
  0
ATTDEF
  5
BB5
330
B9E
100
AcDbEntity
  8
1
100
AcDbText
 10
-79.18527869967246
 20
16.65066409850533
 30
0.0
 40
2.0
  1
XXXXXXX
 41
0.8
  7
SANINDUSA
 72
     4
 11
-73.90871724903445
 21
17.65066409850533
 31
0.0
100
AcDbAttributeDefinition
  3
Normas
  2
NORMAS
 70
     0
  0
ATTDEF
  5
BB6
330
B9E
100
AcDbEntity
  8
1
100
AcDbText
 10
-30.55312290127603
 20
14.0
 30
0.0
 40
2.0
  1
XXXXXXXXXXXXXX
 41
0.8
  7
SANINDUSA
 72
     4
 11
-20.0
 21
15.0
 31
0.0
100
AcDbAttributeDefinition
  3
Substitui o desenho:
  2
SUBSTITUI
 70
     0
  0
ATTDEF
  5
BB7
330
B9E
100
AcDbEntity
  8
1
100
AcDbText
 10
-31.30691739422431
 20
6.0
 30
0.0
 40
2.0
  1
XXXXXXXXXXXXXXX
 41
0.8
  7
SANINDUSA
 72
     4
 11
-20.0
 21
7.0
 31
0.0
100
AcDbAttributeDefinition
  3
Substituido por:
  2
SUBSTITUIDO
 70
     0
  0
ATTDEF
  5
BB8
330
B9E
100
AcDbEntity
  8
1
100
AcDbText
 10
-110.0220608548302
 20
1.478208457928303
 30
0.0
 40
2.0
  1
XXXXXXXXXXXXXXXXXXXXXXXXXXXXXXXXXX
 41
0.8
  7
SANINDUSA
 11
-110.0220608548302
 21
2.478208457928303
 31
0.0
100
AcDbAttributeDefinition
  3
Localização do desenho:
  2
LOC-DWG
 70
     0
 74
     2
  0
LINE
  5
BB9
330
B9E
100
AcDbEntity
  8
3
100
AcDbLine
 10
-135.0
 20
4.0
 30
0.0
 11
0.0000000000004547
 21
4.0
 31
0.0
  0
LINE
  5
BBA
330
B9E
100
AcDbEntity
  8
3
100
AcDbLine
 10
-90.00000000000046
 20
12.0
 30
0.0
 11
-135.0
 21
12.0
 31
0.0
  0
LINE
  5
BBB
330
B9E
100
AcDbEntity
  8
3
100
AcDbLine
 10
-135.0
 20
32.5
 30
0.0
 11
-40.0
 21
32.5
 31
0.0
  0
TEXT
  5
BBC
330
B9E
100
AcDbEntity
  8
1
100
AcDbText
 10
-134.0
 20
1.25
 30
0.0
 40
2.0
  1
Localização do des.:
 41
0.8
  7
SANINDUSA
 11
-134.0
 21
2.25
 31
0.0
100
AcDbText
 73
     2
  0
LINE
  5
BBD
330
B9E
100
AcDbEntity
  8
3
100
AcDbLine
 10
-180.0
 20
65.0
 30
0.0
 11
0.0
 21
65.0
 31
0.0
  0
LINE
  5
BBE
330
B9E
100
AcDbEntity
  8
leg fin
100
AcDbLine
 10
-40.0
 20
25.05956924886846
 30
0.0
 11
-135.0
 21
25.05956924886846
 31
0.0
  0
LINE
  5
BBF
330
B9E
100
AcDbEntity
  8
leg fin
100
AcDbLine
 10
-40.0
 20
28.5
 30
0.0
 11
-135.0
 21
28.5
 31
0.0
  0
LINE
  5
BC0
330
B9E
100
AcDbEntity
  8
3
100
AcDbLine
 10
-135.0
 20
50.0
 30
0.0
 11
-40.0
 21
50.0
 31
0.0
  0
TEXT
  5
BC1
330
B9E
100
AcDbEntity
  8
1
100
AcDbText
 10
-134.0
 20
29.75
 30
0.0
 40
2.0
  1
Desenho nº:
 41
0.8
  7
SANINDUSA
 11
-134.0
 21
30.75
 31
0.0
100
AcDbText
 73
     2
  0
TEXT
  5
BC2
330
B9E
100
AcDbEntity
  8
1
100
AcDbText
 10
-134.0
 20
9.25
 30
0.0
 40
2.0
  1
Acabamento:
 41
0.8
  7
SANINDUSA
 11
-134.0
 21
10.25
 31
0.0
100
AcDbText
 73
     2
  0
LINE
  5
BC3
330
B9E
100
AcDbEntity
  8
3
100
AcDbLine
 10
-180.0
 20
20.0
 30
0.0
 11
0.0
 21
20.0
 31
0.0
  0
LINE
  5
BC4
330
B9E
100
AcDbEntity
  8
1
100
AcDbLine
 10
-174.5810776056337
 20
55.5
 30
0.0
 11
-174.5810776056337
 21
65.0
 31
0.0
  0
LINE
  5
BC5
330
B9E
100
AcDbEntity
  8
1
100
AcDbLine
 10
-168.9210461879161
 20
55.5
 30
0.0
 11
-168.9210461879161
 21
65.0
 31
0.0
  0
LINE
  5
BC6
330
B9E
100
AcDbEntity
  8
1
100
AcDbLine
 10
-154.0988595589306
 20
55.5
 30
0.0
 11
-154.0988595589306
 21
65.0
 31
0.0
  0
LINE
  5
BC7
330
B9E
100
AcDbEntity
  8
3
100
AcDbLine
 10
-180.0
 20
65.0
 30
0.0
 11
-180.0
 21
0.0
 31
0.0
  0
LINE
  5
BC8
330
B9E
100
AcDbEntity
  8
3
100
AcDbLine
 10
-135.0
 20
0.0
 30
0.0
 11
-135.0
 21
65.0
 31
0.0
  0
TEXT
  5
BC9
330
B9E
100
AcDbEntity
  8
1
100
AcDbText
 10
-179.0
 20
9.75
 30
0.0
 40
1.5
  1
Des.
 41
0.8
  7
SANINDUSA
 11
-179.0
 21
10.5
 31
0.0
100
AcDbText
 73
     2
  0
LINE
  5
BCA
330
B9E
100
AcDbEntity
  8
1
100
AcDbLine
 10
-168.9210461879161
 20
20.0
 30
0.0
 11
-168.9210461879161
 21
0.0
 31
0.0
  0
LINE
  5
BCB
330
B9E
100
AcDbEntity
  8
1
100
AcDbLine
 10
-154.0988595589306
 20
20.0
 30
0.0
 11
-154.0988595589306
 21
0.0
 31
0.0
  0
LINE
  5
BCC
330
B9E
100
AcDbEntity
  8
1
100
AcDbLine
 10
-180.0
 20
4.0
 30
0.0
 11
-135.0
 21
4.0
 31
0.0
  0
LINE
  5
BCD
330
B9E
100
AcDbEntity
  8
1
100
AcDbLine
 10
-180.0
 20
8.0
 30
0.0
 11
-135.0
 21
8.0
 31
0.0
  0
TEXT
  5
BCE
330
B9E
100
AcDbEntity
  8
1
100
AcDbText
 10
-179.0
 20
1.73257823687436
 30
0.0
 40
1.5
  1
Aprov.
 41
0.8
  7
SANINDUSA
 11
-179.0
 21
2.48257823687436
 31
0.0
100
AcDbText
 73
     2
  0
TEXT
  5
BCF
330
B9E
100
AcDbEntity
  8
1
100
AcDbText
 10
-179.0
 20
5.75
 30
0.0
 40
1.5
  1
Ver.
 41
0.8
  7
SANINDUSA
 11
-179.0
 21
6.5
 31
0.0
100
AcDbText
 73
     2
  0
LINE
  5
BD0
330
B9E
100
AcDbEntity
  8
1
100
AcDbLine
 10
-180.0
 20
16.0
 30
0.0
 11
-135.0
 21
16.0
 31
0.0
  0
LINE
  5
BD1
330
B9E
100
AcDbEntity
  8
1
100
AcDbLine
 10
-180.0
 20
12.0
 30
0.0
 11
-135.0
 21
12.0
 31
0.0
  0
TEXT
  5
BD2
330
B9E
100
AcDbEntity
  8
1
100
AcDbText
 10
-179.0
 20
13.75
 30
0.0
 40
1.5
  1
Proj.
 41
0.8
  7
SANINDUSA
 11
-179.0
 21
14.5
 31
0.0
100
AcDbText
 73
     2
  0
TEXT
  5
BD3
330
B9E
100
AcDbEntity
  8
1
100
AcDbText
 10
-167.9210461879161
 20
17.75
 30
0.0
 40
1.5
  1
Data
 41
0.8
  7
SANINDUSA
 11
-167.9210461879161
 21
18.5
 31
0.0
100
AcDbText
 73
     2
  0
TEXT
  5
BD4
330
B9E
100
AcDbEntity
  8
1
100
AcDbText
 10
-153.0988595589306
 20
17.75
 30
0.0
 40
1.5
  1
Nome
 41
0.8
  7
SANINDUSA
 11
-153.0988595589306
 21
18.5
 31
0.0
100
AcDbText
 73
     2
  0
LINE
  5
BD5
330
B9E
100
AcDbEntity
  8
leg fin
100
AcDbLine
 10
-130.0
 20
20.0
 30
0.0
 11
-130.0
 21
28.5
 31
0.0
  0
TEXT
  5
BD6
330
B9E
100
AcDbEntity
  8
1
100
AcDbText
 10
-134.0
 20
17.25
 30
0.0
 40
2.0
  1
Material:
 41
0.8
  7
SANINDUSA
 11
-134.0
 21
18.25
 31
0.0
100
AcDbText
 73
     2
  0
TEXT
  5
BD7
330
B9E
100
AcDbEntity
  8
1
100
AcDbText
 10
-129.0
 20
26.43288406845113
 30
0.0
 40
1.5
  1
Ano:
 41
0.8
  7
SANINDUSA
 11
-129.0
 21
27.18288406845113
 31
0.0
100
AcDbText
 73
     2
  0
LINE
  5
BD8
330
B9E
100
AcDbEntity
  8
1
100
AcDbLine
 10
-180.0
 20
55.5
 30
0.0
 11
-135.0
 21
55.5
 31
0.0
  0
TEXT
  5
BD9
330
B9E
100
AcDbEntity
  8
1
100
AcDbText
 10
-179.0
 20
52.67772246885193
 30
0.0
 40
1.5
  1
descrição
 41
0.8
  7
SANINDUSA
 11
-179.0
 21
53.42772246885193
 31
0.0
100
AcDbText
 73
     2
  0
TEXT
  5
BDA
330
B9E
100
AcDbEntity
  8
1
100
AcDbText
 10
-134.0
 20
47.25
 30
0.0
 40
2.0
  1
Peça:
 41
0.8
  7
SANINDUSA
 11
-134.0
 21
48.25
 31
0.0
100
AcDbText
 73
     2
  0
LINE
  5
BDB
330
B9E
100
AcDbEntity
  8
1
100
AcDbLine
 10
-180.0
 20
59.5
 30
0.0
 11
-135.0
 21
59.5
 31
0.0
  0
TEXT
  5
BDC
330
B9E
100
AcDbEntity
  8
1
100
AcDbText
 10
-173.5810776056337
 20
62.75
 30
0.0
 40
1.5
  1
Alt.
 41
0.8
  7
SANINDUSA
 11
-173.5810776056337
 21
63.5
 31
0.0
100
AcDbText
 73
     2
  0
TEXT
  5
BDD
330
B9E
100
AcDbEntity
  8
1
100
AcDbText
 10
-179.0
 20
62.75
 30
0.0
 40
1.5
  1
Rev.
 41
0.8
  7
SANINDUSA
 11
-179.0
 21
63.5
 31
0.0
100
AcDbText
 73
     2
  0
TEXT
  5
BDE
330
B9E
100
AcDbEntity
  8
1
100
AcDbText
 10
-167.9210461879161
 20
62.75
 30
0.0
 40
1.5
  1
Data
 41
0.8
  7
SANINDUSA
 11
-167.9210461879161
 21
63.5
 31
0.0
100
AcDbText
 73
     2
  0
TEXT
  5
BDF
330
B9E
100
AcDbEntity
  8
1
100
AcDbText
 10
-153.0988595589306
 20
62.75
 30
0.0
 40
1.5
  1
Nome
 41
0.8
  7
SANINDUSA
 11
-153.0988595589306
 21
63.5
 31
0.0
100
AcDbText
 73
     2
  0
TEXT
  5
BE0
330
B9E
100
AcDbEntity
  8
1
100
AcDbText
 10
-134.0
 20
62.25
 30
0.0
 40
2.0
  1
Produto:
 41
0.8
  7
SANINDUSA
 11
-134.0
 21
63.25
 31
0.0
100
AcDbText
 73
     2
  0
LINE
  5
BE1
330
B9E
100
AcDbEntity
  8
3
100
AcDbLine
 10
-40.0
 20
4.0
 30
0.0
 11
-40.0
 21
65.0
 31
0.0
  0
LWPOLYLINE
  5
BE2
102
{ACAD_REACTORS
330
BEC
102
}
330
B9E
100
AcDbEntity
  8
9
100
AcDbPolyline
 90
       12
 70
     1
 43
0.0
 10
-3.038714600644652
 20
58.90010174665076
 10
-5.726962862472191
 20
58.90010174665076
 10
-5.726962862472191
 20
58.5001017466509
 10
-3.038748516195028
 20
58.5001017466509
 42
-0.4142135623731731
 10
-2.638748516194482
 20
58.1001017466508
 10
-2.638748516194482
 20
57.42799728675596
 10
-5.21497371544865
 20
57.42799728675596
 42
0.4142135623731289
 10
-6.014973715448377
 20
56.627997286756
 10
-6.014973715448377
 20
55.92380871629643
 42
0.4142135623731132
 10
-5.21497371544865
 20
55.12380871629648
 10
-2.23871460064447
 20
55.12380871629648
 10
-2.23871460064447
 20
58.10010174665103
 42
0.4142135623730717
  0
LWPOLYLINE
  5
BE3
102
{ACAD_REACTORS
330
BEC
102
}
330
B9E
100
AcDbEntity
  8
9
100
AcDbPolyline
 90
       20
 70
     1
 43
0.0
 10
-10.01531287095122
 20
57.82799728675581
 10
-10.01531287095122
 20
58.10010174665103
 42
-0.4142135623730744
 10
-9.615312870951584
 20
58.5001017466509
 10
-6.92703069357276
 20
58.5001017466509
 10
-6.92703069357276
 20
58.90010174665076
 10
-9.615346786501959
 20
58.90010174665076
 42
0.4142135623730883
 10
-10.41534678650168
 20
58.1001017466508
 10
-10.41534678650168
 20
57.82796337120567
 42
0.4142135623730717
 10
-9.615346786501959
 20
57.02796337120571
 10
-7.423079531965413
 20
57.02796337120571
 42
-0.4142135623730847
 10
-7.023079531965322
 20
56.62796337120562
 10
-7.023079531965322
 20
55.90786840766487
 42
-0.4142135623730744
 10
-7.423079531965413
 20
55.507868407665
 10
-10.41534678650168
 20
55.507868407665
 10
-10.41534678650168
 20
55.12380871629648
 10
-7.445787917283723
 20
55.12380871629648
 42
0.4114777732064574
 10
-6.645822882998345
 20
55.9163291493976
 10
-6.639238813324936
 20
56.62051771985716
 42
0.4169546541682913
 10
-7.439203847610315
 20
57.42799728675596
 10
-9.615312870951584
 20
57.42799728675596
 42
-0.4142135623731576
  0
LWPOLYLINE
  5
BE4
102
{ACAD_REACTORS
330
BEC
102
}
330
B9E
100
AcDbEntity
  8
9
100
AcDbPolyline
 90
       12
 70
     1
 43
0.0
 10
-14.41561811090378
 20
58.90010174665076
 10
-14.79964388672215
 20
58.90010174665076
 10
-14.79964388672215
 20
55.92380871629643
 42
0.4142135623731133
 10
-13.99964388672242
 20
55.12380871629648
 10
-11.8233508563676
 20
55.12380871629648
 42
0.4142135623730872
 10
-11.02335085636741
 20
55.92380871629643
 10
-11.02335085636741
 20
58.90010174665076
 10
-11.42338477191788
 20
58.90010174665076
 10
-11.42338477191788
 20
55.91567577726095
 42
-0.4131711701795318
 10
-11.82196067063523
 20
55.51567831234956
 10
-14.0141940096214
 20
55.50787335710947
 42
-0.4152567234624407
 10
-14.41561811090378
 20
55.90787082202087
  0
LWPOLYLINE
  5
BE5
102
{ACAD_REACTORS
330
BEC
102
}
330
B9E
100
AcDbEntity
  8
9
100
AcDbPolyline
 90
        6
 70
     1
 43
0.0
 10
-15.80771578768872
 20
55.507868407665
 10
-18.39994912667453
 20
55.507868407665
 42
-0.4142135623731731
 10
-18.79994912667462
 20
55.90786840766487
 10
-18.79994912667462
 20
58.10010174665103
 42
-0.4142135623730744
 10
-18.39994912667453
 20
58.5001017466509
 10
-15.80771578768872
 20
58.5001017466509
  0
LWPOLYLINE
  5
BE6
102
{ACAD_REACTORS
330
BEC
102
}
330
B9E
100
AcDbEntity
  8
9
100
AcDbPolyline
 90
        8
 70
     1
 43
0.0
 10
-15.4236900118708
 20
59.87619128370352
 10
-15.80771578768872
 20
59.87619128370352
 10
-15.80771578768872
 20
58.90010174665076
 10
-18.39176256411201
 20
58.90010174665076
 42
0.4131164467977967
 10
-19.19175694739761
 20
58.1030995310698
 10
-19.1999120763262
 20
55.92680650071542
 42
0.4153115297271718
 10
-18.39991769304061
 20
55.12380871629648
 10
-15.4236900118708
 20
55.12380871629648
  0
LWPOLYLINE
  5
BE7
102
{ACAD_REACTORS
330
BEC
102
}
330
B9E
100
AcDbEntity
  8
9
100
AcDbPolyline
 90
       10
 70
     1
 43
0.0
 10
-20.59201288790928
 20
58.90010174665076
 10
-23.56830591826338
 20
58.90010174665076
 10
-23.56830591826338
 20
55.12380871629648
 10
-23.18424622689509
 20
55.12380871629648
 10
-23.18424622689509
 20
58.5001017466509
 10
-20.59204680345965
 20
58.5001017466509
 42
-0.4142135623730898
 10
-20.19204680345956
 20
58.1001017466508
 10
-20.19204680345956
 20
55.12380871629648
 10
-19.79201288790909
 20
55.12380871629648
 10
-19.79201288790909
 20
58.10010174665103
 42
0.4142135623731132
  0
LWPOLYLINE
  5
BE8
102
{ACAD_REACTORS
330
BEC
102
}
330
B9E
100
AcDbEntity
  8
9
100
AcDbPolyline
 90
        4
 70
     1
 43
0.0
 10
-24.19231812786165
 20
58.90010174665076
 10
-24.57637781922995
 20
58.90010174665076
 10
-24.57637781922995
 20
55.12380871629648
 10
-24.19231812786165
 20
55.12380871629648
  0
LWPOLYLINE
  5
BE9
102
{ACAD_REACTORS
330
BEC
102
}
330
B9E
100
AcDbEntity
  8
9
100
AcDbPolyline
 90
       10
 70
     1
 43
0.0
 10
-28.57661522808212
 20
58.5001017466509
 10
-25.98444972019706
 20
58.5001017466509
 42
-0.4142135623731731
 10
-25.58444972019652
 20
58.1001017466508
 10
-25.58444972019652
 20
55.12380871629648
 10
-25.2004239443786
 20
55.12380871629648
 10
-25.2004239443786
 20
58.10010174665103
 42
0.4142135623730717
 10
-26.00042394437833
 20
58.90010174665076
 10
-28.97664914363259
 20
58.90010174665076
 10
-28.97664914363259
 20
55.12380871629648
 10
-28.57661522808212
 20
55.12380871629648
  0
LWPOLYLINE
  5
BEA
102
{ACAD_REACTORS
330
BEC
102
}
330
B9E
100
AcDbEntity
  8
9
100
AcDbPolyline
 90
       12
 70
     1
 43
0.0
 10
-29.58465321349832
 20
58.10010174665103
 42
0.4142135623730716
 10
-30.3846532134985
 20
58.90010174665076
 10
-33.07296930642724
 20
58.90010174665076
 10
-33.07296930642724
 20
58.5001017466509
 10
-30.38468712904842
 20
58.5001017466509
 42
-0.4142135623730067
 10
-29.98468712904878
 20
58.1001017466508
 10
-29.98468712904878
 20
57.42799728675618
 10
-32.56098015940324
 20
57.42799728675596
 42
0.4142135623731289
 10
-33.36098015940343
 20
56.627997286756
 10
-33.36098015940343
 20
55.92380871629643
 42
0.4142135623731132
 10
-32.56098015940324
 20
55.12380871629648
 10
-29.58465321349832
 20
55.12380871629648
  0
LWPOLYLINE
  5
BEB
102
{ACAD_REACTORS
330
BEC
102
}
330
B9E
100
AcDbEntity
  8
9
100
AcDbPolyline
 90
       20
 70
     1
 43
0.0
 10
-34.7850262845518
 20
57.42799728675596
 10
-36.96125148380543
 20
57.42799728675596
 42
-0.4142135623730898
 10
-37.36125148380552
 20
57.82799728675604
 10
-37.36125148380552
 20
58.10010174665103
 42
-0.4142135623730744
 10
-36.96125148380543
 20
58.5001017466509
 10
-34.27303713752781
 20
58.50010174665067
 10
-34.27303713752781
 20
58.90010174665076
 10
-36.96128539935535
 20
58.90010174665076
 42
0.4142135623731289
 10
-37.76128539935553
 20
58.1001017466508
 10
-37.76128539935553
 20
57.82796337120567
 42
0.4142135623730716
 10
-36.9612853993558
 20
57.02796337120571
 10
-34.76901814481926
 20
57.02796337120571
 42
-0.414213562373168
 10
-34.36901814481962
 20
56.62796337120562
 10
-34.36901814481962
 20
55.90786840766487
 42
-0.4142135623730744
 10
-34.76901814481926
 20
55.507868407665
 10
-37.76128539935553
 20
55.507868407665
 10
-37.76128539935553
 20
55.12380871629648
 10
-34.7850262845518
 20
55.12380871629648
 42
0.4142135623731289
 10
-33.98502628455162
 20
55.92380871629643
 10
-33.98502628455162
 20
56.627997286756
 42
0.4142135623731132
  0
HATCH
  5
BEC
330
B9E
100
AcDbEntity
  8
9
100
AcDbHatch
 10
0.0
 20
0.0
 30
0.0
210
0.0
220
0.0
230
1.0
  2
SOLID
 70
     1
 71
     1
 91
       13
 92
        7
 72
     1
 73
     1
 93
       20
 10
-34.36901814481962
 20
55.90786840766487
 42
-0.414213562372991
 10
-34.76901814481926
 20
55.507868407665
 42
0.0
 10
-37.76128539935553
 20
55.507868407665
 42
0.0
 10
-37.76128539935553
 20
55.12380871629648
 42
0.0
 10
-34.7850262845518
 20
55.12380871629648
 42
0.4142135623731705
 10
-33.98502628455162
 20
55.92380871629666
 42
0.0
 10
-33.98502628455162
 20
56.627997286756
 42
0.4142135623731547
 10
-34.7850262845518
 20
57.42799728675596
 42
0.0
 10
-36.96125148380543
 20
57.42799728675596
 42
-0.4142135623730898
 10
-37.36125148380552
 20
57.82799728675604
 42
0.0
 10
-37.36125148380552
 20
58.1001017466508
 42
-0.4142135623731575
 10
-36.96125148380543
 20
58.5001017466509
 42
0.0
 10
-34.27303713752781
 20
58.50010174665067
 42
0.0
 10
-34.27303713752781
 20
58.90010174665076
 42
0.0
 10
-36.96128539935535
 20
58.90010174665076
 42
0.4142135623731705
 10
-37.76128539935553
 20
58.10010174665058
 42
0.0
 10
-37.76128539935553
 20
57.82796337120544
 42
0.4142135623730299
 10
-36.9612853993558
 20
57.02796337120571
 42
0.0
 10
-34.76901814481926
 20
57.02796337120571
 42
-0.4142135623730015
 10
-34.36901814481962
 20
56.62796337120608
 42
0.0
 97
        1
330
BEB
 92
        7
 72
     1
 73
     1
 93
       12
 10
-33.36098015940343
 20
55.92380871629666
 42
0.4142135623731547
 10
-32.56098015940324
 20
55.12380871629648
 42
0.0
 10
-29.58465321349877
 20
55.12380871629648
 42
0.0
 10
-29.58465321349832
 20
58.10010174665058
 42
0.4142135623731964
 10
-30.3846532134985
 20
58.90010174665076
 42
0.0
 10
-33.07296930642724
 20
58.90010174665076
 42
0.0
 10
-33.07296930642724
 20
58.50010174665067
 42
0.0
 10
-30.38468712904887
 20
58.5001017466509
 42
-0.4142135623732564
 10
-29.98468712904878
 20
58.10010174665103
 42
0.0
 10
-29.98468712904923
 20
57.42799728675596
 42
0.0
 10
-32.56098015940324
 20
57.42799728675596
 42
0.4142135623731705
 10
-33.36098015940343
 20
56.627997286756
 42
0.0
 97
        1
330
BEA
 92
       22
 72
     1
 73
     1
 93
        6
 10
-32.97692046803468
 20
56.62796337120562
 42
-0.4142135623731576
 10
-32.57692046803459
 20
57.02796337120571
 42
0.0
 10
-29.98468712904878
 20
57.02796337120571
 42
0.0
 10
-29.98468712904878
 20
55.507868407665
 42
0.0
 10
-32.57692046803459
 20
55.507868407665
 42
-0.4142135623731731
 10
-32.97692046803468
 20
55.90786840766487
 42
0.0
 97
        1
330
C11
 92
        7
 72
     1
 73
     1
 93
       10
 10
-28.57661522808212
 20
58.5001017466509
 42
0.0
 10
-25.98444972019661
 20
58.5001017466509
 42
-0.4142135623730067
 10
-25.58444972019652
 20
58.10010174665058
 42
0.0
 10
-25.58444972019606
 20
55.12380871629648
 42
0.0
 10
-25.20042394437906
 20
55.12380871629648
 42
0.0
 10
-25.2004239443786
 20
58.1001017466508
 42
0.4142135623731134
 10
-26.00042394437833
 20
58.90010174665076
 42
0.0
 10
-28.97664914363259
 20
58.90010174665076
 42
0.0
 10
-28.97664914363259
 20
55.12380871629648
 42
0.0
 10
-28.57661522808212
 20
55.12380871629648
 42
0.0
 97
        1
330
BE9
 92
        7
 72
     0
 73
     1
 93
        4
 10
-24.57637781922995
 20
55.12380871629648
 10
-24.19231812786165
 20
55.12380871629648
 10
-24.19231812786165
 20
58.90010174665076
 10
-24.57637781922995
 20
58.90010174665076
 97
        1
330
BE8
 92
        7
 72
     0
 73
     1
 93
        4
 10
-24.19231812786165
 20
59.87619128370352
 10
-24.5763778192304
 20
59.87619128370352
 10
-24.5763778192304
 20
59.28412752246913
 10
-24.1923181278612
 20
59.28412752246913
 97
        1
330
C12
 92
        7
 72
     1
 73
     1
 93
       10
 10
-23.18424622689509
 20
58.5001017466509
 42
0.0
 10
-20.59204680345965
 20
58.5001017466509
 42
-0.4142135623730898
 10
-20.19204680345956
 20
58.1001017466508
 42
0.0
 10
-20.19204680345956
 20
55.12380871629648
 42
0.0
 10
-19.79201288790909
 20
55.12380871629648
 42
0.0
 10
-19.79201288790909
 20
58.1001017466508
 42
0.4142135623731547
 10
-20.59201288790928
 20
58.90010174665076
 42
0.0
 10
-23.56830591826338
 20
58.90010174665076
 42
0.0
 10
-23.56830591826338
 20
55.12380871629648
 42
0.0
 10
-23.18424622689463
 20
55.12380871629648
 42
0.0
 97
        1
330
BE7
 92
        7
 72
     1
 73
     1
 93
        8
 10
-19.1999120763262
 20
55.92680650071542
 42
0.4153115297271299
 10
-18.39991769304061
 20
55.12380871629648
 42
0.0
 10
-15.4236900118708
 20
55.12380871629648
 42
0.0
 10
-15.4236900118708
 20
59.87619128370352
 42
0.0
 10
-15.80771578768872
 20
59.87619128370352
 42
0.0
 10
-15.80771578768872
 20
58.90010174665076
 42
0.0
 10
-18.39176256411201
 20
58.90010174665076
 42
0.4131164467977965
 10
-19.19175694739761
 20
58.1030995310698
 42
0.0
 97
        1
330
BE6
 92
       22
 72
     1
 73
     1
 93
        6
 10
-18.79994912667462
 20
58.1001017466508
 42
-0.4142135623731575
 10
-18.39994912667453
 20
58.5001017466509
 42
0.0
 10
-15.80771578768872
 20
58.50010174665067
 42
0.0
 10
-15.80771578768827
 20
55.507868407665
 42
0.0
 10
-18.39994912667453
 20
55.507868407665
 42
-0.4142135623731731
 10
-18.79994912667462
 20
55.90786840766487
 42
0.0
 97
        1
330
BE5
 92
        7
 72
     1
 73
     1
 93
       12
 10
-14.79964388672215
 20
55.92380871629621
 42
0.4142135623729885
 10
-13.99964388672242
 20
55.12380871629648
 42
0.0
 10
-11.8233508563676
 20
55.12380871629648
 42
0.4142135623731289
 10
-11.02335085636741
 20
55.92380871629666
 42
0.0
 10
-11.02335085636741
 20
58.90010174665076
 42
0.0
 10
-11.42338477191788
 20
58.90010174665076
 42
0.0
 10
-11.42338477191788
 20
55.91567577726095
 42
-0.4131711701795319
 10
-11.82196067063523
 20
55.51567831234956
 42
0.0
 10
-14.01419400962095
 20
55.50787335710947
 42
-0.4152567234626918
 10
-14.41561811090378
 20
55.90787082202087
 42
0.0
 10
-14.41561811090378
 20
58.90010174665076
 42
0.0
 10
-14.7996438867226
 20
58.90010174665076
 42
0.0
 97
        1
330
BE4
 92
        7
 72
     1
 73
     1
 93
       20
 10
-7.423079531965413
 20
57.02796337120571
 42
-0.414213562373168
 10
-7.023079531965322
 20
56.62796337120562
 42
0.0
 10
-7.023079531965322
 20
55.90786840766487
 42
-0.4142135623731575
 10
-7.423079531965413
 20
55.507868407665
 42
0.0
 10
-10.41534678650168
 20
55.507868407665
 42
0.0
 10
-10.41534678650168
 20
55.12380871629648
 42
0.0
 10
-7.445787917283723
 20
55.12380871629648
 42
0.4114777732065809
 10
-6.645822882998345
 20
55.91632914939783
 42
0.0
 10
-6.639238813324936
 20
56.62051771985716
 42
0.4169546541682913
 10
-7.439203847610315
 20
57.42799728675596
 42
0.0
 10
-9.615312870951584
 20
57.42799728675596
 42
-0.4142135623729911
 10
-10.01531287095122
 20
57.82799728675581
 42
0.0
 10
-10.01531287095122
 20
58.10010174665103
 42
-0.414213562372991
 10
-9.615312870951584
 20
58.5001017466509
 42
0.0
 10
-6.92703069357276
 20
58.50010174665067
 42
0.0
 10
-6.927030693572305
 20
58.90010174665076
 42
0.0
 10
-9.615346786501959
 20
58.90010174665076
 42
0.4142135623730467
 10
-10.41534678650168
 20
58.10010174665103
 42
0.0
 10
-10.41534678650168
 20
57.82796337120544
 42
0.4142135623730301
 10
-9.615346786501959
 20
57.02796337120571
 42
0.0
 97
        1
330
BE3
 92
        7
 72
     1
 73
     1
 93
       12
 10
-5.21497371544865
 20
57.42799728675596
 42
0.4142135623730871
 10
-6.014973715448377
 20
56.627997286756
 42
0.0
 10
-6.014973715448377
 20
55.92380871629621
 42
0.4142135623730715
 10
-5.21497371544865
 20
55.12380871629648
 42
0.0
 10
-2.23871460064447
 20
55.12380871629648
 42
0.0
 10
-2.23871460064447
 20
58.10010174665058
 42
0.414213562373155
 10
-3.038714600644652
 20
58.90010174665076
 42
0.0
 10
-5.726962862471737
 20
58.90010174665076
 42
0.0
 10
-5.726962862472191
 20
58.5001017466509
 42
0.0
 10
-3.038748516194573
 20
58.5001017466509
 42
-0.4142135623730067
 10
-2.638748516194482
 20
58.10010174665058
 42
0.0
 10
-2.638748516194482
 20
57.42799728675596
 42
0.0
 97
        1
330
BE2
 92
       22
 72
     1
 73
     1
 93
        6
 10
-2.638748516194937
 20
57.02796337120571
 42
0.0
 10
-2.638748516194482
 20
55.50786840766477
 42
0.0
 10
-5.21497371544865
 20
55.507868407665
 42
-0.4142135623731731
 10
-5.614973715448741
 20
55.90786840766509
 42
0.0
 10
-5.614973715448741
 20
56.62796337120562
 42
-0.4142135623731576
 10
-5.21497371544865
 20
57.02796337120571
 42
0.0
 97
        1
330
C0D
 75
     0
 76
     1
 47
0.0407044778999864
 98
       13
 10
-34.18710075113677
 20
56.16907953933765
 10
-33.12851374392494
 20
56.49471602641233
 10
-33.12851374392494
 20
56.49471602641233
 10
-28.77202873835904
 20
57.51232930166111
 10
-24.41554807250941
 20
57.91937341678636
 10
-24.41554807250941
 20
59.384734621186
 10
-23.31624584658039
 20
58.3264175319116
 10
-19.04119127844888
 20
57.75655517324913
 10
-19.04119127844888
 20
57.75655517324913
 10
-14.64399105416578
 20
57.43091868617466
 10
-8.048195057457178
 20
57.22739662861204
 10
-4.017427461911665
 20
57.18669281458665
 10
-4.017427461911665
 20
57.18669281458665
  0
TEXT
  5
BED
330
B9E
100
AcDbEntity
  8
leg fin
100
AcDbText
 10
3.391127401597259
 20
2.107634911895729
 30
0.0
 40
1.5
  1
Este desenho é propriedade da Sanindusa, S.A., e não pode ser copiado nem divulgado sem nossa autorização.
 50
90.0
 41
0.8
  7
SANINDUSA
100
AcDbText
  0
LINE
  5
BEE
330
B9E
100
AcDbEntity
  8
3
100
AcDbLine
 10
-90.0
 20
4.0
 30
0.0
 11
-90.0
 21
12.0
 31
0.0
  0
TEXT
  5
BEF
330
B9E
100
AcDbEntity
  8
1
100
AcDbText
 10
-39.0
 20
9.25
 30
0.0
 40
2.0
  1
Substituido por:
 41
0.8
  7
SANINDUSA
 11
-39.0
 21
10.25
 31
0.0
100
AcDbText
 73
     2
  0
POINT
  5
BF0
330
B9E
100
AcDbEntity
  8
SANINDUSA
100
AcDbPoint
 10
0.0
 20
0.0
 30
0.0
  0
TEXT
  5
BF1
330
B9E
100
AcDbEntity
  8
1
100
AcDbText
 10
-89.0
 20
16.74927010445663
 30
0.0
 40
2.0
  1
Normas:
 41
0.8
  7
SANINDUSA
 11
-89.0
 21
17.74927010445663
 31
0.0
100
AcDbText
 73
     2
  0
LINE
  5
BF2
330
B9E
100
AcDbEntity
  8
3
100
AcDbLine
 10
-90.0
 20
12.0
 30
0.0
 11
-90.0
 21
20.0
 31
0.0
  0
LINE
  5
BF3
330
B9E
100
AcDbEntity
  8
3
100
AcDbLine
 10
-110.546019464768
 20
12.0
 30
0.0
 11
-110.546019464768
 21
20.0
 31
0.0
  0
TEXT
  5
BF4
330
B9E
100
AcDbEntity
  8
1
100
AcDbText
 10
-109.6177520618648
 20
17.25
 30
0.0
 40
2.0
  1
Cor:
 41
0.8
  7
SANINDUSA
 11
-109.6177520618648
 21
18.25
 31
0.0
100
AcDbText
 73
     2
  0
LINE
  5
BF5
330
B9E
100
AcDbEntity
  8
leg fin
100
AcDbLine
 10
-91.42857142857156
 20
20.0
 30
0.0
 11
-91.42857142857156
 21
28.5
 31
0.0
  0
LINE
  5
BF6
330
B9E
100
AcDbEntity
  8
leg fin
100
AcDbLine
 10
-104.2857142857142
 20
20.0
 30
0.0
 11
-104.2857142857142
 21
28.5
 31
0.0
  0
LINE
  5
BF7
330
B9E
100
AcDbEntity
  8
leg fin
100
AcDbLine
 10
-117.1428571428573
 20
20.0
 30
0.0
 11
-117.1428571428573
 21
28.5
 31
0.0
  0
POINT
  5
BF8
330
B9E
100
AcDbEntity
  8
SANINDUSA
100
AcDbPoint
 10
-117.1428571428573
 20
28.5
 30
0.0
  0
POINT
  5
BF9
330
B9E
100
AcDbEntity
  8
SANINDUSA
100
AcDbPoint
 10
-104.2857142857142
 20
28.5
 30
0.0
  0
POINT
  5
BFA
330
B9E
100
AcDbEntity
  8
SANINDUSA
100
AcDbPoint
 10
-91.42857142857156
 20
28.5
 30
0.0
  0
TEXT
  5
BFB
330
B9E
100
AcDbEntity
  8
1
100
AcDbText
 10
-116.200160604496
 20
26.43288406845113
 30
0.0
 40
1.5
  1
Nº Seq.:
 41
0.8
  7
SANINDUSA
 11
-116.200160604496
 21
27.18288406845113
 31
0.0
100
AcDbText
 73
     2
  0
TEXT
  5
BFC
330
B9E
100
AcDbEntity
  8
1
100
AcDbText
 10
-103.2106584078738
 20
26.43288406845113
 30
0.0
 40
1.5
  1
Tipo:
 41
0.8
  7
SANINDUSA
 11
-103.2106584078738
 21
27.18288406845113
 31
0.0
100
AcDbText
 73
     2
  0
TEXT
  5
BFD
330
B9E
100
AcDbEntity
  8
1
100
AcDbText
 10
-90.22114672289353
 20
26.43288406845113
 30
0.0
 40
1.5
  1
Prod.:
 41
0.8
  7
SANINDUSA
 11
-90.22114672289353
 21
27.18288406845113
 31
0.0
100
AcDbText
 73
     2
  0
TEXT
  5
BFE
330
B9E
100
AcDbEntity
  8
1
100
AcDbText
 10
-64.77320576346574
 20
26.43288406845113
 30
0.0
 40
1.5
  1
Rev.:
 41
0.8
  7
SANINDUSA
 11
-64.77320576346574
 21
27.18288406845113
 31
0.0
100
AcDbText
 73
     2
  0
LINE
  5
BFF
330
B9E
100
AcDbEntity
  8
leg fin
100
AcDbLine
 10
-52.85714285714266
 20
20.0
 30
0.0
 11
-52.85714285714266
 21
28.5
 31
0.0
  0
LINE
  5
C00
330
B9E
100
AcDbEntity
  8
leg fin
100
AcDbLine
 10
-65.71428571428578
 20
20.0
 30
0.0
 11
-65.71428571428578
 21
28.5
 31
0.0
  0
LINE
  5
C01
330
B9E
100
AcDbEntity
  8
leg fin
100
AcDbLine
 10
-78.57142857142844
 20
20.0
 30
0.0
 11
-78.57142857142844
 21
28.5
 31
0.0
  0
POINT
  5
C02
330
B9E
100
AcDbEntity
  8
SANINDUSA
100
AcDbPoint
 10
-78.57142857142844
 20
28.5
 30
0.0
  0
POINT
  5
C03
330
B9E
100
AcDbEntity
  8
SANINDUSA
100
AcDbPoint
 10
-65.71428571428578
 20
28.5
 30
0.0
  0
POINT
  5
C04
330
B9E
100
AcDbEntity
  8
SANINDUSA
100
AcDbPoint
 10
-52.85714285714266
 20
28.5
 30
0.0
  0
TEXT
  5
C05
330
B9E
100
AcDbEntity
  8
1
100
AcDbText
 10
-77.61097961686573
 20
26.43288406845113
 30
0.0
 40
1.5
  1
Peça:
 41
0.8
  7
SANINDUSA
 11
-77.61097961686573
 21
27.18288406845113
 31
0.0
100
AcDbText
 73
     2
  0
TEXT
  5
C06
330
B9E
100
AcDbEntity
  8
1
100
AcDbText
 10
-52.06538060077036
 20
26.43288406845113
 30
0.0
 40
1.5
  1
Alt.:
 41
0.8
  7
SANINDUSA
 11
-52.06538060077036
 21
27.18288406845113
 31
0.0
100
AcDbText
 73
     2
  0
LINE
  5
C07
330
B9E
100
AcDbEntity
  8
3
100
AcDbLine
 10
0.0
 20
12.0
 30
0.0
 11
-40.0
 21
12.0
 31
0.0
  0
LINE
  5
C08
330
B9E
100
AcDbEntity
  8
3
100
AcDbLine
 10
-40.0
 20
32.5
 30
0.0
 11
0.0
 21
32.5
 31
0.0
  0
TEXT
  5
C09
330
B9E
100
AcDbEntity
  8
1
100
AcDbText
 10
-19.0
 20
29.75
 30
0.0
 40
2.0
  1
Folha:
 41
0.8
  7
SANINDUSA
 11
-19.0
 21
30.75
 31
0.0
100
AcDbText
 73
     2
  0
LINE
  5
C0A
330
B9E
100
AcDbEntity
  8
3
100
AcDbLine
 10
-20.0
 20
32.5
 30
0.0
 11
-20.0
 21
20.0
 31
0.0
  0
TEXT
  5
C0B
330
B9E
100
AcDbEntity
  8
1
100
AcDbText
 10
-39.0
 20
29.75
 30
0.0
 40
2.0
  1
Escala:
 41
0.8
  7
SANINDUSA
 11
-39.0
 21
30.75
 31
0.0
100
AcDbText
 73
     2
  0
TEXT
  5
C0C
330
B9E
100
AcDbEntity
  8
1
100
AcDbText
 10
-39.0
 20
17.25
 30
0.0
 40
2.0
  1
Substitui:
 41
0.8
  7
SANINDUSA
 11
-39.0
 21
18.25
 31
0.0
100
AcDbText
 73
     2
  0
LWPOLYLINE
  5
C0D
102
{ACAD_REACTORS
330
BEC
102
}
330
B9E
100
AcDbEntity
  8
9
100
AcDbPolyline
 90
        6
 70
     1
 43
0.0
 10
-2.638748516194482
 20
57.02796337120571
 10
-2.638748516194482
 20
55.50786840766477
 10
-5.21497371544865
 20
55.507868407665
 42
-0.4142135623730898
 10
-5.614973715448741
 20
55.90786840766487
 10
-5.614973715448741
 20
56.62796337120562
 42
-0.4142135623731576
 10
-5.21497371544865
 20
57.02796337120571
  0
LINE
  5
C0E
330
B9E
100
AcDbEntity
  8
3
100
AcDbLine
 10
-40.0
 20
50.0
 30
0.0
 11
0.0
 21
50.0
 31
0.0
  0
ATTDEF
  5
C0F
330
B9E
100
AcDbEntity
  8
1
100
AcDbText
 10
-31.30691739422431
 20
40.25
 30
0.0
 40
2.0
  1
XXXXXXXXXXXXXXX
 41
0.8
  7
SANINDUSA
 72
     4
 11
-20.0
 21
41.25
 31
0.0
100
AcDbAttributeDefinition
  3
Observações:
  2
OBS
 70
     0
  0
TEXT
  5
C10
330
B9E
100
AcDbEntity
  8
1
100
AcDbText
 10
-39.0
 20
47.25
 30
0.0
 40
2.0
  1
Observações:
 41
0.8
  7
SANINDUSA
 11
-39.0
 21
48.25
 31
0.0
100
AcDbText
 73
     2
  0
LWPOLYLINE
  5
C11
102
{ACAD_REACTORS
330
BEC
102
}
330
B9E
100
AcDbEntity
  8
9
100
AcDbPolyline
 90
        6
 70
     1
 43
0.0
 10
-29.98468712904878
 20
57.02796337120571
 10
-29.98468712904878
 20
55.507868407665
 10
-32.57692046803459
 20
55.507868407665
 42
-0.4142135623731731
 10
-32.97692046803468
 20
55.90786840766487
 10
-32.97692046803468
 20
56.62796337120562
 42
-0.4142135623731576
 10
-32.57692046803459
 20
57.02796337120571
  0
LWPOLYLINE
  5
C12
102
{ACAD_REACTORS
330
BEC
102
}
330
B9E
100
AcDbEntity
  8
9
100
AcDbPolyline
 90
        4
 70
     1
 43
0.0
 10
-24.19231812786165
 20
59.87619128370352
 10
-24.57637781922995
 20
59.87619128370352
 10
-24.57637781922995
 20
59.28412752246913
 10
-24.19231812786165
 20
59.28412752246913
  0
ENDBLK
  5
C14
330
B9E
100
AcDbEntity
  8
0
100
AcDbBlockEnd
  0
ENDSEC
  0
SECTION
  2
ENTITIES
  0
LINE
  5
1B9E
330
1F
100
AcDbEntity
  8
SANINDUSA
100
AcDbLine
 10
5171.109052723839
 20
2756.97441484005
 30
0.0
 11
5171.111691183044
 21
2756.823257771961
 31
0.0
  0
LINE
  5
1BA0
330
1F
100
AcDbEntity
  8
SANINDUSA
100
AcDbLine
 10
5171.106691903069
 20
2756.823257771961
 30
0.0
 11
5171.111691183044
 21
2756.823257771961
 31
0.0
  0
LINE
  5
1BA3
330
1F
100
AcDbEntity
  8
SANINDUSA
100
AcDbLine
 10
5170.356105537486
 20
2756.823257771961
 30
0.0
 11
5170.358743993927
 21
2756.97441484005
 31
0.0
  0
LINE
  5
1BA4
330
1F
100
AcDbEntity
  8
SANINDUSA
100
AcDbLine
 10
5170.356105537486
 20
2756.823257771961
 30
0.0
 11
5170.361104775786
 21
2756.823257771961
 31
0.0
  0
LINE
  5
1BA6
330
1F
100
AcDbEntity
  8
SANINDUSA
100
AcDbLine
 10
5170.361104775786
 20
2756.823257771961
 30
0.0
 11
5171.106691903069
 21
2756.823257771961
 31
0.0
  0
LINE
  5
1BA7
330
1F
100
AcDbEntity
  8
SANINDUSA
100
AcDbLine
 10
5170.367742622836
 20
2756.983257768385
 30
0.0
 11
5171.100054091407
 21
2756.983257768385
 31
0.0
  0
ARC
  5
1BAA
330
1F
100
AcDbEntity
  8
SANINDUSA
100
AcDbCircle
 10
5171.100054072439
 20
2756.974257768385
 30
0.0
 40
0.0090000000000002
100
AcDbArc
 50
1.000000009720081
 51
90.0
  0
ARC
  5
1BAB
330
1F
100
AcDbEntity
  8
SANINDUSA
100
AcDbCircle
 10
5170.367742623176
 20
2756.974257768385
 30
0.0
 40
0.0090000000000002
100
AcDbArc
 50
90.0
 51
178.9999999902799
  0
ARC
  5
1BAE
330
1F
100
AcDbEntity
  8
SANINDUSA
100
AcDbCircle
 10
5168.432790687093
 20
2757.284832295776
 30
0.0
 40
0.0050010774106296
100
AcDbArc
 50
90.02106659422198
 51
179.9789331191623
  0
LINE
  5
1BAF
330
1F
100
AcDbEntity
  8
SANINDUSA
100
AcDbLine
 10
5168.43278884829
 20
2757.289833372849
 30
0.0
 11
5169.173099059957
 21
2757.289833372849
 31
0.0
  0
ARC
  5
1BB3
330
1F
100
AcDbEntity
  8
SANINDUSA
100
AcDbCircle
 10
5169.173097258061
 20
2757.284832290963
 30
0.0
 40
0.0050010822099564
100
AcDbArc
 50
0.0211221697645265
 51
89.97935628014401
  0
LINE
  5
1BB5
330
1F
100
AcDbEntity
  8
SANINDUSA
100
AcDbLine
 10
5169.178098339933
 20
2757.284834134579
 30
0.0
 11
5169.178098339933
 21
2756.544523922912
 31
0.0
  0
LINE
  5
1BB7
330
1F
100
AcDbEntity
  8
SANINDUSA
100
AcDbLine
 10
5168.427789610021
 20
2756.544523922912
 30
0.0
 11
5168.427789610021
 21
2757.284834134579
 31
0.0
  0
ELLIPSE
  5
1BC4
330
1F
100
AcDbEntity
  8
SANINDUSA
100
AcDbEllipse
 10
5169.125807548899
 20
2757.237542603963
 30
0.0
 11
0.0079343406248553
 21
0.0079343406248553
 31
0.0
210
0.0
220
0.0
230
1.0
 40
0.8911979137515801
 41
5.519407516233544
 42
7.04696309812567
  0
LINE
  5
1BC6
330
1F
100
AcDbEntity
  8
SANINDUSA
100
AcDbLine
 10
5169.12664719333
 20
2757.248163746856
 30
0.0
 11
5168.479240712123
 21
2757.248163746856
 31
0.0
  0
ELLIPSE
  5
1BC8
330
1F
100
AcDbEntity
  8
SANINDUSA
100
AcDbEllipse
 10
5168.480080378905
 20
2757.237542603963
 30
0.0
 11
0.0079343406248555
 21
-0.0079343406248556
 31
0.0
210
0.0
220
0.0
230
1.0
 40
0.8911979137515499
 41
2.377814862643726
 42
3.905370444535901
  0
LINE
  5
1BCA
330
1F
100
AcDbEntity
  8
SANINDUSA
100
AcDbLine
 10
5168.469459236013
 20
2757.238382270746
 30
0.0
 11
5168.469459236013
 21
2756.590975789539
 31
0.0
  0
LINE
  5
1BCD
330
1F
100
AcDbEntity
  8
SANINDUSA
100
AcDbLine
 10
5169.136428673165
 20
2756.590975789539
 30
0.0
 11
5169.136428673165
 21
2757.238382270746
 31
0.0
  0
ELLIPSE
  5
1BCE
330
1F
100
AcDbEntity
  8
SANINDUSA
100
AcDbEllipse
 10
5168.480080378905
 20
2756.59181543397
 30
0.0
 11
0.0079343406248554
 21
0.0079343406248555
 31
0.0
210
0.0
220
0.0
230
1.0
 40
0.8911979137515688
 41
2.377814862643717
 42
3.905370444535865
  0
ELLIPSE
  5
1BD1
330
1F
100
AcDbEntity
  8
SANINDUSA
100
AcDbEllipse
 10
5169.125807548899
 20
2756.59181543397
 30
0.0
 11
-0.0079343406248555
 21
0.0079343406248555
 31
0.0
210
0.0
220
0.0
230
1.0
 40
0.8911979137515654
 41
2.37781486264373
 42
3.905370444535881
  0
LINE
  5
1BD2
330
1F
100
AcDbEntity
  8
SANINDUSA
100
AcDbLine
 10
5168.479240712123
 20
2756.581194309704
 30
0.0
 11
5169.12664719333
 21
2756.581194309704
 31
0.0
  0
LINE
  5
1BD4
330
1F
100
AcDbEntity
  8
SANINDUSA
100
AcDbLine
 10
5169.173099059957
 20
2756.539524642937
 30
0.0
 11
5168.43278884829
 21
2756.539524642937
 31
0.0
  0
ARC
  5
1BD6
330
1F
100
AcDbEntity
  8
SANINDUSA
100
AcDbCircle
 10
5169.173097253249
 20
2756.54452572962
 30
0.0
 40
0.005001087009215
100
AcDbArc
 50
270.0206988524617
 51
359.979300834877
  0
ARC
  5
1BD7
330
1F
100
AcDbEntity
  8
SANINDUSA
100
AcDbCircle
 10
5168.432790691905
 20
2756.544525724807
 30
0.0
 40
0.0050010822099888
100
AcDbArc
 50
180.0206437198653
 51
269.9788782731722
  0
LWPOLYLINE
  5
1BFD
330
1F
100
AcDbEntity
  8
SANINDUSA
100
AcDbPolyline
 90
       12
 70
   128
 43
0.0
 10
5168.510580178695
 20
2756.620143918507
 10
5168.605042089121
 20
2756.619627265445
 10
5168.646179397004
 20
2756.619178144447
 10
5168.687313665049
 20
2756.618508426659
 10
5168.728446890014
 20
2756.617820767872
 10
5168.769581158059
 20
2756.617317883484
 10
5168.810718436139
 20
2756.617202369682
 10
5168.841179658072
 20
2756.617567150108
 10
5168.871635604994
 20
2756.618202654831
 10
5168.902094383137
 20
2756.618744759075
 10
5168.998697776692
 20
2756.619622556679
 10
5169.095307905571
 20
2756.620143918507
  0
LWPOLYLINE
  5
1C02
330
1F
100
AcDbEntity
  8
SANINDUSA
100
AcDbPolyline
 90
       11
 70
   128
 43
0.0
 10
5168.509700242775
 20
2757.208263619058
 10
5168.509834882216
 20
2757.168269826286
 10
5168.510395821528
 20
2757.008294372074
 10
5168.510746594863
 20
2756.907785026543
 10
5168.510891367095
 20
2756.856062350981
 10
5168.511014949875
 20
2756.8043407185
 10
5168.511144083338
 20
2756.752617148868
 10
5168.511305522518
 20
2756.700888661854
 10
5168.511265699165
 20
2756.673925129883
 10
5168.510999899702
 20
2756.646988420002
 10
5168.510580178695
 20
2756.620143918507
  0
LWPOLYLINE
  5
1C05
330
1F
100
AcDbEntity
  8
SANINDUSA
100
AcDbPolyline
 90
       10
 70
   128
 43
0.0
 10
5169.095307905571
 20
2756.620143918507
 10
5169.094888527291
 20
2756.646988479607
 10
5169.094623107808
 20
2756.673925249092
 10
5169.094583828346
 20
2756.700888840668
 10
5169.094745178121
 20
2756.752617268078
 10
5169.094872434037
 20
2756.804340778105
 10
5169.094993789093
 20
2756.856062350981
 10
5169.095137615101
 20
2756.90778499674
 10
5169.09586687793
 20
2757.114370299689
 10
5169.09618743171
 20
2757.208263365738
  0
LWPOLYLINE
  5
1C0B
330
1F
100
AcDbEntity
  8
SANINDUSA
100
AcDbPolyline
 90
        6
 70
   128
 43
0.0
 10
5169.09618743171
 20
2757.208263365738
 10
5169.056187469857
 20
2757.208276217989
 10
5168.896187503236
 20
2757.20835847985
 10
5168.809954811233
 20
2757.208383364789
 10
5168.603320155638
 20
2757.208301676624
 10
5168.509700242775
 20
2757.208263619058
  0
ARC
  5
2026
330
1F
100
AcDbEntity
  8
SANINDUSA
100
AcDbCircle
 10
5169.003453761858
 20
2756.85812670959
 30
0.0
 40
0.0025904065252288
100
AcDbArc
 50
0.0
 51
89.99629595430967
  0
LWPOLYLINE
  5
2031
330
1F
100
AcDbEntity
  8
SANINDUSA
100
AcDbPolyline
 90
        3
 70
   128
 43
0.0
 10
5168.992454965012
 20
2756.860719410889
 10
5169.000454683201
 20
2756.860717712156
 10
5169.003453929322
 20
2756.86071711611
  0
LWPOLYLINE
  5
2036
330
1F
100
AcDbEntity
  8
SANINDUSA
100
AcDbPolyline
 90
        3
 70
   128
 43
0.0
 10
5169.006044168369
 20
2756.858126966469
 10
5169.006044287579
 20
2756.850128887407
 10
5169.006044287579
 20
2756.847130624763
  0
ARC
  5
2058
330
1F
100
AcDbEntity
  8
SANINDUSA
100
AcDbCircle
 10
5168.992454207253
 20
2756.858130048897
 30
0.0
 40
0.0025893621023319
100
AcDbArc
 50
89.98323275871241
 51
180.0
  0
LINE
  5
205E
330
1F
100
AcDbEntity
  8
SANINDUSA
100
AcDbLine
 10
5168.989864845173
 20
2756.847134022228
 30
0.0
 11
5168.989864845173
 21
2756.858130393736
 31
0.0
  0
ARC
  5
2083
330
1F
100
AcDbEntity
  8
SANINDUSA
100
AcDbCircle
 10
5169.003455009013
 20
2756.847130945665
 30
0.0
 40
0.0025892785861178
100
AcDbArc
 50
269.9813842532182
 51
0.0
  0
LINE
  5
2085
330
1F
100
AcDbEntity
  8
SANINDUSA
100
AcDbLine
 10
5169.00345416774
 20
2756.844541667215
 30
0.0
 11
5168.992455024617
 21
2756.844543961995
 31
0.0
  0
ARC
  5
208D
330
1F
100
AcDbEntity
  8
SANINDUSA
100
AcDbCircle
 10
5168.992455251705
 20
2756.847134368539
 30
0.0
 40
0.0025904065549626
100
AcDbArc
 50
180.0
 51
269.994977149164
  0
CIRCLE
  5
2189
330
1F
100
AcDbEntity
  8
SANINDUSA
100
AcDbCircle
 10
5168.802943963902
 20
2756.709679018966
 30
0.0
 40
0.0452975452584133
  0
CIRCLE
  5
218A
330
1F
100
AcDbEntity
  8
SANINDUSA
100
AcDbCircle
 10
5168.802943963902
 20
2756.709679018966
 30
0.0
 40
0.0349999999999999
  0
LWPOLYLINE
  5
21A7
330
1F
100
AcDbEntity
  8
SANINDUSA
100
AcDbPolyline
 90
        3
 70
   128
 43
0.0
 10
5172.023566788542
 20
2756.852473063104
 10
5172.032331293929
 20
2756.853372780315
 10
5172.041050320971
 20
2756.855490205519
  0
LINE
  5
21A9
330
1F
100
AcDbEntity
  8
SANINDUSA
100
AcDbLine
 10
5171.816888576853
 20
2756.853864429228
 30
0.0
 11
5171.87356675278
 21
2756.852473852865
 31
0.0
  0
LWPOLYLINE
  5
21AA
330
1F
100
AcDbEntity
  8
SANINDUSA
100
AcDbPolyline
 90
        3
 70
   128
 43
0.0
 10
5171.751908129561
 20
2756.855458704464
 10
5171.76271856438
 20
2756.855193612806
 10
5171.794149375069
 20
2756.854422090284
  0
LINE
  5
21AB
330
1F
100
AcDbEntity
  8
SANINDUSA
100
AcDbLine
 10
5171.686927652467
 20
2756.857053143613
 30
0.0
 11
5171.729168897975
 21
2756.85601675295
 31
0.0
  0
LINE
  5
21AC
330
1F
100
AcDbEntity
  8
SANINDUSA
100
AcDbLine
 10
5171.621947205174
 20
2756.858647783927
 30
0.0
 11
5171.664188480485
 21
2756.8576111921
 31
0.0
  0
LINE
  5
21AD
330
1F
100
AcDbEntity
  8
SANINDUSA
100
AcDbLine
 10
5171.556966742981
 20
2756.860242156021
 30
0.0
 11
5171.599208077896
 21
2756.859205616347
 31
0.0
  0
LINE
  5
21AE
330
1F
100
AcDbEntity
  8
SANINDUSA
100
AcDbLine
 10
5171.44986220311
 20
2756.862870258919
 30
0.0
 11
5171.534227615702
 21
2756.86080023431
 31
0.0
  0
LINE
  5
21D1
330
1F
100
AcDbEntity
  8
SANINDUSA
100
AcDbLine
 10
5171.556868603933
 20
2756.856243354909
 30
0.0
 11
5171.599109983552
 21
2756.855206815235
 31
0.0
  0
LINE
  5
21D5
330
1F
100
AcDbEntity
  8
SANINDUSA
100
AcDbLine
 10
5171.621849125731
 20
2756.854648990266
 30
0.0
 11
5171.664090281833
 21
2756.853612390987
 31
0.0
  0
LINE
  5
21D9
330
1F
100
AcDbEntity
  8
SANINDUSA
100
AcDbLine
 10
5171.686829573023
 20
2756.853054342501
 30
0.0
 11
5171.729070729124
 21
2756.852017966739
 31
0.0
  0
LWPOLYLINE
  5
21DD
330
1F
100
AcDbEntity
  8
SANINDUSA
100
AcDbPolyline
 90
        3
 70
   128
 43
0.0
 10
5171.751810079921
 20
2756.851459903352
 10
5171.781965470422
 20
2756.850720001094
 10
5171.794051236022
 20
2756.850423289172
  0
LINE
  5
21E1
330
1F
100
AcDbEntity
  8
SANINDUSA
100
AcDbLine
 10
5171.816790527213
 20
2756.849865628116
 30
0.0
 11
5171.873448616373
 21
2756.848475543491
 31
0.0
  0
LWPOLYLINE
  5
21E2
330
1F
100
AcDbEntity
  8
SANINDUSA
100
AcDbPolyline
 90
        3
 70
   128
 43
0.0
 10
5172.023711150992
 20
2756.848475677602
 10
5172.033008343089
 20
2756.849430499308
 10
5172.042257374632
 20
2756.851676670544
  0
LINE
  5
21E3
330
1F
100
AcDbEntity
  8
SANINDUSA
100
AcDbLine
 10
5171.449764071513
 20
2756.858871465258
 30
0.0
 11
5171.534129476655
 21
2756.856801448099
 31
0.0
  0
ARC
  5
21E7
330
1F
100
AcDbEntity
  8
SANINDUSA
100
AcDbCircle
 10
5172.085854813848
 20
2756.974257768385
 30
0.0
 40
0.0090000000000001
100
AcDbArc
 50
90.0
 51
168.0000000087166
  0
LINE
  5
21E8
330
1F
100
AcDbEntity
  8
SANINDUSA
100
AcDbLine
 10
5172.085854834426
 20
2756.983257768385
 30
0.0
 11
5172.109722501147
 21
2756.983257768385
 31
0.0
  0
ARC
  5
21E9
330
1F
100
AcDbEntity
  8
SANINDUSA
100
AcDbCircle
 10
5172.10972248218
 20
2756.974257768385
 30
0.0
 40
0.0089999999999999
100
AcDbArc
 50
1.000000009720081
 51
90.0
  0
LINE
  5
21EA
330
1F
100
AcDbEntity
  8
SANINDUSA
100
AcDbLine
 10
5172.118721133578
 20
2756.97441484005
 30
0.0
 11
5172.121359592784
 21
2756.823257771961
 31
0.0
  0
LINE
  5
21EB
330
1F
100
AcDbEntity
  8
SANINDUSA
100
AcDbLine
 10
5172.121359592784
 20
2756.823257771961
 30
0.0
 11
5172.117358929027
 21
2756.823257771961
 31
0.0
  0
LINE
  5
21EC
330
1F
100
AcDbEntity
  8
SANINDUSA
100
AcDbLine
 10
5172.114721721518
 20
2756.974345029972
 30
0.0
 11
5172.117358929027
 21
2756.823257771961
 31
0.0
  0
ARC
  5
21ED
330
1F
100
AcDbEntity
  8
SANINDUSA
100
AcDbCircle
 10
5172.10972248218
 20
2756.974257768385
 30
0.0
 40
0.005
100
AcDbArc
 50
1.000000009720081
 51
90.0
  0
LINE
  5
21EE
330
1F
100
AcDbEntity
  8
SANINDUSA
100
AcDbLine
 10
5172.085854834426
 20
2756.979257768195
 30
0.0
 11
5172.109722501147
 21
2756.979257768195
 31
0.0
  0
ARC
  5
21EF
330
1F
100
AcDbEntity
  8
SANINDUSA
100
AcDbCircle
 10
5172.085854813848
 20
2756.974257768385
 30
0.0
 40
0.0050000000000001
100
AcDbArc
 50
90.0
 51
168.0000000087166
  0
LINE
  5
21F0
330
1F
100
AcDbEntity
  8
SANINDUSA
100
AcDbLine
 10
5172.080964094508
 20
2756.975297326862
 30
0.0
 11
5172.058490580428
 21
2756.869567973248
 31
0.0
  0
ARC
  5
21F1
330
1F
100
AcDbEntity
  8
SANINDUSA
100
AcDbCircle
 10
5172.035015053548
 20
2756.874557840058
 30
0.0
 40
0.0239999819385583
100
AcDbArc
 50
287.5635601883631
 51
348.000024430067
  0
LINE
  5
21F2
330
1F
100
AcDbEntity
  8
SANINDUSA
100
AcDbLine
 10
5171.995659774649
 20
2756.8474965223
 30
0.0
 11
5172.023711150992
 21
2756.848476109735
 31
0.0
  0
LINE
  5
21F3
330
1F
100
AcDbEntity
  8
SANINDUSA
100
AcDbLine
 10
5171.98530603062
 20
2756.836393503181
 30
0.0
 11
5171.995659774649
 21
2756.8474965223
 31
0.0
  0
LINE
  5
21F4
330
1F
100
AcDbEntity
  8
SANINDUSA
100
AcDbLine
 10
5171.911827510703
 20
2756.836393503181
 30
0.0
 11
5171.98530603062
 21
2756.836393503181
 31
0.0
  0
LINE
  5
21F5
330
1F
100
AcDbEntity
  8
SANINDUSA
100
AcDbLine
 10
5171.901473766673
 20
2756.8474965223
 30
0.0
 11
5171.911827510703
 21
2756.836393503181
 31
0.0
  0
LINE
  5
21F6
330
1F
100
AcDbEntity
  8
SANINDUSA
100
AcDbLine
 10
5171.873448616373
 20
2756.848475185864
 30
0.0
 11
5171.901473766673
 21
2756.8474965223
 31
0.0
  0
ARC
  5
21F7
330
1F
100
AcDbEntity
  8
SANINDUSA
100
AcDbCircle
 10
5171.816986580338
 20
2756.857863105651
 30
0.0
 40
0.0079998802343576
100
AcDbArc
 50
217.2773241563553
 51
268.5957112949188
  0
LINE
  5
21F8
330
1F
100
AcDbEntity
  8
SANINDUSA
100
AcDbLine
 10
5171.800367987263
 20
2756.853269202344
 30
0.0
 11
5171.810620969641
 21
2756.853017789952
 31
0.0
  0
ARC
  5
21F9
330
1F
100
AcDbEntity
  8
SANINDUSA
100
AcDbCircle
 10
5171.794247505145
 20
2756.858420898169
 30
0.0
 40
0.0080000169521133
100
AcDbArc
 50
268.594187863739
 51
319.9122095041293
  0
ARC
  5
21FA
330
1F
100
AcDbEntity
  8
SANINDUSA
100
AcDbCircle
 10
5171.752006120581
 20
2756.85945734796
 30
0.0
 40
0.0079998470116445
100
AcDbArc
 50
217.2768065430816
 51
268.5957948002048
  0
LINE
  5
21FB
330
1F
100
AcDbEntity
  8
SANINDUSA
100
AcDbLine
 10
5171.735387480367
 20
2756.854863760702
 30
0.0
 11
5171.745640492547
 21
2756.854612109892
 31
0.0
  0
ARC
  5
21FC
330
1F
100
AcDbEntity
  8
SANINDUSA
100
AcDbCircle
 10
5171.729267077934
 20
2756.860015614666
 30
0.0
 40
0.0080000578254508
100
AcDbArc
 50
268.5936241741381
 51
319.9109754840259
  0
ARC
  5
21FD
330
1F
100
AcDbEntity
  8
SANINDUSA
100
AcDbCircle
 10
5171.687025709724
 20
2756.861051846183
 30
0.0
 40
0.0079999084220165
100
AcDbArc
 50
217.2766010985426
 51
268.5951175288799
  0
LINE
  5
21FE
330
1F
100
AcDbEntity
  8
SANINDUSA
100
AcDbLine
 10
5171.670407062876
 20
2756.856458214752
 30
0.0
 11
5171.680660015453
 21
2756.856206593744
 31
0.0
  0
ARC
  5
21FF
330
1F
100
AcDbEntity
  8
SANINDUSA
100
AcDbCircle
 10
5171.664286669189
 20
2756.861609963494
 30
0.0
 40
0.0079999833752429
100
AcDbArc
 50
268.5933349277605
 51
319.911511688018
  0
ARC
  5
2200
330
1F
100
AcDbEntity
  8
SANINDUSA
100
AcDbCircle
 10
5171.622045295901
 20
2756.862646582358
 30
0.0
 40
0.0079999976261706
100
AcDbArc
 50
217.2770446927538
 51
268.5948933875542
  0
LINE
  5
2201
330
1F
100
AcDbEntity
  8
SANINDUSA
100
AcDbLine
 10
5171.605426675188
 20
2756.858052758209
 30
0.0
 11
5171.61567956816
 21
2756.857801226608
 31
0.0
  0
ARC
  5
2202
330
1F
100
AcDbEntity
  8
SANINDUSA
100
AcDbCircle
 10
5171.599306165783
 20
2756.863204434961
 30
0.0
 40
0.0080000255467922
100
AcDbArc
 50
268.5948119152334
 51
319.9124398385562
  0
ARC
  5
2203
330
1F
100
AcDbEntity
  8
SANINDUSA
100
AcDbCircle
 10
5171.557064916455
 20
2756.864240997907
 30
0.0
 40
0.0080000520078258
100
AcDbArc
 50
217.2764016780879
 51
268.5938831356996
  0
LINE
  5
2204
330
1F
100
AcDbEntity
  8
SANINDUSA
100
AcDbLine
 10
5171.540446198094
 20
2756.859647316567
 30
0.0
 11
5171.550699091065
 21
2756.859395680658
 31
0.0
  0
ARC
  5
2205
330
1F
100
AcDbEntity
  8
SANINDUSA
100
AcDbCircle
 10
5171.534325825483
 20
2756.864798897014
 30
0.0
 40
0.0079998588741385
100
AcDbArc
 50
268.5935890934296
 51
319.9123366544234
  0
ARC
  5
2206
330
1F
100
AcDbEntity
  8
SANINDUSA
100
AcDbCircle
 10
5171.450352871367
 20
2756.882864241707
 30
0.0
 40
0.0240000001457193
100
AcDbArc
 50
192.0000091847327
 51
268.5942028759108
  0
LINE
  5
2207
330
1F
100
AcDbEntity
  8
SANINDUSA
100
AcDbLine
 10
5171.426877329606
 20
2756.877874357335
 30
0.0
 11
5171.406169439215
 21
2756.975297326862
 31
0.0
  0
ARC
  5
2208
330
1F
100
AcDbEntity
  8
SANINDUSA
100
AcDbCircle
 10
5171.401278701249
 20
2756.974257768385
 30
0.0
 40
0.0050000000000001
100
AcDbArc
 50
11.9999999912834
 51
90.0
  0
LINE
  5
2209
330
1F
100
AcDbEntity
  8
SANINDUSA
100
AcDbLine
 10
5171.377411032576
 20
2756.979257768195
 30
0.0
 11
5171.401278703022
 21
2756.979257768195
 31
0.0
  0
ARC
  5
220A
330
1F
100
AcDbEntity
  8
SANINDUSA
100
AcDbCircle
 10
5171.377411032917
 20
2756.974257768385
 30
0.0
 40
0.0050000000000001
100
AcDbArc
 50
90.0
 51
178.9999999902799
  0
LINE
  5
220B
330
1F
100
AcDbEntity
  8
SANINDUSA
100
AcDbLine
 10
5171.369774556501
 20
2756.823257771961
 30
0.0
 11
5171.37241179451
 21
2756.974345029972
 31
0.0
  0
LINE
  5
220C
330
1F
100
AcDbEntity
  8
SANINDUSA
100
AcDbLine
 10
5171.369774556501
 20
2756.823257771961
 30
0.0
 11
5171.365773947226
 21
2756.823257771961
 31
0.0
  0
LINE
  5
220D
330
1F
100
AcDbEntity
  8
SANINDUSA
100
AcDbLine
 10
5171.365773947226
 20
2756.823257771961
 30
0.0
 11
5171.368412403666
 21
2756.97441484005
 31
0.0
  0
ARC
  5
220E
330
1F
100
AcDbEntity
  8
SANINDUSA
100
AcDbCircle
 10
5171.377411032917
 20
2756.974257768385
 30
0.0
 40
0.0090000000000001
100
AcDbArc
 50
90.0
 51
178.9999999902799
  0
LINE
  5
220F
330
1F
100
AcDbEntity
  8
SANINDUSA
100
AcDbLine
 10
5171.377411032576
 20
2756.983257768385
 30
0.0
 11
5171.401278703022
 21
2756.983257768385
 31
0.0
  0
ARC
  5
2210
330
1F
100
AcDbEntity
  8
SANINDUSA
100
AcDbCircle
 10
5171.401278701249
 20
2756.974257768385
 30
0.0
 40
0.009
100
AcDbArc
 50
11.9999999912834
 51
90.0
  0
LINE
  5
2211
330
1F
100
AcDbEntity
  8
SANINDUSA
100
AcDbLine
 10
5171.430789920051
 20
2756.878706006042
 30
0.0
 11
5171.410082029659
 21
2756.976128973708
 31
0.0
  0
ARC
  5
2212
330
1F
100
AcDbEntity
  8
SANINDUSA
100
AcDbCircle
 10
5171.450352874043
 20
2756.8828642413
 30
0.0
 40
0.0200000022344934
100
AcDbArc
 50
192.0000028737549
 51
268.5941904182883
  0
ARC
  5
2213
330
1F
100
AcDbEntity
  8
SANINDUSA
100
AcDbCircle
 10
5171.534325749865
 20
2756.864799056933
 30
0.0
 40
0.0040000265851216
100
AcDbArc
 50
268.5941999573391
 51
323.744067589708
  0
ARC
  5
2214
330
1F
100
AcDbEntity
  8
SANINDUSA
100
AcDbCircle
 10
5171.53997044562
 20
2756.860659314725
 30
0.0
 40
0.0029999773938362
100
AcDbArc
 50
88.59390841688471
 51
143.7443555463979
  0
LINE
  5
2215
330
1F
100
AcDbEntity
  8
SANINDUSA
100
AcDbLine
 10
5171.540044060457
 20
2756.863658388786
 30
0.0
 11
5171.551297506798
 21
2756.863382195763
 31
0.0
  0
ARC
  5
2216
330
1F
100
AcDbEntity
  8
SANINDUSA
100
AcDbCircle
 10
5171.55122387912
 20
2756.860383039787
 30
0.0
 40
0.0030000596000445
100
AcDbArc
 50
33.44461170416865
 51
88.59370168535731
  0
ARC
  5
2217
330
1F
100
AcDbEntity
  8
SANINDUSA
100
AcDbCircle
 10
5171.55706489946
 20
2756.864240978099
 30
0.0
 40
0.0040000265886609
100
AcDbArc
 50
213.4442097976392
 51
268.5938802164886
  0
ARC
  5
2218
330
1F
100
AcDbEntity
  8
SANINDUSA
100
AcDbCircle
 10
5171.599306190771
 20
2756.86320442049
 30
0.0
 40
0.0040000075883717
100
AcDbArc
 50
268.5944983260112
 51
323.7445933078894
  0
ARC
  5
2219
330
1F
100
AcDbEntity
  8
SANINDUSA
100
AcDbCircle
 10
5171.604950917925
 20
2756.859064740285
 30
0.0
 40
0.0029999850440333
100
AcDbArc
 50
88.59467456306601
 51
143.7449640828038
  0
LINE
  5
221A
330
1F
100
AcDbEntity
  8
SANINDUSA
100
AcDbLine
 10
5171.605024492848
 20
2756.862063822977
 30
0.0
 11
5171.61627795409
 21
2756.861787756614
 31
0.0
  0
ARC
  5
221B
330
1F
100
AcDbEntity
  8
SANINDUSA
100
AcDbCircle
 10
5171.61620441886
 20
2756.858788730936
 30
0.0
 40
0.0029999270736816
100
AcDbArc
 50
33.44398327734733
 51
88.5954056806335
  0
ARC
  5
221C
330
1F
100
AcDbEntity
  8
SANINDUSA
100
AcDbCircle
 10
5171.622045304061
 20
2756.862646575509
 30
0.0
 40
0.0039999946878431
100
AcDbArc
 50
213.4446275734136
 51
268.5946942148464
  0
ARC
  5
221D
330
1F
100
AcDbEntity
  8
SANINDUSA
100
AcDbCircle
 10
5171.66428663744
 20
2756.861609992868
 30
0.0
 40
0.0040000052971065
100
AcDbArc
 50
268.5938658821849
 51
323.7435704296317
  0
ARC
  5
221E
330
1F
100
AcDbEntity
  8
SANINDUSA
100
AcDbCircle
 10
5171.669931304649
 20
2756.857470181953
 30
0.0
 40
0.0030000162970373
100
AcDbArc
 50
88.59353206814267
 51
143.7436378538211
  0
LINE
  5
221F
330
1F
100
AcDbEntity
  8
SANINDUSA
100
AcDbLine
 10
5171.670004940141
 20
2756.860469294421
 30
0.0
 11
5171.681258386481
 21
2756.860193116299
 31
0.0
  0
ARC
  5
2220
330
1F
100
AcDbEntity
  8
SANINDUSA
100
AcDbCircle
 10
5171.681184788996
 20
2756.857193950499
 30
0.0
 40
0.0030000686803898
100
AcDbArc
 50
33.44540417116317
 51
88.59428273330122
  0
ARC
  5
2221
330
1F
100
AcDbEntity
  8
SANINDUSA
100
AcDbCircle
 10
5171.687025722254
 20
2756.861051882655
 30
0.0
 40
0.003999941451659
100
AcDbArc
 50
213.4442293236495
 51
268.5950924567119
  0
ARC
  5
2222
330
1F
100
AcDbEntity
  8
SANINDUSA
100
AcDbCircle
 10
5171.729267081763
 20
2756.860015557969
 30
0.0
 40
0.0040000102040023
100
AcDbArc
 50
268.5934831213416
 51
323.7435464785307
  0
ARC
  5
2223
330
1F
100
AcDbEntity
  8
SANINDUSA
100
AcDbCircle
 10
5171.734911721949
 20
2756.855875767357
 30
0.0
 40
0.0029999775912071
100
AcDbArc
 50
88.59294096020283
 51
143.743677240978
  0
LINE
  5
2224
330
1F
100
AcDbEntity
  8
SANINDUSA
100
AcDbLine
 10
5171.734985387433
 20
2756.858874840371
 30
0.0
 11
5171.746238833773
 21
2756.858598632447
 31
0.0
  0
ARC
  5
2225
330
1F
100
AcDbEntity
  8
SANINDUSA
100
AcDbCircle
 10
5171.746165225338
 20
2756.855599437721
 30
0.0
 40
0.0030000978668165
100
AcDbArc
 50
33.44586859350991
 51
88.59408720848859
  0
ARC
  5
2226
330
1F
100
AcDbEntity
  8
SANINDUSA
100
AcDbCircle
 10
5171.752006106118
 20
2756.859457376383
 30
0.0
 40
0.003999872063695
100
AcDbArc
 50
213.4443730288361
 51
268.5964039430775
  0
ARC
  5
2227
330
1F
100
AcDbEntity
  8
SANINDUSA
100
AcDbCircle
 10
5171.794247505967
 20
2756.858420938192
 30
0.0
 40
0.0040000517823131
100
AcDbArc
 50
268.5942556275294
 51
323.7440155077257
  0
ARC
  5
2228
330
1F
100
AcDbEntity
  8
SANINDUSA
100
AcDbCircle
 10
5171.799892179934
 20
2756.854281294149
 30
0.0
 40
0.0029998765760438
100
AcDbArc
 50
88.59366723042246
 51
143.7456908016913
  0
LINE
  5
2229
330
1F
100
AcDbEntity
  8
SANINDUSA
100
AcDbLine
 10
5171.799965804923
 20
2756.857280267112
 30
0.0
 11
5171.811219281066
 21
2756.857004312508
 31
0.0
  0
ARC
  5
222A
330
1F
100
AcDbEntity
  8
SANINDUSA
100
AcDbCircle
 10
5171.811145803428
 20
2756.854005317326
 30
0.0
 40
0.00299989517515
100
AcDbArc
 50
33.44454029954527
 51
88.59649109753645
  0
ARC
  5
222B
330
1F
100
AcDbEntity
  8
SANINDUSA
100
AcDbCircle
 10
5171.816986633506
 20
2756.857863264074
 30
0.0
 40
0.0040000369039104
100
AcDbArc
 50
213.4458661727543
 51
268.5953141476776
  0
LINE
  5
222C
330
1F
100
AcDbEntity
  8
SANINDUSA
100
AcDbLine
 10
5171.87356675278
 20
2756.852473495237
 30
0.0
 11
5171.903269237388
 21
2756.85143627011
 31
0.0
  0
LINE
  5
222D
330
1F
100
AcDbEntity
  8
SANINDUSA
100
AcDbLine
 10
5171.903269237388
 20
2756.85143627011
 30
0.0
 11
5171.913566774238
 21
2756.840393496386
 31
0.0
  0
LINE
  5
222E
330
1F
100
AcDbEntity
  8
SANINDUSA
100
AcDbLine
 10
5171.913566774238
 20
2756.840393496386
 30
0.0
 11
5171.983566767085
 21
2756.840393496386
 31
0.0
  0
LINE
  5
222F
330
1F
100
AcDbEntity
  8
SANINDUSA
100
AcDbLine
 10
5171.983566767085
 20
2756.840393496386
 30
0.0
 11
5171.993864303935
 21
2756.85143627011
 31
0.0
  0
LINE
  5
2230
330
1F
100
AcDbEntity
  8
SANINDUSA
100
AcDbLine
 10
5171.993864303935
 20
2756.85143627011
 30
0.0
 11
5172.023566728938
 21
2756.852473495237
 31
0.0
  0
ARC
  5
2231
330
1F
100
AcDbEntity
  8
SANINDUSA
100
AcDbCircle
 10
5172.035015036249
 20
2756.874557889105
 30
0.0
 40
0.0200000304759168
100
AcDbArc
 50
287.5635704640218
 51
347.9999209179166
  0
LINE
  5
2232
330
1F
100
AcDbEntity
  8
SANINDUSA
100
AcDbLine
 10
5172.077051466811
 20
2756.976128973708
 30
0.0
 11
5172.054578012335
 21
2756.870399621956
 31
0.0
  0
LINE
  5
2233
330
1F
100
AcDbEntity
  8
SANINDUSA
100
AcDbLine
 10
5171.993864303935
 20
2756.85143627011
 30
0.0
 11
5171.903269237388
 21
2756.85143627011
 31
0.0
  0
LINE
  5
232D
330
1F
100
AcDbEntity
  8
SANINDUSA
100
AcDbLine
 10
5171.401278703022
 20
2756.983257768385
 30
0.0
 11
5171.419863505769
 21
2756.983257768385
 31
0.0
  0
LINE
  5
232F
330
1F
100
AcDbEntity
  8
SANINDUSA
100
AcDbLine
 10
5172.067269986976
 20
2756.983257768385
 30
0.0
 11
5172.085854834426
 21
2756.983257768385
 31
0.0
  0
LINE
  5
2330
330
1F
100
AcDbEntity
  8
SANINDUSA
100
AcDbLine
 10
5171.419863505769
 20
2756.983257768385
 30
0.0
 11
5172.067269986976
 21
2756.983257768385
 31
0.0
  0
LINE
  5
2336
330
1F
100
AcDbEntity
  8
SANINDUSA
100
AcDbLine
 10
5172.117358929027
 20
2756.823257771961
 30
0.0
 11
5172.116359120715
 21
2756.823257771961
 31
0.0
  0
LINE
  5
2338
330
1F
100
AcDbEntity
  8
SANINDUSA
100
AcDbLine
 10
5171.37077440416
 20
2756.823257771961
 30
0.0
 11
5171.369774556501
 21
2756.823257771961
 31
0.0
  0
LINE
  5
2339
330
1F
100
AcDbEntity
  8
SANINDUSA
100
AcDbLine
 10
5172.116359120715
 20
2756.823257771961
 30
0.0
 11
5171.37077440416
 21
2756.823257771961
 31
0.0
  0
LINE
  5
27FE
330
1F
100
AcDbEntity
  8
SANINDUSA
100
AcDbLine
 10
5170.123551886265
 20
2756.97441484005
 30
0.0
 11
5170.12619034547
 21
2756.823257771961
 31
0.0
  0
LINE
  5
2800
330
1F
100
AcDbEntity
  8
SANINDUSA
100
AcDbLine
 10
5170.121191065494
 20
2756.823257771961
 30
0.0
 11
5170.12619034547
 21
2756.823257771961
 31
0.0
  0
LINE
  5
2803
330
1F
100
AcDbEntity
  8
SANINDUSA
100
AcDbLine
 10
5169.370604699913
 20
2756.823257771961
 30
0.0
 11
5169.373243156353
 21
2756.97441484005
 31
0.0
  0
LINE
  5
2804
330
1F
100
AcDbEntity
  8
SANINDUSA
100
AcDbLine
 10
5169.370604699913
 20
2756.823257771961
 30
0.0
 11
5169.375603938211
 21
2756.823257771961
 31
0.0
  0
LINE
  5
2806
330
1F
100
AcDbEntity
  8
SANINDUSA
100
AcDbLine
 10
5169.375603938211
 20
2756.823257771961
 30
0.0
 11
5170.121191065494
 21
2756.823257771961
 31
0.0
  0
LINE
  5
2807
330
1F
100
AcDbEntity
  8
SANINDUSA
100
AcDbLine
 10
5169.382241785263
 20
2756.983257768385
 30
0.0
 11
5170.114553253834
 21
2756.983257768385
 31
0.0
  0
ARC
  5
280A
330
1F
100
AcDbEntity
  8
SANINDUSA
100
AcDbCircle
 10
5170.114553234867
 20
2756.974257768385
 30
0.0
 40
0.0090000000000002
100
AcDbArc
 50
1.000000009720081
 51
90.0
  0
ARC
  5
280B
330
1F
100
AcDbEntity
  8
SANINDUSA
100
AcDbCircle
 10
5169.382241785602
 20
2756.974257768385
 30
0.0
 40
0.0090000000000002
100
AcDbArc
 50
90.0
 51
178.9999999902799
  0
ARC
  5
280C
330
1F
100
AcDbEntity
  8
SANINDUSA
100
AcDbCircle
 10
5168.938453689737
 20
2756.858143831024
 30
0.0
 40
0.0025904065252288
100
AcDbArc
 50
0.0
 51
89.99629595430967
  0
LWPOLYLINE
  5
280D
330
1F
100
AcDbEntity
  8
SANINDUSA
100
AcDbPolyline
 90
        3
 70
   128
 43
0.0
 10
5168.927454892891
 20
2756.860736532323
 10
5168.93545461108
 20
2756.860734833591
 10
5168.938453857201
 20
2756.860734237544
  0
LWPOLYLINE
  5
280E
330
1F
100
AcDbEntity
  8
SANINDUSA
100
AcDbPolyline
 90
        3
 70
   128
 43
0.0
 10
5168.941044096248
 20
2756.858144087903
 10
5168.941044215458
 20
2756.850146008841
 10
5168.941044215458
 20
2756.847147746198
  0
ARC
  5
280F
330
1F
100
AcDbEntity
  8
SANINDUSA
100
AcDbCircle
 10
5168.927454135132
 20
2756.858147170331
 30
0.0
 40
0.0025893621023319
100
AcDbArc
 50
89.98323275871241
 51
180.0
  0
LINE
  5
2810
330
1F
100
AcDbEntity
  8
SANINDUSA
100
AcDbLine
 10
5168.924864773052
 20
2756.847151143662
 30
0.0
 11
5168.924864773052
 21
2756.85814751517
 31
0.0
  0
ARC
  5
2811
330
1F
100
AcDbEntity
  8
SANINDUSA
100
AcDbCircle
 10
5168.938454936892
 20
2756.847148067099
 30
0.0
 40
0.0025892785861178
100
AcDbArc
 50
269.9813842532182
 51
0.0
  0
LINE
  5
2812
330
1F
100
AcDbEntity
  8
SANINDUSA
100
AcDbLine
 10
5168.938454095619
 20
2756.84455878865
 30
0.0
 11
5168.927454952495
 21
2756.844561083429
 31
0.0
  0
ARC
  5
2813
330
1F
100
AcDbEntity
  8
SANINDUSA
100
AcDbCircle
 10
5168.927455179583
 20
2756.847151489973
 30
0.0
 40
0.0025904065549626
100
AcDbArc
 50
180.0
 51
269.994977149164
  0
ARC
  5
2814
330
1F
100
AcDbEntity
  8
SANINDUSA
100
AcDbCircle
 10
5168.873453394097
 20
2756.85812670959
 30
0.0
 40
0.0025904065252288
100
AcDbArc
 50
0.0
 51
89.99629595430967
  0
LWPOLYLINE
  5
2815
330
1F
100
AcDbEntity
  8
SANINDUSA
100
AcDbPolyline
 90
        3
 70
   128
 43
0.0
 10
5168.862454597252
 20
2756.860719410889
 10
5168.870454315441
 20
2756.860717712156
 10
5168.873453561562
 20
2756.86071711611
  0
LWPOLYLINE
  5
2816
330
1F
100
AcDbEntity
  8
SANINDUSA
100
AcDbPolyline
 90
        3
 70
   128
 43
0.0
 10
5168.876043800609
 20
2756.858126966469
 10
5168.876043919818
 20
2756.850128887407
 10
5168.876043919818
 20
2756.847130624763
  0
ARC
  5
2817
330
1F
100
AcDbEntity
  8
SANINDUSA
100
AcDbCircle
 10
5168.862453839492
 20
2756.858130048897
 30
0.0
 40
0.0025893621023319
100
AcDbArc
 50
89.98323275871241
 51
180.0
  0
LINE
  5
2818
330
1F
100
AcDbEntity
  8
SANINDUSA
100
AcDbLine
 10
5168.859864477413
 20
2756.847134022228
 30
0.0
 11
5168.859864477413
 21
2756.858130393736
 31
0.0
  0
ARC
  5
2819
330
1F
100
AcDbEntity
  8
SANINDUSA
100
AcDbCircle
 10
5168.873454641253
 20
2756.847130945665
 30
0.0
 40
0.0025892785861178
100
AcDbArc
 50
269.9813842532182
 51
0.0
  0
LINE
  5
281A
330
1F
100
AcDbEntity
  8
SANINDUSA
100
AcDbLine
 10
5168.87345379998
 20
2756.844541667215
 30
0.0
 11
5168.862454656856
 21
2756.844543961995
 31
0.0
  0
ARC
  5
281B
330
1F
100
AcDbEntity
  8
SANINDUSA
100
AcDbCircle
 10
5168.862454883944
 20
2756.847134368539
 30
0.0
 40
0.0025904065549626
100
AcDbArc
 50
180.0
 51
269.994977149164
  0
ARC
  5
281C
330
1F
100
AcDbEntity
  8
SANINDUSA
100
AcDbCircle
 10
5168.808453888219
 20
2756.858177865276
 30
0.0
 40
0.0025904065252288
100
AcDbArc
 50
0.0
 51
89.99629595430967
  0
LWPOLYLINE
  5
281D
330
1F
100
AcDbEntity
  8
SANINDUSA
100
AcDbPolyline
 90
        3
 70
   128
 43
0.0
 10
5168.797455091374
 20
2756.860770566575
 10
5168.805454809564
 20
2756.860768867843
 10
5168.808454055684
 20
2756.860768271796
  0
LWPOLYLINE
  5
281E
330
1F
100
AcDbEntity
  8
SANINDUSA
100
AcDbPolyline
 90
        3
 70
   128
 43
0.0
 10
5168.811044294732
 20
2756.858178122155
 10
5168.811044413941
 20
2756.850180043094
 10
5168.811044413941
 20
2756.84718178045
  0
ARC
  5
281F
330
1F
100
AcDbEntity
  8
SANINDUSA
100
AcDbCircle
 10
5168.797454333615
 20
2756.858181204583
 30
0.0
 40
0.0025893621023319
100
AcDbArc
 50
89.98323275871241
 51
180.0
  0
LINE
  5
2820
330
1F
100
AcDbEntity
  8
SANINDUSA
100
AcDbLine
 10
5168.794864971535
 20
2756.847185177915
 30
0.0
 11
5168.794864971535
 21
2756.858181549422
 31
0.0
  0
ARC
  5
2821
330
1F
100
AcDbEntity
  8
SANINDUSA
100
AcDbCircle
 10
5168.808455135375
 20
2756.847182101351
 30
0.0
 40
0.0025892785861178
100
AcDbArc
 50
269.9813842532182
 51
0.0
  0
LINE
  5
2822
330
1F
100
AcDbEntity
  8
SANINDUSA
100
AcDbLine
 10
5168.808454294103
 20
2756.844592822902
 30
0.0
 11
5168.797455150979
 21
2756.84459511768
 31
0.0
  0
ARC
  5
2823
330
1F
100
AcDbEntity
  8
SANINDUSA
100
AcDbCircle
 10
5168.797455378067
 20
2756.847185524225
 30
0.0
 40
0.0025904065549626
100
AcDbArc
 50
180.0
 51
269.994977149164
  0
ARC
  5
2824
330
1F
100
AcDbEntity
  8
SANINDUSA
100
AcDbCircle
 10
5168.743454382342
 20
2756.858166287074
 30
0.0
 40
0.0025904065252288
100
AcDbArc
 50
0.0
 51
89.99629595430967
  0
LWPOLYLINE
  5
2825
330
1F
100
AcDbEntity
  8
SANINDUSA
100
AcDbPolyline
 90
        3
 70
   128
 43
0.0
 10
5168.732455585496
 20
2756.860758988373
 10
5168.740455303685
 20
2756.86075728964
 10
5168.743454549806
 20
2756.860756693594
  0
LWPOLYLINE
  5
2826
330
1F
100
AcDbEntity
  8
SANINDUSA
100
AcDbPolyline
 90
        3
 70
   128
 43
0.0
 10
5168.746044788854
 20
2756.858166543953
 10
5168.746044908064
 20
2756.850168464892
 10
5168.746044908064
 20
2756.847170202247
  0
ARC
  5
2827
330
1F
100
AcDbEntity
  8
SANINDUSA
100
AcDbCircle
 10
5168.732454827737
 20
2756.858169626381
 30
0.0
 40
0.0025893621023319
100
AcDbArc
 50
89.98323275871241
 51
180.0
  0
LINE
  5
2828
330
1F
100
AcDbEntity
  8
SANINDUSA
100
AcDbLine
 10
5168.729865465658
 20
2756.847173599712
 30
0.0
 11
5168.729865465658
 21
2756.85816997122
 31
0.0
  0
ARC
  5
2829
330
1F
100
AcDbEntity
  8
SANINDUSA
100
AcDbCircle
 10
5168.743455629497
 20
2756.847170523149
 30
0.0
 40
0.0025892785861178
100
AcDbArc
 50
269.9813842532182
 51
0.0
  0
LINE
  5
282A
330
1F
100
AcDbEntity
  8
SANINDUSA
100
AcDbLine
 10
5168.743454788224
 20
2756.844581244699
 30
0.0
 11
5168.732455645102
 21
2756.844583539479
 31
0.0
  0
ARC
  5
282B
330
1F
100
AcDbEntity
  8
SANINDUSA
100
AcDbCircle
 10
5168.73245587219
 20
2756.847173946023
 30
0.0
 40
0.0025904065549626
100
AcDbArc
 50
180.0
 51
269.994977149164
  0
ARC
  5
282C
330
1F
100
AcDbEntity
  8
SANINDUSA
100
AcDbCircle
 10
5168.678454109055
 20
2756.85812670959
 30
0.0
 40
0.0025904065252288
100
AcDbArc
 50
0.0
 51
89.99629595430967
  0
LWPOLYLINE
  5
282D
330
1F
100
AcDbEntity
  8
SANINDUSA
100
AcDbPolyline
 90
        3
 70
   128
 43
0.0
 10
5168.66745531221
 20
2756.860719410889
 10
5168.675455030399
 20
2756.860717712156
 10
5168.678454276519
 20
2756.86071711611
  0
LWPOLYLINE
  5
282E
330
1F
100
AcDbEntity
  8
SANINDUSA
100
AcDbPolyline
 90
        3
 70
   128
 43
0.0
 10
5168.681044515567
 20
2756.858126966469
 10
5168.681044634777
 20
2756.850128887407
 10
5168.681044634777
 20
2756.847130624763
  0
ARC
  5
282F
330
1F
100
AcDbEntity
  8
SANINDUSA
100
AcDbCircle
 10
5168.667454554451
 20
2756.858130048897
 30
0.0
 40
0.0025893621023319
100
AcDbArc
 50
89.98323275871241
 51
180.0
  0
LINE
  5
2830
330
1F
100
AcDbEntity
  8
SANINDUSA
100
AcDbLine
 10
5168.66486519237
 20
2756.847134022228
 30
0.0
 11
5168.66486519237
 21
2756.858130393736
 31
0.0
  0
ARC
  5
2831
330
1F
100
AcDbEntity
  8
SANINDUSA
100
AcDbCircle
 10
5168.678455356211
 20
2756.847130945665
 30
0.0
 40
0.0025892785861178
100
AcDbArc
 50
269.9813842532182
 51
0.0
  0
LINE
  5
2832
330
1F
100
AcDbEntity
  8
SANINDUSA
100
AcDbLine
 10
5168.678454514938
 20
2756.844541667215
 30
0.0
 11
5168.667455371814
 21
2756.844543961995
 31
0.0
  0
ARC
  5
2833
330
1F
100
AcDbEntity
  8
SANINDUSA
100
AcDbCircle
 10
5168.667455598902
 20
2756.847134368539
 30
0.0
 40
0.0025904065549626
100
AcDbArc
 50
180.0
 51
269.994977149164
  0
ARC
  5
2834
330
1F
100
AcDbEntity
  8
SANINDUSA
100
AcDbCircle
 10
5168.613454029483
 20
2756.858127186427
 30
0.0
 40
0.0025904065252288
100
AcDbArc
 50
0.0
 51
89.99629595430967
  0
LWPOLYLINE
  5
2835
330
1F
100
AcDbEntity
  8
SANINDUSA
100
AcDbPolyline
 90
        3
 70
   128
 43
0.0
 10
5168.602455232637
 20
2756.860719887726
 10
5168.610454950826
 20
2756.860718188994
 10
5168.613454196947
 20
2756.860717592947
  0
LWPOLYLINE
  5
2836
330
1F
100
AcDbEntity
  8
SANINDUSA
100
AcDbPolyline
 90
        3
 70
   128
 43
0.0
 10
5168.616044435995
 20
2756.858127443306
 10
5168.616044555204
 20
2756.850129364245
 10
5168.616044555204
 20
2756.847131101601
  0
ARC
  5
2837
330
1F
100
AcDbEntity
  8
SANINDUSA
100
AcDbCircle
 10
5168.602454474878
 20
2756.858130525734
 30
0.0
 40
0.0025893621023319
100
AcDbArc
 50
89.98323275871241
 51
180.0
  0
LINE
  5
2838
330
1F
100
AcDbEntity
  8
SANINDUSA
100
AcDbLine
 10
5168.599865112799
 20
2756.847134499066
 30
0.0
 11
5168.599865112799
 21
2756.858130870573
 31
0.0
  0
ARC
  5
2839
330
1F
100
AcDbEntity
  8
SANINDUSA
100
AcDbCircle
 10
5168.613455276638
 20
2756.847131422502
 30
0.0
 40
0.0025892785861178
100
AcDbArc
 50
269.9813842532182
 51
0.0
  0
LINE
  5
283A
330
1F
100
AcDbEntity
  8
SANINDUSA
100
AcDbLine
 10
5168.613454435366
 20
2756.844542144053
 30
0.0
 11
5168.602455292242
 21
2756.844544438831
 31
0.0
  0
ARC
  5
283B
330
1F
100
AcDbEntity
  8
SANINDUSA
100
AcDbCircle
 10
5168.60245551933
 20
2756.847134845376
 30
0.0
 40
0.0025904065549626
100
AcDbArc
 50
180.0
 51
269.994977149164
  0
ARC
  5
283C
330
1F
100
AcDbEntity
  8
SANINDUSA
100
AcDbCircle
 10
5168.613454163593
 20
2756.923115546236
 30
0.0
 40
0.0025904065252288
100
AcDbArc
 50
0.0
 51
89.99629595430967
  0
LWPOLYLINE
  5
283D
330
1F
100
AcDbEntity
  8
SANINDUSA
100
AcDbPolyline
 90
        3
 70
   128
 43
0.0
 10
5168.602455366748
 20
2756.925708247535
 10
5168.610455084937
 20
2756.925706548802
 10
5168.613454331057
 20
2756.925705952756
  0
LWPOLYLINE
  5
283E
330
1F
100
AcDbEntity
  8
SANINDUSA
100
AcDbPolyline
 90
        3
 70
   128
 43
0.0
 10
5168.616044570105
 20
2756.923115803115
 10
5168.616044689315
 20
2756.915117724054
 10
5168.616044689315
 20
2756.912119461409
  0
ARC
  5
283F
330
1F
100
AcDbEntity
  8
SANINDUSA
100
AcDbCircle
 10
5168.602454608988
 20
2756.923118885543
 30
0.0
 40
0.0025893621023319
100
AcDbArc
 50
89.98323275871241
 51
180.0
  0
LINE
  5
2840
330
1F
100
AcDbEntity
  8
SANINDUSA
100
AcDbLine
 10
5168.599865246909
 20
2756.912122858874
 30
0.0
 11
5168.599865246909
 21
2756.923119230382
 31
0.0
  0
ARC
  5
2841
330
1F
100
AcDbEntity
  8
SANINDUSA
100
AcDbCircle
 10
5168.613455410748
 20
2756.912119782311
 30
0.0
 40
0.0025892785861178
100
AcDbArc
 50
269.9813842532182
 51
0.0
  0
LINE
  5
2842
330
1F
100
AcDbEntity
  8
SANINDUSA
100
AcDbLine
 10
5168.613454569475
 20
2756.909530503862
 30
0.0
 11
5168.602455426352
 21
2756.909532798641
 31
0.0
  0
ARC
  5
2843
330
1F
100
AcDbEntity
  8
SANINDUSA
100
AcDbCircle
 10
5168.602455653441
 20
2756.912123205185
 30
0.0
 40
0.0025904065549626
100
AcDbArc
 50
180.0
 51
269.994977149164
  0
ARC
  5
2844
330
1F
100
AcDbEntity
  8
SANINDUSA
100
AcDbCircle
 10
5168.678454511386
 20
2756.923131341467
 30
0.0
 40
0.0025904065252288
100
AcDbArc
 50
0.0
 51
89.99629595430967
  0
LWPOLYLINE
  5
2845
330
1F
100
AcDbEntity
  8
SANINDUSA
100
AcDbPolyline
 90
        3
 70
   128
 43
0.0
 10
5168.66745571454
 20
2756.925724042766
 10
5168.67545543273
 20
2756.925722344033
 10
5168.67845467885
 20
2756.925721747987
  0
LWPOLYLINE
  5
2846
330
1F
100
AcDbEntity
  8
SANINDUSA
100
AcDbPolyline
 90
        3
 70
   128
 43
0.0
 10
5168.681044917899
 20
2756.923131598346
 10
5168.681045037107
 20
2756.915133519284
 10
5168.681045037107
 20
2756.912135256641
  0
ARC
  5
2847
330
1F
100
AcDbEntity
  8
SANINDUSA
100
AcDbCircle
 10
5168.667454956782
 20
2756.923134680774
 30
0.0
 40
0.0025893621023319
100
AcDbArc
 50
89.98323275871241
 51
180.0
  0
LINE
  5
2848
330
1F
100
AcDbEntity
  8
SANINDUSA
100
AcDbLine
 10
5168.664865594702
 20
2756.912138654105
 30
0.0
 11
5168.664865594702
 21
2756.923135025613
 31
0.0
  0
ARC
  5
2849
330
1F
100
AcDbEntity
  8
SANINDUSA
100
AcDbCircle
 10
5168.678455758541
 20
2756.912135577542
 30
0.0
 40
0.0025892785861178
100
AcDbArc
 50
269.9813842532182
 51
0.0
  0
LINE
  5
284A
330
1F
100
AcDbEntity
  8
SANINDUSA
100
AcDbLine
 10
5168.678454917269
 20
2756.909546299092
 30
0.0
 11
5168.667455774145
 21
2756.909548593871
 31
0.0
  0
ARC
  5
284B
330
1F
100
AcDbEntity
  8
SANINDUSA
100
AcDbCircle
 10
5168.667456001234
 20
2756.912139000416
 30
0.0
 40
0.0025904065549626
100
AcDbArc
 50
180.0
 51
269.994977149164
  0
ARC
  5
284C
330
1F
100
AcDbEntity
  8
SANINDUSA
100
AcDbCircle
 10
5168.743454635662
 20
2756.923149625192
 30
0.0
 40
0.0025904065252288
100
AcDbArc
 50
0.0
 51
89.99629595430967
  0
LWPOLYLINE
  5
284D
330
1F
100
AcDbEntity
  8
SANINDUSA
100
AcDbPolyline
 90
        3
 70
   128
 43
0.0
 10
5168.732455838816
 20
2756.925742326491
 10
5168.740455557006
 20
2756.925740627758
 10
5168.743454803126
 20
2756.925740031712
  0
LWPOLYLINE
  5
284E
330
1F
100
AcDbEntity
  8
SANINDUSA
100
AcDbPolyline
 90
        3
 70
   128
 43
0.0
 10
5168.746045042174
 20
2756.923149882071
 10
5168.746045161384
 20
2756.915151803009
 10
5168.746045161384
 20
2756.912153540366
  0
ARC
  5
284F
330
1F
100
AcDbEntity
  8
SANINDUSA
100
AcDbCircle
 10
5168.732455081057
 20
2756.923152964498
 30
0.0
 40
0.0025893621023319
100
AcDbArc
 50
89.98323275871241
 51
180.0
  0
LINE
  5
2850
330
1F
100
AcDbEntity
  8
SANINDUSA
100
AcDbLine
 10
5168.729865718978
 20
2756.91215693783
 30
0.0
 11
5168.729865718978
 21
2756.923153309338
 31
0.0
  0
ARC
  5
2851
330
1F
100
AcDbEntity
  8
SANINDUSA
100
AcDbCircle
 10
5168.743455882817
 20
2756.912153861267
 30
0.0
 40
0.0025892785861178
100
AcDbArc
 50
269.9813842532182
 51
0.0
  0
LINE
  5
2852
330
1F
100
AcDbEntity
  8
SANINDUSA
100
AcDbLine
 10
5168.743455041544
 20
2756.909564582817
 30
0.0
 11
5168.732455898421
 21
2756.909566877596
 31
0.0
  0
ARC
  5
2853
330
1F
100
AcDbEntity
  8
SANINDUSA
100
AcDbCircle
 10
5168.732456125509
 20
2756.912157284141
 30
0.0
 40
0.0025904065549626
100
AcDbArc
 50
180.0
 51
269.994977149164
  0
ARC
  5
2854
330
1F
100
AcDbEntity
  8
SANINDUSA
100
AcDbCircle
 10
5168.808453888219
 20
2756.92315832747
 30
0.0
 40
0.0025904065252288
100
AcDbArc
 50
0.0
 51
89.99629595430967
  0
LWPOLYLINE
  5
2855
330
1F
100
AcDbEntity
  8
SANINDUSA
100
AcDbPolyline
 90
        3
 70
   128
 43
0.0
 10
5168.797455091374
 20
2756.925751028769
 10
5168.805454809564
 20
2756.925749330036
 10
5168.808454055684
 20
2756.92574873399
  0
LWPOLYLINE
  5
2856
330
1F
100
AcDbEntity
  8
SANINDUSA
100
AcDbPolyline
 90
        3
 70
   128
 43
0.0
 10
5168.811044294732
 20
2756.923158584349
 10
5168.811044413941
 20
2756.915160505287
 10
5168.811044413941
 20
2756.912162242644
  0
ARC
  5
2857
330
1F
100
AcDbEntity
  8
SANINDUSA
100
AcDbCircle
 10
5168.797454333615
 20
2756.923161666777
 30
0.0
 40
0.0025893621023319
100
AcDbArc
 50
89.98323275871241
 51
180.0
  0
LINE
  5
2858
330
1F
100
AcDbEntity
  8
SANINDUSA
100
AcDbLine
 10
5168.794864971535
 20
2756.912165640108
 30
0.0
 11
5168.794864971535
 21
2756.923162011616
 31
0.0
  0
ARC
  5
2859
330
1F
100
AcDbEntity
  8
SANINDUSA
100
AcDbCircle
 10
5168.808455135375
 20
2756.912162563545
 30
0.0
 40
0.0025892785861178
100
AcDbArc
 50
269.9813842532182
 51
0.0
  0
LINE
  5
285A
330
1F
100
AcDbEntity
  8
SANINDUSA
100
AcDbLine
 10
5168.808454294103
 20
2756.909573285095
 30
0.0
 11
5168.797455150979
 21
2756.909575579874
 31
0.0
  0
ARC
  5
285B
330
1F
100
AcDbEntity
  8
SANINDUSA
100
AcDbCircle
 10
5168.797455378067
 20
2756.912165986419
 30
0.0
 40
0.0025904065549626
100
AcDbArc
 50
180.0
 51
269.994977149164
  0
ARC
  5
285C
330
1F
100
AcDbEntity
  8
SANINDUSA
100
AcDbCircle
 10
5168.873453140777
 20
2756.923149237761
 30
0.0
 40
0.0025904065252288
100
AcDbArc
 50
0.0
 51
89.99629595430967
  0
LWPOLYLINE
  5
285D
330
1F
100
AcDbEntity
  8
SANINDUSA
100
AcDbPolyline
 90
        3
 70
   128
 43
0.0
 10
5168.862454343932
 20
2756.92574193906
 10
5168.870454062121
 20
2756.925740240328
 10
5168.873453308242
 20
2756.925739644282
  0
LWPOLYLINE
  5
285E
330
1F
100
AcDbEntity
  8
SANINDUSA
100
AcDbPolyline
 90
        3
 70
   128
 43
0.0
 10
5168.876043547289
 20
2756.923149494641
 10
5168.876043666499
 20
2756.915151415579
 10
5168.876043666499
 20
2756.912153152935
  0
ARC
  5
285F
330
1F
100
AcDbEntity
  8
SANINDUSA
100
AcDbCircle
 10
5168.862453586172
 20
2756.923152577068
 30
0.0
 40
0.0025893621023319
100
AcDbArc
 50
89.98323275871241
 51
180.0
  0
LINE
  5
2860
330
1F
100
AcDbEntity
  8
SANINDUSA
100
AcDbLine
 10
5168.859864224093
 20
2756.9121565504
 30
0.0
 11
5168.859864224093
 21
2756.923152921908
 31
0.0
  0
ARC
  5
2861
330
1F
100
AcDbEntity
  8
SANINDUSA
100
AcDbCircle
 10
5168.873454387933
 20
2756.912153473836
 30
0.0
 40
0.0025892785861178
100
AcDbArc
 50
269.9813842532182
 51
0.0
  0
LINE
  5
2862
330
1F
100
AcDbEntity
  8
SANINDUSA
100
AcDbLine
 10
5168.87345354666
 20
2756.909564195387
 30
0.0
 11
5168.862454403536
 21
2756.909566490166
 31
0.0
  0
ARC
  5
2863
330
1F
100
AcDbEntity
  8
SANINDUSA
100
AcDbCircle
 10
5168.862454630624
 20
2756.91215689671
 30
0.0
 40
0.0025904065549626
100
AcDbArc
 50
180.0
 51
269.994977149164
  0
ARC
  5
2864
330
1F
100
AcDbEntity
  8
SANINDUSA
100
AcDbCircle
 10
5168.938453272503
 20
2756.923130760322
 30
0.0
 40
0.0025904065252288
100
AcDbArc
 50
0.0
 51
89.99629595430967
  0
LWPOLYLINE
  5
2865
330
1F
100
AcDbEntity
  8
SANINDUSA
100
AcDbPolyline
 90
        3
 70
   128
 43
0.0
 10
5168.927454475658
 20
2756.92572346162
 10
5168.935454193848
 20
2756.925721762888
 10
5168.938453439968
 20
2756.925721166842
  0
LWPOLYLINE
  5
2866
330
1F
100
AcDbEntity
  8
SANINDUSA
100
AcDbPolyline
 90
        3
 70
   128
 43
0.0
 10
5168.941043679016
 20
2756.923131017201
 10
5168.941043798225
 20
2756.915132938139
 10
5168.941043798225
 20
2756.912134675495
  0
ARC
  5
2867
330
1F
100
AcDbEntity
  8
SANINDUSA
100
AcDbCircle
 10
5168.927453717898
 20
2756.923134099629
 30
0.0
 40
0.0025893621023319
100
AcDbArc
 50
89.98323275871241
 51
180.0
  0
LINE
  5
2868
330
1F
100
AcDbEntity
  8
SANINDUSA
100
AcDbLine
 10
5168.924864355819
 20
2756.91213807296
 30
0.0
 11
5168.924864355819
 21
2756.923134444468
 31
0.0
  0
ARC
  5
2869
330
1F
100
AcDbEntity
  8
SANINDUSA
100
AcDbCircle
 10
5168.938454519659
 20
2756.912134996396
 30
0.0
 40
0.0025892785861178
100
AcDbArc
 50
269.9813842532182
 51
0.0
  0
LINE
  5
286A
330
1F
100
AcDbEntity
  8
SANINDUSA
100
AcDbLine
 10
5168.938453678386
 20
2756.909545717947
 30
0.0
 11
5168.927454535263
 21
2756.909548012726
 31
0.0
  0
ARC
  5
286B
330
1F
100
AcDbEntity
  8
SANINDUSA
100
AcDbCircle
 10
5168.927454762351
 20
2756.91213841927
 30
0.0
 40
0.0025904065549626
100
AcDbArc
 50
180.0
 51
269.994977149164
  0
ARC
  5
286C
330
1F
100
AcDbEntity
  8
SANINDUSA
100
AcDbCircle
 10
5169.003453642648
 20
2756.923115039596
 30
0.0
 40
0.0025904065252288
100
AcDbArc
 50
0.0
 51
89.99629595430967
  0
LWPOLYLINE
  5
286D
330
1F
100
AcDbEntity
  8
SANINDUSA
100
AcDbPolyline
 90
        3
 70
   128
 43
0.0
 10
5168.992454845803
 20
2756.925707740895
 10
5169.000454563992
 20
2756.925706042163
 10
5169.003453810113
 20
2756.925705446116
  0
LWPOLYLINE
  5
286E
330
1F
100
AcDbEntity
  8
SANINDUSA
100
AcDbPolyline
 90
        3
 70
   128
 43
0.0
 10
5169.006044049161
 20
2756.923115296475
 10
5169.006044168369
 20
2756.915117217414
 10
5169.006044168369
 20
2756.91211895477
  0
ARC
  5
286F
330
1F
100
AcDbEntity
  8
SANINDUSA
100
AcDbCircle
 10
5168.992454088044
 20
2756.923118378904
 30
0.0
 40
0.0025893621023319
100
AcDbArc
 50
89.98323275871241
 51
180.0
  0
LINE
  5
2870
330
1F
100
AcDbEntity
  8
SANINDUSA
100
AcDbLine
 10
5168.989864725965
 20
2756.912122352235
 30
0.0
 11
5168.989864725965
 21
2756.923118723742
 31
0.0
  0
ARC
  5
2871
330
1F
100
AcDbEntity
  8
SANINDUSA
100
AcDbCircle
 10
5169.003454889804
 20
2756.912119275671
 30
0.0
 40
0.0025892785861178
100
AcDbArc
 50
269.9813842532182
 51
0.0
  0
LINE
  5
2872
330
1F
100
AcDbEntity
  8
SANINDUSA
100
AcDbLine
 10
5169.003454048532
 20
2756.909529997222
 30
0.0
 11
5168.992454905407
 21
2756.909532292001
 31
0.0
  0
ARC
  5
2873
330
1F
100
AcDbEntity
  8
SANINDUSA
100
AcDbCircle
 10
5168.992455132496
 20
2756.912122698546
 30
0.0
 40
0.0025904065549626
100
AcDbArc
 50
180.0
 51
269.994977149164
  0
ARC
  5
2874
330
1F
100
AcDbEntity
  8
SANINDUSA
100
AcDbCircle
 10
5169.003453493637
 20
2756.988106171021
 30
0.0
 40
0.0025904065252288
100
AcDbArc
 50
0.0
 51
89.99629595430967
  0
LWPOLYLINE
  5
2875
330
1F
100
AcDbEntity
  8
SANINDUSA
100
AcDbPolyline
 90
        3
 70
   128
 43
0.0
 10
5168.992454696791
 20
2756.99069887232
 10
5169.00045441498
 20
2756.990697173588
 10
5169.003453661101
 20
2756.990696577541
  0
LWPOLYLINE
  5
2876
330
1F
100
AcDbEntity
  8
SANINDUSA
100
AcDbPolyline
 90
        3
 70
   128
 43
0.0
 10
5169.006043900149
 20
2756.9881064279
 10
5169.006044019358
 20
2756.980108348839
 10
5169.006044019358
 20
2756.977110086195
  0
ARC
  5
2877
330
1F
100
AcDbEntity
  8
SANINDUSA
100
AcDbCircle
 10
5168.992453939033
 20
2756.988109510329
 30
0.0
 40
0.0025893621023319
100
AcDbArc
 50
89.98323275871241
 51
180.0
  0
LINE
  5
2878
330
1F
100
AcDbEntity
  8
SANINDUSA
100
AcDbLine
 10
5168.989864576952
 20
2756.97711348366
 30
0.0
 11
5168.989864576952
 21
2756.988109855167
 31
0.0
  0
ARC
  5
2879
330
1F
100
AcDbEntity
  8
SANINDUSA
100
AcDbCircle
 10
5169.003454740792
 20
2756.977110407096
 30
0.0
 40
0.0025892785861178
100
AcDbArc
 50
269.9813842532182
 51
0.0
  0
LINE
  5
287A
330
1F
100
AcDbEntity
  8
SANINDUSA
100
AcDbLine
 10
5169.00345389952
 20
2756.974521128647
 30
0.0
 11
5168.992454756396
 21
2756.974523423426
 31
0.0
  0
ARC
  5
287B
330
1F
100
AcDbEntity
  8
SANINDUSA
100
AcDbCircle
 10
5168.992454983484
 20
2756.97711382997
 30
0.0
 40
0.0025904065549626
100
AcDbArc
 50
180.0
 51
269.994977149164
  0
ARC
  5
287C
330
1F
100
AcDbEntity
  8
SANINDUSA
100
AcDbCircle
 10
5168.938453153295
 20
2756.98811898602
 30
0.0
 40
0.0025904065252288
100
AcDbArc
 50
0.0
 51
89.99629595430967
  0
LWPOLYLINE
  5
287D
330
1F
100
AcDbEntity
  8
SANINDUSA
100
AcDbPolyline
 90
        3
 70
   128
 43
0.0
 10
5168.927454356449
 20
2756.990711687319
 10
5168.935454074638
 20
2756.990709988587
 10
5168.938453320759
 20
2756.99070939254
  0
LWPOLYLINE
  5
287E
330
1F
100
AcDbEntity
  8
SANINDUSA
100
AcDbPolyline
 90
        3
 70
   128
 43
0.0
 10
5168.941043559806
 20
2756.988119242899
 10
5168.941043679016
 20
2756.980121163838
 10
5168.941043679016
 20
2756.977122901194
  0
ARC
  5
287F
330
1F
100
AcDbEntity
  8
SANINDUSA
100
AcDbCircle
 10
5168.92745359869
 20
2756.988122325327
 30
0.0
 40
0.0025893621023319
100
AcDbArc
 50
89.98323275871241
 51
180.0
  0
LINE
  5
2880
330
1F
100
AcDbEntity
  8
SANINDUSA
100
AcDbLine
 10
5168.92486423661
 20
2756.977126298659
 30
0.0
 11
5168.92486423661
 21
2756.988122670166
 31
0.0
  0
ARC
  5
2881
330
1F
100
AcDbEntity
  8
SANINDUSA
100
AcDbCircle
 10
5168.93845440045
 20
2756.977123222095
 30
0.0
 40
0.0025892785861178
100
AcDbArc
 50
269.9813842532182
 51
0.0
  0
LINE
  5
2882
330
1F
100
AcDbEntity
  8
SANINDUSA
100
AcDbLine
 10
5168.938453559177
 20
2756.974533943646
 30
0.0
 11
5168.927454416053
 21
2756.974536238424
 31
0.0
  0
ARC
  5
2883
330
1F
100
AcDbEntity
  8
SANINDUSA
100
AcDbCircle
 10
5168.927454643142
 20
2756.977126644969
 30
0.0
 40
0.0025904065549626
100
AcDbArc
 50
180.0
 51
269.994977149164
  0
ARC
  5
2884
330
1F
100
AcDbEntity
  8
SANINDUSA
100
AcDbCircle
 10
5168.873453200382
 20
2756.988132575879
 30
0.0
 40
0.0025904065252288
100
AcDbArc
 50
0.0
 51
89.99629595430967
  0
LWPOLYLINE
  5
2885
330
1F
100
AcDbEntity
  8
SANINDUSA
100
AcDbPolyline
 90
        3
 70
   128
 43
0.0
 10
5168.862454403536
 20
2756.990725277178
 10
5168.870454121726
 20
2756.990723578446
 10
5168.873453367846
 20
2756.990722982399
  0
LWPOLYLINE
  5
2886
330
1F
100
AcDbEntity
  8
SANINDUSA
100
AcDbPolyline
 90
        3
 70
   128
 43
0.0
 10
5168.876043606895
 20
2756.988132832758
 10
5168.876043726104
 20
2756.980134753697
 10
5168.876043726104
 20
2756.977136491053
  0
ARC
  5
2887
330
1F
100
AcDbEntity
  8
SANINDUSA
100
AcDbCircle
 10
5168.862453645777
 20
2756.988135915186
 30
0.0
 40
0.0025893621023319
100
AcDbArc
 50
89.98323275871241
 51
180.0
  0
LINE
  5
2888
330
1F
100
AcDbEntity
  8
SANINDUSA
100
AcDbLine
 10
5168.859864283698
 20
2756.977139888518
 30
0.0
 11
5168.859864283698
 21
2756.988136260025
 31
0.0
  0
ARC
  5
2889
330
1F
100
AcDbEntity
  8
SANINDUSA
100
AcDbCircle
 10
5168.873454447537
 20
2756.977136811954
 30
0.0
 40
0.0025892785861178
100
AcDbArc
 50
269.9813842532182
 51
0.0
  0
LINE
  5
288A
330
1F
100
AcDbEntity
  8
SANINDUSA
100
AcDbLine
 10
5168.873453606265
 20
2756.974547533504
 30
0.0
 11
5168.862454463141
 21
2756.974549828283
 31
0.0
  0
ARC
  5
288B
330
1F
100
AcDbEntity
  8
SANINDUSA
100
AcDbCircle
 10
5168.86245469023
 20
2756.977140234828
 30
0.0
 40
0.0025904065549626
100
AcDbArc
 50
180.0
 51
269.994977149164
  0
ARC
  5
288C
330
1F
100
AcDbEntity
  8
SANINDUSA
100
AcDbCircle
 10
5168.808453888219
 20
2756.988138789663
 30
0.0
 40
0.0025904065252288
100
AcDbArc
 50
0.0
 51
89.99629595430967
  0
LWPOLYLINE
  5
288D
330
1F
100
AcDbEntity
  8
SANINDUSA
100
AcDbPolyline
 90
        3
 70
   128
 43
0.0
 10
5168.797455091374
 20
2756.990731490962
 10
5168.805454809564
 20
2756.99072979223
 10
5168.808454055684
 20
2756.990729196183
  0
LWPOLYLINE
  5
288E
330
1F
100
AcDbEntity
  8
SANINDUSA
100
AcDbPolyline
 90
        3
 70
   128
 43
0.0
 10
5168.811044294732
 20
2756.988139046542
 10
5168.811044413941
 20
2756.980140967481
 10
5168.811044413941
 20
2756.977142704837
  0
ARC
  5
288F
330
1F
100
AcDbEntity
  8
SANINDUSA
100
AcDbCircle
 10
5168.797454333615
 20
2756.98814212897
 30
0.0
 40
0.0025893621023319
100
AcDbArc
 50
89.98323275871241
 51
180.0
  0
LINE
  5
2890
330
1F
100
AcDbEntity
  8
SANINDUSA
100
AcDbLine
 10
5168.794864971535
 20
2756.977146102302
 30
0.0
 11
5168.794864971535
 21
2756.988142473809
 31
0.0
  0
ARC
  5
2891
330
1F
100
AcDbEntity
  8
SANINDUSA
100
AcDbCircle
 10
5168.808455135375
 20
2756.977143025738
 30
0.0
 40
0.0025892785861178
100
AcDbArc
 50
269.9813842532182
 51
0.0
  0
LINE
  5
2892
330
1F
100
AcDbEntity
  8
SANINDUSA
100
AcDbLine
 10
5168.808454294103
 20
2756.974553747289
 30
0.0
 11
5168.797455150979
 21
2756.974556042067
 31
0.0
  0
ARC
  5
2893
330
1F
100
AcDbEntity
  8
SANINDUSA
100
AcDbCircle
 10
5168.797455378067
 20
2756.977146448612
 30
0.0
 40
0.0025904065549626
100
AcDbArc
 50
180.0
 51
269.994977149164
  0
ARC
  5
2894
330
1F
100
AcDbEntity
  8
SANINDUSA
100
AcDbCircle
 10
5168.743454561155
 20
2756.988132888804
 30
0.0
 40
0.0025904065252288
100
AcDbArc
 50
0.0
 51
89.99629595430967
  0
LWPOLYLINE
  5
2895
330
1F
100
AcDbEntity
  8
SANINDUSA
100
AcDbPolyline
 90
        3
 70
   128
 43
0.0
 10
5168.732455764311
 20
2756.990725590102
 10
5168.7404554825
 20
2756.99072389137
 10
5168.74345472862
 20
2756.990723295324
  0
LWPOLYLINE
  5
2896
330
1F
100
AcDbEntity
  8
SANINDUSA
100
AcDbPolyline
 90
        3
 70
   128
 43
0.0
 10
5168.746044967669
 20
2756.988133145683
 10
5168.746045086877
 20
2756.980135066621
 10
5168.746045086877
 20
2756.977136803977
  0
ARC
  5
2897
330
1F
100
AcDbEntity
  8
SANINDUSA
100
AcDbCircle
 10
5168.732455006551
 20
2756.988136228111
 30
0.0
 40
0.0025893621023319
100
AcDbArc
 50
89.98323275871241
 51
180.0
  0
LINE
  5
2898
330
1F
100
AcDbEntity
  8
SANINDUSA
100
AcDbLine
 10
5168.729865644472
 20
2756.977140201442
 30
0.0
 11
5168.729865644472
 21
2756.98813657295
 31
0.0
  0
ARC
  5
2899
330
1F
100
AcDbEntity
  8
SANINDUSA
100
AcDbCircle
 10
5168.743455808311
 20
2756.977137124878
 30
0.0
 40
0.0025892785861178
100
AcDbArc
 50
269.9813842532182
 51
0.0
  0
LINE
  5
289A
330
1F
100
AcDbEntity
  8
SANINDUSA
100
AcDbLine
 10
5168.743454967039
 20
2756.974547846429
 30
0.0
 11
5168.732455823915
 21
2756.974550141208
 31
0.0
  0
ARC
  5
289B
330
1F
100
AcDbEntity
  8
SANINDUSA
100
AcDbCircle
 10
5168.732456051003
 20
2756.977140547753
 30
0.0
 40
0.0025904065549626
100
AcDbArc
 50
180.0
 51
269.994977149164
  0
ARC
  5
289C
330
1F
100
AcDbEntity
  8
SANINDUSA
100
AcDbCircle
 10
5168.678454615694
 20
2756.988119462857
 30
0.0
 40
0.0025904065252288
100
AcDbArc
 50
0.0
 51
89.99629595430967
  0
LWPOLYLINE
  5
289D
330
1F
100
AcDbEntity
  8
SANINDUSA
100
AcDbPolyline
 90
        3
 70
   128
 43
0.0
 10
5168.667455818848
 20
2756.990712164156
 10
5168.675455537038
 20
2756.990710465423
 10
5168.678454783158
 20
2756.990709869377
  0
LWPOLYLINE
  5
289E
330
1F
100
AcDbEntity
  8
SANINDUSA
100
AcDbPolyline
 90
        3
 70
   128
 43
0.0
 10
5168.681045022207
 20
2756.988119719736
 10
5168.681045141416
 20
2756.980121640675
 10
5168.681045141416
 20
2756.977123378031
  0
ARC
  5
289F
330
1F
100
AcDbEntity
  8
SANINDUSA
100
AcDbCircle
 10
5168.66745506109
 20
2756.988122802165
 30
0.0
 40
0.0025893621023319
100
AcDbArc
 50
89.98323275871241
 51
180.0
  0
LINE
  5
28A0
330
1F
100
AcDbEntity
  8
SANINDUSA
100
AcDbLine
 10
5168.66486569901
 20
2756.977126775496
 30
0.0
 11
5168.66486569901
 21
2756.988123147003
 31
0.0
  0
ARC
  5
28A1
330
1F
100
AcDbEntity
  8
SANINDUSA
100
AcDbCircle
 10
5168.678455862849
 20
2756.977123698932
 30
0.0
 40
0.0025892785861178
100
AcDbArc
 50
269.9813842532182
 51
0.0
  0
LINE
  5
28A2
330
1F
100
AcDbEntity
  8
SANINDUSA
100
AcDbLine
 10
5168.678455021577
 20
2756.974534420483
 30
0.0
 11
5168.667455878454
 21
2756.974536715262
 31
0.0
  0
ARC
  5
28A3
330
1F
100
AcDbEntity
  8
SANINDUSA
100
AcDbCircle
 10
5168.667456105541
 20
2756.977127121806
 30
0.0
 40
0.0025904065549626
100
AcDbArc
 50
180.0
 51
269.994977149164
  0
ARC
  5
28A4
330
1F
100
AcDbEntity
  8
SANINDUSA
100
AcDbCircle
 10
5168.613454282802
 20
2756.988106603155
 30
0.0
 40
0.0025904065252288
100
AcDbArc
 50
0.0
 51
89.99629595430967
  0
LWPOLYLINE
  5
28A5
330
1F
100
AcDbEntity
  8
SANINDUSA
100
AcDbPolyline
 90
        3
 70
   128
 43
0.0
 10
5168.602455485957
 20
2756.990699304454
 10
5168.610455204146
 20
2756.990697605722
 10
5168.613454450266
 20
2756.990697009675
  0
LWPOLYLINE
  5
28A6
330
1F
100
AcDbEntity
  8
SANINDUSA
100
AcDbPolyline
 90
        3
 70
   128
 43
0.0
 10
5168.616044689315
 20
2756.988106860034
 10
5168.616044808524
 20
2756.980108780973
 10
5168.616044808524
 20
2756.977110518329
  0
ARC
  5
28A7
330
1F
100
AcDbEntity
  8
SANINDUSA
100
AcDbCircle
 10
5168.602454728198
 20
2756.988109942462
 30
0.0
 40
0.0025893621023319
100
AcDbArc
 50
89.98323275871241
 51
180.0
  0
LINE
  5
28A8
330
1F
100
AcDbEntity
  8
SANINDUSA
100
AcDbLine
 10
5168.599865366118
 20
2756.977113915793
 30
0.0
 11
5168.599865366118
 21
2756.988110287301
 31
0.0
  0
ARC
  5
28A9
330
1F
100
AcDbEntity
  8
SANINDUSA
100
AcDbCircle
 10
5168.613455529958
 20
2756.97711083923
 30
0.0
 40
0.0025892785861178
100
AcDbArc
 50
269.9813842532182
 51
0.0
  0
LINE
  5
28AA
330
1F
100
AcDbEntity
  8
SANINDUSA
100
AcDbLine
 10
5168.613454688685
 20
2756.974521560781
 30
0.0
 11
5168.602455545562
 21
2756.974523855559
 31
0.0
  0
ARC
  5
28AB
330
1F
100
AcDbEntity
  8
SANINDUSA
100
AcDbCircle
 10
5168.602455772649
 20
2756.977114262104
 30
0.0
 40
0.0025904065549626
100
AcDbArc
 50
180.0
 51
269.994977149164
  0
ARC
  5
28AC
330
1F
100
AcDbEntity
  8
SANINDUSA
100
AcDbCircle
 10
5168.613454357308
 20
2757.053097317347
 30
0.0
 40
0.0025904065252288
100
AcDbArc
 50
0.0
 51
89.99629595430967
  0
LWPOLYLINE
  5
28AD
330
1F
100
AcDbEntity
  8
SANINDUSA
100
AcDbPolyline
 90
        3
 70
   128
 43
0.0
 10
5168.602455560463
 20
2757.055690018646
 10
5168.610455278652
 20
2757.055688319914
 10
5168.613454524773
 20
2757.055687723867
  0
LWPOLYLINE
  5
28AE
330
1F
100
AcDbEntity
  8
SANINDUSA
100
AcDbPolyline
 90
        3
 70
   128
 43
0.0
 10
5168.61604476382
 20
2757.053097574226
 10
5168.61604488303
 20
2757.045099495165
 10
5168.61604488303
 20
2757.042101232521
  0
ARC
  5
28AF
330
1F
100
AcDbEntity
  8
SANINDUSA
100
AcDbCircle
 10
5168.602454802703
 20
2757.053100656654
 30
0.0
 40
0.0025893621023319
100
AcDbArc
 50
89.98323275871241
 51
180.0
  0
LINE
  5
28B0
330
1F
100
AcDbEntity
  8
SANINDUSA
100
AcDbLine
 10
5168.599865440624
 20
2757.042104629986
 30
0.0
 11
5168.599865440624
 21
2757.053101001494
 31
0.0
  0
ARC
  5
28B1
330
1F
100
AcDbEntity
  8
SANINDUSA
100
AcDbCircle
 10
5168.613455604464
 20
2757.042101553422
 30
0.0
 40
0.0025892785861178
100
AcDbArc
 50
269.9813842532182
 51
0.0
  0
LINE
  5
28B2
330
1F
100
AcDbEntity
  8
SANINDUSA
100
AcDbLine
 10
5168.613454763191
 20
2757.039512274973
 30
0.0
 11
5168.602455620067
 21
2757.039514569752
 31
0.0
  0
ARC
  5
28B3
330
1F
100
AcDbEntity
  8
SANINDUSA
100
AcDbCircle
 10
5168.602455847156
 20
2757.042104976296
 30
0.0
 40
0.0025904065549626
100
AcDbArc
 50
180.0
 51
269.994977149164
  0
ARC
  5
28B4
330
1F
100
AcDbEntity
  8
SANINDUSA
100
AcDbCircle
 10
5168.67845456354
 20
2757.053106645474
 30
0.0
 40
0.0025904065252288
100
AcDbArc
 50
0.0
 51
89.99629595430967
  0
LWPOLYLINE
  5
28B5
330
1F
100
AcDbEntity
  8
SANINDUSA
100
AcDbPolyline
 90
        3
 70
   128
 43
0.0
 10
5168.667455766694
 20
2757.055699346774
 10
5168.675455484883
 20
2757.055697648041
 10
5168.678454731004
 20
2757.055697051994
  0
LWPOLYLINE
  5
28B6
330
1F
100
AcDbEntity
  8
SANINDUSA
100
AcDbPolyline
 90
        3
 70
   128
 43
0.0
 10
5168.681044970052
 20
2757.053106902353
 10
5168.681045089261
 20
2757.045108823292
 10
5168.681045089261
 20
2757.042110560648
  0
ARC
  5
28B7
330
1F
100
AcDbEntity
  8
SANINDUSA
100
AcDbCircle
 10
5168.667455008936
 20
2757.053109984781
 30
0.0
 40
0.0025893621023319
100
AcDbArc
 50
89.98323275871241
 51
180.0
  0
LINE
  5
28B8
330
1F
100
AcDbEntity
  8
SANINDUSA
100
AcDbLine
 10
5168.664865646857
 20
2757.042113958113
 30
0.0
 11
5168.664865646857
 21
2757.05311032962
 31
0.0
  0
ARC
  5
28B9
330
1F
100
AcDbEntity
  8
SANINDUSA
100
AcDbCircle
 10
5168.678455810695
 20
2757.042110881549
 30
0.0
 40
0.0025892785861178
100
AcDbArc
 50
269.9813842532182
 51
0.0
  0
LINE
  5
28BA
330
1F
100
AcDbEntity
  8
SANINDUSA
100
AcDbLine
 10
5168.678454969423
 20
2757.0395216031
 30
0.0
 11
5168.667455826299
 21
2757.039523897879
 31
0.0
  0
ARC
  5
28BB
330
1F
100
AcDbEntity
  8
SANINDUSA
100
AcDbCircle
 10
5168.667456053388
 20
2757.042114304423
 30
0.0
 40
0.0025904065549626
100
AcDbArc
 50
180.0
 51
269.994977149164
  0
ARC
  5
28BC
330
1F
100
AcDbEntity
  8
SANINDUSA
100
AcDbCircle
 10
5168.743454412144
 20
2757.053115548918
 30
0.0
 40
0.0025904065252288
100
AcDbArc
 50
0.0
 51
89.99629595430967
  0
LWPOLYLINE
  5
28BD
330
1F
100
AcDbEntity
  8
SANINDUSA
100
AcDbPolyline
 90
        3
 70
   128
 43
0.0
 10
5168.732455615298
 20
2757.055708250217
 10
5168.740455333488
 20
2757.055706551485
 10
5168.743454579608
 20
2757.055705955438
  0
LWPOLYLINE
  5
28BE
330
1F
100
AcDbEntity
  8
SANINDUSA
100
AcDbPolyline
 90
        3
 70
   128
 43
0.0
 10
5168.746044818657
 20
2757.053115805797
 10
5168.746044937866
 20
2757.045117726736
 10
5168.746044937866
 20
2757.042119464092
  0
ARC
  5
28BF
330
1F
100
AcDbEntity
  8
SANINDUSA
100
AcDbCircle
 10
5168.73245485754
 20
2757.053118888225
 30
0.0
 40
0.0025893621023319
100
AcDbArc
 50
89.98323275871241
 51
180.0
  0
LINE
  5
28C0
330
1F
100
AcDbEntity
  8
SANINDUSA
100
AcDbLine
 10
5168.72986549546
 20
2757.042122861557
 30
0.0
 11
5168.72986549546
 21
2757.053119233064
 31
0.0
  0
ARC
  5
28C1
330
1F
100
AcDbEntity
  8
SANINDUSA
100
AcDbCircle
 10
5168.743455659299
 20
2757.042119784993
 30
0.0
 40
0.0025892785861178
100
AcDbArc
 50
269.9813842532182
 51
0.0
  0
LINE
  5
28C2
330
1F
100
AcDbEntity
  8
SANINDUSA
100
AcDbLine
 10
5168.743454818027
 20
2757.039530506544
 30
0.0
 11
5168.732455674904
 21
2757.039532801322
 31
0.0
  0
ARC
  5
28C3
330
1F
100
AcDbEntity
  8
SANINDUSA
100
AcDbCircle
 10
5168.732455901992
 20
2757.042123207867
 30
0.0
 40
0.0025904065549626
100
AcDbArc
 50
180.0
 51
269.994977149164
  0
ARC
  5
28C4
330
1F
100
AcDbEntity
  8
SANINDUSA
100
AcDbCircle
 10
5168.808453873318
 20
2757.053119244406
 30
0.0
 40
0.0025904065252288
100
AcDbArc
 50
0.0
 51
89.99629595430967
  0
LWPOLYLINE
  5
28C5
330
1F
100
AcDbEntity
  8
SANINDUSA
100
AcDbPolyline
 90
        3
 70
   128
 43
0.0
 10
5168.797455076473
 20
2757.055711945705
 10
5168.805454794662
 20
2757.055710246973
 10
5168.808454040783
 20
2757.055709650926
  0
LWPOLYLINE
  5
28C6
330
1F
100
AcDbEntity
  8
SANINDUSA
100
AcDbPolyline
 90
        3
 70
   128
 43
0.0
 10
5168.811044279831
 20
2757.053119501285
 10
5168.81104439904
 20
2757.045121422224
 10
5168.81104439904
 20
2757.04212315958
  0
ARC
  5
28C7
330
1F
100
AcDbEntity
  8
SANINDUSA
100
AcDbCircle
 10
5168.797454318713
 20
2757.053122583713
 30
0.0
 40
0.0025893621023319
100
AcDbArc
 50
89.98323275871241
 51
180.0
  0
LINE
  5
28C8
330
1F
100
AcDbEntity
  8
SANINDUSA
100
AcDbLine
 10
5168.794864956634
 20
2757.042126557045
 30
0.0
 11
5168.794864956634
 21
2757.053122928552
 31
0.0
  0
ARC
  5
28C9
330
1F
100
AcDbEntity
  8
SANINDUSA
100
AcDbCircle
 10
5168.808455120474
 20
2757.042123480481
 30
0.0
 40
0.0025892785861178
100
AcDbArc
 50
269.9813842532182
 51
0.0
  0
LINE
  5
28CA
330
1F
100
AcDbEntity
  8
SANINDUSA
100
AcDbLine
 10
5168.808454279201
 20
2757.039534202032
 30
0.0
 11
5168.797455136077
 21
2757.03953649681
 31
0.0
  0
ARC
  5
28CB
330
1F
100
AcDbEntity
  8
SANINDUSA
100
AcDbCircle
 10
5168.797455363165
 20
2757.042126903355
 30
0.0
 40
0.0025904065549626
100
AcDbArc
 50
180.0
 51
269.994977149164
  0
ARC
  5
28CC
330
1F
100
AcDbEntity
  8
SANINDUSA
100
AcDbCircle
 10
5168.873453349394
 20
2757.053115332852
 30
0.0
 40
0.0025904065252288
100
AcDbArc
 50
0.0
 51
89.99629595430967
  0
LWPOLYLINE
  5
28CD
330
1F
100
AcDbEntity
  8
SANINDUSA
100
AcDbPolyline
 90
        3
 70
   128
 43
0.0
 10
5168.862454552549
 20
2757.05570803415
 10
5168.870454270738
 20
2757.055706335418
 10
5168.873453516858
 20
2757.055705739372
  0
LWPOLYLINE
  5
28CE
330
1F
100
AcDbEntity
  8
SANINDUSA
100
AcDbPolyline
 90
        3
 70
   128
 43
0.0
 10
5168.876043755906
 20
2757.053115589731
 10
5168.876043875116
 20
2757.045117510669
 10
5168.876043875116
 20
2757.042119248025
  0
ARC
  5
28CF
330
1F
100
AcDbEntity
  8
SANINDUSA
100
AcDbCircle
 10
5168.862453794789
 20
2757.053118672158
 30
0.0
 40
0.0025893621023319
100
AcDbArc
 50
89.98323275871241
 51
180.0
  0
LINE
  5
28D0
330
1F
100
AcDbEntity
  8
SANINDUSA
100
AcDbLine
 10
5168.859864432709
 20
2757.04212264549
 30
0.0
 11
5168.859864432709
 21
2757.053119016998
 31
0.0
  0
ARC
  5
28D1
330
1F
100
AcDbEntity
  8
SANINDUSA
100
AcDbCircle
 10
5168.873454596549
 20
2757.042119568926
 30
0.0
 40
0.0025892785861178
100
AcDbArc
 50
269.9813842532182
 51
0.0
  0
LINE
  5
28D2
330
1F
100
AcDbEntity
  8
SANINDUSA
100
AcDbLine
 10
5168.873453755276
 20
2757.039530290477
 30
0.0
 11
5168.862454612153
 21
2757.039532585256
 31
0.0
  0
ARC
  5
28D3
330
1F
100
AcDbEntity
  8
SANINDUSA
100
AcDbCircle
 10
5168.862454839241
 20
2757.0421229918
 30
0.0
 40
0.0025904065549626
100
AcDbArc
 50
180.0
 51
269.994977149164
  0
ARC
  5
28D4
330
1F
100
AcDbEntity
  8
SANINDUSA
100
AcDbCircle
 10
5168.938453197998
 20
2757.053106310198
 30
0.0
 40
0.0025904065252288
100
AcDbArc
 50
0.0
 51
89.99629595430967
  0
LWPOLYLINE
  5
28D5
330
1F
100
AcDbEntity
  8
SANINDUSA
100
AcDbPolyline
 90
        3
 70
   128
 43
0.0
 10
5168.927454401153
 20
2757.055699011497
 10
5168.935454119342
 20
2757.055697312765
 10
5168.938453365462
 20
2757.055696716718
  0
LWPOLYLINE
  5
28D6
330
1F
100
AcDbEntity
  8
SANINDUSA
100
AcDbPolyline
 90
        3
 70
   128
 43
0.0
 10
5168.94104360451
 20
2757.053106567077
 10
5168.941043723719
 20
2757.045108488016
 10
5168.941043723719
 20
2757.042110225372
  0
ARC
  5
28D7
330
1F
100
AcDbEntity
  8
SANINDUSA
100
AcDbCircle
 10
5168.927453643394
 20
2757.053109649505
 30
0.0
 40
0.0025893621023319
100
AcDbArc
 50
89.98323275871241
 51
180.0
  0
LINE
  5
28D8
330
1F
100
AcDbEntity
  8
SANINDUSA
100
AcDbLine
 10
5168.924864281314
 20
2757.042113622837
 30
0.0
 11
5168.924864281314
 21
2757.053109994344
 31
0.0
  0
ARC
  5
28D9
330
1F
100
AcDbEntity
  8
SANINDUSA
100
AcDbCircle
 10
5168.938454445154
 20
2757.042110546273
 30
0.0
 40
0.0025892785861178
100
AcDbArc
 50
269.9813842532182
 51
0.0
  0
LINE
  5
28DA
330
1F
100
AcDbEntity
  8
SANINDUSA
100
AcDbLine
 10
5168.938453603881
 20
2757.039521267824
 30
0.0
 11
5168.927454460757
 21
2757.039523562602
 31
0.0
  0
ARC
  5
28DB
330
1F
100
AcDbEntity
  8
SANINDUSA
100
AcDbCircle
 10
5168.927454687845
 20
2757.042113969147
 30
0.0
 40
0.0025904065549626
100
AcDbArc
 50
180.0
 51
269.994977149164
  0
ARC
  5
28DC
330
1F
100
AcDbEntity
  8
SANINDUSA
100
AcDbCircle
 10
5169.003453404229
 20
2757.053096996973
 30
0.0
 40
0.0025904065252288
100
AcDbArc
 50
0.0
 51
89.99629595430967
  0
LWPOLYLINE
  5
28DD
330
1F
100
AcDbEntity
  8
SANINDUSA
100
AcDbPolyline
 90
        3
 70
   128
 43
0.0
 10
5168.992454607384
 20
2757.055689698271
 10
5169.000454325574
 20
2757.055687999539
 10
5169.003453571693
 20
2757.055687403493
  0
LWPOLYLINE
  5
28DE
330
1F
100
AcDbEntity
  8
SANINDUSA
100
AcDbPolyline
 90
        3
 70
   128
 43
0.0
 10
5169.006043810743
 20
2757.053097253852
 10
5169.006043929951
 20
2757.04509917479
 10
5169.006043929951
 20
2757.042100912146
  0
ARC
  5
28DF
330
1F
100
AcDbEntity
  8
SANINDUSA
100
AcDbCircle
 10
5168.992453849625
 20
2757.05310033628
 30
0.0
 40
0.0025893621023319
100
AcDbArc
 50
89.98323275871241
 51
180.0
  0
LINE
  5
28E0
330
1F
100
AcDbEntity
  8
SANINDUSA
100
AcDbLine
 10
5168.989864487546
 20
2757.042104309611
 30
0.0
 11
5168.989864487546
 21
2757.053100681118
 31
0.0
  0
ARC
  5
28E1
330
1F
100
AcDbEntity
  8
SANINDUSA
100
AcDbCircle
 10
5169.003454651385
 20
2757.042101233047
 30
0.0
 40
0.0025892785861178
100
AcDbArc
 50
269.9813842532182
 51
0.0
  0
LINE
  5
28E2
330
1F
100
AcDbEntity
  8
SANINDUSA
100
AcDbLine
 10
5169.003453810113
 20
2757.039511954598
 30
0.0
 11
5168.992454666989
 21
2757.039514249377
 31
0.0
  0
ARC
  5
28E3
330
1F
100
AcDbEntity
  8
SANINDUSA
100
AcDbCircle
 10
5168.992454894077
 20
2757.042104655921
 30
0.0
 40
0.0025904065549626
100
AcDbArc
 50
180.0
 51
269.994977149164
  0
ARC
  5
28E4
330
1F
100
AcDbEntity
  8
SANINDUSA
100
AcDbCircle
 10
5169.003453404229
 20
2757.118086660633
 30
0.0
 40
0.0025904065252288
100
AcDbArc
 50
0.0
 51
89.99629595430967
  0
LWPOLYLINE
  5
28E5
330
1F
100
AcDbEntity
  8
SANINDUSA
100
AcDbPolyline
 90
        3
 70
   128
 43
0.0
 10
5168.992454607384
 20
2757.120679361932
 10
5169.000454325574
 20
2757.120677663199
 10
5169.003453571693
 20
2757.120677067153
  0
LWPOLYLINE
  5
28E6
330
1F
100
AcDbEntity
  8
SANINDUSA
100
AcDbPolyline
 90
        3
 70
   128
 43
0.0
 10
5169.006043810743
 20
2757.118086917512
 10
5169.006043929951
 20
2757.11008883845
 10
5169.006043929951
 20
2757.107090575807
  0
ARC
  5
28E7
330
1F
100
AcDbEntity
  8
SANINDUSA
100
AcDbCircle
 10
5168.992453849625
 20
2757.11808999994
 30
0.0
 40
0.0025893621023319
100
AcDbArc
 50
89.98323275871241
 51
180.0
  0
LINE
  5
28E8
330
1F
100
AcDbEntity
  8
SANINDUSA
100
AcDbLine
 10
5168.989864487546
 20
2757.107093973271
 30
0.0
 11
5168.989864487546
 21
2757.118090344779
 31
0.0
  0
ARC
  5
28E9
330
1F
100
AcDbEntity
  8
SANINDUSA
100
AcDbCircle
 10
5169.003454651385
 20
2757.107090896708
 30
0.0
 40
0.0025892785861178
100
AcDbArc
 50
269.9813842532182
 51
0.0
  0
LINE
  5
28EA
330
1F
100
AcDbEntity
  8
SANINDUSA
100
AcDbLine
 10
5169.003453810113
 20
2757.104501618258
 30
0.0
 11
5168.992454666989
 21
2757.104503913037
 31
0.0
  0
ARC
  5
28EB
330
1F
100
AcDbEntity
  8
SANINDUSA
100
AcDbCircle
 10
5168.992454894077
 20
2757.107094319582
 30
0.0
 40
0.0025904065549626
100
AcDbArc
 50
180.0
 51
269.994977149164
  0
ARC
  5
28EC
330
1F
100
AcDbEntity
  8
SANINDUSA
100
AcDbCircle
 10
5168.938453302306
 20
2757.118092367778
 30
0.0
 40
0.0025904065252288
100
AcDbArc
 50
0.0
 51
89.99629595430967
  0
LWPOLYLINE
  5
28ED
330
1F
100
AcDbEntity
  8
SANINDUSA
100
AcDbPolyline
 90
        3
 70
   128
 43
0.0
 10
5168.92745450546
 20
2757.120685069077
 10
5168.93545422365
 20
2757.120683370344
 10
5168.93845346977
 20
2757.120682774298
  0
LWPOLYLINE
  5
28EE
330
1F
100
AcDbEntity
  8
SANINDUSA
100
AcDbPolyline
 90
        3
 70
   128
 43
0.0
 10
5168.941043708819
 20
2757.118092624657
 10
5168.941043828027
 20
2757.110094545595
 10
5168.941043828027
 20
2757.107096282951
  0
ARC
  5
28EF
330
1F
100
AcDbEntity
  8
SANINDUSA
100
AcDbCircle
 10
5168.927453747701
 20
2757.118095707085
 30
0.0
 40
0.0025893621023319
100
AcDbArc
 50
89.98323275871241
 51
180.0
  0
LINE
  5
28F0
330
1F
100
AcDbEntity
  8
SANINDUSA
100
AcDbLine
 10
5168.924864385622
 20
2757.107099680416
 30
0.0
 11
5168.924864385622
 21
2757.118096051924
 31
0.0
  0
ARC
  5
28F1
330
1F
100
AcDbEntity
  8
SANINDUSA
100
AcDbCircle
 10
5168.938454549461
 20
2757.107096603852
 30
0.0
 40
0.0025892785861178
100
AcDbArc
 50
269.9813842532182
 51
0.0
  0
LINE
  5
28F2
330
1F
100
AcDbEntity
  8
SANINDUSA
100
AcDbLine
 10
5168.938453708189
 20
2757.104507325403
 30
0.0
 11
5168.927454565065
 21
2757.104509620182
 31
0.0
  0
ARC
  5
28F3
330
1F
100
AcDbEntity
  8
SANINDUSA
100
AcDbCircle
 10
5168.927454792154
 20
2757.107100026727
 30
0.0
 40
0.0025904065549626
100
AcDbArc
 50
180.0
 51
269.994977149164
  0
ARC
  5
28F4
330
1F
100
AcDbEntity
  8
SANINDUSA
100
AcDbCircle
 10
5168.873453453702
 20
2757.118097538481
 30
0.0
 40
0.0025904065252288
100
AcDbArc
 50
0.0
 51
89.99629595430967
  0
LWPOLYLINE
  5
28F5
330
1F
100
AcDbEntity
  8
SANINDUSA
100
AcDbPolyline
 90
        3
 70
   128
 43
0.0
 10
5168.862454656856
 20
2757.12069023978
 10
5168.870454375046
 20
2757.120688541047
 10
5168.873453621166
 20
2757.120687945001
  0
LWPOLYLINE
  5
28F6
330
1F
100
AcDbEntity
  8
SANINDUSA
100
AcDbPolyline
 90
        3
 70
   128
 43
0.0
 10
5168.876043860214
 20
2757.118097795359
 10
5168.876043979423
 20
2757.110099716298
 10
5168.876043979423
 20
2757.107101453654
  0
ARC
  5
28F7
330
1F
100
AcDbEntity
  8
SANINDUSA
100
AcDbCircle
 10
5168.862453899097
 20
2757.118100877788
 30
0.0
 40
0.0025893621023319
100
AcDbArc
 50
89.98323275871241
 51
180.0
  0
LINE
  5
28F8
330
1F
100
AcDbEntity
  8
SANINDUSA
100
AcDbLine
 10
5168.859864537018
 20
2757.107104851119
 30
0.0
 11
5168.859864537018
 21
2757.118101222627
 31
0.0
  0
ARC
  5
28F9
330
1F
100
AcDbEntity
  8
SANINDUSA
100
AcDbCircle
 10
5168.873454700857
 20
2757.107101774555
 30
0.0
 40
0.0025892785861178
100
AcDbArc
 50
269.9813842532182
 51
0.0
  0
LINE
  5
28FA
330
1F
100
AcDbEntity
  8
SANINDUSA
100
AcDbLine
 10
5168.873453859585
 20
2757.104512496106
 30
0.0
 11
5168.86245471646
 21
2757.104514790885
 31
0.0
  0
ARC
  5
28FB
330
1F
100
AcDbEntity
  8
SANINDUSA
100
AcDbCircle
 10
5168.862454943549
 20
2757.10710519743
 30
0.0
 40
0.0025904065549626
100
AcDbArc
 50
180.0
 51
269.994977149164
  0
ARC
  5
28FC
330
1F
100
AcDbEntity
  8
SANINDUSA
100
AcDbCircle
 10
5168.808453888219
 20
2757.118099699149
 30
0.0
 40
0.0025904065252288
100
AcDbArc
 50
0.0
 51
89.99629595430967
  0
LWPOLYLINE
  5
28FD
330
1F
100
AcDbEntity
  8
SANINDUSA
100
AcDbPolyline
 90
        3
 70
   128
 43
0.0
 10
5168.797455091374
 20
2757.120692400448
 10
5168.805454809564
 20
2757.120690701715
 10
5168.808454055684
 20
2757.120690105669
  0
LWPOLYLINE
  5
28FE
330
1F
100
AcDbEntity
  8
SANINDUSA
100
AcDbPolyline
 90
        3
 70
   128
 43
0.0
 10
5168.811044294732
 20
2757.118099956028
 10
5168.811044413941
 20
2757.110101876966
 10
5168.811044413941
 20
2757.107103614323
  0
ARC
  5
28FF
330
1F
100
AcDbEntity
  8
SANINDUSA
100
AcDbCircle
 10
5168.797454333615
 20
2757.118103038456
 30
0.0
 40
0.0025893621023319
100
AcDbArc
 50
89.98323275871241
 51
180.0
  0
LINE
  5
2900
330
1F
100
AcDbEntity
  8
SANINDUSA
100
AcDbLine
 10
5168.794864971535
 20
2757.107107011787
 30
0.0
 11
5168.794864971535
 21
2757.118103383295
 31
0.0
  0
ARC
  5
2901
330
1F
100
AcDbEntity
  8
SANINDUSA
100
AcDbCircle
 10
5168.808455135375
 20
2757.107103935224
 30
0.0
 40
0.0025892785861178
100
AcDbArc
 50
269.9813842532182
 51
0.0
  0
LINE
  5
2902
330
1F
100
AcDbEntity
  8
SANINDUSA
100
AcDbLine
 10
5168.808454294103
 20
2757.104514656774
 30
0.0
 11
5168.797455150979
 21
2757.104516951554
 31
0.0
  0
ARC
  5
2903
330
1F
100
AcDbEntity
  8
SANINDUSA
100
AcDbCircle
 10
5168.797455378067
 20
2757.107107358098
 30
0.0
 40
0.0025904065549626
100
AcDbArc
 50
180.0
 51
269.994977149164
  0
ARC
  5
2904
330
1F
100
AcDbEntity
  8
SANINDUSA
100
AcDbCircle
 10
5168.743454292935
 20
2757.11809765769
 30
0.0
 40
0.0025904065252288
100
AcDbArc
 50
0.0
 51
89.99629595430967
  0
LWPOLYLINE
  5
2905
330
1F
100
AcDbEntity
  8
SANINDUSA
100
AcDbPolyline
 90
        3
 70
   128
 43
0.0
 10
5168.73245549609
 20
2757.120690358989
 10
5168.740455214279
 20
2757.120688660256
 10
5168.7434544604
 20
2757.12068806421
  0
LWPOLYLINE
  5
2906
330
1F
100
AcDbEntity
  8
SANINDUSA
100
AcDbPolyline
 90
        3
 70
   128
 43
0.0
 10
5168.746044699447
 20
2757.118097914569
 10
5168.746044818657
 20
2757.110099835508
 10
5168.746044818657
 20
2757.107101572863
  0
ARC
  5
2907
330
1F
100
AcDbEntity
  8
SANINDUSA
100
AcDbCircle
 10
5168.73245473833
 20
2757.118100996997
 30
0.0
 40
0.0025893621023319
100
AcDbArc
 50
89.98323275871241
 51
180.0
  0
LINE
  5
2908
330
1F
100
AcDbEntity
  8
SANINDUSA
100
AcDbLine
 10
5168.729865376251
 20
2757.107104970328
 30
0.0
 11
5168.729865376251
 21
2757.118101341836
 31
0.0
  0
ARC
  5
2909
330
1F
100
AcDbEntity
  8
SANINDUSA
100
AcDbCircle
 10
5168.743455540091
 20
2757.107101893765
 30
0.0
 40
0.0025892785861178
100
AcDbArc
 50
269.9813842532182
 51
0.0
  0
LINE
  5
290A
330
1F
100
AcDbEntity
  8
SANINDUSA
100
AcDbLine
 10
5168.743454698818
 20
2757.104512615315
 30
0.0
 11
5168.732455555694
 21
2757.104514910095
 31
0.0
  0
ARC
  5
290B
330
1F
100
AcDbEntity
  8
SANINDUSA
100
AcDbCircle
 10
5168.732455782782
 20
2757.107105316639
 30
0.0
 40
0.0025904065549626
100
AcDbArc
 50
180.0
 51
269.994977149164
  0
ARC
  5
290C
330
1F
100
AcDbEntity
  8
SANINDUSA
100
AcDbCircle
 10
5168.678454481583
 20
2757.118092561493
 30
0.0
 40
0.0025904065252288
100
AcDbArc
 50
0.0
 51
89.99629595430967
  0
LWPOLYLINE
  5
290D
330
1F
100
AcDbEntity
  8
SANINDUSA
100
AcDbPolyline
 90
        3
 70
   128
 43
0.0
 10
5168.667455684738
 20
2757.120685262792
 10
5168.675455402928
 20
2757.120683564059
 10
5168.678454649048
 20
2757.120682968013
  0
LWPOLYLINE
  5
290E
330
1F
100
AcDbEntity
  8
SANINDUSA
100
AcDbPolyline
 90
        3
 70
   128
 43
0.0
 10
5168.681044888096
 20
2757.118092818372
 10
5168.681045007305
 20
2757.110094739311
 10
5168.681045007305
 20
2757.107096476667
  0
ARC
  5
290F
330
1F
100
AcDbEntity
  8
SANINDUSA
100
AcDbCircle
 10
5168.667454926979
 20
2757.1180959008
 30
0.0
 40
0.0025893621023319
100
AcDbArc
 50
89.98323275871241
 51
180.0
  0
LINE
  5
2910
330
1F
100
AcDbEntity
  8
SANINDUSA
100
AcDbLine
 10
5168.664865564899
 20
2757.107099874132
 30
0.0
 11
5168.664865564899
 21
2757.118096245639
 31
0.0
  0
ARC
  5
2911
330
1F
100
AcDbEntity
  8
SANINDUSA
100
AcDbCircle
 10
5168.678455728739
 20
2757.107096797568
 30
0.0
 40
0.0025892785861178
100
AcDbArc
 50
269.9813842532182
 51
0.0
  0
LINE
  5
2912
330
1F
100
AcDbEntity
  8
SANINDUSA
100
AcDbLine
 10
5168.678454887467
 20
2757.104507519118
 30
0.0
 11
5168.667455744343
 21
2757.104509813897
 31
0.0
  0
ARC
  5
2913
330
1F
100
AcDbEntity
  8
SANINDUSA
100
AcDbCircle
 10
5168.667455971431
 20
2757.107100220442
 30
0.0
 40
0.0025904065549626
100
AcDbArc
 50
180.0
 51
269.994977149164
  0
ARC
  5
2914
330
1F
100
AcDbEntity
  8
SANINDUSA
100
AcDbCircle
 10
5168.61345438711
 20
2757.118086854348
 30
0.0
 40
0.0025904065252288
100
AcDbArc
 50
0.0
 51
89.99629595430967
  0
LWPOLYLINE
  5
2915
330
1F
100
AcDbEntity
  8
SANINDUSA
100
AcDbPolyline
 90
        3
 70
   128
 43
0.0
 10
5168.602455590264
 20
2757.120679555647
 10
5168.610455308454
 20
2757.120677856915
 10
5168.613454554574
 20
2757.120677260868
  0
LWPOLYLINE
  5
2916
330
1F
100
AcDbEntity
  8
SANINDUSA
100
AcDbPolyline
 90
        3
 70
   128
 43
0.0
 10
5168.616044793623
 20
2757.118087111227
 10
5168.616044912832
 20
2757.110089032166
 10
5168.616044912832
 20
2757.107090769522
  0
ARC
  5
2917
330
1F
100
AcDbEntity
  8
SANINDUSA
100
AcDbCircle
 10
5168.602454832505
 20
2757.118090193655
 30
0.0
 40
0.0025893621023319
100
AcDbArc
 50
89.98323275871241
 51
180.0
  0
LINE
  5
2918
330
1F
100
AcDbEntity
  8
SANINDUSA
100
AcDbLine
 10
5168.599865470426
 20
2757.107094166987
 30
0.0
 11
5168.599865470426
 21
2757.118090538494
 31
0.0
  0
ARC
  5
2919
330
1F
100
AcDbEntity
  8
SANINDUSA
100
AcDbCircle
 10
5168.613455634265
 20
2757.107091090423
 30
0.0
 40
0.0025892785861178
100
AcDbArc
 50
269.9813842532182
 51
0.0
  0
LINE
  5
291A
330
1F
100
AcDbEntity
  8
SANINDUSA
100
AcDbLine
 10
5168.613454792993
 20
2757.104501811974
 30
0.0
 11
5168.602455649869
 21
2757.104504106753
 31
0.0
  0
ARC
  5
291B
330
1F
100
AcDbEntity
  8
SANINDUSA
100
AcDbCircle
 10
5168.602455876958
 20
2757.107094513297
 30
0.0
 40
0.0025904065549626
100
AcDbArc
 50
180.0
 51
269.994977149164
  0
ENDSEC
  0
SECTION
  2
OBJECTS
  0
DICTIONARY
  5
C
330
0
100
AcDbDictionary
281
     1
  3
ACAD_COLOR
350
EE6
  3
ACAD_GROUP
350
D
  3
ACAD_LAYOUT
350
1A
  3
ACAD_MATERIAL
350
EE5
  3
ACAD_MLINESTYLE
350
17
  3
ACAD_PLOTSETTINGS
350
19
  3
ACAD_PLOTSTYLENAME
350
E
  3
ACAD_TABLESTYLE
350
EE7
  3
ACDBHEADERROUNDTRIPXREC
350
292D
  3
AcDbVariableDictionary
350
3D
  3
ASE_INDEX_DICTIONARY
350
E77
  0
DICTIONARY
  5
1051
330
2
100
AcDbDictionary
280
     1
281
     1
  3
ACAD_LAYERFILTERS
360
1057
  3
ACLYDICTIONARY
360
1056
  0
DICTIONARY
  5
EE6
102
{ACAD_REACTORS
330
C
102
}
330
C
100
AcDbDictionary
281
     1
  0
DICTIONARY
  5
D
102
{ACAD_REACTORS
330
C
102
}
330
C
100
AcDbDictionary
281
     1
  0
DICTIONARY
  5
1A
102
{ACAD_REACTORS
330
C
102
}
330
C
100
AcDbDictionary
281
     1
  3
Layout1
350
1E
  3
Layout2
350
26
  3
Model
350
22
  0
DICTIONARY
  5
EE5
102
{ACAD_REACTORS
330
C
102
}
330
C
100
AcDbDictionary
281
     1
  0
DICTIONARY
  5
17
102
{ACAD_REACTORS
330
C
102
}
330
C
100
AcDbDictionary
281
     1
  3
Standard
350
18
  0
DICTIONARY
  5
19
102
{ACAD_REACTORS
330
C
102
}
330
C
100
AcDbDictionary
281
     1
  0
ACDBDICTIONARYWDFLT
  5
E
102
{ACAD_REACTORS
330
C
102
}
330
C
100
AcDbDictionary
281
     1
  3
Normal
350
F
100
AcDbDictionaryWithDefault
340
F
  0
DICTIONARY
  5
EE7
102
{ACAD_REACTORS
330
C
102
}
330
C
100
AcDbDictionary
281
     1
  3
Standard
350
EE8
  0
DICTIONARY
  5
292D
102
{ACAD_REACTORS
330
C
102
}
330
C
100
AcDbDictionary
281
     1
  0
DICTIONARY
  5
3D
102
{ACAD_REACTORS
330
C
102
}
330
C
100
AcDbDictionary
281
     1
  3
CTABLESTYLE
350
1049
  3
DIMASSOC
350
3F
  3
HIDETEXT
350
3E
  3
PROJECTNAME
350
2925
  0
DICTIONARY
  5
E77
102
{ACAD_REACTORS
330
C
102
}
330
C
100
AcDbDictionary
281
     1
  3
ASEBlockHierarchyIndexRecord
350
E78
1001
DCO15
1040
1552647238.734
  0
DICTIONARY
  5
1057
102
{ACAD_REACTORS
330
1051
102
}
330
1051
100
AcDbDictionary
281
     1
  0
DICTIONARY
  5
1056
102
{ACAD_REACTORS
330
1051
102
}
330
1051
100
AcDbDictionary
281
     1
1001
ACAD
1000
<All
  0
LAYOUT
  5
1E
102
{ACAD_XDICTIONARY
360
292E
102
}
102
{ACAD_REACTORS
330
1A
102
}
330
1A
100
AcDbPlotSettings
  1

  2
Ploter HP500
  4

  6

 40
0.0
 41
0.0
 42
0.0
 43
0.0
 44
0.0
 45
0.0
 46
0.0
 47
0.0
 48
0.0
 49
0.0
140
0.0
141
0.0
142
1.0
143
1.0
 70
   688
 72
     0
 73
     0
 74
     5
  7
sanindusa.ctb
 75
    16
147
1.0
148
0.0
149
0.0
100
AcDbLayout
  1
Layout1
 70
     1
 71
     1
 10
0.0
 20
0.0
 11
420.0
 21
297.0
 12
0.0
 22
0.0
 32
0.0
 14
1.000000000000000E+20
 24
1.000000000000000E+20
 34
1.000000000000000E+20
 15
-1.000000000000000E+20
 25
-1.000000000000000E+20
 35
-1.000000000000000E+20
146
0.0
 13
0.0
 23
0.0
 33
0.0
 16
1.0
 26
0.0
 36
0.0
 17
0.0
 27
1.0
 37
0.0
 76
     0
330
1B
  0
LAYOUT
  5
26
102
{ACAD_XDICTIONARY
360
2932
102
}
102
{ACAD_REACTORS
330
1A
102
}
330
1A
100
AcDbPlotSettings
  1

  2
Ploter HP500
  4

  6

 40
0.0
 41
0.0
 42
0.0
 43
0.0
 44
0.0
 45
0.0
 46
0.0
 47
0.0
 48
0.0
 49
0.0
140
0.0
141
0.0
142
1.0
143
1.0
 70
   688
 72
     0
 73
     0
 74
     5
  7
sanindusa.ctb
 75
    16
147
1.0
148
0.0
149
0.0
100
AcDbLayout
  1
Layout2
 70
     1
 71
     2
 10
0.0
 20
0.0
 11
12.0
 21
9.0
 12
0.0
 22
0.0
 32
0.0
 14
0.0
 24
0.0
 34
0.0
 15
0.0
 25
0.0
 35
0.0
146
0.0
 13
0.0
 23
0.0
 33
0.0
 16
1.0
 26
0.0
 36
0.0
 17
0.0
 27
1.0
 37
0.0
 76
     0
330
23
  0
LAYOUT
  5
22
102
{ACAD_XDICTIONARY
360
2930
102
}
102
{ACAD_REACTORS
330
1A
102
}
330
1A
100
AcDbPlotSettings
  1

  2
Ploter HP500
  4
User268
  6

 40
4.995333194732666
 41
16.97565841674804
 42
4.995330810546875
 43
16.97567749023437
 44
209.9733276367187
 45
296.9259948730469
 46
0.0
 47
0.0
 48
0.0
 49
0.0
140
0.0
141
0.0
142
1.0
143
1.0
 70
 11952
 72
     1
 73
     1
 74
     0
  7
sanindusa.ctb
 75
     0
147
1.0
148
-427.5957866592534
149
7.362384574453926
100
AcDbLayout
  1
Model
 70
     1
 71
     0
 10
0.0
 20
0.0
 11
12.0
 21
9.0
 12
0.0
 22
0.0
 32
0.0
 14
0.0
 24
0.0
 34
0.0
 15
0.0
 25
0.0
 35
0.0
146
0.0
 13
0.0
 23
0.0
 33
0.0
 16
1.0
 26
0.0
 36
0.0
 17
0.0
 27
1.0
 37
0.0
 76
     0
330
1F
  0
MLINESTYLE
  5
18
102
{ACAD_REACTORS
330
17
102
}
330
17
100
AcDbMlineStyle
  2
STANDARD
 70
     0
  3

 62
   256
 51
90.0
 52
90.0
 71
     2
 49
0.5
 62
   256
  6
BYLAYER
 49
-0.5
 62
   256
  6
BYLAYER
  0
ACDBPLACEHOLDER
  5
F
102
{ACAD_REACTORS
330
E
102
}
330
E
  0
TABLESTYLE
  5
EE8
102
{ACAD_REACTORS
330
EE7
102
}
330
EE7
100
AcDbTableStyle
  3
Standard
 70
     0
 71
     0
 40
1.5
 41
1.5
280
     0
281
     0
  7
Standard
140
4.5
170
     2
 62
     0
 63
     7
283
     0
274
    -2
284
     1
 64
     0
275
    -2
285
     1
 65
     0
276
    -2
286
     1
 66
     0
277
    -2
287
     1
 67
     0
278
    -2
288
     1
 68
     0
279
    -2
289
     1
 69
     0
  7
Standard
140
6.0
170
     5
 62
     0
 63
     7
283
     0
274
    -2
284
     1
 64
     0
275
    -2
285
     1
 65
     0
276
    -2
286
     1
 66
     0
277
    -2
287
     1
 67
     0
278
    -2
288
     1
 68
     0
279
    -2
289
     1
 69
     0
  7
Standard
140
4.5
170
     5
 62
     0
 63
     7
283
     0
274
    -2
284
     1
 64
     0
275
    -2
285
     1
 65
     0
276
    -2
286
     1
 66
     0
277
    -2
287
     1
 67
     0
278
    -2
288
     1
 68
     0
279
    -2
289
     1
 69
     0
  0
DICTIONARYVAR
  5
1049
102
{ACAD_REACTORS
330
3D
102
}
330
3D
100
DictionaryVariables
280
     0
  1
STANDARD
  0
DICTIONARYVAR
  5
3F
102
{ACAD_REACTORS
330
3D
102
}
330
3D
100
DictionaryVariables
280
     0
  1
2
  0
DICTIONARYVAR
  5
3E
102
{ACAD_REACTORS
330
3D
102
}
330
3D
100
DictionaryVariables
280
     0
  1
1
  0
DICTIONARYVAR
  5
2925
102
{ACAD_REACTORS
330
3D
102
}
330
3D
100
DictionaryVariables
280
     0
  1

  0
XRECORD
  5
E78
102
{ACAD_REACTORS
330
E77
102
}
330
E77
100
AcDbXrecord
280
     1
330
0
330
0
  0
DICTIONARY
  5
292E
330
1E
100
AcDbDictionary
280
     1
281
     1
  3
ACAD_XREC_ROUNDTRIP
360
292F
  0
DICTIONARY
  5
2932
330
26
100
AcDbDictionary
280
     1
281
     1
  3
ACAD_XREC_ROUNDTRIP
360
2933
  0
DICTIONARY
  5
2930
330
22
100
AcDbDictionary
280
     1
281
     1
  3
ACAD_XREC_ROUNDTRIP
360
2931
  0
XRECORD
  5
292F
102
{ACAD_REACTORS
330
292E
102
}
330
292E
100
AcDbXrecord
280
     1
102
SHADEPLOT
 70
     0
102
SHADEPLOTRESLEVEL
 70
     2
102
SHADEPLOTCUSTOMDPI
 70
   300
  0
XRECORD
  5
2933
102
{ACAD_REACTORS
330
2932
102
}
330
2932
100
AcDbXrecord
280
     1
102
SHADEPLOT
 70
     0
102
SHADEPLOTRESLEVEL
 70
     2
102
SHADEPLOTCUSTOMDPI
 70
   300
  0
XRECORD
  5
2931
102
{ACAD_REACTORS
330
2930
102
}
330
2930
100
AcDbXrecord
280
     1
102
SHADEPLOT
 70
     0
102
SHADEPLOTRESLEVEL
 70
     2
102
SHADEPLOTCUSTOMDPI
 70
   300
  0
ENDSEC
  0
EOF
