  0
SECTION
  2
HEADER
  9
$ACADVER
  1
AC1015
  9
$ACADMAINTVER
 70
    20
  9
$DWGCODEPAGE
  3
ANSI_1252
  9
$INSBASE
 10
0.0
 20
0.0
 30
0.0
  9
$EXTMIN
 10
4019.285319483583
 20
2726.346768883622
 30
0.0
  9
$EXTMAX
 10
4022.599083579972
 20
2727.047077591399
 30
0.0
  9
$LIMMIN
 10
0.0
 20
0.0
  9
$LIMMAX
 10
420.0
 20
297.0
  9
$ORTHOMODE
 70
     1
  9
$REGENMODE
 70
     1
  9
$FILLMODE
 70
     1
  9
$QTEXTMODE
 70
     0
  9
$MIRRTEXT
 70
     1
  9
$LTSCALE
 40
1.0
  9
$ATTMODE
 70
     1
  9
$TEXTSIZE
 40
2.5
  9
$TRACEWID
 40
1.0
  9
$TEXTSTYLE
  7
SANINDUSA
  9
$CLAYER
  8
0
  9
$CELTYPE
  6
ByLayer
  9
$CECOLOR
 62
   256
  9
$CELTSCALE
 40
1.0
  9
$DISPSILH
 70
     0
  9
$DIMSCALE
 40
1.0
  9
$DIMASZ
 40
2.0
  9
$DIMEXO
 40
1.0
  9
$DIMDLI
 40
1.0
  9
$DIMRND
 40
0.0
  9
$DIMDLE
 40
0.0
  9
$DIMEXE
 40
1.0
  9
$DIMTP
 40
0.0
  9
$DIMTM
 40
0.0
  9
$DIMTXT
 40
2.0
  9
$DIMCEN
 40
0.0
  9
$DIMTSZ
 40
0.0
  9
$DIMTOL
 70
     0
  9
$DIMLIM
 70
     0
  9
$DIMTIH
 70
     0
  9
$DIMTOH
 70
     0
  9
$DIMSE1
 70
     0
  9
$DIMSE2
 70
     0
  9
$DIMTAD
 70
     1
  9
$DIMZIN
 70
     8
  9
$DIMBLK
  1

  9
$DIMASO
 70
     1
  9
$DIMSHO
 70
     1
  9
$DIMPOST
  1

  9
$DIMAPOST
  1

  9
$DIMALT
 70
     0
  9
$DIMALTD
 70
     3
  9
$DIMALTF
 40
0.03937007874016
  9
$DIMLFAC
 40
1.0
  9
$DIMTOFL
 70
     1
  9
$DIMTVP
 40
0.0
  9
$DIMTIX
 70
     0
  9
$DIMSOXD
 70
     0
  9
$DIMSAH
 70
     0
  9
$DIMBLK1
  1

  9
$DIMBLK2
  1

  9
$DIMSTYLE
  2
SANINDUSA
  9
$DIMCLRD
 70
   256
  9
$DIMCLRE
 70
   256
  9
$DIMCLRT
 70
   256
  9
$DIMTFAC
 40
1.0
  9
$DIMGAP
 40
1.0
  9
$DIMJUST
 70
     0
  9
$DIMSD1
 70
     0
  9
$DIMSD2
 70
     0
  9
$DIMTOLJ
 70
     0
  9
$DIMTZIN
 70
     8
  9
$DIMALTZ
 70
     0
  9
$DIMALTTZ
 70
     0
  9
$DIMUPT
 70
     0
  9
$DIMDEC
 70
     1
  9
$DIMTDEC
 70
     1
  9
$DIMALTU
 70
     2
  9
$DIMALTTD
 70
     3
  9
$DIMTXSTY
  7
SANINDUSA
  9
$DIMAUNIT
 70
     0
  9
$DIMADEC
 70
     1
  9
$DIMALTRND
 40
0.0
  9
$DIMAZIN
 70
     0
  9
$DIMDSEP
 70
    44
  9
$DIMATFIT
 70
     3
  9
$DIMFRAC
 70
     0
  9
$DIMLDRBLK
  1

  9
$DIMLUNIT
 70
     2
  9
$DIMLWD
 70
    -1
  9
$DIMLWE
 70
    -1
  9
$DIMTMOVE
 70
     0
  9
$LUNITS
 70
     2
  9
$LUPREC
 70
     4
  9
$SKETCHINC
 40
1.0
  9
$FILLETRAD
 40
3.0
  9
$AUNITS
 70
     0
  9
$AUPREC
 70
     0
  9
$MENU
  1
.
  9
$ELEVATION
 40
0.0
  9
$PELEVATION
 40
0.0
  9
$THICKNESS
 40
0.0
  9
$LIMCHECK
 70
     0
  9
$CHAMFERA
 40
10.0
  9
$CHAMFERB
 40
10.0
  9
$CHAMFERC
 40
20.0
  9
$CHAMFERD
 40
0.0
  9
$SKPOLY
 70
     0
  9
$TDCREATE
 40
2454316.402598553
  9
$TDUCREATE
 40
2454316.402598553
  9
$TDUPDATE
 40
2454478.651513843
  9
$TDUUPDATE
 40
2454478.651513843
  9
$TDINDWG
 40
0.0027179282
  9
$TDUSRTIMER
 40
0.0027179282
  9
$USRTIMER
 70
     1
  9
$ANGBASE
 50
0.0
  9
$ANGDIR
 70
     0
  9
$PDMODE
 70
     0
  9
$PDSIZE
 40
0.0
  9
$PLINEWID
 40
0.0
  9
$SPLFRAME
 70
     0
  9
$SPLINETYPE
 70
     6
  9
$SPLINESEGS
 70
     8
  9
$HANDSEED
  5
29A5
  9
$SURFTAB1
 70
     6
  9
$SURFTAB2
 70
     6
  9
$SURFTYPE
 70
     6
  9
$SURFU
 70
     6
  9
$SURFV
 70
     6
  9
$UCSBASE
  2

  9
$UCSNAME
  2

  9
$UCSORG
 10
0.0
 20
0.0
 30
0.0
  9
$UCSXDIR
 10
1.0
 20
0.0
 30
0.0
  9
$UCSYDIR
 10
0.0
 20
1.0
 30
0.0
  9
$UCSORTHOREF
  2

  9
$UCSORTHOVIEW
 70
     0
  9
$UCSORGTOP
 10
0.0
 20
0.0
 30
0.0
  9
$UCSORGBOTTOM
 10
0.0
 20
0.0
 30
0.0
  9
$UCSORGLEFT
 10
0.0
 20
0.0
 30
0.0
  9
$UCSORGRIGHT
 10
0.0
 20
0.0
 30
0.0
  9
$UCSORGFRONT
 10
0.0
 20
0.0
 30
0.0
  9
$UCSORGBACK
 10
0.0
 20
0.0
 30
0.0
  9
$PUCSBASE
  2

  9
$PUCSNAME
  2

  9
$PUCSORG
 10
0.0
 20
0.0
 30
0.0
  9
$PUCSXDIR
 10
1.0
 20
0.0
 30
0.0
  9
$PUCSYDIR
 10
0.0
 20
1.0
 30
0.0
  9
$PUCSORTHOREF
  2

  9
$PUCSORTHOVIEW
 70
     0
  9
$PUCSORGTOP
 10
0.0
 20
0.0
 30
0.0
  9
$PUCSORGBOTTOM
 10
0.0
 20
0.0
 30
0.0
  9
$PUCSORGLEFT
 10
0.0
 20
0.0
 30
0.0
  9
$PUCSORGRIGHT
 10
0.0
 20
0.0
 30
0.0
  9
$PUCSORGFRONT
 10
0.0
 20
0.0
 30
0.0
  9
$PUCSORGBACK
 10
0.0
 20
0.0
 30
0.0
  9
$USERI1
 70
     0
  9
$USERI2
 70
     0
  9
$USERI3
 70
     0
  9
$USERI4
 70
     0
  9
$USERI5
 70
     0
  9
$USERR1
 40
0.0
  9
$USERR2
 40
0.0
  9
$USERR3
 40
0.0
  9
$USERR4
 40
0.0
  9
$USERR5
 40
0.0
  9
$WORLDVIEW
 70
     1
  9
$SHADEDGE
 70
     3
  9
$SHADEDIF
 70
    70
  9
$TILEMODE
 70
     1
  9
$MAXACTVP
 70
    64
  9
$PINSBASE
 10
0.0
 20
0.0
 30
0.0
  9
$PLIMCHECK
 70
     0
  9
$PEXTMIN
 10
1.000000000000000E+20
 20
1.000000000000000E+20
 30
1.000000000000000E+20
  9
$PEXTMAX
 10
-1.000000000000000E+20
 20
-1.000000000000000E+20
 30
-1.000000000000000E+20
  9
$PLIMMIN
 10
0.0
 20
0.0
  9
$PLIMMAX
 10
420.0
 20
297.0
  9
$UNITMODE
 70
     0
  9
$VISRETAIN
 70
     1
  9
$PLINEGEN
 70
     0
  9
$PSLTSCALE
 70
     1
  9
$TREEDEPTH
 70
  3020
  9
$CMLSTYLE
  2
Standard
  9
$CMLJUST
 70
     0
  9
$CMLSCALE
 40
20.0
  9
$PROXYGRAPHICS
 70
     1
  9
$MEASUREMENT
 70
     1
  9
$CELWEIGHT
370
    -1
  9
$ENDCAPS
280
     0
  9
$JOINSTYLE
280
     0
  9
$LWDISPLAY
290
     0
  9
$INSUNITS
 70
     4
  9
$HYPERLINKBASE
  1

  9
$STYLESHEET
  1
sanindusa.ctb
  9
$XEDIT
290
     1
  9
$CEPSNTYPE
380
     0
  9
$PSTYLEMODE
290
     1
  9
$FINGERPRINTGUID
  2
{7122E14E-6302-42D5-9960-28636E1B2F5B}
  9
$VERSIONGUID
  2
{B45F196D-1BE0-4017-87B0-A2955E4B21BE}
  9
$EXTNAMES
290
     1
  9
$PSVPSCALE
 40
0.0
  9
$OLESTARTUP
290
     0
  0
ENDSEC
  0
SECTION
  2
CLASSES
  0
CLASS
  1
ACDBDICTIONARYWDFLT
  2
AcDbDictionaryWithDefault
  3
ObjectDBX Classes
 90
        0
280
     0
281
     0
  0
CLASS
  1
ACDBPLACEHOLDER
  2
AcDbPlaceHolder
  3
ObjectDBX Classes
 90
        0
280
     0
281
     0
  0
CLASS
  1
LAYOUT
  2
AcDbLayout
  3
ObjectDBX Classes
 90
        0
280
     0
281
     0
  0
CLASS
  1
DICTIONARYVAR
  2
AcDbDictionaryVar
  3
ObjectDBX Classes
 90
        0
280
     0
281
     0
  0
CLASS
  1
DIMASSOC
  2
AcDbDimAssoc
  3
"AcDbDimAssoc|Product Desc:     AcDim ARX App For Dimension|Company:          Autodesk, Inc.|WEB Address:      www.autodesk.com"
 90
    32768
280
     0
281
     0
  0
CLASS
  1
TABLESTYLE
  2
AcDbTableStyle
  3
ObjectDBX Classes
 90
     2047
280
     0
281
     0
  0
ENDSEC
  0
SECTION
  2
TABLES
  0
TABLE
  2
VPORT
  5
8
330
0
100
AcDbSymbolTable
 70
     2
  0
VPORT
  5
299D
330
8
100
AcDbSymbolTableRecord
100
AcDbViewportTableRecord
  2
*Active
 70
     0
 10
0.0
 20
0.0
 11
1.0
 21
1.0
 12
4020.942201531777
 22
2726.705355053121
 13
0.0
 23
0.0
 14
10.0
 24
10.0
 15
10.0
 25
10.0
 16
0.0
 26
0.0
 36
1.0
 17
0.0
 27
0.0
 37
0.0
 40
2.105845948757996
 41
1.579579579579579
 42
50.0
 43
0.0
 44
0.0
 50
0.0
 51
0.0
 71
     0
 72
   100
 73
     1
 74
     2
 75
     0
 76
     0
 77
     0
 78
     0
281
     0
 65
     1
110
0.0
120
0.0
130
0.0
111
1.0
121
0.0
131
0.0
112
0.0
122
1.0
132
0.0
 79
     0
146
0.0
  0
ENDTAB
  0
TABLE
  2
LTYPE
  5
5
330
0
100
AcDbSymbolTable
 70
     5
  0
LTYPE
  5
14
330
5
100
AcDbSymbolTableRecord
100
AcDbLinetypeTableRecord
  2
ByBlock
 70
     0
  3

 72
    65
 73
     0
 40
0.0
  0
LTYPE
  5
15
330
5
100
AcDbSymbolTableRecord
100
AcDbLinetypeTableRecord
  2
ByLayer
 70
     0
  3

 72
    65
 73
     0
 40
0.0
  0
LTYPE
  5
16
330
5
100
AcDbSymbolTableRecord
100
AcDbLinetypeTableRecord
  2
Continuous
 70
     0
  3
Solid line
 72
    65
 73
     0
 40
0.0
  0
LTYPE
  5
2D
330
5
100
AcDbSymbolTableRecord
100
AcDbLinetypeTableRecord
  2
DASHDOT
 70
     0
  3
Dash dot __ . __ . __ . __ . __ . __ . __ . __
 72
    65
 73
     4
 40
25.4
 49
12.7
 74
     0
 49
-6.349999999999999
 74
     0
 49
0.0
 74
     0
 49
-6.349999999999999
 74
     0
  0
LTYPE
  5
2E
330
5
100
AcDbSymbolTableRecord
100
AcDbLinetypeTableRecord
  2
HIDDEN
 70
     0
  3
Hidden __ __ __ __ __ __ __ __ __ __ __ __ __ _
 72
    65
 73
     2
 40
9.524999999999998
 49
6.349999999999999
 74
     0
 49
-3.174999999999999
 74
     0
  0
LTYPE
  5
C75
330
5
100
AcDbSymbolTableRecord
100
AcDbLinetypeTableRecord
  2
AM_ISO02W050
 70
     0
  3
__ __ __ __ __ __ __ __ __ __ __ __ __ __ __
 72
    65
 73
     2
 40
7.5
 49
6.0
 74
     0
 49
-1.5
 74
     0
  0
LTYPE
  5
C76
330
5
100
AcDbSymbolTableRecord
100
AcDbLinetypeTableRecord
  2
AM_ISO08W050
 70
     0
  3
____ . ____ . ____ . ____ . ____ . ____ . ____
 72
    65
 73
     4
 40
18.0
 49
12.0
 74
     0
 49
-1.5
 74
     0
 49
3.0
 74
     0
 49
-1.5
 74
     0
  0
ENDTAB
  0
TABLE
  2
LAYER
  5
2
102
{ACAD_XDICTIONARY
360
1051
102
}
330
0
100
AcDbSymbolTable
 70
    16
  0
LAYER
  5
10
330
2
100
AcDbSymbolTableRecord
100
AcDbLayerTableRecord
  2
0
 70
     0
 62
     7
  6
Continuous
370
    -3
390
F
  0
LAYER
  5
2F
330
2
100
AcDbSymbolTableRecord
100
AcDbLayerTableRecord
  2
1
 70
     0
 62
     1
  6
Continuous
370
    -3
390
F
  0
LAYER
  5
30
330
2
100
AcDbSymbolTableRecord
100
AcDbLayerTableRecord
  2
2
 70
     0
 62
     2
  6
Continuous
370
    -3
390
F
  0
LAYER
  5
31
330
2
100
AcDbSymbolTableRecord
100
AcDbLayerTableRecord
  2
3
 70
     0
 62
     3
  6
Continuous
370
    -3
390
F
  0
LAYER
  5
32
330
2
100
AcDbSymbolTableRecord
100
AcDbLayerTableRecord
  2
4
 70
     0
 62
     4
  6
Continuous
370
    -3
390
F
  0
LAYER
  5
33
330
2
100
AcDbSymbolTableRecord
100
AcDbLayerTableRecord
  2
5
 70
     0
 62
     5
  6
Continuous
370
    -3
390
F
  0
LAYER
  5
34
330
2
100
AcDbSymbolTableRecord
100
AcDbLayerTableRecord
  2
6
 70
     0
 62
     6
  6
Continuous
370
    -3
390
F
  0
LAYER
  5
35
330
2
100
AcDbSymbolTableRecord
100
AcDbLayerTableRecord
  2
7
 70
     0
 62
     7
  6
Continuous
370
    -3
390
F
  0
LAYER
  5
36
330
2
100
AcDbSymbolTableRecord
100
AcDbLayerTableRecord
  2
cen
 70
     0
 62
     7
  6
DASHDOT
370
    -3
390
F
  0
LAYER
  5
37
330
2
100
AcDbSymbolTableRecord
100
AcDbLayerTableRecord
  2
hid
 70
     0
 62
     7
  6
HIDDEN
370
    -3
390
F
  0
LAYER
  5
5D6
330
2
100
AcDbSymbolTableRecord
100
AcDbLayerTableRecord
  2
hatch
 70
     0
 62
     9
  6
Continuous
370
    -3
390
F
  0
LAYER
  5
8AF
330
2
100
AcDbSymbolTableRecord
100
AcDbLayerTableRecord
  2
9
 70
     0
 62
     9
  6
Continuous
370
    -3
390
F
  0
LAYER
  5
8F8
330
2
100
AcDbSymbolTableRecord
100
AcDbLayerTableRecord
  2
leg fin
 70
     0
 62
     9
  6
Continuous
370
    -3
390
F
  0
LAYER
  5
91D
330
2
100
AcDbSymbolTableRecord
100
AcDbLayerTableRecord
  2
cotas
 70
     0
 62
     1
  6
Continuous
370
    -3
390
F
  0
LAYER
  5
92F
330
2
100
AcDbSymbolTableRecord
100
AcDbLayerTableRecord
  2
Defpoints
 70
     0
 62
     7
  6
Continuous
290
     0
370
    -3
390
F
  0
LAYER
  5
C7B
330
2
100
AcDbSymbolTableRecord
100
AcDbLayerTableRecord
  2
SANINDUSA
 70
     0
 62
     3
  6
Continuous
370
    -3
390
F
  0
ENDTAB
  0
TABLE
  2
STYLE
  5
3
330
0
100
AcDbSymbolTable
 70
     4
  0
STYLE
  5
11
330
3
100
AcDbSymbolTableRecord
100
AcDbTextStyleTableRecord
  2
Standard
 70
     0
 40
0.0
 41
1.0
 50
0.0
 71
     0
 42
2.5
  3
Avgardn.ttf
  4

1001
ACAD
1000
AvantGarde Bk BT
1071
       34
  0
STYLE
  5
2C
330
3
100
AcDbSymbolTableRecord
100
AcDbTextStyleTableRecord
  2

 70
     1
 40
0.0
 41
1.0
 50
0.0
 71
     0
 42
2.5
  3
ltypeshp.shx
  4

  0
STYLE
  5
91F
330
3
100
AcDbSymbolTableRecord
100
AcDbTextStyleTableRecord
  2
SANINDUSA
 70
     0
 40
0.0
 41
1.0
 50
0.0
 71
     0
 42
2.5
  3
verdana.TTF
  4

1001
ACAD
1000
Verdana
1071
       34
  0
STYLE
  5
C7C
330
3
100
AcDbSymbolTableRecord
100
AcDbTextStyleTableRecord
  2
futura
 70
     0
 40
0.0
 41
1.0
 50
0.0
 71
     0
 42
2.5
  3
ZURCHN.TTF
  4

1001
ACAD
1000
Zurich BT
1071
       34
  0
ENDTAB
  0
TABLE
  2
VIEW
  5
6
330
0
100
AcDbSymbolTable
 70
     0
  0
ENDTAB
  0
TABLE
  2
UCS
  5
7
330
0
100
AcDbSymbolTable
 70
     0
  0
ENDTAB
  0
TABLE
  2
APPID
  5
9
330
0
100
AcDbSymbolTable
 70
    10
  0
APPID
  5
12
330
9
100
AcDbSymbolTableRecord
100
AcDbRegAppTableRecord
  2
ACAD
 70
     0
  0
APPID
  5
3A
330
9
100
AcDbSymbolTableRecord
100
AcDbRegAppTableRecord
  2
DCO15
 70
     0
  0
APPID
  5
EEE
330
9
100
AcDbSymbolTableRecord
100
AcDbRegAppTableRecord
  2
ACAD_DSTYLE_DIMTEXT_FILL
 70
     0
  0
APPID
  5
EEF
330
9
100
AcDbSymbolTableRecord
100
AcDbRegAppTableRecord
  2
ACAD_DSTYLE_DIMEXT_LENGTH
 70
     0
  0
APPID
  5
EF0
330
9
100
AcDbSymbolTableRecord
100
AcDbRegAppTableRecord
  2
ACAD_DSTYLE_DIMEXT_ENABLED
 70
     0
  0
APPID
  5
EF1
330
9
100
AcDbSymbolTableRecord
100
AcDbRegAppTableRecord
  2
ACAD_DSTYLE_DIM_LINETYPE
 70
     0
  0
APPID
  5
EF2
330
9
100
AcDbSymbolTableRecord
100
AcDbRegAppTableRecord
  2
ACAD_DSTYLE_DIM_EXT1_LINETYPE
 70
     0
  0
APPID
  5
EF3
330
9
100
AcDbSymbolTableRecord
100
AcDbRegAppTableRecord
  2
ACAD_DSTYLE_DIM_EXT2_LINETYPE
 70
     0
  0
APPID
  5
FAF
330
9
100
AcDbSymbolTableRecord
100
AcDbRegAppTableRecord
  2
ACAD_DSTYLE_DIMJOGGED_JOGANGLE_SYMBOL
 70
     0
  0
APPID
  5
1013
330
9
100
AcDbSymbolTableRecord
100
AcDbRegAppTableRecord
  2
ACAD_DSTYLE_DIMARC_LENGTH_SYMBOL
 70
     0
  0
ENDTAB
  0
TABLE
  2
DIMSTYLE
  5
A
330
0
100
AcDbSymbolTable
 70
     3
100
AcDbDimStyleTable
 71
     1
340
921
  0
DIMSTYLE
105
45
330
A
100
AcDbSymbolTableRecord
100
AcDbDimStyleTableRecord
  2
STANDARD
 70
     0
289
     0
340
11
  0
DIMSTYLE
105
921
330
A
100
AcDbSymbolTableRecord
100
AcDbDimStyleTableRecord
  2
SANINDUSA
 70
     0
 41
2.0
 42
1.0
 43
1.0
 44
1.0
 73
     0
 74
     0
 77
     1
 78
     8
140
2.0
141
0.0
143
0.03937007874016
147
1.0
171
     3
172
     1
176
   256
177
   256
178
   256
179
     1
271
     1
272
     1
274
     3
278
    44
283
     0
284
     8
340
91F
371
    -1
372
    -1
1001
ACAD_DSTYLE_DIMEXT_LENGTH
1070
   378
1040
1.0
1001
ACAD_DSTYLE_DIMEXT_ENABLED
1070
   383
1070
     0
1001
ACAD_DSTYLE_DIMARC_LENGTH_SYMBOL
1070
   379
1070
     0
1001
ACAD_DSTYLE_DIMJOGGED_JOGANGLE_SYMBOL
1070
   384
1040
1.570796326794896
  0
DIMSTYLE
105
C7D
330
A
100
AcDbSymbolTableRecord
100
AcDbDimStyleTableRecord
  2
AM_ISO
 70
     0
  4
"
 41
2.5
 42
1.0
 43
10.0
 44
1.0
 47
0.1
 48
0.1
 73
     0
 74
     0
 77
     1
 78
     8
 79
     2
140
3.5
141
0.0
143
0.0393701
146
0.71
147
1.5
172
     1
176
   256
177
   256
178
     2
271
     2
272
     3
274
     4
283
     0
284
     8
340
11
371
    -1
372
    -1
  0
ENDTAB
  0
TABLE
  2
BLOCK_RECORD
  5
1
330
0
100
AcDbSymbolTable
 70
   121
  0
BLOCK_RECORD
  5
1F
330
1
100
AcDbSymbolTableRecord
100
AcDbBlockTableRecord
  2
*Model_Space
340
22
  0
BLOCK_RECORD
  5
1B
330
1
100
AcDbSymbolTableRecord
100
AcDbBlockTableRecord
  2
*Paper_Space
340
1E
  0
BLOCK_RECORD
  5
23
330
1
100
AcDbSymbolTableRecord
100
AcDbBlockTableRecord
  2
*Paper_Space0
340
26
  0
BLOCK_RECORD
  5
919
330
1
100
AcDbSymbolTableRecord
100
AcDbBlockTableRecord
  2
_DotSmall
340
0
  0
BLOCK_RECORD
  5
922
330
1
100
AcDbSymbolTableRecord
100
AcDbBlockTableRecord
  2
base para cotas
340
0
310
2800000020000000200000000100080000000000000400000000000000000000000000000000000000000000000080000080000000808000800000008000800080800000C0C0C000C0DCC000F0CAA6000020400000206000002080000020A0000020C0000020E00000400000004020000040400000406000004080000040A0
310
000040C0000040E00000600000006020000060400000606000006080000060A0000060C0000060E00000800000008020000080400000806000008080000080A0000080C0000080E00000A0000000A0200000A0400000A0600000A0800000A0A00000A0C00000A0E00000C0000000C0200000C0400000C0600000C0800000C0
310
A00000C0C00000C0E00000E0000000E0200000E0400000E0600000E0800000E0A00000E0C00000E0E00040000000400020004000400040006000400080004000A0004000C0004000E00040200000402020004020400040206000402080004020A0004020C0004020E000404000004040200040404000404060004040800040
310
40A0004040C0004040E00040600000406020004060400040606000406080004060A0004060C0004060E00040800000408020004080400040806000408080004080A0004080C0004080E00040A0000040A0200040A0400040A0600040A0800040A0A00040A0C00040A0E00040C0000040C0200040C0400040C0600040C08000
310
40C0A00040C0C00040C0E00040E0000040E0200040E0400040E0600040E0800040E0A00040E0C00040E0E00080000000800020008000400080006000800080008000A0008000C0008000E00080200000802020008020400080206000802080008020A0008020C0008020E00080400000804020008040400080406000804080
310
008040A0008040C0008040E00080600000806020008060400080606000806080008060A0008060C0008060E00080800000808020008080400080806000808080008080A0008080C0008080E00080A0000080A0200080A0400080A0600080A0800080A0A00080A0C00080A0E00080C0000080C0200080C0400080C0600080C0
310
800080C0A00080C0C00080C0E00080E0000080E0200080E0400080E0600080E0800080E0A00080E0C00080E0E000C0000000C0002000C0004000C0006000C0008000C000A000C000C000C000E000C0200000C0202000C0204000C0206000C0208000C020A000C020C000C020E000C0400000C0402000C0404000C0406000C0
310
408000C040A000C040C000C040E000C0600000C0602000C0604000C0606000C0608000C060A000C060C000C060E000C0800000C0802000C0804000C0806000C0808000C080A000C080C000C080E000C0A00000C0A02000C0A04000C0A06000C0A08000C0A0A000C0A0C000C0A0E000C0C00000C0C02000C0C04000C0C06000
310
C0C08000C0C0A000F0FBFF00A4A0A000808080000000FF0000FF000000FFFF00FF000000FF00FF00FFFF0000FFFFFF00A4A4A4A4A4A4A4A4A4A4A4A4A4A4A4A4A4A4A4A4A4A4A4A4A4A4A4A4A4A4A4A4A4A4A4A4A4A4A4A4A4A4A4A4A4A4A4A4A4A4A4A4A4A4A4A4A4A4A4A4A4A4A4A4A4A4A4A4A4A4A4A4A4A4A4A4A4A4A4
310
A4A4A4A4A4A4A4A4A4A4A4A4A4A4A4A4A4A4A4A4A4A4A4A4A4A4A4A4A4A4A4A4A4A4A4A4A4A4A4A4A4A4A4A4A4A4A4A4A4A4A4A4A4A4A4A4A4A4A4A4A4A4A4A4A4A4A4A4A4A4A4A4A4A4A4A4A4A4A4A4A4A4A4A4A4A4A4A4A4A4A4A4A4A4A4A4A4A4A4A4A4A4A4A4A4A4A4A4A4A4A4A4A4A4A4A4A4A4A4A4A4A4A4A4A4A4A4
310
A4A4A4A4A4A4A4A4A4A4A4A4A4A4A4A4A4A4A4A4A4A4A4A4A4A4A4A4A4A4A4A4A4A4A4A4A4A4A4A4A4A4A4A4A4A4A4A4A4A4A4A4A4A4A4A4A4A4A4A4A4A4A4A4A4A4A4A4A4A4A4A4A4A4A4A4A4A4A4A4A4A4A4A4A4A4A4A4A4A4A4A4A4A4A4A4A4A4A4A4A4A4A4A4A4A4A4A4A4A4A4A4A4A4A4A4A4A4A4A4A4A4A4A4A4A4A4
310
A4A4A4A4A4A4A4A4A4A4A4A4A4A4A4A4A4A4A4A4A4A4A4A4A4A4A4A4A4A4A4A4A4A4A4A4A4A4A4A4A4A4A4A4A4A4A4A4A4A4A4A4A4A4A4A4A4A4A4A4A4A4A4A4A4A4A4A4A4A4A4A4A4A4A4A4A4A4A4A4A4A4A4A4A4A4A4A4A4A4A4A4A4A4A4A4A4A4A4A4A4A4A4A4A4A4A4A4A4A4A4A4A4A4A4A4F9F9F9F9F9F9F9F9F9F9F9
310
F9F9F9F9F9F9F9F9F9F9F9F9F9F9F9F9F9F9F9A4A4F9F9F9F9F9F9F9F9F9F9F9F9F9F9F9F9F9F9F9F9F9F9F9F9F9F9F9F9F9F9A4A4F9F9F9F9F9F9F9F9F9F9F9F9F9F9F9F9F9F9F9F9F9F9F9F9F9F9F9F9F9F9A4A4F9A4A4A4A4A4A4A4A4A4A4A4A4A4A4A4A4A4A4A4A4A4A4A4A4A4A4A4A4F9A4A4A4A4A4A4A4A4A4A4A4A4
310
A4A4A4A4A4A4A4A4A4A4A4A4A4A4A4A4A4A4A4A4A4A4A4A4A4A4A4A4A4A4A4A4A4A4A4A4A4A4A4A4A4A4A4A4A4A4A4A4A4A4A4A4A4A4A4A4A4A4A4A4A4A4A4A4A4A4A4A4A4A4A4A4A4A4A4A4A4A4A4A4A4A4A4A4A4A4A4A4A4A4A4A4A4A4A4A4A4A4A4A4A4A4A4A4A4A4A4A4A4A4A4A4A4A4A4A4A4A4A4A4A4A4A4A4A4A4A4
310
A4A4A4A4A4A4A4A4A4A4A4A4A4A4A4A4A4A4A4A4A4A4A4A4A4A4A4A4A4A4A4A4A4A4A4A4A4A4A4A4A4A4A4A4A4A4A4A4A4A4A4A4A4A4A4A4A4A4A4A4A4A4A4A4A4A4A4A4A4A4A4A4A4A4A4A4A4A4A4A4A4A4A4A4A4A4A4A4A4A4A4A4A4A4A4A4A4A4A4A4A4A4A4A4A4A4A4A4A4A4A4A4A4A4A4A4A4A4A4A4A4A4A4A4A4A4A4
310
A4A4A4A4A4A4A4A4A4A4A4A4A4A4A4A4A4A4A4A4A4A4A4A4A4A4A4A4A4A4A4A4A4A4A4A4A4A4A4A4A4A4A4A4A4A4A4A4A4A4A4A4A4A4A4A4A4A4A4A4A4A4A4A4A4A4A4A4A4A4A4A4A4A4A4A4A4A4A4A4A4A4A4A4A4A4A4A4A4A4A4A4A4A4A4A4A4A4A4A4A4A4A4A4A4A4A4A4A4A4A4A4A4A4A4A4A4A4A4A4A4A4A4A4A4A4A4
310
A4A4A4A4A4A4A4A4A4A4A4A4A4A4A4A4A4A4A4A4A4A4A4A4A4A4A4A4A4A4A4A4A4A4A4A4A4A4A4A4A4A4A4A4A4A4A4A4A4A4A4A4A4A4A4A4
1001
ACAD
1000
DesignCenter Data
1002
{
1070
     1
1070
     4
1002
}
  0
BLOCK_RECORD
  5
AA8
330
1
100
AcDbSymbolTableRecord
100
AcDbBlockTableRecord
  2
_CLOSED
340
0
  0
BLOCK_RECORD
  5
B79
330
1
100
AcDbSymbolTableRecord
100
AcDbBlockTableRecord
  2
nota revisoes
340
0
1001
ACAD
1000
DesignCenter Data
1002
{
1070
     1
1070
     4
1002
}
  0
BLOCK_RECORD
  5
B8E
330
1
100
AcDbSymbolTableRecord
100
AcDbBlockTableRecord
  2
a3l
340
0
1001
ACAD
1000
DesignCenter Data
1002
{
1070
     1
1070
     4
1002
}
  0
BLOCK_RECORD
  5
B9E
330
1
100
AcDbSymbolTableRecord
100
AcDbBlockTableRecord
  2
legenda desenvolvimento
340
0
1001
ACAD
1000
DesignCenter Data
1002
{
1070
     1
1070
     4
1002
}
  0
ENDTAB
  0
ENDSEC
  0
SECTION
  2
BLOCKS
  0
BLOCK
  5
20
330
1F
100
AcDbEntity
  8
0
100
AcDbBlockBegin
  2
*Model_Space
 70
     0
 10
0.0
 20
0.0
 30
0.0
  3
*Model_Space
  1

  0
ENDBLK
  5
21
330
1F
100
AcDbEntity
  8
0
100
AcDbBlockEnd
  0
BLOCK
  5
1C
330
1B
100
AcDbEntity
 67
     1
  8
0
100
AcDbBlockBegin
  2
*Paper_Space
 70
     0
 10
0.0
 20
0.0
 30
0.0
  3
*Paper_Space
  1

  0
ENDBLK
  5
1D
330
1B
100
AcDbEntity
 67
     1
  8
0
100
AcDbBlockEnd
  0
BLOCK
  5
24
330
23
100
AcDbEntity
 67
     1
  8
0
100
AcDbBlockBegin
  2
*Paper_Space0
 70
     0
 10
0.0
 20
0.0
 30
0.0
  3
*Paper_Space0
  1

  0
ENDBLK
  5
25
330
23
100
AcDbEntity
 67
     1
  8
0
100
AcDbBlockEnd
  0
BLOCK
  5
91B
330
919
100
AcDbEntity
  8
0
100
AcDbBlockBegin
  2
_DotSmall
 70
     0
 10
0.0
 20
0.0
 30
0.0
  3
_DotSmall
  1

  0
LWPOLYLINE
  5
91A
330
919
100
AcDbEntity
  8
0
  6
ByBlock
 62
     0
100
AcDbPolyline
 90
        2
 70
     1
 43
0.5
 10
-0.0625
 20
0.0
 42
1.0
 10
0.0625
 20
0.0
 42
1.0
  0
ENDBLK
  5
91C
330
919
100
AcDbEntity
  8
0
100
AcDbBlockEnd
  0
BLOCK
  5
92A
330
922
100
AcDbEntity
  8
0
100
AcDbBlockBegin
  2
base para cotas
 70
     0
 10
0.0
 20
0.0
 30
0.0
  3
base para cotas
  1

  0
LINE
  5
B36
330
922
100
AcDbEntity
  8
cotas
100
AcDbLine
 10
0.0
 20
-30.0
 30
0.0
 11
327.1260136525398
 21
-30.0
 31
0.0
  0
LINE
  5
B37
330
922
100
AcDbEntity
  8
cotas
100
AcDbLine
 10
0.0
 20
-25.0
 30
0.0
 11
327.1260136525398
 21
-25.0
 31
0.0
  0
LINE
  5
B38
330
922
100
AcDbEntity
  8
cotas
100
AcDbLine
 10
0.0
 20
-20.0
 30
0.0
 11
327.1260136525398
 21
-20.0
 31
0.0
  0
LINE
  5
B39
330
922
100
AcDbEntity
  8
cotas
100
AcDbLine
 10
0.0
 20
-15.0
 30
0.0
 11
327.1260136525398
 21
-15.0
 31
0.0
  0
LINE
  5
B3A
330
922
100
AcDbEntity
  8
cotas
100
AcDbLine
 10
0.0
 20
-10.0
 30
0.0
 11
327.1260136525398
 21
-10.0
 31
0.0
  0
LINE
  5
B3B
330
922
100
AcDbEntity
  8
cotas
100
AcDbLine
 10
0.0
 20
0.0
 30
0.0
 11
0.0
 21
-30.0
 31
0.0
  0
LINE
  5
B3C
330
922
100
AcDbEntity
  8
cotas
100
AcDbLine
 10
327.1260136525398
 20
-30.0
 30
0.0
 11
327.1260136525398
 21
0.0
 31
0.0
  0
ENDBLK
  5
92B
330
922
100
AcDbEntity
  8
0
100
AcDbBlockEnd
  0
BLOCK
  5
AAD
330
AA8
100
AcDbEntity
  8
0
100
AcDbBlockBegin
  2
_CLOSED
 70
     0
 10
0.0
 20
0.0
 30
0.0
  3
_CLOSED
  1

  0
LINE
  5
AA9
330
AA8
100
AcDbEntity
  8
0
100
AcDbLine
 10
-1.0
 20
0.166667
 30
0.0
 11
0.0
 21
0.0
 31
0.0
  0
LINE
  5
AAA
330
AA8
100
AcDbEntity
  8
0
100
AcDbLine
 10
0.0
 20
0.0
 30
0.0
 11
-1.0
 21
-0.166667
 31
0.0
  0
LINE
  5
AAB
330
AA8
100
AcDbEntity
  8
0
100
AcDbLine
 10
-1.0
 20
0.166667
 30
0.0
 11
-1.0
 21
-0.166667
 31
0.0
  0
LINE
  5
AAC
330
AA8
100
AcDbEntity
  8
0
100
AcDbLine
 10
0.0
 20
0.0
 30
0.0
 11
-1.0
 21
0.0
 31
0.0
  0
ENDBLK
  5
AAE
330
AA8
100
AcDbEntity
  8
0
100
AcDbBlockEnd
  0
BLOCK
  5
B7C
330
B79
100
AcDbEntity
  8
0
100
AcDbBlockBegin
  2
nota revisoes
 70
     0
 10
0.0
 20
0.0
 30
0.0
  3
nota revisoes
  1

  0
CIRCLE
  5
B7A
330
B79
100
AcDbEntity
  8
4
100
AcDbCircle
 10
0.0
 20
0.0
 30
0.0
 40
13.69426055101189
  0
TEXT
  5
B7B
330
B79
100
AcDbEntity
  8
4
100
AcDbText
 10
-5.496248358154345
 20
-5.354545554066362
 30
0.0
 40
12.0
  1
1
  7
SANINDUSA
 72
     1
 11
-0.249774214433728
 21
-5.354545554066362
 31
0.0
100
AcDbText
  0
ENDBLK
  5
B7D
330
B79
100
AcDbEntity
  8
0
100
AcDbBlockEnd
  0
BLOCK
  5
B9C
330
B8E
100
AcDbEntity
  8
0
100
AcDbBlockBegin
  2
a3l
 70
     0
 10
0.0
 20
0.0
 30
0.0
  3
a3l
  1

  0
LINE
  5
B8F
330
B8E
100
AcDbEntity
  8
1
100
AcDbLine
 10
-364.2925296599447
 20
-362.1188951399395
 30
0.0
 11
-364.2925296599447
 21
-65.11889513993946
 31
0.0
  0
LINE
  5
B90
330
B8E
100
AcDbEntity
  8
4
100
AcDbLine
 10
-369.2925296599447
 20
-357.1188951399395
 30
0.0
 11
-369.2925296599447
 21
-70.11889513993946
 31
0.0
  0
LINE
  5
B91
330
B8E
100
AcDbEntity
  8
1
100
AcDbLine
 10
-784.2925296599446
 20
-65.11889513993946
 30
0.0
 11
-784.2925296599446
 21
-362.1188951399395
 31
0.0
  0
LINE
  5
B92
330
B8E
100
AcDbEntity
  8
4
100
AcDbLine
 10
-759.2925296599446
 20
-357.1188951399395
 30
0.0
 11
-759.2925296599446
 21
-70.11889513993946
 31
0.0
  0
LINE
  5
B93
330
B8E
100
AcDbEntity
  8
1
100
AcDbLine
 10
-784.2925296599446
 20
-362.1188951399395
 30
0.0
 11
-364.2925296599447
 21
-362.1188951399395
 31
0.0
  0
LINE
  5
B94
330
B8E
100
AcDbEntity
  8
4
100
AcDbLine
 10
-759.2925296599446
 20
-357.1188951399395
 30
0.0
 11
-369.2925296599447
 21
-357.1188951399395
 31
0.0
  0
LINE
  5
B95
330
B8E
100
AcDbEntity
  8
1
100
AcDbLine
 10
-654.2925296599446
 20
-357.1188951399395
 30
0.0
 11
-654.2925296599446
 21
-362.1188951399395
 31
0.0
  0
LINE
  5
B96
330
B8E
100
AcDbEntity
  8
1
100
AcDbLine
 10
-364.2925296599447
 20
-65.11889513993946
 30
0.0
 11
-784.2925296599446
 21
-65.11889513993946
 31
0.0
  0
LINE
  5
B97
330
B8E
100
AcDbEntity
  8
4
100
AcDbLine
 10
-369.2925296599447
 20
-70.11889513993946
 30
0.0
 11
-759.2925296599446
 21
-70.11889513993946
 31
0.0
  0
LINE
  5
B98
330
B8E
100
AcDbEntity
  8
1
100
AcDbLine
 10
-654.2925296599446
 20
-65.11889513993946
 30
0.0
 11
-654.2925296599446
 21
-70.11889513993946
 31
0.0
  0
LINE
  5
B99
330
B8E
100
AcDbEntity
  8
1
100
AcDbLine
 10
-549.2925296599446
 20
-70.11889513993946
 30
0.0
 11
-549.2925296599446
 21
-65.11889513993946
 31
0.0
  0
LINE
  5
B9A
330
B8E
100
AcDbEntity
  8
1
100
AcDbLine
 10
-369.2925296599447
 20
-65.11889513993946
 30
0.0
 11
-364.2925296599447
 21
-65.11889513993946
 31
0.0
  0
LINE
  5
B9B
330
B8E
100
AcDbEntity
  8
1
100
AcDbLine
 10
-549.2925296599446
 20
-357.1188951399395
 30
0.0
 11
-549.2925296599446
 21
-362.1188951399395
 31
0.0
  0
ENDBLK
  5
B9D
330
B8E
100
AcDbEntity
  8
0
100
AcDbBlockEnd
  0
BLOCK
  5
C13
330
B9E
100
AcDbEntity
  8
0
100
AcDbBlockBegin
  2
legenda desenvolvimento
 70
     2
 10
0.0
 20
0.0
 30
0.0
  3
legenda desenvolvimento
  1

  0
ATTDEF
  5
B9F
330
B9E
100
AcDbEntity
  8
1
100
AcDbText
 10
-108.606245802552
 20
55.5
 30
0.0
 40
4.0
  1
XXXXXXXXXXXXXX
 41
0.8
  7
SANINDUSA
 72
     4
 11
-87.5
 21
57.5
 31
0.0
100
AcDbAttributeDefinition
  3
Nome do Produto:
  2
PRODUTO
 70
     0
  0
ATTDEF
  5
BA0
330
B9E
100
AcDbEntity
  8
1
100
AcDbText
 10
-97.9997966101695
 20
41.25
 30
0.0
 40
3.0
  1
XXXXXXXXX
 41
0.8
  7
futura
 72
     4
 11
-87.5
 21
42.75
 31
0.0
100
AcDbAttributeDefinition
  3
Nome da Peça:
  2
PECA
 70
     0
  0
ATTDEF
  5
BA1
330
B9E
100
AcDbEntity
  8
1
100
AcDbText
 10
-133.4422431161853
 20
21.11745296763252
 30
0.0
 40
2.5
  1
X
 41
0.8
  7
SANINDUSA
 72
     4
 11
-132.5
 21
22.36745296763252
 31
0.0
100
AcDbAttributeDefinition
  3
Cod. TESTE:
  2
TESTE
 70
     0
  0
ATTDEF
  5
BA2
330
B9E
100
AcDbEntity
  8
1
100
AcDbText
 10
-124.3844862323707
 20
21.11745296763252
 30
0.0
 40
2.5
  1
XX
 41
0.8
  7
SANINDUSA
 72
     4
 11
-122.5
 21
22.36745296763252
 31
0.0
100
AcDbAttributeDefinition
  3
Cod. Ano:
  2
ANO
 70
     0
  0
ATTDEF
  5
BA3
330
B9E
100
AcDbEntity
  8
1
100
AcDbText
 10
-112.526889953052
 20
21.11745296763252
 30
0.0
 40
2.5
  1
XXX
 41
0.8
  7
SANINDUSA
 72
     4
 11
-109.700160604496
 21
22.36745296763252
 31
0.0
100
AcDbAttributeDefinition
  3
Cod. Sequência:
  2
SEQUENCIA
 70
     0
  0
ATTDEF
  5
BA4
330
B9E
100
AcDbEntity
  8
1
100
AcDbText
 10
-99.35382430979316
 20
21.11745296763252
 30
0.0
 40
2.5
  1
XX
 41
0.8
  7
SANINDUSA
 72
     4
 11
-97.46933807742244
 21
22.36745296763252
 31
0.0
100
AcDbAttributeDefinition
  3
Cod. Tipo:
  2
TIPO
 70
     0
  0
ATTDEF
  5
BA5
330
B9E
100
AcDbEntity
  8
1
100
AcDbText
 10
-87.42035911468438
 20
21.11745296763252
 30
0.0
 40
2.5
  1
XXX
 41
0.8
  7
SANINDUSA
 72
     4
 11
-84.59362976612828
 21
22.36745296763252
 31
0.0
100
AcDbAttributeDefinition
  3
Cod. Produto:
  2
PRODUTO
 70
     0
  0
ATTDEF
  5
BA6
330
B9E
100
AcDbEntity
  8
1
100
AcDbText
 10
-74.62051971917853
 20
21.11745296763252
 30
0.0
 40
2.5
  1
XXX
 41
0.8
  7
SANINDUSA
 72
     4
 11
-71.79379037062244
 21
22.36745296763252
 31
0.0
100
AcDbAttributeDefinition
  3
Cod. Peça:
  2
PECA
 70
     0
  0
ATTDEF
  5
BA7
330
B9E
100
AcDbEntity
  8
1
100
AcDbText
 10
-61.10603446650329
 20
21.11745296763252
 30
0.0
 40
2.5
  1
XX
 41
0.8
  7
SANINDUSA
 72
     4
 11
-59.22154823413257
 21
22.36745296763252
 31
0.0
100
AcDbAttributeDefinition
  3
Cod. Revisão:
  2
REV
 70
     0
  0
ATTDEF
  5
BA8
330
B9E
100
AcDbEntity
  8
1
100
AcDbText
 10
-48.43615325006194
 20
21.11745296763252
 30
0.0
 40
2.5
  1
XX
 41
0.8
  7
SANINDUSA
 72
     4
 11
-46.55166701769121
 21
22.36745296763252
 31
0.0
100
AcDbAttributeDefinition
  3
Cod. Alteração:
  2
ALT
 70
     0
  0
ATTDEF
  5
BA9
330
B9E
100
AcDbEntity
  8
1
100
AcDbText
 10
-35.19086635325722
 20
23.98875083948959
 30
0.0
 40
3.0
  1
1/XXX
 41
0.8
  7
SANINDUSA
 72
     4
 11
-30.0
 21
25.25
 31
0.0
100
AcDbAttributeDefinition
  3
Escala geral:
  2
ESCALA
 70
     0
  0
ATTDEF
  5
BAA
330
B9E
100
AcDbEntity
  8
1
100
AcDbText
 10
-15.65345869711215
 20
23.75
 30
0.0
 40
3.0
  1
XXXXX
 41
0.8
  7
SANINDUSA
 72
     4
 11
-10.0
 21
25.25
 31
0.0
100
AcDbAttributeDefinition
  3
Folha:
  2
FOLHA
 70
     0
  0
ATTDEF
  5
BAB
330
B9E
100
AcDbEntity
  8
1
100
AcDbText
 10
-178.5146998822042
 20
56.9531347542807
 30
0.0
 40
2.0
  1
xx
 41
0.8
  7
SANINDUSA
 72
     4
 11
-177.2123493113513
 21
57.70330265219877
 31
0.0
100
AcDbAttributeDefinition
  3
revisão
  2
REV.
 70
     0
  0
ATTDEF
  5
BAC
330
B9E
100
AcDbEntity
  8
1
100
AcDbText
 10
-172.7849640077129
 20
56.9531347542807
 30
0.0
 40
2.0
  1
xx
 41
0.8
  7
SANINDUSA
 72
     4
 11
-171.48261343686
 21
57.70330265219877
 31
0.0
100
AcDbAttributeDefinition
  3
alteração
  2
ALT.
 70
     0
  0
ATTDEF
  5
BAD
330
B9E
100
AcDbEntity
  8
1
100
AcDbText
 10
-168.007199951307
 20
56.70330265219877
 30
0.0
 40
2.0
  1
xx/xx/xxxx
 41
0.8
  7
SANINDUSA
 11
-168.007199951307
 21
57.70330265219877
 31
0.0
100
AcDbAttributeDefinition
  3
data
  2
DATA
 70
     0
 74
     2
  0
ATTDEF
  5
BAE
330
B9E
100
AcDbEntity
  8
1
100
AcDbText
 10
-168.5396372253371
 20
13.15916722632639
 30
0.0
 40
2.0
  1
XX/XX/XXXX
 41
0.8
  7
SANINDUSA
 72
     4
 11
-161.5099528734231
 21
14.0
 31
0.0
100
AcDbAttributeDefinition
  3
Data projecto
  2
DATA_PROJ
 70
     0
  0
ATTDEF
  5
BAF
330
B9E
100
AcDbEntity
  8
1
100
AcDbText
 10
-150.8658110728766
 20
13.24983210208193
 30
0.0
 40
2.0
  1
xxxxxxxx
 41
0.8
  7
SANINDUSA
 72
     4
 11
-145.6564087894649
 21
14.0
 31
0.0
100
AcDbAttributeDefinition
  3
nome de quem projectou
  2
NOME
 70
     0
  0
ATTDEF
  5
BB0
330
B9E
100
AcDbEntity
  8
1
100
AcDbText
 10
-168.5396372253371
 20
9.159167226326394
 30
0.0
 40
2.0
  1
XX/XX/XXXX
 41
0.8
  7
SANINDUSA
 72
     4
 11
-161.5099528734231
 21
10.0
 31
0.0
100
AcDbAttributeDefinition
  3
Data desenhou
  2
DATA_DES
 70
     0
  0
ATTDEF
  5
BB1
330
B9E
100
AcDbEntity
  8
1
100
AcDbText
 10
-151.516986358303
 20
9.249832102081933
 30
0.0
 40
2.0
  1
xxxxxxxxx
 41
0.8
  7
SANINDUSA
 72
     4
 11
-145.6564087894649
 21
10.0
 31
0.0
100
AcDbAttributeDefinition
  3
nome
  2
NOME
 70
     0
  0
ATTDEF
  5
BB2
330
B9E
100
AcDbEntity
  8
1
100
AcDbText
 10
-127.2924214135946
 20
14.1979876583216
 30
0.0
 40
2.0
  1
Vitreous China
 41
0.8
  7
SANINDUSA
 72
     4
 11
-119.231709526422
 21
15.22216495852308
 31
0.0
100
AcDbAttributeDefinition
  3
Nome do Material:
  2
MATERIAL
 70
     0
  0
ATTDEF
  5
BB3
330
B9E
100
AcDbEntity
  8
1
100
AcDbText
 10
-103.1563452122093
 20
14.38019043949261
 30
0.0
 40
2.0
  1
Branco
 41
0.8
  7
SANINDUSA
 72
     4
 11
-99.33418268702462
 21
15.35937109765245
 31
0.0
100
AcDbAttributeDefinition
  3
cor da peça
  2
COR
 70
     0
  0
ATTDEF
  5
BB4
330
B9E
100
AcDbEntity
  8
1
100
AcDbText
 10
-116.7235057085292
 20
5.975822699798522
 30
0.0
 40
2.0
  1
Vidrado
 41
0.8
  7
SANINDUSA
 72
     4
 11
-112.5
 21
7.0
 31
0.0
100
AcDbAttributeDefinition
  3
Tipo de acabamento:
  2
ACABAMENTO
 70
     0
  0
ATTDEF
  5
BB5
330
B9E
100
AcDbEntity
  8
1
100
AcDbText
 10
-79.18527869967246
 20
16.65066409850533
 30
0.0
 40
2.0
  1
XXXXXXX
 41
0.8
  7
SANINDUSA
 72
     4
 11
-73.90871724903445
 21
17.65066409850533
 31
0.0
100
AcDbAttributeDefinition
  3
Normas
  2
NORMAS
 70
     0
  0
ATTDEF
  5
BB6
330
B9E
100
AcDbEntity
  8
1
100
AcDbText
 10
-30.55312290127603
 20
14.0
 30
0.0
 40
2.0
  1
XXXXXXXXXXXXXX
 41
0.8
  7
SANINDUSA
 72
     4
 11
-20.0
 21
15.0
 31
0.0
100
AcDbAttributeDefinition
  3
Substitui o desenho:
  2
SUBSTITUI
 70
     0
  0
ATTDEF
  5
BB7
330
B9E
100
AcDbEntity
  8
1
100
AcDbText
 10
-31.30691739422431
 20
6.0
 30
0.0
 40
2.0
  1
XXXXXXXXXXXXXXX
 41
0.8
  7
SANINDUSA
 72
     4
 11
-20.0
 21
7.0
 31
0.0
100
AcDbAttributeDefinition
  3
Substituido por:
  2
SUBSTITUIDO
 70
     0
  0
ATTDEF
  5
BB8
330
B9E
100
AcDbEntity
  8
1
100
AcDbText
 10
-110.0220608548302
 20
1.478208457928303
 30
0.0
 40
2.0
  1
XXXXXXXXXXXXXXXXXXXXXXXXXXXXXXXXXX
 41
0.8
  7
SANINDUSA
 11
-110.0220608548302
 21
2.478208457928303
 31
0.0
100
AcDbAttributeDefinition
  3
Localização do desenho:
  2
LOC-DWG
 70
     0
 74
     2
  0
LINE
  5
BB9
330
B9E
100
AcDbEntity
  8
3
100
AcDbLine
 10
-135.0
 20
4.0
 30
0.0
 11
0.0000000000004547
 21
4.0
 31
0.0
  0
LINE
  5
BBA
330
B9E
100
AcDbEntity
  8
3
100
AcDbLine
 10
-90.00000000000046
 20
12.0
 30
0.0
 11
-135.0
 21
12.0
 31
0.0
  0
LINE
  5
BBB
330
B9E
100
AcDbEntity
  8
3
100
AcDbLine
 10
-135.0
 20
32.5
 30
0.0
 11
-40.0
 21
32.5
 31
0.0
  0
TEXT
  5
BBC
330
B9E
100
AcDbEntity
  8
1
100
AcDbText
 10
-134.0
 20
1.25
 30
0.0
 40
2.0
  1
Localização do des.:
 41
0.8
  7
SANINDUSA
 11
-134.0
 21
2.25
 31
0.0
100
AcDbText
 73
     2
  0
LINE
  5
BBD
330
B9E
100
AcDbEntity
  8
3
100
AcDbLine
 10
-180.0
 20
65.0
 30
0.0
 11
0.0
 21
65.0
 31
0.0
  0
LINE
  5
BBE
330
B9E
100
AcDbEntity
  8
leg fin
100
AcDbLine
 10
-40.0
 20
25.05956924886846
 30
0.0
 11
-135.0
 21
25.05956924886846
 31
0.0
  0
LINE
  5
BBF
330
B9E
100
AcDbEntity
  8
leg fin
100
AcDbLine
 10
-40.0
 20
28.5
 30
0.0
 11
-135.0
 21
28.5
 31
0.0
  0
LINE
  5
BC0
330
B9E
100
AcDbEntity
  8
3
100
AcDbLine
 10
-135.0
 20
50.0
 30
0.0
 11
-40.0
 21
50.0
 31
0.0
  0
TEXT
  5
BC1
330
B9E
100
AcDbEntity
  8
1
100
AcDbText
 10
-134.0
 20
29.75
 30
0.0
 40
2.0
  1
Desenho nº:
 41
0.8
  7
SANINDUSA
 11
-134.0
 21
30.75
 31
0.0
100
AcDbText
 73
     2
  0
TEXT
  5
BC2
330
B9E
100
AcDbEntity
  8
1
100
AcDbText
 10
-134.0
 20
9.25
 30
0.0
 40
2.0
  1
Acabamento:
 41
0.8
  7
SANINDUSA
 11
-134.0
 21
10.25
 31
0.0
100
AcDbText
 73
     2
  0
LINE
  5
BC3
330
B9E
100
AcDbEntity
  8
3
100
AcDbLine
 10
-180.0
 20
20.0
 30
0.0
 11
0.0
 21
20.0
 31
0.0
  0
LINE
  5
BC4
330
B9E
100
AcDbEntity
  8
1
100
AcDbLine
 10
-174.5810776056337
 20
55.5
 30
0.0
 11
-174.5810776056337
 21
65.0
 31
0.0
  0
LINE
  5
BC5
330
B9E
100
AcDbEntity
  8
1
100
AcDbLine
 10
-168.9210461879161
 20
55.5
 30
0.0
 11
-168.9210461879161
 21
65.0
 31
0.0
  0
LINE
  5
BC6
330
B9E
100
AcDbEntity
  8
1
100
AcDbLine
 10
-154.0988595589306
 20
55.5
 30
0.0
 11
-154.0988595589306
 21
65.0
 31
0.0
  0
LINE
  5
BC7
330
B9E
100
AcDbEntity
  8
3
100
AcDbLine
 10
-180.0
 20
65.0
 30
0.0
 11
-180.0
 21
0.0
 31
0.0
  0
LINE
  5
BC8
330
B9E
100
AcDbEntity
  8
3
100
AcDbLine
 10
-135.0
 20
0.0
 30
0.0
 11
-135.0
 21
65.0
 31
0.0
  0
TEXT
  5
BC9
330
B9E
100
AcDbEntity
  8
1
100
AcDbText
 10
-179.0
 20
9.75
 30
0.0
 40
1.5
  1
Des.
 41
0.8
  7
SANINDUSA
 11
-179.0
 21
10.5
 31
0.0
100
AcDbText
 73
     2
  0
LINE
  5
BCA
330
B9E
100
AcDbEntity
  8
1
100
AcDbLine
 10
-168.9210461879161
 20
20.0
 30
0.0
 11
-168.9210461879161
 21
0.0
 31
0.0
  0
LINE
  5
BCB
330
B9E
100
AcDbEntity
  8
1
100
AcDbLine
 10
-154.0988595589306
 20
20.0
 30
0.0
 11
-154.0988595589306
 21
0.0
 31
0.0
  0
LINE
  5
BCC
330
B9E
100
AcDbEntity
  8
1
100
AcDbLine
 10
-180.0
 20
4.0
 30
0.0
 11
-135.0
 21
4.0
 31
0.0
  0
LINE
  5
BCD
330
B9E
100
AcDbEntity
  8
1
100
AcDbLine
 10
-180.0
 20
8.0
 30
0.0
 11
-135.0
 21
8.0
 31
0.0
  0
TEXT
  5
BCE
330
B9E
100
AcDbEntity
  8
1
100
AcDbText
 10
-179.0
 20
1.73257823687436
 30
0.0
 40
1.5
  1
Aprov.
 41
0.8
  7
SANINDUSA
 11
-179.0
 21
2.48257823687436
 31
0.0
100
AcDbText
 73
     2
  0
TEXT
  5
BCF
330
B9E
100
AcDbEntity
  8
1
100
AcDbText
 10
-179.0
 20
5.75
 30
0.0
 40
1.5
  1
Ver.
 41
0.8
  7
SANINDUSA
 11
-179.0
 21
6.5
 31
0.0
100
AcDbText
 73
     2
  0
LINE
  5
BD0
330
B9E
100
AcDbEntity
  8
1
100
AcDbLine
 10
-180.0
 20
16.0
 30
0.0
 11
-135.0
 21
16.0
 31
0.0
  0
LINE
  5
BD1
330
B9E
100
AcDbEntity
  8
1
100
AcDbLine
 10
-180.0
 20
12.0
 30
0.0
 11
-135.0
 21
12.0
 31
0.0
  0
TEXT
  5
BD2
330
B9E
100
AcDbEntity
  8
1
100
AcDbText
 10
-179.0
 20
13.75
 30
0.0
 40
1.5
  1
Proj.
 41
0.8
  7
SANINDUSA
 11
-179.0
 21
14.5
 31
0.0
100
AcDbText
 73
     2
  0
TEXT
  5
BD3
330
B9E
100
AcDbEntity
  8
1
100
AcDbText
 10
-167.9210461879161
 20
17.75
 30
0.0
 40
1.5
  1
Data
 41
0.8
  7
SANINDUSA
 11
-167.9210461879161
 21
18.5
 31
0.0
100
AcDbText
 73
     2
  0
TEXT
  5
BD4
330
B9E
100
AcDbEntity
  8
1
100
AcDbText
 10
-153.0988595589306
 20
17.75
 30
0.0
 40
1.5
  1
Nome
 41
0.8
  7
SANINDUSA
 11
-153.0988595589306
 21
18.5
 31
0.0
100
AcDbText
 73
     2
  0
LINE
  5
BD5
330
B9E
100
AcDbEntity
  8
leg fin
100
AcDbLine
 10
-130.0
 20
20.0
 30
0.0
 11
-130.0
 21
28.5
 31
0.0
  0
TEXT
  5
BD6
330
B9E
100
AcDbEntity
  8
1
100
AcDbText
 10
-134.0
 20
17.25
 30
0.0
 40
2.0
  1
Material:
 41
0.8
  7
SANINDUSA
 11
-134.0
 21
18.25
 31
0.0
100
AcDbText
 73
     2
  0
TEXT
  5
BD7
330
B9E
100
AcDbEntity
  8
1
100
AcDbText
 10
-129.0
 20
26.43288406845113
 30
0.0
 40
1.5
  1
Ano:
 41
0.8
  7
SANINDUSA
 11
-129.0
 21
27.18288406845113
 31
0.0
100
AcDbText
 73
     2
  0
LINE
  5
BD8
330
B9E
100
AcDbEntity
  8
1
100
AcDbLine
 10
-180.0
 20
55.5
 30
0.0
 11
-135.0
 21
55.5
 31
0.0
  0
TEXT
  5
BD9
330
B9E
100
AcDbEntity
  8
1
100
AcDbText
 10
-179.0
 20
52.67772246885193
 30
0.0
 40
1.5
  1
descrição
 41
0.8
  7
SANINDUSA
 11
-179.0
 21
53.42772246885193
 31
0.0
100
AcDbText
 73
     2
  0
TEXT
  5
BDA
330
B9E
100
AcDbEntity
  8
1
100
AcDbText
 10
-134.0
 20
47.25
 30
0.0
 40
2.0
  1
Peça:
 41
0.8
  7
SANINDUSA
 11
-134.0
 21
48.25
 31
0.0
100
AcDbText
 73
     2
  0
LINE
  5
BDB
330
B9E
100
AcDbEntity
  8
1
100
AcDbLine
 10
-180.0
 20
59.5
 30
0.0
 11
-135.0
 21
59.5
 31
0.0
  0
TEXT
  5
BDC
330
B9E
100
AcDbEntity
  8
1
100
AcDbText
 10
-173.5810776056337
 20
62.75
 30
0.0
 40
1.5
  1
Alt.
 41
0.8
  7
SANINDUSA
 11
-173.5810776056337
 21
63.5
 31
0.0
100
AcDbText
 73
     2
  0
TEXT
  5
BDD
330
B9E
100
AcDbEntity
  8
1
100
AcDbText
 10
-179.0
 20
62.75
 30
0.0
 40
1.5
  1
Rev.
 41
0.8
  7
SANINDUSA
 11
-179.0
 21
63.5
 31
0.0
100
AcDbText
 73
     2
  0
TEXT
  5
BDE
330
B9E
100
AcDbEntity
  8
1
100
AcDbText
 10
-167.9210461879161
 20
62.75
 30
0.0
 40
1.5
  1
Data
 41
0.8
  7
SANINDUSA
 11
-167.9210461879161
 21
63.5
 31
0.0
100
AcDbText
 73
     2
  0
TEXT
  5
BDF
330
B9E
100
AcDbEntity
  8
1
100
AcDbText
 10
-153.0988595589306
 20
62.75
 30
0.0
 40
1.5
  1
Nome
 41
0.8
  7
SANINDUSA
 11
-153.0988595589306
 21
63.5
 31
0.0
100
AcDbText
 73
     2
  0
TEXT
  5
BE0
330
B9E
100
AcDbEntity
  8
1
100
AcDbText
 10
-134.0
 20
62.25
 30
0.0
 40
2.0
  1
Produto:
 41
0.8
  7
SANINDUSA
 11
-134.0
 21
63.25
 31
0.0
100
AcDbText
 73
     2
  0
LINE
  5
BE1
330
B9E
100
AcDbEntity
  8
3
100
AcDbLine
 10
-40.0
 20
4.0
 30
0.0
 11
-40.0
 21
65.0
 31
0.0
  0
LWPOLYLINE
  5
BE2
102
{ACAD_REACTORS
330
BEC
102
}
330
B9E
100
AcDbEntity
  8
9
100
AcDbPolyline
 90
       12
 70
     1
 43
0.0
 10
-3.038714600644652
 20
58.90010174665076
 10
-5.726962862472191
 20
58.90010174665076
 10
-5.726962862472191
 20
58.5001017466509
 10
-3.038748516195028
 20
58.5001017466509
 42
-0.4142135623731731
 10
-2.638748516194482
 20
58.1001017466508
 10
-2.638748516194482
 20
57.42799728675596
 10
-5.21497371544865
 20
57.42799728675596
 42
0.4142135623731289
 10
-6.014973715448377
 20
56.627997286756
 10
-6.014973715448377
 20
55.92380871629643
 42
0.4142135623731132
 10
-5.21497371544865
 20
55.12380871629648
 10
-2.23871460064447
 20
55.12380871629648
 10
-2.23871460064447
 20
58.10010174665103
 42
0.4142135623730717
  0
LWPOLYLINE
  5
BE3
102
{ACAD_REACTORS
330
BEC
102
}
330
B9E
100
AcDbEntity
  8
9
100
AcDbPolyline
 90
       20
 70
     1
 43
0.0
 10
-10.01531287095122
 20
57.82799728675581
 10
-10.01531287095122
 20
58.10010174665103
 42
-0.4142135623730744
 10
-9.615312870951584
 20
58.5001017466509
 10
-6.92703069357276
 20
58.5001017466509
 10
-6.92703069357276
 20
58.90010174665076
 10
-9.615346786501959
 20
58.90010174665076
 42
0.4142135623730883
 10
-10.41534678650168
 20
58.1001017466508
 10
-10.41534678650168
 20
57.82796337120567
 42
0.4142135623730717
 10
-9.615346786501959
 20
57.02796337120571
 10
-7.423079531965413
 20
57.02796337120571
 42
-0.4142135623730847
 10
-7.023079531965322
 20
56.62796337120562
 10
-7.023079531965322
 20
55.90786840766487
 42
-0.4142135623730744
 10
-7.423079531965413
 20
55.507868407665
 10
-10.41534678650168
 20
55.507868407665
 10
-10.41534678650168
 20
55.12380871629648
 10
-7.445787917283723
 20
55.12380871629648
 42
0.4114777732064574
 10
-6.645822882998345
 20
55.9163291493976
 10
-6.639238813324936
 20
56.62051771985716
 42
0.4169546541682913
 10
-7.439203847610315
 20
57.42799728675596
 10
-9.615312870951584
 20
57.42799728675596
 42
-0.4142135623731576
  0
LWPOLYLINE
  5
BE4
102
{ACAD_REACTORS
330
BEC
102
}
330
B9E
100
AcDbEntity
  8
9
100
AcDbPolyline
 90
       12
 70
     1
 43
0.0
 10
-14.41561811090378
 20
58.90010174665076
 10
-14.79964388672215
 20
58.90010174665076
 10
-14.79964388672215
 20
55.92380871629643
 42
0.4142135623731133
 10
-13.99964388672242
 20
55.12380871629648
 10
-11.8233508563676
 20
55.12380871629648
 42
0.4142135623730872
 10
-11.02335085636741
 20
55.92380871629643
 10
-11.02335085636741
 20
58.90010174665076
 10
-11.42338477191788
 20
58.90010174665076
 10
-11.42338477191788
 20
55.91567577726095
 42
-0.4131711701795318
 10
-11.82196067063523
 20
55.51567831234956
 10
-14.0141940096214
 20
55.50787335710947
 42
-0.4152567234624407
 10
-14.41561811090378
 20
55.90787082202087
  0
LWPOLYLINE
  5
BE5
102
{ACAD_REACTORS
330
BEC
102
}
330
B9E
100
AcDbEntity
  8
9
100
AcDbPolyline
 90
        6
 70
     1
 43
0.0
 10
-15.80771578768872
 20
55.507868407665
 10
-18.39994912667453
 20
55.507868407665
 42
-0.4142135623731731
 10
-18.79994912667462
 20
55.90786840766487
 10
-18.79994912667462
 20
58.10010174665103
 42
-0.4142135623730744
 10
-18.39994912667453
 20
58.5001017466509
 10
-15.80771578768872
 20
58.5001017466509
  0
LWPOLYLINE
  5
BE6
102
{ACAD_REACTORS
330
BEC
102
}
330
B9E
100
AcDbEntity
  8
9
100
AcDbPolyline
 90
        8
 70
     1
 43
0.0
 10
-15.4236900118708
 20
59.87619128370352
 10
-15.80771578768872
 20
59.87619128370352
 10
-15.80771578768872
 20
58.90010174665076
 10
-18.39176256411201
 20
58.90010174665076
 42
0.4131164467977967
 10
-19.19175694739761
 20
58.1030995310698
 10
-19.1999120763262
 20
55.92680650071542
 42
0.4153115297271718
 10
-18.39991769304061
 20
55.12380871629648
 10
-15.4236900118708
 20
55.12380871629648
  0
LWPOLYLINE
  5
BE7
102
{ACAD_REACTORS
330
BEC
102
}
330
B9E
100
AcDbEntity
  8
9
100
AcDbPolyline
 90
       10
 70
     1
 43
0.0
 10
-20.59201288790928
 20
58.90010174665076
 10
-23.56830591826338
 20
58.90010174665076
 10
-23.56830591826338
 20
55.12380871629648
 10
-23.18424622689509
 20
55.12380871629648
 10
-23.18424622689509
 20
58.5001017466509
 10
-20.59204680345965
 20
58.5001017466509
 42
-0.4142135623730898
 10
-20.19204680345956
 20
58.1001017466508
 10
-20.19204680345956
 20
55.12380871629648
 10
-19.79201288790909
 20
55.12380871629648
 10
-19.79201288790909
 20
58.10010174665103
 42
0.4142135623731132
  0
LWPOLYLINE
  5
BE8
102
{ACAD_REACTORS
330
BEC
102
}
330
B9E
100
AcDbEntity
  8
9
100
AcDbPolyline
 90
        4
 70
     1
 43
0.0
 10
-24.19231812786165
 20
58.90010174665076
 10
-24.57637781922995
 20
58.90010174665076
 10
-24.57637781922995
 20
55.12380871629648
 10
-24.19231812786165
 20
55.12380871629648
  0
LWPOLYLINE
  5
BE9
102
{ACAD_REACTORS
330
BEC
102
}
330
B9E
100
AcDbEntity
  8
9
100
AcDbPolyline
 90
       10
 70
     1
 43
0.0
 10
-28.57661522808212
 20
58.5001017466509
 10
-25.98444972019706
 20
58.5001017466509
 42
-0.4142135623731731
 10
-25.58444972019652
 20
58.1001017466508
 10
-25.58444972019652
 20
55.12380871629648
 10
-25.2004239443786
 20
55.12380871629648
 10
-25.2004239443786
 20
58.10010174665103
 42
0.4142135623730717
 10
-26.00042394437833
 20
58.90010174665076
 10
-28.97664914363259
 20
58.90010174665076
 10
-28.97664914363259
 20
55.12380871629648
 10
-28.57661522808212
 20
55.12380871629648
  0
LWPOLYLINE
  5
BEA
102
{ACAD_REACTORS
330
BEC
102
}
330
B9E
100
AcDbEntity
  8
9
100
AcDbPolyline
 90
       12
 70
     1
 43
0.0
 10
-29.58465321349832
 20
58.10010174665103
 42
0.4142135623730716
 10
-30.3846532134985
 20
58.90010174665076
 10
-33.07296930642724
 20
58.90010174665076
 10
-33.07296930642724
 20
58.5001017466509
 10
-30.38468712904842
 20
58.5001017466509
 42
-0.4142135623730067
 10
-29.98468712904878
 20
58.1001017466508
 10
-29.98468712904878
 20
57.42799728675618
 10
-32.56098015940324
 20
57.42799728675596
 42
0.4142135623731289
 10
-33.36098015940343
 20
56.627997286756
 10
-33.36098015940343
 20
55.92380871629643
 42
0.4142135623731132
 10
-32.56098015940324
 20
55.12380871629648
 10
-29.58465321349832
 20
55.12380871629648
  0
LWPOLYLINE
  5
BEB
102
{ACAD_REACTORS
330
BEC
102
}
330
B9E
100
AcDbEntity
  8
9
100
AcDbPolyline
 90
       20
 70
     1
 43
0.0
 10
-34.7850262845518
 20
57.42799728675596
 10
-36.96125148380543
 20
57.42799728675596
 42
-0.4142135623730898
 10
-37.36125148380552
 20
57.82799728675604
 10
-37.36125148380552
 20
58.10010174665103
 42
-0.4142135623730744
 10
-36.96125148380543
 20
58.5001017466509
 10
-34.27303713752781
 20
58.50010174665067
 10
-34.27303713752781
 20
58.90010174665076
 10
-36.96128539935535
 20
58.90010174665076
 42
0.4142135623731289
 10
-37.76128539935553
 20
58.1001017466508
 10
-37.76128539935553
 20
57.82796337120567
 42
0.4142135623730716
 10
-36.9612853993558
 20
57.02796337120571
 10
-34.76901814481926
 20
57.02796337120571
 42
-0.414213562373168
 10
-34.36901814481962
 20
56.62796337120562
 10
-34.36901814481962
 20
55.90786840766487
 42
-0.4142135623730744
 10
-34.76901814481926
 20
55.507868407665
 10
-37.76128539935553
 20
55.507868407665
 10
-37.76128539935553
 20
55.12380871629648
 10
-34.7850262845518
 20
55.12380871629648
 42
0.4142135623731289
 10
-33.98502628455162
 20
55.92380871629643
 10
-33.98502628455162
 20
56.627997286756
 42
0.4142135623731132
  0
HATCH
  5
BEC
330
B9E
100
AcDbEntity
  8
9
100
AcDbHatch
 10
0.0
 20
0.0
 30
0.0
210
0.0
220
0.0
230
1.0
  2
SOLID
 70
     1
 71
     1
 91
       13
 92
        7
 72
     1
 73
     1
 93
       20
 10
-34.36901814481962
 20
55.90786840766487
 42
-0.414213562372991
 10
-34.76901814481926
 20
55.507868407665
 42
0.0
 10
-37.76128539935553
 20
55.507868407665
 42
0.0
 10
-37.76128539935553
 20
55.12380871629648
 42
0.0
 10
-34.7850262845518
 20
55.12380871629648
 42
0.4142135623731705
 10
-33.98502628455162
 20
55.92380871629666
 42
0.0
 10
-33.98502628455162
 20
56.627997286756
 42
0.4142135623731547
 10
-34.7850262845518
 20
57.42799728675596
 42
0.0
 10
-36.96125148380543
 20
57.42799728675596
 42
-0.4142135623730898
 10
-37.36125148380552
 20
57.82799728675604
 42
0.0
 10
-37.36125148380552
 20
58.1001017466508
 42
-0.4142135623731575
 10
-36.96125148380543
 20
58.5001017466509
 42
0.0
 10
-34.27303713752781
 20
58.50010174665067
 42
0.0
 10
-34.27303713752781
 20
58.90010174665076
 42
0.0
 10
-36.96128539935535
 20
58.90010174665076
 42
0.4142135623731705
 10
-37.76128539935553
 20
58.10010174665058
 42
0.0
 10
-37.76128539935553
 20
57.82796337120544
 42
0.4142135623730299
 10
-36.9612853993558
 20
57.02796337120571
 42
0.0
 10
-34.76901814481926
 20
57.02796337120571
 42
-0.4142135623730015
 10
-34.36901814481962
 20
56.62796337120608
 42
0.0
 97
        1
330
BEB
 92
        7
 72
     1
 73
     1
 93
       12
 10
-33.36098015940343
 20
55.92380871629666
 42
0.4142135623731547
 10
-32.56098015940324
 20
55.12380871629648
 42
0.0
 10
-29.58465321349877
 20
55.12380871629648
 42
0.0
 10
-29.58465321349832
 20
58.10010174665058
 42
0.4142135623731964
 10
-30.3846532134985
 20
58.90010174665076
 42
0.0
 10
-33.07296930642724
 20
58.90010174665076
 42
0.0
 10
-33.07296930642724
 20
58.50010174665067
 42
0.0
 10
-30.38468712904887
 20
58.5001017466509
 42
-0.4142135623732564
 10
-29.98468712904878
 20
58.10010174665103
 42
0.0
 10
-29.98468712904923
 20
57.42799728675596
 42
0.0
 10
-32.56098015940324
 20
57.42799728675596
 42
0.4142135623731705
 10
-33.36098015940343
 20
56.627997286756
 42
0.0
 97
        1
330
BEA
 92
       22
 72
     1
 73
     1
 93
        6
 10
-32.97692046803468
 20
56.62796337120562
 42
-0.4142135623731576
 10
-32.57692046803459
 20
57.02796337120571
 42
0.0
 10
-29.98468712904878
 20
57.02796337120571
 42
0.0
 10
-29.98468712904878
 20
55.507868407665
 42
0.0
 10
-32.57692046803459
 20
55.507868407665
 42
-0.4142135623731731
 10
-32.97692046803468
 20
55.90786840766487
 42
0.0
 97
        1
330
C11
 92
        7
 72
     1
 73
     1
 93
       10
 10
-28.57661522808212
 20
58.5001017466509
 42
0.0
 10
-25.98444972019661
 20
58.5001017466509
 42
-0.4142135623730067
 10
-25.58444972019652
 20
58.10010174665058
 42
0.0
 10
-25.58444972019606
 20
55.12380871629648
 42
0.0
 10
-25.20042394437906
 20
55.12380871629648
 42
0.0
 10
-25.2004239443786
 20
58.1001017466508
 42
0.4142135623731134
 10
-26.00042394437833
 20
58.90010174665076
 42
0.0
 10
-28.97664914363259
 20
58.90010174665076
 42
0.0
 10
-28.97664914363259
 20
55.12380871629648
 42
0.0
 10
-28.57661522808212
 20
55.12380871629648
 42
0.0
 97
        1
330
BE9
 92
        7
 72
     0
 73
     1
 93
        4
 10
-24.57637781922995
 20
55.12380871629648
 10
-24.19231812786165
 20
55.12380871629648
 10
-24.19231812786165
 20
58.90010174665076
 10
-24.57637781922995
 20
58.90010174665076
 97
        1
330
BE8
 92
        7
 72
     0
 73
     1
 93
        4
 10
-24.19231812786165
 20
59.87619128370352
 10
-24.5763778192304
 20
59.87619128370352
 10
-24.5763778192304
 20
59.28412752246913
 10
-24.1923181278612
 20
59.28412752246913
 97
        1
330
C12
 92
        7
 72
     1
 73
     1
 93
       10
 10
-23.18424622689509
 20
58.5001017466509
 42
0.0
 10
-20.59204680345965
 20
58.5001017466509
 42
-0.4142135623730898
 10
-20.19204680345956
 20
58.1001017466508
 42
0.0
 10
-20.19204680345956
 20
55.12380871629648
 42
0.0
 10
-19.79201288790909
 20
55.12380871629648
 42
0.0
 10
-19.79201288790909
 20
58.1001017466508
 42
0.4142135623731547
 10
-20.59201288790928
 20
58.90010174665076
 42
0.0
 10
-23.56830591826338
 20
58.90010174665076
 42
0.0
 10
-23.56830591826338
 20
55.12380871629648
 42
0.0
 10
-23.18424622689463
 20
55.12380871629648
 42
0.0
 97
        1
330
BE7
 92
        7
 72
     1
 73
     1
 93
        8
 10
-19.1999120763262
 20
55.92680650071542
 42
0.4153115297271299
 10
-18.39991769304061
 20
55.12380871629648
 42
0.0
 10
-15.4236900118708
 20
55.12380871629648
 42
0.0
 10
-15.4236900118708
 20
59.87619128370352
 42
0.0
 10
-15.80771578768872
 20
59.87619128370352
 42
0.0
 10
-15.80771578768872
 20
58.90010174665076
 42
0.0
 10
-18.39176256411201
 20
58.90010174665076
 42
0.4131164467977965
 10
-19.19175694739761
 20
58.1030995310698
 42
0.0
 97
        1
330
BE6
 92
       22
 72
     1
 73
     1
 93
        6
 10
-18.79994912667462
 20
58.1001017466508
 42
-0.4142135623731575
 10
-18.39994912667453
 20
58.5001017466509
 42
0.0
 10
-15.80771578768872
 20
58.50010174665067
 42
0.0
 10
-15.80771578768827
 20
55.507868407665
 42
0.0
 10
-18.39994912667453
 20
55.507868407665
 42
-0.4142135623731731
 10
-18.79994912667462
 20
55.90786840766487
 42
0.0
 97
        1
330
BE5
 92
        7
 72
     1
 73
     1
 93
       12
 10
-14.79964388672215
 20
55.92380871629621
 42
0.4142135623729885
 10
-13.99964388672242
 20
55.12380871629648
 42
0.0
 10
-11.8233508563676
 20
55.12380871629648
 42
0.4142135623731289
 10
-11.02335085636741
 20
55.92380871629666
 42
0.0
 10
-11.02335085636741
 20
58.90010174665076
 42
0.0
 10
-11.42338477191788
 20
58.90010174665076
 42
0.0
 10
-11.42338477191788
 20
55.91567577726095
 42
-0.4131711701795319
 10
-11.82196067063523
 20
55.51567831234956
 42
0.0
 10
-14.01419400962095
 20
55.50787335710947
 42
-0.4152567234626918
 10
-14.41561811090378
 20
55.90787082202087
 42
0.0
 10
-14.41561811090378
 20
58.90010174665076
 42
0.0
 10
-14.7996438867226
 20
58.90010174665076
 42
0.0
 97
        1
330
BE4
 92
        7
 72
     1
 73
     1
 93
       20
 10
-7.423079531965413
 20
57.02796337120571
 42
-0.414213562373168
 10
-7.023079531965322
 20
56.62796337120562
 42
0.0
 10
-7.023079531965322
 20
55.90786840766487
 42
-0.4142135623731575
 10
-7.423079531965413
 20
55.507868407665
 42
0.0
 10
-10.41534678650168
 20
55.507868407665
 42
0.0
 10
-10.41534678650168
 20
55.12380871629648
 42
0.0
 10
-7.445787917283723
 20
55.12380871629648
 42
0.4114777732065809
 10
-6.645822882998345
 20
55.91632914939783
 42
0.0
 10
-6.639238813324936
 20
56.62051771985716
 42
0.4169546541682913
 10
-7.439203847610315
 20
57.42799728675596
 42
0.0
 10
-9.615312870951584
 20
57.42799728675596
 42
-0.4142135623729911
 10
-10.01531287095122
 20
57.82799728675581
 42
0.0
 10
-10.01531287095122
 20
58.10010174665103
 42
-0.414213562372991
 10
-9.615312870951584
 20
58.5001017466509
 42
0.0
 10
-6.92703069357276
 20
58.50010174665067
 42
0.0
 10
-6.927030693572305
 20
58.90010174665076
 42
0.0
 10
-9.615346786501959
 20
58.90010174665076
 42
0.4142135623730467
 10
-10.41534678650168
 20
58.10010174665103
 42
0.0
 10
-10.41534678650168
 20
57.82796337120544
 42
0.4142135623730301
 10
-9.615346786501959
 20
57.02796337120571
 42
0.0
 97
        1
330
BE3
 92
        7
 72
     1
 73
     1
 93
       12
 10
-5.21497371544865
 20
57.42799728675596
 42
0.4142135623730871
 10
-6.014973715448377
 20
56.627997286756
 42
0.0
 10
-6.014973715448377
 20
55.92380871629621
 42
0.4142135623730715
 10
-5.21497371544865
 20
55.12380871629648
 42
0.0
 10
-2.23871460064447
 20
55.12380871629648
 42
0.0
 10
-2.23871460064447
 20
58.10010174665058
 42
0.414213562373155
 10
-3.038714600644652
 20
58.90010174665076
 42
0.0
 10
-5.726962862471737
 20
58.90010174665076
 42
0.0
 10
-5.726962862472191
 20
58.5001017466509
 42
0.0
 10
-3.038748516194573
 20
58.5001017466509
 42
-0.4142135623730067
 10
-2.638748516194482
 20
58.10010174665058
 42
0.0
 10
-2.638748516194482
 20
57.42799728675596
 42
0.0
 97
        1
330
BE2
 92
       22
 72
     1
 73
     1
 93
        6
 10
-2.638748516194937
 20
57.02796337120571
 42
0.0
 10
-2.638748516194482
 20
55.50786840766477
 42
0.0
 10
-5.21497371544865
 20
55.507868407665
 42
-0.4142135623731731
 10
-5.614973715448741
 20
55.90786840766509
 42
0.0
 10
-5.614973715448741
 20
56.62796337120562
 42
-0.4142135623731576
 10
-5.21497371544865
 20
57.02796337120571
 42
0.0
 97
        1
330
C0D
 75
     0
 76
     1
 47
0.0407044778999864
 98
       13
 10
-34.18710075113677
 20
56.16907953933765
 10
-33.12851374392494
 20
56.49471602641233
 10
-33.12851374392494
 20
56.49471602641233
 10
-28.77202873835904
 20
57.51232930166111
 10
-24.41554807250941
 20
57.91937341678636
 10
-24.41554807250941
 20
59.384734621186
 10
-23.31624584658039
 20
58.3264175319116
 10
-19.04119127844888
 20
57.75655517324913
 10
-19.04119127844888
 20
57.75655517324913
 10
-14.64399105416578
 20
57.43091868617466
 10
-8.048195057457178
 20
57.22739662861204
 10
-4.017427461911665
 20
57.18669281458665
 10
-4.017427461911665
 20
57.18669281458665
  0
TEXT
  5
BED
330
B9E
100
AcDbEntity
  8
leg fin
100
AcDbText
 10
3.391127401597259
 20
2.107634911895729
 30
0.0
 40
1.5
  1
Este desenho é propriedade da Sanindusa, S.A., e não pode ser copiado nem divulgado sem nossa autorização.
 50
90.0
 41
0.8
  7
SANINDUSA
100
AcDbText
  0
LINE
  5
BEE
330
B9E
100
AcDbEntity
  8
3
100
AcDbLine
 10
-90.0
 20
4.0
 30
0.0
 11
-90.0
 21
12.0
 31
0.0
  0
TEXT
  5
BEF
330
B9E
100
AcDbEntity
  8
1
100
AcDbText
 10
-39.0
 20
9.25
 30
0.0
 40
2.0
  1
Substituido por:
 41
0.8
  7
SANINDUSA
 11
-39.0
 21
10.25
 31
0.0
100
AcDbText
 73
     2
  0
POINT
  5
BF0
330
B9E
100
AcDbEntity
  8
SANINDUSA
100
AcDbPoint
 10
0.0
 20
0.0
 30
0.0
  0
TEXT
  5
BF1
330
B9E
100
AcDbEntity
  8
1
100
AcDbText
 10
-89.0
 20
16.74927010445663
 30
0.0
 40
2.0
  1
Normas:
 41
0.8
  7
SANINDUSA
 11
-89.0
 21
17.74927010445663
 31
0.0
100
AcDbText
 73
     2
  0
LINE
  5
BF2
330
B9E
100
AcDbEntity
  8
3
100
AcDbLine
 10
-90.0
 20
12.0
 30
0.0
 11
-90.0
 21
20.0
 31
0.0
  0
LINE
  5
BF3
330
B9E
100
AcDbEntity
  8
3
100
AcDbLine
 10
-110.546019464768
 20
12.0
 30
0.0
 11
-110.546019464768
 21
20.0
 31
0.0
  0
TEXT
  5
BF4
330
B9E
100
AcDbEntity
  8
1
100
AcDbText
 10
-109.6177520618648
 20
17.25
 30
0.0
 40
2.0
  1
Cor:
 41
0.8
  7
SANINDUSA
 11
-109.6177520618648
 21
18.25
 31
0.0
100
AcDbText
 73
     2
  0
LINE
  5
BF5
330
B9E
100
AcDbEntity
  8
leg fin
100
AcDbLine
 10
-91.42857142857156
 20
20.0
 30
0.0
 11
-91.42857142857156
 21
28.5
 31
0.0
  0
LINE
  5
BF6
330
B9E
100
AcDbEntity
  8
leg fin
100
AcDbLine
 10
-104.2857142857142
 20
20.0
 30
0.0
 11
-104.2857142857142
 21
28.5
 31
0.0
  0
LINE
  5
BF7
330
B9E
100
AcDbEntity
  8
leg fin
100
AcDbLine
 10
-117.1428571428573
 20
20.0
 30
0.0
 11
-117.1428571428573
 21
28.5
 31
0.0
  0
POINT
  5
BF8
330
B9E
100
AcDbEntity
  8
SANINDUSA
100
AcDbPoint
 10
-117.1428571428573
 20
28.5
 30
0.0
  0
POINT
  5
BF9
330
B9E
100
AcDbEntity
  8
SANINDUSA
100
AcDbPoint
 10
-104.2857142857142
 20
28.5
 30
0.0
  0
POINT
  5
BFA
330
B9E
100
AcDbEntity
  8
SANINDUSA
100
AcDbPoint
 10
-91.42857142857156
 20
28.5
 30
0.0
  0
TEXT
  5
BFB
330
B9E
100
AcDbEntity
  8
1
100
AcDbText
 10
-116.200160604496
 20
26.43288406845113
 30
0.0
 40
1.5
  1
Nº Seq.:
 41
0.8
  7
SANINDUSA
 11
-116.200160604496
 21
27.18288406845113
 31
0.0
100
AcDbText
 73
     2
  0
TEXT
  5
BFC
330
B9E
100
AcDbEntity
  8
1
100
AcDbText
 10
-103.2106584078738
 20
26.43288406845113
 30
0.0
 40
1.5
  1
Tipo:
 41
0.8
  7
SANINDUSA
 11
-103.2106584078738
 21
27.18288406845113
 31
0.0
100
AcDbText
 73
     2
  0
TEXT
  5
BFD
330
B9E
100
AcDbEntity
  8
1
100
AcDbText
 10
-90.22114672289353
 20
26.43288406845113
 30
0.0
 40
1.5
  1
Prod.:
 41
0.8
  7
SANINDUSA
 11
-90.22114672289353
 21
27.18288406845113
 31
0.0
100
AcDbText
 73
     2
  0
TEXT
  5
BFE
330
B9E
100
AcDbEntity
  8
1
100
AcDbText
 10
-64.77320576346574
 20
26.43288406845113
 30
0.0
 40
1.5
  1
Rev.:
 41
0.8
  7
SANINDUSA
 11
-64.77320576346574
 21
27.18288406845113
 31
0.0
100
AcDbText
 73
     2
  0
LINE
  5
BFF
330
B9E
100
AcDbEntity
  8
leg fin
100
AcDbLine
 10
-52.85714285714266
 20
20.0
 30
0.0
 11
-52.85714285714266
 21
28.5
 31
0.0
  0
LINE
  5
C00
330
B9E
100
AcDbEntity
  8
leg fin
100
AcDbLine
 10
-65.71428571428578
 20
20.0
 30
0.0
 11
-65.71428571428578
 21
28.5
 31
0.0
  0
LINE
  5
C01
330
B9E
100
AcDbEntity
  8
leg fin
100
AcDbLine
 10
-78.57142857142844
 20
20.0
 30
0.0
 11
-78.57142857142844
 21
28.5
 31
0.0
  0
POINT
  5
C02
330
B9E
100
AcDbEntity
  8
SANINDUSA
100
AcDbPoint
 10
-78.57142857142844
 20
28.5
 30
0.0
  0
POINT
  5
C03
330
B9E
100
AcDbEntity
  8
SANINDUSA
100
AcDbPoint
 10
-65.71428571428578
 20
28.5
 30
0.0
  0
POINT
  5
C04
330
B9E
100
AcDbEntity
  8
SANINDUSA
100
AcDbPoint
 10
-52.85714285714266
 20
28.5
 30
0.0
  0
TEXT
  5
C05
330
B9E
100
AcDbEntity
  8
1
100
AcDbText
 10
-77.61097961686573
 20
26.43288406845113
 30
0.0
 40
1.5
  1
Peça:
 41
0.8
  7
SANINDUSA
 11
-77.61097961686573
 21
27.18288406845113
 31
0.0
100
AcDbText
 73
     2
  0
TEXT
  5
C06
330
B9E
100
AcDbEntity
  8
1
100
AcDbText
 10
-52.06538060077036
 20
26.43288406845113
 30
0.0
 40
1.5
  1
Alt.:
 41
0.8
  7
SANINDUSA
 11
-52.06538060077036
 21
27.18288406845113
 31
0.0
100
AcDbText
 73
     2
  0
LINE
  5
C07
330
B9E
100
AcDbEntity
  8
3
100
AcDbLine
 10
0.0
 20
12.0
 30
0.0
 11
-40.0
 21
12.0
 31
0.0
  0
LINE
  5
C08
330
B9E
100
AcDbEntity
  8
3
100
AcDbLine
 10
-40.0
 20
32.5
 30
0.0
 11
0.0
 21
32.5
 31
0.0
  0
TEXT
  5
C09
330
B9E
100
AcDbEntity
  8
1
100
AcDbText
 10
-19.0
 20
29.75
 30
0.0
 40
2.0
  1
Folha:
 41
0.8
  7
SANINDUSA
 11
-19.0
 21
30.75
 31
0.0
100
AcDbText
 73
     2
  0
LINE
  5
C0A
330
B9E
100
AcDbEntity
  8
3
100
AcDbLine
 10
-20.0
 20
32.5
 30
0.0
 11
-20.0
 21
20.0
 31
0.0
  0
TEXT
  5
C0B
330
B9E
100
AcDbEntity
  8
1
100
AcDbText
 10
-39.0
 20
29.75
 30
0.0
 40
2.0
  1
Escala:
 41
0.8
  7
SANINDUSA
 11
-39.0
 21
30.75
 31
0.0
100
AcDbText
 73
     2
  0
TEXT
  5
C0C
330
B9E
100
AcDbEntity
  8
1
100
AcDbText
 10
-39.0
 20
17.25
 30
0.0
 40
2.0
  1
Substitui:
 41
0.8
  7
SANINDUSA
 11
-39.0
 21
18.25
 31
0.0
100
AcDbText
 73
     2
  0
LWPOLYLINE
  5
C0D
102
{ACAD_REACTORS
330
BEC
102
}
330
B9E
100
AcDbEntity
  8
9
100
AcDbPolyline
 90
        6
 70
     1
 43
0.0
 10
-2.638748516194482
 20
57.02796337120571
 10
-2.638748516194482
 20
55.50786840766477
 10
-5.21497371544865
 20
55.507868407665
 42
-0.4142135623730898
 10
-5.614973715448741
 20
55.90786840766487
 10
-5.614973715448741
 20
56.62796337120562
 42
-0.4142135623731576
 10
-5.21497371544865
 20
57.02796337120571
  0
LINE
  5
C0E
330
B9E
100
AcDbEntity
  8
3
100
AcDbLine
 10
-40.0
 20
50.0
 30
0.0
 11
0.0
 21
50.0
 31
0.0
  0
ATTDEF
  5
C0F
330
B9E
100
AcDbEntity
  8
1
100
AcDbText
 10
-31.30691739422431
 20
40.25
 30
0.0
 40
2.0
  1
XXXXXXXXXXXXXXX
 41
0.8
  7
SANINDUSA
 72
     4
 11
-20.0
 21
41.25
 31
0.0
100
AcDbAttributeDefinition
  3
Observações:
  2
OBS
 70
     0
  0
TEXT
  5
C10
330
B9E
100
AcDbEntity
  8
1
100
AcDbText
 10
-39.0
 20
47.25
 30
0.0
 40
2.0
  1
Observações:
 41
0.8
  7
SANINDUSA
 11
-39.0
 21
48.25
 31
0.0
100
AcDbText
 73
     2
  0
LWPOLYLINE
  5
C11
102
{ACAD_REACTORS
330
BEC
102
}
330
B9E
100
AcDbEntity
  8
9
100
AcDbPolyline
 90
        6
 70
     1
 43
0.0
 10
-29.98468712904878
 20
57.02796337120571
 10
-29.98468712904878
 20
55.507868407665
 10
-32.57692046803459
 20
55.507868407665
 42
-0.4142135623731731
 10
-32.97692046803468
 20
55.90786840766487
 10
-32.97692046803468
 20
56.62796337120562
 42
-0.4142135623731576
 10
-32.57692046803459
 20
57.02796337120571
  0
LWPOLYLINE
  5
C12
102
{ACAD_REACTORS
330
BEC
102
}
330
B9E
100
AcDbEntity
  8
9
100
AcDbPolyline
 90
        4
 70
     1
 43
0.0
 10
-24.19231812786165
 20
59.87619128370352
 10
-24.57637781922995
 20
59.87619128370352
 10
-24.57637781922995
 20
59.28412752246913
 10
-24.19231812786165
 20
59.28412752246913
  0
ENDBLK
  5
C14
330
B9E
100
AcDbEntity
  8
0
100
AcDbBlockEnd
  0
ENDSEC
  0
SECTION
  2
ENTITIES
  0
LINE
  5
1BDF
330
1F
100
AcDbEntity
  8
SANINDUSA
100
AcDbLine
 10
4020.780108859677
 20
2726.735710519994
 30
0.0
 11
4020.782049113581
 21
2726.624553448336
 31
0.0
  0
LINE
  5
1BE1
330
1F
100
AcDbEntity
  8
SANINDUSA
100
AcDbLine
 10
4020.777049875105
 20
2726.624553448336
 30
0.0
 11
4020.782049113581
 21
2726.624553448336
 31
0.0
  0
LINE
  5
1BE4
330
1F
100
AcDbEntity
  8
SANINDUSA
100
AcDbLine
 10
4020.077859897997
 20
2726.624553448336
 30
0.0
 11
4020.079800151902
 21
2726.735710519994
 31
0.0
  0
LINE
  5
1BE5
330
1F
100
AcDbEntity
  8
SANINDUSA
100
AcDbLine
 10
4020.077859897997
 20
2726.624553448336
 30
0.0
 11
4020.082859136475
 21
2726.624553448336
 31
0.0
  0
LINE
  5
1BE7
330
1F
100
AcDbEntity
  8
SANINDUSA
100
AcDbLine
 10
4020.082859136475
 20
2726.624553448336
 30
0.0
 11
4020.777049875105
 21
2726.624553448336
 31
0.0
  0
ARC
  5
1BE8
330
1F
100
AcDbEntity
  8
SANINDUSA
100
AcDbCircle
 10
4020.771110230421
 20
2726.735553448337
 30
0.0
 40
0.0089999999999999
100
AcDbArc
 50
1.000000009720081
 51
90.0
  0
LINE
  5
1BEA
330
1F
100
AcDbEntity
  8
SANINDUSA
100
AcDbLine
 10
4020.088798781158
 20
2726.744553448336
 30
0.0
 11
4020.771110230421
 21
2726.744553448336
 31
0.0
  0
ARC
  5
1BEC
330
1F
100
AcDbEntity
  8
SANINDUSA
100
AcDbCircle
 10
4020.088798781158
 20
2726.735553448337
 30
0.0
 40
0.009
100
AcDbArc
 50
90.0
 51
178.9999999902799
  0
ARC
  5
1BEF
330
1F
100
AcDbEntity
  8
SANINDUSA
100
AcDbCircle
 10
4019.290320560517
 20
2727.042076514465
 30
0.0
 40
0.0050010772718436
100
AcDbArc
 50
90.02106263384643
 51
179.9789372098229
  0
LINE
  5
1BF0
330
1F
100
AcDbEntity
  8
SANINDUSA
100
AcDbLine
 10
4019.290318722059
 20
2727.047077591399
 30
0.0
 11
4019.980628952884
 21
2727.047077591399
 31
0.0
  0
ARC
  5
1BF4
330
1F
100
AcDbEntity
  8
SANINDUSA
100
AcDbCircle
 10
4019.980627114426
 20
2727.042076514465
 30
0.0
 40
0.0050010772718232
100
AcDbArc
 50
0.0210627641219517
 51
89.97893736615358
  0
LINE
  5
1BF6
330
1F
100
AcDbEntity
  8
SANINDUSA
100
AcDbLine
 10
4019.98562819136
 20
2727.042078352923
 30
0.0
 11
4019.98562819136
 21
2726.351768122098
 31
0.0
  0
LINE
  5
1BF8
330
1F
100
AcDbEntity
  8
SANINDUSA
100
AcDbLine
 10
4019.285319483583
 20
2726.351768122098
 30
0.0
 11
4019.285319483583
 21
2727.042078352923
 31
0.0
  0
ELLIPSE
  5
1C04
330
1F
100
AcDbEntity
  8
SANINDUSA
100
AcDbEllipse
 10
4019.337610252475
 20
2726.994786822507
 30
0.0
 11
0.0079343406248555
 21
-0.0079343406248553
 31
0.0
210
0.0
220
0.0
230
0.9999999999999998
 40
0.8911979137515858
 41
2.377814862643726
 42
3.905370444535852
  0
LINE
  5
1C07
330
1F
100
AcDbEntity
  8
SANINDUSA
100
AcDbLine
 10
4019.934177089356
 20
2727.005407965403
 30
0.0
 11
4019.336770585587
 21
2727.005407965403
 31
0.0
  0
ELLIPSE
  5
1C0A
330
1F
100
AcDbEntity
  8
SANINDUSA
100
AcDbEllipse
 10
4019.933337422467
 20
2726.994786822507
 30
0.0
 11
0.0079343406248555
 21
0.0079343406248555
 31
0.0
210
0.0
220
0.0
230
1.0
 40
0.8911979137515642
 41
5.519407516233521
 42
7.046963098125666
  0
LINE
  5
1C0C
330
1F
100
AcDbEntity
  8
SANINDUSA
100
AcDbLine
 10
4019.943958565364
 20
2726.398219985626
 30
0.0
 11
4019.943958565364
 21
2726.995626489395
 31
0.0
  0
LINE
  5
1C0D
330
1F
100
AcDbEntity
  8
SANINDUSA
100
AcDbLine
 10
4019.326989109579
 20
2726.995626489395
 30
0.0
 11
4019.326989109579
 21
2726.398219985626
 31
0.0
  0
ELLIPSE
  5
1C0F
330
1F
100
AcDbEntity
  8
SANINDUSA
100
AcDbEllipse
 10
4019.337610252475
 20
2726.399059652514
 30
0.0
 11
0.0079343406248555
 21
0.0079343406248555
 31
0.0
210
0.0
220
0.0
230
0.9999999999999994
 40
0.8911979137515601
 41
2.377814862643704
 42
3.905370444535878
  0
ELLIPSE
  5
1C12
330
1F
100
AcDbEntity
  8
SANINDUSA
100
AcDbEllipse
 10
4019.933337422467
 20
2726.399059652514
 30
0.0
 11
-0.0079343406248553
 21
0.0079343406248554
 31
0.0
210
0.0
220
0.0
230
1.0
 40
0.8911979137515677
 41
2.377814862643737
 42
3.905370444535885
  0
LINE
  5
1C13
330
1F
100
AcDbEntity
  8
SANINDUSA
100
AcDbLine
 10
4019.336770585587
 20
2726.388438509619
 30
0.0
 11
4019.934177089356
 21
2726.388438509619
 31
0.0
  0
LINE
  5
1C15
330
1F
100
AcDbEntity
  8
SANINDUSA
100
AcDbLine
 10
4019.980628952884
 20
2726.346768883622
 30
0.0
 11
4019.290318722059
 21
2726.346768883622
 31
0.0
  0
ARC
  5
1C17
330
1F
100
AcDbEntity
  8
SANINDUSA
100
AcDbCircle
 10
4019.980627114426
 20
2726.351769960556
 30
0.0
 40
0.0050010772718353
100
AcDbArc
 50
270.0210626338464
 51
359.9789373661536
  0
ARC
  5
1C18
330
1F
100
AcDbEntity
  8
SANINDUSA
100
AcDbCircle
 10
4019.290320560517
 20
2726.351769960556
 30
0.0
 40
0.005001077271836
100
AcDbArc
 50
180.0210626338464
 51
269.9789373661535
  0
LWPOLYLINE
  5
1C40
330
1F
100
AcDbEntity
  8
SANINDUSA
100
AcDbPolyline
 90
       12
 70
   128
 43
0.0
 10
4019.358724191103
 20
2726.974014200337
 10
4019.358849265404
 20
2726.934020556824
 10
4019.359358520015
 20
2726.774045879347
 10
4019.359680710505
 20
2726.661692720413
 10
4019.359878321443
 20
2726.573756706443
 10
4019.360007671331
 20
2726.544441807337
 10
4019.360165221039
 20
2726.515124929453
 10
4019.36021362626
 20
2726.485809284962
 10
4019.360145388048
 20
2726.469121260279
 10
4019.360009323484
 20
2726.452446254614
 10
4019.359817834081
 20
2726.43576190236
 10
4019.359577029099
 20
2726.419106560372
  0
LWPOLYLINE
  5
1C43
330
1F
100
AcDbEntity
  8
SANINDUSA
100
AcDbPolyline
 90
       10
 70
   128
 43
0.0
 10
4019.911376102212
 20
2726.419101620844
 10
4019.911092953804
 20
2726.439391481759
 10
4019.910882341467
 20
2726.459722037152
 10
4019.910757514445
 20
2726.480133758372
 10
4019.910749816832
 20
2726.500557601676
 10
4019.910937837949
 20
2726.544459172695
 10
4019.911107898505
 20
2726.588357074053
 10
4019.91131429961
 20
2726.67615683123
 10
4019.911840240716
 20
2726.850139404764
 10
4019.912224306941
 20
2726.974015084072
  0
LWPOLYLINE
  5
1C48
330
1F
100
AcDbEntity
  8
SANINDUSA
100
AcDbPolyline
 90
       11
 70
   128
 43
0.0
 10
4019.359577029099
 20
2726.419106560372
 10
4019.39957637665
 20
2726.418940292536
 10
4019.475840241
 20
2726.418316171258
 10
4019.552101079192
 20
2726.417454881689
 10
4019.628365334575
 20
2726.416885761408
 10
4019.654195615614
 20
2726.416968319163
 10
4019.680022750384
 20
2726.417315304252
 10
4019.74822526359
 20
2726.418206549232
 10
4019.816436369243
 20
2726.418685045254
 10
4019.884649622518
 20
2726.418986135882
 10
4019.911376102212
 20
2726.419101620844
  0
LWPOLYLINE
  5
1C4C
330
1F
100
AcDbEntity
  8
SANINDUSA
100
AcDbPolyline
 90
        6
 70
   128
 43
0.0
 10
4019.912224306941
 20
2726.974015084072
 10
4019.872224319772
 20
2726.974038374343
 10
4019.712224368562
 20
2726.974129951497
 10
4019.641897508639
 20
2726.974146473211
 10
4019.467864318753
 20
2726.974076359958
 10
4019.358724191103
 20
2726.974014200337
  0
ARC
  5
20AC
330
1F
100
AcDbEntity
  8
SANINDUSA
100
AcDbCircle
 10
4019.835987895453
 20
2726.637437419809
 30
0.0
 40
0.0025909811914624
100
AcDbArc
 50
0.0
 51
89.99093686232836
  0
LWPOLYLINE
  5
20B7
330
1F
100
AcDbEntity
  8
SANINDUSA
100
AcDbPolyline
 90
        3
 70
   128
 43
0.0
 10
4019.824988197492
 20
2726.640031912189
 10
4019.832987689586
 20
2726.640029368623
 10
4019.835988305298
 20
2726.640028400968
  0
LWPOLYLINE
  5
20B9
330
1F
100
AcDbEntity
  8
SANINDUSA
100
AcDbPolyline
 90
        3
 70
   128
 43
0.0
 10
4019.838578876623
 20
2726.637437748244
 10
4019.83857914331
 20
2726.629439722312
 10
4019.838579236207
 20
2726.626440675036
  0
ARC
  5
20CA
330
1F
100
AcDbEntity
  8
SANINDUSA
100
AcDbCircle
 10
4019.824987122734
 20
2726.637442785024
 30
0.0
 40
0.0025891273875441
100
AcDbArc
 50
89.97621627510739
 51
180.0
  0
LWPOLYLINE
  5
20CD
330
1F
100
AcDbEntity
  8
SANINDUSA
100
AcDbPolyline
 90
        3
 70
   128
 43
0.0
 10
4019.82239824324
 20
2726.626445996268
 10
4019.822398070642
 20
2726.634443952562
 10
4019.822397995366
 20
2726.637443111367
  0
ARC
  5
20E9
330
1F
100
AcDbEntity
  8
SANINDUSA
100
AcDbCircle
 10
4019.835990135486
 20
2726.626441029203
 30
0.0
 40
0.0025891007464831
100
AcDbArc
 50
269.9747342867179
 51
0.0
  0
LWPOLYLINE
  5
20EB
330
1F
100
AcDbEntity
  8
SANINDUSA
100
AcDbPolyline
 90
        3
 70
   128
 43
0.0
 10
4019.83598899377
 20
2726.623851928708
 10
4019.827989536651
 20
2726.623854498567
 10
4019.82498871237
 20
2726.623855442444
  0
ARC
  5
20F2
330
1F
100
AcDbEntity
  8
SANINDUSA
100
AcDbCircle
 10
4019.824989152434
 20
2726.626446351625
 30
0.0
 40
0.0025909092179906
100
AcDbArc
 50
180.0
 51
269.9902683404632
  0
CIRCLE
  5
21CA
330
1F
100
AcDbEntity
  8
SANINDUSA
100
AcDbCircle
 10
4019.635473837471
 20
2726.516923237511
 30
0.0
 40
0.045297545258413
  0
CIRCLE
  5
21CB
330
1F
100
AcDbEntity
  8
SANINDUSA
100
AcDbCircle
 10
4019.635473837471
 20
2726.516923237511
 30
0.0
 40
0.0349999999999999
  0
LWPOLYLINE
  5
21CD
330
1F
100
AcDbEntity
  8
SANINDUSA
100
AcDbPolyline
 90
        3
 70
   128
 43
0.0
 10
4022.111788566123
 20
2726.659524356116
 10
4022.116914884405
 20
2726.659393477782
 10
4022.122041198489
 20
2726.659262600355
  0
LWPOLYLINE
  5
21CF
330
1F
100
AcDbEntity
  8
SANINDUSA
100
AcDbPolyline
 90
        3
 70
   128
 43
0.0
 10
4022.176767407513
 20
2726.657865474006
 10
4022.181893740664
 20
2726.657734608752
 10
4022.18702004346
 20
2726.657603745878
  0
LINE
  5
2205
330
1F
100
AcDbEntity
  8
SANINDUSA
100
AcDbLine
 10
4022.323246094472
 20
2726.655126221512
 30
0.0
 11
4022.331786200484
 21
2726.654908009164
 31
0.0
  0
LINE
  5
2208
330
1F
100
AcDbEntity
  8
SANINDUSA
100
AcDbLine
 10
4022.258267334552
 20
2726.656785147142
 30
0.0
 11
4022.300507600249
 21
2726.655706724555
 31
0.0
  0
LINE
  5
220A
330
1F
100
AcDbEntity
  8
SANINDUSA
100
AcDbLine
 10
4022.193288505416
 20
2726.658444078255
 30
0.0
 11
4022.235528775457
 21
2726.657365665021
 31
0.0
  0
LINE
  5
220B
330
1F
100
AcDbEntity
  8
SANINDUSA
100
AcDbLine
 10
4022.128309678626
 20
2726.660103030379
 30
0.0
 11
4022.170549947817
 21
2726.659024607718
 31
0.0
  0
LINE
  5
220C
330
1F
100
AcDbEntity
  8
SANINDUSA
100
AcDbLine
 10
4022.063330852207
 20
2726.661761986725
 30
0.0
 11
4022.105571121341
 21
2726.660683561763
 31
0.0
  0
LINE
  5
220D
330
1F
100
AcDbEntity
  8
SANINDUSA
100
AcDbLine
 10
4022.023523335241
 20
2726.662778302037
 30
0.0
 11
4022.040592295022
 21
2726.662342518935
 31
0.0
  0
ARC
  5
2228
330
1F
100
AcDbEntity
  8
SANINDUSA
100
AcDbCircle
 10
4022.564277028481
 20
2726.735553449625
 30
0.0
 40
0.009
100
AcDbArc
 50
90.0
 51
168.0000000032994
  0
LINE
  5
2229
330
1F
100
AcDbEntity
  8
SANINDUSA
100
AcDbLine
 10
4022.564277028481
 20
2726.744553449625
 30
0.0
 11
4022.588144696813
 21
2726.744553449625
 31
0.0
  0
ARC
  5
222A
330
1F
100
AcDbEntity
  8
SANINDUSA
100
AcDbCircle
 10
4022.588144696813
 20
2726.735553449625
 30
0.0
 40
0.0090000000000001
100
AcDbArc
 50
1.000000009720081
 51
90.0
  0
LINE
  5
222B
330
1F
100
AcDbEntity
  8
SANINDUSA
100
AcDbLine
 10
4022.597143326069
 20
2726.735710521283
 30
0.0
 11
4022.599083579972
 21
2726.624553449625
 31
0.0
  0
LINE
  5
222C
330
1F
100
AcDbEntity
  8
SANINDUSA
100
AcDbLine
 10
4022.599083579972
 20
2726.624553449625
 30
0.0
 11
4022.595082970661
 21
2726.624553449625
 31
0.0
  0
LINE
  5
222D
330
1F
100
AcDbEntity
  8
SANINDUSA
100
AcDbLine
 10
4022.593143935289
 20
2726.735640711658
 30
0.0
 11
4022.595082970661
 21
2726.624553449625
 31
0.0
  0
ARC
  5
222E
330
1F
100
AcDbEntity
  8
SANINDUSA
100
AcDbCircle
 10
4022.588144696813
 20
2726.735553449625
 30
0.0
 40
0.005
100
AcDbArc
 50
1.000000009720081
 51
90.0
  0
LINE
  5
222F
330
1F
100
AcDbEntity
  8
SANINDUSA
100
AcDbLine
 10
4022.564277028481
 20
2726.740553449625
 30
0.0
 11
4022.588144696813
 21
2726.740553449625
 31
0.0
  0
ARC
  5
2230
330
1F
100
AcDbEntity
  8
SANINDUSA
100
AcDbCircle
 10
4022.564277028481
 20
2726.735553449625
 30
0.0
 40
0.005
100
AcDbArc
 50
90.0
 51
168.0000000032994
  0
LINE
  5
2231
330
1F
100
AcDbEntity
  8
SANINDUSA
100
AcDbLine
 10
4022.559386290477
 20
2726.736593008079
 30
0.0
 11
4022.545722222282
 21
2726.672308621437
 31
0.0
  0
ARC
  5
2232
330
1F
100
AcDbEntity
  8
SANINDUSA
100
AcDbCircle
 10
4022.522246676
 20
2726.677298501752
 30
0.0
 40
0.0240000037258581
100
AcDbArc
 50
283.8571381803562
 51
348.0000025382048
  0
LWPOLYLINE
  5
2233
330
1F
100
AcDbEntity
  8
SANINDUSA
100
AcDbPolyline
 90
        3
 70
   128
 43
0.0
 10
4022.50213212612
 20
2726.650394449311
 10
4022.515088308649
 20
2726.651517154051
 10
4022.527994720136
 20
2726.653996996061
  0
LINE
  5
2234
330
1F
100
AcDbEntity
  8
SANINDUSA
100
AcDbLine
 10
4022.474081960365
 20
2726.649415359295
 30
0.0
 11
4022.502132115969
 21
2726.650394892314
 31
0.0
  0
LINE
  5
2235
330
1F
100
AcDbEntity
  8
SANINDUSA
100
AcDbLine
 10
4022.463728221681
 20
2726.638312333899
 30
0.0
 11
4022.474081960365
 21
2726.649415359295
 31
0.0
  0
LINE
  5
2236
330
1F
100
AcDbEntity
  8
SANINDUSA
100
AcDbLine
 10
4022.390249722682
 20
2726.638312333899
 30
0.0
 11
4022.463728221681
 21
2726.638312333899
 31
0.0
  0
LINE
  5
2237
330
1F
100
AcDbEntity
  8
SANINDUSA
100
AcDbLine
 10
4022.379895983998
 20
2726.649415359295
 30
0.0
 11
4022.390249722682
 21
2726.638312333899
 31
0.0
  0
LINE
  5
2238
330
1F
100
AcDbEntity
  8
SANINDUSA
100
AcDbLine
 10
4022.351869070869
 20
2726.650394080668
 30
0.0
 11
4022.379895983998
 21
2726.649415359295
 31
0.0
  0
LINE
  5
2239
330
1F
100
AcDbEntity
  8
SANINDUSA
100
AcDbLine
 10
4022.331676008647
 20
2726.650909518579
 30
0.0
 11
4022.351869100725
 21
2726.650394232363
 31
0.0
  0
LINE
  5
223A
330
1F
100
AcDbEntity
  8
SANINDUSA
100
AcDbLine
 10
4022.323143931634
 20
2726.651127525747
 30
0.0
 11
4022.331676008647
 21
2726.650909518579
 31
0.0
  0
ARC
  5
223B
330
1F
100
AcDbEntity
  8
SANINDUSA
100
AcDbCircle
 10
4022.323348257592
 20
2726.659124915729
 30
0.0
 40
0.0079999997261899
100
AcDbArc
 50
217.2194638853279
 51
268.536463911747
  0
LINE
  5
223C
330
1F
100
AcDbEntity
  8
SANINDUSA
100
AcDbLine
 10
4022.306725047094
 20
2726.654547669247
 30
0.0
 11
4022.316977661935
 21
2726.654285958547
 31
0.0
  0
ARC
  5
223D
330
1F
100
AcDbEntity
  8
SANINDUSA
100
AcDbCircle
 10
4022.300609689905
 20
2726.659705420576
 30
0.0
 40
0.0079999995208112
100
AcDbArc
 50
268.537512997717
 51
319.8553930586417
  0
LINE
  5
223E
330
1F
100
AcDbEntity
  8
SANINDUSA
100
AcDbLine
 10
4022.258165248472
 20
2726.652786450008
 30
0.0
 11
4022.300405510383
 21
2726.65170802706
 31
0.0
  0
ARC
  5
223F
330
1F
100
AcDbEntity
  8
SANINDUSA
100
AcDbCircle
 10
4022.258369420625
 20
2726.660783844186
 30
0.0
 40
0.0079999999931611
100
AcDbArc
 50
217.2197493555318
 51
268.5375658808813
  0
LINE
  5
2240
330
1F
100
AcDbEntity
  8
SANINDUSA
100
AcDbLine
 10
4022.241746217407
 20
2726.656206606126
 30
0.0
 11
4022.251998848865
 21
2726.655944855103
 31
0.0
  0
ARC
  5
2241
330
1F
100
AcDbEntity
  8
SANINDUSA
100
AcDbCircle
 10
4022.235630863477
 20
2726.661364362063
 30
0.0
 40
0.0079999999997442
100
AcDbArc
 50
268.5375380190936
 51
319.8553528055973
  0
LINE
  5
2242
330
1F
100
AcDbEntity
  8
SANINDUSA
100
AcDbLine
 10
4022.19318641645
 20
2726.654445381206
 30
0.0
 11
4022.235426687436
 21
2726.653366967978
 31
0.0
  0
ARC
  5
2243
330
1F
100
AcDbEntity
  8
SANINDUSA
100
AcDbCircle
 10
4022.193390594398
 20
2726.662442775227
 30
0.0
 40
0.0079999999855031
100
AcDbArc
 50
217.2197105848281
 51
268.5375243620217
  0
ARC
  5
2244
330
1F
100
AcDbEntity
  8
SANINDUSA
100
AcDbCircle
 10
4022.170652037208
 20
2726.66302330464
 30
0.0
 40
0.0079999999597175
100
AcDbArc
 50
268.5375183412633
 51
319.8553317449976
  0
LINE
  5
2245
330
1F
100
AcDbEntity
  8
SANINDUSA
100
AcDbLine
 10
4022.128207589118
 20
2726.656104333327
 30
0.0
 11
4022.170447858418
 21
2726.655025910665
 31
0.0
  0
ARC
  5
2246
330
1F
100
AcDbEntity
  8
SANINDUSA
100
AcDbCircle
 10
4022.128411873089
 20
2726.66410213926
 30
0.0
 40
0.0080004144687303
100
AcDbArc
 50
217.2224394548443
 51
268.5368406095417
  0
ARC
  5
2247
330
1F
100
AcDbEntity
  8
SANINDUSA
100
AcDbCircle
 10
4022.10567321093
 20
2726.66468225869
 30
0.0
 40
0.0079999999638248
100
AcDbArc
 50
268.5375154480939
 51
319.8553285457371
  0
LINE
  5
2248
330
1F
100
AcDbEntity
  8
SANINDUSA
100
AcDbLine
 10
4022.063228762506
 20
2726.657763289703
 30
0.0
 11
4022.10546903174
 21
2726.656684864722
 31
0.0
  0
ARC
  5
2249
330
1F
100
AcDbEntity
  8
SANINDUSA
100
AcDbCircle
 10
4022.063432941912
 20
2726.665760683694
 30
0.0
 40
0.0079999999919011
100
AcDbArc
 50
217.2197012516502
 51
268.5375139100136
  0
LINE
  5
224A
330
1F
100
AcDbEntity
  8
SANINDUSA
100
AcDbLine
 10
4022.046809736284
 20
2726.6611834572
 30
0.0
 11
4022.05706236609
 21
2726.660921699961
 31
0.0
  0
ARC
  5
224B
330
1F
100
AcDbEntity
  8
SANINDUSA
100
AcDbCircle
 10
4022.040694384708
 20
2726.666341215908
 30
0.0
 40
0.0079999999868483
100
AcDbArc
 50
268.5375141190515
 51
319.8553267342144
  0
LINE
  5
224C
330
1F
100
AcDbEntity
  8
SANINDUSA
100
AcDbLine
 10
4022.023416866224
 20
2726.658779716836
 30
0.0
 11
4022.04049020533
 21
2726.658343821922
 31
0.0
  0
LINE
  5
224D
330
1F
100
AcDbEntity
  8
SANINDUSA
100
AcDbLine
 10
4021.969663616408
 20
2726.660152076102
 30
0.0
 11
4022.023416866224
 21
2726.658779716836
 31
0.0
  0
ARC
  5
224E
330
1F
100
AcDbEntity
  8
SANINDUSA
100
AcDbCircle
 10
4021.970276154122
 20
2726.684144258113
 30
0.0
 40
0.0240000000023509
100
AcDbArc
 50
191.9999999967005
 51
268.5375151094878
  0
LINE
  5
224F
330
1F
100
AcDbEntity
  8
SANINDUSA
100
AcDbLine
 10
4021.946800611702
 20
2726.679154377534
 30
0.0
 11
4021.934591653886
 21
2726.736593008079
 31
0.0
  0
ARC
  5
2250
330
1F
100
AcDbEntity
  8
SANINDUSA
100
AcDbCircle
 10
4021.929700915882
 20
2726.735553449625
 30
0.0
 40
0.0049999999999999
100
AcDbArc
 50
11.99999999670056
 51
90.0
  0
LINE
  5
2251
330
1F
100
AcDbEntity
  8
SANINDUSA
100
AcDbLine
 10
4021.905833247549
 20
2726.740553449625
 30
0.0
 11
4021.929700915882
 21
2726.740553449625
 31
0.0
  0
ARC
  5
2252
330
1F
100
AcDbEntity
  8
SANINDUSA
100
AcDbCircle
 10
4021.905833247549
 20
2726.735553449625
 30
0.0
 40
0.0050000000000001
100
AcDbArc
 50
90.0
 51
178.9999999902799
  0
LINE
  5
2253
330
1F
100
AcDbEntity
  8
SANINDUSA
100
AcDbLine
 10
4021.898894973702
 20
2726.624553449625
 30
0.0
 11
4021.900834009073
 21
2726.735640711658
 31
0.0
  0
LINE
  5
2254
330
1F
100
AcDbEntity
  8
SANINDUSA
100
AcDbLine
 10
4021.898894973702
 20
2726.624553449625
 30
0.0
 11
4021.89489436439
 21
2726.624553449625
 31
0.0
  0
LINE
  5
2255
330
1F
100
AcDbEntity
  8
SANINDUSA
100
AcDbLine
 10
4021.89489436439
 20
2726.624553449625
 30
0.0
 11
4021.896834618292
 21
2726.735710521283
 31
0.0
  0
ARC
  5
2256
330
1F
100
AcDbEntity
  8
SANINDUSA
100
AcDbCircle
 10
4021.905833247549
 20
2726.735553449625
 30
0.0
 40
0.0090000000000001
100
AcDbArc
 50
90.0
 51
178.9999999902799
  0
LINE
  5
2257
330
1F
100
AcDbEntity
  8
SANINDUSA
100
AcDbLine
 10
4021.905833247549
 20
2726.744553449625
 30
0.0
 11
4021.929700915882
 21
2726.744553449625
 31
0.0
  0
ARC
  5
2258
330
1F
100
AcDbEntity
  8
SANINDUSA
100
AcDbCircle
 10
4021.929700915882
 20
2726.735553449625
 30
0.0
 40
0.0090000000000001
100
AcDbArc
 50
11.99999999670056
 51
90.0
  0
LINE
  5
2259
330
1F
100
AcDbEntity
  8
SANINDUSA
100
AcDbLine
 10
4021.950713202104
 20
2726.679986024297
 30
0.0
 11
4021.938504244289
 21
2726.737424654842
 31
0.0
  0
ARC
  5
225A
330
1F
100
AcDbEntity
  8
SANINDUSA
100
AcDbCircle
 10
4021.970276154121
 20
2726.684144258113
 30
0.0
 40
0.0200000000019336
100
AcDbArc
 50
191.9999999967005
 51
268.5375151355345
  0
LINE
  5
225B
330
1F
100
AcDbEntity
  8
SANINDUSA
100
AcDbLine
 10
4021.969765706027
 20
2726.664150773104
 30
0.0
 11
4022.023523335241
 21
2726.662778302037
 31
0.0
  0
ARC
  5
225C
330
1F
100
AcDbEntity
  8
SANINDUSA
100
AcDbCircle
 10
4022.04069438471
 20
2726.666341215928
 30
0.0
 40
0.0039999999937574
100
AcDbArc
 50
268.5375141190515
 51
323.6876096417249
  0
ARC
  5
225D
330
1F
100
AcDbEntity
  8
SANINDUSA
100
AcDbCircle
 10
4022.046334986375
 20
2726.662195903793
 30
0.0
 40
0.0029999999956544
100
AcDbArc
 50
88.53751406695826
 51
143.6876096627201
  0
LINE
  5
225E
330
1F
100
AcDbEntity
  8
SANINDUSA
100
AcDbLine
 10
4022.046411553644
 20
2726.665194926538
 30
0.0
 11
4022.057664728126
 21
2726.664907624656
 31
0.0
  0
ARC
  5
225F
330
1F
100
AcDbEntity
  8
SANINDUSA
100
AcDbCircle
 10
4022.05758816085
 20
2726.661908601911
 30
0.0
 40
0.0029999999963891
100
AcDbArc
 50
33.38741838929286
 51
88.53751393606019
  0
ARC
  5
2260
330
1F
100
AcDbEntity
  8
SANINDUSA
100
AcDbCircle
 10
4022.063432941908
 20
2726.665760683721
 30
0.0
 40
0.0039999999969739
100
AcDbArc
 50
213.3874183892928
 51
268.5375139100136
  0
ARC
  5
2261
330
1F
100
AcDbEntity
  8
SANINDUSA
100
AcDbCircle
 10
4022.105673210933
 20
2726.664682258749
 30
0.0
 40
0.0039999999835913
100
AcDbArc
 50
268.5375154741405
 51
323.6876114500664
  0
ARC
  5
2262
330
1F
100
AcDbEntity
  8
SANINDUSA
100
AcDbCircle
 10
4022.111313812715
 20
2726.660536946801
 30
0.0
 40
0.0029999999881133
100
AcDbArc
 50
88.53751578669994
 51
143.6876114500663
  0
LINE
  5
2263
330
1F
100
AcDbEntity
  8
SANINDUSA
100
AcDbLine
 10
4022.111390379892
 20
2726.663535969541
 30
0.0
 11
4022.122643554399
 21
2726.663248668071
 31
0.0
  0
ARC
  5
2264
330
1F
100
AcDbEntity
  8
SANINDUSA
100
AcDbCircle
 10
4022.122566987247
 20
2726.660249645324
 30
0.0
 40
0.0029999999945611
100
AcDbArc
 50
33.38742079568387
 51
88.53751628225063
  0
ARC
  5
2265
330
1F
100
AcDbEntity
  8
SANINDUSA
100
AcDbCircle
 10
4022.12841176814
 20
2726.664101727377
 30
0.0
 40
0.0039999999934944
100
AcDbArc
 50
213.3874207739287
 51
268.5375166208567
  0
ARC
  5
2266
330
1F
100
AcDbEntity
  8
SANINDUSA
100
AcDbCircle
 10
4022.170652037213
 20
2726.663023304707
 30
0.0
 40
0.0039999999817279
100
AcDbArc
 50
268.5375183152167
 51
323.6876145820965
  0
ARC
  5
2267
330
1F
100
AcDbEntity
  8
SANINDUSA
100
AcDbCircle
 10
4022.176292639217
 20
2726.658877993069
 30
0.0
 40
0.0029999999853765
100
AcDbArc
 50
88.53751927960649
 51
143.6876145611013
  0
LINE
  5
2268
330
1F
100
AcDbEntity
  8
SANINDUSA
100
AcDbLine
 10
4022.176369206214
 20
2726.661877015811
 30
0.0
 11
4022.187622380799
 21
2726.66158971526
 31
0.0
  0
ARC
  5
2269
330
1F
100
AcDbEntity
  8
SANINDUSA
100
AcDbCircle
 10
4022.187545813966
 20
2726.658590692501
 30
0.0
 40
0.0029999999985508
100
AcDbArc
 50
33.38742775478702
 51
88.53752238114884
  0
ARC
  5
226A
330
1F
100
AcDbEntity
  8
SANINDUSA
100
AcDbCircle
 10
4022.193390594394
 20
2726.662442775268
 30
0.0
 40
0.0039999999946936
100
AcDbArc
 50
213.387427754787
 51
268.5375242838818
  0
ARC
  5
226B
330
1F
100
AcDbEntity
  8
SANINDUSA
100
AcDbCircle
 10
4022.235630863476
 20
2726.661364362063
 30
0.0
 40
0.0039999999999837
100
AcDbArc
 50
268.5375380451402
 51
323.6876354740167
  0
ARC
  5
226C
330
1F
100
AcDbEntity
  8
SANINDUSA
100
AcDbCircle
 10
4022.24127146702
 20
2726.657219052464
 30
0.0
 40
0.0030000000014744
100
AcDbArc
 50
88.53754234549187
 51
143.6876354894461
  0
LINE
  5
226D
330
1F
100
AcDbEntity
  8
SANINDUSA
100
AcDbLine
 10
4022.241348032809
 20
2726.660218075253
 30
0.0
 11
4022.252601207788
 21
2726.659930780261
 31
0.0
  0
ARC
  5
226E
330
1F
100
AcDbEntity
  8
SANINDUSA
100
AcDbCircle
 10
4022.252524642828
 20
2726.656931757462
 30
0.0
 40
0.0029999999902132
100
AcDbArc
 50
33.38746704516638
 51
88.53755816642792
  0
ARC
  5
226F
330
1F
100
AcDbEntity
  8
SANINDUSA
100
AcDbCircle
 10
4022.258369420613
 20
2726.660783844233
 30
0.0
 40
0.0039999999988676
100
AcDbArc
 50
213.3874670090731
 51
268.5375660892543
  0
ARC
  5
2270
330
1F
100
AcDbEntity
  8
SANINDUSA
100
AcDbCircle
 10
4022.30060968995
 20
2726.659705421334
 30
0.0
 40
0.0039999997794074
100
AcDbArc
 50
268.5375138579203
 51
323.6876707542531
  0
ARC
  5
2271
330
1F
100
AcDbEntity
  8
SANINDUSA
100
AcDbCircle
 10
4022.30625029576
 20
2726.655560115446
 30
0.0
 40
0.002999999849557
100
AcDbArc
 50
88.53763938021911
 51
143.6876712024811
  0
LINE
  5
2272
330
1F
100
AcDbEntity
  8
SANINDUSA
100
AcDbLine
 10
4022.306326856465
 20
2726.658559138213
 30
0.0
 11
4022.317580008964
 21
2726.658271886959
 31
0.0
  0
ARC
  5
2273
330
1F
100
AcDbEntity
  8
SANINDUSA
100
AcDbCircle
 10
4022.317503457424
 20
2726.655272863867
 30
0.0
 40
0.0029999999410088
100
AcDbArc
 50
33.38713352835549
 51
88.53781455390672
  0
ARC
  5
2274
330
1F
100
AcDbEntity
  8
SANINDUSA
100
AcDbCircle
 10
4022.323348257506
 20
2726.659124916541
 30
0.0
 40
0.0039999999014503
100
AcDbArc
 50
213.387133586204
 51
268.5364631303489
  0
LINE
  5
2275
330
1F
100
AcDbEntity
  8
SANINDUSA
100
AcDbLine
 10
4022.331786200484
 20
2726.654908009164
 30
0.0
 11
4022.351988975998
 21
2726.654392484132
 31
0.0
  0
LINE
  5
2276
330
1F
100
AcDbEntity
  8
SANINDUSA
100
AcDbLine
 10
4022.351988972181
 20
2726.654392331799
 30
0.0
 11
4022.381691426923
 21
2726.653355099224
 31
0.0
  0
LINE
  5
2277
330
1F
100
AcDbEntity
  8
SANINDUSA
100
AcDbLine
 10
4022.381691426923
 20
2726.653355099224
 30
0.0
 11
4022.391988972181
 21
2726.642312333899
 31
0.0
  0
LINE
  5
2278
330
1F
100
AcDbEntity
  8
SANINDUSA
100
AcDbLine
 10
4022.391988972181
 20
2726.642312333899
 30
0.0
 11
4022.461988972181
 21
2726.642312333899
 31
0.0
  0
LINE
  5
2279
330
1F
100
AcDbEntity
  8
SANINDUSA
100
AcDbLine
 10
4022.461988972181
 20
2726.642312333899
 30
0.0
 11
4022.47228651744
 21
2726.653355099224
 31
0.0
  0
LINE
  5
227A
330
1F
100
AcDbEntity
  8
SANINDUSA
100
AcDbLine
 10
4022.47228651744
 20
2726.653355099224
 30
0.0
 11
4022.501988972181
 21
2726.654392331799
 31
0.0
  0
LWPOLYLINE
  5
227B
330
1F
100
AcDbEntity
  8
SANINDUSA
100
AcDbPolyline
 90
        3
 70
   128
 43
0.0
 10
4022.501988988431
 20
2726.65439188898
 10
4022.514536969707
 20
2726.655478975723
 10
4022.527036712351
 20
2726.657880580116
  0
ARC
  5
227C
330
1F
100
AcDbEntity
  8
SANINDUSA
100
AcDbCircle
 10
4022.522246676631
 20
2726.6772985018
 30
0.0
 40
0.0200000031186166
100
AcDbArc
 50
283.8571350396642
 51
348.0000025382048
  0
LINE
  5
227D
330
1F
100
AcDbEntity
  8
SANINDUSA
100
AcDbLine
 10
4022.555473700073
 20
2726.737424654842
 30
0.0
 11
4022.54180963188
 21
2726.673140268201
 31
0.0
  0
LINE
  5
2289
330
1F
100
AcDbEntity
  8
SANINDUSA
100
AcDbLine
 10
4022.47228651744
 20
2726.653355099224
 30
0.0
 11
4022.381691426923
 21
2726.653355099224
 31
0.0
  0
LINE
  5
239A
330
1F
100
AcDbEntity
  8
SANINDUSA
100
AcDbLine
 10
4021.929700915882
 20
2726.744553449625
 30
0.0
 11
4021.948285720297
 21
2726.744553449625
 31
0.0
  0
LINE
  5
239C
330
1F
100
AcDbEntity
  8
SANINDUSA
100
AcDbLine
 10
4022.545692224066
 20
2726.744553449625
 30
0.0
 11
4022.564277028481
 21
2726.744553449625
 31
0.0
  0
LINE
  5
239D
330
1F
100
AcDbEntity
  8
SANINDUSA
100
AcDbLine
 10
4021.948285720297
 20
2726.744553449625
 30
0.0
 11
4022.545692224066
 21
2726.744553449625
 31
0.0
  0
LINE
  5
23A3
330
1F
100
AcDbEntity
  8
SANINDUSA
100
AcDbLine
 10
4021.899894821397
 20
2726.624553449625
 30
0.0
 11
4021.898894973702
 21
2726.624553449625
 31
0.0
  0
LINE
  5
23A5
330
1F
100
AcDbEntity
  8
SANINDUSA
100
AcDbLine
 10
4022.595082970661
 20
2726.624553449625
 30
0.0
 11
4022.594083122966
 21
2726.624553449625
 31
0.0
  0
LINE
  5
23A6
330
1F
100
AcDbEntity
  8
SANINDUSA
100
AcDbLine
 10
4022.594083122966
 20
2726.624553449625
 30
0.0
 11
4021.899894821397
 21
2726.624553449625
 31
0.0
  0
LINE
  5
286D
330
1F
100
AcDbEntity
  8
SANINDUSA
100
AcDbLine
 10
4021.715836152207
 20
2726.735710519994
 30
0.0
 11
4021.71777640611
 21
2726.624553448336
 31
0.0
  0
LINE
  5
286F
330
1F
100
AcDbEntity
  8
SANINDUSA
100
AcDbLine
 10
4021.712777167635
 20
2726.624553448336
 30
0.0
 11
4021.71777640611
 21
2726.624553448336
 31
0.0
  0
LINE
  5
2872
330
1F
100
AcDbEntity
  8
SANINDUSA
100
AcDbLine
 10
4021.013587190527
 20
2726.624553448336
 30
0.0
 11
4021.01552744443
 21
2726.735710519994
 31
0.0
  0
LINE
  5
2873
330
1F
100
AcDbEntity
  8
SANINDUSA
100
AcDbLine
 10
4021.013587190527
 20
2726.624553448336
 30
0.0
 11
4021.018586429003
 21
2726.624553448336
 31
0.0
  0
LINE
  5
2875
330
1F
100
AcDbEntity
  8
SANINDUSA
100
AcDbLine
 10
4021.018586429003
 20
2726.624553448336
 30
0.0
 11
4021.712777167635
 21
2726.624553448336
 31
0.0
  0
ARC
  5
2876
330
1F
100
AcDbEntity
  8
SANINDUSA
100
AcDbCircle
 10
4021.706837522951
 20
2726.735553448337
 30
0.0
 40
0.0089999999999999
100
AcDbArc
 50
1.000000009720081
 51
90.0
  0
LINE
  5
2878
330
1F
100
AcDbEntity
  8
SANINDUSA
100
AcDbLine
 10
4021.024526073687
 20
2726.744553448336
 30
0.0
 11
4021.706837522951
 21
2726.744553448336
 31
0.0
  0
ARC
  5
287A
330
1F
100
AcDbEntity
  8
SANINDUSA
100
AcDbCircle
 10
4021.024526073687
 20
2726.735553448337
 30
0.0
 40
0.009
100
AcDbArc
 50
90.0
 51
178.9999999902799
  0
ARC
  5
287B
330
1F
100
AcDbEntity
  8
SANINDUSA
100
AcDbCircle
 10
4019.770988067756
 20
2726.637456180656
 30
0.0
 40
0.0025909811914624
100
AcDbArc
 50
0.0
 51
89.99093686232836
  0
LWPOLYLINE
  5
287C
330
1F
100
AcDbEntity
  8
SANINDUSA
100
AcDbPolyline
 90
        3
 70
   128
 43
0.0
 10
4019.759988369796
 20
2726.640050673035
 10
4019.767987861889
 20
2726.640048129469
 10
4019.770988477602
 20
2726.640047161815
  0
LWPOLYLINE
  5
287D
330
1F
100
AcDbEntity
  8
SANINDUSA
100
AcDbPolyline
 90
        3
 70
   128
 43
0.0
 10
4019.773579048926
 20
2726.63745650909
 10
4019.773579315613
 20
2726.629458483158
 10
4019.773579408511
 20
2726.626459435882
  0
ARC
  5
287E
330
1F
100
AcDbEntity
  8
SANINDUSA
100
AcDbCircle
 10
4019.759987295038
 20
2726.637461545871
 30
0.0
 40
0.0025891273875441
100
AcDbArc
 50
89.97621627510739
 51
180.0
  0
LWPOLYLINE
  5
287F
330
1F
100
AcDbEntity
  8
SANINDUSA
100
AcDbPolyline
 90
        3
 70
   128
 43
0.0
 10
4019.757398415544
 20
2726.626464757115
 10
4019.757398242946
 20
2726.634462713408
 10
4019.75739816767
 20
2726.637461872214
  0
ARC
  5
2880
330
1F
100
AcDbEntity
  8
SANINDUSA
100
AcDbCircle
 10
4019.770990307789
 20
2726.62645979005
 30
0.0
 40
0.0025891007464831
100
AcDbArc
 50
269.9747342867179
 51
0.0
  0
LWPOLYLINE
  5
2881
330
1F
100
AcDbEntity
  8
SANINDUSA
100
AcDbPolyline
 90
        3
 70
   128
 43
0.0
 10
4019.770989166073
 20
2726.623870689555
 10
4019.762989708954
 20
2726.623873259413
 10
4019.759988884674
 20
2726.623874203291
  0
ARC
  5
2882
330
1F
100
AcDbEntity
  8
SANINDUSA
100
AcDbCircle
 10
4019.759989324738
 20
2726.626465112472
 30
0.0
 40
0.0025909092179906
100
AcDbArc
 50
180.0
 51
269.9902683404632
  0
ARC
  5
2883
330
1F
100
AcDbEntity
  8
SANINDUSA
100
AcDbCircle
 10
4019.705988019635
 20
2726.637473465663
 30
0.0
 40
0.0025909811914624
100
AcDbArc
 50
0.0
 51
89.99093686232836
  0
LWPOLYLINE
  5
2884
330
1F
100
AcDbEntity
  8
SANINDUSA
100
AcDbPolyline
 90
        3
 70
   128
 43
0.0
 10
4019.694988321674
 20
2726.640067958042
 10
4019.702987813769
 20
2726.640065414477
 10
4019.705988429481
 20
2726.640064446822
  0
LWPOLYLINE
  5
2885
330
1F
100
AcDbEntity
  8
SANINDUSA
100
AcDbPolyline
 90
        3
 70
   128
 43
0.0
 10
4019.708579000806
 20
2726.637473794097
 10
4019.708579267493
 20
2726.629475768165
 10
4019.70857936039
 20
2726.626476720889
  0
ARC
  5
2886
330
1F
100
AcDbEntity
  8
SANINDUSA
100
AcDbCircle
 10
4019.694987246917
 20
2726.637478830878
 30
0.0
 40
0.0025891273875441
100
AcDbArc
 50
89.97621627510739
 51
180.0
  0
LWPOLYLINE
  5
2887
330
1F
100
AcDbEntity
  8
SANINDUSA
100
AcDbPolyline
 90
        3
 70
   128
 43
0.0
 10
4019.692398367423
 20
2726.626482042122
 10
4019.692398194825
 20
2726.634479998415
 10
4019.692398119549
 20
2726.637479157221
  0
ARC
  5
2888
330
1F
100
AcDbEntity
  8
SANINDUSA
100
AcDbCircle
 10
4019.705990259668
 20
2726.626477075056
 30
0.0
 40
0.0025891007464831
100
AcDbArc
 50
269.9747342867179
 51
0.0
  0
LWPOLYLINE
  5
2889
330
1F
100
AcDbEntity
  8
SANINDUSA
100
AcDbPolyline
 90
        3
 70
   128
 43
0.0
 10
4019.705989117952
 20
2726.623887974562
 10
4019.697989660834
 20
2726.62389054442
 10
4019.694988836552
 20
2726.623891488298
  0
ARC
  5
288A
330
1F
100
AcDbEntity
  8
SANINDUSA
100
AcDbCircle
 10
4019.694989276616
 20
2726.626482397479
 30
0.0
 40
0.0025909092179906
100
AcDbArc
 50
180.0
 51
269.9902683404632
  0
ARC
  5
288B
330
1F
100
AcDbEntity
  8
SANINDUSA
100
AcDbCircle
 10
4019.640988242548
 20
2726.637482686331
 30
0.0
 40
0.0025909811914624
100
AcDbArc
 50
0.0
 51
89.99093686232836
  0
LWPOLYLINE
  5
288C
330
1F
100
AcDbEntity
  8
SANINDUSA
100
AcDbPolyline
 90
        3
 70
   128
 43
0.0
 10
4019.629988544586
 20
2726.640077178711
 10
4019.637988036681
 20
2726.640074635145
 10
4019.640988652393
 20
2726.64007366749
  0
LWPOLYLINE
  5
288D
330
1F
100
AcDbEntity
  8
SANINDUSA
100
AcDbPolyline
 90
        3
 70
   128
 43
0.0
 10
4019.643579223718
 20
2726.637483014765
 10
4019.643579490405
 20
2726.629484988834
 10
4019.643579583302
 20
2726.626485941558
  0
ARC
  5
288E
330
1F
100
AcDbEntity
  8
SANINDUSA
100
AcDbCircle
 10
4019.629987469829
 20
2726.637488051546
 30
0.0
 40
0.0025891273875441
100
AcDbArc
 50
89.97621627510739
 51
180.0
  0
LWPOLYLINE
  5
288F
330
1F
100
AcDbEntity
  8
SANINDUSA
100
AcDbPolyline
 90
        3
 70
   128
 43
0.0
 10
4019.627398590335
 20
2726.62649126279
 10
4019.627398417736
 20
2726.634489219084
 10
4019.627398342461
 20
2726.637488377889
  0
ARC
  5
2890
330
1F
100
AcDbEntity
  8
SANINDUSA
100
AcDbCircle
 10
4019.64099048258
 20
2726.626486295725
 30
0.0
 40
0.0025891007464831
100
AcDbArc
 50
269.9747342867179
 51
0.0
  0
LWPOLYLINE
  5
2891
330
1F
100
AcDbEntity
  8
SANINDUSA
100
AcDbPolyline
 90
        3
 70
   128
 43
0.0
 10
4019.640989340865
 20
2726.623897195231
 10
4019.632989883746
 20
2726.623899765089
 10
4019.629989059464
 20
2726.623900708966
  0
ARC
  5
2892
330
1F
100
AcDbEntity
  8
SANINDUSA
100
AcDbCircle
 10
4019.629989499528
 20
2726.626491618147
 30
0.0
 40
0.0025909092179906
100
AcDbArc
 50
180.0
 51
269.9902683404632
  0
ARC
  5
2893
330
1F
100
AcDbEntity
  8
SANINDUSA
100
AcDbCircle
 10
4019.575988827322
 20
2726.637473187273
 30
0.0
 40
0.0025909811914624
100
AcDbArc
 50
0.0
 51
89.99093686232836
  0
LWPOLYLINE
  5
2894
330
1F
100
AcDbEntity
  8
SANINDUSA
100
AcDbPolyline
 90
        3
 70
   128
 43
0.0
 10
4019.564989129363
 20
2726.640067679653
 10
4019.572988621456
 20
2726.640065136086
 10
4019.575989237169
 20
2726.640064168432
  0
LWPOLYLINE
  5
2895
330
1F
100
AcDbEntity
  8
SANINDUSA
100
AcDbPolyline
 90
        3
 70
   128
 43
0.0
 10
4019.578579808493
 20
2726.637473515707
 10
4019.57858007518
 20
2726.629475489775
 10
4019.578580168078
 20
2726.626476442499
  0
ARC
  5
2896
330
1F
100
AcDbEntity
  8
SANINDUSA
100
AcDbCircle
 10
4019.564988054604
 20
2726.637478552488
 30
0.0
 40
0.0025891273875441
100
AcDbArc
 50
89.97621627510739
 51
180.0
  0
LWPOLYLINE
  5
2897
330
1F
100
AcDbEntity
  8
SANINDUSA
100
AcDbPolyline
 90
        3
 70
   128
 43
0.0
 10
4019.56239917511
 20
2726.626481763732
 10
4019.562399002512
 20
2726.634479720026
 10
4019.562398927237
 20
2726.637478878831
  0
ARC
  5
2898
330
1F
100
AcDbEntity
  8
SANINDUSA
100
AcDbCircle
 10
4019.575991067355
 20
2726.626476796667
 30
0.0
 40
0.0025891007464831
100
AcDbArc
 50
269.9747342867179
 51
0.0
  0
LWPOLYLINE
  5
2899
330
1F
100
AcDbEntity
  8
SANINDUSA
100
AcDbPolyline
 90
        3
 70
   128
 43
0.0
 10
4019.57598992564
 20
2726.623887696172
 10
4019.567990468521
 20
2726.62389026603
 10
4019.56498964424
 20
2726.623891209908
  0
ARC
  5
289A
330
1F
100
AcDbEntity
  8
SANINDUSA
100
AcDbCircle
 10
4019.564990084304
 20
2726.626482119089
 30
0.0
 40
0.0025909092179906
100
AcDbArc
 50
180.0
 51
269.9902683404632
  0
ARC
  5
289B
330
1F
100
AcDbEntity
  8
SANINDUSA
100
AcDbCircle
 10
4019.510988380421
 20
2726.63745295333
 30
0.0
 40
0.0025909811914624
100
AcDbArc
 50
0.0
 51
89.99093686232836
  0
LWPOLYLINE
  5
289C
330
1F
100
AcDbEntity
  8
SANINDUSA
100
AcDbPolyline
 90
        3
 70
   128
 43
0.0
 10
4019.49998868246
 20
2726.640047445709
 10
4019.507988174555
 20
2726.640044902143
 10
4019.510988790267
 20
2726.640043934489
  0
LWPOLYLINE
  5
289D
330
1F
100
AcDbEntity
  8
SANINDUSA
100
AcDbPolyline
 90
        3
 70
   128
 43
0.0
 10
4019.513579361592
 20
2726.637453281764
 10
4019.513579628279
 20
2726.629455255832
 10
4019.513579721176
 20
2726.626456208556
  0
ARC
  5
289E
330
1F
100
AcDbEntity
  8
SANINDUSA
100
AcDbCircle
 10
4019.499987607702
 20
2726.637458318545
 30
0.0
 40
0.0025891273875441
100
AcDbArc
 50
89.97621627510739
 51
180.0
  0
LWPOLYLINE
  5
289F
330
1F
100
AcDbEntity
  8
SANINDUSA
100
AcDbPolyline
 90
        3
 70
   128
 43
0.0
 10
4019.497398728208
 20
2726.626461529788
 10
4019.497398555611
 20
2726.634459486082
 10
4019.497398480336
 20
2726.637458644888
  0
ARC
  5
28A0
330
1F
100
AcDbEntity
  8
SANINDUSA
100
AcDbCircle
 10
4019.510990620454
 20
2726.626456562724
 30
0.0
 40
0.0025891007464831
100
AcDbArc
 50
269.9747342867179
 51
0.0
  0
LWPOLYLINE
  5
28A1
330
1F
100
AcDbEntity
  8
SANINDUSA
100
AcDbPolyline
 90
        3
 70
   128
 43
0.0
 10
4019.510989478738
 20
2726.623867462229
 10
4019.50299002162
 20
2726.623870032087
 10
4019.499989197338
 20
2726.623870975965
  0
ARC
  5
28A2
330
1F
100
AcDbEntity
  8
SANINDUSA
100
AcDbCircle
 10
4019.499989637402
 20
2726.626461885146
 30
0.0
 40
0.0025909092179906
100
AcDbArc
 50
180.0
 51
269.9902683404632
  0
ARC
  5
28A3
330
1F
100
AcDbEntity
  8
SANINDUSA
100
AcDbCircle
 10
4019.445988843919
 20
2726.637435811538
 30
0.0
 40
0.0025909811914624
100
AcDbArc
 50
0.0
 51
89.99093686232836
  0
LWPOLYLINE
  5
28A4
330
1F
100
AcDbEntity
  8
SANINDUSA
100
AcDbPolyline
 90
        3
 70
   128
 43
0.0
 10
4019.434989145959
 20
2726.640030303918
 10
4019.442988638053
 20
2726.640027760352
 10
4019.445989253766
 20
2726.640026792697
  0
LWPOLYLINE
  5
28A5
330
1F
100
AcDbEntity
  8
SANINDUSA
100
AcDbPolyline
 90
        3
 70
   128
 43
0.0
 10
4019.44857982509
 20
2726.637436139973
 10
4019.448580091777
 20
2726.629438114041
 10
4019.448580184675
 20
2726.626439066765
  0
ARC
  5
28A6
330
1F
100
AcDbEntity
  8
SANINDUSA
100
AcDbCircle
 10
4019.434988071201
 20
2726.637441176753
 30
0.0
 40
0.0025891273875441
100
AcDbArc
 50
89.97621627510739
 51
180.0
  0
LWPOLYLINE
  5
28A7
330
1F
100
AcDbEntity
  8
SANINDUSA
100
AcDbPolyline
 90
        3
 70
   128
 43
0.0
 10
4019.432399191707
 20
2726.626444387997
 10
4019.432399019109
 20
2726.634442344291
 10
4019.432398943833
 20
2726.637441503096
  0
ARC
  5
28A8
330
1F
100
AcDbEntity
  8
SANINDUSA
100
AcDbCircle
 10
4019.445991083952
 20
2726.626439420932
 30
0.0
 40
0.0025891007464831
100
AcDbArc
 50
269.9747342867179
 51
0.0
  0
LWPOLYLINE
  5
28A9
330
1F
100
AcDbEntity
  8
SANINDUSA
100
AcDbPolyline
 90
        3
 70
   128
 43
0.0
 10
4019.445989942236
 20
2726.623850320438
 10
4019.437990485118
 20
2726.623852890296
 10
4019.434989660837
 20
2726.623853834174
  0
ARC
  5
28AA
330
1F
100
AcDbEntity
  8
SANINDUSA
100
AcDbCircle
 10
4019.434990100901
 20
2726.626444743355
 30
0.0
 40
0.0025909092179906
100
AcDbArc
 50
180.0
 51
269.9902683404632
  0
ARC
  5
28AB
330
1F
100
AcDbEntity
  8
SANINDUSA
100
AcDbCircle
 10
4019.445988738122
 20
2726.702420528878
 30
0.0
 40
0.0025909811914624
100
AcDbArc
 50
0.0
 51
89.99093686232836
  0
LWPOLYLINE
  5
28AC
330
1F
100
AcDbEntity
  8
SANINDUSA
100
AcDbPolyline
 90
        3
 70
   128
 43
0.0
 10
4019.434989040163
 20
2726.705015021258
 10
4019.442988532256
 20
2726.705012477692
 10
4019.445989147969
 20
2726.705011510037
  0
LWPOLYLINE
  5
28AD
330
1F
100
AcDbEntity
  8
SANINDUSA
100
AcDbPolyline
 90
        3
 70
   128
 43
0.0
 10
4019.448579719293
 20
2726.702420857312
 10
4019.44857998598
 20
2726.694422831381
 10
4019.448580078877
 20
2726.691423784104
  0
ARC
  5
28AE
330
1F
100
AcDbEntity
  8
SANINDUSA
100
AcDbCircle
 10
4019.434987965404
 20
2726.702425894093
 30
0.0
 40
0.0025891273875441
100
AcDbArc
 50
89.97621627510739
 51
180.0
  0
LWPOLYLINE
  5
28AF
330
1F
100
AcDbEntity
  8
SANINDUSA
100
AcDbPolyline
 90
        3
 70
   128
 43
0.0
 10
4019.43239908591
 20
2726.691429105337
 10
4019.432398913312
 20
2726.69942706163
 10
4019.432398838037
 20
2726.702426220436
  0
ARC
  5
28B0
330
1F
100
AcDbEntity
  8
SANINDUSA
100
AcDbCircle
 10
4019.445990978155
 20
2726.691424138272
 30
0.0
 40
0.0025891007464831
100
AcDbArc
 50
269.9747342867179
 51
0.0
  0
LWPOLYLINE
  5
28B1
330
1F
100
AcDbEntity
  8
SANINDUSA
100
AcDbPolyline
 90
        3
 70
   128
 43
0.0
 10
4019.44598983644
 20
2726.688835037777
 10
4019.437990379321
 20
2726.688837607636
 10
4019.43498955504
 20
2726.688838551513
  0
ARC
  5
28B2
330
1F
100
AcDbEntity
  8
SANINDUSA
100
AcDbCircle
 10
4019.434989995104
 20
2726.691429460694
 30
0.0
 40
0.0025909092179906
100
AcDbArc
 50
180.0
 51
269.9902683404632
  0
ARC
  5
28B3
330
1F
100
AcDbEntity
  8
SANINDUSA
100
AcDbCircle
 10
4019.51098883623
 20
2726.702436453629
 30
0.0
 40
0.0025909811914624
100
AcDbArc
 50
0.0
 51
89.99093686232836
  0
LWPOLYLINE
  5
28B4
330
1F
100
AcDbEntity
  8
SANINDUSA
100
AcDbPolyline
 90
        3
 70
   128
 43
0.0
 10
4019.499989138269
 20
2726.705030946008
 10
4019.507988630364
 20
2726.705028402442
 10
4019.510989246076
 20
2726.705027434788
  0
LWPOLYLINE
  5
28B5
330
1F
100
AcDbEntity
  8
SANINDUSA
100
AcDbPolyline
 90
        3
 70
   128
 43
0.0
 10
4019.513579817401
 20
2726.702436782063
 10
4019.513580084088
 20
2726.694438756132
 10
4019.513580176985
 20
2726.691439708855
  0
ARC
  5
28B6
330
1F
100
AcDbEntity
  8
SANINDUSA
100
AcDbCircle
 10
4019.499988063511
 20
2726.702441818844
 30
0.0
 40
0.0025891273875441
100
AcDbArc
 50
89.97621627510739
 51
180.0
  0
LWPOLYLINE
  5
28B7
330
1F
100
AcDbEntity
  8
SANINDUSA
100
AcDbPolyline
 90
        3
 70
   128
 43
0.0
 10
4019.497399184017
 20
2726.691445030088
 10
4019.497399011419
 20
2726.699442986382
 10
4019.497398936144
 20
2726.702442145187
  0
ARC
  5
28B8
330
1F
100
AcDbEntity
  8
SANINDUSA
100
AcDbCircle
 10
4019.510991076262
 20
2726.691440063022
 30
0.0
 40
0.0025891007464831
100
AcDbArc
 50
269.9747342867179
 51
0.0
  0
LWPOLYLINE
  5
28B9
330
1F
100
AcDbEntity
  8
SANINDUSA
100
AcDbPolyline
 90
        3
 70
   128
 43
0.0
 10
4019.510989934548
 20
2726.688850962528
 10
4019.502990477429
 20
2726.688853532386
 10
4019.499989653147
 20
2726.688854476264
  0
ARC
  5
28BA
330
1F
100
AcDbEntity
  8
SANINDUSA
100
AcDbCircle
 10
4019.499990093211
 20
2726.691445385445
 30
0.0
 40
0.0025909092179906
100
AcDbArc
 50
180.0
 51
269.9902683404632
  0
ARC
  5
28BB
330
1F
100
AcDbEntity
  8
SANINDUSA
100
AcDbCircle
 10
4019.575988904451
 20
2726.702453554852
 30
0.0
 40
0.0025909811914624
100
AcDbArc
 50
0.0
 51
89.99093686232836
  0
LWPOLYLINE
  5
28BC
330
1F
100
AcDbEntity
  8
SANINDUSA
100
AcDbPolyline
 90
        3
 70
   128
 43
0.0
 10
4019.56498920649
 20
2726.705048047232
 10
4019.572988698585
 20
2726.705045503666
 10
4019.575989314296
 20
2726.705044536011
  0
LWPOLYLINE
  5
28BD
330
1F
100
AcDbEntity
  8
SANINDUSA
100
AcDbPolyline
 90
        3
 70
   128
 43
0.0
 10
4019.578579885622
 20
2726.702453883286
 10
4019.578580152309
 20
2726.694455857355
 10
4019.578580245205
 20
2726.691456810078
  0
ARC
  5
28BE
330
1F
100
AcDbEntity
  8
SANINDUSA
100
AcDbCircle
 10
4019.564988131732
 20
2726.702458920067
 30
0.0
 40
0.0025891273875441
100
AcDbArc
 50
89.97621627510739
 51
180.0
  0
LWPOLYLINE
  5
28BF
330
1F
100
AcDbEntity
  8
SANINDUSA
100
AcDbPolyline
 90
        3
 70
   128
 43
0.0
 10
4019.562399252239
 20
2726.691462131311
 10
4019.56239907964
 20
2726.699460087605
 10
4019.562399004366
 20
2726.70245924641
  0
ARC
  5
28C0
330
1F
100
AcDbEntity
  8
SANINDUSA
100
AcDbCircle
 10
4019.575991144484
 20
2726.691457164246
 30
0.0
 40
0.0025891007464831
100
AcDbArc
 50
269.9747342867179
 51
0.0
  0
LWPOLYLINE
  5
28C1
330
1F
100
AcDbEntity
  8
SANINDUSA
100
AcDbPolyline
 90
        3
 70
   128
 43
0.0
 10
4019.575990002769
 20
2726.688868063751
 10
4019.56799054565
 20
2726.688870633609
 10
4019.564989721368
 20
2726.688871577487
  0
ARC
  5
28C2
330
1F
100
AcDbEntity
  8
SANINDUSA
100
AcDbCircle
 10
4019.564990161433
 20
2726.691462486668
 30
0.0
 40
0.0025909092179906
100
AcDbArc
 50
180.0
 51
269.9902683404632
  0
ARC
  5
28C3
330
1F
100
AcDbEntity
  8
SANINDUSA
100
AcDbCircle
 10
4019.640988262859
 20
2726.702461527284
 30
0.0
 40
0.0025909811914624
100
AcDbArc
 50
0.0
 51
89.99093686232836
  0
LWPOLYLINE
  5
28C4
330
1F
100
AcDbEntity
  8
SANINDUSA
100
AcDbPolyline
 90
        3
 70
   128
 43
0.0
 10
4019.629988564899
 20
2726.705056019664
 10
4019.637988056993
 20
2726.705053476098
 10
4019.640988672705
 20
2726.705052508443
  0
LWPOLYLINE
  5
28C5
330
1F
100
AcDbEntity
  8
SANINDUSA
100
AcDbPolyline
 90
        3
 70
   128
 43
0.0
 10
4019.64357924403
 20
2726.702461855718
 10
4019.643579510717
 20
2726.694463829787
 10
4019.643579603615
 20
2726.691464782511
  0
ARC
  5
28C6
330
1F
100
AcDbEntity
  8
SANINDUSA
100
AcDbCircle
 10
4019.62998749014
 20
2726.702466892499
 30
0.0
 40
0.0025891273875441
100
AcDbArc
 50
89.97621627510739
 51
180.0
  0
LWPOLYLINE
  5
28C7
330
1F
100
AcDbEntity
  8
SANINDUSA
100
AcDbPolyline
 90
        3
 70
   128
 43
0.0
 10
4019.627398610647
 20
2726.691470103743
 10
4019.627398438049
 20
2726.699468060037
 10
4019.627398362774
 20
2726.702467218842
  0
ARC
  5
28C8
330
1F
100
AcDbEntity
  8
SANINDUSA
100
AcDbCircle
 10
4019.640990502892
 20
2726.691465136678
 30
0.0
 40
0.0025891007464831
100
AcDbArc
 50
269.9747342867179
 51
0.0
  0
LWPOLYLINE
  5
28C9
330
1F
100
AcDbEntity
  8
SANINDUSA
100
AcDbPolyline
 90
        3
 70
   128
 43
0.0
 10
4019.640989361176
 20
2726.688876036183
 10
4019.632989904058
 20
2726.688878606042
 10
4019.629989079777
 20
2726.68887954992
  0
ARC
  5
28CA
330
1F
100
AcDbEntity
  8
SANINDUSA
100
AcDbCircle
 10
4019.629989519841
 20
2726.6914704591
 30
0.0
 40
0.0025909092179906
100
AcDbArc
 50
180.0
 51
269.9902683404632
  0
ARC
  5
28CB
330
1F
100
AcDbEntity
  8
SANINDUSA
100
AcDbCircle
 10
4019.70598792192
 20
2726.702454084034
 30
0.0
 40
0.0025909811914624
100
AcDbArc
 50
0.0
 51
89.99093686232836
  0
LWPOLYLINE
  5
28CC
330
1F
100
AcDbEntity
  8
SANINDUSA
100
AcDbPolyline
 90
        3
 70
   128
 43
0.0
 10
4019.69498822396
 20
2726.705048576414
 10
4019.702987716055
 20
2726.705046032848
 10
4019.705988331766
 20
2726.705045065193
  0
LWPOLYLINE
  5
28CD
330
1F
100
AcDbEntity
  8
SANINDUSA
100
AcDbPolyline
 90
        3
 70
   128
 43
0.0
 10
4019.708578903091
 20
2726.702454412468
 10
4019.708579169779
 20
2726.694456386537
 10
4019.708579262675
 20
2726.69145733926
  0
ARC
  5
28CE
330
1F
100
AcDbEntity
  8
SANINDUSA
100
AcDbCircle
 10
4019.694987149202
 20
2726.702459449249
 30
0.0
 40
0.0025891273875441
100
AcDbArc
 50
89.97621627510739
 51
180.0
  0
LWPOLYLINE
  5
28CF
330
1F
100
AcDbEntity
  8
SANINDUSA
100
AcDbPolyline
 90
        3
 70
   128
 43
0.0
 10
4019.692398269708
 20
2726.691462660493
 10
4019.692398097109
 20
2726.699460616787
 10
4019.692398021835
 20
2726.702459775592
  0
ARC
  5
28D0
330
1F
100
AcDbEntity
  8
SANINDUSA
100
AcDbCircle
 10
4019.705990161953
 20
2726.691457693428
 30
0.0
 40
0.0025891007464831
100
AcDbArc
 50
269.9747342867179
 51
0.0
  0
LWPOLYLINE
  5
28D1
330
1F
100
AcDbEntity
  8
SANINDUSA
100
AcDbPolyline
 90
        3
 70
   128
 43
0.0
 10
4019.705989020238
 20
2726.688868592933
 10
4019.69798956312
 20
2726.688871162792
 10
4019.694988738837
 20
2726.688872106669
  0
ARC
  5
28D2
330
1F
100
AcDbEntity
  8
SANINDUSA
100
AcDbCircle
 10
4019.694989178902
 20
2726.69146301585
 30
0.0
 40
0.0025909092179906
100
AcDbArc
 50
180.0
 51
269.9902683404632
  0
ARC
  5
28D3
330
1F
100
AcDbEntity
  8
SANINDUSA
100
AcDbCircle
 10
4019.770987897377
 20
2726.702438832005
 30
0.0
 40
0.0025909811914624
100
AcDbArc
 50
0.0
 51
89.99093686232836
  0
LWPOLYLINE
  5
28D4
330
1F
100
AcDbEntity
  8
SANINDUSA
100
AcDbPolyline
 90
        3
 70
   128
 43
0.0
 10
4019.759988199417
 20
2726.705033324385
 10
4019.767987691511
 20
2726.705030780819
 10
4019.770988307223
 20
2726.705029813164
  0
LWPOLYLINE
  5
28D5
330
1F
100
AcDbEntity
  8
SANINDUSA
100
AcDbPolyline
 90
        3
 70
   128
 43
0.0
 10
4019.773578878548
 20
2726.702439160439
 10
4019.773579145235
 20
2726.694441134508
 10
4019.773579238132
 20
2726.691442087231
  0
ARC
  5
28D6
330
1F
100
AcDbEntity
  8
SANINDUSA
100
AcDbCircle
 10
4019.759987124658
 20
2726.70244419722
 30
0.0
 40
0.0025891273875441
100
AcDbArc
 50
89.97621627510739
 51
180.0
  0
LWPOLYLINE
  5
28D7
330
1F
100
AcDbEntity
  8
SANINDUSA
100
AcDbPolyline
 90
        3
 70
   128
 43
0.0
 10
4019.757398245165
 20
2726.691447408464
 10
4019.757398072566
 20
2726.699445364758
 10
4019.757397997291
 20
2726.702444523562
  0
ARC
  5
28D8
330
1F
100
AcDbEntity
  8
SANINDUSA
100
AcDbCircle
 10
4019.770990137409
 20
2726.691442441399
 30
0.0
 40
0.0025891007464831
100
AcDbArc
 50
269.9747342867179
 51
0.0
  0
LWPOLYLINE
  5
28D9
330
1F
100
AcDbEntity
  8
SANINDUSA
100
AcDbPolyline
 90
        3
 70
   128
 43
0.0
 10
4019.770988995694
 20
2726.688853340904
 10
4019.762989538576
 20
2726.688855910762
 10
4019.759988714294
 20
2726.68885685464
  0
ARC
  5
28DA
330
1F
100
AcDbEntity
  8
SANINDUSA
100
AcDbCircle
 10
4019.759989154358
 20
2726.691447763821
 30
0.0
 40
0.0025909092179906
100
AcDbArc
 50
180.0
 51
269.9902683404632
  0
ARC
  5
28DB
330
1F
100
AcDbEntity
  8
SANINDUSA
100
AcDbCircle
 10
4019.835987895453
 20
2726.70242272078
 30
0.0
 40
0.0025909811914624
100
AcDbArc
 50
0.0
 51
89.99093686232836
  0
LWPOLYLINE
  5
28DC
330
1F
100
AcDbEntity
  8
SANINDUSA
100
AcDbPolyline
 90
        3
 70
   128
 43
0.0
 10
4019.824988197492
 20
2726.70501721316
 10
4019.832987689586
 20
2726.705014669593
 10
4019.835988305298
 20
2726.705013701939
  0
LWPOLYLINE
  5
28DD
330
1F
100
AcDbEntity
  8
SANINDUSA
100
AcDbPolyline
 90
        3
 70
   128
 43
0.0
 10
4019.838578876623
 20
2726.702423049215
 10
4019.83857914331
 20
2726.694425023283
 10
4019.838579236207
 20
2726.691425976007
  0
ARC
  5
28DE
330
1F
100
AcDbEntity
  8
SANINDUSA
100
AcDbCircle
 10
4019.824987122734
 20
2726.702428085995
 30
0.0
 40
0.0025891273875441
100
AcDbArc
 50
89.97621627510739
 51
180.0
  0
LWPOLYLINE
  5
28DF
330
1F
100
AcDbEntity
  8
SANINDUSA
100
AcDbPolyline
 90
        3
 70
   128
 43
0.0
 10
4019.82239824324
 20
2726.691431297239
 10
4019.822398070642
 20
2726.699429253532
 10
4019.822397995366
 20
2726.702428412338
  0
ARC
  5
28E0
330
1F
100
AcDbEntity
  8
SANINDUSA
100
AcDbCircle
 10
4019.835990135486
 20
2726.691426330174
 30
0.0
 40
0.0025891007464831
100
AcDbArc
 50
269.9747342867179
 51
0.0
  0
LWPOLYLINE
  5
28E1
330
1F
100
AcDbEntity
  8
SANINDUSA
100
AcDbPolyline
 90
        3
 70
   128
 43
0.0
 10
4019.83598899377
 20
2726.688837229679
 10
4019.827989536651
 20
2726.688839799538
 10
4019.82498871237
 20
2726.688840743415
  0
ARC
  5
28E2
330
1F
100
AcDbEntity
  8
SANINDUSA
100
AcDbCircle
 10
4019.824989152434
 20
2726.691431652596
 30
0.0
 40
0.0025909092179906
100
AcDbArc
 50
180.0
 51
269.9902683404632
  0
ARC
  5
28E3
330
1F
100
AcDbEntity
  8
SANINDUSA
100
AcDbCircle
 10
4019.83598781394
 20
2726.767410287164
 30
0.0
 40
0.0025909811914624
100
AcDbArc
 50
0.0
 51
89.99093686232836
  0
LWPOLYLINE
  5
28E4
330
1F
100
AcDbEntity
  8
SANINDUSA
100
AcDbPolyline
 90
        3
 70
   128
 43
0.0
 10
4019.824988115979
 20
2726.770004779544
 10
4019.832987608074
 20
2726.770002235978
 10
4019.835988223785
 20
2726.770001268323
  0
LWPOLYLINE
  5
28E5
330
1F
100
AcDbEntity
  8
SANINDUSA
100
AcDbPolyline
 90
        3
 70
   128
 43
0.0
 10
4019.83857879511
 20
2726.767410615599
 10
4019.838579061797
 20
2726.759412589667
 10
4019.838579154694
 20
2726.75641354239
  0
ARC
  5
28E6
330
1F
100
AcDbEntity
  8
SANINDUSA
100
AcDbCircle
 10
4019.824987041221
 20
2726.76741565238
 30
0.0
 40
0.0025891273875441
100
AcDbArc
 50
89.97621627510739
 51
180.0
  0
LWPOLYLINE
  5
28E7
330
1F
100
AcDbEntity
  8
SANINDUSA
100
AcDbPolyline
 90
        3
 70
   128
 43
0.0
 10
4019.822398161728
 20
2726.756418863623
 10
4019.82239798913
 20
2726.764416819917
 10
4019.822397913855
 20
2726.767415978722
  0
ARC
  5
28E8
330
1F
100
AcDbEntity
  8
SANINDUSA
100
AcDbCircle
 10
4019.835990053972
 20
2726.756413896558
 30
0.0
 40
0.0025891007464831
100
AcDbArc
 50
269.9747342867179
 51
0.0
  0
LWPOLYLINE
  5
28E9
330
1F
100
AcDbEntity
  8
SANINDUSA
100
AcDbPolyline
 90
        3
 70
   128
 43
0.0
 10
4019.835988912257
 20
2726.753824796063
 10
4019.827989455139
 20
2726.753827365922
 10
4019.824988630857
 20
2726.753828309799
  0
ARC
  5
28EA
330
1F
100
AcDbEntity
  8
SANINDUSA
100
AcDbCircle
 10
4019.824989070921
 20
2726.75641921898
 30
0.0
 40
0.0025909092179906
100
AcDbArc
 50
180.0
 51
269.9902683404632
  0
ARC
  5
28EB
330
1F
100
AcDbEntity
  8
SANINDUSA
100
AcDbCircle
 10
4019.770987767819
 20
2726.76742330425
 30
0.0
 40
0.0025909811914624
100
AcDbArc
 50
0.0
 51
89.99093686232836
  0
LWPOLYLINE
  5
28EC
330
1F
100
AcDbEntity
  8
SANINDUSA
100
AcDbPolyline
 90
        3
 70
   128
 43
0.0
 10
4019.759988069858
 20
2726.77001779663
 10
4019.767987561952
 20
2726.770015253063
 10
4019.770988177665
 20
2726.770014285409
  0
LWPOLYLINE
  5
28ED
330
1F
100
AcDbEntity
  8
SANINDUSA
100
AcDbPolyline
 90
        3
 70
   128
 43
0.0
 10
4019.773578748989
 20
2726.767423632684
 10
4019.773579015677
 20
2726.759425606753
 10
4019.773579108574
 20
2726.756426559476
  0
ARC
  5
28EE
330
1F
100
AcDbEntity
  8
SANINDUSA
100
AcDbCircle
 10
4019.7599869951
 20
2726.767428669465
 30
0.0
 40
0.0025891273875441
100
AcDbArc
 50
89.97621627510739
 51
180.0
  0
LWPOLYLINE
  5
28EF
330
1F
100
AcDbEntity
  8
SANINDUSA
100
AcDbPolyline
 90
        3
 70
   128
 43
0.0
 10
4019.757398115607
 20
2726.756431880709
 10
4019.757397943009
 20
2726.764429837003
 10
4019.757397867733
 20
2726.767428995808
  0
ARC
  5
28F0
330
1F
100
AcDbEntity
  8
SANINDUSA
100
AcDbCircle
 10
4019.770990007851
 20
2726.756426913643
 30
0.0
 40
0.0025891007464831
100
AcDbArc
 50
269.9747342867179
 51
0.0
  0
LWPOLYLINE
  5
28F1
330
1F
100
AcDbEntity
  8
SANINDUSA
100
AcDbPolyline
 90
        3
 70
   128
 43
0.0
 10
4019.770988866136
 20
2726.753837813149
 10
4019.762989409017
 20
2726.753840383008
 10
4019.759988584736
 20
2726.753841326885
  0
ARC
  5
28F2
330
1F
100
AcDbEntity
  8
SANINDUSA
100
AcDbCircle
 10
4019.7599890248
 20
2726.756432236066
 30
0.0
 40
0.0025909092179906
100
AcDbArc
 50
180.0
 51
269.9902683404632
  0
ARC
  5
28F3
330
1F
100
AcDbEntity
  8
SANINDUSA
100
AcDbCircle
 10
4019.705987835073
 20
2726.767435176917
 30
0.0
 40
0.0025909811914624
100
AcDbArc
 50
0.0
 51
89.99093686232836
  0
LWPOLYLINE
  5
28F4
330
1F
100
AcDbEntity
  8
SANINDUSA
100
AcDbPolyline
 90
        3
 70
   128
 43
0.0
 10
4019.694988137113
 20
2726.770029669296
 10
4019.702987629208
 20
2726.770027125731
 10
4019.705988244919
 20
2726.770026158076
  0
LWPOLYLINE
  5
28F5
330
1F
100
AcDbEntity
  8
SANINDUSA
100
AcDbPolyline
 90
        3
 70
   128
 43
0.0
 10
4019.708578816245
 20
2726.767435505351
 10
4019.708579082931
 20
2726.759437479419
 10
4019.708579175829
 20
2726.756438432143
  0
ARC
  5
28F6
330
1F
100
AcDbEntity
  8
SANINDUSA
100
AcDbCircle
 10
4019.694987062355
 20
2726.767440542132
 30
0.0
 40
0.0025891273875441
100
AcDbArc
 50
89.97621627510739
 51
180.0
  0
LWPOLYLINE
  5
28F7
330
1F
100
AcDbEntity
  8
SANINDUSA
100
AcDbPolyline
 90
        3
 70
   128
 43
0.0
 10
4019.692398182861
 20
2726.756443753376
 10
4019.692398010263
 20
2726.764441709669
 10
4019.692397934988
 20
2726.767440868475
  0
ARC
  5
28F8
330
1F
100
AcDbEntity
  8
SANINDUSA
100
AcDbCircle
 10
4019.705990075106
 20
2726.75643878631
 30
0.0
 40
0.0025891007464831
100
AcDbArc
 50
269.9747342867179
 51
0.0
  0
LWPOLYLINE
  5
28F9
330
1F
100
AcDbEntity
  8
SANINDUSA
100
AcDbPolyline
 90
        3
 70
   128
 43
0.0
 10
4019.705988933391
 20
2726.753849685815
 10
4019.697989476273
 20
2726.753852255674
 10
4019.69498865199
 20
2726.753853199552
  0
ARC
  5
28FA
330
1F
100
AcDbEntity
  8
SANINDUSA
100
AcDbCircle
 10
4019.694989092054
 20
2726.756444108733
 30
0.0
 40
0.0025909092179906
100
AcDbArc
 50
180.0
 51
269.9902683404632
  0
ARC
  5
28FB
330
1F
100
AcDbEntity
  8
SANINDUSA
100
AcDbCircle
 10
4019.6409883289
 20
2726.767440373802
 30
0.0
 40
0.0025909811914624
100
AcDbArc
 50
0.0
 51
89.99093686232836
  0
LWPOLYLINE
  5
28FC
330
1F
100
AcDbEntity
  8
SANINDUSA
100
AcDbPolyline
 90
        3
 70
   128
 43
0.0
 10
4019.629988630939
 20
2726.770034866181
 10
4019.637988123033
 20
2726.770032322615
 10
4019.640988738745
 20
2726.77003135496
  0
LWPOLYLINE
  5
28FD
330
1F
100
AcDbEntity
  8
SANINDUSA
100
AcDbPolyline
 90
        3
 70
   128
 43
0.0
 10
4019.64357931007
 20
2726.767440702236
 10
4019.643579576757
 20
2726.759442676304
 10
4019.643579669654
 20
2726.756443629028
  0
ARC
  5
28FE
330
1F
100
AcDbEntity
  8
SANINDUSA
100
AcDbCircle
 10
4019.629987556181
 20
2726.767445739017
 30
0.0
 40
0.0025891273875441
100
AcDbArc
 50
89.97621627510739
 51
180.0
  0
LWPOLYLINE
  5
28FF
330
1F
100
AcDbEntity
  8
SANINDUSA
100
AcDbPolyline
 90
        3
 70
   128
 43
0.0
 10
4019.627398676687
 20
2726.75644895026
 10
4019.62739850409
 20
2726.764446906554
 10
4019.627398428814
 20
2726.767446065359
  0
ARC
  5
2900
330
1F
100
AcDbEntity
  8
SANINDUSA
100
AcDbCircle
 10
4019.640990568933
 20
2726.756443983195
 30
0.0
 40
0.0025891007464831
100
AcDbArc
 50
269.9747342867179
 51
0.0
  0
LWPOLYLINE
  5
2901
330
1F
100
AcDbEntity
  8
SANINDUSA
100
AcDbPolyline
 90
        3
 70
   128
 43
0.0
 10
4019.640989427217
 20
2726.753854882701
 10
4019.632989970099
 20
2726.753857452559
 10
4019.629989145817
 20
2726.753858396437
  0
ARC
  5
2902
330
1F
100
AcDbEntity
  8
SANINDUSA
100
AcDbCircle
 10
4019.629989585881
 20
2726.756449305618
 30
0.0
 40
0.0025909092179906
100
AcDbArc
 50
180.0
 51
269.9902683404632
  0
ARC
  5
2903
330
1F
100
AcDbEntity
  8
SANINDUSA
100
AcDbCircle
 10
4019.57598890778
 20
2726.76743455301
 30
0.0
 40
0.0025909811914624
100
AcDbArc
 50
0.0
 51
89.99093686232836
  0
LWPOLYLINE
  5
2904
330
1F
100
AcDbEntity
  8
SANINDUSA
100
AcDbPolyline
 90
        3
 70
   128
 43
0.0
 10
4019.564989209819
 20
2726.77002904539
 10
4019.572988701914
 20
2726.770026501823
 10
4019.575989317625
 20
2726.770025534169
  0
LWPOLYLINE
  5
2905
330
1F
100
AcDbEntity
  8
SANINDUSA
100
AcDbPolyline
 90
        3
 70
   128
 43
0.0
 10
4019.578579888951
 20
2726.767434881445
 10
4019.578580155637
 20
2726.759436855513
 10
4019.578580248534
 20
2726.756437808236
  0
ARC
  5
2906
330
1F
100
AcDbEntity
  8
SANINDUSA
100
AcDbCircle
 10
4019.564988135061
 20
2726.767439918225
 30
0.0
 40
0.0025891273875441
100
AcDbArc
 50
89.97621627510739
 51
180.0
  0
LWPOLYLINE
  5
2907
330
1F
100
AcDbEntity
  8
SANINDUSA
100
AcDbPolyline
 90
        3
 70
   128
 43
0.0
 10
4019.562399255567
 20
2726.756443129469
 10
4019.562399082969
 20
2726.764441085763
 10
4019.562399007694
 20
2726.767440244568
  0
ARC
  5
2908
330
1F
100
AcDbEntity
  8
SANINDUSA
100
AcDbCircle
 10
4019.575991147813
 20
2726.756438162404
 30
0.0
 40
0.0025891007464831
100
AcDbArc
 50
269.9747342867179
 51
0.0
  0
LWPOLYLINE
  5
2909
330
1F
100
AcDbEntity
  8
SANINDUSA
100
AcDbPolyline
 90
        3
 70
   128
 43
0.0
 10
4019.575990006097
 20
2726.753849061909
 10
4019.567990548979
 20
2726.753851631767
 10
4019.564989724697
 20
2726.753852575646
  0
ARC
  5
290A
330
1F
100
AcDbEntity
  8
SANINDUSA
100
AcDbCircle
 10
4019.564990164761
 20
2726.756443484826
 30
0.0
 40
0.0025909092179906
100
AcDbArc
 50
180.0
 51
269.9902683404632
  0
ARC
  5
290B
330
1F
100
AcDbEntity
  8
SANINDUSA
100
AcDbCircle
 10
4019.510988984861
 20
2726.767421656429
 30
0.0
 40
0.0025909811914624
100
AcDbArc
 50
0.0
 51
89.99093686232836
  0
LWPOLYLINE
  5
290C
330
1F
100
AcDbEntity
  8
SANINDUSA
100
AcDbPolyline
 90
        3
 70
   128
 43
0.0
 10
4019.499989286901
 20
2726.770016148809
 10
4019.507988778995
 20
2726.770013605243
 10
4019.510989394707
 20
2726.770012637589
  0
LWPOLYLINE
  5
290D
330
1F
100
AcDbEntity
  8
SANINDUSA
100
AcDbPolyline
 90
        3
 70
   128
 43
0.0
 10
4019.513579966032
 20
2726.767421984864
 10
4019.513580232719
 20
2726.759423958932
 10
4019.513580325616
 20
2726.756424911656
  0
ARC
  5
290E
330
1F
100
AcDbEntity
  8
SANINDUSA
100
AcDbCircle
 10
4019.499988212142
 20
2726.767427021645
 30
0.0
 40
0.0025891273875441
100
AcDbArc
 50
89.97621627510739
 51
180.0
  0
LWPOLYLINE
  5
290F
330
1F
100
AcDbEntity
  8
SANINDUSA
100
AcDbPolyline
 90
        3
 70
   128
 43
0.0
 10
4019.497399332649
 20
2726.756430232888
 10
4019.497399160051
 20
2726.764428189182
 10
4019.497399084776
 20
2726.767427347987
  0
ARC
  5
2910
330
1F
100
AcDbEntity
  8
SANINDUSA
100
AcDbCircle
 10
4019.510991224893
 20
2726.756425265823
 30
0.0
 40
0.0025891007464831
100
AcDbArc
 50
269.9747342867179
 51
0.0
  0
LWPOLYLINE
  5
2911
330
1F
100
AcDbEntity
  8
SANINDUSA
100
AcDbPolyline
 90
        3
 70
   128
 43
0.0
 10
4019.510990083179
 20
2726.753836165328
 10
4019.50299062606
 20
2726.753838735187
 10
4019.499989801778
 20
2726.753839679065
  0
ARC
  5
2912
330
1F
100
AcDbEntity
  8
SANINDUSA
100
AcDbCircle
 10
4019.499990241842
 20
2726.756430588245
 30
0.0
 40
0.0025909092179906
100
AcDbArc
 50
180.0
 51
269.9902683404632
  0
ARC
  5
2913
330
1F
100
AcDbEntity
  8
SANINDUSA
100
AcDbCircle
 10
4019.445988805471
 20
2726.767408555727
 30
0.0
 40
0.0025909811914624
100
AcDbArc
 50
0.0
 51
89.99093686232836
  0
LWPOLYLINE
  5
2914
330
1F
100
AcDbEntity
  8
SANINDUSA
100
AcDbPolyline
 90
        3
 70
   128
 43
0.0
 10
4019.43498910751
 20
2726.770003048107
 10
4019.442988599604
 20
2726.77000050454
 10
4019.445989215316
 20
2726.769999536886
  0
LWPOLYLINE
  5
2915
330
1F
100
AcDbEntity
  8
SANINDUSA
100
AcDbPolyline
 90
        3
 70
   128
 43
0.0
 10
4019.448579786641
 20
2726.767408884161
 10
4019.448580053328
 20
2726.75941085823
 10
4019.448580146225
 20
2726.756411810953
  0
ARC
  5
2916
330
1F
100
AcDbEntity
  8
SANINDUSA
100
AcDbCircle
 10
4019.434988032752
 20
2726.767413920943
 30
0.0
 40
0.0025891273875441
100
AcDbArc
 50
89.97621627510739
 51
180.0
  0
LWPOLYLINE
  5
2917
330
1F
100
AcDbEntity
  8
SANINDUSA
100
AcDbPolyline
 90
        3
 70
   128
 43
0.0
 10
4019.432399153259
 20
2726.756417132186
 10
4019.43239898066
 20
2726.76441508848
 10
4019.432398905385
 20
2726.767414247285
  0
ARC
  5
2918
330
1F
100
AcDbEntity
  8
SANINDUSA
100
AcDbCircle
 10
4019.445991045503
 20
2726.756412165121
 30
0.0
 40
0.0025891007464831
100
AcDbArc
 50
269.9747342867179
 51
0.0
  0
LWPOLYLINE
  5
2919
330
1F
100
AcDbEntity
  8
SANINDUSA
100
AcDbPolyline
 90
        3
 70
   128
 43
0.0
 10
4019.445989903788
 20
2726.753823064626
 10
4019.437990446669
 20
2726.753825634484
 10
4019.434989622388
 20
2726.753826578362
  0
ARC
  5
291A
330
1F
100
AcDbEntity
  8
SANINDUSA
100
AcDbCircle
 10
4019.434990062452
 20
2726.756417487543
 30
0.0
 40
0.0025909092179906
100
AcDbArc
 50
180.0
 51
269.9902683404632
  0
ARC
  5
291B
330
1F
100
AcDbEntity
  8
SANINDUSA
100
AcDbCircle
 10
4019.445988869747
 20
2726.832397293206
 30
0.0
 40
0.0025909811914624
100
AcDbArc
 50
0.0
 51
89.99093686232836
  0
LWPOLYLINE
  5
291C
330
1F
100
AcDbEntity
  8
SANINDUSA
100
AcDbPolyline
 90
        3
 70
   128
 43
0.0
 10
4019.434989171786
 20
2726.834991785585
 10
4019.442988663881
 20
2726.83498924202
 10
4019.445989279592
 20
2726.834988274365
  0
LWPOLYLINE
  5
291D
330
1F
100
AcDbEntity
  8
SANINDUSA
100
AcDbPolyline
 90
        3
 70
   128
 43
0.0
 10
4019.448579850917
 20
2726.83239762164
 10
4019.448580117604
 20
2726.824399595708
 10
4019.448580210501
 20
2726.821400548432
  0
ARC
  5
291E
330
1F
100
AcDbEntity
  8
SANINDUSA
100
AcDbCircle
 10
4019.434988097027
 20
2726.832402658421
 30
0.0
 40
0.0025891273875441
100
AcDbArc
 50
89.97621627510739
 51
180.0
  0
LWPOLYLINE
  5
291F
330
1F
100
AcDbEntity
  8
SANINDUSA
100
AcDbPolyline
 90
        3
 70
   128
 43
0.0
 10
4019.432399217534
 20
2726.821405869665
 10
4019.432399044935
 20
2726.829403825958
 10
4019.43239896966
 20
2726.832402984764
  0
ARC
  5
2920
330
1F
100
AcDbEntity
  8
SANINDUSA
100
AcDbCircle
 10
4019.445991109779
 20
2726.821400902599
 30
0.0
 40
0.0025891007464831
100
AcDbArc
 50
269.9747342867179
 51
0.0
  0
LWPOLYLINE
  5
2921
330
1F
100
AcDbEntity
  8
SANINDUSA
100
AcDbPolyline
 90
        3
 70
   128
 43
0.0
 10
4019.445989968064
 20
2726.818811802104
 10
4019.437990510946
 20
2726.818814371963
 10
4019.434989686664
 20
2726.818815315841
  0
ARC
  5
2922
330
1F
100
AcDbEntity
  8
SANINDUSA
100
AcDbCircle
 10
4019.434990126728
 20
2726.821406225021
 30
0.0
 40
0.0025909092179906
100
AcDbArc
 50
180.0
 51
269.9902683404632
  0
ARC
  5
2923
330
1F
100
AcDbEntity
  8
SANINDUSA
100
AcDbCircle
 10
4019.510988980813
 20
2726.832406776789
 30
0.0
 40
0.0025909811914624
100
AcDbArc
 50
0.0
 51
89.99093686232836
  0
LWPOLYLINE
  5
2924
330
1F
100
AcDbEntity
  8
SANINDUSA
100
AcDbPolyline
 90
        3
 70
   128
 43
0.0
 10
4019.499989282853
 20
2726.835001269168
 10
4019.507988774947
 20
2726.834998725602
 10
4019.510989390659
 20
2726.834997757948
  0
LWPOLYLINE
  5
2925
330
1F
100
AcDbEntity
  8
SANINDUSA
100
AcDbPolyline
 90
        3
 70
   128
 43
0.0
 10
4019.513579961984
 20
2726.832407105223
 10
4019.513580228671
 20
2726.824409079292
 10
4019.513580321568
 20
2726.821410032015
  0
ARC
  5
2926
330
1F
100
AcDbEntity
  8
SANINDUSA
100
AcDbCircle
 10
4019.499988208095
 20
2726.832412142004
 30
0.0
 40
0.0025891273875441
100
AcDbArc
 50
89.97621627510739
 51
180.0
  0
LWPOLYLINE
  5
2927
330
1F
100
AcDbEntity
  8
SANINDUSA
100
AcDbPolyline
 90
        3
 70
   128
 43
0.0
 10
4019.497399328601
 20
2726.821415353248
 10
4019.497399156002
 20
2726.829413309541
 10
4019.497399080727
 20
2726.832412468346
  0
ARC
  5
2928
330
1F
100
AcDbEntity
  8
SANINDUSA
100
AcDbCircle
 10
4019.510991220846
 20
2726.821410386182
 30
0.0
 40
0.0025891007464831
100
AcDbArc
 50
269.9747342867179
 51
0.0
  0
LWPOLYLINE
  5
2929
330
1F
100
AcDbEntity
  8
SANINDUSA
100
AcDbPolyline
 90
        3
 70
   128
 43
0.0
 10
4019.510990079131
 20
2726.818821285688
 10
4019.502990622012
 20
2726.818823855547
 10
4019.49998979773
 20
2726.818824799424
  0
ARC
  5
292A
330
1F
100
AcDbEntity
  8
SANINDUSA
100
AcDbCircle
 10
4019.499990237795
 20
2726.821415708605
 30
0.0
 40
0.0025909092179906
100
AcDbArc
 50
180.0
 51
269.9902683404632
  0
ARC
  5
292B
330
1F
100
AcDbEntity
  8
SANINDUSA
100
AcDbCircle
 10
4019.57598883076
 20
2726.832415435556
 30
0.0
 40
0.0025909811914624
100
AcDbArc
 50
0.0
 51
89.99093686232836
  0
LWPOLYLINE
  5
292C
330
1F
100
AcDbEntity
  8
SANINDUSA
100
AcDbPolyline
 90
        3
 70
   128
 43
0.0
 10
4019.564989132799
 20
2726.835009927936
 10
4019.572988624894
 20
2726.835007384369
 10
4019.575989240606
 20
2726.835006416715
  0
LWPOLYLINE
  5
292D
330
1F
100
AcDbEntity
  8
SANINDUSA
100
AcDbPolyline
 90
        3
 70
   128
 43
0.0
 10
4019.578579811931
 20
2726.83241576399
 10
4019.578580078618
 20
2726.824417738058
 10
4019.578580171515
 20
2726.821418690783
  0
ARC
  5
292E
330
1F
100
AcDbEntity
  8
SANINDUSA
100
AcDbCircle
 10
4019.564988058041
 20
2726.832420800771
 30
0.0
 40
0.0025891273875441
100
AcDbArc
 50
89.97621627510739
 51
180.0
  0
LWPOLYLINE
  5
292F
330
1F
100
AcDbEntity
  8
SANINDUSA
100
AcDbPolyline
 90
        3
 70
   128
 43
0.0
 10
4019.562399178548
 20
2726.821424012015
 10
4019.56239900595
 20
2726.829421968308
 10
4019.562398930674
 20
2726.832421127113
  0
ARC
  5
2930
330
1F
100
AcDbEntity
  8
SANINDUSA
100
AcDbCircle
 10
4019.575991070793
 20
2726.82141904495
 30
0.0
 40
0.0025891007464831
100
AcDbArc
 50
269.9747342867179
 51
0.0
  0
LWPOLYLINE
  5
2931
330
1F
100
AcDbEntity
  8
SANINDUSA
100
AcDbPolyline
 90
        3
 70
   128
 43
0.0
 10
4019.575989929077
 20
2726.818829944455
 10
4019.567990471959
 20
2726.818832514313
 10
4019.564989647677
 20
2726.818833458191
  0
ARC
  5
2932
330
1F
100
AcDbEntity
  8
SANINDUSA
100
AcDbCircle
 10
4019.564990087741
 20
2726.821424367372
 30
0.0
 40
0.0025909092179906
100
AcDbArc
 50
180.0
 51
269.9902683404632
  0
ARC
  5
2933
330
1F
100
AcDbEntity
  8
SANINDUSA
100
AcDbCircle
 10
4019.640988350698
 20
2726.832419216197
 30
0.0
 40
0.0025909811914624
100
AcDbArc
 50
0.0
 51
89.99093686232836
  0
LWPOLYLINE
  5
2934
330
1F
100
AcDbEntity
  8
SANINDUSA
100
AcDbPolyline
 90
        3
 70
   128
 43
0.0
 10
4019.629988652738
 20
2726.835013708577
 10
4019.637988144832
 20
2726.835011165011
 10
4019.640988760545
 20
2726.835010197356
  0
LWPOLYLINE
  5
2935
330
1F
100
AcDbEntity
  8
SANINDUSA
100
AcDbPolyline
 90
        3
 70
   128
 43
0.0
 10
4019.643579331868
 20
2726.832419544631
 10
4019.643579598557
 20
2726.8244215187
 10
4019.643579691453
 20
2726.821422471423
  0
ARC
  5
2936
330
1F
100
AcDbEntity
  8
SANINDUSA
100
AcDbCircle
 10
4019.629987577979
 20
2726.832424581412
 30
0.0
 40
0.0025891273875441
100
AcDbArc
 50
89.97621627510739
 51
180.0
  0
LWPOLYLINE
  5
2937
330
1F
100
AcDbEntity
  8
SANINDUSA
100
AcDbPolyline
 90
        3
 70
   128
 43
0.0
 10
4019.627398698486
 20
2726.821427792656
 10
4019.627398525887
 20
2726.829425748949
 10
4019.627398450612
 20
2726.832424907754
  0
ARC
  5
2938
330
1F
100
AcDbEntity
  8
SANINDUSA
100
AcDbCircle
 10
4019.640990590731
 20
2726.821422825591
 30
0.0
 40
0.0025891007464831
100
AcDbArc
 50
269.9747342867179
 51
0.0
  0
LWPOLYLINE
  5
2939
330
1F
100
AcDbEntity
  8
SANINDUSA
100
AcDbPolyline
 90
        3
 70
   128
 43
0.0
 10
4019.640989449015
 20
2726.818833725096
 10
4019.632989991896
 20
2726.818836294954
 10
4019.629989167615
 20
2726.818837238832
  0
ARC
  5
293A
330
1F
100
AcDbEntity
  8
SANINDUSA
100
AcDbCircle
 10
4019.62998960768
 20
2726.821428148012
 30
0.0
 40
0.0025909092179906
100
AcDbArc
 50
180.0
 51
269.9902683404632
  0
ARC
  5
293B
330
1F
100
AcDbEntity
  8
SANINDUSA
100
AcDbCircle
 10
4019.705987888389
 20
2726.832415928423
 30
0.0
 40
0.0025909811914624
100
AcDbArc
 50
0.0
 51
89.99093686232836
  0
LWPOLYLINE
  5
293C
330
1F
100
AcDbEntity
  8
SANINDUSA
100
AcDbPolyline
 90
        3
 70
   128
 43
0.0
 10
4019.694988190429
 20
2726.835010420803
 10
4019.702987682523
 20
2726.835007877236
 10
4019.705988298236
 20
2726.835006909583
  0
LWPOLYLINE
  5
293D
330
1F
100
AcDbEntity
  8
SANINDUSA
100
AcDbPolyline
 90
        3
 70
   128
 43
0.0
 10
4019.70857886956
 20
2726.832416256858
 10
4019.708579136247
 20
2726.824418230926
 10
4019.708579229145
 20
2726.82141918365
  0
ARC
  5
293E
330
1F
100
AcDbEntity
  8
SANINDUSA
100
AcDbCircle
 10
4019.694987115671
 20
2726.832421293638
 30
0.0
 40
0.0025891273875441
100
AcDbArc
 50
89.97621627510739
 51
180.0
  0
LWPOLYLINE
  5
293F
330
1F
100
AcDbEntity
  8
SANINDUSA
100
AcDbPolyline
 90
        3
 70
   128
 43
0.0
 10
4019.692398236177
 20
2726.821424504882
 10
4019.692398063579
 20
2726.829422461176
 10
4019.692397988303
 20
2726.832421619981
  0
ARC
  5
2940
330
1F
100
AcDbEntity
  8
SANINDUSA
100
AcDbCircle
 10
4019.705990128422
 20
2726.821419537817
 30
0.0
 40
0.0025891007464831
100
AcDbArc
 50
269.9747342867179
 51
0.0
  0
LWPOLYLINE
  5
2941
330
1F
100
AcDbEntity
  8
SANINDUSA
100
AcDbPolyline
 90
        3
 70
   128
 43
0.0
 10
4019.705988986706
 20
2726.818830437322
 10
4019.697989529588
 20
2726.818833007181
 10
4019.694988705307
 20
2726.818833951059
  0
ARC
  5
2942
330
1F
100
AcDbEntity
  8
SANINDUSA
100
AcDbCircle
 10
4019.694989145371
 20
2726.821424860239
 30
0.0
 40
0.0025909092179906
100
AcDbArc
 50
180.0
 51
269.9902683404632
  0
ARC
  5
2943
330
1F
100
AcDbEntity
  8
SANINDUSA
100
AcDbCircle
 10
4019.770987749374
 20
2726.832407847334
 30
0.0
 40
0.0025909811914624
100
AcDbArc
 50
0.0
 51
89.99093686232836
  0
LWPOLYLINE
  5
2944
330
1F
100
AcDbEntity
  8
SANINDUSA
100
AcDbPolyline
 90
        3
 70
   128
 43
0.0
 10
4019.759988051414
 20
2726.835002339713
 10
4019.767987543509
 20
2726.834999796147
 10
4019.77098815922
 20
2726.834998828492
  0
LWPOLYLINE
  5
2945
330
1F
100
AcDbEntity
  8
SANINDUSA
100
AcDbPolyline
 90
        3
 70
   128
 43
0.0
 10
4019.773578730545
 20
2726.832408175767
 10
4019.773578997232
 20
2726.824410149836
 10
4019.773579090129
 20
2726.82141110256
  0
ARC
  5
2946
330
1F
100
AcDbEntity
  8
SANINDUSA
100
AcDbCircle
 10
4019.759986976655
 20
2726.832413212548
 30
0.0
 40
0.0025891273875441
100
AcDbArc
 50
89.97621627510739
 51
180.0
  0
LWPOLYLINE
  5
2947
330
1F
100
AcDbEntity
  8
SANINDUSA
100
AcDbPolyline
 90
        3
 70
   128
 43
0.0
 10
4019.757398097161
 20
2726.821416423792
 10
4019.757397924563
 20
2726.829414380086
 10
4019.757397849288
 20
2726.832413538891
  0
ARC
  5
2948
330
1F
100
AcDbEntity
  8
SANINDUSA
100
AcDbCircle
 10
4019.770989989406
 20
2726.821411456727
 30
0.0
 40
0.0025891007464831
100
AcDbArc
 50
269.9747342867179
 51
0.0
  0
LWPOLYLINE
  5
2949
330
1F
100
AcDbEntity
  8
SANINDUSA
100
AcDbPolyline
 90
        3
 70
   128
 43
0.0
 10
4019.770988847692
 20
2726.818822356232
 10
4019.762989390573
 20
2726.818824926091
 10
4019.759988566291
 20
2726.818825869969
  0
ARC
  5
294A
330
1F
100
AcDbEntity
  8
SANINDUSA
100
AcDbCircle
 10
4019.759989006355
 20
2726.82141677915
 30
0.0
 40
0.0025909092179906
100
AcDbArc
 50
180.0
 51
269.9902683404632
  0
ARC
  5
294B
330
1F
100
AcDbEntity
  8
SANINDUSA
100
AcDbCircle
 10
4019.835987895453
 20
2726.832398431574
 30
0.0
 40
0.0025909811914624
100
AcDbArc
 50
0.0
 51
89.99093686232836
  0
LWPOLYLINE
  5
294C
330
1F
100
AcDbEntity
  8
SANINDUSA
100
AcDbPolyline
 90
        3
 70
   128
 43
0.0
 10
4019.824988197492
 20
2726.834992923953
 10
4019.832987689586
 20
2726.834990380387
 10
4019.835988305298
 20
2726.834989412732
  0
LWPOLYLINE
  5
294D
330
1F
100
AcDbEntity
  8
SANINDUSA
100
AcDbPolyline
 90
        3
 70
   128
 43
0.0
 10
4019.838578876623
 20
2726.832398760008
 10
4019.83857914331
 20
2726.824400734076
 10
4019.838579236207
 20
2726.8214016868
  0
ARC
  5
294E
330
1F
100
AcDbEntity
  8
SANINDUSA
100
AcDbCircle
 10
4019.824987122734
 20
2726.832403796789
 30
0.0
 40
0.0025891273875441
100
AcDbArc
 50
89.97621627510739
 51
180.0
  0
LWPOLYLINE
  5
294F
330
1F
100
AcDbEntity
  8
SANINDUSA
100
AcDbPolyline
 90
        3
 70
   128
 43
0.0
 10
4019.82239824324
 20
2726.821407008032
 10
4019.822398070642
 20
2726.829404964326
 10
4019.822397995366
 20
2726.832404123131
  0
ARC
  5
2950
330
1F
100
AcDbEntity
  8
SANINDUSA
100
AcDbCircle
 10
4019.835990135486
 20
2726.821402040967
 30
0.0
 40
0.0025891007464831
100
AcDbArc
 50
269.9747342867179
 51
0.0
  0
LWPOLYLINE
  5
2951
330
1F
100
AcDbEntity
  8
SANINDUSA
100
AcDbPolyline
 90
        3
 70
   128
 43
0.0
 10
4019.83598899377
 20
2726.818812940472
 10
4019.827989536651
 20
2726.818815510331
 10
4019.82498871237
 20
2726.818816454209
  0
ARC
  5
2952
330
1F
100
AcDbEntity
  8
SANINDUSA
100
AcDbCircle
 10
4019.824989152434
 20
2726.82140736339
 30
0.0
 40
0.0025909092179906
100
AcDbArc
 50
180.0
 51
269.9902683404632
  0
ARC
  5
2953
330
1F
100
AcDbEntity
  8
SANINDUSA
100
AcDbCircle
 10
4019.835987895453
 20
2726.897386193301
 30
0.0
 40
0.0025909811914624
100
AcDbArc
 50
0.0
 51
89.99093686232836
  0
LWPOLYLINE
  5
2954
330
1F
100
AcDbEntity
  8
SANINDUSA
100
AcDbPolyline
 90
        3
 70
   128
 43
0.0
 10
4019.824988197492
 20
2726.899980685681
 10
4019.832987689586
 20
2726.899978142115
 10
4019.835988305298
 20
2726.89997717446
  0
LWPOLYLINE
  5
2955
330
1F
100
AcDbEntity
  8
SANINDUSA
100
AcDbPolyline
 90
        3
 70
   128
 43
0.0
 10
4019.838578876623
 20
2726.897386521736
 10
4019.83857914331
 20
2726.889388495804
 10
4019.838579236207
 20
2726.886389448528
  0
ARC
  5
2956
330
1F
100
AcDbEntity
  8
SANINDUSA
100
AcDbCircle
 10
4019.824987122734
 20
2726.897391558516
 30
0.0
 40
0.0025891273875441
100
AcDbArc
 50
89.97621627510739
 51
180.0
  0
LWPOLYLINE
  5
2957
330
1F
100
AcDbEntity
  8
SANINDUSA
100
AcDbPolyline
 90
        3
 70
   128
 43
0.0
 10
4019.82239824324
 20
2726.88639476976
 10
4019.822398070642
 20
2726.894392726054
 10
4019.822397995366
 20
2726.897391884859
  0
ARC
  5
2958
330
1F
100
AcDbEntity
  8
SANINDUSA
100
AcDbCircle
 10
4019.835990135486
 20
2726.886389802695
 30
0.0
 40
0.0025891007464831
100
AcDbArc
 50
269.9747342867179
 51
0.0
  0
LWPOLYLINE
  5
2959
330
1F
100
AcDbEntity
  8
SANINDUSA
100
AcDbPolyline
 90
        3
 70
   128
 43
0.0
 10
4019.83598899377
 20
2726.8838007022
 10
4019.827989536651
 20
2726.883803272059
 10
4019.82498871237
 20
2726.883804215936
  0
ARC
  5
295A
330
1F
100
AcDbEntity
  8
SANINDUSA
100
AcDbCircle
 10
4019.824989152434
 20
2726.886395125117
 30
0.0
 40
0.0025909092179906
100
AcDbArc
 50
180.0
 51
269.9902683404632
  0
ARC
  5
295B
330
1F
100
AcDbEntity
  8
SANINDUSA
100
AcDbCircle
 10
4019.770987778335
 20
2726.897391751717
 30
0.0
 40
0.0025909811914624
100
AcDbArc
 50
0.0
 51
89.99093686232836
  0
LWPOLYLINE
  5
295C
330
1F
100
AcDbEntity
  8
SANINDUSA
100
AcDbPolyline
 90
        3
 70
   128
 43
0.0
 10
4019.759988080375
 20
2726.899986244097
 10
4019.767987572469
 20
2726.89998370053
 10
4019.770988188181
 20
2726.899982732876
  0
LWPOLYLINE
  5
295D
330
1F
100
AcDbEntity
  8
SANINDUSA
100
AcDbPolyline
 90
        3
 70
   128
 43
0.0
 10
4019.773578759506
 20
2726.897392080152
 10
4019.773579026193
 20
2726.88939405422
 10
4019.77357911909
 20
2726.886395006943
  0
ARC
  5
295E
330
1F
100
AcDbEntity
  8
SANINDUSA
100
AcDbCircle
 10
4019.759987005616
 20
2726.897397116932
 30
0.0
 40
0.0025891273875441
100
AcDbArc
 50
89.97621627510739
 51
180.0
  0
LWPOLYLINE
  5
295F
330
1F
100
AcDbEntity
  8
SANINDUSA
100
AcDbPolyline
 90
        3
 70
   128
 43
0.0
 10
4019.757398126123
 20
2726.886400328176
 10
4019.757397953525
 20
2726.89439828447
 10
4019.75739787825
 20
2726.897397443275
  0
ARC
  5
2960
330
1F
100
AcDbEntity
  8
SANINDUSA
100
AcDbCircle
 10
4019.770990018368
 20
2726.886395361111
 30
0.0
 40
0.0025891007464831
100
AcDbArc
 50
269.9747342867179
 51
0.0
  0
LWPOLYLINE
  5
2961
330
1F
100
AcDbEntity
  8
SANINDUSA
100
AcDbPolyline
 90
        3
 70
   128
 43
0.0
 10
4019.770988876652
 20
2726.883806260616
 10
4019.762989419534
 20
2726.883808830475
 10
4019.759988595253
 20
2726.883809774353
  0
ARC
  5
2962
330
1F
100
AcDbEntity
  8
SANINDUSA
100
AcDbCircle
 10
4019.759989035317
 20
2726.886400683533
 30
0.0
 40
0.0025909092179906
100
AcDbArc
 50
180.0
 51
269.9902683404632
  0
ARC
  5
2963
330
1F
100
AcDbEntity
  8
SANINDUSA
100
AcDbCircle
 10
4019.705987958917
 20
2726.897396290806
 30
0.0
 40
0.0025909811914624
100
AcDbArc
 50
0.0
 51
89.99093686232836
  0
LWPOLYLINE
  5
2964
330
1F
100
AcDbEntity
  8
SANINDUSA
100
AcDbPolyline
 90
        3
 70
   128
 43
0.0
 10
4019.694988260956
 20
2726.899990783186
 10
4019.702987753051
 20
2726.899988239619
 10
4019.705988368762
 20
2726.899987271965
  0
LWPOLYLINE
  5
2965
330
1F
100
AcDbEntity
  8
SANINDUSA
100
AcDbPolyline
 90
        3
 70
   128
 43
0.0
 10
4019.708578940088
 20
2726.89739661924
 10
4019.708579206774
 20
2726.889398593308
 10
4019.708579299671
 20
2726.886399546032
  0
ARC
  5
2966
330
1F
100
AcDbEntity
  8
SANINDUSA
100
AcDbCircle
 10
4019.694987186197
 20
2726.897401656021
 30
0.0
 40
0.0025891273875441
100
AcDbArc
 50
89.97621627510739
 51
180.0
  0
LWPOLYLINE
  5
2967
330
1F
100
AcDbEntity
  8
SANINDUSA
100
AcDbPolyline
 90
        3
 70
   128
 43
0.0
 10
4019.692398306704
 20
2726.886404867264
 10
4019.692398134106
 20
2726.894402823559
 10
4019.692398058832
 20
2726.897401982363
  0
ARC
  5
2968
330
1F
100
AcDbEntity
  8
SANINDUSA
100
AcDbCircle
 10
4019.705990198949
 20
2726.886399900199
 30
0.0
 40
0.0025891007464831
100
AcDbArc
 50
269.9747342867179
 51
0.0
  0
LWPOLYLINE
  5
2969
330
1F
100
AcDbEntity
  8
SANINDUSA
100
AcDbPolyline
 90
        3
 70
   128
 43
0.0
 10
4019.705989057234
 20
2726.883810799705
 10
4019.697989600116
 20
2726.883813369563
 10
4019.694988775834
 20
2726.883814313441
  0
ARC
  5
296A
330
1F
100
AcDbEntity
  8
SANINDUSA
100
AcDbCircle
 10
4019.694989215898
 20
2726.886405222622
 30
0.0
 40
0.0025909092179906
100
AcDbArc
 50
180.0
 51
269.9902683404632
  0
ARC
  5
296B
330
1F
100
AcDbEntity
  8
SANINDUSA
100
AcDbCircle
 10
4019.640988355043
 20
2726.89739805504
 30
0.0
 40
0.0025909811914624
100
AcDbArc
 50
0.0
 51
89.99093686232836
  0
LWPOLYLINE
  5
296C
330
1F
100
AcDbEntity
  8
SANINDUSA
100
AcDbPolyline
 90
        3
 70
   128
 43
0.0
 10
4019.629988657082
 20
2726.89999254742
 10
4019.637988149177
 20
2726.899990003853
 10
4019.640988764889
 20
2726.899989036199
  0
LWPOLYLINE
  5
296D
330
1F
100
AcDbEntity
  8
SANINDUSA
100
AcDbPolyline
 90
        3
 70
   128
 43
0.0
 10
4019.643579336213
 20
2726.897398383474
 10
4019.643579602901
 20
2726.889400357543
 10
4019.643579695798
 20
2726.886401310266
  0
ARC
  5
296E
330
1F
100
AcDbEntity
  8
SANINDUSA
100
AcDbCircle
 10
4019.629987582323
 20
2726.897403420255
 30
0.0
 40
0.0025891273875441
100
AcDbArc
 50
89.97621627510739
 51
180.0
  0
LWPOLYLINE
  5
296F
330
1F
100
AcDbEntity
  8
SANINDUSA
100
AcDbPolyline
 90
        3
 70
   128
 43
0.0
 10
4019.62739870283
 20
2726.886406631499
 10
4019.627398530231
 20
2726.894404587793
 10
4019.627398454956
 20
2726.897403746598
  0
ARC
  5
2970
330
1F
100
AcDbEntity
  8
SANINDUSA
100
AcDbCircle
 10
4019.640990595075
 20
2726.886401664434
 30
0.0
 40
0.0025891007464831
100
AcDbArc
 50
269.9747342867179
 51
0.0
  0
LWPOLYLINE
  5
2971
330
1F
100
AcDbEntity
  8
SANINDUSA
100
AcDbPolyline
 90
        3
 70
   128
 43
0.0
 10
4019.64098945336
 20
2726.883812563939
 10
4019.632989996241
 20
2726.883815133798
 10
4019.629989171959
 20
2726.883816077675
  0
ARC
  5
2972
330
1F
100
AcDbEntity
  8
SANINDUSA
100
AcDbCircle
 10
4019.629989612024
 20
2726.886406986856
 30
0.0
 40
0.0025909092179906
100
AcDbArc
 50
180.0
 51
269.9902683404632
  0
ARC
  5
2973
330
1F
100
AcDbEntity
  8
SANINDUSA
100
AcDbCircle
 10
4019.575988754175
 20
2726.897395999007
 30
0.0
 40
0.0025909811914624
100
AcDbArc
 50
0.0
 51
89.99093686232836
  0
LWPOLYLINE
  5
2974
330
1F
100
AcDbEntity
  8
SANINDUSA
100
AcDbPolyline
 90
        3
 70
   128
 43
0.0
 10
4019.564989056214
 20
2726.899990491387
 10
4019.572988548308
 20
2726.899987947821
 10
4019.57598916402
 20
2726.899986980166
  0
LWPOLYLINE
  5
2975
330
1F
100
AcDbEntity
  8
SANINDUSA
100
AcDbPolyline
 90
        3
 70
   128
 43
0.0
 10
4019.578579735345
 20
2726.897396327442
 10
4019.578580002032
 20
2726.88939830151
 10
4019.578580094929
 20
2726.886399254234
  0
ARC
  5
2976
330
1F
100
AcDbEntity
  8
SANINDUSA
100
AcDbCircle
 10
4019.564987981456
 20
2726.897401364223
 30
0.0
 40
0.0025891273875441
100
AcDbArc
 50
89.97621627510739
 51
180.0
  0
LWPOLYLINE
  5
2977
330
1F
100
AcDbEntity
  8
SANINDUSA
100
AcDbPolyline
 90
        3
 70
   128
 43
0.0
 10
4019.562399101962
 20
2726.886404575467
 10
4019.562398929364
 20
2726.89440253176
 10
4019.562398854088
 20
2726.897401690565
  0
ARC
  5
2978
330
1F
100
AcDbEntity
  8
SANINDUSA
100
AcDbCircle
 10
4019.575990994207
 20
2726.886399608401
 30
0.0
 40
0.0025891007464831
100
AcDbArc
 50
269.9747342867179
 51
0.0
  0
LWPOLYLINE
  5
2979
330
1F
100
AcDbEntity
  8
SANINDUSA
100
AcDbPolyline
 90
        3
 70
   128
 43
0.0
 10
4019.575989852492
 20
2726.883810507906
 10
4019.567990395373
 20
2726.883813077765
 10
4019.564989571091
 20
2726.883814021643
  0
ARC
  5
297A
330
1F
100
AcDbEntity
  8
SANINDUSA
100
AcDbCircle
 10
4019.564990011155
 20
2726.886404930823
 30
0.0
 40
0.0025909092179906
100
AcDbArc
 50
180.0
 51
269.9902683404632
  0
ARC
  5
297B
330
1F
100
AcDbEntity
  8
SANINDUSA
100
AcDbCircle
 10
4019.510988933967
 20
2726.897391167393
 30
0.0
 40
0.0025909811914624
100
AcDbArc
 50
0.0
 51
89.99093686232836
  0
LWPOLYLINE
  5
297C
330
1F
100
AcDbEntity
  8
SANINDUSA
100
AcDbPolyline
 90
        3
 70
   128
 43
0.0
 10
4019.499989236007
 20
2726.899985659772
 10
4019.507988728101
 20
2726.899983116206
 10
4019.510989343813
 20
2726.899982148552
  0
LWPOLYLINE
  5
297D
330
1F
100
AcDbEntity
  8
SANINDUSA
100
AcDbPolyline
 90
        3
 70
   128
 43
0.0
 10
4019.513579915138
 20
2726.897391495827
 10
4019.513580181825
 20
2726.889393469895
 10
4019.513580274721
 20
2726.886394422619
  0
ARC
  5
297E
330
1F
100
AcDbEntity
  8
SANINDUSA
100
AcDbCircle
 10
4019.499988161248
 20
2726.897396532608
 30
0.0
 40
0.0025891273875441
100
AcDbArc
 50
89.97621627510739
 51
180.0
  0
LWPOLYLINE
  5
297F
330
1F
100
AcDbEntity
  8
SANINDUSA
100
AcDbPolyline
 90
        3
 70
   128
 43
0.0
 10
4019.497399281755
 20
2726.886399743851
 10
4019.497399109156
 20
2726.894397700145
 10
4019.497399033881
 20
2726.89739685895
  0
ARC
  5
2980
330
1F
100
AcDbEntity
  8
SANINDUSA
100
AcDbCircle
 10
4019.510991174
 20
2726.886394776786
 30
0.0
 40
0.0025891007464831
100
AcDbArc
 50
269.9747342867179
 51
0.0
  0
LWPOLYLINE
  5
2981
330
1F
100
AcDbEntity
  8
SANINDUSA
100
AcDbPolyline
 90
        3
 70
   128
 43
0.0
 10
4019.510990032284
 20
2726.883805676291
 10
4019.502990575166
 20
2726.88380824615
 10
4019.499989750884
 20
2726.883809190028
  0
ARC
  5
2982
330
1F
100
AcDbEntity
  8
SANINDUSA
100
AcDbCircle
 10
4019.499990190949
 20
2726.886400099209
 30
0.0
 40
0.0025909092179906
100
AcDbArc
 50
180.0
 51
269.9902683404632
  0
ARC
  5
2983
330
1F
100
AcDbEntity
  8
SANINDUSA
100
AcDbCircle
 10
4019.44598890047
 20
2726.897385579616
 30
0.0
 40
0.0025909811914624
100
AcDbArc
 50
0.0
 51
89.99093686232836
  0
LWPOLYLINE
  5
2984
330
1F
100
AcDbEntity
  8
SANINDUSA
100
AcDbPolyline
 90
        3
 70
   128
 43
0.0
 10
4019.434989202509
 20
2726.899980071996
 10
4019.442988694604
 20
2726.899977528429
 10
4019.445989310315
 20
2726.899976560775
  0
LWPOLYLINE
  5
2985
330
1F
100
AcDbEntity
  8
SANINDUSA
100
AcDbPolyline
 90
        3
 70
   128
 43
0.0
 10
4019.44857988164
 20
2726.89738590805
 10
4019.448580148327
 20
2726.889387882119
 10
4019.448580241224
 20
2726.886388834842
  0
ARC
  5
2986
330
1F
100
AcDbEntity
  8
SANINDUSA
100
AcDbCircle
 10
4019.434988127751
 20
2726.897390944831
 30
0.0
 40
0.0025891273875441
100
AcDbArc
 50
89.97621627510739
 51
180.0
  0
LWPOLYLINE
  5
2987
330
1F
100
AcDbEntity
  8
SANINDUSA
100
AcDbPolyline
 90
        3
 70
   128
 43
0.0
 10
4019.432399248257
 20
2726.886394156075
 10
4019.432399075658
 20
2726.894392112368
 10
4019.432399000384
 20
2726.897391271174
  0
ARC
  5
2988
330
1F
100
AcDbEntity
  8
SANINDUSA
100
AcDbCircle
 10
4019.445991140502
 20
2726.88638918901
 30
0.0
 40
0.0025891007464831
100
AcDbArc
 50
269.9747342867179
 51
0.0
  0
LWPOLYLINE
  5
2989
330
1F
100
AcDbEntity
  8
SANINDUSA
100
AcDbPolyline
 90
        3
 70
   128
 43
0.0
 10
4019.445989998787
 20
2726.883800088515
 10
4019.437990541669
 20
2726.883802658374
 10
4019.434989717387
 20
2726.883803602251
  0
ARC
  5
298A
330
1F
100
AcDbEntity
  8
SANINDUSA
100
AcDbCircle
 10
4019.434990157451
 20
2726.886394511432
 30
0.0
 40
0.0025909092179906
100
AcDbArc
 50
180.0
 51
269.9902683404632
  0
ENDSEC
  0
SECTION
  2
OBJECTS
  0
DICTIONARY
  5
C
330
0
100
AcDbDictionary
281
     1
  3
ACAD_COLOR
350
EE6
  3
ACAD_GROUP
350
D
  3
ACAD_LAYOUT
350
1A
  3
ACAD_MATERIAL
350
EE5
  3
ACAD_MLINESTYLE
350
17
  3
ACAD_PLOTSETTINGS
350
19
  3
ACAD_PLOTSTYLENAME
350
E
  3
ACAD_TABLESTYLE
350
EE7
  3
ACDBHEADERROUNDTRIPXREC
350
299E
  3
AcDbVariableDictionary
350
3D
  3
ASE_INDEX_DICTIONARY
350
E77
  0
DICTIONARY
  5
1051
330
2
100
AcDbDictionary
280
     1
281
     1
  3
ACAD_LAYERFILTERS
360
1057
  3
ACLYDICTIONARY
360
1056
  0
DICTIONARY
  5
EE6
102
{ACAD_REACTORS
330
C
102
}
330
C
100
AcDbDictionary
281
     1
  0
DICTIONARY
  5
D
102
{ACAD_REACTORS
330
C
102
}
330
C
100
AcDbDictionary
281
     1
  0
DICTIONARY
  5
1A
102
{ACAD_REACTORS
330
C
102
}
330
C
100
AcDbDictionary
281
     1
  3
Layout1
350
1E
  3
Layout2
350
26
  3
Model
350
22
  0
DICTIONARY
  5
EE5
102
{ACAD_REACTORS
330
C
102
}
330
C
100
AcDbDictionary
281
     1
  0
DICTIONARY
  5
17
102
{ACAD_REACTORS
330
C
102
}
330
C
100
AcDbDictionary
281
     1
  3
Standard
350
18
  0
DICTIONARY
  5
19
102
{ACAD_REACTORS
330
C
102
}
330
C
100
AcDbDictionary
281
     1
  0
ACDBDICTIONARYWDFLT
  5
E
102
{ACAD_REACTORS
330
C
102
}
330
C
100
AcDbDictionary
281
     1
  3
Normal
350
F
100
AcDbDictionaryWithDefault
340
F
  0
DICTIONARY
  5
EE7
102
{ACAD_REACTORS
330
C
102
}
330
C
100
AcDbDictionary
281
     1
  3
Standard
350
EE8
  0
DICTIONARY
  5
299E
102
{ACAD_REACTORS
330
C
102
}
330
C
100
AcDbDictionary
281
     1
  0
DICTIONARY
  5
3D
102
{ACAD_REACTORS
330
C
102
}
330
C
100
AcDbDictionary
281
     1
  3
CTABLESTYLE
350
1049
  3
DIMASSOC
350
3F
  3
HIDETEXT
350
3E
  3
PROJECTNAME
350
2996
  0
DICTIONARY
  5
E77
102
{ACAD_REACTORS
330
C
102
}
330
C
100
AcDbDictionary
281
     1
  3
ASEBlockHierarchyIndexRecord
350
E78
1001
DCO15
1040
1552647238.734
  0
DICTIONARY
  5
1057
102
{ACAD_REACTORS
330
1051
102
}
330
1051
100
AcDbDictionary
281
     1
  0
DICTIONARY
  5
1056
102
{ACAD_REACTORS
330
1051
102
}
330
1051
100
AcDbDictionary
281
     1
1001
ACAD
1000
<All
  0
LAYOUT
  5
1E
102
{ACAD_XDICTIONARY
360
299F
102
}
102
{ACAD_REACTORS
330
1A
102
}
330
1A
100
AcDbPlotSettings
  1

  2
Ploter HP500
  4

  6

 40
0.0
 41
0.0
 42
0.0
 43
0.0
 44
0.0
 45
0.0
 46
0.0
 47
0.0
 48
0.0
 49
0.0
140
0.0
141
0.0
142
1.0
143
1.0
 70
   688
 72
     0
 73
     0
 74
     5
  7
sanindusa.ctb
 75
    16
147
1.0
148
0.0
149
0.0
100
AcDbLayout
  1
Layout1
 70
     1
 71
     1
 10
0.0
 20
0.0
 11
420.0
 21
297.0
 12
0.0
 22
0.0
 32
0.0
 14
1.000000000000000E+20
 24
1.000000000000000E+20
 34
1.000000000000000E+20
 15
-1.000000000000000E+20
 25
-1.000000000000000E+20
 35
-1.000000000000000E+20
146
0.0
 13
0.0
 23
0.0
 33
0.0
 16
1.0
 26
0.0
 36
0.0
 17
0.0
 27
1.0
 37
0.0
 76
     0
330
1B
  0
LAYOUT
  5
26
102
{ACAD_XDICTIONARY
360
29A3
102
}
102
{ACAD_REACTORS
330
1A
102
}
330
1A
100
AcDbPlotSettings
  1

  2
Ploter HP500
  4

  6

 40
0.0
 41
0.0
 42
0.0
 43
0.0
 44
0.0
 45
0.0
 46
0.0
 47
0.0
 48
0.0
 49
0.0
140
0.0
141
0.0
142
1.0
143
1.0
 70
   688
 72
     0
 73
     0
 74
     5
  7
sanindusa.ctb
 75
    16
147
1.0
148
0.0
149
0.0
100
AcDbLayout
  1
Layout2
 70
     1
 71
     2
 10
0.0
 20
0.0
 11
12.0
 21
9.0
 12
0.0
 22
0.0
 32
0.0
 14
0.0
 24
0.0
 34
0.0
 15
0.0
 25
0.0
 35
0.0
146
0.0
 13
0.0
 23
0.0
 33
0.0
 16
1.0
 26
0.0
 36
0.0
 17
0.0
 27
1.0
 37
0.0
 76
     0
330
23
  0
LAYOUT
  5
22
102
{ACAD_XDICTIONARY
360
29A1
102
}
102
{ACAD_REACTORS
330
1A
102
}
330
1A
100
AcDbPlotSettings
  1

  2
Ploter HP500
  4
User268
  6

 40
4.995333194732666
 41
16.97565841674804
 42
4.995330810546875
 43
16.97567749023437
 44
209.9733276367187
 45
296.9259948730469
 46
0.0
 47
0.0
 48
0.0
 49
0.0
140
0.0
141
0.0
142
1.0
143
1.0
 70
 11952
 72
     1
 73
     1
 74
     0
  7
sanindusa.ctb
 75
     0
147
1.0
148
-427.5957866592534
149
7.362384574453926
100
AcDbLayout
  1
Model
 70
     1
 71
     0
 10
0.0
 20
0.0
 11
12.0
 21
9.0
 12
0.0
 22
0.0
 32
0.0
 14
0.0
 24
0.0
 34
0.0
 15
0.0
 25
0.0
 35
0.0
146
0.0
 13
0.0
 23
0.0
 33
0.0
 16
1.0
 26
0.0
 36
0.0
 17
0.0
 27
1.0
 37
0.0
 76
     0
330
1F
  0
MLINESTYLE
  5
18
102
{ACAD_REACTORS
330
17
102
}
330
17
100
AcDbMlineStyle
  2
STANDARD
 70
     0
  3

 62
   256
 51
90.0
 52
90.0
 71
     2
 49
0.5
 62
   256
  6
BYLAYER
 49
-0.5
 62
   256
  6
BYLAYER
  0
ACDBPLACEHOLDER
  5
F
102
{ACAD_REACTORS
330
E
102
}
330
E
  0
TABLESTYLE
  5
EE8
102
{ACAD_REACTORS
330
EE7
102
}
330
EE7
100
AcDbTableStyle
  3
Standard
 70
     0
 71
     0
 40
1.5
 41
1.5
280
     0
281
     0
  7
Standard
140
4.5
170
     2
 62
     0
 63
     7
283
     0
274
    -2
284
     1
 64
     0
275
    -2
285
     1
 65
     0
276
    -2
286
     1
 66
     0
277
    -2
287
     1
 67
     0
278
    -2
288
     1
 68
     0
279
    -2
289
     1
 69
     0
  7
Standard
140
6.0
170
     5
 62
     0
 63
     7
283
     0
274
    -2
284
     1
 64
     0
275
    -2
285
     1
 65
     0
276
    -2
286
     1
 66
     0
277
    -2
287
     1
 67
     0
278
    -2
288
     1
 68
     0
279
    -2
289
     1
 69
     0
  7
Standard
140
4.5
170
     5
 62
     0
 63
     7
283
     0
274
    -2
284
     1
 64
     0
275
    -2
285
     1
 65
     0
276
    -2
286
     1
 66
     0
277
    -2
287
     1
 67
     0
278
    -2
288
     1
 68
     0
279
    -2
289
     1
 69
     0
  0
DICTIONARYVAR
  5
1049
102
{ACAD_REACTORS
330
3D
102
}
330
3D
100
DictionaryVariables
280
     0
  1
STANDARD
  0
DICTIONARYVAR
  5
3F
102
{ACAD_REACTORS
330
3D
102
}
330
3D
100
DictionaryVariables
280
     0
  1
2
  0
DICTIONARYVAR
  5
3E
102
{ACAD_REACTORS
330
3D
102
}
330
3D
100
DictionaryVariables
280
     0
  1
1
  0
DICTIONARYVAR
  5
2996
102
{ACAD_REACTORS
330
3D
102
}
330
3D
100
DictionaryVariables
280
     0
  1

  0
XRECORD
  5
E78
102
{ACAD_REACTORS
330
E77
102
}
330
E77
100
AcDbXrecord
280
     1
330
0
330
0
  0
DICTIONARY
  5
299F
330
1E
100
AcDbDictionary
280
     1
281
     1
  3
ACAD_XREC_ROUNDTRIP
360
29A0
  0
DICTIONARY
  5
29A3
330
26
100
AcDbDictionary
280
     1
281
     1
  3
ACAD_XREC_ROUNDTRIP
360
29A4
  0
DICTIONARY
  5
29A1
330
22
100
AcDbDictionary
280
     1
281
     1
  3
ACAD_XREC_ROUNDTRIP
360
29A2
  0
XRECORD
  5
29A0
102
{ACAD_REACTORS
330
299F
102
}
330
299F
100
AcDbXrecord
280
     1
102
SHADEPLOT
 70
     0
102
SHADEPLOTRESLEVEL
 70
     2
102
SHADEPLOTCUSTOMDPI
 70
   300
  0
XRECORD
  5
29A4
102
{ACAD_REACTORS
330
29A3
102
}
330
29A3
100
AcDbXrecord
280
     1
102
SHADEPLOT
 70
     0
102
SHADEPLOTRESLEVEL
 70
     2
102
SHADEPLOTCUSTOMDPI
 70
   300
  0
XRECORD
  5
29A2
102
{ACAD_REACTORS
330
29A1
102
}
330
29A1
100
AcDbXrecord
280
     1
102
SHADEPLOT
 70
     0
102
SHADEPLOTRESLEVEL
 70
     2
102
SHADEPLOTCUSTOMDPI
 70
   300
  0
ENDSEC
  0
EOF
