  0
SECTION
  2
HEADER
  9
$ACADVER
  1
AC1015
  9
$ACADMAINTVER
 70
    20
  9
$DWGCODEPAGE
  3
ANSI_1252
  9
$INSBASE
 10
0.0
 20
0.0
 30
0.0
  9
$EXTMIN
 10
5152.851392158937
 20
3659.830313110801
 30
0.0
  9
$EXTMAX
 10
5157.408597482756
 20
3661.03055321685
 30
0.0
  9
$LIMMIN
 10
0.0
 20
0.0
  9
$LIMMAX
 10
420.0
 20
297.0
  9
$ORTHOMODE
 70
     0
  9
$REGENMODE
 70
     1
  9
$FILLMODE
 70
     1
  9
$QTEXTMODE
 70
     0
  9
$MIRRTEXT
 70
     1
  9
$LTSCALE
 40
1.0
  9
$ATTMODE
 70
     1
  9
$TEXTSIZE
 40
2.5
  9
$TRACEWID
 40
1.0
  9
$TEXTSTYLE
  7
SANINDUSA
  9
$CLAYER
  8
0
  9
$CELTYPE
  6
ByLayer
  9
$CECOLOR
 62
   256
  9
$CELTSCALE
 40
1.0
  9
$DISPSILH
 70
     0
  9
$DIMSCALE
 40
1.0
  9
$DIMASZ
 40
2.0
  9
$DIMEXO
 40
1.0
  9
$DIMDLI
 40
1.0
  9
$DIMRND
 40
0.0
  9
$DIMDLE
 40
0.0
  9
$DIMEXE
 40
1.0
  9
$DIMTP
 40
0.0
  9
$DIMTM
 40
0.0
  9
$DIMTXT
 40
2.0
  9
$DIMCEN
 40
0.0
  9
$DIMTSZ
 40
0.0
  9
$DIMTOL
 70
     0
  9
$DIMLIM
 70
     0
  9
$DIMTIH
 70
     0
  9
$DIMTOH
 70
     0
  9
$DIMSE1
 70
     0
  9
$DIMSE2
 70
     0
  9
$DIMTAD
 70
     1
  9
$DIMZIN
 70
     8
  9
$DIMBLK
  1

  9
$DIMASO
 70
     1
  9
$DIMSHO
 70
     1
  9
$DIMPOST
  1

  9
$DIMAPOST
  1

  9
$DIMALT
 70
     0
  9
$DIMALTD
 70
     3
  9
$DIMALTF
 40
0.03937007874016
  9
$DIMLFAC
 40
1.0
  9
$DIMTOFL
 70
     1
  9
$DIMTVP
 40
0.0
  9
$DIMTIX
 70
     0
  9
$DIMSOXD
 70
     0
  9
$DIMSAH
 70
     0
  9
$DIMBLK1
  1

  9
$DIMBLK2
  1

  9
$DIMSTYLE
  2
SANINDUSA
  9
$DIMCLRD
 70
   256
  9
$DIMCLRE
 70
   256
  9
$DIMCLRT
 70
   256
  9
$DIMTFAC
 40
1.0
  9
$DIMGAP
 40
1.0
  9
$DIMJUST
 70
     0
  9
$DIMSD1
 70
     0
  9
$DIMSD2
 70
     0
  9
$DIMTOLJ
 70
     0
  9
$DIMTZIN
 70
     8
  9
$DIMALTZ
 70
     0
  9
$DIMALTTZ
 70
     0
  9
$DIMUPT
 70
     0
  9
$DIMDEC
 70
     1
  9
$DIMTDEC
 70
     1
  9
$DIMALTU
 70
     2
  9
$DIMALTTD
 70
     3
  9
$DIMTXSTY
  7
SANINDUSA
  9
$DIMAUNIT
 70
     0
  9
$DIMADEC
 70
     1
  9
$DIMALTRND
 40
0.0
  9
$DIMAZIN
 70
     0
  9
$DIMDSEP
 70
    44
  9
$DIMATFIT
 70
     3
  9
$DIMFRAC
 70
     0
  9
$DIMLDRBLK
  1

  9
$DIMLUNIT
 70
     2
  9
$DIMLWD
 70
    -1
  9
$DIMLWE
 70
    -1
  9
$DIMTMOVE
 70
     0
  9
$LUNITS
 70
     2
  9
$LUPREC
 70
     4
  9
$SKETCHINC
 40
1.0
  9
$FILLETRAD
 40
3.0
  9
$AUNITS
 70
     0
  9
$AUPREC
 70
     0
  9
$MENU
  1
.
  9
$ELEVATION
 40
0.0
  9
$PELEVATION
 40
0.0
  9
$THICKNESS
 40
0.0
  9
$LIMCHECK
 70
     0
  9
$CHAMFERA
 40
10.0
  9
$CHAMFERB
 40
10.0
  9
$CHAMFERC
 40
20.0
  9
$CHAMFERD
 40
0.0
  9
$SKPOLY
 70
     0
  9
$TDCREATE
 40
2454305.746910625
  9
$TDUCREATE
 40
2454305.705243958
  9
$TDUPDATE
 40
2454645.387484259
  9
$TDUUPDATE
 40
2454645.345817592
  9
$TDINDWG
 40
0.0077687269
  9
$TDUSRTIMER
 40
0.0077687269
  9
$USRTIMER
 70
     1
  9
$ANGBASE
 50
0.0
  9
$ANGDIR
 70
     0
  9
$PDMODE
 70
     0
  9
$PDSIZE
 40
0.0
  9
$PLINEWID
 40
0.0
  9
$SPLFRAME
 70
     0
  9
$SPLINETYPE
 70
     6
  9
$SPLINESEGS
 70
     8
  9
$HANDSEED
  5
215F
  9
$SURFTAB1
 70
     6
  9
$SURFTAB2
 70
     6
  9
$SURFTYPE
 70
     6
  9
$SURFU
 70
     6
  9
$SURFV
 70
     6
  9
$UCSBASE
  2

  9
$UCSNAME
  2

  9
$UCSORG
 10
0.0
 20
0.0
 30
0.0
  9
$UCSXDIR
 10
1.0
 20
0.0
 30
0.0
  9
$UCSYDIR
 10
0.0
 20
1.0
 30
0.0
  9
$UCSORTHOREF
  2

  9
$UCSORTHOVIEW
 70
     0
  9
$UCSORGTOP
 10
0.0
 20
0.0
 30
0.0
  9
$UCSORGBOTTOM
 10
0.0
 20
0.0
 30
0.0
  9
$UCSORGLEFT
 10
0.0
 20
0.0
 30
0.0
  9
$UCSORGRIGHT
 10
0.0
 20
0.0
 30
0.0
  9
$UCSORGFRONT
 10
0.0
 20
0.0
 30
0.0
  9
$UCSORGBACK
 10
0.0
 20
0.0
 30
0.0
  9
$PUCSBASE
  2

  9
$PUCSNAME
  2

  9
$PUCSORG
 10
0.0
 20
0.0
 30
0.0
  9
$PUCSXDIR
 10
1.0
 20
0.0
 30
0.0
  9
$PUCSYDIR
 10
0.0
 20
1.0
 30
0.0
  9
$PUCSORTHOREF
  2

  9
$PUCSORTHOVIEW
 70
     0
  9
$PUCSORGTOP
 10
0.0
 20
0.0
 30
0.0
  9
$PUCSORGBOTTOM
 10
0.0
 20
0.0
 30
0.0
  9
$PUCSORGLEFT
 10
0.0
 20
0.0
 30
0.0
  9
$PUCSORGRIGHT
 10
0.0
 20
0.0
 30
0.0
  9
$PUCSORGFRONT
 10
0.0
 20
0.0
 30
0.0
  9
$PUCSORGBACK
 10
0.0
 20
0.0
 30
0.0
  9
$USERI1
 70
     0
  9
$USERI2
 70
     0
  9
$USERI3
 70
     0
  9
$USERI4
 70
     0
  9
$USERI5
 70
     0
  9
$USERR1
 40
0.0
  9
$USERR2
 40
0.0
  9
$USERR3
 40
0.0
  9
$USERR4
 40
0.0
  9
$USERR5
 40
0.0
  9
$WORLDVIEW
 70
     1
  9
$SHADEDGE
 70
     3
  9
$SHADEDIF
 70
    70
  9
$TILEMODE
 70
     1
  9
$MAXACTVP
 70
    64
  9
$PINSBASE
 10
0.0
 20
0.0
 30
0.0
  9
$PLIMCHECK
 70
     0
  9
$PEXTMIN
 10
1.000000000000000E+20
 20
1.000000000000000E+20
 30
1.000000000000000E+20
  9
$PEXTMAX
 10
-1.000000000000000E+20
 20
-1.000000000000000E+20
 30
-1.000000000000000E+20
  9
$PLIMMIN
 10
0.0
 20
0.0
  9
$PLIMMAX
 10
420.0
 20
297.0
  9
$UNITMODE
 70
     0
  9
$VISRETAIN
 70
     1
  9
$PLINEGEN
 70
     0
  9
$PSLTSCALE
 70
     1
  9
$TREEDEPTH
 70
  3020
  9
$CMLSTYLE
  2
Standard
  9
$CMLJUST
 70
     0
  9
$CMLSCALE
 40
20.0
  9
$PROXYGRAPHICS
 70
     1
  9
$MEASUREMENT
 70
     1
  9
$CELWEIGHT
370
    -1
  9
$ENDCAPS
280
     0
  9
$JOINSTYLE
280
     0
  9
$LWDISPLAY
290
     0
  9
$INSUNITS
 70
     4
  9
$HYPERLINKBASE
  1

  9
$STYLESHEET
  1
sanindusa.ctb
  9
$XEDIT
290
     1
  9
$CEPSNTYPE
380
     0
  9
$PSTYLEMODE
290
     1
  9
$FINGERPRINTGUID
  2
{0D966192-779F-4A03-80D5-643F3EAB8FD0}
  9
$VERSIONGUID
  2
{A6A40F63-B0BA-44C5-881E-474D96966891}
  9
$EXTNAMES
290
     1
  9
$PSVPSCALE
 40
0.0
  9
$OLESTARTUP
290
     0
  0
ENDSEC
  0
SECTION
  2
CLASSES
  0
CLASS
  1
ACDBDICTIONARYWDFLT
  2
AcDbDictionaryWithDefault
  3
ObjectDBX Classes
 90
        0
280
     0
281
     0
  0
CLASS
  1
ACDBPLACEHOLDER
  2
AcDbPlaceHolder
  3
ObjectDBX Classes
 90
        0
280
     0
281
     0
  0
CLASS
  1
LAYOUT
  2
AcDbLayout
  3
ObjectDBX Classes
 90
        0
280
     0
281
     0
  0
CLASS
  1
DICTIONARYVAR
  2
AcDbDictionaryVar
  3
ObjectDBX Classes
 90
        0
280
     0
281
     0
  0
CLASS
  1
DIMASSOC
  2
AcDbDimAssoc
  3
"AcDbDimAssoc|Product Desc:     AcDim ARX App For Dimension|Company:          Autodesk, Inc.|WEB Address:      www.autodesk.com"
 90
    32768
280
     0
281
     0
  0
CLASS
  1
TABLESTYLE
  2
AcDbTableStyle
  3
ObjectDBX Classes
 90
     2047
280
     0
281
     0
  0
CLASS
  1
SORTENTSTABLE
  2
AcDbSortentsTable
  3
ObjectDBX Classes
 90
    32768
280
     0
281
     0
  0
ENDSEC
  0
SECTION
  2
TABLES
  0
TABLE
  2
VPORT
  5
8
330
0
100
AcDbSymbolTable
 70
     2
  0
VPORT
  5
2157
330
8
100
AcDbSymbolTableRecord
100
AcDbViewportTableRecord
  2
*Active
 70
     0
 10
0.0
 20
0.0
 11
1.0
 21
1.0
 12
5154.898780957269
 22
3660.488411811395
 13
0.0
 23
0.0
 14
10.0
 24
10.0
 15
10.0
 25
10.0
 16
0.0
 26
0.0
 36
1.0
 17
0.0
 27
0.0
 37
0.0
 40
4.623797487967294
 41
1.582748244734202
 42
50.0
 43
0.0
 44
0.0
 50
0.0
 51
0.0
 71
     0
 72
   100
 73
     1
 74
     2
 75
     0
 76
     0
 77
     0
 78
     0
281
     0
 65
     1
110
0.0
120
0.0
130
0.0
111
1.0
121
0.0
131
0.0
112
0.0
122
1.0
132
0.0
 79
     0
146
0.0
  0
ENDTAB
  0
TABLE
  2
LTYPE
  5
5
330
0
100
AcDbSymbolTable
 70
     6
  0
LTYPE
  5
14
330
5
100
AcDbSymbolTableRecord
100
AcDbLinetypeTableRecord
  2
ByBlock
 70
     0
  3

 72
    65
 73
     0
 40
0.0
  0
LTYPE
  5
15
330
5
100
AcDbSymbolTableRecord
100
AcDbLinetypeTableRecord
  2
ByLayer
 70
     0
  3

 72
    65
 73
     0
 40
0.0
  0
LTYPE
  5
16
330
5
100
AcDbSymbolTableRecord
100
AcDbLinetypeTableRecord
  2
Continuous
 70
     0
  3
Solid line
 72
    65
 73
     0
 40
0.0
  0
LTYPE
  5
2D
330
5
100
AcDbSymbolTableRecord
100
AcDbLinetypeTableRecord
  2
DASHDOT
 70
     0
  3
Dash dot __ . __ . __ . __ . __ . __ . __ . __
 72
    65
 73
     4
 40
25.4
 49
12.7
 74
     0
 49
-6.349999999999999
 74
     0
 49
0.0
 74
     0
 49
-6.349999999999999
 74
     0
  0
LTYPE
  5
2E
330
5
100
AcDbSymbolTableRecord
100
AcDbLinetypeTableRecord
  2
HIDDEN
 70
     0
  3
Hidden __ __ __ __ __ __ __ __ __ __ __ __ __ _
 72
    65
 73
     2
 40
9.524999999999998
 49
6.349999999999999
 74
     0
 49
-3.174999999999999
 74
     0
  0
LTYPE
  5
C75
330
5
100
AcDbSymbolTableRecord
100
AcDbLinetypeTableRecord
  2
AM_ISO02W050
 70
     0
  3
__ __ __ __ __ __ __ __ __ __ __ __ __ __ __
 72
    65
 73
     2
 40
7.5
 49
6.0
 74
     0
 49
-1.5
 74
     0
  0
LTYPE
  5
C76
330
5
100
AcDbSymbolTableRecord
100
AcDbLinetypeTableRecord
  2
AM_ISO08W050
 70
     0
  3
____ . ____ . ____ . ____ . ____ . ____ . ____
 72
    65
 73
     4
 40
18.0
 49
12.0
 74
     0
 49
-1.5
 74
     0
 49
3.0
 74
     0
 49
-1.5
 74
     0
  0
LTYPE
  5
12FF
330
5
100
AcDbSymbolTableRecord
100
AcDbLinetypeTableRecord
  2
HIDDEN2
 70
     0
  3
Hidden (.5x) _ _ _ _ _ _ _ _ _ _ _ _ _ _ _ _ _
 72
    65
 73
     2
 40
4.762499999999999
 49
3.174999999999999
 74
     0
 49
-1.587499999999999
 74
     0
  0
ENDTAB
  0
TABLE
  2
LAYER
  5
2
102
{ACAD_XDICTIONARY
360
1051
102
}
330
0
100
AcDbSymbolTable
 70
    16
  0
LAYER
  5
10
330
2
100
AcDbSymbolTableRecord
100
AcDbLayerTableRecord
  2
0
 70
     0
 62
     7
  6
Continuous
370
    -3
390
F
  0
LAYER
  5
2F
330
2
100
AcDbSymbolTableRecord
100
AcDbLayerTableRecord
  2
1
 70
     0
 62
     1
  6
Continuous
370
    -3
390
F
  0
LAYER
  5
30
330
2
100
AcDbSymbolTableRecord
100
AcDbLayerTableRecord
  2
2
 70
     0
 62
     2
  6
Continuous
370
    -3
390
F
  0
LAYER
  5
31
330
2
100
AcDbSymbolTableRecord
100
AcDbLayerTableRecord
  2
3
 70
     0
 62
     3
  6
Continuous
370
    -3
390
F
  0
LAYER
  5
32
330
2
100
AcDbSymbolTableRecord
100
AcDbLayerTableRecord
  2
4
 70
     0
 62
     4
  6
Continuous
370
    -3
390
F
  0
LAYER
  5
33
330
2
100
AcDbSymbolTableRecord
100
AcDbLayerTableRecord
  2
5
 70
     0
 62
     5
  6
Continuous
370
    -3
390
F
  0
LAYER
  5
34
330
2
100
AcDbSymbolTableRecord
100
AcDbLayerTableRecord
  2
6
 70
     0
 62
     6
  6
Continuous
370
    -3
390
F
  0
LAYER
  5
35
330
2
100
AcDbSymbolTableRecord
100
AcDbLayerTableRecord
  2
7
 70
     0
 62
     7
  6
Continuous
370
    -3
390
F
  0
LAYER
  5
36
330
2
100
AcDbSymbolTableRecord
100
AcDbLayerTableRecord
  2
cen
 70
     0
 62
     7
  6
DASHDOT
370
    -3
390
F
  0
LAYER
  5
37
330
2
100
AcDbSymbolTableRecord
100
AcDbLayerTableRecord
  2
hid
 70
     0
 62
     7
  6
HIDDEN
370
    -3
390
F
  0
LAYER
  5
5D6
330
2
100
AcDbSymbolTableRecord
100
AcDbLayerTableRecord
  2
hatch
 70
     0
 62
     9
  6
Continuous
370
    -3
390
F
  0
LAYER
  5
8AF
330
2
100
AcDbSymbolTableRecord
100
AcDbLayerTableRecord
  2
9
 70
     0
 62
     9
  6
Continuous
370
    -3
390
F
  0
LAYER
  5
8F8
330
2
100
AcDbSymbolTableRecord
100
AcDbLayerTableRecord
  2
leg fin
 70
     0
 62
     9
  6
Continuous
370
    -3
390
F
  0
LAYER
  5
91D
330
2
100
AcDbSymbolTableRecord
100
AcDbLayerTableRecord
  2
cotas
 70
     0
 62
     1
  6
Continuous
370
    -3
390
F
  0
LAYER
  5
92F
330
2
100
AcDbSymbolTableRecord
100
AcDbLayerTableRecord
  2
Defpoints
 70
     0
 62
     7
  6
Continuous
290
     0
370
    -3
390
F
  0
LAYER
  5
C7B
330
2
100
AcDbSymbolTableRecord
100
AcDbLayerTableRecord
  2
SANINDUSA
 70
     0
 62
     3
  6
Continuous
370
    -3
390
F
  0
ENDTAB
  0
TABLE
  2
STYLE
  5
3
330
0
100
AcDbSymbolTable
 70
     4
  0
STYLE
  5
11
330
3
100
AcDbSymbolTableRecord
100
AcDbTextStyleTableRecord
  2
Standard
 70
     0
 40
0.0
 41
1.0
 50
0.0
 71
     0
 42
2.5
  3
Avgardn.ttf
  4

1001
ACAD
1000
AvantGarde Bk BT
1071
       34
  0
STYLE
  5
2C
330
3
100
AcDbSymbolTableRecord
100
AcDbTextStyleTableRecord
  2

 70
     1
 40
0.0
 41
1.0
 50
0.0
 71
     0
 42
2.5
  3
ltypeshp.shx
  4

  0
STYLE
  5
91F
330
3
100
AcDbSymbolTableRecord
100
AcDbTextStyleTableRecord
  2
SANINDUSA
 70
     0
 40
0.0
 41
1.0
 50
0.0
 71
     0
 42
2.5
  3
verdana.TTF
  4

1001
ACAD
1000
Verdana
1071
       34
  0
STYLE
  5
C7C
330
3
100
AcDbSymbolTableRecord
100
AcDbTextStyleTableRecord
  2
futura
 70
     0
 40
0.0
 41
1.0
 50
0.0
 71
     0
 42
2.5
  3
ZURCHN.TTF
  4

1001
ACAD
1000
Zurich BT
1071
       34
  0
ENDTAB
  0
TABLE
  2
VIEW
  5
6
330
0
100
AcDbSymbolTable
 70
     0
  0
ENDTAB
  0
TABLE
  2
UCS
  5
7
330
0
100
AcDbSymbolTable
 70
     0
  0
ENDTAB
  0
TABLE
  2
APPID
  5
9
330
0
100
AcDbSymbolTable
 70
    11
  0
APPID
  5
12
330
9
100
AcDbSymbolTableRecord
100
AcDbRegAppTableRecord
  2
ACAD
 70
     0
  0
APPID
  5
3A
330
9
100
AcDbSymbolTableRecord
100
AcDbRegAppTableRecord
  2
DCO15
 70
     0
  0
APPID
  5
EEE
330
9
100
AcDbSymbolTableRecord
100
AcDbRegAppTableRecord
  2
ACAD_DSTYLE_DIMTEXT_FILL
 70
     0
  0
APPID
  5
EEF
330
9
100
AcDbSymbolTableRecord
100
AcDbRegAppTableRecord
  2
ACAD_DSTYLE_DIMEXT_LENGTH
 70
     0
  0
APPID
  5
EF0
330
9
100
AcDbSymbolTableRecord
100
AcDbRegAppTableRecord
  2
ACAD_DSTYLE_DIMEXT_ENABLED
 70
     0
  0
APPID
  5
EF1
330
9
100
AcDbSymbolTableRecord
100
AcDbRegAppTableRecord
  2
ACAD_DSTYLE_DIM_LINETYPE
 70
     0
  0
APPID
  5
EF2
330
9
100
AcDbSymbolTableRecord
100
AcDbRegAppTableRecord
  2
ACAD_DSTYLE_DIM_EXT1_LINETYPE
 70
     0
  0
APPID
  5
EF3
330
9
100
AcDbSymbolTableRecord
100
AcDbRegAppTableRecord
  2
ACAD_DSTYLE_DIM_EXT2_LINETYPE
 70
     0
  0
APPID
  5
FAF
330
9
100
AcDbSymbolTableRecord
100
AcDbRegAppTableRecord
  2
ACAD_DSTYLE_DIMJOGGED_JOGANGLE_SYMBOL
 70
     0
  0
APPID
  5
1013
330
9
100
AcDbSymbolTableRecord
100
AcDbRegAppTableRecord
  2
ACAD_DSTYLE_DIMARC_LENGTH_SYMBOL
 70
     0
  0
APPID
  5
213E
330
9
100
AcDbSymbolTableRecord
100
AcDbRegAppTableRecord
  2
ACAD_EXEMPT_FROM_CAD_STANDARDS
 70
     0
  0
ENDTAB
  0
TABLE
  2
DIMSTYLE
  5
A
330
0
100
AcDbSymbolTable
 70
     3
100
AcDbDimStyleTable
 71
     1
340
921
  0
DIMSTYLE
105
45
330
A
100
AcDbSymbolTableRecord
100
AcDbDimStyleTableRecord
  2
STANDARD
 70
     0
289
     0
340
11
  0
DIMSTYLE
105
921
330
A
100
AcDbSymbolTableRecord
100
AcDbDimStyleTableRecord
  2
SANINDUSA
 70
     0
 41
2.0
 42
1.0
 43
1.0
 44
1.0
 73
     0
 74
     0
 77
     1
 78
     8
140
2.0
141
0.0
143
0.03937007874016
147
1.0
171
     3
172
     1
176
   256
177
   256
178
   256
179
     1
271
     1
272
     1
274
     3
278
    44
283
     0
284
     8
340
91F
371
    -1
372
    -1
1001
ACAD_DSTYLE_DIMEXT_LENGTH
1070
   378
1040
1.0
1001
ACAD_DSTYLE_DIMEXT_ENABLED
1070
   383
1070
     0
1001
ACAD_DSTYLE_DIMARC_LENGTH_SYMBOL
1070
   379
1070
     0
1001
ACAD_DSTYLE_DIMJOGGED_JOGANGLE_SYMBOL
1070
   384
1040
1.570796326794896
  0
DIMSTYLE
105
C7D
330
A
100
AcDbSymbolTableRecord
100
AcDbDimStyleTableRecord
  2
AM_ISO
 70
     0
  4
"
 41
2.5
 42
1.0
 43
10.0
 44
1.0
 47
0.1
 48
0.1
 73
     0
 74
     0
 77
     1
 78
     8
 79
     2
140
3.5
141
0.0
143
0.0393701
146
0.71
147
1.5
172
     1
176
   256
177
   256
178
     2
271
     2
272
     3
274
     4
283
     0
284
     8
340
11
371
    -1
372
    -1
  0
ENDTAB
  0
TABLE
  2
BLOCK_RECORD
  5
1
330
0
100
AcDbSymbolTable
 70
   125
  0
BLOCK_RECORD
  5
1F
330
1
100
AcDbSymbolTableRecord
100
AcDbBlockTableRecord
  2
*Model_Space
340
22
  0
BLOCK_RECORD
  5
1B
330
1
100
AcDbSymbolTableRecord
100
AcDbBlockTableRecord
  2
*Paper_Space
340
1E
  0
BLOCK_RECORD
  5
23
330
1
100
AcDbSymbolTableRecord
100
AcDbBlockTableRecord
  2
*Paper_Space0
340
26
  0
BLOCK_RECORD
  5
919
330
1
100
AcDbSymbolTableRecord
100
AcDbBlockTableRecord
  2
_DotSmall
340
0
  0
BLOCK_RECORD
  5
922
330
1
100
AcDbSymbolTableRecord
100
AcDbBlockTableRecord
  2
base para cotas
340
0
310
2800000020000000200000000100080000000000000400000000000000000000000000000000000000000000000080000080000000808000800000008000800080800000C0C0C000C0DCC000F0CAA6000020400000206000002080000020A0000020C0000020E00000400000004020000040400000406000004080000040A0
310
000040C0000040E00000600000006020000060400000606000006080000060A0000060C0000060E00000800000008020000080400000806000008080000080A0000080C0000080E00000A0000000A0200000A0400000A0600000A0800000A0A00000A0C00000A0E00000C0000000C0200000C0400000C0600000C0800000C0
310
A00000C0C00000C0E00000E0000000E0200000E0400000E0600000E0800000E0A00000E0C00000E0E00040000000400020004000400040006000400080004000A0004000C0004000E00040200000402020004020400040206000402080004020A0004020C0004020E000404000004040200040404000404060004040800040
310
40A0004040C0004040E00040600000406020004060400040606000406080004060A0004060C0004060E00040800000408020004080400040806000408080004080A0004080C0004080E00040A0000040A0200040A0400040A0600040A0800040A0A00040A0C00040A0E00040C0000040C0200040C0400040C0600040C08000
310
40C0A00040C0C00040C0E00040E0000040E0200040E0400040E0600040E0800040E0A00040E0C00040E0E00080000000800020008000400080006000800080008000A0008000C0008000E00080200000802020008020400080206000802080008020A0008020C0008020E00080400000804020008040400080406000804080
310
008040A0008040C0008040E00080600000806020008060400080606000806080008060A0008060C0008060E00080800000808020008080400080806000808080008080A0008080C0008080E00080A0000080A0200080A0400080A0600080A0800080A0A00080A0C00080A0E00080C0000080C0200080C0400080C0600080C0
310
800080C0A00080C0C00080C0E00080E0000080E0200080E0400080E0600080E0800080E0A00080E0C00080E0E000C0000000C0002000C0004000C0006000C0008000C000A000C000C000C000E000C0200000C0202000C0204000C0206000C0208000C020A000C020C000C020E000C0400000C0402000C0404000C0406000C0
310
408000C040A000C040C000C040E000C0600000C0602000C0604000C0606000C0608000C060A000C060C000C060E000C0800000C0802000C0804000C0806000C0808000C080A000C080C000C080E000C0A00000C0A02000C0A04000C0A06000C0A08000C0A0A000C0A0C000C0A0E000C0C00000C0C02000C0C04000C0C06000
310
C0C08000C0C0A000F0FBFF00A4A0A000808080000000FF0000FF000000FFFF00FF000000FF00FF00FFFF0000FFFFFF00A4A4A4A4A4A4A4A4A4A4A4A4A4A4A4A4A4A4A4A4A4A4A4A4A4A4A4A4A4A4A4A4A4A4A4A4A4A4A4A4A4A4A4A4A4A4A4A4A4A4A4A4A4A4A4A4A4A4A4A4A4A4A4A4A4A4A4A4A4A4A4A4A4A4A4A4A4A4A4
310
A4A4A4A4A4A4A4A4A4A4A4A4A4A4A4A4A4A4A4A4A4A4A4A4A4A4A4A4A4A4A4A4A4A4A4A4A4A4A4A4A4A4A4A4A4A4A4A4A4A4A4A4A4A4A4A4A4A4A4A4A4A4A4A4A4A4A4A4A4A4A4A4A4A4A4A4A4A4A4A4A4A4A4A4A4A4A4A4A4A4A4A4A4A4A4A4A4A4A4A4A4A4A4A4A4A4A4A4A4A4A4A4A4A4A4A4A4A4A4A4A4A4A4A4A4A4A4
310
A4A4A4A4A4A4A4A4A4A4A4A4A4A4A4A4A4A4A4A4A4A4A4A4A4A4A4A4A4A4A4A4A4A4A4A4A4A4A4A4A4A4A4A4A4A4A4A4A4A4A4A4A4A4A4A4A4A4A4A4A4A4A4A4A4A4A4A4A4A4A4A4A4A4A4A4A4A4A4A4A4A4A4A4A4A4A4A4A4A4A4A4A4A4A4A4A4A4A4A4A4A4A4A4A4A4A4A4A4A4A4A4A4A4A4A4A4A4A4A4A4A4A4A4A4A4A4
310
A4A4A4A4A4A4A4A4A4A4A4A4A4A4A4A4A4A4A4A4A4A4A4A4A4A4A4A4A4A4A4A4A4A4A4A4A4A4A4A4A4A4A4A4A4A4A4A4A4A4A4A4A4A4A4A4A4A4A4A4A4A4A4A4A4A4A4A4A4A4A4A4A4A4A4A4A4A4A4A4A4A4A4A4A4A4A4A4A4A4A4A4A4A4A4A4A4A4A4A4A4A4A4A4A4A4A4A4A4A4A4A4A4A4A4A4F9F9F9F9F9F9F9F9F9F9F9
310
F9F9F9F9F9F9F9F9F9F9F9F9F9F9F9F9F9F9F9A4A4F9F9F9F9F9F9F9F9F9F9F9F9F9F9F9F9F9F9F9F9F9F9F9F9F9F9F9F9F9F9A4A4F9F9F9F9F9F9F9F9F9F9F9F9F9F9F9F9F9F9F9F9F9F9F9F9F9F9F9F9F9F9A4A4F9A4A4A4A4A4A4A4A4A4A4A4A4A4A4A4A4A4A4A4A4A4A4A4A4A4A4A4A4F9A4A4A4A4A4A4A4A4A4A4A4A4
310
A4A4A4A4A4A4A4A4A4A4A4A4A4A4A4A4A4A4A4A4A4A4A4A4A4A4A4A4A4A4A4A4A4A4A4A4A4A4A4A4A4A4A4A4A4A4A4A4A4A4A4A4A4A4A4A4A4A4A4A4A4A4A4A4A4A4A4A4A4A4A4A4A4A4A4A4A4A4A4A4A4A4A4A4A4A4A4A4A4A4A4A4A4A4A4A4A4A4A4A4A4A4A4A4A4A4A4A4A4A4A4A4A4A4A4A4A4A4A4A4A4A4A4A4A4A4A4
310
A4A4A4A4A4A4A4A4A4A4A4A4A4A4A4A4A4A4A4A4A4A4A4A4A4A4A4A4A4A4A4A4A4A4A4A4A4A4A4A4A4A4A4A4A4A4A4A4A4A4A4A4A4A4A4A4A4A4A4A4A4A4A4A4A4A4A4A4A4A4A4A4A4A4A4A4A4A4A4A4A4A4A4A4A4A4A4A4A4A4A4A4A4A4A4A4A4A4A4A4A4A4A4A4A4A4A4A4A4A4A4A4A4A4A4A4A4A4A4A4A4A4A4A4A4A4A4
310
A4A4A4A4A4A4A4A4A4A4A4A4A4A4A4A4A4A4A4A4A4A4A4A4A4A4A4A4A4A4A4A4A4A4A4A4A4A4A4A4A4A4A4A4A4A4A4A4A4A4A4A4A4A4A4A4A4A4A4A4A4A4A4A4A4A4A4A4A4A4A4A4A4A4A4A4A4A4A4A4A4A4A4A4A4A4A4A4A4A4A4A4A4A4A4A4A4A4A4A4A4A4A4A4A4A4A4A4A4A4A4A4A4A4A4A4A4A4A4A4A4A4A4A4A4A4A4
310
A4A4A4A4A4A4A4A4A4A4A4A4A4A4A4A4A4A4A4A4A4A4A4A4A4A4A4A4A4A4A4A4A4A4A4A4A4A4A4A4A4A4A4A4A4A4A4A4A4A4A4A4A4A4A4A4
1001
ACAD
1000
DesignCenter Data
1002
{
1070
     1
1070
     4
1002
}
  0
BLOCK_RECORD
  5
AA8
330
1
100
AcDbSymbolTableRecord
100
AcDbBlockTableRecord
  2
_CLOSED
340
0
  0
BLOCK_RECORD
  5
B79
330
1
100
AcDbSymbolTableRecord
100
AcDbBlockTableRecord
  2
nota revisoes
340
0
1001
ACAD
1000
DesignCenter Data
1002
{
1070
     1
1070
     4
1002
}
  0
BLOCK_RECORD
  5
B8E
330
1
100
AcDbSymbolTableRecord
100
AcDbBlockTableRecord
  2
a3l
340
0
1001
ACAD
1000
DesignCenter Data
1002
{
1070
     1
1070
     4
1002
}
  0
BLOCK_RECORD
  5
B9E
330
1
100
AcDbSymbolTableRecord
100
AcDbBlockTableRecord
  2
legenda desenvolvimento
340
0
1001
ACAD
1000
DesignCenter Data
1002
{
1070
     1
1070
     4
1002
}
  0
ENDTAB
  0
ENDSEC
  0
SECTION
  2
BLOCKS
  0
BLOCK
  5
20
330
1F
100
AcDbEntity
  8
0
100
AcDbBlockBegin
  2
*Model_Space
 70
     0
 10
0.0
 20
0.0
 30
0.0
  3
*Model_Space
  1

  0
ENDBLK
  5
21
330
1F
100
AcDbEntity
  8
0
100
AcDbBlockEnd
  0
BLOCK
  5
1C
330
1B
100
AcDbEntity
 67
     1
  8
0
100
AcDbBlockBegin
  2
*Paper_Space
 70
     0
 10
0.0
 20
0.0
 30
0.0
  3
*Paper_Space
  1

  0
ENDBLK
  5
1D
330
1B
100
AcDbEntity
 67
     1
  8
0
100
AcDbBlockEnd
  0
BLOCK
  5
24
330
23
100
AcDbEntity
 67
     1
  8
0
100
AcDbBlockBegin
  2
*Paper_Space0
 70
     0
 10
0.0
 20
0.0
 30
0.0
  3
*Paper_Space0
  1

  0
ENDBLK
  5
25
330
23
100
AcDbEntity
 67
     1
  8
0
100
AcDbBlockEnd
  0
BLOCK
  5
91B
330
919
100
AcDbEntity
  8
0
100
AcDbBlockBegin
  2
_DotSmall
 70
     0
 10
0.0
 20
0.0
 30
0.0
  3
_DotSmall
  1

  0
LWPOLYLINE
  5
91A
330
919
100
AcDbEntity
  8
0
  6
ByBlock
 62
     0
100
AcDbPolyline
 90
        2
 70
     1
 43
0.5
 10
-0.0625
 20
0.0
 42
1.0
 10
0.0625
 20
0.0
 42
1.0
  0
ENDBLK
  5
91C
330
919
100
AcDbEntity
  8
0
100
AcDbBlockEnd
  0
BLOCK
  5
92A
330
922
100
AcDbEntity
  8
0
100
AcDbBlockBegin
  2
base para cotas
 70
     0
 10
0.0
 20
0.0
 30
0.0
  3
base para cotas
  1

  0
LINE
  5
B36
330
922
100
AcDbEntity
  8
cotas
100
AcDbLine
 10
0.0
 20
-30.0
 30
0.0
 11
327.1260136525398
 21
-30.0
 31
0.0
  0
LINE
  5
B37
330
922
100
AcDbEntity
  8
cotas
100
AcDbLine
 10
0.0
 20
-25.0
 30
0.0
 11
327.1260136525398
 21
-25.0
 31
0.0
  0
LINE
  5
B38
330
922
100
AcDbEntity
  8
cotas
100
AcDbLine
 10
0.0
 20
-20.0
 30
0.0
 11
327.1260136525398
 21
-20.0
 31
0.0
  0
LINE
  5
B39
330
922
100
AcDbEntity
  8
cotas
100
AcDbLine
 10
0.0
 20
-15.0
 30
0.0
 11
327.1260136525398
 21
-15.0
 31
0.0
  0
LINE
  5
B3A
330
922
100
AcDbEntity
  8
cotas
100
AcDbLine
 10
0.0
 20
-10.0
 30
0.0
 11
327.1260136525398
 21
-10.0
 31
0.0
  0
LINE
  5
B3B
330
922
100
AcDbEntity
  8
cotas
100
AcDbLine
 10
0.0
 20
0.0
 30
0.0
 11
0.0
 21
-30.0
 31
0.0
  0
LINE
  5
B3C
330
922
100
AcDbEntity
  8
cotas
100
AcDbLine
 10
327.1260136525398
 20
-30.0
 30
0.0
 11
327.1260136525398
 21
0.0
 31
0.0
  0
ENDBLK
  5
92B
330
922
100
AcDbEntity
  8
0
100
AcDbBlockEnd
  0
BLOCK
  5
AAD
330
AA8
100
AcDbEntity
  8
0
100
AcDbBlockBegin
  2
_CLOSED
 70
     0
 10
0.0
 20
0.0
 30
0.0
  3
_CLOSED
  1

  0
LINE
  5
AA9
330
AA8
100
AcDbEntity
  8
0
100
AcDbLine
 10
-1.0
 20
0.166667
 30
0.0
 11
0.0
 21
0.0
 31
0.0
  0
LINE
  5
AAA
330
AA8
100
AcDbEntity
  8
0
100
AcDbLine
 10
0.0
 20
0.0
 30
0.0
 11
-1.0
 21
-0.166667
 31
0.0
  0
LINE
  5
AAB
330
AA8
100
AcDbEntity
  8
0
100
AcDbLine
 10
-1.0
 20
0.166667
 30
0.0
 11
-1.0
 21
-0.166667
 31
0.0
  0
LINE
  5
AAC
330
AA8
100
AcDbEntity
  8
0
100
AcDbLine
 10
0.0
 20
0.0
 30
0.0
 11
-1.0
 21
0.0
 31
0.0
  0
ENDBLK
  5
AAE
330
AA8
100
AcDbEntity
  8
0
100
AcDbBlockEnd
  0
BLOCK
  5
B7C
330
B79
100
AcDbEntity
  8
0
100
AcDbBlockBegin
  2
nota revisoes
 70
     0
 10
0.0
 20
0.0
 30
0.0
  3
nota revisoes
  1

  0
CIRCLE
  5
B7A
330
B79
100
AcDbEntity
  8
4
100
AcDbCircle
 10
0.0
 20
0.0
 30
0.0
 40
13.69426055101189
  0
TEXT
  5
B7B
330
B79
100
AcDbEntity
  8
4
100
AcDbText
 10
-5.496248358154345
 20
-5.354545554066362
 30
0.0
 40
12.0
  1
1
  7
SANINDUSA
 72
     1
 11
-0.249774214433728
 21
-5.354545554066362
 31
0.0
100
AcDbText
  0
ENDBLK
  5
B7D
330
B79
100
AcDbEntity
  8
0
100
AcDbBlockEnd
  0
BLOCK
  5
B9C
330
B8E
100
AcDbEntity
  8
0
100
AcDbBlockBegin
  2
a3l
 70
     0
 10
0.0
 20
0.0
 30
0.0
  3
a3l
  1

  0
LINE
  5
B8F
330
B8E
100
AcDbEntity
  8
1
100
AcDbLine
 10
-364.2925296599447
 20
-362.1188951399395
 30
0.0
 11
-364.2925296599447
 21
-65.11889513993946
 31
0.0
  0
LINE
  5
B90
330
B8E
100
AcDbEntity
  8
4
100
AcDbLine
 10
-369.2925296599447
 20
-357.1188951399395
 30
0.0
 11
-369.2925296599447
 21
-70.11889513993946
 31
0.0
  0
LINE
  5
B91
330
B8E
100
AcDbEntity
  8
1
100
AcDbLine
 10
-784.2925296599446
 20
-65.11889513993946
 30
0.0
 11
-784.2925296599446
 21
-362.1188951399395
 31
0.0
  0
LINE
  5
B92
330
B8E
100
AcDbEntity
  8
4
100
AcDbLine
 10
-759.2925296599446
 20
-357.1188951399395
 30
0.0
 11
-759.2925296599446
 21
-70.11889513993946
 31
0.0
  0
LINE
  5
B93
330
B8E
100
AcDbEntity
  8
1
100
AcDbLine
 10
-784.2925296599446
 20
-362.1188951399395
 30
0.0
 11
-364.2925296599447
 21
-362.1188951399395
 31
0.0
  0
LINE
  5
B94
330
B8E
100
AcDbEntity
  8
4
100
AcDbLine
 10
-759.2925296599446
 20
-357.1188951399395
 30
0.0
 11
-369.2925296599447
 21
-357.1188951399395
 31
0.0
  0
LINE
  5
B95
330
B8E
100
AcDbEntity
  8
1
100
AcDbLine
 10
-654.2925296599446
 20
-357.1188951399395
 30
0.0
 11
-654.2925296599446
 21
-362.1188951399395
 31
0.0
  0
LINE
  5
B96
330
B8E
100
AcDbEntity
  8
1
100
AcDbLine
 10
-364.2925296599447
 20
-65.11889513993946
 30
0.0
 11
-784.2925296599446
 21
-65.11889513993946
 31
0.0
  0
LINE
  5
B97
330
B8E
100
AcDbEntity
  8
4
100
AcDbLine
 10
-369.2925296599447
 20
-70.11889513993946
 30
0.0
 11
-759.2925296599446
 21
-70.11889513993946
 31
0.0
  0
LINE
  5
B98
330
B8E
100
AcDbEntity
  8
1
100
AcDbLine
 10
-654.2925296599446
 20
-65.11889513993946
 30
0.0
 11
-654.2925296599446
 21
-70.11889513993946
 31
0.0
  0
LINE
  5
B99
330
B8E
100
AcDbEntity
  8
1
100
AcDbLine
 10
-549.2925296599446
 20
-70.11889513993946
 30
0.0
 11
-549.2925296599446
 21
-65.11889513993946
 31
0.0
  0
LINE
  5
B9A
330
B8E
100
AcDbEntity
  8
1
100
AcDbLine
 10
-369.2925296599447
 20
-65.11889513993946
 30
0.0
 11
-364.2925296599447
 21
-65.11889513993946
 31
0.0
  0
LINE
  5
B9B
330
B8E
100
AcDbEntity
  8
1
100
AcDbLine
 10
-549.2925296599446
 20
-357.1188951399395
 30
0.0
 11
-549.2925296599446
 21
-362.1188951399395
 31
0.0
  0
ENDBLK
  5
B9D
330
B8E
100
AcDbEntity
  8
0
100
AcDbBlockEnd
  0
BLOCK
  5
C13
330
B9E
100
AcDbEntity
  8
0
100
AcDbBlockBegin
  2
legenda desenvolvimento
 70
     2
 10
0.0
 20
0.0
 30
0.0
  3
legenda desenvolvimento
  1

  0
ATTDEF
  5
B9F
330
B9E
100
AcDbEntity
  8
1
100
AcDbText
 10
-108.606245802552
 20
55.5
 30
0.0
 40
4.0
  1
XXXXXXXXXXXXXX
 41
0.8
  7
SANINDUSA
 72
     4
 11
-87.5
 21
57.5
 31
0.0
100
AcDbAttributeDefinition
  3
Nome do Produto:
  2
PRODUTO
 70
     0
  0
ATTDEF
  5
BA0
330
B9E
100
AcDbEntity
  8
1
100
AcDbText
 10
-97.9997966101695
 20
41.25
 30
0.0
 40
3.0
  1
XXXXXXXXX
 41
0.8
  7
futura
 72
     4
 11
-87.5
 21
42.75
 31
0.0
100
AcDbAttributeDefinition
  3
Nome da Peça:
  2
PECA
 70
     0
  0
ATTDEF
  5
BA1
330
B9E
100
AcDbEntity
  8
1
100
AcDbText
 10
-133.4422431161853
 20
21.11745296763252
 30
0.0
 40
2.5
  1
X
 41
0.8
  7
SANINDUSA
 72
     4
 11
-132.5
 21
22.36745296763252
 31
0.0
100
AcDbAttributeDefinition
  3
Cod. TESTE:
  2
TESTE
 70
     0
  0
ATTDEF
  5
BA2
330
B9E
100
AcDbEntity
  8
1
100
AcDbText
 10
-124.3844862323707
 20
21.11745296763252
 30
0.0
 40
2.5
  1
XX
 41
0.8
  7
SANINDUSA
 72
     4
 11
-122.5
 21
22.36745296763252
 31
0.0
100
AcDbAttributeDefinition
  3
Cod. Ano:
  2
ANO
 70
     0
  0
ATTDEF
  5
BA3
330
B9E
100
AcDbEntity
  8
1
100
AcDbText
 10
-112.526889953052
 20
21.11745296763252
 30
0.0
 40
2.5
  1
XXX
 41
0.8
  7
SANINDUSA
 72
     4
 11
-109.700160604496
 21
22.36745296763252
 31
0.0
100
AcDbAttributeDefinition
  3
Cod. Sequência:
  2
SEQUENCIA
 70
     0
  0
ATTDEF
  5
BA4
330
B9E
100
AcDbEntity
  8
1
100
AcDbText
 10
-99.35382430979316
 20
21.11745296763252
 30
0.0
 40
2.5
  1
XX
 41
0.8
  7
SANINDUSA
 72
     4
 11
-97.46933807742244
 21
22.36745296763252
 31
0.0
100
AcDbAttributeDefinition
  3
Cod. Tipo:
  2
TIPO
 70
     0
  0
ATTDEF
  5
BA5
330
B9E
100
AcDbEntity
  8
1
100
AcDbText
 10
-87.42035911468438
 20
21.11745296763252
 30
0.0
 40
2.5
  1
XXX
 41
0.8
  7
SANINDUSA
 72
     4
 11
-84.59362976612828
 21
22.36745296763252
 31
0.0
100
AcDbAttributeDefinition
  3
Cod. Produto:
  2
PRODUTO
 70
     0
  0
ATTDEF
  5
BA6
330
B9E
100
AcDbEntity
  8
1
100
AcDbText
 10
-74.62051971917853
 20
21.11745296763252
 30
0.0
 40
2.5
  1
XXX
 41
0.8
  7
SANINDUSA
 72
     4
 11
-71.79379037062244
 21
22.36745296763252
 31
0.0
100
AcDbAttributeDefinition
  3
Cod. Peça:
  2
PECA
 70
     0
  0
ATTDEF
  5
BA7
330
B9E
100
AcDbEntity
  8
1
100
AcDbText
 10
-61.10603446650329
 20
21.11745296763252
 30
0.0
 40
2.5
  1
XX
 41
0.8
  7
SANINDUSA
 72
     4
 11
-59.22154823413257
 21
22.36745296763252
 31
0.0
100
AcDbAttributeDefinition
  3
Cod. Revisão:
  2
REV
 70
     0
  0
ATTDEF
  5
BA8
330
B9E
100
AcDbEntity
  8
1
100
AcDbText
 10
-48.43615325006194
 20
21.11745296763252
 30
0.0
 40
2.5
  1
XX
 41
0.8
  7
SANINDUSA
 72
     4
 11
-46.55166701769121
 21
22.36745296763252
 31
0.0
100
AcDbAttributeDefinition
  3
Cod. Alteração:
  2
ALT
 70
     0
  0
ATTDEF
  5
BA9
330
B9E
100
AcDbEntity
  8
1
100
AcDbText
 10
-35.19086635325722
 20
23.98875083948959
 30
0.0
 40
3.0
  1
1/XXX
 41
0.8
  7
SANINDUSA
 72
     4
 11
-30.0
 21
25.25
 31
0.0
100
AcDbAttributeDefinition
  3
Escala geral:
  2
ESCALA
 70
     0
  0
ATTDEF
  5
BAA
330
B9E
100
AcDbEntity
  8
1
100
AcDbText
 10
-15.65345869711215
 20
23.75
 30
0.0
 40
3.0
  1
XXXXX
 41
0.8
  7
SANINDUSA
 72
     4
 11
-10.0
 21
25.25
 31
0.0
100
AcDbAttributeDefinition
  3
Folha:
  2
FOLHA
 70
     0
  0
ATTDEF
  5
BAB
330
B9E
100
AcDbEntity
  8
1
100
AcDbText
 10
-178.5146998822042
 20
56.9531347542807
 30
0.0
 40
2.0
  1
xx
 41
0.8
  7
SANINDUSA
 72
     4
 11
-177.2123493113513
 21
57.70330265219877
 31
0.0
100
AcDbAttributeDefinition
  3
revisão
  2
REV.
 70
     0
  0
ATTDEF
  5
BAC
330
B9E
100
AcDbEntity
  8
1
100
AcDbText
 10
-172.7849640077129
 20
56.9531347542807
 30
0.0
 40
2.0
  1
xx
 41
0.8
  7
SANINDUSA
 72
     4
 11
-171.48261343686
 21
57.70330265219877
 31
0.0
100
AcDbAttributeDefinition
  3
alteração
  2
ALT.
 70
     0
  0
ATTDEF
  5
BAD
330
B9E
100
AcDbEntity
  8
1
100
AcDbText
 10
-168.007199951307
 20
56.70330265219877
 30
0.0
 40
2.0
  1
xx/xx/xxxx
 41
0.8
  7
SANINDUSA
 11
-168.007199951307
 21
57.70330265219877
 31
0.0
100
AcDbAttributeDefinition
  3
data
  2
DATA
 70
     0
 74
     2
  0
ATTDEF
  5
BAE
330
B9E
100
AcDbEntity
  8
1
100
AcDbText
 10
-168.5396372253371
 20
13.15916722632639
 30
0.0
 40
2.0
  1
XX/XX/XXXX
 41
0.8
  7
SANINDUSA
 72
     4
 11
-161.5099528734231
 21
14.0
 31
0.0
100
AcDbAttributeDefinition
  3
Data projecto
  2
DATA_PROJ
 70
     0
  0
ATTDEF
  5
BAF
330
B9E
100
AcDbEntity
  8
1
100
AcDbText
 10
-150.8658110728766
 20
13.24983210208193
 30
0.0
 40
2.0
  1
xxxxxxxx
 41
0.8
  7
SANINDUSA
 72
     4
 11
-145.6564087894649
 21
14.0
 31
0.0
100
AcDbAttributeDefinition
  3
nome de quem projectou
  2
NOME
 70
     0
  0
ATTDEF
  5
BB0
330
B9E
100
AcDbEntity
  8
1
100
AcDbText
 10
-168.5396372253371
 20
9.159167226326394
 30
0.0
 40
2.0
  1
XX/XX/XXXX
 41
0.8
  7
SANINDUSA
 72
     4
 11
-161.5099528734231
 21
10.0
 31
0.0
100
AcDbAttributeDefinition
  3
Data desenhou
  2
DATA_DES
 70
     0
  0
ATTDEF
  5
BB1
330
B9E
100
AcDbEntity
  8
1
100
AcDbText
 10
-151.516986358303
 20
9.249832102081933
 30
0.0
 40
2.0
  1
xxxxxxxxx
 41
0.8
  7
SANINDUSA
 72
     4
 11
-145.6564087894649
 21
10.0
 31
0.0
100
AcDbAttributeDefinition
  3
nome
  2
NOME
 70
     0
  0
ATTDEF
  5
BB2
330
B9E
100
AcDbEntity
  8
1
100
AcDbText
 10
-127.2924214135946
 20
14.1979876583216
 30
0.0
 40
2.0
  1
Vitreous China
 41
0.8
  7
SANINDUSA
 72
     4
 11
-119.231709526422
 21
15.22216495852308
 31
0.0
100
AcDbAttributeDefinition
  3
Nome do Material:
  2
MATERIAL
 70
     0
  0
ATTDEF
  5
BB3
330
B9E
100
AcDbEntity
  8
1
100
AcDbText
 10
-103.1563452122093
 20
14.38019043949261
 30
0.0
 40
2.0
  1
Branco
 41
0.8
  7
SANINDUSA
 72
     4
 11
-99.33418268702462
 21
15.35937109765245
 31
0.0
100
AcDbAttributeDefinition
  3
cor da peça
  2
COR
 70
     0
  0
ATTDEF
  5
BB4
330
B9E
100
AcDbEntity
  8
1
100
AcDbText
 10
-116.7235057085292
 20
5.975822699798522
 30
0.0
 40
2.0
  1
Vidrado
 41
0.8
  7
SANINDUSA
 72
     4
 11
-112.5
 21
7.0
 31
0.0
100
AcDbAttributeDefinition
  3
Tipo de acabamento:
  2
ACABAMENTO
 70
     0
  0
ATTDEF
  5
BB5
330
B9E
100
AcDbEntity
  8
1
100
AcDbText
 10
-79.18527869967246
 20
16.65066409850533
 30
0.0
 40
2.0
  1
XXXXXXX
 41
0.8
  7
SANINDUSA
 72
     4
 11
-73.90871724903445
 21
17.65066409850533
 31
0.0
100
AcDbAttributeDefinition
  3
Normas
  2
NORMAS
 70
     0
  0
ATTDEF
  5
BB6
330
B9E
100
AcDbEntity
  8
1
100
AcDbText
 10
-30.55312290127603
 20
14.0
 30
0.0
 40
2.0
  1
XXXXXXXXXXXXXX
 41
0.8
  7
SANINDUSA
 72
     4
 11
-20.0
 21
15.0
 31
0.0
100
AcDbAttributeDefinition
  3
Substitui o desenho:
  2
SUBSTITUI
 70
     0
  0
ATTDEF
  5
BB7
330
B9E
100
AcDbEntity
  8
1
100
AcDbText
 10
-31.30691739422431
 20
6.0
 30
0.0
 40
2.0
  1
XXXXXXXXXXXXXXX
 41
0.8
  7
SANINDUSA
 72
     4
 11
-20.0
 21
7.0
 31
0.0
100
AcDbAttributeDefinition
  3
Substituido por:
  2
SUBSTITUIDO
 70
     0
  0
ATTDEF
  5
BB8
330
B9E
100
AcDbEntity
  8
1
100
AcDbText
 10
-110.0220608548302
 20
1.478208457928303
 30
0.0
 40
2.0
  1
XXXXXXXXXXXXXXXXXXXXXXXXXXXXXXXXXX
 41
0.8
  7
SANINDUSA
 11
-110.0220608548302
 21
2.478208457928303
 31
0.0
100
AcDbAttributeDefinition
  3
Localização do desenho:
  2
LOC-DWG
 70
     0
 74
     2
  0
LINE
  5
BB9
330
B9E
100
AcDbEntity
  8
3
100
AcDbLine
 10
-135.0
 20
4.0
 30
0.0
 11
0.0000000000004547
 21
4.0
 31
0.0
  0
LINE
  5
BBA
330
B9E
100
AcDbEntity
  8
3
100
AcDbLine
 10
-90.00000000000046
 20
12.0
 30
0.0
 11
-135.0
 21
12.0
 31
0.0
  0
LINE
  5
BBB
330
B9E
100
AcDbEntity
  8
3
100
AcDbLine
 10
-135.0
 20
32.5
 30
0.0
 11
-40.0
 21
32.5
 31
0.0
  0
TEXT
  5
BBC
330
B9E
100
AcDbEntity
  8
1
100
AcDbText
 10
-134.0
 20
1.25
 30
0.0
 40
2.0
  1
Localização do des.:
 41
0.8
  7
SANINDUSA
 11
-134.0
 21
2.25
 31
0.0
100
AcDbText
 73
     2
  0
LINE
  5
BBD
330
B9E
100
AcDbEntity
  8
3
100
AcDbLine
 10
-180.0
 20
65.0
 30
0.0
 11
0.0
 21
65.0
 31
0.0
  0
LINE
  5
BBE
330
B9E
100
AcDbEntity
  8
leg fin
100
AcDbLine
 10
-40.0
 20
25.05956924886846
 30
0.0
 11
-135.0
 21
25.05956924886846
 31
0.0
  0
LINE
  5
BBF
330
B9E
100
AcDbEntity
  8
leg fin
100
AcDbLine
 10
-40.0
 20
28.5
 30
0.0
 11
-135.0
 21
28.5
 31
0.0
  0
LINE
  5
BC0
330
B9E
100
AcDbEntity
  8
3
100
AcDbLine
 10
-135.0
 20
50.0
 30
0.0
 11
-40.0
 21
50.0
 31
0.0
  0
TEXT
  5
BC1
330
B9E
100
AcDbEntity
  8
1
100
AcDbText
 10
-134.0
 20
29.75
 30
0.0
 40
2.0
  1
Desenho nº:
 41
0.8
  7
SANINDUSA
 11
-134.0
 21
30.75
 31
0.0
100
AcDbText
 73
     2
  0
TEXT
  5
BC2
330
B9E
100
AcDbEntity
  8
1
100
AcDbText
 10
-134.0
 20
9.25
 30
0.0
 40
2.0
  1
Acabamento:
 41
0.8
  7
SANINDUSA
 11
-134.0
 21
10.25
 31
0.0
100
AcDbText
 73
     2
  0
LINE
  5
BC3
330
B9E
100
AcDbEntity
  8
3
100
AcDbLine
 10
-180.0
 20
20.0
 30
0.0
 11
0.0
 21
20.0
 31
0.0
  0
LINE
  5
BC4
330
B9E
100
AcDbEntity
  8
1
100
AcDbLine
 10
-174.5810776056337
 20
55.5
 30
0.0
 11
-174.5810776056337
 21
65.0
 31
0.0
  0
LINE
  5
BC5
330
B9E
100
AcDbEntity
  8
1
100
AcDbLine
 10
-168.9210461879161
 20
55.5
 30
0.0
 11
-168.9210461879161
 21
65.0
 31
0.0
  0
LINE
  5
BC6
330
B9E
100
AcDbEntity
  8
1
100
AcDbLine
 10
-154.0988595589306
 20
55.5
 30
0.0
 11
-154.0988595589306
 21
65.0
 31
0.0
  0
LINE
  5
BC7
330
B9E
100
AcDbEntity
  8
3
100
AcDbLine
 10
-180.0
 20
65.0
 30
0.0
 11
-180.0
 21
0.0
 31
0.0
  0
LINE
  5
BC8
330
B9E
100
AcDbEntity
  8
3
100
AcDbLine
 10
-135.0
 20
0.0
 30
0.0
 11
-135.0
 21
65.0
 31
0.0
  0
TEXT
  5
BC9
330
B9E
100
AcDbEntity
  8
1
100
AcDbText
 10
-179.0
 20
9.75
 30
0.0
 40
1.5
  1
Des.
 41
0.8
  7
SANINDUSA
 11
-179.0
 21
10.5
 31
0.0
100
AcDbText
 73
     2
  0
LINE
  5
BCA
330
B9E
100
AcDbEntity
  8
1
100
AcDbLine
 10
-168.9210461879161
 20
20.0
 30
0.0
 11
-168.9210461879161
 21
0.0
 31
0.0
  0
LINE
  5
BCB
330
B9E
100
AcDbEntity
  8
1
100
AcDbLine
 10
-154.0988595589306
 20
20.0
 30
0.0
 11
-154.0988595589306
 21
0.0
 31
0.0
  0
LINE
  5
BCC
330
B9E
100
AcDbEntity
  8
1
100
AcDbLine
 10
-180.0
 20
4.0
 30
0.0
 11
-135.0
 21
4.0
 31
0.0
  0
LINE
  5
BCD
330
B9E
100
AcDbEntity
  8
1
100
AcDbLine
 10
-180.0
 20
8.0
 30
0.0
 11
-135.0
 21
8.0
 31
0.0
  0
TEXT
  5
BCE
330
B9E
100
AcDbEntity
  8
1
100
AcDbText
 10
-179.0
 20
1.73257823687436
 30
0.0
 40
1.5
  1
Aprov.
 41
0.8
  7
SANINDUSA
 11
-179.0
 21
2.48257823687436
 31
0.0
100
AcDbText
 73
     2
  0
TEXT
  5
BCF
330
B9E
100
AcDbEntity
  8
1
100
AcDbText
 10
-179.0
 20
5.75
 30
0.0
 40
1.5
  1
Ver.
 41
0.8
  7
SANINDUSA
 11
-179.0
 21
6.5
 31
0.0
100
AcDbText
 73
     2
  0
LINE
  5
BD0
330
B9E
100
AcDbEntity
  8
1
100
AcDbLine
 10
-180.0
 20
16.0
 30
0.0
 11
-135.0
 21
16.0
 31
0.0
  0
LINE
  5
BD1
330
B9E
100
AcDbEntity
  8
1
100
AcDbLine
 10
-180.0
 20
12.0
 30
0.0
 11
-135.0
 21
12.0
 31
0.0
  0
TEXT
  5
BD2
330
B9E
100
AcDbEntity
  8
1
100
AcDbText
 10
-179.0
 20
13.75
 30
0.0
 40
1.5
  1
Proj.
 41
0.8
  7
SANINDUSA
 11
-179.0
 21
14.5
 31
0.0
100
AcDbText
 73
     2
  0
TEXT
  5
BD3
330
B9E
100
AcDbEntity
  8
1
100
AcDbText
 10
-167.9210461879161
 20
17.75
 30
0.0
 40
1.5
  1
Data
 41
0.8
  7
SANINDUSA
 11
-167.9210461879161
 21
18.5
 31
0.0
100
AcDbText
 73
     2
  0
TEXT
  5
BD4
330
B9E
100
AcDbEntity
  8
1
100
AcDbText
 10
-153.0988595589306
 20
17.75
 30
0.0
 40
1.5
  1
Nome
 41
0.8
  7
SANINDUSA
 11
-153.0988595589306
 21
18.5
 31
0.0
100
AcDbText
 73
     2
  0
LINE
  5
BD5
330
B9E
100
AcDbEntity
  8
leg fin
100
AcDbLine
 10
-130.0
 20
20.0
 30
0.0
 11
-130.0
 21
28.5
 31
0.0
  0
TEXT
  5
BD6
330
B9E
100
AcDbEntity
  8
1
100
AcDbText
 10
-134.0
 20
17.25
 30
0.0
 40
2.0
  1
Material:
 41
0.8
  7
SANINDUSA
 11
-134.0
 21
18.25
 31
0.0
100
AcDbText
 73
     2
  0
TEXT
  5
BD7
330
B9E
100
AcDbEntity
  8
1
100
AcDbText
 10
-129.0
 20
26.43288406845113
 30
0.0
 40
1.5
  1
Ano:
 41
0.8
  7
SANINDUSA
 11
-129.0
 21
27.18288406845113
 31
0.0
100
AcDbText
 73
     2
  0
LINE
  5
BD8
330
B9E
100
AcDbEntity
  8
1
100
AcDbLine
 10
-180.0
 20
55.5
 30
0.0
 11
-135.0
 21
55.5
 31
0.0
  0
TEXT
  5
BD9
330
B9E
100
AcDbEntity
  8
1
100
AcDbText
 10
-179.0
 20
52.67772246885193
 30
0.0
 40
1.5
  1
descrição
 41
0.8
  7
SANINDUSA
 11
-179.0
 21
53.42772246885193
 31
0.0
100
AcDbText
 73
     2
  0
TEXT
  5
BDA
330
B9E
100
AcDbEntity
  8
1
100
AcDbText
 10
-134.0
 20
47.25
 30
0.0
 40
2.0
  1
Peça:
 41
0.8
  7
SANINDUSA
 11
-134.0
 21
48.25
 31
0.0
100
AcDbText
 73
     2
  0
LINE
  5
BDB
330
B9E
100
AcDbEntity
  8
1
100
AcDbLine
 10
-180.0
 20
59.5
 30
0.0
 11
-135.0
 21
59.5
 31
0.0
  0
TEXT
  5
BDC
330
B9E
100
AcDbEntity
  8
1
100
AcDbText
 10
-173.5810776056337
 20
62.75
 30
0.0
 40
1.5
  1
Alt.
 41
0.8
  7
SANINDUSA
 11
-173.5810776056337
 21
63.5
 31
0.0
100
AcDbText
 73
     2
  0
TEXT
  5
BDD
330
B9E
100
AcDbEntity
  8
1
100
AcDbText
 10
-179.0
 20
62.75
 30
0.0
 40
1.5
  1
Rev.
 41
0.8
  7
SANINDUSA
 11
-179.0
 21
63.5
 31
0.0
100
AcDbText
 73
     2
  0
TEXT
  5
BDE
330
B9E
100
AcDbEntity
  8
1
100
AcDbText
 10
-167.9210461879161
 20
62.75
 30
0.0
 40
1.5
  1
Data
 41
0.8
  7
SANINDUSA
 11
-167.9210461879161
 21
63.5
 31
0.0
100
AcDbText
 73
     2
  0
TEXT
  5
BDF
330
B9E
100
AcDbEntity
  8
1
100
AcDbText
 10
-153.0988595589306
 20
62.75
 30
0.0
 40
1.5
  1
Nome
 41
0.8
  7
SANINDUSA
 11
-153.0988595589306
 21
63.5
 31
0.0
100
AcDbText
 73
     2
  0
TEXT
  5
BE0
330
B9E
100
AcDbEntity
  8
1
100
AcDbText
 10
-134.0
 20
62.25
 30
0.0
 40
2.0
  1
Produto:
 41
0.8
  7
SANINDUSA
 11
-134.0
 21
63.25
 31
0.0
100
AcDbText
 73
     2
  0
LINE
  5
BE1
330
B9E
100
AcDbEntity
  8
3
100
AcDbLine
 10
-40.0
 20
4.0
 30
0.0
 11
-40.0
 21
65.0
 31
0.0
  0
LWPOLYLINE
  5
BE2
102
{ACAD_REACTORS
330
BEC
102
}
330
B9E
100
AcDbEntity
  8
9
100
AcDbPolyline
 90
       12
 70
     1
 43
0.0
 10
-3.038714600644652
 20
58.90010174665076
 10
-5.726962862472191
 20
58.90010174665076
 10
-5.726962862472191
 20
58.5001017466509
 10
-3.038748516195028
 20
58.5001017466509
 42
-0.4142135623731731
 10
-2.638748516194482
 20
58.1001017466508
 10
-2.638748516194482
 20
57.42799728675596
 10
-5.21497371544865
 20
57.42799728675596
 42
0.4142135623731289
 10
-6.014973715448377
 20
56.627997286756
 10
-6.014973715448377
 20
55.92380871629643
 42
0.4142135623731132
 10
-5.21497371544865
 20
55.12380871629648
 10
-2.23871460064447
 20
55.12380871629648
 10
-2.23871460064447
 20
58.10010174665103
 42
0.4142135623730717
  0
LWPOLYLINE
  5
BE3
102
{ACAD_REACTORS
330
BEC
102
}
330
B9E
100
AcDbEntity
  8
9
100
AcDbPolyline
 90
       20
 70
     1
 43
0.0
 10
-10.01531287095122
 20
57.82799728675581
 10
-10.01531287095122
 20
58.10010174665103
 42
-0.4142135623730744
 10
-9.615312870951584
 20
58.5001017466509
 10
-6.92703069357276
 20
58.5001017466509
 10
-6.92703069357276
 20
58.90010174665076
 10
-9.615346786501959
 20
58.90010174665076
 42
0.4142135623730883
 10
-10.41534678650168
 20
58.1001017466508
 10
-10.41534678650168
 20
57.82796337120567
 42
0.4142135623730717
 10
-9.615346786501959
 20
57.02796337120571
 10
-7.423079531965413
 20
57.02796337120571
 42
-0.4142135623730847
 10
-7.023079531965322
 20
56.62796337120562
 10
-7.023079531965322
 20
55.90786840766487
 42
-0.4142135623730744
 10
-7.423079531965413
 20
55.507868407665
 10
-10.41534678650168
 20
55.507868407665
 10
-10.41534678650168
 20
55.12380871629648
 10
-7.445787917283723
 20
55.12380871629648
 42
0.4114777732064574
 10
-6.645822882998345
 20
55.9163291493976
 10
-6.639238813324936
 20
56.62051771985716
 42
0.4169546541682913
 10
-7.439203847610315
 20
57.42799728675596
 10
-9.615312870951584
 20
57.42799728675596
 42
-0.4142135623731576
  0
LWPOLYLINE
  5
BE4
102
{ACAD_REACTORS
330
BEC
102
}
330
B9E
100
AcDbEntity
  8
9
100
AcDbPolyline
 90
       12
 70
     1
 43
0.0
 10
-14.41561811090378
 20
58.90010174665076
 10
-14.79964388672215
 20
58.90010174665076
 10
-14.79964388672215
 20
55.92380871629643
 42
0.4142135623731133
 10
-13.99964388672242
 20
55.12380871629648
 10
-11.8233508563676
 20
55.12380871629648
 42
0.4142135623730872
 10
-11.02335085636741
 20
55.92380871629643
 10
-11.02335085636741
 20
58.90010174665076
 10
-11.42338477191788
 20
58.90010174665076
 10
-11.42338477191788
 20
55.91567577726095
 42
-0.4131711701795318
 10
-11.82196067063523
 20
55.51567831234956
 10
-14.0141940096214
 20
55.50787335710947
 42
-0.4152567234624407
 10
-14.41561811090378
 20
55.90787082202087
  0
LWPOLYLINE
  5
BE5
102
{ACAD_REACTORS
330
BEC
102
}
330
B9E
100
AcDbEntity
  8
9
100
AcDbPolyline
 90
        6
 70
     1
 43
0.0
 10
-15.80771578768872
 20
55.507868407665
 10
-18.39994912667453
 20
55.507868407665
 42
-0.4142135623731731
 10
-18.79994912667462
 20
55.90786840766487
 10
-18.79994912667462
 20
58.10010174665103
 42
-0.4142135623730744
 10
-18.39994912667453
 20
58.5001017466509
 10
-15.80771578768872
 20
58.5001017466509
  0
LWPOLYLINE
  5
BE6
102
{ACAD_REACTORS
330
BEC
102
}
330
B9E
100
AcDbEntity
  8
9
100
AcDbPolyline
 90
        8
 70
     1
 43
0.0
 10
-15.4236900118708
 20
59.87619128370352
 10
-15.80771578768872
 20
59.87619128370352
 10
-15.80771578768872
 20
58.90010174665076
 10
-18.39176256411201
 20
58.90010174665076
 42
0.4131164467977967
 10
-19.19175694739761
 20
58.1030995310698
 10
-19.1999120763262
 20
55.92680650071542
 42
0.4153115297271718
 10
-18.39991769304061
 20
55.12380871629648
 10
-15.4236900118708
 20
55.12380871629648
  0
LWPOLYLINE
  5
BE7
102
{ACAD_REACTORS
330
BEC
102
}
330
B9E
100
AcDbEntity
  8
9
100
AcDbPolyline
 90
       10
 70
     1
 43
0.0
 10
-20.59201288790928
 20
58.90010174665076
 10
-23.56830591826338
 20
58.90010174665076
 10
-23.56830591826338
 20
55.12380871629648
 10
-23.18424622689509
 20
55.12380871629648
 10
-23.18424622689509
 20
58.5001017466509
 10
-20.59204680345965
 20
58.5001017466509
 42
-0.4142135623730898
 10
-20.19204680345956
 20
58.1001017466508
 10
-20.19204680345956
 20
55.12380871629648
 10
-19.79201288790909
 20
55.12380871629648
 10
-19.79201288790909
 20
58.10010174665103
 42
0.4142135623731132
  0
LWPOLYLINE
  5
BE8
102
{ACAD_REACTORS
330
BEC
102
}
330
B9E
100
AcDbEntity
  8
9
100
AcDbPolyline
 90
        4
 70
     1
 43
0.0
 10
-24.19231812786165
 20
58.90010174665076
 10
-24.57637781922995
 20
58.90010174665076
 10
-24.57637781922995
 20
55.12380871629648
 10
-24.19231812786165
 20
55.12380871629648
  0
LWPOLYLINE
  5
BE9
102
{ACAD_REACTORS
330
BEC
102
}
330
B9E
100
AcDbEntity
  8
9
100
AcDbPolyline
 90
       10
 70
     1
 43
0.0
 10
-28.57661522808212
 20
58.5001017466509
 10
-25.98444972019706
 20
58.5001017466509
 42
-0.4142135623731731
 10
-25.58444972019652
 20
58.1001017466508
 10
-25.58444972019652
 20
55.12380871629648
 10
-25.2004239443786
 20
55.12380871629648
 10
-25.2004239443786
 20
58.10010174665103
 42
0.4142135623730717
 10
-26.00042394437833
 20
58.90010174665076
 10
-28.97664914363259
 20
58.90010174665076
 10
-28.97664914363259
 20
55.12380871629648
 10
-28.57661522808212
 20
55.12380871629648
  0
LWPOLYLINE
  5
BEA
102
{ACAD_REACTORS
330
BEC
102
}
330
B9E
100
AcDbEntity
  8
9
100
AcDbPolyline
 90
       12
 70
     1
 43
0.0
 10
-29.58465321349832
 20
58.10010174665103
 42
0.4142135623730716
 10
-30.3846532134985
 20
58.90010174665076
 10
-33.07296930642724
 20
58.90010174665076
 10
-33.07296930642724
 20
58.5001017466509
 10
-30.38468712904842
 20
58.5001017466509
 42
-0.4142135623730067
 10
-29.98468712904878
 20
58.1001017466508
 10
-29.98468712904878
 20
57.42799728675618
 10
-32.56098015940324
 20
57.42799728675596
 42
0.4142135623731289
 10
-33.36098015940343
 20
56.627997286756
 10
-33.36098015940343
 20
55.92380871629643
 42
0.4142135623731132
 10
-32.56098015940324
 20
55.12380871629648
 10
-29.58465321349832
 20
55.12380871629648
  0
LWPOLYLINE
  5
BEB
102
{ACAD_REACTORS
330
BEC
102
}
330
B9E
100
AcDbEntity
  8
9
100
AcDbPolyline
 90
       20
 70
     1
 43
0.0
 10
-34.7850262845518
 20
57.42799728675596
 10
-36.96125148380543
 20
57.42799728675596
 42
-0.4142135623730898
 10
-37.36125148380552
 20
57.82799728675604
 10
-37.36125148380552
 20
58.10010174665103
 42
-0.4142135623730744
 10
-36.96125148380543
 20
58.5001017466509
 10
-34.27303713752781
 20
58.50010174665067
 10
-34.27303713752781
 20
58.90010174665076
 10
-36.96128539935535
 20
58.90010174665076
 42
0.4142135623731289
 10
-37.76128539935553
 20
58.1001017466508
 10
-37.76128539935553
 20
57.82796337120567
 42
0.4142135623730716
 10
-36.9612853993558
 20
57.02796337120571
 10
-34.76901814481926
 20
57.02796337120571
 42
-0.414213562373168
 10
-34.36901814481962
 20
56.62796337120562
 10
-34.36901814481962
 20
55.90786840766487
 42
-0.4142135623730744
 10
-34.76901814481926
 20
55.507868407665
 10
-37.76128539935553
 20
55.507868407665
 10
-37.76128539935553
 20
55.12380871629648
 10
-34.7850262845518
 20
55.12380871629648
 42
0.4142135623731289
 10
-33.98502628455162
 20
55.92380871629643
 10
-33.98502628455162
 20
56.627997286756
 42
0.4142135623731132
  0
HATCH
  5
BEC
330
B9E
100
AcDbEntity
  8
9
100
AcDbHatch
 10
0.0
 20
0.0
 30
0.0
210
0.0
220
0.0
230
1.0
  2
SOLID
 70
     1
 71
     1
 91
       13
 92
        7
 72
     1
 73
     1
 93
       20
 10
-34.36901814481962
 20
55.90786840766487
 42
-0.414213562372991
 10
-34.76901814481926
 20
55.507868407665
 42
0.0
 10
-37.76128539935553
 20
55.507868407665
 42
0.0
 10
-37.76128539935553
 20
55.12380871629648
 42
0.0
 10
-34.7850262845518
 20
55.12380871629648
 42
0.4142135623731705
 10
-33.98502628455162
 20
55.92380871629666
 42
0.0
 10
-33.98502628455162
 20
56.627997286756
 42
0.4142135623731547
 10
-34.7850262845518
 20
57.42799728675596
 42
0.0
 10
-36.96125148380543
 20
57.42799728675596
 42
-0.4142135623730898
 10
-37.36125148380552
 20
57.82799728675604
 42
0.0
 10
-37.36125148380552
 20
58.1001017466508
 42
-0.4142135623731575
 10
-36.96125148380543
 20
58.5001017466509
 42
0.0
 10
-34.27303713752781
 20
58.50010174665067
 42
0.0
 10
-34.27303713752781
 20
58.90010174665076
 42
0.0
 10
-36.96128539935535
 20
58.90010174665076
 42
0.4142135623731705
 10
-37.76128539935553
 20
58.10010174665058
 42
0.0
 10
-37.76128539935553
 20
57.82796337120544
 42
0.4142135623730299
 10
-36.9612853993558
 20
57.02796337120571
 42
0.0
 10
-34.76901814481926
 20
57.02796337120571
 42
-0.4142135623730015
 10
-34.36901814481962
 20
56.62796337120608
 42
0.0
 97
        1
330
BEB
 92
        7
 72
     1
 73
     1
 93
       12
 10
-33.36098015940343
 20
55.92380871629666
 42
0.4142135623731547
 10
-32.56098015940324
 20
55.12380871629648
 42
0.0
 10
-29.58465321349877
 20
55.12380871629648
 42
0.0
 10
-29.58465321349832
 20
58.10010174665058
 42
0.4142135623731964
 10
-30.3846532134985
 20
58.90010174665076
 42
0.0
 10
-33.07296930642724
 20
58.90010174665076
 42
0.0
 10
-33.07296930642724
 20
58.50010174665067
 42
0.0
 10
-30.38468712904887
 20
58.5001017466509
 42
-0.4142135623732564
 10
-29.98468712904878
 20
58.10010174665103
 42
0.0
 10
-29.98468712904923
 20
57.42799728675596
 42
0.0
 10
-32.56098015940324
 20
57.42799728675596
 42
0.4142135623731705
 10
-33.36098015940343
 20
56.627997286756
 42
0.0
 97
        1
330
BEA
 92
       22
 72
     1
 73
     1
 93
        6
 10
-32.97692046803468
 20
56.62796337120562
 42
-0.4142135623731576
 10
-32.57692046803459
 20
57.02796337120571
 42
0.0
 10
-29.98468712904878
 20
57.02796337120571
 42
0.0
 10
-29.98468712904878
 20
55.507868407665
 42
0.0
 10
-32.57692046803459
 20
55.507868407665
 42
-0.4142135623731731
 10
-32.97692046803468
 20
55.90786840766487
 42
0.0
 97
        1
330
C11
 92
        7
 72
     1
 73
     1
 93
       10
 10
-28.57661522808212
 20
58.5001017466509
 42
0.0
 10
-25.98444972019661
 20
58.5001017466509
 42
-0.4142135623730067
 10
-25.58444972019652
 20
58.10010174665058
 42
0.0
 10
-25.58444972019606
 20
55.12380871629648
 42
0.0
 10
-25.20042394437906
 20
55.12380871629648
 42
0.0
 10
-25.2004239443786
 20
58.1001017466508
 42
0.4142135623731134
 10
-26.00042394437833
 20
58.90010174665076
 42
0.0
 10
-28.97664914363259
 20
58.90010174665076
 42
0.0
 10
-28.97664914363259
 20
55.12380871629648
 42
0.0
 10
-28.57661522808212
 20
55.12380871629648
 42
0.0
 97
        1
330
BE9
 92
        7
 72
     0
 73
     1
 93
        4
 10
-24.57637781922995
 20
55.12380871629648
 10
-24.19231812786165
 20
55.12380871629648
 10
-24.19231812786165
 20
58.90010174665076
 10
-24.57637781922995
 20
58.90010174665076
 97
        1
330
BE8
 92
        7
 72
     0
 73
     1
 93
        4
 10
-24.19231812786165
 20
59.87619128370352
 10
-24.5763778192304
 20
59.87619128370352
 10
-24.5763778192304
 20
59.28412752246913
 10
-24.1923181278612
 20
59.28412752246913
 97
        1
330
C12
 92
        7
 72
     1
 73
     1
 93
       10
 10
-23.18424622689509
 20
58.5001017466509
 42
0.0
 10
-20.59204680345965
 20
58.5001017466509
 42
-0.4142135623730898
 10
-20.19204680345956
 20
58.1001017466508
 42
0.0
 10
-20.19204680345956
 20
55.12380871629648
 42
0.0
 10
-19.79201288790909
 20
55.12380871629648
 42
0.0
 10
-19.79201288790909
 20
58.1001017466508
 42
0.4142135623731547
 10
-20.59201288790928
 20
58.90010174665076
 42
0.0
 10
-23.56830591826338
 20
58.90010174665076
 42
0.0
 10
-23.56830591826338
 20
55.12380871629648
 42
0.0
 10
-23.18424622689463
 20
55.12380871629648
 42
0.0
 97
        1
330
BE7
 92
        7
 72
     1
 73
     1
 93
        8
 10
-19.1999120763262
 20
55.92680650071542
 42
0.4153115297271299
 10
-18.39991769304061
 20
55.12380871629648
 42
0.0
 10
-15.4236900118708
 20
55.12380871629648
 42
0.0
 10
-15.4236900118708
 20
59.87619128370352
 42
0.0
 10
-15.80771578768872
 20
59.87619128370352
 42
0.0
 10
-15.80771578768872
 20
58.90010174665076
 42
0.0
 10
-18.39176256411201
 20
58.90010174665076
 42
0.4131164467977965
 10
-19.19175694739761
 20
58.1030995310698
 42
0.0
 97
        1
330
BE6
 92
       22
 72
     1
 73
     1
 93
        6
 10
-18.79994912667462
 20
58.1001017466508
 42
-0.4142135623731575
 10
-18.39994912667453
 20
58.5001017466509
 42
0.0
 10
-15.80771578768872
 20
58.50010174665067
 42
0.0
 10
-15.80771578768827
 20
55.507868407665
 42
0.0
 10
-18.39994912667453
 20
55.507868407665
 42
-0.4142135623731731
 10
-18.79994912667462
 20
55.90786840766487
 42
0.0
 97
        1
330
BE5
 92
        7
 72
     1
 73
     1
 93
       12
 10
-14.79964388672215
 20
55.92380871629621
 42
0.4142135623729885
 10
-13.99964388672242
 20
55.12380871629648
 42
0.0
 10
-11.8233508563676
 20
55.12380871629648
 42
0.4142135623731289
 10
-11.02335085636741
 20
55.92380871629666
 42
0.0
 10
-11.02335085636741
 20
58.90010174665076
 42
0.0
 10
-11.42338477191788
 20
58.90010174665076
 42
0.0
 10
-11.42338477191788
 20
55.91567577726095
 42
-0.4131711701795319
 10
-11.82196067063523
 20
55.51567831234956
 42
0.0
 10
-14.01419400962095
 20
55.50787335710947
 42
-0.4152567234626918
 10
-14.41561811090378
 20
55.90787082202087
 42
0.0
 10
-14.41561811090378
 20
58.90010174665076
 42
0.0
 10
-14.7996438867226
 20
58.90010174665076
 42
0.0
 97
        1
330
BE4
 92
        7
 72
     1
 73
     1
 93
       20
 10
-7.423079531965413
 20
57.02796337120571
 42
-0.414213562373168
 10
-7.023079531965322
 20
56.62796337120562
 42
0.0
 10
-7.023079531965322
 20
55.90786840766487
 42
-0.4142135623731575
 10
-7.423079531965413
 20
55.507868407665
 42
0.0
 10
-10.41534678650168
 20
55.507868407665
 42
0.0
 10
-10.41534678650168
 20
55.12380871629648
 42
0.0
 10
-7.445787917283723
 20
55.12380871629648
 42
0.4114777732065809
 10
-6.645822882998345
 20
55.91632914939783
 42
0.0
 10
-6.639238813324936
 20
56.62051771985716
 42
0.4169546541682913
 10
-7.439203847610315
 20
57.42799728675596
 42
0.0
 10
-9.615312870951584
 20
57.42799728675596
 42
-0.4142135623729911
 10
-10.01531287095122
 20
57.82799728675581
 42
0.0
 10
-10.01531287095122
 20
58.10010174665103
 42
-0.414213562372991
 10
-9.615312870951584
 20
58.5001017466509
 42
0.0
 10
-6.92703069357276
 20
58.50010174665067
 42
0.0
 10
-6.927030693572305
 20
58.90010174665076
 42
0.0
 10
-9.615346786501959
 20
58.90010174665076
 42
0.4142135623730467
 10
-10.41534678650168
 20
58.10010174665103
 42
0.0
 10
-10.41534678650168
 20
57.82796337120544
 42
0.4142135623730301
 10
-9.615346786501959
 20
57.02796337120571
 42
0.0
 97
        1
330
BE3
 92
        7
 72
     1
 73
     1
 93
       12
 10
-5.21497371544865
 20
57.42799728675596
 42
0.4142135623730871
 10
-6.014973715448377
 20
56.627997286756
 42
0.0
 10
-6.014973715448377
 20
55.92380871629621
 42
0.4142135623730715
 10
-5.21497371544865
 20
55.12380871629648
 42
0.0
 10
-2.23871460064447
 20
55.12380871629648
 42
0.0
 10
-2.23871460064447
 20
58.10010174665058
 42
0.414213562373155
 10
-3.038714600644652
 20
58.90010174665076
 42
0.0
 10
-5.726962862471737
 20
58.90010174665076
 42
0.0
 10
-5.726962862472191
 20
58.5001017466509
 42
0.0
 10
-3.038748516194573
 20
58.5001017466509
 42
-0.4142135623730067
 10
-2.638748516194482
 20
58.10010174665058
 42
0.0
 10
-2.638748516194482
 20
57.42799728675596
 42
0.0
 97
        1
330
BE2
 92
       22
 72
     1
 73
     1
 93
        6
 10
-2.638748516194937
 20
57.02796337120571
 42
0.0
 10
-2.638748516194482
 20
55.50786840766477
 42
0.0
 10
-5.21497371544865
 20
55.507868407665
 42
-0.4142135623731731
 10
-5.614973715448741
 20
55.90786840766509
 42
0.0
 10
-5.614973715448741
 20
56.62796337120562
 42
-0.4142135623731576
 10
-5.21497371544865
 20
57.02796337120571
 42
0.0
 97
        1
330
C0D
 75
     0
 76
     1
 47
0.0407044778999864
 98
       13
 10
-34.18710075113677
 20
56.16907953933765
 10
-33.12851374392494
 20
56.49471602641233
 10
-33.12851374392494
 20
56.49471602641233
 10
-28.77202873835904
 20
57.51232930166111
 10
-24.41554807250941
 20
57.91937341678636
 10
-24.41554807250941
 20
59.384734621186
 10
-23.31624584658039
 20
58.3264175319116
 10
-19.04119127844888
 20
57.75655517324913
 10
-19.04119127844888
 20
57.75655517324913
 10
-14.64399105416578
 20
57.43091868617466
 10
-8.048195057457178
 20
57.22739662861204
 10
-4.017427461911665
 20
57.18669281458665
 10
-4.017427461911665
 20
57.18669281458665
  0
TEXT
  5
BED
330
B9E
100
AcDbEntity
  8
leg fin
100
AcDbText
 10
3.391127401597259
 20
2.107634911895729
 30
0.0
 40
1.5
  1
Este desenho é propriedade da Sanindusa, S.A., e não pode ser copiado nem divulgado sem nossa autorização.
 50
90.0
 41
0.8
  7
SANINDUSA
100
AcDbText
  0
LINE
  5
BEE
330
B9E
100
AcDbEntity
  8
3
100
AcDbLine
 10
-90.0
 20
4.0
 30
0.0
 11
-90.0
 21
12.0
 31
0.0
  0
TEXT
  5
BEF
330
B9E
100
AcDbEntity
  8
1
100
AcDbText
 10
-39.0
 20
9.25
 30
0.0
 40
2.0
  1
Substituido por:
 41
0.8
  7
SANINDUSA
 11
-39.0
 21
10.25
 31
0.0
100
AcDbText
 73
     2
  0
POINT
  5
BF0
330
B9E
100
AcDbEntity
  8
SANINDUSA
100
AcDbPoint
 10
0.0
 20
0.0
 30
0.0
  0
TEXT
  5
BF1
330
B9E
100
AcDbEntity
  8
1
100
AcDbText
 10
-89.0
 20
16.74927010445663
 30
0.0
 40
2.0
  1
Normas:
 41
0.8
  7
SANINDUSA
 11
-89.0
 21
17.74927010445663
 31
0.0
100
AcDbText
 73
     2
  0
LINE
  5
BF2
330
B9E
100
AcDbEntity
  8
3
100
AcDbLine
 10
-90.0
 20
12.0
 30
0.0
 11
-90.0
 21
20.0
 31
0.0
  0
LINE
  5
BF3
330
B9E
100
AcDbEntity
  8
3
100
AcDbLine
 10
-110.546019464768
 20
12.0
 30
0.0
 11
-110.546019464768
 21
20.0
 31
0.0
  0
TEXT
  5
BF4
330
B9E
100
AcDbEntity
  8
1
100
AcDbText
 10
-109.6177520618648
 20
17.25
 30
0.0
 40
2.0
  1
Cor:
 41
0.8
  7
SANINDUSA
 11
-109.6177520618648
 21
18.25
 31
0.0
100
AcDbText
 73
     2
  0
LINE
  5
BF5
330
B9E
100
AcDbEntity
  8
leg fin
100
AcDbLine
 10
-91.42857142857156
 20
20.0
 30
0.0
 11
-91.42857142857156
 21
28.5
 31
0.0
  0
LINE
  5
BF6
330
B9E
100
AcDbEntity
  8
leg fin
100
AcDbLine
 10
-104.2857142857142
 20
20.0
 30
0.0
 11
-104.2857142857142
 21
28.5
 31
0.0
  0
LINE
  5
BF7
330
B9E
100
AcDbEntity
  8
leg fin
100
AcDbLine
 10
-117.1428571428573
 20
20.0
 30
0.0
 11
-117.1428571428573
 21
28.5
 31
0.0
  0
POINT
  5
BF8
330
B9E
100
AcDbEntity
  8
SANINDUSA
100
AcDbPoint
 10
-117.1428571428573
 20
28.5
 30
0.0
  0
POINT
  5
BF9
330
B9E
100
AcDbEntity
  8
SANINDUSA
100
AcDbPoint
 10
-104.2857142857142
 20
28.5
 30
0.0
  0
POINT
  5
BFA
330
B9E
100
AcDbEntity
  8
SANINDUSA
100
AcDbPoint
 10
-91.42857142857156
 20
28.5
 30
0.0
  0
TEXT
  5
BFB
330
B9E
100
AcDbEntity
  8
1
100
AcDbText
 10
-116.200160604496
 20
26.43288406845113
 30
0.0
 40
1.5
  1
Nº Seq.:
 41
0.8
  7
SANINDUSA
 11
-116.200160604496
 21
27.18288406845113
 31
0.0
100
AcDbText
 73
     2
  0
TEXT
  5
BFC
330
B9E
100
AcDbEntity
  8
1
100
AcDbText
 10
-103.2106584078738
 20
26.43288406845113
 30
0.0
 40
1.5
  1
Tipo:
 41
0.8
  7
SANINDUSA
 11
-103.2106584078738
 21
27.18288406845113
 31
0.0
100
AcDbText
 73
     2
  0
TEXT
  5
BFD
330
B9E
100
AcDbEntity
  8
1
100
AcDbText
 10
-90.22114672289353
 20
26.43288406845113
 30
0.0
 40
1.5
  1
Prod.:
 41
0.8
  7
SANINDUSA
 11
-90.22114672289353
 21
27.18288406845113
 31
0.0
100
AcDbText
 73
     2
  0
TEXT
  5
BFE
330
B9E
100
AcDbEntity
  8
1
100
AcDbText
 10
-64.77320576346574
 20
26.43288406845113
 30
0.0
 40
1.5
  1
Rev.:
 41
0.8
  7
SANINDUSA
 11
-64.77320576346574
 21
27.18288406845113
 31
0.0
100
AcDbText
 73
     2
  0
LINE
  5
BFF
330
B9E
100
AcDbEntity
  8
leg fin
100
AcDbLine
 10
-52.85714285714266
 20
20.0
 30
0.0
 11
-52.85714285714266
 21
28.5
 31
0.0
  0
LINE
  5
C00
330
B9E
100
AcDbEntity
  8
leg fin
100
AcDbLine
 10
-65.71428571428578
 20
20.0
 30
0.0
 11
-65.71428571428578
 21
28.5
 31
0.0
  0
LINE
  5
C01
330
B9E
100
AcDbEntity
  8
leg fin
100
AcDbLine
 10
-78.57142857142844
 20
20.0
 30
0.0
 11
-78.57142857142844
 21
28.5
 31
0.0
  0
POINT
  5
C02
330
B9E
100
AcDbEntity
  8
SANINDUSA
100
AcDbPoint
 10
-78.57142857142844
 20
28.5
 30
0.0
  0
POINT
  5
C03
330
B9E
100
AcDbEntity
  8
SANINDUSA
100
AcDbPoint
 10
-65.71428571428578
 20
28.5
 30
0.0
  0
POINT
  5
C04
330
B9E
100
AcDbEntity
  8
SANINDUSA
100
AcDbPoint
 10
-52.85714285714266
 20
28.5
 30
0.0
  0
TEXT
  5
C05
330
B9E
100
AcDbEntity
  8
1
100
AcDbText
 10
-77.61097961686573
 20
26.43288406845113
 30
0.0
 40
1.5
  1
Peça:
 41
0.8
  7
SANINDUSA
 11
-77.61097961686573
 21
27.18288406845113
 31
0.0
100
AcDbText
 73
     2
  0
TEXT
  5
C06
330
B9E
100
AcDbEntity
  8
1
100
AcDbText
 10
-52.06538060077036
 20
26.43288406845113
 30
0.0
 40
1.5
  1
Alt.:
 41
0.8
  7
SANINDUSA
 11
-52.06538060077036
 21
27.18288406845113
 31
0.0
100
AcDbText
 73
     2
  0
LINE
  5
C07
330
B9E
100
AcDbEntity
  8
3
100
AcDbLine
 10
0.0
 20
12.0
 30
0.0
 11
-40.0
 21
12.0
 31
0.0
  0
LINE
  5
C08
330
B9E
100
AcDbEntity
  8
3
100
AcDbLine
 10
-40.0
 20
32.5
 30
0.0
 11
0.0
 21
32.5
 31
0.0
  0
TEXT
  5
C09
330
B9E
100
AcDbEntity
  8
1
100
AcDbText
 10
-19.0
 20
29.75
 30
0.0
 40
2.0
  1
Folha:
 41
0.8
  7
SANINDUSA
 11
-19.0
 21
30.75
 31
0.0
100
AcDbText
 73
     2
  0
LINE
  5
C0A
330
B9E
100
AcDbEntity
  8
3
100
AcDbLine
 10
-20.0
 20
32.5
 30
0.0
 11
-20.0
 21
20.0
 31
0.0
  0
TEXT
  5
C0B
330
B9E
100
AcDbEntity
  8
1
100
AcDbText
 10
-39.0
 20
29.75
 30
0.0
 40
2.0
  1
Escala:
 41
0.8
  7
SANINDUSA
 11
-39.0
 21
30.75
 31
0.0
100
AcDbText
 73
     2
  0
TEXT
  5
C0C
330
B9E
100
AcDbEntity
  8
1
100
AcDbText
 10
-39.0
 20
17.25
 30
0.0
 40
2.0
  1
Substitui:
 41
0.8
  7
SANINDUSA
 11
-39.0
 21
18.25
 31
0.0
100
AcDbText
 73
     2
  0
LWPOLYLINE
  5
C0D
102
{ACAD_REACTORS
330
BEC
102
}
330
B9E
100
AcDbEntity
  8
9
100
AcDbPolyline
 90
        6
 70
     1
 43
0.0
 10
-2.638748516194482
 20
57.02796337120571
 10
-2.638748516194482
 20
55.50786840766477
 10
-5.21497371544865
 20
55.507868407665
 42
-0.4142135623730898
 10
-5.614973715448741
 20
55.90786840766487
 10
-5.614973715448741
 20
56.62796337120562
 42
-0.4142135623731576
 10
-5.21497371544865
 20
57.02796337120571
  0
LINE
  5
C0E
330
B9E
100
AcDbEntity
  8
3
100
AcDbLine
 10
-40.0
 20
50.0
 30
0.0
 11
0.0
 21
50.0
 31
0.0
  0
ATTDEF
  5
C0F
330
B9E
100
AcDbEntity
  8
1
100
AcDbText
 10
-31.30691739422431
 20
40.25
 30
0.0
 40
2.0
  1
XXXXXXXXXXXXXXX
 41
0.8
  7
SANINDUSA
 72
     4
 11
-20.0
 21
41.25
 31
0.0
100
AcDbAttributeDefinition
  3
Observações:
  2
OBS
 70
     0
  0
TEXT
  5
C10
330
B9E
100
AcDbEntity
  8
1
100
AcDbText
 10
-39.0
 20
47.25
 30
0.0
 40
2.0
  1
Observações:
 41
0.8
  7
SANINDUSA
 11
-39.0
 21
48.25
 31
0.0
100
AcDbText
 73
     2
  0
LWPOLYLINE
  5
C11
102
{ACAD_REACTORS
330
BEC
102
}
330
B9E
100
AcDbEntity
  8
9
100
AcDbPolyline
 90
        6
 70
     1
 43
0.0
 10
-29.98468712904878
 20
57.02796337120571
 10
-29.98468712904878
 20
55.507868407665
 10
-32.57692046803459
 20
55.507868407665
 42
-0.4142135623731731
 10
-32.97692046803468
 20
55.90786840766487
 10
-32.97692046803468
 20
56.62796337120562
 42
-0.4142135623731576
 10
-32.57692046803459
 20
57.02796337120571
  0
LWPOLYLINE
  5
C12
102
{ACAD_REACTORS
330
BEC
102
}
330
B9E
100
AcDbEntity
  8
9
100
AcDbPolyline
 90
        4
 70
     1
 43
0.0
 10
-24.19231812786165
 20
59.87619128370352
 10
-24.57637781922995
 20
59.87619128370352
 10
-24.57637781922995
 20
59.28412752246913
 10
-24.19231812786165
 20
59.28412752246913
  0
ENDBLK
  5
C14
330
B9E
100
AcDbEntity
  8
0
100
AcDbBlockEnd
  0
ENDSEC
  0
SECTION
  2
ENTITIES
  0
LINE
  5
16FB
330
1F
100
AcDbEntity
  8
SANINDUSA
100
AcDbLine
 10
5153.784752150655
 20
3660.504711565679
 30
0.0
 11
5154.520994417026
 21
3660.504711565679
 31
0.0
  0
LINE
  5
16FC
330
1F
100
AcDbEntity
  8
SANINDUSA
100
AcDbLine
 10
5153.782174305647
 20
3660.464711566573
 30
0.0
 11
5154.523572258309
 21
3660.464711566573
 31
0.0
  0
LWPOLYLINE
  5
16FE
330
1F
100
AcDbEntity
  8
SANINDUSA
100
AcDbPolyline
 90
       20
 70
   128
 43
0.0
 10
5154.152873269871
 20
3660.402856641921
 10
5154.165219299152
 20
3660.402939503199
 10
5154.181221268729
 20
3660.403075498646
 10
5154.197225711897
 20
3660.403239575332
 10
5154.213093153789
 20
3660.403435264831
 10
5154.228685520246
 20
3660.403641794925
 10
5154.243916652753
 20
3660.403833744233
 10
5154.258798770264
 20
3660.403998185998
 10
5154.273356131866
 20
3660.4041284594
 10
5154.287612728431
 20
3660.404222098297
 10
5154.301592580631
 20
3660.404280115968
 10
5154.315319351509
 20
3660.40430670709
 10
5154.328816882923
 20
3660.404308949715
 10
5154.342108480289
 20
3660.404296283728
 10
5154.355217210605
 20
3660.404279132491
 10
5154.373305193737
 20
3660.404263240403
 10
5154.391142718151
 20
3660.404277403956
 10
5154.408789090469
 20
3660.40433172614
 10
5154.426306478336
 20
3660.404420730775
 10
5154.440146974876
 20
3660.4040598023
  0
LINE
  5
16FF
330
1F
100
AcDbEntity
  8
SANINDUSA
100
AcDbLine
 10
5153.77717506729
 20
3660.464711566573
 30
0.0
 11
5153.777753216846
 21
3660.497833732633
 31
0.0
  0
LINE
  5
1701
330
1F
100
AcDbEntity
  8
SANINDUSA
100
AcDbLine
 10
5153.77717506729
 20
3660.464711566573
 30
0.0
 11
5153.782174305647
 21
3660.464711566573
 31
0.0
  0
ARC
  5
1706
330
1F
100
AcDbEntity
  8
SANINDUSA
100
AcDbCircle
 10
5153.865880152332
 20
3660.42330667329
 30
0.0
 40
0.019250759807376
100
AcDbArc
 50
173.8204158813928
 51
269.262662963147
  0
LINE
  5
1708
330
1F
100
AcDbEntity
  8
SANINDUSA
100
AcDbLine
 10
5153.845367721871
 20
3660.464711566573
 30
0.0
 11
5153.846741251305
 21
3660.425378923422
 31
0.0
  0
LINE
  5
170B
330
1F
100
AcDbEntity
  8
SANINDUSA
100
AcDbLine
 10
5154.07665749605
 20
3660.402473193711
 30
0.0
 11
5154.090003005817
 21
3660.393128578669
 31
0.0
  0
LINE
  5
170C
330
1F
100
AcDbEntity
  8
SANINDUSA
100
AcDbLine
 10
5154.101177505806
 20
3660.381145392662
 30
0.0
 11
5154.204569033936
 21
3660.381145392662
 31
0.0
  0
LINE
  5
170E
330
1F
100
AcDbEntity
  8
SANINDUSA
100
AcDbLine
 10
5154.090003005817
 20
3660.393128578669
 30
0.0
 11
5154.101177505806
 21
3660.381145392662
 31
0.0
  0
LINE
  5
170F
330
1F
100
AcDbEntity
  8
SANINDUSA
100
AcDbLine
 10
5154.204569033936
 20
3660.381145392662
 30
0.0
 11
5154.215743533924
 21
3660.393128578669
 31
0.0
  0
LINE
  5
1710
330
1F
100
AcDbEntity
  8
SANINDUSA
100
AcDbLine
 10
5154.215743533924
 20
3660.393128578669
 30
0.0
 11
5154.229061476543
 21
3660.402453904158
 31
0.0
  0
ARC
  5
1712
330
1F
100
AcDbEntity
  8
SANINDUSA
100
AcDbCircle
 10
5153.784752150713
 20
3660.497711565679
 30
0.0
 40
0.0070000000000001
100
AcDbArc
 50
90.0
 51
178.9999999902799
  0
LINE
  5
1714
330
1F
100
AcDbEntity
  8
SANINDUSA
100
AcDbLine
 10
5154.527993313625
 20
3660.497833732633
 30
0.0
 11
5154.52857147868
 21
3660.464711566573
 31
0.0
  0
ARC
  5
1719
330
1F
100
AcDbEntity
  8
SANINDUSA
100
AcDbCircle
 10
5154.439865894602
 20
3660.42330884702
 30
0.0
 40
0.0192510968191788
100
AcDbArc
 50
270.8365905288121
 51
6.175220928474025
  0
LINE
  5
171E
330
1F
100
AcDbEntity
  8
SANINDUSA
100
AcDbLine
 10
5154.459005288437
 20
3660.42537967593
 30
0.0
 11
5154.460378817871
 21
3660.464711566573
 31
0.0
  0
LINE
  5
171F
330
1F
100
AcDbEntity
  8
SANINDUSA
100
AcDbLine
 10
5154.523572258309
 20
3660.464711566573
 30
0.0
 11
5154.52857147868
 21
3660.464711566573
 31
0.0
  0
ARC
  5
1720
330
1F
100
AcDbEntity
  8
SANINDUSA
100
AcDbCircle
 10
5154.52099438903
 20
3660.497711565679
 30
0.0
 40
0.0070000000000003
100
AcDbArc
 50
1.000000009720081
 51
90.0
  0
LWPOLYLINE
  5
1728
330
1F
100
AcDbEntity
  8
SANINDUSA
100
AcDbPolyline
 90
       20
 70
   128
 43
0.0
 10
5154.152873269871
 20
3660.402856641921
 10
5154.140527240588
 20
3660.402939503199
 10
5154.124525271013
 20
3660.403075498646
 10
5154.108520827844
 20
3660.403239575332
 10
5154.092653385951
 20
3660.403435264831
 10
5154.077061019496
 20
3660.403641794925
 10
5154.061829886988
 20
3660.403833744233
 10
5154.046947769478
 20
3660.403998185998
 10
5154.032390407875
 20
3660.4041284594
 10
5154.01813381131
 20
3660.404222098297
 10
5154.00415395911
 20
3660.404280115968
 10
5153.990427188233
 20
3660.40430670709
 10
5153.976929656818
 20
3660.404308949715
 10
5153.963638059452
 20
3660.404296283728
 10
5153.950529329136
 20
3660.404279132491
 10
5153.932441346004
 20
3660.404263240403
 10
5153.91460382159
 20
3660.404277403956
 10
5153.896957449273
 20
3660.40433172614
 10
5153.879440061405
 20
3660.404420730775
 10
5153.865632421926
 20
3660.40405750752
  0
ARC
  5
17E7
330
1F
100
AcDbEntity
  8
SANINDUSA
100
AcDbCircle
 10
5155.898948952887
 20
3660.424895361521
 30
0.0
 40
0.0209000926330428
100
AcDbArc
 50
281.3262016757042
 51
358.0947326709189
  0
LINE
  5
17E8
330
1F
100
AcDbEntity
  8
SANINDUSA
100
AcDbLine
 10
5155.732568459188
 20
3660.402491253918
 30
0.0
 11
5155.745876328622
 21
3660.393128578669
 31
0.0
  0
LINE
  5
17E9
330
1F
100
AcDbEntity
  8
SANINDUSA
100
AcDbLine
 10
5155.871616856728
 20
3660.393128578669
 30
0.0
 11
5155.884901778374
 21
3660.402475972777
 31
0.0
  0
LINE
  5
17EA
330
1F
100
AcDbEntity
  8
SANINDUSA
100
AcDbLine
 10
5155.745876328622
 20
3660.393128578669
 30
0.0
 11
5155.757050828611
 21
3660.381145392662
 31
0.0
  0
LINE
  5
17EB
330
1F
100
AcDbEntity
  8
SANINDUSA
100
AcDbLine
 10
5155.860442416345
 20
3660.381145392662
 30
0.0
 11
5155.871616856728
 21
3660.393128578669
 31
0.0
  0
LINE
  5
17EE
330
1F
100
AcDbEntity
  8
SANINDUSA
100
AcDbLine
 10
5154.788048409169
 20
3660.464711566573
 30
0.0
 11
5154.788626558725
 21
3660.497833732633
 31
0.0
  0
LINE
  5
17EF
330
1F
100
AcDbEntity
  8
SANINDUSA
100
AcDbLine
 10
5154.788048409169
 20
3660.464711566573
 30
0.0
 11
5154.793047647526
 21
3660.464711566573
 31
0.0
  0
LINE
  5
17F2
330
1F
100
AcDbEntity
  8
SANINDUSA
100
AcDbLine
 10
5154.793047647526
 20
3660.464711566573
 30
0.0
 11
5155.984445588266
 21
3660.464711566573
 31
0.0
  0
LINE
  5
17F4
330
1F
100
AcDbEntity
  8
SANINDUSA
100
AcDbLine
 10
5155.988866703188
 20
3660.497833732633
 30
0.0
 11
5155.989444868242
 21
3660.464711566573
 31
0.0
  0
LINE
  5
17F5
330
1F
100
AcDbEntity
  8
SANINDUSA
100
AcDbLine
 10
5155.984445588266
 20
3660.464711566573
 30
0.0
 11
5155.989444868242
 21
3660.464711566573
 31
0.0
  0
ARC
  5
17F7
330
1F
100
AcDbEntity
  8
SANINDUSA
100
AcDbCircle
 10
5154.795625492591
 20
3660.497711565679
 30
0.0
 40
0.0070000000000004
100
AcDbArc
 50
90.0
 51
178.9999999902799
  0
LINE
  5
17F8
330
1F
100
AcDbEntity
  8
SANINDUSA
100
AcDbLine
 10
5154.795625492533
 20
3660.504711565679
 30
0.0
 11
5155.98186768738
 21
3660.504711565679
 31
0.0
  0
ARC
  5
17FA
330
1F
100
AcDbEntity
  8
SANINDUSA
100
AcDbCircle
 10
5155.981867730908
 20
3660.497711565679
 30
0.0
 40
0.0070000000000004
100
AcDbArc
 50
1.000000009720081
 51
90.0
  0
ARC
  5
1802
330
1F
100
AcDbEntity
  8
SANINDUSA
100
AcDbCircle
 10
5155.129974630327
 20
3660.400961940958
 30
0.0
 40
0.0261002446455916
100
AcDbArc
 50
58.24418260153027
 51
88.99992113544312
  0
LINE
  5
1806
330
1F
100
AcDbEntity
  8
SANINDUSA
100
AcDbLine
 10
5154.856241063749
 20
3660.464711566573
 30
0.0
 11
5154.856697344754
 21
3660.451645427501
 31
0.0
  0
LINE
  5
1807
330
1F
100
AcDbEntity
  8
SANINDUSA
100
AcDbLine
 10
5155.919955627595
 20
3660.42758290947
 30
0.0
 11
5155.921252147829
 21
3660.464711566573
 31
0.0
  0
ARC
  5
1809
330
1F
100
AcDbEntity
  8
SANINDUSA
100
AcDbCircle
 10
5155.171028858032
 20
3660.467294692065
 30
0.0
 40
0.0519092642963646
100
AcDbArc
 50
238.2470346189912
 51
269.00844593324
  0
ARC
  5
180C
330
1F
100
AcDbEntity
  8
SANINDUSA
100
AcDbCircle
 10
5154.877584613201
 20
3660.452374826082
 30
0.0
 40
0.0209000000000002
100
AcDbArc
 50
182.0000000037536
 51
268.9999999902799
  0
LINE
  5
180E
330
1F
100
AcDbEntity
  8
SANINDUSA
100
AcDbLine
 10
5154.877219857903
 20
3660.431478009253
 30
0.0
 11
5155.13043017832
 21
3660.427058209783
 31
0.0
  0
LWPOLYLINE
  5
1812
330
1F
100
AcDbEntity
  8
SANINDUSA
100
AcDbPolyline
 90
        6
 70
   128
 43
0.0
 10
5155.91983749119
 20
3660.424200494891
 10
5155.919844643747
 20
3660.424407114393
 10
5155.91986932007
 20
3660.425113094157
 10
5155.919898883974
 20
3660.425957662171
 10
5155.919921533739
 20
3660.426608224517
 10
5155.919955499842
 20
3660.427579260062
  0
LWPOLYLINE
  5
1813
330
1F
100
AcDbEntity
  8
SANINDUSA
100
AcDbPolyline
 90
       39
 70
   128
 43
0.0
 10
5155.732568459188
 20
3660.402491253918
 10
5155.732600884114
 20
3660.402491097456
 10
5155.733206586514
 20
3660.402490896291
 10
5155.734365002786
 20
3660.402489957518
 10
5155.736014203703
 20
3660.402488154477
 10
5155.738165156519
 20
3660.402486299282
 10
5155.740888075506
 20
3660.402484704858
 10
5155.744106309091
 20
3660.4024833265
 10
5155.74768556801
 20
3660.402482238716
 10
5155.751685218488
 20
3660.402481478757
 10
5155.756212489282
 20
3660.402480823105
 10
5155.761123137151
 20
3660.402480092949
 10
5155.766235725557
 20
3660.402479273385
 10
5155.771642045652
 20
3660.402478282458
 10
5155.777474181329
 20
3660.402477105266
 10
5155.78353490082
 20
3660.402475980228
 10
5155.789605276261
 20
3660.402475086158
 10
5155.795807735596
 20
3660.402474467761
 10
5155.802284018671
 20
3660.402474184638
 10
5155.808807627831
 20
3660.402474415606
 10
5155.815337555086
 20
3660.402475242621
 10
5155.821819321786
 20
3660.402476717835
 10
5155.828400628244
 20
3660.402478938109
 10
5155.834829346811
 20
3660.402481799132
 10
5155.840502874529
 20
3660.402485017782
 10
5155.845972077524
 20
3660.402488847381
 10
5155.85133876053
 20
3660.402493146366
 10
5155.856415764962
 20
3660.402497490054
 10
5155.861162678872
 20
3660.402501654929
 10
5155.865553276216
 20
3660.402505246108
 10
5155.86966528145
 20
3660.402508241242
 10
5155.873338596498
 20
3660.402510357207
 10
5155.876523511087
 20
3660.402510901099
 10
5155.879225628053
 20
3660.402509403532
 10
5155.881481067812
 20
3660.402504791623
 10
5155.883183853303
 20
3660.402496327764
 10
5155.884278313791
 20
3660.402486075765
 10
5155.884859459077
 20
3660.402476606077
 10
5155.884901778374
 20
3660.402475972777
  0
LINE
  5
1816
330
1F
100
AcDbEntity
  8
SANINDUSA
100
AcDbLine
 10
5155.808746592676
 20
3660.381145392662
 30
0.0
 11
5155.860442416345
 21
3660.381145392662
 31
0.0
  0
LINE
  5
1817
330
1F
100
AcDbEntity
  8
SANINDUSA
100
AcDbLine
 10
5155.757050828611
 20
3660.381145392662
 30
0.0
 11
5155.808746592676
 21
3660.381145392662
 31
0.0
  0
LWPOLYLINE
  5
1869
330
1F
100
AcDbEntity
  8
SANINDUSA
100
AcDbPolyline
 90
        3
 70
   128
 43
0.0
 10
5157.15160246046
 20
3660.402509291774
 10
5156.777670039253
 20
3660.410342027551
 10
5156.589487536267
 20
3660.414283868974
  0
LWPOLYLINE
  5
186A
330
1F
100
AcDbEntity
  8
SANINDUSA
100
AcDbPolyline
 90
        3
 70
   128
 43
0.0
 10
5157.322218193129
 20
3660.404404712027
 10
5157.313278092459
 20
3660.403033805197
 10
5157.304171575622
 20
3660.402491618997
  0
ARC
  5
186B
330
1F
100
AcDbEntity
  8
SANINDUSA
100
AcDbCircle
 10
5157.151600347649
 20
3660.402409314751
 30
0.0
 40
0.0001000000064846
100
AcDbArc
 50
55.00000260657323
 51
88.80486446504972
  0
ARC
  5
186C
330
1F
100
AcDbEntity
  8
SANINDUSA
100
AcDbCircle
 10
5157.304172844842
 20
3660.402391627481
 30
0.0
 40
0.0001000000001374
100
AcDbArc
 50
90.74933696932303
 51
124.9999999377713
  0
LINE
  5
186D
330
1F
100
AcDbEntity
  8
SANINDUSA
100
AcDbLine
 10
5157.151657713965
 20
3660.402491231567
 30
0.0
 11
5157.165028943137
 21
3660.393128578669
 31
0.0
  0
LINE
  5
186E
330
1F
100
AcDbEntity
  8
SANINDUSA
100
AcDbLine
 10
5157.290769471244
 20
3660.393128578669
 30
0.0
 11
5157.304115428047
 21
3660.402473543888
 31
0.0
  0
LWPOLYLINE
  5
186F
330
1F
100
AcDbEntity
  8
SANINDUSA
100
AcDbPolyline
 90
        3
 70
   128
 43
0.0
 10
5157.151683761195
 20
3660.406408441371
 10
5157.15285171421
 20
3660.406208542293
 10
5157.153894676284
 20
3660.405685921317
  0
LWPOLYLINE
  5
1870
330
1F
100
AcDbEntity
  8
SANINDUSA
100
AcDbPolyline
 90
       14
 70
   128
 43
0.0
 10
5157.151683761195
 20
3660.406408441371
 10
5157.152198983744
 20
3660.406408642536
 10
5157.15319229515
 20
3660.406408001787
 10
5157.154698504523
 20
3660.406406660682
 10
5157.15677554758
 20
3660.406405066257
 10
5157.159370912627
 20
3660.406403568691
 10
5157.162374748305
 20
3660.40640227974
 10
5157.165830148772
 20
3660.406401191956
 10
5157.169833554343
 20
3660.406400335139
 10
5157.174260450915
 20
3660.406399590081
 10
5157.178945852832
 20
3660.406398830121
 10
5157.183969034271
 20
3660.406397973305
 10
5157.189455522613
 20
3660.406396855718
 10
5157.227899236993
 20
3660.406388482061
  0
ARC
  5
1871
330
1F
100
AcDbEntity
  8
SANINDUSA
100
AcDbCircle
 10
5157.267376790589
 20
3623.205187929813
 30
0.0
 40
37.20122149883984
100
AcDbArc
 50
89.94340877401214
 51
90.06080168089876
  0
LWPOLYLINE
  5
1872
330
1F
100
AcDbEntity
  8
SANINDUSA
100
AcDbPolyline
 90
        3
 70
   128
 43
0.0
 10
5157.301878584937
 20
3660.405668233638
 10
5157.302899850921
 20
3660.406183657354
 10
5157.304120554045
 20
3660.406391282683
  0
LINE
  5
1873
330
1F
100
AcDbEntity
  8
SANINDUSA
100
AcDbLine
 10
5157.153894676284
 20
3660.405685921317
 30
0.0
 11
5157.16760165842
 21
3660.396088157898
 31
0.0
  0
LINE
  5
1874
330
1F
100
AcDbEntity
  8
SANINDUSA
100
AcDbLine
 10
5157.288196815566
 20
3660.396088157898
 30
0.0
 11
5157.301878584937
 21
3660.405668233638
 31
0.0
  0
LWPOLYLINE
  5
1876
330
1F
100
AcDbEntity
  8
SANINDUSA
100
AcDbPolyline
 90
        3
 70
   128
 43
0.0
 10
5157.151683761195
 20
3660.406408441371
 10
5156.734219743327
 20
3660.415153016454
 10
5156.589569194631
 20
3660.418183018571
  0
LWPOLYLINE
  5
1880
330
1F
100
AcDbEntity
  8
SANINDUSA
100
AcDbPolyline
 90
        3
 70
   128
 43
0.0
 10
5157.321450127677
 20
3660.408228312736
 10
5157.312865270689
 20
3660.406911884552
 10
5157.304120554045
 20
3660.406391282683
  0
LINE
  5
18AB
330
1F
100
AcDbEntity
  8
SANINDUSA
100
AcDbLine
 10
5157.408019317703
 20
3660.497833732633
 30
0.0
 11
5157.408597482756
 21
3660.464711566573
 31
0.0
  0
LINE
  5
18AC
330
1F
100
AcDbEntity
  8
SANINDUSA
100
AcDbLine
 10
5157.408597482756
 20
3660.464711566573
 30
0.0
 11
5157.404696835594
 21
3660.464711566573
 31
0.0
  0
LINE
  5
18AD
330
1F
100
AcDbEntity
  8
SANINDUSA
100
AcDbLine
 10
5157.404119862632
 20
3660.49776566832
 30
0.0
 11
5157.404696835594
 21
3660.464711566573
 31
0.0
  0
ARC
  5
18AE
330
1F
100
AcDbEntity
  8
SANINDUSA
100
AcDbCircle
 10
5157.401020345423
 20
3660.497711565679
 30
0.0
 40
0.0031
100
AcDbArc
 50
1.000000009720081
 51
90.0
  0
LINE
  5
18AF
330
1F
100
AcDbEntity
  8
SANINDUSA
100
AcDbLine
 10
5157.344659103468
 20
3660.500811565785
 30
0.0
 11
5157.401020301894
 21
3660.500811565785
 31
0.0
  0
ARC
  5
18B0
330
1F
100
AcDbEntity
  8
SANINDUSA
100
AcDbCircle
 10
5157.344659046803
 20
3660.497711565679
 30
0.0
 40
0.0031
100
AcDbArc
 50
90.0
 51
177.9999999962464
  0
LINE
  5
18B1
330
1F
100
AcDbEntity
  8
SANINDUSA
100
AcDbLine
 10
5157.338988913611
 20
3660.424165879494
 30
0.0
 11
5157.341560973243
 21
3660.497819753947
 31
0.0
  0
ARC
  5
18B2
330
1F
100
AcDbEntity
  8
SANINDUSA
100
AcDbCircle
 10
5157.318101693778
 20
3660.424895255577
 30
0.0
 40
0.0208999507619693
100
AcDbArc
 50
281.359370095482
 51
358.0000594644791
  0
LINE
  5
18B3
330
1F
100
AcDbEntity
  8
SANINDUSA
100
AcDbLine
 10
5157.27959503086
 20
3660.381145392662
 30
0.0
 11
5157.290769471244
 21
3660.393128578669
 31
0.0
  0
LINE
  5
18B4
330
1F
100
AcDbEntity
  8
SANINDUSA
100
AcDbLine
 10
5157.176203443126
 20
3660.381145392662
 30
0.0
 11
5157.27959503086
 21
3660.381145392662
 31
0.0
  0
LINE
  5
18B5
330
1F
100
AcDbEntity
  8
SANINDUSA
100
AcDbLine
 10
5157.165028943137
 20
3660.393128578669
 30
0.0
 11
5157.176203443126
 21
3660.381145392662
 31
0.0
  0
ARC
  5
18B6
330
1F
100
AcDbEntity
  8
SANINDUSA
100
AcDbCircle
 10
5156.589930879668
 20
3660.435185182421
 30
0.0
 40
0.0209060148559726
100
AcDbArc
 50
183.6130994899073
 51
268.7848659799035
  0
ARC
  5
18B7
330
1F
100
AcDbEntity
  8
SANINDUSA
100
AcDbCircle
 10
5156.565972531884
 20
3660.43367317696
 30
0.0
 40
0.003099996757506
100
AcDbArc
 50
3.597875038160003
 51
88.99986771424499
  0
LINE
  5
18B8
330
1F
100
AcDbEntity
  8
SANINDUSA
100
AcDbLine
 10
5156.566026641445
 20
3660.436772701448
 30
0.0
 11
5156.316479346172
 21
3660.441128564185
 31
0.0
  0
ARC
  5
18B9
330
1F
100
AcDbEntity
  8
SANINDUSA
100
AcDbCircle
 10
5156.31642524037
 20
3660.43802903795
 30
0.0
 40
0.0031000000000002
100
AcDbArc
 50
88.99999999027992
 51
154.6842608331306
  0
ARC
  5
18BA
330
1F
100
AcDbEntity
  8
SANINDUSA
100
AcDbCircle
 10
5156.301057833327
 20
3660.445298343333
 30
0.0
 40
0.0139000000000002
100
AcDbArc
 50
268.9999999902799
 51
334.6842608331306
  0
LINE
  5
18BB
330
1F
100
AcDbEntity
  8
SANINDUSA
100
AcDbLine
 10
5156.296372471765
 20
3660.431478005951
 30
0.0
 11
5156.300815245526
 21
3660.431400460308
 31
0.0
  0
ARC
  5
18BC
330
1F
100
AcDbEntity
  8
SANINDUSA
100
AcDbCircle
 10
5156.296737227718
 20
3660.452374826081
 30
0.0
 40
0.0209000000000002
100
AcDbArc
 50
182.0000000037536
 51
268.9999999902799
  0
LINE
  5
18BD
330
1F
100
AcDbEntity
  8
SANINDUSA
100
AcDbLine
 10
5156.274237519518
 20
3660.497819753947
 30
0.0
 11
5156.27584995927
 21
3660.451645427501
 31
0.0
  0
ARC
  5
18BE
330
1F
100
AcDbEntity
  8
SANINDUSA
100
AcDbCircle
 10
5156.271139404822
 20
3660.497711565679
 30
0.0
 40
0.0031
100
AcDbArc
 50
2.000000003753602
 51
90.00000005211022
  0
LINE
  5
18BF
330
1F
100
AcDbEntity
  8
SANINDUSA
100
AcDbLine
 10
5156.214778107048
 20
3660.500811565785
 30
0.0
 11
5156.271139404193
 21
3660.500811565785
 31
0.0
  0
ARC
  5
18C0
330
1F
100
AcDbEntity
  8
SANINDUSA
100
AcDbCircle
 10
5156.214778107106
 20
3660.497711565679
 30
0.0
 40
0.0031
100
AcDbArc
 50
90.0
 51
178.9999999902799
  0
LINE
  5
18C1
330
1F
100
AcDbEntity
  8
SANINDUSA
100
AcDbLine
 10
5156.21110161782
 20
3660.464711566573
 30
0.0
 11
5156.21167857914
 21
3660.49776566832
 31
0.0
  0
LINE
  5
18C2
330
1F
100
AcDbEntity
  8
SANINDUSA
100
AcDbLine
 10
5156.21110161782
 20
3660.464711566573
 30
0.0
 11
5156.207201023683
 21
3660.464711566573
 31
0.0
  0
LINE
  5
18C3
330
1F
100
AcDbEntity
  8
SANINDUSA
100
AcDbLine
 10
5156.207201023683
 20
3660.464711566573
 30
0.0
 11
5156.207779173239
 21
3660.497833732633
 31
0.0
  0
ARC
  5
18C4
330
1F
100
AcDbEntity
  8
SANINDUSA
100
AcDbCircle
 10
5156.214778107106
 20
3660.497711565679
 30
0.0
 40
0.0070000000000002
100
AcDbArc
 50
90.0
 51
178.9999999902799
  0
LINE
  5
18C5
330
1F
100
AcDbEntity
  8
SANINDUSA
100
AcDbLine
 10
5156.214778107048
 20
3660.504711565679
 30
0.0
 11
5156.271139404193
 21
3660.504711565679
 31
0.0
  0
ARC
  5
18C6
330
1F
100
AcDbEntity
  8
SANINDUSA
100
AcDbCircle
 10
5156.271139404822
 20
3660.497711565679
 30
0.0
 40
0.0070000000000002
100
AcDbArc
 50
2.000000003753602
 51
90.0
  0
LINE
  5
18C7
330
1F
100
AcDbEntity
  8
SANINDUSA
100
AcDbLine
 10
5156.278135141747
 20
3660.497955862085
 30
0.0
 11
5156.279747581498
 21
3660.451781534707
 31
0.0
  0
ARC
  5
18C8
330
1F
100
AcDbEntity
  8
SANINDUSA
100
AcDbCircle
 10
5156.296737227718
 20
3660.452374826081
 30
0.0
 40
0.017
100
AcDbArc
 50
182.0000000037536
 51
268.9999999902799
  0
LINE
  5
18C9
330
1F
100
AcDbEntity
  8
SANINDUSA
100
AcDbLine
 10
5156.29644054027
 20
3660.435377416319
 30
0.0
 11
5156.300883306754
 21
3660.435299866426
 31
0.0
  0
ARC
  5
18CA
330
1F
100
AcDbEntity
  8
SANINDUSA
100
AcDbCircle
 10
5156.301057833327
 20
3660.445298343333
 30
0.0
 40
0.0100000000000001
100
AcDbArc
 50
268.9999856055059
 51
334.6842608331306
  0
ARC
  5
18CB
330
1F
100
AcDbEntity
  8
SANINDUSA
100
AcDbCircle
 10
5156.31642524037
 20
3660.43802903795
 30
0.0
 40
0.0069999999999999
100
AcDbArc
 50
88.99999999027992
 51
154.6842608331306
  0
LINE
  5
18CC
330
1F
100
AcDbEntity
  8
SANINDUSA
100
AcDbLine
 10
5156.566094709948
 20
3660.440672104364
 30
0.0
 11
5156.316547407225
 21
3660.445027970826
 31
0.0
  0
ARC
  5
18CD
330
1F
100
AcDbEntity
  8
SANINDUSA
100
AcDbCircle
 10
5156.565972518979
 20
3660.433673171376
 30
0.0
 40
0.0069999995438579
100
AcDbArc
 50
3.597964112858299
 51
88.99980246219348
  0
ARC
  5
18CE
330
1F
100
AcDbEntity
  8
SANINDUSA
100
AcDbCircle
 10
5156.58992983882
 20
3660.435184113099
 30
0.0
 40
0.017004919269703
100
AcDbArc
 50
183.6131957743529
 51
268.7847670006695
  0
LINE
  5
18CF
330
1F
100
AcDbEntity
  8
SANINDUSA
100
AcDbLine
 10
5157.16760165842
 20
3660.396088157898
 30
0.0
 11
5157.177899254874
 21
3660.385045391625
 31
0.0
  0
LINE
  5
18D0
330
1F
100
AcDbEntity
  8
SANINDUSA
100
AcDbLine
 10
5157.177899254874
 20
3660.385045391625
 30
0.0
 11
5157.277899278716
 21
3660.385045391625
 31
0.0
  0
LINE
  5
18D1
330
1F
100
AcDbEntity
  8
SANINDUSA
100
AcDbLine
 10
5157.277899278716
 20
3660.385045391625
 30
0.0
 11
5157.288196815566
 21
3660.396088157898
 31
0.0
  0
ARC
  5
18D2
330
1F
100
AcDbEntity
  8
SANINDUSA
100
AcDbCircle
 10
5157.318101655587
 20
3660.424895222123
 30
0.0
 40
0.016999945112652
100
AcDbArc
 50
281.359804129397
 51
358.000182466702
  0
LINE
  5
18D3
330
1F
100
AcDbEntity
  8
SANINDUSA
100
AcDbLine
 10
5157.335091246681
 20
3660.4243019867
 30
0.0
 11
5157.337663306312
 21
3660.497955862085
 31
0.0
  0
ARC
  5
18D4
330
1F
100
AcDbEntity
  8
SANINDUSA
100
AcDbCircle
 10
5157.344659046803
 20
3660.497711565679
 30
0.0
 40
0.0070000000000002
100
AcDbArc
 50
90.0
 51
177.9999999962464
  0
LINE
  5
18D5
330
1F
100
AcDbEntity
  8
SANINDUSA
100
AcDbLine
 10
5157.344659103468
 20
3660.504711565679
 30
0.0
 11
5157.401020301894
 21
3660.504711565679
 31
0.0
  0
ARC
  5
18D6
330
1F
100
AcDbEntity
  8
SANINDUSA
100
AcDbCircle
 10
5157.401020345423
 20
3660.497711565679
 30
0.0
 40
0.0070000000000004
100
AcDbArc
 50
1.000000009720081
 51
90.0
  0
LWPOLYLINE
  5
18FF
330
1F
100
AcDbEntity
  8
SANINDUSA
100
AcDbPolyline
 90
       16
 70
   128
 43
0.0
 10
5156.300815245526
 20
3660.431400460308
 10
5156.300924791412
 20
3660.431398545509
 10
5156.301252229527
 20
3660.431392830914
 10
5156.301793968694
 20
3660.431383376128
 10
5156.302544070796
 20
3660.431370285457
 10
5156.303494325296
 20
3660.431353700465
 10
5156.304634323731
 20
3660.431333799964
 10
5156.305951564029
 20
3660.431310807472
 10
5156.307431621865
 20
3660.431284968859
 10
5156.309058284776
 20
3660.431256574696
 10
5156.31081372352
 20
3660.431225937909
 10
5156.312678708152
 20
3660.431193386322
 10
5156.314632801727
 20
3660.431159277564
 10
5156.316654598729
 20
3660.431123984164
 10
5156.318721948579
 20
3660.431087901002
 10
5156.320812201516
 20
3660.431051415509
  0
ARC
  5
1904
330
1F
100
AcDbEntity
  8
SANINDUSA
100
AcDbCircle
 10
5156.589809000632
 20
3660.466557307769
 30
0.0
 40
0.0510795927969551
100
AcDbArc
 50
238.1666630627741
 51
260.2230281157092
  0
LINE
  5
190A
330
1F
100
AcDbEntity
  8
SANINDUSA
100
AcDbLine
 10
5156.561035348491
 20
3660.424193692512
 30
0.0
 11
5156.56286705883
 21
3660.423160803622
 31
0.0
  0
LWPOLYLINE
  5
190B
330
1F
100
AcDbEntity
  8
SANINDUSA
100
AcDbPolyline
 90
        3
 70
   128
 43
0.0
 10
5156.549595399217
 20
3660.427057986265
 10
5156.55388910921
 20
3660.42662623257
 10
5156.558169855193
 20
3660.425450106269
  0
LINE
  5
190D
330
1F
100
AcDbEntity
  8
SANINDUSA
100
AcDbLine
 10
5156.558169855193
 20
3660.425450106269
 30
0.0
 11
5156.561035348491
 21
3660.424193692512
 31
0.0
  0
LINE
  5
190E
330
1F
100
AcDbEntity
  8
SANINDUSA
100
AcDbLine
 10
5156.320812201516
 20
3660.431051415509
 30
0.0
 11
5156.549595399217
 21
3660.427057986265
 31
0.0
  0
LINE
  5
191B
330
1F
100
AcDbEntity
  8
SANINDUSA
100
AcDbLine
 10
5157.317675484733
 20
3660.504711565679
 30
0.0
 11
5157.344659103468
 21
3660.504711565679
 31
0.0
  0
LINE
  5
191D
330
1F
100
AcDbEntity
  8
SANINDUSA
100
AcDbLine
 10
5156.271139404193
 20
3660.504711565679
 30
0.0
 11
5156.298122955874
 21
3660.504711565679
 31
0.0
  0
LINE
  5
191E
330
1F
100
AcDbEntity
  8
SANINDUSA
100
AcDbLine
 10
5156.298122955874
 20
3660.504711565679
 30
0.0
 11
5157.317675484733
 21
3660.504711565679
 31
0.0
  0
LINE
  5
1924
330
1F
100
AcDbEntity
  8
SANINDUSA
100
AcDbLine
 10
5156.212201450408
 20
3660.464711566573
 30
0.0
 11
5156.21110161782
 21
3660.464711566573
 31
0.0
  0
LINE
  5
1926
330
1F
100
AcDbEntity
  8
SANINDUSA
100
AcDbLine
 10
5157.404696835594
 20
3660.464711566573
 30
0.0
 11
5157.403597010688
 21
3660.464711566573
 31
0.0
  0
LINE
  5
1927
330
1F
100
AcDbEntity
  8
SANINDUSA
100
AcDbLine
 10
5157.403597010688
 20
3660.464711566573
 30
0.0
 11
5157.340404762344
 21
3660.464711566573
 31
0.0
  0
LINE
  5
1928
330
1F
100
AcDbEntity
  8
SANINDUSA
100
AcDbLine
 10
5156.275393678264
 20
3660.464711566573
 30
0.0
 11
5156.212201450408
 21
3660.464711566573
 31
0.0
  0
ARC
  5
1992
330
1F
100
AcDbEntity
  8
SANINDUSA
100
AcDbCircle
 10
5155.883335103291
 20
3660.503724662277
 30
0.0
 40
0.1012608097739015
100
AcDbArc
 50
270.8864974889493
 51
281.22894945201
  0
LINE
  5
1993
330
1F
100
AcDbEntity
  8
SANINDUSA
100
AcDbLine
 10
5155.73262174574
 20
3660.402520884878
 30
0.0
 11
5155.170120672626
 21
3660.415393373016
 31
0.0
  0
ARC
  5
19B6
330
1F
100
AcDbEntity
  8
SANINDUSA
100
AcDbCircle
 10
5153.596631188052
 20
3659.835314187735
 30
0.0
 40
0.0050010772719288
100
AcDbArc
 50
270.0210626338464
 51
359.9789373661439
  0
LINE
  5
19B7
330
1F
100
AcDbEntity
  8
SANINDUSA
100
AcDbLine
 10
5153.601632264987
 20
3661.025553978374
 30
0.0
 11
5153.601632264987
 21
3659.835312349276
 31
0.0
  0
ARC
  5
19BB
330
1F
100
AcDbEntity
  8
SANINDUSA
100
AcDbCircle
 10
5153.596631188052
 20
3661.025552139915
 30
0.0
 40
0.0050010772718069
100
AcDbArc
 50
0.021062633856019
 51
89.97893720982295
  0
LINE
  5
19BE
330
1F
100
AcDbEntity
  8
SANINDUSA
100
AcDbLine
 10
5152.856391397413
 20
3661.03055321685
 30
0.0
 11
5153.596633026511
 21
3661.03055321685
 31
0.0
  0
LINE
  5
19BF
330
1F
100
AcDbEntity
  8
SANINDUSA
100
AcDbLine
 10
5153.596633026511
 20
3659.830313110801
 30
0.0
 11
5152.856391397413
 21
3659.830313110801
 31
0.0
  0
ELLIPSE
  5
19CC
330
1F
100
AcDbEntity
  8
SANINDUSA
100
AcDbEllipse
 10
5153.51125557569
 20
3660.94017652757
 30
0.0
 11
0.0141714282370373
 21
0.0141714282369353
 31
0.0
210
0.0
220
0.0
230
1.0
 40
0.997932980870696
 41
5.498396131371359
 42
7.067974482987942
  0
LINE
  5
19CF
330
1F
100
AcDbEntity
  8
SANINDUSA
100
AcDbLine
 10
5153.531276297596
 20
3659.920656895616
 30
0.0
 11
5153.531276297596
 21
3660.940209432936
 31
0.0
  0
ELLIPSE
  5
19D1
330
1F
100
AcDbEntity
  8
SANINDUSA
100
AcDbEllipse
 10
5153.51125557569
 20
3659.920689800982
 30
0.0
 11
0.0141714282369854
 21
-0.0141714282369878
 31
0.0
210
0.0
220
0.0
230
0.9999999999999998
 40
0.9979329808706712
 41
5.498396131367846
 42
7.067974482991538
  0
LINE
  5
19D3
330
1F
100
AcDbEntity
  8
SANINDUSA
100
AcDbLine
 10
5152.941735942868
 20
3659.900669079075
 30
0.0
 11
5153.511288481055
 21
3659.900669079075
 31
0.0
  0
LINE
  5
19D4
330
1F
100
AcDbEntity
  8
SANINDUSA
100
AcDbLine
 10
5153.511288481055
 20
3660.960197249476
 30
0.0
 11
5152.941735942868
 21
3660.960197249481
 31
0.0
  0
ELLIPSE
  5
19D6
330
1F
100
AcDbEntity
  8
SANINDUSA
100
AcDbEllipse
 10
5152.941768848235
 20
3660.940176527574
 30
0.0
 11
0.0141714282369374
 21
-0.0141714282370362
 31
0.0
210
0.0
220
0.0
230
1.0
 40
0.9979329808706689
 41
2.356803477774339
 42
3.926381829405146
  0
ELLIPSE
  5
19D9
330
1F
100
AcDbEntity
  8
SANINDUSA
100
AcDbEllipse
 10
5152.941768848235
 20
3659.920689800982
 30
0.0
 11
-0.0141714282369864
 21
-0.0141714282369867
 31
0.0
210
0.0
220
0.0
230
1.0
 40
0.9979329808706687
 41
5.498396131367735
 42
7.067974482991439
  0
LINE
  5
19DA
330
1F
100
AcDbEntity
  8
SANINDUSA
100
AcDbLine
 10
5152.921748126328
 20
3660.94020943294
 30
0.0
 11
5152.921748126328
 21
3659.920656895616
 31
0.0
  0
LINE
  5
19DC
330
1F
100
AcDbEntity
  8
SANINDUSA
100
AcDbLine
 10
5152.851392158937
 20
3659.835312349276
 30
0.0
 11
5152.851392158937
 21
3661.025553978374
 31
0.0
  0
ARC
  5
19DE
330
1F
100
AcDbEntity
  8
SANINDUSA
100
AcDbCircle
 10
5152.856393235872
 20
3659.835314187735
 30
0.0
 40
0.0050010772717103
100
AcDbArc
 50
180.021062633856
 51
269.9789367929413
  0
ARC
  5
19DF
330
1F
100
AcDbEntity
  8
SANINDUSA
100
AcDbCircle
 10
5152.856393235872
 20
3661.025552139915
 30
0.0
 40
0.0050010772718179
100
AcDbArc
 50
90.02106310283828
 51
179.978937366144
  0
ARC
  5
1A1D
330
1F
100
AcDbEntity
  8
SANINDUSA
100
AcDbCircle
 10
5152.969306749705
 20
3660.917347111872
 30
0.0
 40
0.0108877939419173
100
AcDbArc
 50
89.98762867177507
 51
179.9876131950437
  0
ARC
  5
1A21
330
1F
100
AcDbEntity
  8
SANINDUSA
100
AcDbCircle
 10
5153.48371767422
 20
3660.917347111872
 30
0.0
 40
0.0108877939419257
100
AcDbArc
 50
0.0123868049563286
 51
90.01237143244534
  0
LINE
  5
1A2F
330
1F
100
AcDbEntity
  8
SANINDUSA
100
AcDbLine
 10
5152.969309100587
 20
3660.92823490556
 30
0.0
 11
5153.483715323337
 21
3660.92823490556
 31
0.0
  0
LINE
  5
1A31
330
1F
100
AcDbEntity
  8
SANINDUSA
100
AcDbLine
 10
5152.958418956018
 20
3660.688578244056
 30
0.0
 11
5152.958418956018
 21
3660.917349465709
 31
0.0
  0
LINE
  5
1A32
330
1F
100
AcDbEntity
  8
SANINDUSA
100
AcDbLine
 10
5153.494605467907
 20
3660.917349465709
 30
0.0
 11
5153.494605467907
 21
3660.688564425846
 31
0.0
  0
ARC
  5
1A3C
330
1F
100
AcDbEntity
  8
SANINDUSA
100
AcDbCircle
 10
5153.168861808329
 20
3660.689373537734
 30
0.0
 40
0.2104443550702021
100
AcDbArc
 50
180.2165279133446
 51
183.5555423255176
  0
ARC
  5
1A3D
330
1F
100
AcDbEntity
  8
SANINDUSA
100
AcDbCircle
 10
5153.22910943622
 20
3660.691173201357
 30
0.0
 40
0.2655088483482033
100
AcDbArc
 50
356.7935989072312
 51
359.437027299265
  0
ARC
  5
1A3F
330
1F
100
AcDbEntity
  8
SANINDUSA
100
AcDbCircle
 10
5153.483787272505
 20
3660.675423988877
 30
0.0
 40
0.0101387534357617
100
AcDbArc
 50
270.0
 51
342.8686445698807
  0
ARC
  5
1A42
330
1F
100
AcDbEntity
  8
SANINDUSA
100
AcDbCircle
 10
5152.969235642314
 20
3660.675423964045
 30
0.0
 40
0.0101362569300661
100
AcDbArc
 50
197.1436523149492
 51
270.0084290345983
  0
LINE
  5
1A45
330
1F
100
AcDbEntity
  8
SANINDUSA
100
AcDbLine
 10
5152.959148398158
 20
3660.673883307553
 30
0.0
 11
5152.958822527241
 21
3660.6763225998
 31
0.0
  0
LINE
  5
1A46
330
1F
100
AcDbEntity
  8
SANINDUSA
100
AcDbLine
 10
5153.494202636189
 20
3660.676322481476
 30
0.0
 11
5153.493878908367
 21
3660.673892196931
 31
0.0
  0
LWPOLYLINE
  5
1A4B
330
1F
100
AcDbEntity
  8
SANINDUSA
100
AcDbPolyline
 90
        7
 70
   128
 43
0.0
 10
5153.483786095894
 20
3660.665285235509
 10
5153.469786096772
 20
3660.665286885472
 10
5153.441786103947
 20
3660.66529344626
 10
5153.274511005166
 20
3660.665366954622
 10
5153.22651329734
 20
3660.66537365527
 10
5153.034517314686
 20
3660.665305829444
 10
5152.969237133493
 20
3660.665287707225
  0
LINE
  5
1A4C
330
1F
100
AcDbEntity
  8
SANINDUSA
100
AcDbLine
 10
5153.493878908367
 20
3660.673892196931
 30
0.0
 11
5153.493476189288
 21
3660.672437483761
 31
0.0
  0
LINE
  5
1A4D
330
1F
100
AcDbEntity
  8
SANINDUSA
100
AcDbLine
 10
5152.959549752305
 20
3660.672436115441
 30
0.0
 11
5152.959148398158
 21
3660.673883307553
 31
0.0
  0
CIRCLE
  5
1A6D
330
1F
100
AcDbEntity
  8
SANINDUSA
100
AcDbCircle
 10
5153.426520848239
 20
3660.55873185038
 30
0.0
 40
0.0107487273276863
  0
CIRCLE
  5
1A6F
330
1F
100
AcDbEntity
  8
SANINDUSA
100
AcDbCircle
 10
5153.026503122805
 20
3660.558733577332
 30
0.0
 40
0.0107492646815478
  0
CIRCLE
  5
1A71
330
1F
100
AcDbEntity
  8
SANINDUSA
100
AcDbCircle
 10
5153.346528594365
 20
3660.558744162823
 30
0.0
 40
0.0107481552826212
  0
CIRCLE
  5
1A73
330
1F
100
AcDbEntity
  8
SANINDUSA
100
AcDbCircle
 10
5153.106496840438
 20
3660.558746691035
 30
0.0
 40
0.0107492678089925
  0
CIRCLE
  5
1A75
330
1F
100
AcDbEntity
  8
SANINDUSA
100
AcDbCircle
 10
5153.266522204383
 20
3660.558758477331
 30
0.0
 40
0.010747925805628
  0
CIRCLE
  5
1A77
330
1F
100
AcDbEntity
  8
SANINDUSA
100
AcDbCircle
 10
5153.186504986756
 20
3660.558759777675
 30
0.0
 40
0.0107485744336572
  0
CIRCLE
  5
1A7B
330
1F
100
AcDbEntity
  8
SANINDUSA
100
AcDbCircle
 10
5153.426521455005
 20
3660.478743355659
 30
0.0
 40
0.0107486162621782
  0
CIRCLE
  5
1A7D
330
1F
100
AcDbEntity
  8
SANINDUSA
100
AcDbCircle
 10
5153.026502060653
 20
3660.478745152237
 30
0.0
 40
0.0107491743432782
  0
CIRCLE
  5
1AA2
330
1F
100
AcDbEntity
  8
SANINDUSA
100
AcDbCircle
 10
5153.346532216099
 20
3660.478757218935
 30
0.0
 40
0.0107480225598602
  0
CIRCLE
  5
1AA4
330
1F
100
AcDbEntity
  8
SANINDUSA
100
AcDbCircle
 10
5153.106493142026
 20
3660.478760171761
 30
0.0
 40
0.010749321596685
  0
CIRCLE
  5
1AA6
330
1F
100
AcDbEntity
  8
SANINDUSA
100
AcDbCircle
 10
5153.426522120792
 20
3660.398756505268
 30
0.0
 40
0.0107482597638995
  0
CIRCLE
  5
1AA8
330
1F
100
AcDbEntity
  8
SANINDUSA
100
AcDbCircle
 10
5153.026501401563
 20
3660.398758423698
 30
0.0
 40
0.0107488314039841
  0
CIRCLE
  5
1AAA
330
1F
100
AcDbEntity
  8
SANINDUSA
100
AcDbCircle
 10
5153.266525162973
 20
3660.478774745551
 30
0.0
 40
0.0107478418654418
  0
CIRCLE
  5
1AAC
330
1F
100
AcDbEntity
  8
SANINDUSA
100
AcDbCircle
 10
5153.186502595437
 20
3660.478776324634
 30
0.0
 40
0.0107486492017803
  0
CIRCLE
  5
1AAE
330
1F
100
AcDbEntity
  8
SANINDUSA
100
AcDbCircle
 10
5153.346535104567
 20
3660.398771361357
 30
0.0
 40
0.0107477655596212
  0
CIRCLE
  5
1AB0
330
1F
100
AcDbEntity
  8
SANINDUSA
100
AcDbCircle
 10
5153.106490143714
 20
3660.398774486991
 30
0.0
 40
0.0107491511504583
  0
CIRCLE
  5
1AB2
330
1F
100
AcDbEntity
  8
SANINDUSA
100
AcDbCircle
 10
5153.426523305375
 20
3660.318773475528
 30
0.0
 40
0.0107475433981296
  0
CIRCLE
  5
1AB4
330
1F
100
AcDbEntity
  8
SANINDUSA
100
AcDbCircle
 10
5153.026500610685
 20
3660.318775403445
 30
0.0
 40
0.01074828175565
  0
CIRCLE
  5
1AB6
330
1F
100
AcDbEntity
  8
SANINDUSA
100
AcDbCircle
 10
5153.266527977973
 20
3660.398791098379
 30
0.0
 40
0.0107477470734522
  0
CIRCLE
  5
1AB8
330
1F
100
AcDbEntity
  8
SANINDUSA
100
AcDbCircle
 10
5153.18650014224
 20
3660.398792949667
 30
0.0
 40
0.0107487037267904
  0
CIRCLE
  5
1ABA
330
1F
100
AcDbEntity
  8
SANINDUSA
100
AcDbCircle
 10
5153.34653624111
 20
3660.318788451296
 30
0.0
 40
0.0107473191644819
  0
CIRCLE
  5
1ABC
330
1F
100
AcDbEntity
  8
SANINDUSA
100
AcDbCircle
 10
5153.106489056495
 20
3660.318791331737
 30
0.0
 40
0.0107486186124419
  0
CIRCLE
  5
1ABE
330
1F
100
AcDbEntity
  8
SANINDUSA
100
AcDbCircle
 10
5153.426525368324
 20
3660.238795903247
 30
0.0
 40
0.0107467530356348
  0
CIRCLE
  5
1AC0
330
1F
100
AcDbEntity
  8
SANINDUSA
100
AcDbCircle
 10
5153.026499208905
 20
3660.238797341862
 30
0.0
 40
0.0107476945264825
  0
CIRCLE
  5
1AC2
330
1F
100
AcDbEntity
  8
SANINDUSA
100
AcDbCircle
 10
5153.266529863371
 20
3660.318807958898
 30
0.0
 40
0.0107476988486223
  0
CIRCLE
  5
1AC4
330
1F
100
AcDbEntity
  8
SANINDUSA
100
AcDbCircle
 10
5153.186498598977
 20
3660.318809759683
 30
0.0
 40
0.0107486093924077
  0
CIRCLE
  5
1AC6
330
1F
100
AcDbEntity
  8
SANINDUSA
100
AcDbCircle
 10
5153.346534731251
 20
3660.238809965045
 30
0.0
 40
0.0107469182082651
  0
CIRCLE
  5
1AC8
330
1F
100
AcDbEntity
  8
SANINDUSA
100
AcDbCircle
 10
5153.106490556247
 20
3660.238812024721
 30
0.0
 40
0.0107479646859431
  0
CIRCLE
  5
1ACA
330
1F
100
AcDbEntity
  8
SANINDUSA
100
AcDbCircle
 10
5153.266528973568
 20
3660.238825707189
 30
0.0
 40
0.0107477124935526
  0
CIRCLE
  5
1ACC
330
1F
100
AcDbEntity
  8
SANINDUSA
100
AcDbCircle
 10
5153.186499073261
 20
3660.238827248661
 30
0.0
 40
0.010748412914961
  0
CIRCLE
  5
1ACE
330
1F
100
AcDbEntity
  8
SANINDUSA
100
AcDbCircle
 10
5153.426527313877
 20
3660.15882081142
 30
0.0
 40
0.0107469965315232
  0
CIRCLE
  5
1AD0
330
1F
100
AcDbEntity
  8
SANINDUSA
100
AcDbCircle
 10
5153.02649780878
 20
3660.158821708036
 30
0.0
 40
0.0107479083450425
  0
CIRCLE
  5
1AD2
330
1F
100
AcDbEntity
  8
SANINDUSA
100
AcDbCircle
 10
5153.346531376772
 20
3660.158832339978
 30
0.0
 40
0.0107476364489987
  0
CIRCLE
  5
1AD4
330
1F
100
AcDbEntity
  8
SANINDUSA
100
AcDbCircle
 10
5153.106493605971
 20
3660.158833288431
 30
0.0
 40
0.0107484237279174
  0
CIRCLE
  5
1AD6
330
1F
100
AcDbEntity
  8
SANINDUSA
100
AcDbCircle
 10
5153.266524298536
 20
3660.158844930811
 30
0.0
 40
0.0107479021653843
  0
CIRCLE
  5
1AD8
330
1F
100
AcDbEntity
  8
SANINDUSA
100
AcDbCircle
 10
5153.186503136284
 20
3660.158845309728
 30
0.0
 40
0.0107480769282381
  0
CIRCLE
  5
1AD9
330
1F
100
AcDbEntity
  8
SANINDUSA
100
AcDbCircle
 10
5153.226512641926
 20
3660.010430848832
 30
0.0
 40
0.0739809846612736
  0
CIRCLE
  5
1ADB
330
1F
100
AcDbEntity
  8
SANINDUSA
100
AcDbCircle
 10
5153.226512211962
 20
3660.010433163825
 30
0.0
 40
0.0500000000000001
  0
ENDSEC
  0
SECTION
  2
OBJECTS
  0
DICTIONARY
  5
C
330
0
100
AcDbDictionary
281
     1
  3
ACAD_COLOR
350
EE6
  3
ACAD_GROUP
350
D
  3
ACAD_LAYOUT
350
1A
  3
ACAD_MATERIAL
350
EE5
  3
ACAD_MLINESTYLE
350
17
  3
ACAD_PLOTSETTINGS
350
19
  3
ACAD_PLOTSTYLENAME
350
E
  3
ACAD_TABLESTYLE
350
EE7
  3
ACDBHEADERROUNDTRIPXREC
350
2158
  3
AcDbVariableDictionary
350
3D
  3
ASE_INDEX_DICTIONARY
350
2130
  0
DICTIONARY
  5
1051
330
2
100
AcDbDictionary
280
     1
281
     1
  3
ACAD_LAYERFILTERS
360
1057
  3
ACLYDICTIONARY
360
1056
  0
DICTIONARY
  5
EE6
102
{ACAD_REACTORS
330
C
102
}
330
C
100
AcDbDictionary
281
     1
  0
DICTIONARY
  5
D
102
{ACAD_REACTORS
330
C
102
}
330
C
100
AcDbDictionary
281
     1
  0
DICTIONARY
  5
1A
102
{ACAD_REACTORS
330
C
102
}
330
C
100
AcDbDictionary
281
     1
  3
Layout1
350
1E
  3
Layout2
350
26
  3
Model
350
22
  0
DICTIONARY
  5
EE5
102
{ACAD_REACTORS
330
C
102
}
330
C
100
AcDbDictionary
281
     1
  0
DICTIONARY
  5
17
102
{ACAD_REACTORS
330
C
102
}
330
C
100
AcDbDictionary
281
     1
  3
Standard
350
18
  0
DICTIONARY
  5
19
102
{ACAD_REACTORS
330
C
102
}
330
C
100
AcDbDictionary
281
     1
  0
ACDBDICTIONARYWDFLT
  5
E
102
{ACAD_REACTORS
330
C
102
}
330
C
100
AcDbDictionary
281
     1
  3
Normal
350
F
100
AcDbDictionaryWithDefault
340
F
  0
DICTIONARY
  5
EE7
102
{ACAD_REACTORS
330
C
102
}
330
C
100
AcDbDictionary
281
     1
  3
Standard
350
EE8
  0
DICTIONARY
  5
2158
102
{ACAD_REACTORS
330
C
102
}
330
C
100
AcDbDictionary
281
     1
  0
DICTIONARY
  5
3D
102
{ACAD_REACTORS
330
C
102
}
330
C
100
AcDbDictionary
281
     1
  3
CTABLESTYLE
350
1049
  3
DIMASSOC
350
3F
  3
HIDETEXT
350
3E
  3
PROJECTNAME
350
2150
  0
DICTIONARY
  5
2130
102
{ACAD_REACTORS
330
C
102
}
330
C
100
AcDbDictionary
281
     1
  3
ASEBlockHierarchyIndexRecord
350
2131
1001
DCO15
1040
1598619677.437
  0
DICTIONARY
  5
1057
102
{ACAD_REACTORS
330
1051
102
}
330
1051
100
AcDbDictionary
281
     1
  0
DICTIONARY
  5
1056
102
{ACAD_REACTORS
330
1051
102
}
330
1051
100
AcDbDictionary
281
     1
1001
ACAD
1000
<All
  0
LAYOUT
  5
1E
102
{ACAD_XDICTIONARY
360
2159
102
}
102
{ACAD_REACTORS
330
1A
102
}
330
1A
100
AcDbPlotSettings
  1

  2
Ploter HP500
  4

  6

 40
0.0
 41
0.0
 42
0.0
 43
0.0
 44
0.0
 45
0.0
 46
0.0
 47
0.0
 48
0.0
 49
0.0
140
0.0
141
0.0
142
1.0
143
1.0
 70
   688
 72
     0
 73
     0
 74
     5
  7
sanindusa.ctb
 75
    16
147
1.0
148
0.0
149
0.0
100
AcDbLayout
  1
Layout1
 70
     1
 71
     1
 10
0.0
 20
0.0
 11
420.0
 21
297.0
 12
0.0
 22
0.0
 32
0.0
 14
1.000000000000000E+20
 24
1.000000000000000E+20
 34
1.000000000000000E+20
 15
-1.000000000000000E+20
 25
-1.000000000000000E+20
 35
-1.000000000000000E+20
146
0.0
 13
0.0
 23
0.0
 33
0.0
 16
1.0
 26
0.0
 36
0.0
 17
0.0
 27
1.0
 37
0.0
 76
     0
330
1B
  0
LAYOUT
  5
26
102
{ACAD_XDICTIONARY
360
215D
102
}
102
{ACAD_REACTORS
330
1A
102
}
330
1A
100
AcDbPlotSettings
  1

  2
Ploter HP500
  4

  6

 40
0.0
 41
0.0
 42
0.0
 43
0.0
 44
0.0
 45
0.0
 46
0.0
 47
0.0
 48
0.0
 49
0.0
140
0.0
141
0.0
142
1.0
143
1.0
 70
   688
 72
     0
 73
     0
 74
     5
  7
sanindusa.ctb
 75
    16
147
1.0
148
0.0
149
0.0
100
AcDbLayout
  1
Layout2
 70
     1
 71
     2
 10
0.0
 20
0.0
 11
12.0
 21
9.0
 12
0.0
 22
0.0
 32
0.0
 14
0.0
 24
0.0
 34
0.0
 15
0.0
 25
0.0
 35
0.0
146
0.0
 13
0.0
 23
0.0
 33
0.0
 16
1.0
 26
0.0
 36
0.0
 17
0.0
 27
1.0
 37
0.0
 76
     0
330
23
  0
LAYOUT
  5
22
102
{ACAD_XDICTIONARY
360
215B
102
}
102
{ACAD_REACTORS
330
1A
102
}
330
1A
100
AcDbPlotSettings
  1

  2
Ploter HP500
  4
User268
  6

 40
4.995333194732666
 41
16.97565841674804
 42
4.995330810546875
 43
16.97567749023437
 44
209.9733276367187
 45
296.9259948730469
 46
0.0
 47
0.0
 48
0.0
 49
0.0
140
0.0
141
0.0
142
1.0
143
1.0
 70
 11952
 72
     1
 73
     1
 74
     0
  7
sanindusa.ctb
 75
     0
147
1.0
148
-427.5957866592534
149
7.362384574453926
100
AcDbLayout
  1
Model
 70
     1
 71
     0
 10
0.0
 20
0.0
 11
12.0
 21
9.0
 12
0.0
 22
0.0
 32
0.0
 14
0.0
 24
0.0
 34
0.0
 15
0.0
 25
0.0
 35
0.0
146
0.0
 13
0.0
 23
0.0
 33
0.0
 16
1.0
 26
0.0
 36
0.0
 17
0.0
 27
1.0
 37
0.0
 76
     0
330
1F
  0
MLINESTYLE
  5
18
102
{ACAD_REACTORS
330
17
102
}
330
17
100
AcDbMlineStyle
  2
STANDARD
 70
     0
  3

 62
   256
 51
90.0
 52
90.0
 71
     2
 49
0.5
 62
   256
  6
BYLAYER
 49
-0.5
 62
   256
  6
BYLAYER
  0
ACDBPLACEHOLDER
  5
F
102
{ACAD_REACTORS
330
E
102
}
330
E
  0
TABLESTYLE
  5
EE8
102
{ACAD_REACTORS
330
EE7
102
}
330
EE7
100
AcDbTableStyle
  3
Standard
 70
     0
 71
     0
 40
1.5
 41
1.5
280
     0
281
     0
  7
Standard
140
4.5
170
     2
 62
     0
 63
     7
283
     0
274
    -2
284
     1
 64
     0
275
    -2
285
     1
 65
     0
276
    -2
286
     1
 66
     0
277
    -2
287
     1
 67
     0
278
    -2
288
     1
 68
     0
279
    -2
289
     1
 69
     0
  7
Standard
140
6.0
170
     5
 62
     0
 63
     7
283
     0
274
    -2
284
     1
 64
     0
275
    -2
285
     1
 65
     0
276
    -2
286
     1
 66
     0
277
    -2
287
     1
 67
     0
278
    -2
288
     1
 68
     0
279
    -2
289
     1
 69
     0
  7
Standard
140
4.5
170
     5
 62
     0
 63
     7
283
     0
274
    -2
284
     1
 64
     0
275
    -2
285
     1
 65
     0
276
    -2
286
     1
 66
     0
277
    -2
287
     1
 67
     0
278
    -2
288
     1
 68
     0
279
    -2
289
     1
 69
     0
  0
DICTIONARYVAR
  5
1049
102
{ACAD_REACTORS
330
3D
102
}
330
3D
100
DictionaryVariables
280
     0
  1
STANDARD
  0
DICTIONARYVAR
  5
3F
102
{ACAD_REACTORS
330
3D
102
}
330
3D
100
DictionaryVariables
280
     0
  1
2
  0
DICTIONARYVAR
  5
3E
102
{ACAD_REACTORS
330
3D
102
}
330
3D
100
DictionaryVariables
280
     0
  1
1
  0
DICTIONARYVAR
  5
2150
102
{ACAD_REACTORS
330
3D
102
}
330
3D
100
DictionaryVariables
280
     0
  1

  0
XRECORD
  5
2131
102
{ACAD_REACTORS
330
2130
102
}
330
2130
100
AcDbXrecord
280
     1
  0
DICTIONARY
  5
2159
330
1E
100
AcDbDictionary
280
     1
281
     1
  3
ACAD_XREC_ROUNDTRIP
360
215A
  0
DICTIONARY
  5
215D
330
26
100
AcDbDictionary
280
     1
281
     1
  3
ACAD_XREC_ROUNDTRIP
360
215E
  0
DICTIONARY
  5
215B
330
22
100
AcDbDictionary
280
     1
281
     1
  3
ACAD_XREC_ROUNDTRIP
360
215C
  0
XRECORD
  5
215A
102
{ACAD_REACTORS
330
2159
102
}
330
2159
100
AcDbXrecord
280
     1
102
SHADEPLOT
 70
     0
102
SHADEPLOTRESLEVEL
 70
     2
102
SHADEPLOTCUSTOMDPI
 70
   300
  0
XRECORD
  5
215E
102
{ACAD_REACTORS
330
215D
102
}
330
215D
100
AcDbXrecord
280
     1
102
SHADEPLOT
 70
     0
102
SHADEPLOTRESLEVEL
 70
     2
102
SHADEPLOTCUSTOMDPI
 70
   300
  0
XRECORD
  5
215C
102
{ACAD_REACTORS
330
215B
102
}
330
215B
100
AcDbXrecord
280
     1
102
SHADEPLOT
 70
     0
102
SHADEPLOTRESLEVEL
 70
     2
102
SHADEPLOTCUSTOMDPI
 70
   300
  0
ENDSEC
  0
EOF
