  0
SECTION
  2
HEADER
  9
$ACADVER
  1
AC1015
  9
$ACADMAINTVER
 70
    20
  9
$DWGCODEPAGE
  3
ANSI_1252
  9
$INSBASE
 10
0.0
 20
0.0
 30
0.0
  9
$EXTMIN
 10
4730.056831503754
 20
2897.272906818083
 30
-0.0000000000000002
  9
$EXTMAX
 10
4734.065383163017
 20
2898.025699640895
 30
0.0000000000000002
  9
$LIMMIN
 10
0.0
 20
0.0
  9
$LIMMAX
 10
420.0
 20
297.0
  9
$ORTHOMODE
 70
     0
  9
$REGENMODE
 70
     1
  9
$FILLMODE
 70
     1
  9
$QTEXTMODE
 70
     0
  9
$MIRRTEXT
 70
     1
  9
$LTSCALE
 40
1.0
  9
$ATTMODE
 70
     1
  9
$TEXTSIZE
 40
2.5
  9
$TRACEWID
 40
1.0
  9
$TEXTSTYLE
  7
SANINDUSA
  9
$CLAYER
  8
0
  9
$CELTYPE
  6
ByLayer
  9
$CECOLOR
 62
   256
  9
$CELTSCALE
 40
1.0
  9
$DISPSILH
 70
     0
  9
$DIMSCALE
 40
1.0
  9
$DIMASZ
 40
2.0
  9
$DIMEXO
 40
1.0
  9
$DIMDLI
 40
1.0
  9
$DIMRND
 40
0.0
  9
$DIMDLE
 40
0.0
  9
$DIMEXE
 40
1.0
  9
$DIMTP
 40
0.0
  9
$DIMTM
 40
0.0
  9
$DIMTXT
 40
2.0
  9
$DIMCEN
 40
0.0
  9
$DIMTSZ
 40
0.0
  9
$DIMTOL
 70
     0
  9
$DIMLIM
 70
     0
  9
$DIMTIH
 70
     0
  9
$DIMTOH
 70
     0
  9
$DIMSE1
 70
     0
  9
$DIMSE2
 70
     0
  9
$DIMTAD
 70
     1
  9
$DIMZIN
 70
     8
  9
$DIMBLK
  1

  9
$DIMASO
 70
     1
  9
$DIMSHO
 70
     1
  9
$DIMPOST
  1

  9
$DIMAPOST
  1

  9
$DIMALT
 70
     0
  9
$DIMALTD
 70
     3
  9
$DIMALTF
 40
0.03937007874016
  9
$DIMLFAC
 40
1.0
  9
$DIMTOFL
 70
     1
  9
$DIMTVP
 40
0.0
  9
$DIMTIX
 70
     0
  9
$DIMSOXD
 70
     0
  9
$DIMSAH
 70
     0
  9
$DIMBLK1
  1

  9
$DIMBLK2
  1

  9
$DIMSTYLE
  2
SANINDUSA
  9
$DIMCLRD
 70
   256
  9
$DIMCLRE
 70
   256
  9
$DIMCLRT
 70
   256
  9
$DIMTFAC
 40
1.0
  9
$DIMGAP
 40
1.0
  9
$DIMJUST
 70
     0
  9
$DIMSD1
 70
     0
  9
$DIMSD2
 70
     0
  9
$DIMTOLJ
 70
     0
  9
$DIMTZIN
 70
     8
  9
$DIMALTZ
 70
     0
  9
$DIMALTTZ
 70
     0
  9
$DIMUPT
 70
     0
  9
$DIMDEC
 70
     1
  9
$DIMTDEC
 70
     1
  9
$DIMALTU
 70
     2
  9
$DIMALTTD
 70
     3
  9
$DIMTXSTY
  7
SANINDUSA
  9
$DIMAUNIT
 70
     0
  9
$DIMADEC
 70
     1
  9
$DIMALTRND
 40
0.0
  9
$DIMAZIN
 70
     0
  9
$DIMDSEP
 70
    44
  9
$DIMATFIT
 70
     3
  9
$DIMFRAC
 70
     0
  9
$DIMLDRBLK
  1

  9
$DIMLUNIT
 70
     2
  9
$DIMLWD
 70
    -1
  9
$DIMLWE
 70
    -1
  9
$DIMTMOVE
 70
     0
  9
$LUNITS
 70
     2
  9
$LUPREC
 70
     4
  9
$SKETCHINC
 40
1.0
  9
$FILLETRAD
 40
3.0
  9
$AUNITS
 70
     0
  9
$AUPREC
 70
     0
  9
$MENU
  1
.
  9
$ELEVATION
 40
0.0
  9
$PELEVATION
 40
0.0
  9
$THICKNESS
 40
0.0
  9
$LIMCHECK
 70
     0
  9
$CHAMFERA
 40
10.0
  9
$CHAMFERB
 40
10.0
  9
$CHAMFERC
 40
20.0
  9
$CHAMFERD
 40
0.0
  9
$SKPOLY
 70
     0
  9
$TDCREATE
 40
2454305.524715891
  9
$TDUCREATE
 40
2454305.524715891
  9
$TDUPDATE
 40
2454478.642753357
  9
$TDUUPDATE
 40
2454478.642753357
  9
$TDINDWG
 40
0.0057495949
  9
$TDUSRTIMER
 40
0.0057495949
  9
$USRTIMER
 70
     1
  9
$ANGBASE
 50
0.0
  9
$ANGDIR
 70
     0
  9
$PDMODE
 70
     0
  9
$PDSIZE
 40
0.0
  9
$PLINEWID
 40
0.0
  9
$SPLFRAME
 70
     0
  9
$SPLINETYPE
 70
     6
  9
$SPLINESEGS
 70
     8
  9
$HANDSEED
  5
2820
  9
$SURFTAB1
 70
     6
  9
$SURFTAB2
 70
     6
  9
$SURFTYPE
 70
     6
  9
$SURFU
 70
     6
  9
$SURFV
 70
     6
  9
$UCSBASE
  2

  9
$UCSNAME
  2

  9
$UCSORG
 10
0.0
 20
0.0
 30
0.0
  9
$UCSXDIR
 10
1.0
 20
0.0
 30
0.0
  9
$UCSYDIR
 10
0.0
 20
1.0
 30
0.0
  9
$UCSORTHOREF
  2

  9
$UCSORTHOVIEW
 70
     0
  9
$UCSORGTOP
 10
0.0
 20
0.0
 30
0.0
  9
$UCSORGBOTTOM
 10
0.0
 20
0.0
 30
0.0
  9
$UCSORGLEFT
 10
0.0
 20
0.0
 30
0.0
  9
$UCSORGRIGHT
 10
0.0
 20
0.0
 30
0.0
  9
$UCSORGFRONT
 10
0.0
 20
0.0
 30
0.0
  9
$UCSORGBACK
 10
0.0
 20
0.0
 30
0.0
  9
$PUCSBASE
  2

  9
$PUCSNAME
  2

  9
$PUCSORG
 10
0.0
 20
0.0
 30
0.0
  9
$PUCSXDIR
 10
1.0
 20
0.0
 30
0.0
  9
$PUCSYDIR
 10
0.0
 20
1.0
 30
0.0
  9
$PUCSORTHOREF
  2

  9
$PUCSORTHOVIEW
 70
     0
  9
$PUCSORGTOP
 10
0.0
 20
0.0
 30
0.0
  9
$PUCSORGBOTTOM
 10
0.0
 20
0.0
 30
0.0
  9
$PUCSORGLEFT
 10
0.0
 20
0.0
 30
0.0
  9
$PUCSORGRIGHT
 10
0.0
 20
0.0
 30
0.0
  9
$PUCSORGFRONT
 10
0.0
 20
0.0
 30
0.0
  9
$PUCSORGBACK
 10
0.0
 20
0.0
 30
0.0
  9
$USERI1
 70
     0
  9
$USERI2
 70
     0
  9
$USERI3
 70
     0
  9
$USERI4
 70
     0
  9
$USERI5
 70
     0
  9
$USERR1
 40
0.0
  9
$USERR2
 40
0.0
  9
$USERR3
 40
0.0
  9
$USERR4
 40
0.0
  9
$USERR5
 40
0.0
  9
$WORLDVIEW
 70
     1
  9
$SHADEDGE
 70
     3
  9
$SHADEDIF
 70
    70
  9
$TILEMODE
 70
     1
  9
$MAXACTVP
 70
    64
  9
$PINSBASE
 10
0.0
 20
0.0
 30
0.0
  9
$PLIMCHECK
 70
     0
  9
$PEXTMIN
 10
1.000000000000000E+20
 20
1.000000000000000E+20
 30
1.000000000000000E+20
  9
$PEXTMAX
 10
-1.000000000000000E+20
 20
-1.000000000000000E+20
 30
-1.000000000000000E+20
  9
$PLIMMIN
 10
0.0
 20
0.0
  9
$PLIMMAX
 10
420.0
 20
297.0
  9
$UNITMODE
 70
     0
  9
$VISRETAIN
 70
     1
  9
$PLINEGEN
 70
     0
  9
$PSLTSCALE
 70
     1
  9
$TREEDEPTH
 70
  3020
  9
$CMLSTYLE
  2
Standard
  9
$CMLJUST
 70
     0
  9
$CMLSCALE
 40
20.0
  9
$PROXYGRAPHICS
 70
     1
  9
$MEASUREMENT
 70
     1
  9
$CELWEIGHT
370
    -1
  9
$ENDCAPS
280
     0
  9
$JOINSTYLE
280
     0
  9
$LWDISPLAY
290
     0
  9
$INSUNITS
 70
     4
  9
$HYPERLINKBASE
  1

  9
$STYLESHEET
  1
sanindusa.ctb
  9
$XEDIT
290
     1
  9
$CEPSNTYPE
380
     0
  9
$PSTYLEMODE
290
     1
  9
$FINGERPRINTGUID
  2
{F03C24EE-3353-4958-BC10-46B478D4B11F}
  9
$VERSIONGUID
  2
{B0EABF80-A235-4716-A4CF-2F1993D78250}
  9
$EXTNAMES
290
     1
  9
$PSVPSCALE
 40
0.0
  9
$OLESTARTUP
290
     0
  0
ENDSEC
  0
SECTION
  2
CLASSES
  0
CLASS
  1
ACDBDICTIONARYWDFLT
  2
AcDbDictionaryWithDefault
  3
ObjectDBX Classes
 90
        0
280
     0
281
     0
  0
CLASS
  1
ACDBPLACEHOLDER
  2
AcDbPlaceHolder
  3
ObjectDBX Classes
 90
        0
280
     0
281
     0
  0
CLASS
  1
LAYOUT
  2
AcDbLayout
  3
ObjectDBX Classes
 90
        0
280
     0
281
     0
  0
CLASS
  1
DICTIONARYVAR
  2
AcDbDictionaryVar
  3
ObjectDBX Classes
 90
        0
280
     0
281
     0
  0
CLASS
  1
DIMASSOC
  2
AcDbDimAssoc
  3
"AcDbDimAssoc|Product Desc:     AcDim ARX App For Dimension|Company:          Autodesk, Inc.|WEB Address:      www.autodesk.com"
 90
    32768
280
     0
281
     0
  0
CLASS
  1
TABLESTYLE
  2
AcDbTableStyle
  3
ObjectDBX Classes
 90
     2047
280
     0
281
     0
  0
CLASS
  1
SORTENTSTABLE
  2
AcDbSortentsTable
  3
ObjectDBX Classes
 90
    32768
280
     0
281
     0
  0
ENDSEC
  0
SECTION
  2
TABLES
  0
TABLE
  2
VPORT
  5
8
330
0
100
AcDbSymbolTable
 70
     2
  0
VPORT
  5
2818
330
8
100
AcDbSymbolTableRecord
100
AcDbViewportTableRecord
  2
*Active
 70
     0
 10
0.0
 20
0.0
 11
1.0
 21
1.0
 12
4732.061107333386
 22
2897.659502920074
 13
0.0
 23
0.0
 14
10.0
 24
10.0
 15
10.0
 25
10.0
 16
0.0
 26
0.0
 36
1.0
 17
0.0
 27
0.0
 37
0.0
 40
2.547372723737694
 41
1.579579579579579
 42
50.0
 43
0.0
 44
0.0
 50
0.0
 51
0.0
 71
     0
 72
   100
 73
     1
 74
     2
 75
     0
 76
     0
 77
     0
 78
     0
281
     0
 65
     1
110
0.0
120
0.0
130
0.0
111
1.0
121
0.0
131
0.0
112
0.0
122
1.0
132
0.0
 79
     0
146
0.0
  0
ENDTAB
  0
TABLE
  2
LTYPE
  5
5
330
0
100
AcDbSymbolTable
 70
     5
  0
LTYPE
  5
14
330
5
100
AcDbSymbolTableRecord
100
AcDbLinetypeTableRecord
  2
ByBlock
 70
     0
  3

 72
    65
 73
     0
 40
0.0
  0
LTYPE
  5
15
330
5
100
AcDbSymbolTableRecord
100
AcDbLinetypeTableRecord
  2
ByLayer
 70
     0
  3

 72
    65
 73
     0
 40
0.0
  0
LTYPE
  5
16
330
5
100
AcDbSymbolTableRecord
100
AcDbLinetypeTableRecord
  2
Continuous
 70
     0
  3
Solid line
 72
    65
 73
     0
 40
0.0
  0
LTYPE
  5
2D
330
5
100
AcDbSymbolTableRecord
100
AcDbLinetypeTableRecord
  2
DASHDOT
 70
     0
  3
Dash dot __ . __ . __ . __ . __ . __ . __ . __
 72
    65
 73
     4
 40
25.4
 49
12.7
 74
     0
 49
-6.349999999999999
 74
     0
 49
0.0
 74
     0
 49
-6.349999999999999
 74
     0
  0
LTYPE
  5
2E
330
5
100
AcDbSymbolTableRecord
100
AcDbLinetypeTableRecord
  2
HIDDEN
 70
     0
  3
Hidden __ __ __ __ __ __ __ __ __ __ __ __ __ _
 72
    65
 73
     2
 40
9.524999999999998
 49
6.349999999999999
 74
     0
 49
-3.174999999999999
 74
     0
  0
LTYPE
  5
C75
330
5
100
AcDbSymbolTableRecord
100
AcDbLinetypeTableRecord
  2
AM_ISO02W050
 70
     0
  3
__ __ __ __ __ __ __ __ __ __ __ __ __ __ __
 72
    65
 73
     2
 40
7.5
 49
6.0
 74
     0
 49
-1.5
 74
     0
  0
LTYPE
  5
C76
330
5
100
AcDbSymbolTableRecord
100
AcDbLinetypeTableRecord
  2
AM_ISO08W050
 70
     0
  3
____ . ____ . ____ . ____ . ____ . ____ . ____
 72
    65
 73
     4
 40
18.0
 49
12.0
 74
     0
 49
-1.5
 74
     0
 49
3.0
 74
     0
 49
-1.5
 74
     0
  0
ENDTAB
  0
TABLE
  2
LAYER
  5
2
102
{ACAD_XDICTIONARY
360
1051
102
}
330
0
100
AcDbSymbolTable
 70
    16
  0
LAYER
  5
10
330
2
100
AcDbSymbolTableRecord
100
AcDbLayerTableRecord
  2
0
 70
     0
 62
     7
  6
Continuous
370
    -3
390
F
  0
LAYER
  5
2F
330
2
100
AcDbSymbolTableRecord
100
AcDbLayerTableRecord
  2
1
 70
     0
 62
     1
  6
Continuous
370
    -3
390
F
  0
LAYER
  5
30
330
2
100
AcDbSymbolTableRecord
100
AcDbLayerTableRecord
  2
2
 70
     0
 62
     2
  6
Continuous
370
    -3
390
F
  0
LAYER
  5
31
330
2
100
AcDbSymbolTableRecord
100
AcDbLayerTableRecord
  2
3
 70
     0
 62
     3
  6
Continuous
370
    -3
390
F
  0
LAYER
  5
32
330
2
100
AcDbSymbolTableRecord
100
AcDbLayerTableRecord
  2
4
 70
     0
 62
     4
  6
Continuous
370
    -3
390
F
  0
LAYER
  5
33
330
2
100
AcDbSymbolTableRecord
100
AcDbLayerTableRecord
  2
5
 70
     0
 62
     5
  6
Continuous
370
    -3
390
F
  0
LAYER
  5
34
330
2
100
AcDbSymbolTableRecord
100
AcDbLayerTableRecord
  2
6
 70
     0
 62
     6
  6
Continuous
370
    -3
390
F
  0
LAYER
  5
35
330
2
100
AcDbSymbolTableRecord
100
AcDbLayerTableRecord
  2
7
 70
     0
 62
     7
  6
Continuous
370
    -3
390
F
  0
LAYER
  5
36
330
2
100
AcDbSymbolTableRecord
100
AcDbLayerTableRecord
  2
cen
 70
     0
 62
     7
  6
DASHDOT
370
    -3
390
F
  0
LAYER
  5
37
330
2
100
AcDbSymbolTableRecord
100
AcDbLayerTableRecord
  2
hid
 70
     0
 62
     7
  6
HIDDEN
370
    -3
390
F
  0
LAYER
  5
5D6
330
2
100
AcDbSymbolTableRecord
100
AcDbLayerTableRecord
  2
hatch
 70
     0
 62
     9
  6
Continuous
370
    -3
390
F
  0
LAYER
  5
8AF
330
2
100
AcDbSymbolTableRecord
100
AcDbLayerTableRecord
  2
9
 70
     0
 62
     9
  6
Continuous
370
    -3
390
F
  0
LAYER
  5
8F8
330
2
100
AcDbSymbolTableRecord
100
AcDbLayerTableRecord
  2
leg fin
 70
     0
 62
     9
  6
Continuous
370
    -3
390
F
  0
LAYER
  5
91D
330
2
100
AcDbSymbolTableRecord
100
AcDbLayerTableRecord
  2
cotas
 70
     0
 62
     1
  6
Continuous
370
    -3
390
F
  0
LAYER
  5
92F
330
2
100
AcDbSymbolTableRecord
100
AcDbLayerTableRecord
  2
Defpoints
 70
     0
 62
     7
  6
Continuous
290
     0
370
    -3
390
F
  0
LAYER
  5
C7B
330
2
100
AcDbSymbolTableRecord
100
AcDbLayerTableRecord
  2
SANINDUSA
 70
     0
 62
     3
  6
Continuous
370
    -3
390
F
  0
ENDTAB
  0
TABLE
  2
STYLE
  5
3
330
0
100
AcDbSymbolTable
 70
     4
  0
STYLE
  5
11
330
3
100
AcDbSymbolTableRecord
100
AcDbTextStyleTableRecord
  2
Standard
 70
     0
 40
0.0
 41
1.0
 50
0.0
 71
     0
 42
2.5
  3
Avgardn.ttf
  4

1001
ACAD
1000
AvantGarde Bk BT
1071
       34
  0
STYLE
  5
2C
330
3
100
AcDbSymbolTableRecord
100
AcDbTextStyleTableRecord
  2

 70
     1
 40
0.0
 41
1.0
 50
0.0
 71
     0
 42
2.5
  3
ltypeshp.shx
  4

  0
STYLE
  5
91F
330
3
100
AcDbSymbolTableRecord
100
AcDbTextStyleTableRecord
  2
SANINDUSA
 70
     0
 40
0.0
 41
1.0
 50
0.0
 71
     0
 42
2.5
  3
verdana.TTF
  4

1001
ACAD
1000
Verdana
1071
       34
  0
STYLE
  5
C7C
330
3
100
AcDbSymbolTableRecord
100
AcDbTextStyleTableRecord
  2
futura
 70
     0
 40
0.0
 41
1.0
 50
0.0
 71
     0
 42
2.5
  3
ZURCHN.TTF
  4

1001
ACAD
1000
Zurich BT
1071
       34
  0
ENDTAB
  0
TABLE
  2
VIEW
  5
6
330
0
100
AcDbSymbolTable
 70
     0
  0
ENDTAB
  0
TABLE
  2
UCS
  5
7
330
0
100
AcDbSymbolTable
 70
     0
  0
ENDTAB
  0
TABLE
  2
APPID
  5
9
330
0
100
AcDbSymbolTable
 70
    11
  0
APPID
  5
12
330
9
100
AcDbSymbolTableRecord
100
AcDbRegAppTableRecord
  2
ACAD
 70
     0
  0
APPID
  5
3A
330
9
100
AcDbSymbolTableRecord
100
AcDbRegAppTableRecord
  2
DCO15
 70
     0
  0
APPID
  5
EEE
330
9
100
AcDbSymbolTableRecord
100
AcDbRegAppTableRecord
  2
ACAD_DSTYLE_DIMTEXT_FILL
 70
     0
  0
APPID
  5
EEF
330
9
100
AcDbSymbolTableRecord
100
AcDbRegAppTableRecord
  2
ACAD_DSTYLE_DIMEXT_LENGTH
 70
     0
  0
APPID
  5
EF0
330
9
100
AcDbSymbolTableRecord
100
AcDbRegAppTableRecord
  2
ACAD_DSTYLE_DIMEXT_ENABLED
 70
     0
  0
APPID
  5
EF1
330
9
100
AcDbSymbolTableRecord
100
AcDbRegAppTableRecord
  2
ACAD_DSTYLE_DIM_LINETYPE
 70
     0
  0
APPID
  5
EF2
330
9
100
AcDbSymbolTableRecord
100
AcDbRegAppTableRecord
  2
ACAD_DSTYLE_DIM_EXT1_LINETYPE
 70
     0
  0
APPID
  5
EF3
330
9
100
AcDbSymbolTableRecord
100
AcDbRegAppTableRecord
  2
ACAD_DSTYLE_DIM_EXT2_LINETYPE
 70
     0
  0
APPID
  5
FAF
330
9
100
AcDbSymbolTableRecord
100
AcDbRegAppTableRecord
  2
ACAD_DSTYLE_DIMJOGGED_JOGANGLE_SYMBOL
 70
     0
  0
APPID
  5
1013
330
9
100
AcDbSymbolTableRecord
100
AcDbRegAppTableRecord
  2
ACAD_DSTYLE_DIMARC_LENGTH_SYMBOL
 70
     0
  0
APPID
  5
12EF
330
9
100
AcDbSymbolTableRecord
100
AcDbRegAppTableRecord
  2
ACAD_PSEXT
 70
     0
  0
ENDTAB
  0
TABLE
  2
DIMSTYLE
  5
A
330
0
100
AcDbSymbolTable
 70
     3
100
AcDbDimStyleTable
 71
     1
340
921
  0
DIMSTYLE
105
45
330
A
100
AcDbSymbolTableRecord
100
AcDbDimStyleTableRecord
  2
STANDARD
 70
     0
289
     0
340
11
  0
DIMSTYLE
105
921
330
A
100
AcDbSymbolTableRecord
100
AcDbDimStyleTableRecord
  2
SANINDUSA
 70
     0
 41
2.0
 42
1.0
 43
1.0
 44
1.0
 73
     0
 74
     0
 77
     1
 78
     8
140
2.0
141
0.0
143
0.03937007874016
147
1.0
171
     3
172
     1
176
   256
177
   256
178
   256
179
     1
271
     1
272
     1
274
     3
278
    44
283
     0
284
     8
340
91F
371
    -1
372
    -1
1001
ACAD_DSTYLE_DIMEXT_LENGTH
1070
   378
1040
1.0
1001
ACAD_DSTYLE_DIMEXT_ENABLED
1070
   383
1070
     0
1001
ACAD_DSTYLE_DIMARC_LENGTH_SYMBOL
1070
   379
1070
     0
1001
ACAD_DSTYLE_DIMJOGGED_JOGANGLE_SYMBOL
1070
   384
1040
1.570796326794896
  0
DIMSTYLE
105
C7D
330
A
100
AcDbSymbolTableRecord
100
AcDbDimStyleTableRecord
  2
AM_ISO
 70
     0
  4
"
 41
2.5
 42
1.0
 43
10.0
 44
1.0
 47
0.1
 48
0.1
 73
     0
 74
     0
 77
     1
 78
     8
 79
     2
140
3.5
141
0.0
143
0.0393701
146
0.71
147
1.5
172
     1
176
   256
177
   256
178
     2
271
     2
272
     3
274
     4
283
     0
284
     8
340
11
371
    -1
372
    -1
  0
ENDTAB
  0
TABLE
  2
BLOCK_RECORD
  5
1
330
0
100
AcDbSymbolTable
 70
   123
  0
BLOCK_RECORD
  5
1F
330
1
100
AcDbSymbolTableRecord
100
AcDbBlockTableRecord
  2
*Model_Space
340
22
  0
BLOCK_RECORD
  5
1B
330
1
100
AcDbSymbolTableRecord
100
AcDbBlockTableRecord
  2
*Paper_Space
340
1E
  0
BLOCK_RECORD
  5
23
330
1
100
AcDbSymbolTableRecord
100
AcDbBlockTableRecord
  2
*Paper_Space0
340
26
  0
BLOCK_RECORD
  5
919
330
1
100
AcDbSymbolTableRecord
100
AcDbBlockTableRecord
  2
_DotSmall
340
0
  0
BLOCK_RECORD
  5
922
330
1
100
AcDbSymbolTableRecord
100
AcDbBlockTableRecord
  2
base para cotas
340
0
310
2800000020000000200000000100080000000000000400000000000000000000000000000000000000000000000080000080000000808000800000008000800080800000C0C0C000C0DCC000F0CAA6000020400000206000002080000020A0000020C0000020E00000400000004020000040400000406000004080000040A0
310
000040C0000040E00000600000006020000060400000606000006080000060A0000060C0000060E00000800000008020000080400000806000008080000080A0000080C0000080E00000A0000000A0200000A0400000A0600000A0800000A0A00000A0C00000A0E00000C0000000C0200000C0400000C0600000C0800000C0
310
A00000C0C00000C0E00000E0000000E0200000E0400000E0600000E0800000E0A00000E0C00000E0E00040000000400020004000400040006000400080004000A0004000C0004000E00040200000402020004020400040206000402080004020A0004020C0004020E000404000004040200040404000404060004040800040
310
40A0004040C0004040E00040600000406020004060400040606000406080004060A0004060C0004060E00040800000408020004080400040806000408080004080A0004080C0004080E00040A0000040A0200040A0400040A0600040A0800040A0A00040A0C00040A0E00040C0000040C0200040C0400040C0600040C08000
310
40C0A00040C0C00040C0E00040E0000040E0200040E0400040E0600040E0800040E0A00040E0C00040E0E00080000000800020008000400080006000800080008000A0008000C0008000E00080200000802020008020400080206000802080008020A0008020C0008020E00080400000804020008040400080406000804080
310
008040A0008040C0008040E00080600000806020008060400080606000806080008060A0008060C0008060E00080800000808020008080400080806000808080008080A0008080C0008080E00080A0000080A0200080A0400080A0600080A0800080A0A00080A0C00080A0E00080C0000080C0200080C0400080C0600080C0
310
800080C0A00080C0C00080C0E00080E0000080E0200080E0400080E0600080E0800080E0A00080E0C00080E0E000C0000000C0002000C0004000C0006000C0008000C000A000C000C000C000E000C0200000C0202000C0204000C0206000C0208000C020A000C020C000C020E000C0400000C0402000C0404000C0406000C0
310
408000C040A000C040C000C040E000C0600000C0602000C0604000C0606000C0608000C060A000C060C000C060E000C0800000C0802000C0804000C0806000C0808000C080A000C080C000C080E000C0A00000C0A02000C0A04000C0A06000C0A08000C0A0A000C0A0C000C0A0E000C0C00000C0C02000C0C04000C0C06000
310
C0C08000C0C0A000F0FBFF00A4A0A000808080000000FF0000FF000000FFFF00FF000000FF00FF00FFFF0000FFFFFF00A4A4A4A4A4A4A4A4A4A4A4A4A4A4A4A4A4A4A4A4A4A4A4A4A4A4A4A4A4A4A4A4A4A4A4A4A4A4A4A4A4A4A4A4A4A4A4A4A4A4A4A4A4A4A4A4A4A4A4A4A4A4A4A4A4A4A4A4A4A4A4A4A4A4A4A4A4A4A4
310
A4A4A4A4A4A4A4A4A4A4A4A4A4A4A4A4A4A4A4A4A4A4A4A4A4A4A4A4A4A4A4A4A4A4A4A4A4A4A4A4A4A4A4A4A4A4A4A4A4A4A4A4A4A4A4A4A4A4A4A4A4A4A4A4A4A4A4A4A4A4A4A4A4A4A4A4A4A4A4A4A4A4A4A4A4A4A4A4A4A4A4A4A4A4A4A4A4A4A4A4A4A4A4A4A4A4A4A4A4A4A4A4A4A4A4A4A4A4A4A4A4A4A4A4A4A4A4
310
A4A4A4A4A4A4A4A4A4A4A4A4A4A4A4A4A4A4A4A4A4A4A4A4A4A4A4A4A4A4A4A4A4A4A4A4A4A4A4A4A4A4A4A4A4A4A4A4A4A4A4A4A4A4A4A4A4A4A4A4A4A4A4A4A4A4A4A4A4A4A4A4A4A4A4A4A4A4A4A4A4A4A4A4A4A4A4A4A4A4A4A4A4A4A4A4A4A4A4A4A4A4A4A4A4A4A4A4A4A4A4A4A4A4A4A4A4A4A4A4A4A4A4A4A4A4A4
310
A4A4A4A4A4A4A4A4A4A4A4A4A4A4A4A4A4A4A4A4A4A4A4A4A4A4A4A4A4A4A4A4A4A4A4A4A4A4A4A4A4A4A4A4A4A4A4A4A4A4A4A4A4A4A4A4A4A4A4A4A4A4A4A4A4A4A4A4A4A4A4A4A4A4A4A4A4A4A4A4A4A4A4A4A4A4A4A4A4A4A4A4A4A4A4A4A4A4A4A4A4A4A4A4A4A4A4A4A4A4A4A4A4A4A4A4F9F9F9F9F9F9F9F9F9F9F9
310
F9F9F9F9F9F9F9F9F9F9F9F9F9F9F9F9F9F9F9A4A4F9F9F9F9F9F9F9F9F9F9F9F9F9F9F9F9F9F9F9F9F9F9F9F9F9F9F9F9F9F9A4A4F9F9F9F9F9F9F9F9F9F9F9F9F9F9F9F9F9F9F9F9F9F9F9F9F9F9F9F9F9F9A4A4F9A4A4A4A4A4A4A4A4A4A4A4A4A4A4A4A4A4A4A4A4A4A4A4A4A4A4A4A4F9A4A4A4A4A4A4A4A4A4A4A4A4
310
A4A4A4A4A4A4A4A4A4A4A4A4A4A4A4A4A4A4A4A4A4A4A4A4A4A4A4A4A4A4A4A4A4A4A4A4A4A4A4A4A4A4A4A4A4A4A4A4A4A4A4A4A4A4A4A4A4A4A4A4A4A4A4A4A4A4A4A4A4A4A4A4A4A4A4A4A4A4A4A4A4A4A4A4A4A4A4A4A4A4A4A4A4A4A4A4A4A4A4A4A4A4A4A4A4A4A4A4A4A4A4A4A4A4A4A4A4A4A4A4A4A4A4A4A4A4A4
310
A4A4A4A4A4A4A4A4A4A4A4A4A4A4A4A4A4A4A4A4A4A4A4A4A4A4A4A4A4A4A4A4A4A4A4A4A4A4A4A4A4A4A4A4A4A4A4A4A4A4A4A4A4A4A4A4A4A4A4A4A4A4A4A4A4A4A4A4A4A4A4A4A4A4A4A4A4A4A4A4A4A4A4A4A4A4A4A4A4A4A4A4A4A4A4A4A4A4A4A4A4A4A4A4A4A4A4A4A4A4A4A4A4A4A4A4A4A4A4A4A4A4A4A4A4A4A4
310
A4A4A4A4A4A4A4A4A4A4A4A4A4A4A4A4A4A4A4A4A4A4A4A4A4A4A4A4A4A4A4A4A4A4A4A4A4A4A4A4A4A4A4A4A4A4A4A4A4A4A4A4A4A4A4A4A4A4A4A4A4A4A4A4A4A4A4A4A4A4A4A4A4A4A4A4A4A4A4A4A4A4A4A4A4A4A4A4A4A4A4A4A4A4A4A4A4A4A4A4A4A4A4A4A4A4A4A4A4A4A4A4A4A4A4A4A4A4A4A4A4A4A4A4A4A4A4
310
A4A4A4A4A4A4A4A4A4A4A4A4A4A4A4A4A4A4A4A4A4A4A4A4A4A4A4A4A4A4A4A4A4A4A4A4A4A4A4A4A4A4A4A4A4A4A4A4A4A4A4A4A4A4A4A4
1001
ACAD
1000
DesignCenter Data
1002
{
1070
     1
1070
     4
1002
}
  0
BLOCK_RECORD
  5
AA8
330
1
100
AcDbSymbolTableRecord
100
AcDbBlockTableRecord
  2
_CLOSED
340
0
  0
BLOCK_RECORD
  5
B79
330
1
100
AcDbSymbolTableRecord
100
AcDbBlockTableRecord
  2
nota revisoes
340
0
1001
ACAD
1000
DesignCenter Data
1002
{
1070
     1
1070
     4
1002
}
  0
BLOCK_RECORD
  5
B8E
330
1
100
AcDbSymbolTableRecord
100
AcDbBlockTableRecord
  2
a3l
340
0
1001
ACAD
1000
DesignCenter Data
1002
{
1070
     1
1070
     4
1002
}
  0
BLOCK_RECORD
  5
B9E
330
1
100
AcDbSymbolTableRecord
100
AcDbBlockTableRecord
  2
legenda desenvolvimento
340
0
1001
ACAD
1000
DesignCenter Data
1002
{
1070
     1
1070
     4
1002
}
  0
ENDTAB
  0
ENDSEC
  0
SECTION
  2
BLOCKS
  0
BLOCK
  5
20
330
1F
100
AcDbEntity
  8
0
100
AcDbBlockBegin
  2
*Model_Space
 70
     0
 10
0.0
 20
0.0
 30
0.0
  3
*Model_Space
  1

  0
ENDBLK
  5
21
330
1F
100
AcDbEntity
  8
0
100
AcDbBlockEnd
  0
BLOCK
  5
1C
330
1B
100
AcDbEntity
 67
     1
  8
0
100
AcDbBlockBegin
  2
*Paper_Space
 70
     0
 10
0.0
 20
0.0
 30
0.0
  3
*Paper_Space
  1

  0
ENDBLK
  5
1D
330
1B
100
AcDbEntity
 67
     1
  8
0
100
AcDbBlockEnd
  0
BLOCK
  5
24
330
23
100
AcDbEntity
 67
     1
  8
0
100
AcDbBlockBegin
  2
*Paper_Space0
 70
     0
 10
0.0
 20
0.0
 30
0.0
  3
*Paper_Space0
  1

  0
ENDBLK
  5
25
330
23
100
AcDbEntity
 67
     1
  8
0
100
AcDbBlockEnd
  0
BLOCK
  5
91B
330
919
100
AcDbEntity
  8
0
100
AcDbBlockBegin
  2
_DotSmall
 70
     0
 10
0.0
 20
0.0
 30
0.0
  3
_DotSmall
  1

  0
LWPOLYLINE
  5
91A
330
919
100
AcDbEntity
  8
0
  6
ByBlock
 62
     0
100
AcDbPolyline
 90
        2
 70
     1
 43
0.5
 10
-0.0625
 20
0.0
 42
1.0
 10
0.0625
 20
0.0
 42
1.0
  0
ENDBLK
  5
91C
330
919
100
AcDbEntity
  8
0
100
AcDbBlockEnd
  0
BLOCK
  5
92A
330
922
100
AcDbEntity
  8
0
100
AcDbBlockBegin
  2
base para cotas
 70
     0
 10
0.0
 20
0.0
 30
0.0
  3
base para cotas
  1

  0
LINE
  5
B36
330
922
100
AcDbEntity
  8
cotas
100
AcDbLine
 10
0.0
 20
-30.0
 30
0.0
 11
327.1260136525398
 21
-30.0
 31
0.0
  0
LINE
  5
B37
330
922
100
AcDbEntity
  8
cotas
100
AcDbLine
 10
0.0
 20
-25.0
 30
0.0
 11
327.1260136525398
 21
-25.0
 31
0.0
  0
LINE
  5
B38
330
922
100
AcDbEntity
  8
cotas
100
AcDbLine
 10
0.0
 20
-20.0
 30
0.0
 11
327.1260136525398
 21
-20.0
 31
0.0
  0
LINE
  5
B39
330
922
100
AcDbEntity
  8
cotas
100
AcDbLine
 10
0.0
 20
-15.0
 30
0.0
 11
327.1260136525398
 21
-15.0
 31
0.0
  0
LINE
  5
B3A
330
922
100
AcDbEntity
  8
cotas
100
AcDbLine
 10
0.0
 20
-10.0
 30
0.0
 11
327.1260136525398
 21
-10.0
 31
0.0
  0
LINE
  5
B3B
330
922
100
AcDbEntity
  8
cotas
100
AcDbLine
 10
0.0
 20
0.0
 30
0.0
 11
0.0
 21
-30.0
 31
0.0
  0
LINE
  5
B3C
330
922
100
AcDbEntity
  8
cotas
100
AcDbLine
 10
327.1260136525398
 20
-30.0
 30
0.0
 11
327.1260136525398
 21
0.0
 31
0.0
  0
ENDBLK
  5
92B
330
922
100
AcDbEntity
  8
0
100
AcDbBlockEnd
  0
BLOCK
  5
AAD
330
AA8
100
AcDbEntity
  8
0
100
AcDbBlockBegin
  2
_CLOSED
 70
     0
 10
0.0
 20
0.0
 30
0.0
  3
_CLOSED
  1

  0
LINE
  5
AA9
330
AA8
100
AcDbEntity
  8
0
100
AcDbLine
 10
-1.0
 20
0.166667
 30
0.0
 11
0.0
 21
0.0
 31
0.0
  0
LINE
  5
AAA
330
AA8
100
AcDbEntity
  8
0
100
AcDbLine
 10
0.0
 20
0.0
 30
0.0
 11
-1.0
 21
-0.166667
 31
0.0
  0
LINE
  5
AAB
330
AA8
100
AcDbEntity
  8
0
100
AcDbLine
 10
-1.0
 20
0.166667
 30
0.0
 11
-1.0
 21
-0.166667
 31
0.0
  0
LINE
  5
AAC
330
AA8
100
AcDbEntity
  8
0
100
AcDbLine
 10
0.0
 20
0.0
 30
0.0
 11
-1.0
 21
0.0
 31
0.0
  0
ENDBLK
  5
AAE
330
AA8
100
AcDbEntity
  8
0
100
AcDbBlockEnd
  0
BLOCK
  5
B7C
330
B79
100
AcDbEntity
  8
0
100
AcDbBlockBegin
  2
nota revisoes
 70
     0
 10
0.0
 20
0.0
 30
0.0
  3
nota revisoes
  1

  0
CIRCLE
  5
B7A
330
B79
100
AcDbEntity
  8
4
100
AcDbCircle
 10
0.0
 20
0.0
 30
0.0
 40
13.69426055101189
  0
TEXT
  5
B7B
330
B79
100
AcDbEntity
  8
4
100
AcDbText
 10
-5.496248358154345
 20
-5.354545554066362
 30
0.0
 40
12.0
  1
1
  7
SANINDUSA
 72
     1
 11
-0.249774214433728
 21
-5.354545554066362
 31
0.0
100
AcDbText
  0
ENDBLK
  5
B7D
330
B79
100
AcDbEntity
  8
0
100
AcDbBlockEnd
  0
BLOCK
  5
B9C
330
B8E
100
AcDbEntity
  8
0
100
AcDbBlockBegin
  2
a3l
 70
     0
 10
0.0
 20
0.0
 30
0.0
  3
a3l
  1

  0
LINE
  5
B8F
330
B8E
100
AcDbEntity
  8
1
100
AcDbLine
 10
-364.2925296599447
 20
-362.1188951399395
 30
0.0
 11
-364.2925296599447
 21
-65.11889513993946
 31
0.0
  0
LINE
  5
B90
330
B8E
100
AcDbEntity
  8
4
100
AcDbLine
 10
-369.2925296599447
 20
-357.1188951399395
 30
0.0
 11
-369.2925296599447
 21
-70.11889513993946
 31
0.0
  0
LINE
  5
B91
330
B8E
100
AcDbEntity
  8
1
100
AcDbLine
 10
-784.2925296599446
 20
-65.11889513993946
 30
0.0
 11
-784.2925296599446
 21
-362.1188951399395
 31
0.0
  0
LINE
  5
B92
330
B8E
100
AcDbEntity
  8
4
100
AcDbLine
 10
-759.2925296599446
 20
-357.1188951399395
 30
0.0
 11
-759.2925296599446
 21
-70.11889513993946
 31
0.0
  0
LINE
  5
B93
330
B8E
100
AcDbEntity
  8
1
100
AcDbLine
 10
-784.2925296599446
 20
-362.1188951399395
 30
0.0
 11
-364.2925296599447
 21
-362.1188951399395
 31
0.0
  0
LINE
  5
B94
330
B8E
100
AcDbEntity
  8
4
100
AcDbLine
 10
-759.2925296599446
 20
-357.1188951399395
 30
0.0
 11
-369.2925296599447
 21
-357.1188951399395
 31
0.0
  0
LINE
  5
B95
330
B8E
100
AcDbEntity
  8
1
100
AcDbLine
 10
-654.2925296599446
 20
-357.1188951399395
 30
0.0
 11
-654.2925296599446
 21
-362.1188951399395
 31
0.0
  0
LINE
  5
B96
330
B8E
100
AcDbEntity
  8
1
100
AcDbLine
 10
-364.2925296599447
 20
-65.11889513993946
 30
0.0
 11
-784.2925296599446
 21
-65.11889513993946
 31
0.0
  0
LINE
  5
B97
330
B8E
100
AcDbEntity
  8
4
100
AcDbLine
 10
-369.2925296599447
 20
-70.11889513993946
 30
0.0
 11
-759.2925296599446
 21
-70.11889513993946
 31
0.0
  0
LINE
  5
B98
330
B8E
100
AcDbEntity
  8
1
100
AcDbLine
 10
-654.2925296599446
 20
-65.11889513993946
 30
0.0
 11
-654.2925296599446
 21
-70.11889513993946
 31
0.0
  0
LINE
  5
B99
330
B8E
100
AcDbEntity
  8
1
100
AcDbLine
 10
-549.2925296599446
 20
-70.11889513993946
 30
0.0
 11
-549.2925296599446
 21
-65.11889513993946
 31
0.0
  0
LINE
  5
B9A
330
B8E
100
AcDbEntity
  8
1
100
AcDbLine
 10
-369.2925296599447
 20
-65.11889513993946
 30
0.0
 11
-364.2925296599447
 21
-65.11889513993946
 31
0.0
  0
LINE
  5
B9B
330
B8E
100
AcDbEntity
  8
1
100
AcDbLine
 10
-549.2925296599446
 20
-357.1188951399395
 30
0.0
 11
-549.2925296599446
 21
-362.1188951399395
 31
0.0
  0
ENDBLK
  5
B9D
330
B8E
100
AcDbEntity
  8
0
100
AcDbBlockEnd
  0
BLOCK
  5
C13
330
B9E
100
AcDbEntity
  8
0
100
AcDbBlockBegin
  2
legenda desenvolvimento
 70
     2
 10
0.0
 20
0.0
 30
0.0
  3
legenda desenvolvimento
  1

  0
ATTDEF
  5
B9F
330
B9E
100
AcDbEntity
  8
1
100
AcDbText
 10
-108.606245802552
 20
55.5
 30
0.0
 40
4.0
  1
XXXXXXXXXXXXXX
 41
0.8
  7
SANINDUSA
 72
     4
 11
-87.5
 21
57.5
 31
0.0
100
AcDbAttributeDefinition
  3
Nome do Produto:
  2
PRODUTO
 70
     0
  0
ATTDEF
  5
BA0
330
B9E
100
AcDbEntity
  8
1
100
AcDbText
 10
-97.9997966101695
 20
41.25
 30
0.0
 40
3.0
  1
XXXXXXXXX
 41
0.8
  7
futura
 72
     4
 11
-87.5
 21
42.75
 31
0.0
100
AcDbAttributeDefinition
  3
Nome da Peça:
  2
PECA
 70
     0
  0
ATTDEF
  5
BA1
330
B9E
100
AcDbEntity
  8
1
100
AcDbText
 10
-133.4422431161853
 20
21.11745296763252
 30
0.0
 40
2.5
  1
X
 41
0.8
  7
SANINDUSA
 72
     4
 11
-132.5
 21
22.36745296763252
 31
0.0
100
AcDbAttributeDefinition
  3
Cod. TESTE:
  2
TESTE
 70
     0
  0
ATTDEF
  5
BA2
330
B9E
100
AcDbEntity
  8
1
100
AcDbText
 10
-124.3844862323707
 20
21.11745296763252
 30
0.0
 40
2.5
  1
XX
 41
0.8
  7
SANINDUSA
 72
     4
 11
-122.5
 21
22.36745296763252
 31
0.0
100
AcDbAttributeDefinition
  3
Cod. Ano:
  2
ANO
 70
     0
  0
ATTDEF
  5
BA3
330
B9E
100
AcDbEntity
  8
1
100
AcDbText
 10
-112.526889953052
 20
21.11745296763252
 30
0.0
 40
2.5
  1
XXX
 41
0.8
  7
SANINDUSA
 72
     4
 11
-109.700160604496
 21
22.36745296763252
 31
0.0
100
AcDbAttributeDefinition
  3
Cod. Sequência:
  2
SEQUENCIA
 70
     0
  0
ATTDEF
  5
BA4
330
B9E
100
AcDbEntity
  8
1
100
AcDbText
 10
-99.35382430979316
 20
21.11745296763252
 30
0.0
 40
2.5
  1
XX
 41
0.8
  7
SANINDUSA
 72
     4
 11
-97.46933807742244
 21
22.36745296763252
 31
0.0
100
AcDbAttributeDefinition
  3
Cod. Tipo:
  2
TIPO
 70
     0
  0
ATTDEF
  5
BA5
330
B9E
100
AcDbEntity
  8
1
100
AcDbText
 10
-87.42035911468438
 20
21.11745296763252
 30
0.0
 40
2.5
  1
XXX
 41
0.8
  7
SANINDUSA
 72
     4
 11
-84.59362976612828
 21
22.36745296763252
 31
0.0
100
AcDbAttributeDefinition
  3
Cod. Produto:
  2
PRODUTO
 70
     0
  0
ATTDEF
  5
BA6
330
B9E
100
AcDbEntity
  8
1
100
AcDbText
 10
-74.62051971917853
 20
21.11745296763252
 30
0.0
 40
2.5
  1
XXX
 41
0.8
  7
SANINDUSA
 72
     4
 11
-71.79379037062244
 21
22.36745296763252
 31
0.0
100
AcDbAttributeDefinition
  3
Cod. Peça:
  2
PECA
 70
     0
  0
ATTDEF
  5
BA7
330
B9E
100
AcDbEntity
  8
1
100
AcDbText
 10
-61.10603446650329
 20
21.11745296763252
 30
0.0
 40
2.5
  1
XX
 41
0.8
  7
SANINDUSA
 72
     4
 11
-59.22154823413257
 21
22.36745296763252
 31
0.0
100
AcDbAttributeDefinition
  3
Cod. Revisão:
  2
REV
 70
     0
  0
ATTDEF
  5
BA8
330
B9E
100
AcDbEntity
  8
1
100
AcDbText
 10
-48.43615325006194
 20
21.11745296763252
 30
0.0
 40
2.5
  1
XX
 41
0.8
  7
SANINDUSA
 72
     4
 11
-46.55166701769121
 21
22.36745296763252
 31
0.0
100
AcDbAttributeDefinition
  3
Cod. Alteração:
  2
ALT
 70
     0
  0
ATTDEF
  5
BA9
330
B9E
100
AcDbEntity
  8
1
100
AcDbText
 10
-35.19086635325722
 20
23.98875083948959
 30
0.0
 40
3.0
  1
1/XXX
 41
0.8
  7
SANINDUSA
 72
     4
 11
-30.0
 21
25.25
 31
0.0
100
AcDbAttributeDefinition
  3
Escala geral:
  2
ESCALA
 70
     0
  0
ATTDEF
  5
BAA
330
B9E
100
AcDbEntity
  8
1
100
AcDbText
 10
-15.65345869711215
 20
23.75
 30
0.0
 40
3.0
  1
XXXXX
 41
0.8
  7
SANINDUSA
 72
     4
 11
-10.0
 21
25.25
 31
0.0
100
AcDbAttributeDefinition
  3
Folha:
  2
FOLHA
 70
     0
  0
ATTDEF
  5
BAB
330
B9E
100
AcDbEntity
  8
1
100
AcDbText
 10
-178.5146998822042
 20
56.9531347542807
 30
0.0
 40
2.0
  1
xx
 41
0.8
  7
SANINDUSA
 72
     4
 11
-177.2123493113513
 21
57.70330265219877
 31
0.0
100
AcDbAttributeDefinition
  3
revisão
  2
REV.
 70
     0
  0
ATTDEF
  5
BAC
330
B9E
100
AcDbEntity
  8
1
100
AcDbText
 10
-172.7849640077129
 20
56.9531347542807
 30
0.0
 40
2.0
  1
xx
 41
0.8
  7
SANINDUSA
 72
     4
 11
-171.48261343686
 21
57.70330265219877
 31
0.0
100
AcDbAttributeDefinition
  3
alteração
  2
ALT.
 70
     0
  0
ATTDEF
  5
BAD
330
B9E
100
AcDbEntity
  8
1
100
AcDbText
 10
-168.007199951307
 20
56.70330265219877
 30
0.0
 40
2.0
  1
xx/xx/xxxx
 41
0.8
  7
SANINDUSA
 11
-168.007199951307
 21
57.70330265219877
 31
0.0
100
AcDbAttributeDefinition
  3
data
  2
DATA
 70
     0
 74
     2
  0
ATTDEF
  5
BAE
330
B9E
100
AcDbEntity
  8
1
100
AcDbText
 10
-168.5396372253371
 20
13.15916722632639
 30
0.0
 40
2.0
  1
XX/XX/XXXX
 41
0.8
  7
SANINDUSA
 72
     4
 11
-161.5099528734231
 21
14.0
 31
0.0
100
AcDbAttributeDefinition
  3
Data projecto
  2
DATA_PROJ
 70
     0
  0
ATTDEF
  5
BAF
330
B9E
100
AcDbEntity
  8
1
100
AcDbText
 10
-150.8658110728766
 20
13.24983210208193
 30
0.0
 40
2.0
  1
xxxxxxxx
 41
0.8
  7
SANINDUSA
 72
     4
 11
-145.6564087894649
 21
14.0
 31
0.0
100
AcDbAttributeDefinition
  3
nome de quem projectou
  2
NOME
 70
     0
  0
ATTDEF
  5
BB0
330
B9E
100
AcDbEntity
  8
1
100
AcDbText
 10
-168.5396372253371
 20
9.159167226326394
 30
0.0
 40
2.0
  1
XX/XX/XXXX
 41
0.8
  7
SANINDUSA
 72
     4
 11
-161.5099528734231
 21
10.0
 31
0.0
100
AcDbAttributeDefinition
  3
Data desenhou
  2
DATA_DES
 70
     0
  0
ATTDEF
  5
BB1
330
B9E
100
AcDbEntity
  8
1
100
AcDbText
 10
-151.516986358303
 20
9.249832102081933
 30
0.0
 40
2.0
  1
xxxxxxxxx
 41
0.8
  7
SANINDUSA
 72
     4
 11
-145.6564087894649
 21
10.0
 31
0.0
100
AcDbAttributeDefinition
  3
nome
  2
NOME
 70
     0
  0
ATTDEF
  5
BB2
330
B9E
100
AcDbEntity
  8
1
100
AcDbText
 10
-127.2924214135946
 20
14.1979876583216
 30
0.0
 40
2.0
  1
Vitreous China
 41
0.8
  7
SANINDUSA
 72
     4
 11
-119.231709526422
 21
15.22216495852308
 31
0.0
100
AcDbAttributeDefinition
  3
Nome do Material:
  2
MATERIAL
 70
     0
  0
ATTDEF
  5
BB3
330
B9E
100
AcDbEntity
  8
1
100
AcDbText
 10
-103.1563452122093
 20
14.38019043949261
 30
0.0
 40
2.0
  1
Branco
 41
0.8
  7
SANINDUSA
 72
     4
 11
-99.33418268702462
 21
15.35937109765245
 31
0.0
100
AcDbAttributeDefinition
  3
cor da peça
  2
COR
 70
     0
  0
ATTDEF
  5
BB4
330
B9E
100
AcDbEntity
  8
1
100
AcDbText
 10
-116.7235057085292
 20
5.975822699798522
 30
0.0
 40
2.0
  1
Vidrado
 41
0.8
  7
SANINDUSA
 72
     4
 11
-112.5
 21
7.0
 31
0.0
100
AcDbAttributeDefinition
  3
Tipo de acabamento:
  2
ACABAMENTO
 70
     0
  0
ATTDEF
  5
BB5
330
B9E
100
AcDbEntity
  8
1
100
AcDbText
 10
-79.18527869967246
 20
16.65066409850533
 30
0.0
 40
2.0
  1
XXXXXXX
 41
0.8
  7
SANINDUSA
 72
     4
 11
-73.90871724903445
 21
17.65066409850533
 31
0.0
100
AcDbAttributeDefinition
  3
Normas
  2
NORMAS
 70
     0
  0
ATTDEF
  5
BB6
330
B9E
100
AcDbEntity
  8
1
100
AcDbText
 10
-30.55312290127603
 20
14.0
 30
0.0
 40
2.0
  1
XXXXXXXXXXXXXX
 41
0.8
  7
SANINDUSA
 72
     4
 11
-20.0
 21
15.0
 31
0.0
100
AcDbAttributeDefinition
  3
Substitui o desenho:
  2
SUBSTITUI
 70
     0
  0
ATTDEF
  5
BB7
330
B9E
100
AcDbEntity
  8
1
100
AcDbText
 10
-31.30691739422431
 20
6.0
 30
0.0
 40
2.0
  1
XXXXXXXXXXXXXXX
 41
0.8
  7
SANINDUSA
 72
     4
 11
-20.0
 21
7.0
 31
0.0
100
AcDbAttributeDefinition
  3
Substituido por:
  2
SUBSTITUIDO
 70
     0
  0
ATTDEF
  5
BB8
330
B9E
100
AcDbEntity
  8
1
100
AcDbText
 10
-110.0220608548302
 20
1.478208457928303
 30
0.0
 40
2.0
  1
XXXXXXXXXXXXXXXXXXXXXXXXXXXXXXXXXX
 41
0.8
  7
SANINDUSA
 11
-110.0220608548302
 21
2.478208457928303
 31
0.0
100
AcDbAttributeDefinition
  3
Localização do desenho:
  2
LOC-DWG
 70
     0
 74
     2
  0
LINE
  5
BB9
330
B9E
100
AcDbEntity
  8
3
100
AcDbLine
 10
-135.0
 20
4.0
 30
0.0
 11
0.0000000000004547
 21
4.0
 31
0.0
  0
LINE
  5
BBA
330
B9E
100
AcDbEntity
  8
3
100
AcDbLine
 10
-90.00000000000046
 20
12.0
 30
0.0
 11
-135.0
 21
12.0
 31
0.0
  0
LINE
  5
BBB
330
B9E
100
AcDbEntity
  8
3
100
AcDbLine
 10
-135.0
 20
32.5
 30
0.0
 11
-40.0
 21
32.5
 31
0.0
  0
TEXT
  5
BBC
330
B9E
100
AcDbEntity
  8
1
100
AcDbText
 10
-134.0
 20
1.25
 30
0.0
 40
2.0
  1
Localização do des.:
 41
0.8
  7
SANINDUSA
 11
-134.0
 21
2.25
 31
0.0
100
AcDbText
 73
     2
  0
LINE
  5
BBD
330
B9E
100
AcDbEntity
  8
3
100
AcDbLine
 10
-180.0
 20
65.0
 30
0.0
 11
0.0
 21
65.0
 31
0.0
  0
LINE
  5
BBE
330
B9E
100
AcDbEntity
  8
leg fin
100
AcDbLine
 10
-40.0
 20
25.05956924886846
 30
0.0
 11
-135.0
 21
25.05956924886846
 31
0.0
  0
LINE
  5
BBF
330
B9E
100
AcDbEntity
  8
leg fin
100
AcDbLine
 10
-40.0
 20
28.5
 30
0.0
 11
-135.0
 21
28.5
 31
0.0
  0
LINE
  5
BC0
330
B9E
100
AcDbEntity
  8
3
100
AcDbLine
 10
-135.0
 20
50.0
 30
0.0
 11
-40.0
 21
50.0
 31
0.0
  0
TEXT
  5
BC1
330
B9E
100
AcDbEntity
  8
1
100
AcDbText
 10
-134.0
 20
29.75
 30
0.0
 40
2.0
  1
Desenho nº:
 41
0.8
  7
SANINDUSA
 11
-134.0
 21
30.75
 31
0.0
100
AcDbText
 73
     2
  0
TEXT
  5
BC2
330
B9E
100
AcDbEntity
  8
1
100
AcDbText
 10
-134.0
 20
9.25
 30
0.0
 40
2.0
  1
Acabamento:
 41
0.8
  7
SANINDUSA
 11
-134.0
 21
10.25
 31
0.0
100
AcDbText
 73
     2
  0
LINE
  5
BC3
330
B9E
100
AcDbEntity
  8
3
100
AcDbLine
 10
-180.0
 20
20.0
 30
0.0
 11
0.0
 21
20.0
 31
0.0
  0
LINE
  5
BC4
330
B9E
100
AcDbEntity
  8
1
100
AcDbLine
 10
-174.5810776056337
 20
55.5
 30
0.0
 11
-174.5810776056337
 21
65.0
 31
0.0
  0
LINE
  5
BC5
330
B9E
100
AcDbEntity
  8
1
100
AcDbLine
 10
-168.9210461879161
 20
55.5
 30
0.0
 11
-168.9210461879161
 21
65.0
 31
0.0
  0
LINE
  5
BC6
330
B9E
100
AcDbEntity
  8
1
100
AcDbLine
 10
-154.0988595589306
 20
55.5
 30
0.0
 11
-154.0988595589306
 21
65.0
 31
0.0
  0
LINE
  5
BC7
330
B9E
100
AcDbEntity
  8
3
100
AcDbLine
 10
-180.0
 20
65.0
 30
0.0
 11
-180.0
 21
0.0
 31
0.0
  0
LINE
  5
BC8
330
B9E
100
AcDbEntity
  8
3
100
AcDbLine
 10
-135.0
 20
0.0
 30
0.0
 11
-135.0
 21
65.0
 31
0.0
  0
TEXT
  5
BC9
330
B9E
100
AcDbEntity
  8
1
100
AcDbText
 10
-179.0
 20
9.75
 30
0.0
 40
1.5
  1
Des.
 41
0.8
  7
SANINDUSA
 11
-179.0
 21
10.5
 31
0.0
100
AcDbText
 73
     2
  0
LINE
  5
BCA
330
B9E
100
AcDbEntity
  8
1
100
AcDbLine
 10
-168.9210461879161
 20
20.0
 30
0.0
 11
-168.9210461879161
 21
0.0
 31
0.0
  0
LINE
  5
BCB
330
B9E
100
AcDbEntity
  8
1
100
AcDbLine
 10
-154.0988595589306
 20
20.0
 30
0.0
 11
-154.0988595589306
 21
0.0
 31
0.0
  0
LINE
  5
BCC
330
B9E
100
AcDbEntity
  8
1
100
AcDbLine
 10
-180.0
 20
4.0
 30
0.0
 11
-135.0
 21
4.0
 31
0.0
  0
LINE
  5
BCD
330
B9E
100
AcDbEntity
  8
1
100
AcDbLine
 10
-180.0
 20
8.0
 30
0.0
 11
-135.0
 21
8.0
 31
0.0
  0
TEXT
  5
BCE
330
B9E
100
AcDbEntity
  8
1
100
AcDbText
 10
-179.0
 20
1.73257823687436
 30
0.0
 40
1.5
  1
Aprov.
 41
0.8
  7
SANINDUSA
 11
-179.0
 21
2.48257823687436
 31
0.0
100
AcDbText
 73
     2
  0
TEXT
  5
BCF
330
B9E
100
AcDbEntity
  8
1
100
AcDbText
 10
-179.0
 20
5.75
 30
0.0
 40
1.5
  1
Ver.
 41
0.8
  7
SANINDUSA
 11
-179.0
 21
6.5
 31
0.0
100
AcDbText
 73
     2
  0
LINE
  5
BD0
330
B9E
100
AcDbEntity
  8
1
100
AcDbLine
 10
-180.0
 20
16.0
 30
0.0
 11
-135.0
 21
16.0
 31
0.0
  0
LINE
  5
BD1
330
B9E
100
AcDbEntity
  8
1
100
AcDbLine
 10
-180.0
 20
12.0
 30
0.0
 11
-135.0
 21
12.0
 31
0.0
  0
TEXT
  5
BD2
330
B9E
100
AcDbEntity
  8
1
100
AcDbText
 10
-179.0
 20
13.75
 30
0.0
 40
1.5
  1
Proj.
 41
0.8
  7
SANINDUSA
 11
-179.0
 21
14.5
 31
0.0
100
AcDbText
 73
     2
  0
TEXT
  5
BD3
330
B9E
100
AcDbEntity
  8
1
100
AcDbText
 10
-167.9210461879161
 20
17.75
 30
0.0
 40
1.5
  1
Data
 41
0.8
  7
SANINDUSA
 11
-167.9210461879161
 21
18.5
 31
0.0
100
AcDbText
 73
     2
  0
TEXT
  5
BD4
330
B9E
100
AcDbEntity
  8
1
100
AcDbText
 10
-153.0988595589306
 20
17.75
 30
0.0
 40
1.5
  1
Nome
 41
0.8
  7
SANINDUSA
 11
-153.0988595589306
 21
18.5
 31
0.0
100
AcDbText
 73
     2
  0
LINE
  5
BD5
330
B9E
100
AcDbEntity
  8
leg fin
100
AcDbLine
 10
-130.0
 20
20.0
 30
0.0
 11
-130.0
 21
28.5
 31
0.0
  0
TEXT
  5
BD6
330
B9E
100
AcDbEntity
  8
1
100
AcDbText
 10
-134.0
 20
17.25
 30
0.0
 40
2.0
  1
Material:
 41
0.8
  7
SANINDUSA
 11
-134.0
 21
18.25
 31
0.0
100
AcDbText
 73
     2
  0
TEXT
  5
BD7
330
B9E
100
AcDbEntity
  8
1
100
AcDbText
 10
-129.0
 20
26.43288406845113
 30
0.0
 40
1.5
  1
Ano:
 41
0.8
  7
SANINDUSA
 11
-129.0
 21
27.18288406845113
 31
0.0
100
AcDbText
 73
     2
  0
LINE
  5
BD8
330
B9E
100
AcDbEntity
  8
1
100
AcDbLine
 10
-180.0
 20
55.5
 30
0.0
 11
-135.0
 21
55.5
 31
0.0
  0
TEXT
  5
BD9
330
B9E
100
AcDbEntity
  8
1
100
AcDbText
 10
-179.0
 20
52.67772246885193
 30
0.0
 40
1.5
  1
descrição
 41
0.8
  7
SANINDUSA
 11
-179.0
 21
53.42772246885193
 31
0.0
100
AcDbText
 73
     2
  0
TEXT
  5
BDA
330
B9E
100
AcDbEntity
  8
1
100
AcDbText
 10
-134.0
 20
47.25
 30
0.0
 40
2.0
  1
Peça:
 41
0.8
  7
SANINDUSA
 11
-134.0
 21
48.25
 31
0.0
100
AcDbText
 73
     2
  0
LINE
  5
BDB
330
B9E
100
AcDbEntity
  8
1
100
AcDbLine
 10
-180.0
 20
59.5
 30
0.0
 11
-135.0
 21
59.5
 31
0.0
  0
TEXT
  5
BDC
330
B9E
100
AcDbEntity
  8
1
100
AcDbText
 10
-173.5810776056337
 20
62.75
 30
0.0
 40
1.5
  1
Alt.
 41
0.8
  7
SANINDUSA
 11
-173.5810776056337
 21
63.5
 31
0.0
100
AcDbText
 73
     2
  0
TEXT
  5
BDD
330
B9E
100
AcDbEntity
  8
1
100
AcDbText
 10
-179.0
 20
62.75
 30
0.0
 40
1.5
  1
Rev.
 41
0.8
  7
SANINDUSA
 11
-179.0
 21
63.5
 31
0.0
100
AcDbText
 73
     2
  0
TEXT
  5
BDE
330
B9E
100
AcDbEntity
  8
1
100
AcDbText
 10
-167.9210461879161
 20
62.75
 30
0.0
 40
1.5
  1
Data
 41
0.8
  7
SANINDUSA
 11
-167.9210461879161
 21
63.5
 31
0.0
100
AcDbText
 73
     2
  0
TEXT
  5
BDF
330
B9E
100
AcDbEntity
  8
1
100
AcDbText
 10
-153.0988595589306
 20
62.75
 30
0.0
 40
1.5
  1
Nome
 41
0.8
  7
SANINDUSA
 11
-153.0988595589306
 21
63.5
 31
0.0
100
AcDbText
 73
     2
  0
TEXT
  5
BE0
330
B9E
100
AcDbEntity
  8
1
100
AcDbText
 10
-134.0
 20
62.25
 30
0.0
 40
2.0
  1
Produto:
 41
0.8
  7
SANINDUSA
 11
-134.0
 21
63.25
 31
0.0
100
AcDbText
 73
     2
  0
LINE
  5
BE1
330
B9E
100
AcDbEntity
  8
3
100
AcDbLine
 10
-40.0
 20
4.0
 30
0.0
 11
-40.0
 21
65.0
 31
0.0
  0
LWPOLYLINE
  5
BE2
102
{ACAD_REACTORS
330
BEC
102
}
330
B9E
100
AcDbEntity
  8
9
100
AcDbPolyline
 90
       12
 70
     1
 43
0.0
 10
-3.038714600644652
 20
58.90010174665076
 10
-5.726962862472191
 20
58.90010174665076
 10
-5.726962862472191
 20
58.5001017466509
 10
-3.038748516195028
 20
58.5001017466509
 42
-0.4142135623731731
 10
-2.638748516194482
 20
58.1001017466508
 10
-2.638748516194482
 20
57.42799728675596
 10
-5.21497371544865
 20
57.42799728675596
 42
0.4142135623731289
 10
-6.014973715448377
 20
56.627997286756
 10
-6.014973715448377
 20
55.92380871629643
 42
0.4142135623731132
 10
-5.21497371544865
 20
55.12380871629648
 10
-2.23871460064447
 20
55.12380871629648
 10
-2.23871460064447
 20
58.10010174665103
 42
0.4142135623730717
  0
LWPOLYLINE
  5
BE3
102
{ACAD_REACTORS
330
BEC
102
}
330
B9E
100
AcDbEntity
  8
9
100
AcDbPolyline
 90
       20
 70
     1
 43
0.0
 10
-10.01531287095122
 20
57.82799728675581
 10
-10.01531287095122
 20
58.10010174665103
 42
-0.4142135623730744
 10
-9.615312870951584
 20
58.5001017466509
 10
-6.92703069357276
 20
58.5001017466509
 10
-6.92703069357276
 20
58.90010174665076
 10
-9.615346786501959
 20
58.90010174665076
 42
0.4142135623730883
 10
-10.41534678650168
 20
58.1001017466508
 10
-10.41534678650168
 20
57.82796337120567
 42
0.4142135623730717
 10
-9.615346786501959
 20
57.02796337120571
 10
-7.423079531965413
 20
57.02796337120571
 42
-0.4142135623730847
 10
-7.023079531965322
 20
56.62796337120562
 10
-7.023079531965322
 20
55.90786840766487
 42
-0.4142135623730744
 10
-7.423079531965413
 20
55.507868407665
 10
-10.41534678650168
 20
55.507868407665
 10
-10.41534678650168
 20
55.12380871629648
 10
-7.445787917283723
 20
55.12380871629648
 42
0.4114777732064574
 10
-6.645822882998345
 20
55.9163291493976
 10
-6.639238813324936
 20
56.62051771985716
 42
0.4169546541682913
 10
-7.439203847610315
 20
57.42799728675596
 10
-9.615312870951584
 20
57.42799728675596
 42
-0.4142135623731576
  0
LWPOLYLINE
  5
BE4
102
{ACAD_REACTORS
330
BEC
102
}
330
B9E
100
AcDbEntity
  8
9
100
AcDbPolyline
 90
       12
 70
     1
 43
0.0
 10
-14.41561811090378
 20
58.90010174665076
 10
-14.79964388672215
 20
58.90010174665076
 10
-14.79964388672215
 20
55.92380871629643
 42
0.4142135623731133
 10
-13.99964388672242
 20
55.12380871629648
 10
-11.8233508563676
 20
55.12380871629648
 42
0.4142135623730872
 10
-11.02335085636741
 20
55.92380871629643
 10
-11.02335085636741
 20
58.90010174665076
 10
-11.42338477191788
 20
58.90010174665076
 10
-11.42338477191788
 20
55.91567577726095
 42
-0.4131711701795318
 10
-11.82196067063523
 20
55.51567831234956
 10
-14.0141940096214
 20
55.50787335710947
 42
-0.4152567234624407
 10
-14.41561811090378
 20
55.90787082202087
  0
LWPOLYLINE
  5
BE5
102
{ACAD_REACTORS
330
BEC
102
}
330
B9E
100
AcDbEntity
  8
9
100
AcDbPolyline
 90
        6
 70
     1
 43
0.0
 10
-15.80771578768872
 20
55.507868407665
 10
-18.39994912667453
 20
55.507868407665
 42
-0.4142135623731731
 10
-18.79994912667462
 20
55.90786840766487
 10
-18.79994912667462
 20
58.10010174665103
 42
-0.4142135623730744
 10
-18.39994912667453
 20
58.5001017466509
 10
-15.80771578768872
 20
58.5001017466509
  0
LWPOLYLINE
  5
BE6
102
{ACAD_REACTORS
330
BEC
102
}
330
B9E
100
AcDbEntity
  8
9
100
AcDbPolyline
 90
        8
 70
     1
 43
0.0
 10
-15.4236900118708
 20
59.87619128370352
 10
-15.80771578768872
 20
59.87619128370352
 10
-15.80771578768872
 20
58.90010174665076
 10
-18.39176256411201
 20
58.90010174665076
 42
0.4131164467977967
 10
-19.19175694739761
 20
58.1030995310698
 10
-19.1999120763262
 20
55.92680650071542
 42
0.4153115297271718
 10
-18.39991769304061
 20
55.12380871629648
 10
-15.4236900118708
 20
55.12380871629648
  0
LWPOLYLINE
  5
BE7
102
{ACAD_REACTORS
330
BEC
102
}
330
B9E
100
AcDbEntity
  8
9
100
AcDbPolyline
 90
       10
 70
     1
 43
0.0
 10
-20.59201288790928
 20
58.90010174665076
 10
-23.56830591826338
 20
58.90010174665076
 10
-23.56830591826338
 20
55.12380871629648
 10
-23.18424622689509
 20
55.12380871629648
 10
-23.18424622689509
 20
58.5001017466509
 10
-20.59204680345965
 20
58.5001017466509
 42
-0.4142135623730898
 10
-20.19204680345956
 20
58.1001017466508
 10
-20.19204680345956
 20
55.12380871629648
 10
-19.79201288790909
 20
55.12380871629648
 10
-19.79201288790909
 20
58.10010174665103
 42
0.4142135623731132
  0
LWPOLYLINE
  5
BE8
102
{ACAD_REACTORS
330
BEC
102
}
330
B9E
100
AcDbEntity
  8
9
100
AcDbPolyline
 90
        4
 70
     1
 43
0.0
 10
-24.19231812786165
 20
58.90010174665076
 10
-24.57637781922995
 20
58.90010174665076
 10
-24.57637781922995
 20
55.12380871629648
 10
-24.19231812786165
 20
55.12380871629648
  0
LWPOLYLINE
  5
BE9
102
{ACAD_REACTORS
330
BEC
102
}
330
B9E
100
AcDbEntity
  8
9
100
AcDbPolyline
 90
       10
 70
     1
 43
0.0
 10
-28.57661522808212
 20
58.5001017466509
 10
-25.98444972019706
 20
58.5001017466509
 42
-0.4142135623731731
 10
-25.58444972019652
 20
58.1001017466508
 10
-25.58444972019652
 20
55.12380871629648
 10
-25.2004239443786
 20
55.12380871629648
 10
-25.2004239443786
 20
58.10010174665103
 42
0.4142135623730717
 10
-26.00042394437833
 20
58.90010174665076
 10
-28.97664914363259
 20
58.90010174665076
 10
-28.97664914363259
 20
55.12380871629648
 10
-28.57661522808212
 20
55.12380871629648
  0
LWPOLYLINE
  5
BEA
102
{ACAD_REACTORS
330
BEC
102
}
330
B9E
100
AcDbEntity
  8
9
100
AcDbPolyline
 90
       12
 70
     1
 43
0.0
 10
-29.58465321349832
 20
58.10010174665103
 42
0.4142135623730716
 10
-30.3846532134985
 20
58.90010174665076
 10
-33.07296930642724
 20
58.90010174665076
 10
-33.07296930642724
 20
58.5001017466509
 10
-30.38468712904842
 20
58.5001017466509
 42
-0.4142135623730067
 10
-29.98468712904878
 20
58.1001017466508
 10
-29.98468712904878
 20
57.42799728675618
 10
-32.56098015940324
 20
57.42799728675596
 42
0.4142135623731289
 10
-33.36098015940343
 20
56.627997286756
 10
-33.36098015940343
 20
55.92380871629643
 42
0.4142135623731132
 10
-32.56098015940324
 20
55.12380871629648
 10
-29.58465321349832
 20
55.12380871629648
  0
LWPOLYLINE
  5
BEB
102
{ACAD_REACTORS
330
BEC
102
}
330
B9E
100
AcDbEntity
  8
9
100
AcDbPolyline
 90
       20
 70
     1
 43
0.0
 10
-34.7850262845518
 20
57.42799728675596
 10
-36.96125148380543
 20
57.42799728675596
 42
-0.4142135623730898
 10
-37.36125148380552
 20
57.82799728675604
 10
-37.36125148380552
 20
58.10010174665103
 42
-0.4142135623730744
 10
-36.96125148380543
 20
58.5001017466509
 10
-34.27303713752781
 20
58.50010174665067
 10
-34.27303713752781
 20
58.90010174665076
 10
-36.96128539935535
 20
58.90010174665076
 42
0.4142135623731289
 10
-37.76128539935553
 20
58.1001017466508
 10
-37.76128539935553
 20
57.82796337120567
 42
0.4142135623730716
 10
-36.9612853993558
 20
57.02796337120571
 10
-34.76901814481926
 20
57.02796337120571
 42
-0.414213562373168
 10
-34.36901814481962
 20
56.62796337120562
 10
-34.36901814481962
 20
55.90786840766487
 42
-0.4142135623730744
 10
-34.76901814481926
 20
55.507868407665
 10
-37.76128539935553
 20
55.507868407665
 10
-37.76128539935553
 20
55.12380871629648
 10
-34.7850262845518
 20
55.12380871629648
 42
0.4142135623731289
 10
-33.98502628455162
 20
55.92380871629643
 10
-33.98502628455162
 20
56.627997286756
 42
0.4142135623731132
  0
HATCH
  5
BEC
330
B9E
100
AcDbEntity
  8
9
100
AcDbHatch
 10
0.0
 20
0.0
 30
0.0
210
0.0
220
0.0
230
1.0
  2
SOLID
 70
     1
 71
     1
 91
       13
 92
        7
 72
     1
 73
     1
 93
       20
 10
-34.36901814481962
 20
55.90786840766487
 42
-0.414213562372991
 10
-34.76901814481926
 20
55.507868407665
 42
0.0
 10
-37.76128539935553
 20
55.507868407665
 42
0.0
 10
-37.76128539935553
 20
55.12380871629648
 42
0.0
 10
-34.7850262845518
 20
55.12380871629648
 42
0.4142135623731705
 10
-33.98502628455162
 20
55.92380871629666
 42
0.0
 10
-33.98502628455162
 20
56.627997286756
 42
0.4142135623731547
 10
-34.7850262845518
 20
57.42799728675596
 42
0.0
 10
-36.96125148380543
 20
57.42799728675596
 42
-0.4142135623730898
 10
-37.36125148380552
 20
57.82799728675604
 42
0.0
 10
-37.36125148380552
 20
58.1001017466508
 42
-0.4142135623731575
 10
-36.96125148380543
 20
58.5001017466509
 42
0.0
 10
-34.27303713752781
 20
58.50010174665067
 42
0.0
 10
-34.27303713752781
 20
58.90010174665076
 42
0.0
 10
-36.96128539935535
 20
58.90010174665076
 42
0.4142135623731705
 10
-37.76128539935553
 20
58.10010174665058
 42
0.0
 10
-37.76128539935553
 20
57.82796337120544
 42
0.4142135623730299
 10
-36.9612853993558
 20
57.02796337120571
 42
0.0
 10
-34.76901814481926
 20
57.02796337120571
 42
-0.4142135623730015
 10
-34.36901814481962
 20
56.62796337120608
 42
0.0
 97
        1
330
BEB
 92
        7
 72
     1
 73
     1
 93
       12
 10
-33.36098015940343
 20
55.92380871629666
 42
0.4142135623731547
 10
-32.56098015940324
 20
55.12380871629648
 42
0.0
 10
-29.58465321349877
 20
55.12380871629648
 42
0.0
 10
-29.58465321349832
 20
58.10010174665058
 42
0.4142135623731964
 10
-30.3846532134985
 20
58.90010174665076
 42
0.0
 10
-33.07296930642724
 20
58.90010174665076
 42
0.0
 10
-33.07296930642724
 20
58.50010174665067
 42
0.0
 10
-30.38468712904887
 20
58.5001017466509
 42
-0.4142135623732564
 10
-29.98468712904878
 20
58.10010174665103
 42
0.0
 10
-29.98468712904923
 20
57.42799728675596
 42
0.0
 10
-32.56098015940324
 20
57.42799728675596
 42
0.4142135623731705
 10
-33.36098015940343
 20
56.627997286756
 42
0.0
 97
        1
330
BEA
 92
       22
 72
     1
 73
     1
 93
        6
 10
-32.97692046803468
 20
56.62796337120562
 42
-0.4142135623731576
 10
-32.57692046803459
 20
57.02796337120571
 42
0.0
 10
-29.98468712904878
 20
57.02796337120571
 42
0.0
 10
-29.98468712904878
 20
55.507868407665
 42
0.0
 10
-32.57692046803459
 20
55.507868407665
 42
-0.4142135623731731
 10
-32.97692046803468
 20
55.90786840766487
 42
0.0
 97
        1
330
C11
 92
        7
 72
     1
 73
     1
 93
       10
 10
-28.57661522808212
 20
58.5001017466509
 42
0.0
 10
-25.98444972019661
 20
58.5001017466509
 42
-0.4142135623730067
 10
-25.58444972019652
 20
58.10010174665058
 42
0.0
 10
-25.58444972019606
 20
55.12380871629648
 42
0.0
 10
-25.20042394437906
 20
55.12380871629648
 42
0.0
 10
-25.2004239443786
 20
58.1001017466508
 42
0.4142135623731134
 10
-26.00042394437833
 20
58.90010174665076
 42
0.0
 10
-28.97664914363259
 20
58.90010174665076
 42
0.0
 10
-28.97664914363259
 20
55.12380871629648
 42
0.0
 10
-28.57661522808212
 20
55.12380871629648
 42
0.0
 97
        1
330
BE9
 92
        7
 72
     0
 73
     1
 93
        4
 10
-24.57637781922995
 20
55.12380871629648
 10
-24.19231812786165
 20
55.12380871629648
 10
-24.19231812786165
 20
58.90010174665076
 10
-24.57637781922995
 20
58.90010174665076
 97
        1
330
BE8
 92
        7
 72
     0
 73
     1
 93
        4
 10
-24.19231812786165
 20
59.87619128370352
 10
-24.5763778192304
 20
59.87619128370352
 10
-24.5763778192304
 20
59.28412752246913
 10
-24.1923181278612
 20
59.28412752246913
 97
        1
330
C12
 92
        7
 72
     1
 73
     1
 93
       10
 10
-23.18424622689509
 20
58.5001017466509
 42
0.0
 10
-20.59204680345965
 20
58.5001017466509
 42
-0.4142135623730898
 10
-20.19204680345956
 20
58.1001017466508
 42
0.0
 10
-20.19204680345956
 20
55.12380871629648
 42
0.0
 10
-19.79201288790909
 20
55.12380871629648
 42
0.0
 10
-19.79201288790909
 20
58.1001017466508
 42
0.4142135623731547
 10
-20.59201288790928
 20
58.90010174665076
 42
0.0
 10
-23.56830591826338
 20
58.90010174665076
 42
0.0
 10
-23.56830591826338
 20
55.12380871629648
 42
0.0
 10
-23.18424622689463
 20
55.12380871629648
 42
0.0
 97
        1
330
BE7
 92
        7
 72
     1
 73
     1
 93
        8
 10
-19.1999120763262
 20
55.92680650071542
 42
0.4153115297271299
 10
-18.39991769304061
 20
55.12380871629648
 42
0.0
 10
-15.4236900118708
 20
55.12380871629648
 42
0.0
 10
-15.4236900118708
 20
59.87619128370352
 42
0.0
 10
-15.80771578768872
 20
59.87619128370352
 42
0.0
 10
-15.80771578768872
 20
58.90010174665076
 42
0.0
 10
-18.39176256411201
 20
58.90010174665076
 42
0.4131164467977965
 10
-19.19175694739761
 20
58.1030995310698
 42
0.0
 97
        1
330
BE6
 92
       22
 72
     1
 73
     1
 93
        6
 10
-18.79994912667462
 20
58.1001017466508
 42
-0.4142135623731575
 10
-18.39994912667453
 20
58.5001017466509
 42
0.0
 10
-15.80771578768872
 20
58.50010174665067
 42
0.0
 10
-15.80771578768827
 20
55.507868407665
 42
0.0
 10
-18.39994912667453
 20
55.507868407665
 42
-0.4142135623731731
 10
-18.79994912667462
 20
55.90786840766487
 42
0.0
 97
        1
330
BE5
 92
        7
 72
     1
 73
     1
 93
       12
 10
-14.79964388672215
 20
55.92380871629621
 42
0.4142135623729885
 10
-13.99964388672242
 20
55.12380871629648
 42
0.0
 10
-11.8233508563676
 20
55.12380871629648
 42
0.4142135623731289
 10
-11.02335085636741
 20
55.92380871629666
 42
0.0
 10
-11.02335085636741
 20
58.90010174665076
 42
0.0
 10
-11.42338477191788
 20
58.90010174665076
 42
0.0
 10
-11.42338477191788
 20
55.91567577726095
 42
-0.4131711701795319
 10
-11.82196067063523
 20
55.51567831234956
 42
0.0
 10
-14.01419400962095
 20
55.50787335710947
 42
-0.4152567234626918
 10
-14.41561811090378
 20
55.90787082202087
 42
0.0
 10
-14.41561811090378
 20
58.90010174665076
 42
0.0
 10
-14.7996438867226
 20
58.90010174665076
 42
0.0
 97
        1
330
BE4
 92
        7
 72
     1
 73
     1
 93
       20
 10
-7.423079531965413
 20
57.02796337120571
 42
-0.414213562373168
 10
-7.023079531965322
 20
56.62796337120562
 42
0.0
 10
-7.023079531965322
 20
55.90786840766487
 42
-0.4142135623731575
 10
-7.423079531965413
 20
55.507868407665
 42
0.0
 10
-10.41534678650168
 20
55.507868407665
 42
0.0
 10
-10.41534678650168
 20
55.12380871629648
 42
0.0
 10
-7.445787917283723
 20
55.12380871629648
 42
0.4114777732065809
 10
-6.645822882998345
 20
55.91632914939783
 42
0.0
 10
-6.639238813324936
 20
56.62051771985716
 42
0.4169546541682913
 10
-7.439203847610315
 20
57.42799728675596
 42
0.0
 10
-9.615312870951584
 20
57.42799728675596
 42
-0.4142135623729911
 10
-10.01531287095122
 20
57.82799728675581
 42
0.0
 10
-10.01531287095122
 20
58.10010174665103
 42
-0.414213562372991
 10
-9.615312870951584
 20
58.5001017466509
 42
0.0
 10
-6.92703069357276
 20
58.50010174665067
 42
0.0
 10
-6.927030693572305
 20
58.90010174665076
 42
0.0
 10
-9.615346786501959
 20
58.90010174665076
 42
0.4142135623730467
 10
-10.41534678650168
 20
58.10010174665103
 42
0.0
 10
-10.41534678650168
 20
57.82796337120544
 42
0.4142135623730301
 10
-9.615346786501959
 20
57.02796337120571
 42
0.0
 97
        1
330
BE3
 92
        7
 72
     1
 73
     1
 93
       12
 10
-5.21497371544865
 20
57.42799728675596
 42
0.4142135623730871
 10
-6.014973715448377
 20
56.627997286756
 42
0.0
 10
-6.014973715448377
 20
55.92380871629621
 42
0.4142135623730715
 10
-5.21497371544865
 20
55.12380871629648
 42
0.0
 10
-2.23871460064447
 20
55.12380871629648
 42
0.0
 10
-2.23871460064447
 20
58.10010174665058
 42
0.414213562373155
 10
-3.038714600644652
 20
58.90010174665076
 42
0.0
 10
-5.726962862471737
 20
58.90010174665076
 42
0.0
 10
-5.726962862472191
 20
58.5001017466509
 42
0.0
 10
-3.038748516194573
 20
58.5001017466509
 42
-0.4142135623730067
 10
-2.638748516194482
 20
58.10010174665058
 42
0.0
 10
-2.638748516194482
 20
57.42799728675596
 42
0.0
 97
        1
330
BE2
 92
       22
 72
     1
 73
     1
 93
        6
 10
-2.638748516194937
 20
57.02796337120571
 42
0.0
 10
-2.638748516194482
 20
55.50786840766477
 42
0.0
 10
-5.21497371544865
 20
55.507868407665
 42
-0.4142135623731731
 10
-5.614973715448741
 20
55.90786840766509
 42
0.0
 10
-5.614973715448741
 20
56.62796337120562
 42
-0.4142135623731576
 10
-5.21497371544865
 20
57.02796337120571
 42
0.0
 97
        1
330
C0D
 75
     0
 76
     1
 47
0.0407044778999864
 98
       13
 10
-34.18710075113677
 20
56.16907953933765
 10
-33.12851374392494
 20
56.49471602641233
 10
-33.12851374392494
 20
56.49471602641233
 10
-28.77202873835904
 20
57.51232930166111
 10
-24.41554807250941
 20
57.91937341678636
 10
-24.41554807250941
 20
59.384734621186
 10
-23.31624584658039
 20
58.3264175319116
 10
-19.04119127844888
 20
57.75655517324913
 10
-19.04119127844888
 20
57.75655517324913
 10
-14.64399105416578
 20
57.43091868617466
 10
-8.048195057457178
 20
57.22739662861204
 10
-4.017427461911665
 20
57.18669281458665
 10
-4.017427461911665
 20
57.18669281458665
  0
TEXT
  5
BED
330
B9E
100
AcDbEntity
  8
leg fin
100
AcDbText
 10
3.391127401597259
 20
2.107634911895729
 30
0.0
 40
1.5
  1
Este desenho é propriedade da Sanindusa, S.A., e não pode ser copiado nem divulgado sem nossa autorização.
 50
90.0
 41
0.8
  7
SANINDUSA
100
AcDbText
  0
LINE
  5
BEE
330
B9E
100
AcDbEntity
  8
3
100
AcDbLine
 10
-90.0
 20
4.0
 30
0.0
 11
-90.0
 21
12.0
 31
0.0
  0
TEXT
  5
BEF
330
B9E
100
AcDbEntity
  8
1
100
AcDbText
 10
-39.0
 20
9.25
 30
0.0
 40
2.0
  1
Substituido por:
 41
0.8
  7
SANINDUSA
 11
-39.0
 21
10.25
 31
0.0
100
AcDbText
 73
     2
  0
POINT
  5
BF0
330
B9E
100
AcDbEntity
  8
SANINDUSA
100
AcDbPoint
 10
0.0
 20
0.0
 30
0.0
  0
TEXT
  5
BF1
330
B9E
100
AcDbEntity
  8
1
100
AcDbText
 10
-89.0
 20
16.74927010445663
 30
0.0
 40
2.0
  1
Normas:
 41
0.8
  7
SANINDUSA
 11
-89.0
 21
17.74927010445663
 31
0.0
100
AcDbText
 73
     2
  0
LINE
  5
BF2
330
B9E
100
AcDbEntity
  8
3
100
AcDbLine
 10
-90.0
 20
12.0
 30
0.0
 11
-90.0
 21
20.0
 31
0.0
  0
LINE
  5
BF3
330
B9E
100
AcDbEntity
  8
3
100
AcDbLine
 10
-110.546019464768
 20
12.0
 30
0.0
 11
-110.546019464768
 21
20.0
 31
0.0
  0
TEXT
  5
BF4
330
B9E
100
AcDbEntity
  8
1
100
AcDbText
 10
-109.6177520618648
 20
17.25
 30
0.0
 40
2.0
  1
Cor:
 41
0.8
  7
SANINDUSA
 11
-109.6177520618648
 21
18.25
 31
0.0
100
AcDbText
 73
     2
  0
LINE
  5
BF5
330
B9E
100
AcDbEntity
  8
leg fin
100
AcDbLine
 10
-91.42857142857156
 20
20.0
 30
0.0
 11
-91.42857142857156
 21
28.5
 31
0.0
  0
LINE
  5
BF6
330
B9E
100
AcDbEntity
  8
leg fin
100
AcDbLine
 10
-104.2857142857142
 20
20.0
 30
0.0
 11
-104.2857142857142
 21
28.5
 31
0.0
  0
LINE
  5
BF7
330
B9E
100
AcDbEntity
  8
leg fin
100
AcDbLine
 10
-117.1428571428573
 20
20.0
 30
0.0
 11
-117.1428571428573
 21
28.5
 31
0.0
  0
POINT
  5
BF8
330
B9E
100
AcDbEntity
  8
SANINDUSA
100
AcDbPoint
 10
-117.1428571428573
 20
28.5
 30
0.0
  0
POINT
  5
BF9
330
B9E
100
AcDbEntity
  8
SANINDUSA
100
AcDbPoint
 10
-104.2857142857142
 20
28.5
 30
0.0
  0
POINT
  5
BFA
330
B9E
100
AcDbEntity
  8
SANINDUSA
100
AcDbPoint
 10
-91.42857142857156
 20
28.5
 30
0.0
  0
TEXT
  5
BFB
330
B9E
100
AcDbEntity
  8
1
100
AcDbText
 10
-116.200160604496
 20
26.43288406845113
 30
0.0
 40
1.5
  1
Nº Seq.:
 41
0.8
  7
SANINDUSA
 11
-116.200160604496
 21
27.18288406845113
 31
0.0
100
AcDbText
 73
     2
  0
TEXT
  5
BFC
330
B9E
100
AcDbEntity
  8
1
100
AcDbText
 10
-103.2106584078738
 20
26.43288406845113
 30
0.0
 40
1.5
  1
Tipo:
 41
0.8
  7
SANINDUSA
 11
-103.2106584078738
 21
27.18288406845113
 31
0.0
100
AcDbText
 73
     2
  0
TEXT
  5
BFD
330
B9E
100
AcDbEntity
  8
1
100
AcDbText
 10
-90.22114672289353
 20
26.43288406845113
 30
0.0
 40
1.5
  1
Prod.:
 41
0.8
  7
SANINDUSA
 11
-90.22114672289353
 21
27.18288406845113
 31
0.0
100
AcDbText
 73
     2
  0
TEXT
  5
BFE
330
B9E
100
AcDbEntity
  8
1
100
AcDbText
 10
-64.77320576346574
 20
26.43288406845113
 30
0.0
 40
1.5
  1
Rev.:
 41
0.8
  7
SANINDUSA
 11
-64.77320576346574
 21
27.18288406845113
 31
0.0
100
AcDbText
 73
     2
  0
LINE
  5
BFF
330
B9E
100
AcDbEntity
  8
leg fin
100
AcDbLine
 10
-52.85714285714266
 20
20.0
 30
0.0
 11
-52.85714285714266
 21
28.5
 31
0.0
  0
LINE
  5
C00
330
B9E
100
AcDbEntity
  8
leg fin
100
AcDbLine
 10
-65.71428571428578
 20
20.0
 30
0.0
 11
-65.71428571428578
 21
28.5
 31
0.0
  0
LINE
  5
C01
330
B9E
100
AcDbEntity
  8
leg fin
100
AcDbLine
 10
-78.57142857142844
 20
20.0
 30
0.0
 11
-78.57142857142844
 21
28.5
 31
0.0
  0
POINT
  5
C02
330
B9E
100
AcDbEntity
  8
SANINDUSA
100
AcDbPoint
 10
-78.57142857142844
 20
28.5
 30
0.0
  0
POINT
  5
C03
330
B9E
100
AcDbEntity
  8
SANINDUSA
100
AcDbPoint
 10
-65.71428571428578
 20
28.5
 30
0.0
  0
POINT
  5
C04
330
B9E
100
AcDbEntity
  8
SANINDUSA
100
AcDbPoint
 10
-52.85714285714266
 20
28.5
 30
0.0
  0
TEXT
  5
C05
330
B9E
100
AcDbEntity
  8
1
100
AcDbText
 10
-77.61097961686573
 20
26.43288406845113
 30
0.0
 40
1.5
  1
Peça:
 41
0.8
  7
SANINDUSA
 11
-77.61097961686573
 21
27.18288406845113
 31
0.0
100
AcDbText
 73
     2
  0
TEXT
  5
C06
330
B9E
100
AcDbEntity
  8
1
100
AcDbText
 10
-52.06538060077036
 20
26.43288406845113
 30
0.0
 40
1.5
  1
Alt.:
 41
0.8
  7
SANINDUSA
 11
-52.06538060077036
 21
27.18288406845113
 31
0.0
100
AcDbText
 73
     2
  0
LINE
  5
C07
330
B9E
100
AcDbEntity
  8
3
100
AcDbLine
 10
0.0
 20
12.0
 30
0.0
 11
-40.0
 21
12.0
 31
0.0
  0
LINE
  5
C08
330
B9E
100
AcDbEntity
  8
3
100
AcDbLine
 10
-40.0
 20
32.5
 30
0.0
 11
0.0
 21
32.5
 31
0.0
  0
TEXT
  5
C09
330
B9E
100
AcDbEntity
  8
1
100
AcDbText
 10
-19.0
 20
29.75
 30
0.0
 40
2.0
  1
Folha:
 41
0.8
  7
SANINDUSA
 11
-19.0
 21
30.75
 31
0.0
100
AcDbText
 73
     2
  0
LINE
  5
C0A
330
B9E
100
AcDbEntity
  8
3
100
AcDbLine
 10
-20.0
 20
32.5
 30
0.0
 11
-20.0
 21
20.0
 31
0.0
  0
TEXT
  5
C0B
330
B9E
100
AcDbEntity
  8
1
100
AcDbText
 10
-39.0
 20
29.75
 30
0.0
 40
2.0
  1
Escala:
 41
0.8
  7
SANINDUSA
 11
-39.0
 21
30.75
 31
0.0
100
AcDbText
 73
     2
  0
TEXT
  5
C0C
330
B9E
100
AcDbEntity
  8
1
100
AcDbText
 10
-39.0
 20
17.25
 30
0.0
 40
2.0
  1
Substitui:
 41
0.8
  7
SANINDUSA
 11
-39.0
 21
18.25
 31
0.0
100
AcDbText
 73
     2
  0
LWPOLYLINE
  5
C0D
102
{ACAD_REACTORS
330
BEC
102
}
330
B9E
100
AcDbEntity
  8
9
100
AcDbPolyline
 90
        6
 70
     1
 43
0.0
 10
-2.638748516194482
 20
57.02796337120571
 10
-2.638748516194482
 20
55.50786840766477
 10
-5.21497371544865
 20
55.507868407665
 42
-0.4142135623730898
 10
-5.614973715448741
 20
55.90786840766487
 10
-5.614973715448741
 20
56.62796337120562
 42
-0.4142135623731576
 10
-5.21497371544865
 20
57.02796337120571
  0
LINE
  5
C0E
330
B9E
100
AcDbEntity
  8
3
100
AcDbLine
 10
-40.0
 20
50.0
 30
0.0
 11
0.0
 21
50.0
 31
0.0
  0
ATTDEF
  5
C0F
330
B9E
100
AcDbEntity
  8
1
100
AcDbText
 10
-31.30691739422431
 20
40.25
 30
0.0
 40
2.0
  1
XXXXXXXXXXXXXXX
 41
0.8
  7
SANINDUSA
 72
     4
 11
-20.0
 21
41.25
 31
0.0
100
AcDbAttributeDefinition
  3
Observações:
  2
OBS
 70
     0
  0
TEXT
  5
C10
330
B9E
100
AcDbEntity
  8
1
100
AcDbText
 10
-39.0
 20
47.25
 30
0.0
 40
2.0
  1
Observações:
 41
0.8
  7
SANINDUSA
 11
-39.0
 21
48.25
 31
0.0
100
AcDbText
 73
     2
  0
LWPOLYLINE
  5
C11
102
{ACAD_REACTORS
330
BEC
102
}
330
B9E
100
AcDbEntity
  8
9
100
AcDbPolyline
 90
        6
 70
     1
 43
0.0
 10
-29.98468712904878
 20
57.02796337120571
 10
-29.98468712904878
 20
55.507868407665
 10
-32.57692046803459
 20
55.507868407665
 42
-0.4142135623731731
 10
-32.97692046803468
 20
55.90786840766487
 10
-32.97692046803468
 20
56.62796337120562
 42
-0.4142135623731576
 10
-32.57692046803459
 20
57.02796337120571
  0
LWPOLYLINE
  5
C12
102
{ACAD_REACTORS
330
BEC
102
}
330
B9E
100
AcDbEntity
  8
9
100
AcDbPolyline
 90
        4
 70
     1
 43
0.0
 10
-24.19231812786165
 20
59.87619128370352
 10
-24.57637781922995
 20
59.87619128370352
 10
-24.57637781922995
 20
59.28412752246913
 10
-24.19231812786165
 20
59.28412752246913
  0
ENDBLK
  5
C14
330
B9E
100
AcDbEntity
  8
0
100
AcDbBlockEnd
  0
ENDSEC
  0
SECTION
  2
ENTITIES
  0
LINE
  5
1BE0
330
1F
100
AcDbEntity
  8
SANINDUSA
100
AcDbLine
 10
4731.789191736987
 20
2897.692717606903
 30
0.0
 11
4731.790433778575
 21
2897.621560537026
 31
0.0
  0
LINE
  5
1BE2
330
1F
100
AcDbEntity
  8
SANINDUSA
100
AcDbLine
 10
4731.785434498599
 20
2897.621560537026
 30
0.0
 11
4731.790433778575
 21
2897.621560537026
 31
0.0
  0
LINE
  5
1BE5
330
1F
100
AcDbEntity
  8
SANINDUSA
100
AcDbLine
 10
4731.037640955796
 20
2897.621560537026
 30
0.0
 11
4731.038883012947
 21
2897.692717943331
 31
0.0
  0
LINE
  5
1BE6
330
1F
100
AcDbEntity
  8
SANINDUSA
100
AcDbLine
 10
4731.037640955796
 20
2897.621560537026
 30
0.0
 11
4731.042640194211
 21
2897.621560537026
 31
0.0
  0
LINE
  5
1BE8
330
1F
100
AcDbEntity
  8
SANINDUSA
100
AcDbLine
 10
4731.042640194211
 20
2897.621560537026
 30
0.0
 11
4731.785434498599
 21
2897.621560537026
 31
0.0
  0
ARC
  5
1BE9
330
1F
100
AcDbEntity
  8
SANINDUSA
100
AcDbCircle
 10
4731.780193085589
 20
2897.692560535238
 30
0.0
 40
0.0090000000000001
100
AcDbArc
 50
1.000000009720081
 51
90.0
  0
LINE
  5
1BEB
330
1F
100
AcDbEntity
  8
SANINDUSA
100
AcDbLine
 10
4731.047881635984
 20
2897.701560535238
 30
0.0
 11
4731.780193104555
 21
2897.701560535238
 31
0.0
  0
ARC
  5
1BED
330
1F
100
AcDbEntity
  8
SANINDUSA
100
AcDbCircle
 10
4731.047881636325
 20
2897.692560535238
 30
0.0
 40
0.0090000000000001
100
AcDbArc
 50
90.0
 51
178.9999999902799
  0
ELLIPSE
  5
1C06
330
1F
100
AcDbEntity
  8
SANINDUSA
100
AcDbEllipse
 10
4730.756091493946
 20
2897.972166820697
 30
0.0
 11
0.0079343406248553
 21
0.0079343406248556
 31
0.0
210
0.0
220
0.0
230
1.0
 40
0.8911979137515732
 41
5.519407516233521
 42
7.046963098125656
  0
LINE
  5
1C08
330
1F
100
AcDbEntity
  8
SANINDUSA
100
AcDbLine
 10
4730.756931138376
 20
2897.98278796359
 30
0.0
 11
4730.10952465717
 21
2897.98278796359
 31
0.0
  0
ELLIPSE
  5
1C0A
330
1F
100
AcDbEntity
  8
SANINDUSA
100
AcDbEllipse
 10
4730.110364323953
 20
2897.972166820697
 30
0.0
 11
0.0079343406248555
 21
-0.0079343406248555
 31
0.0
210
0.0
220
0.0
230
1.0
 40
0.8911979137515578
 41
2.37781486264372
 42
3.905370444535874
  0
LINE
  5
1C0C
330
1F
100
AcDbEntity
  8
SANINDUSA
100
AcDbLine
 10
4730.099743181059
 20
2897.97300648748
 30
0.0
 11
4730.099743181059
 21
2897.325600006274
 31
0.0
  0
LINE
  5
1C0F
330
1F
100
AcDbEntity
  8
SANINDUSA
100
AcDbLine
 10
4730.766712618212
 20
2897.325600006274
 30
0.0
 11
4730.766712618212
 21
2897.97300648748
 31
0.0
  0
ELLIPSE
  5
1C11
330
1F
100
AcDbEntity
  8
SANINDUSA
100
AcDbEllipse
 10
4730.756091493946
 20
2897.326439650705
 30
0.0
 11
-0.0079343406248556
 21
0.0079343406248554
 31
0.0
210
0.0
220
0.0
230
1.0
 40
0.8911979137515647
 41
2.377814862643713
 42
3.905370444535865
  0
ELLIPSE
  5
1C12
330
1F
100
AcDbEntity
  8
SANINDUSA
100
AcDbEllipse
 10
4730.110364323953
 20
2897.326439650705
 30
0.0
 11
0.0079343406248554
 21
0.0079343406248555
 31
0.0
210
0.0
220
0.0
230
0.9999999999999996
 40
0.8911979137515682
 41
2.377814862643719
 42
3.905370444535868
  0
LINE
  5
1C14
330
1F
100
AcDbEntity
  8
SANINDUSA
100
AcDbLine
 10
4730.10952465717
 20
2897.315818526438
 30
0.0
 11
4730.756931138376
 21
2897.315818526438
 31
0.0
  0
LINE
  5
1C1B
330
1F
100
AcDbEntity
  8
SANINDUSA
100
AcDbLine
 10
4730.753288162093
 20
2897.979144972405
 30
0.0
 11
4730.756931138376
 21
2897.98278796359
 31
0.0
  0
LINE
  5
1C1C
330
1F
100
AcDbEntity
  8
SANINDUSA
100
AcDbLine
 10
4730.766712618212
 20
2897.97300648748
 30
0.0
 11
4730.763069641928
 21
2897.969363496295
 31
0.0
  0
LINE
  5
1C1E
330
1F
100
AcDbEntity
  8
SANINDUSA
100
AcDbLine
 10
4730.103386149894
 20
2897.969363518646
 30
0.0
 11
4730.099743181059
 21
2897.97300648748
 31
0.0
  0
LINE
  5
1C1F
330
1F
100
AcDbEntity
  8
SANINDUSA
100
AcDbLine
 10
4730.10952465717
 20
2897.98278796359
 30
0.0
 11
4730.113167626003
 21
2897.979144994757
 31
0.0
  0
LINE
  5
1C21
330
1F
100
AcDbEntity
  8
SANINDUSA
100
AcDbLine
 10
4730.76232178245
 20
2897.329990842036
 30
0.0
 11
4730.766712618212
 21
2897.325600006274
 31
0.0
  0
LINE
  5
1C22
330
1F
100
AcDbEntity
  8
SANINDUSA
100
AcDbLine
 10
4730.756931138376
 20
2897.315818526438
 30
0.0
 11
4730.752540302614
 21
2897.3202093622
 31
0.0
  0
ARC
  5
1C23
330
1F
100
AcDbEntity
  8
SANINDUSA
100
AcDbCircle
 10
4730.114442599896
 20
2897.330517918997
 30
0.0
 40
0.0103218352258498
100
AcDbArc
 50
182.9260461910699
 51
267.0739319980699
  0
LINE
  5
1C24
330
1F
100
AcDbEntity
  8
SANINDUSA
100
AcDbLine
 10
4730.113915697823
 20
2897.320209541014
 30
0.0
 11
4730.10952465717
 21
2897.315818526438
 31
0.0
  0
LINE
  5
1C25
330
1F
100
AcDbEntity
  8
SANINDUSA
100
AcDbLine
 10
4730.099743181059
 20
2897.325600006274
 30
0.0
 11
4730.104134221713
 21
2897.329991020849
 31
0.0
  0
LWPOLYLINE
  5
1C27
330
1F
100
AcDbEntity
  8
SANINDUSA
100
AcDbPolyline
 90
        5
 70
   128
 43
0.0
 10
4730.113204755972
 20
2897.97910935863
 10
4730.255034220557
 20
2897.979096022091
 10
4730.445046943764
 20
2897.979084358207
 10
4730.635059666972
 20
2897.979098283342
 10
4730.753251028398
 20
2897.979109332553
  0
LWPOLYLINE
  5
1C29
330
1F
100
AcDbEntity
  8
SANINDUSA
100
AcDbPolyline
 90
       10
 70
   128
 43
0.0
 10
4730.763069641928
 20
2897.969363496295
 10
4730.762479615549
 20
2897.810186289838
 10
4730.761771750787
 20
2897.620204039505
 10
4730.761498940329
 20
2897.556289233854
 10
4730.761231851916
 20
2897.492373921565
 10
4730.761067343096
 20
2897.428452768019
 10
4730.761119735579
 20
2897.403780319384
 10
4730.761342835765
 20
2897.379115619353
 10
4730.761741769652
 20
2897.354503967455
 10
4730.76232178245
 20
2897.329990842036
  0
LWPOLYLINE
  5
1C2A
330
1F
100
AcDbEntity
  8
SANINDUSA
100
AcDbPolyline
 90
       10
 70
   128
 43
0.0
 10
4730.104134221713
 20
2897.329991020849
 10
4730.104717427085
 20
2897.354689814738
 10
4730.105115452001
 20
2897.379488923243
 10
4730.105335743318
 20
2897.404341616324
 10
4730.105385744165
 20
2897.429201342753
 10
4730.105220043252
 20
2897.49287293165
 10
4730.10495387126
 20
2897.556538679293
 10
4730.104682554642
 20
2897.620203979901
 10
4730.103975680808
 20
2897.810186289838
 10
4730.103386149894
 20
2897.969363518646
  0
LWPOLYLINE
  5
1C2C
330
1F
100
AcDbEntity
  8
SANINDUSA
100
AcDbPolyline
 90
       10
 70
   128
 43
0.0
 10
4730.752212059836
 20
2897.320464112452
 10
4730.685996663908
 20
2897.32050720661
 10
4730.56582368646
 20
2897.320644297293
 10
4730.50573889647
 20
2897.320801415137
 10
4730.44565348063
 20
2897.320941188029
 10
4730.409786922077
 20
2897.320918895891
 10
4730.373922002653
 20
2897.320821025065
 10
4730.287366223673
 20
2897.320623793295
 10
4730.200805557112
 20
2897.320522286585
 10
4730.114243895899
 20
2897.320464291265
  0
ELLIPSE
  5
1C2F
330
1F
100
AcDbEntity
  8
SANINDUSA
100
AcDbEllipse
 10
4730.061832265395
 20
2898.020698879255
 30
0.0
 11
0.0035366109458464
 21
-0.0035366109458495
 31
0.0
210
0.0
220
0.0
230
1.0
 40
0.9996954598818906
 41
2.356346783440365
 42
3.926838523740082
  0
ELLIPSE
  5
1C32
330
1F
100
AcDbEntity
  8
SANINDUSA
100
AcDbEllipse
 10
4730.804623552503
 20
2898.020698879255
 30
0.0
 11
0.0035366109458465
 21
0.0035366109458496
 31
0.0
210
0.0
220
0.0
230
0.9999999999999998
 40
0.9996954598818252
 41
5.497939437029291
 42
7.068431177329024
  0
ELLIPSE
  5
1C35
330
1F
100
AcDbEntity
  8
SANINDUSA
100
AcDbEllipse
 10
4730.061832265395
 20
2897.277907592147
 30
0.0
 11
0.0035366109458463
 21
0.0035366109458495
 31
0.0
210
0.0
220
0.0
230
1.0
 40
0.9996954598818847
 41
2.356346783439474
 42
3.926838523739231
  0
ELLIPSE
  5
1C38
330
1F
100
AcDbEntity
  8
SANINDUSA
100
AcDbEllipse
 10
4730.804623552503
 20
2897.277907592147
 30
0.0
 11
0.0035366109458462
 21
-0.0035366109458495
 31
0.0
210
0.0
220
0.0
230
1.0
 40
0.9996954598818829
 41
5.497939437030165
 42
7.068431177329933
  0
LINE
  5
1C3A
330
1F
100
AcDbEntity
  8
SANINDUSA
100
AcDbLine
 10
4730.804625046591
 20
2898.025699640862
 30
0.0
 11
4730.061830742203
 21
2898.025699640862
 31
0.0
  0
LINE
  5
1C3B
330
1F
100
AcDbEntity
  8
SANINDUSA
100
AcDbLine
 10
4730.809624326567
 20
2897.277906098059
 30
0.0
 11
4730.809624326567
 21
2898.020700402446
 31
0.0
  0
LINE
  5
1C3C
330
1F
100
AcDbEntity
  8
SANINDUSA
100
AcDbLine
 10
4730.056831503787
 20
2898.020700402446
 30
0.0
 11
4730.056831503787
 21
2897.277906098059
 31
0.0
  0
LINE
  5
1C3D
330
1F
100
AcDbEntity
  8
SANINDUSA
100
AcDbLine
 10
4730.061830742203
 20
2897.272906818083
 30
0.0
 11
4730.804625046591
 21
2897.272906818083
 31
0.0
  0
ARC
  5
1C3F
330
1F
100
AcDbEntity
  8
SANINDUSA
100
AcDbCircle
 10
4729.703066214521
 20
2897.116270161583
 30
0.0
 40
0.9423524209497255
100
AcDbArc
 50
63.53831605207603
 51
64.8564377913139
  0
LWPOLYLINE
  5
1C40
330
1F
100
AcDbEntity
  8
SANINDUSA
100
AcDbPolyline
 90
       10
 70
   128
 43
0.0
 10
4730.12297773097
 20
2897.959894724777
 10
4730.123107020895
 20
2897.919901021412
 10
4730.12363271151
 20
2897.759926088742
 10
4730.12407390509
 20
2897.620561071327
 10
4730.124222708087
 20
2897.556817450217
 10
4730.124391031603
 20
2897.493073441675
 10
4730.124708672206
 20
2897.429324724367
 10
4730.124729086797
 20
2897.398746051481
 10
4730.124430773
 20
2897.368195094756
 10
4730.123900887708
 20
2897.337752737692
  0
LWPOLYLINE
  5
1C41
330
1F
100
AcDbEntity
  8
SANINDUSA
100
AcDbPolyline
 90
       17
 70
   128
 43
0.0
 10
4730.104779330234
 20
2897.330089428118
 10
4730.106042121689
 20
2897.330340602091
 10
4730.107715145837
 20
2897.330826618365
 10
4730.110114359448
 20
2897.331666388205
 10
4730.112886776367
 20
2897.332754351786
 10
4730.115562332015
 20
2897.333885111502
 10
4730.118391451577
 20
2897.335145332506
 10
4730.120972578566
 20
2897.336343683889
 10
4730.121053998511
 20
2897.33638218849
 10
4730.122367774288
 20
2897.337008692911
 10
4730.123072532157
 20
2897.337349035433
 10
4730.123452891747
 20
2897.337533929041
 10
4730.123658535222
 20
2897.337634243658
 10
4730.12376976494
 20
2897.33768854349
 10
4730.12382995073
 20
2897.337717988184
 10
4730.123875227909
 20
2897.337740161112
 10
4730.123900887708
 20
2897.337752737692
  0
ARC
  5
1C43
330
1F
100
AcDbEntity
  8
SANINDUSA
100
AcDbCircle
 10
4731.163238556131
 20
2897.116567571454
 30
0.0
 40
0.9420190172815695
100
AcDbArc
 50
115.1429351621887
 51
116.4615000643182
  0
LWPOLYLINE
  5
1C46
330
1F
100
AcDbEntity
  8
SANINDUSA
100
AcDbPolyline
 90
       17
 70
   128
 43
0.0
 10
4730.742553425173
 20
2897.337752558878
 10
4730.742579114775
 20
2897.337739982298
 10
4730.742624414305
 20
2897.33771780937
 10
4730.742684614996
 20
2897.337688364676
 10
4730.742795896868
 20
2897.33763400524
 10
4730.743001652102
 20
2897.337533631018
 10
4730.743382287363
 20
2897.337348677805
 10
4730.744087529521
 20
2897.337008216074
 10
4730.74540222917
 20
2897.336381354025
 10
4730.74548203979
 20
2897.336343624285
 10
4730.748063636164
 20
2897.335145332506
 10
4730.750893366675
 20
2897.333885111502
 10
4730.753569496015
 20
2897.332754351786
 10
4730.756341767649
 20
2897.331666626623
 10
4730.758740854601
 20
2897.330826916388
 10
4730.760413778166
 20
2897.33034084051
 10
4730.76167656217
 20
2897.330089428118
  0
LWPOLYLINE
  5
1C47
330
1F
100
AcDbEntity
  8
SANINDUSA
100
AcDbPolyline
 90
        9
 70
   128
 43
0.0
 10
4730.742553425173
 20
2897.337752558878
 10
4730.742030632834
 20
2897.367944814852
 10
4730.7417376164
 20
2897.398244061163
 10
4730.741748345236
 20
2897.428571560076
 10
4730.742049587111
 20
2897.49257174938
 10
4730.74222923551
 20
2897.55656687229
 10
4730.742387426237
 20
2897.620561607769
 10
4730.742992592196
 20
2897.810533859423
 10
4730.743478310446
 20
2897.959895007899
  0
ARC
  5
1C48
330
1F
100
AcDbEntity
  8
SANINDUSA
100
AcDbCircle
 10
4728.405495033071
 20
2897.098438867968
 30
0.0
 40
1.921419530142379
100
AcDbArc
 50
26.63745086224762
 51
27.28027948932129
  0
ARC
  5
1C49
330
1F
100
AcDbEntity
  8
SANINDUSA
100
AcDbCircle
 10
4730.113793818833
 20
2897.968777793389
 30
0.0
 40
0.010348344571711
100
AcDbArc
 50
93.26323395896702
 51
176.9359427212376
  0
ARC
  5
1C4A
330
1F
100
AcDbEntity
  8
SANINDUSA
100
AcDbCircle
 10
4732.467396899401
 20
2897.09517442577
 30
0.0
 40
1.928636043038465
100
AcDbArc
 50
152.7211654018653
 51
153.3615770174995
  0
LWPOLYLINE
  5
1C4B
330
1F
100
AcDbEntity
  8
SANINDUSA
100
AcDbPolyline
 90
        6
 70
   128
 43
0.0
 10
4730.743478310446
 20
2897.959895007899
 10
4730.703478348593
 20
2897.959912360302
 10
4730.54347835217
 20
2897.959988192311
 10
4730.445048016648
 20
2897.960013554087
 10
4730.255024728517
 20
2897.95995584189
 10
4730.12297773097
 20
2897.959894724777
  0
ARC
  5
1C4C
330
1F
100
AcDbEntity
  8
SANINDUSA
100
AcDbCircle
 10
4730.752661947908
 20
2897.968777773153
 30
0.0
 40
0.0103483397439033
100
AcDbArc
 50
3.064046971069889
 51
86.73666676628299
  0
LWPOLYLINE
  5
1C4D
330
1F
100
AcDbEntity
  8
SANINDUSA
100
AcDbPolyline
 90
       17
 70
   128
 43
0.0
 10
4730.752212059836
 20
2897.320464112452
 10
4730.751576197485
 20
2897.321364082984
 10
4730.750732672553
 20
2897.322701551607
 10
4730.74952174459
 20
2897.324754991224
 10
4730.748121393065
 20
2897.327239193609
 10
4730.746782851557
 20
2897.329688288859
 10
4730.745367181639
 20
2897.332338072947
 10
4730.744055283408
 20
2897.334839918307
 10
4730.74399371181
 20
2897.334958352736
 10
4730.743331623415
 20
2897.33623705118
 10
4730.74297518764
 20
2897.336929597548
 10
4730.7427821878
 20
2897.337305702857
 10
4730.742677522044
 20
2897.337510027579
 10
4730.742620778421
 20
2897.337620892218
 10
4730.742589962821
 20
2897.337681092909
 10
4730.742566418985
 20
2897.337727107695
 10
4730.742553425173
 20
2897.337752558878
  0
LWPOLYLINE
  5
1C4E
330
1F
100
AcDbEntity
  8
SANINDUSA
100
AcDbPolyline
 90
       17
 70
   128
 43
0.0
 10
4730.123900887708
 20
2897.337752737692
 10
4730.123887886445
 20
2897.337727286508
 10
4730.123864372412
 20
2897.337681331327
 10
4730.123833586613
 20
2897.337621130636
 10
4730.123776850443
 20
2897.337510265997
 10
4730.123672259192
 20
2897.337306120089
 10
4730.123479386012
 20
2897.336930193594
 10
4730.123123151402
 20
2897.336238004854
 10
4730.12246161435
 20
2897.334960140875
 10
4730.122399074177
 20
2897.334839858702
 10
4730.121087384562
 20
2897.332338132552
 10
4730.119672213833
 20
2897.329688884905
 10
4730.118334141712
 20
2897.327240266493
 10
4730.116933853517
 20
2897.32475570648
 10
4730.115722988884
 20
2897.32270196884
 10
4730.114879594336
 20
2897.321364321402
 10
4730.114243895899
 20
2897.320464291265
  0
LWPOLYLINE
  5
1C4F
330
1F
100
AcDbEntity
  8
SANINDUSA
100
AcDbPolyline
 90
       10
 70
   128
 43
0.0
 10
4730.123900887708
 20
2897.337752737692
 10
4730.207155523042
 20
2897.33751235216
 10
4730.290408757666
 20
2897.337094046763
 10
4730.373655361275
 20
2897.336247422389
 10
4730.409704399447
 20
2897.335800804785
 10
4730.445755821804
 20
2897.335691072634
 10
4730.505869043212
 20
2897.336312808683
 10
4730.565981400351
 20
2897.337003626517
 10
4730.686064017157
 20
2897.337585844687
 10
4730.742553425173
 20
2897.337752558878
  0
ARC
  5
1C50
330
1F
100
AcDbEntity
  8
SANINDUSA
100
AcDbCircle
 10
4730.751233930209
 20
2897.33089174586
 30
0.0
 40
0.0104734080441823
100
AcDbArc
 50
275.3587608039167
 51
355.6065399013562
  0
ARC
  5
1C52
330
1F
100
AcDbEntity
  8
SANINDUSA
100
AcDbCircle
 10
4730.232723466217
 20
2897.849861531547
 30
0.0
 40
0.0025906655567192
100
AcDbArc
 50
90.00185251789154
 51
180.0
  0
ARC
  5
1C5D
330
1F
100
AcDbEntity
  8
SANINDUSA
100
AcDbCircle
 10
4730.633732459779
 20
2897.849861758865
 30
0.0
 40
0.0025905276449824
100
AcDbArc
 50
0.0
 51
90.00152693331193
  0
LWPOLYLINE
  5
1C68
330
1F
100
AcDbEntity
  8
SANINDUSA
100
AcDbPolyline
 90
        3
 70
   128
 43
0.0
 10
4730.232723382453
 20
2897.852452197102
 10
4730.240723339061
 20
2897.852453210381
 10
4730.243723330239
 20
2897.85245358291
  0
LWPOLYLINE
  5
1C6B
330
1F
100
AcDbEntity
  8
SANINDUSA
100
AcDbPolyline
 90
        3
 70
   128
 43
0.0
 10
4730.230132398347
 20
2897.838863858011
 10
4730.23013269637
 20
2897.846862264899
 10
4730.230132800679
 20
2897.849861838844
  0
LWPOLYLINE
  5
1C6C
330
1F
100
AcDbEntity
  8
SANINDUSA
100
AcDbPolyline
 90
        3
 70
   128
 43
0.0
 10
4730.622732472758
 20
2897.852453672317
 10
4730.63073236976
 20
2897.852452659038
 10
4730.633732390741
 20
2897.852452286509
  0
LWPOLYLINE
  5
1C6E
330
1F
100
AcDbEntity
  8
SANINDUSA
100
AcDbPolyline
 90
        3
 70
   128
 43
0.0
 10
4730.636322987417
 20
2897.849861943153
 10
4730.63632328544
 20
2897.841863536266
 10
4730.63632340465
 20
2897.838863932517
  0
ARC
  5
1C70
330
1F
100
AcDbEntity
  8
SANINDUSA
100
AcDbCircle
 10
4730.243723923443
 20
2897.849864041437
 30
0.0
 40
0.0025895415410339
100
AcDbArc
 50
0.0
 51
90.01312510239838
  0
ARC
  5
1C72
330
1F
100
AcDbEntity
  8
SANINDUSA
100
AcDbCircle
 10
4730.622732056381
 20
2897.849863909259
 30
0.0
 40
0.0025897630909825
100
AcDbArc
 50
89.99078811373763
 51
180.0
  0
LWPOLYLINE
  5
1C74
330
1F
100
AcDbEntity
  8
SANINDUSA
100
AcDbPolyline
 90
        3
 70
   128
 43
0.0
 10
4730.24631346498
 20
2897.849864193228
 10
4730.246313166957
 20
2897.841865860847
 10
4730.246313047747
 20
2897.838866316703
  0
LWPOLYLINE
  5
1C77
330
1F
100
AcDbEntity
  8
SANINDUSA
100
AcDbPolyline
 90
        3
 70
   128
 43
0.0
 10
4730.620142710547
 20
2897.838866376308
 10
4730.620142412524
 20
2897.846864708689
 10
4730.620142293314
 20
2897.849864267734
  0
ARC
  5
1C79
330
1F
100
AcDbEntity
  8
SANINDUSA
100
AcDbCircle
 10
4730.232721952403
 20
2897.838863992523
 30
0.0
 40
0.0025895540607397
100
AcDbArc
 50
180.0
 51
270.0128480324183
  0
ARC
  5
1C7A
330
1F
100
AcDbEntity
  8
SANINDUSA
100
AcDbCircle
 10
4730.633733675005
 20
2897.838864242658
 30
0.0
 40
0.002589729664119
100
AcDbArc
 50
269.9900485656556
 51
0.0
  0
LWPOLYLINE
  5
1C7D
330
1F
100
AcDbEntity
  8
SANINDUSA
100
AcDbPolyline
 90
        3
 70
   128
 43
0.0
 10
4730.243722465973
 20
2897.836275958446
 10
4730.235722524265
 20
2897.836274840859
 10
4730.232722533087
 20
2897.836274438527
  0
LWPOLYLINE
  5
1C7E
330
1F
100
AcDbEntity
  8
SANINDUSA
100
AcDbPolyline
 90
        3
 70
   128
 43
0.0
 10
4730.633733225206
 20
2897.836274513033
 10
4730.625733328204
 20
2897.836275600818
 10
4730.622733307223
 20
2897.83627601805
  0
ARC
  5
1C80
330
1F
100
AcDbEntity
  8
SANINDUSA
100
AcDbCircle
 10
4730.297723502544
 20
2897.849869911976
 30
0.0
 40
0.0025906446775168
100
AcDbArc
 50
90.00007222474813
 51
179.9910289410646
  0
ARC
  5
1C8B
330
1F
100
AcDbEntity
  8
SANINDUSA
100
AcDbCircle
 10
4730.568732444342
 20
2897.849870130395
 30
0.0
 40
0.0025904858651836
100
AcDbArc
 50
0.0
 51
90.00245110784927
  0
LWPOLYLINE
  5
1C96
330
1F
100
AcDbEntity
  8
SANINDUSA
100
AcDbPolyline
 90
        3
 70
   128
 43
0.0
 10
4730.297723499279
 20
2897.852460556653
 10
4730.305723455886
 20
2897.852461555031
 10
4730.30872364078
 20
2897.85246192756
  0
LWPOLYLINE
  5
1C98
330
1F
100
AcDbEntity
  8
SANINDUSA
100
AcDbPolyline
 90
        3
 70
   128
 43
0.0
 10
4730.557732177119
 20
2897.852461987165
 10
4730.565732133726
 20
2897.852460988787
 10
4730.568732333521
 20
2897.852460616258
  0
LWPOLYLINE
  5
1C9B
330
1F
100
AcDbEntity
  8
SANINDUSA
100
AcDbPolyline
 90
        3
 70
   128
 43
0.0
 10
4730.295132425765
 20
2897.838872858313
 10
4730.29513273869
 20
2897.846870937375
 10
4730.295132857899
 20
2897.849870317605
  0
LWPOLYLINE
  5
1C9C
330
1F
100
AcDbEntity
  8
SANINDUSA
100
AcDbPolyline
 90
        3
 70
   128
 43
0.0
 10
4730.571322930197
 20
2897.849870362309
 10
4730.571323287825
 20
2897.841872283247
 10
4730.57132334743
 20
2897.838872873214
  0
ARC
  5
1C9E
330
1F
100
AcDbEntity
  8
SANINDUSA
100
AcDbCircle
 10
4730.243722369679
 20
2897.838866636532
 30
0.0
 40
0.0025906780880432
100
AcDbArc
 50
270.002129639977
 51
0.0
  0
ARC
  5
1C9F
330
1F
100
AcDbEntity
  8
SANINDUSA
100
AcDbCircle
 10
4730.622733279977
 20
2897.838866587489
 30
0.0
 40
0.0025905694387076
100
AcDbArc
 50
180.0
 51
270.0006026024443
  0
ARC
  5
1CA0
330
1F
100
AcDbEntity
  8
SANINDUSA
100
AcDbCircle
 10
4730.308724291185
 20
2897.849872398592
 30
0.0
 40
0.0025895290495384
100
AcDbArc
 50
0.0
 51
90.01439080727671
  0
ARC
  5
1CA2
330
1F
100
AcDbEntity
  8
SANINDUSA
100
AcDbCircle
 10
4730.557731718976
 20
2897.849872265871
 30
0.0
 40
0.0025897213341107
100
AcDbArc
 50
89.98986388707701
 51
179.9906844925863
  0
LWPOLYLINE
  5
1CA4
330
1F
100
AcDbEntity
  8
SANINDUSA
100
AcDbPolyline
 90
        3
 70
   128
 43
0.0
 10
4730.311313820223
 20
2897.849872642186
 10
4730.311313492398
 20
2897.841874652532
 10
4730.311313373188
 20
2897.838875317005
  0
LWPOLYLINE
  5
1CA7
330
1F
100
AcDbEntity
  8
SANINDUSA
100
AcDbPolyline
 90
        3
 70
   128
 43
0.0
 10
4730.555142414908
 20
2897.838875346807
 10
4730.555142116885
 20
2897.846873336461
 10
4730.555141997675
 20
2897.84987268689
  0
ARC
  5
1CA8
330
1F
100
AcDbEntity
  8
SANINDUSA
100
AcDbCircle
 10
4730.362724797532
 20
2897.849877242364
 30
0.0
 40
0.0025904817520213
100
AcDbArc
 50
89.99679793194307
 51
179.9890291336469
  0
ARC
  5
1CB3
330
1F
100
AcDbEntity
  8
SANINDUSA
100
AcDbCircle
 10
4730.503731250184
 20
2897.849877531845
 30
0.0
 40
0.0025902518990087
100
AcDbArc
 50
0.0
 51
90.00828588785493
  0
LWPOLYLINE
  5
1CBE
330
1F
100
AcDbEntity
  8
SANINDUSA
100
AcDbPolyline
 90
        3
 70
   128
 43
0.0
 10
4730.362724942307
 20
2897.852467724112
 10
4730.370724898914
 20
2897.852468394664
 10
4730.373725307326
 20
2897.852468618181
  0
LWPOLYLINE
  5
1CC0
330
1F
100
AcDbEntity
  8
SANINDUSA
100
AcDbPolyline
 90
        3
 70
   128
 43
0.0
 10
4730.49273048077
 20
2897.852468677786
 10
4730.500730467181
 20
2897.852468051937
 10
4730.503730875592
 20
2897.852467783716
  0
LINE
  5
1CC3
330
1F
100
AcDbEntity
  8
SANINDUSA
100
AcDbLine
 10
4730.360133988003
 20
2897.838880800632
 30
0.0
 11
4730.360134315829
 21
2897.849877738384
 31
0.0
  0
LINE
  5
1CC4
330
1F
100
AcDbEntity
  8
SANINDUSA
100
AcDbLine
 10
4730.50632150207
 20
2897.849877797988
 30
0.0
 11
4730.506321829895
 21
2897.838880845336
 31
0.0
  0
ARC
  5
1CC6
330
1F
100
AcDbEntity
  8
SANINDUSA
100
AcDbCircle
 10
4730.373726023134
 20
2897.84987900562
 30
0.0
 40
0.0025896126608844
100
AcDbArc
 50
0.0
 51
90.01583743880409
  0
ARC
  5
1CC8
330
1F
100
AcDbEntity
  8
SANINDUSA
100
AcDbCircle
 10
4730.492730078911
 20
2897.849878780965
 30
0.0
 40
0.002589896852469
100
AcDbArc
 50
89.99110973794504
 51
179.9877908648046
  0
LWPOLYLINE
  5
1CCA
330
1F
100
AcDbEntity
  8
SANINDUSA
100
AcDbPolyline
 90
        3
 70
   128
 43
0.0
 10
4730.376315635781
 20
2897.849879273203
 10
4730.376315427164
 20
2897.841881581572
 10
4730.37631536756
 20
2897.83888243976
  0
LWPOLYLINE
  5
1CCD
330
1F
100
AcDbEntity
  8
SANINDUSA
100
AcDbPolyline
 90
        3
 70
   128
 43
0.0
 10
4730.490140450338
 20
2897.838882484463
 10
4730.490140241722
 20
2897.846880176095
 10
4730.490140182118
 20
2897.849879332808
  0
ARC
  5
1CCF
330
1F
100
AcDbEntity
  8
SANINDUSA
100
AcDbCircle
 10
4730.297721892124
 20
2897.838873054116
 30
0.0
 40
0.0025894663656314
100
AcDbArc
 50
180.0
 51
270.0151186305733
  0
ARC
  5
1CD0
330
1F
100
AcDbEntity
  8
SANINDUSA
100
AcDbCircle
 10
4730.56873373476
 20
2897.838873215384
 30
0.0
 40
0.0025896126916364
100
AcDbArc
 50
269.9887787440875
 51
0.0
  0
LWPOLYLINE
  5
1CD3
330
1F
100
AcDbEntity
  8
SANINDUSA
100
AcDbPolyline
 90
        3
 70
   128
 43
0.0
 10
4730.30872274671
 20
2897.836285092857
 10
4730.300722790103
 20
2897.836283990172
 10
4730.297722575406
 20
2897.836283587841
  0
LWPOLYLINE
  5
1CD5
330
1F
100
AcDbEntity
  8
SANINDUSA
100
AcDbPolyline
 90
        3
 70
   128
 43
0.0
 10
4730.568733227591
 20
2897.836283602742
 10
4730.560733270983
 20
2897.836284705427
 10
4730.557733071188
 20
2897.836285107759
  0
ARC
  5
1CD7
330
1F
100
AcDbEntity
  8
SANINDUSA
100
AcDbCircle
 10
4730.308722682585
 20
2897.838875783501
 30
0.0
 40
0.0025906906446843
100
AcDbArc
 50
270.0014181793081
 51
359.9896818400639
  0
ARC
  5
1CD8
330
1F
100
AcDbEntity
  8
SANINDUSA
100
AcDbCircle
 10
4730.557732921664
 20
2897.838875614525
 30
0.0
 40
0.0025905067708973
100
AcDbArc
 50
180.0
 51
270.0033071222359
  0
ARC
  5
1CD9
330
1F
100
AcDbEntity
  8
SANINDUSA
100
AcDbCircle
 10
4730.427727320837
 20
2897.849880766543
 30
0.0
 40
0.0025902060394406
100
AcDbArc
 50
89.99333531283623
 51
179.9872159068052
  0
ARC
  5
1CE4
330
1F
100
AcDbEntity
  8
SANINDUSA
100
AcDbCircle
 10
4730.438728713238
 20
2897.84988105732
 30
0.0
 40
0.0025899302101501
100
AcDbArc
 50
0.0
 51
90.01276637571869
  0
LWPOLYLINE
  5
1CE7
330
1F
100
AcDbEntity
  8
SANINDUSA
100
AcDbPolyline
 90
        3
 70
   128
 43
0.0
 10
4730.427727622132
 20
2897.852470972565
 10
4730.435727608542
 20
2897.852471002367
 10
4730.438728136163
 20
2897.852470987466
  0
LWPOLYLINE
  5
1CE9
330
1F
100
AcDbEntity
  8
SANINDUSA
100
AcDbPolyline
 90
        3
 70
   128
 43
0.0
 10
4730.42513708506
 20
2897.838884674934
 10
4730.425137114862
 20
2897.846882247355
 10
4730.425137114862
 20
2897.849881344465
  0
LWPOLYLINE
  5
1CEA
330
1F
100
AcDbEntity
  8
SANINDUSA
100
AcDbPolyline
 90
        3
 70
   128
 43
0.0
 10
4730.441318643431
 20
2897.849881359366
 10
4730.441318673234
 20
2897.841883786944
 10
4730.441318673234
 20
2897.838884689835
  0
ARC
  5
1CED
330
1F
100
AcDbEntity
  8
SANINDUSA
100
AcDbCircle
 10
4730.362723558855
 20
2897.838881086032
 30
0.0
 40
0.0025895708674253
100
AcDbArc
 50
180.0
 51
270.0154436419493
  0
ARC
  5
1CEE
330
1F
100
AcDbEntity
  8
SANINDUSA
100
AcDbCircle
 10
4730.503732033366
 20
2897.838881356497
 30
0.0
 40
0.002589796578705
100
AcDbArc
 50
269.9895504962824
 51
359.9886906778328
  0
LWPOLYLINE
  5
1CF1
330
1F
100
AcDbEntity
  8
SANINDUSA
100
AcDbPolyline
 90
        3
 70
   128
 43
0.0
 10
4730.373724741081
 20
2897.836292513636
 10
4730.365724754672
 20
2897.83629179838
 10
4730.362724256854
 20
2897.836291515258
  0
LWPOLYLINE
  5
1CF2
330
1F
100
AcDbEntity
  8
SANINDUSA
100
AcDbPolyline
 90
        3
 70
   128
 43
0.0
 10
4730.503731561046
 20
2897.836291559962
 10
4730.495731574634
 20
2897.836292290119
 10
4730.492731076817
 20
2897.83629255834
  0
ARC
  5
1CF4
330
1F
100
AcDbEntity
  8
SANINDUSA
100
AcDbCircle
 10
4730.373724852426
 20
2897.838883028833
 30
0.0
 40
0.0025905151996654
100
AcDbArc
 50
269.9975373236846
 51
359.9869711451531
  0
ARC
  5
1CF5
330
1F
100
AcDbEntity
  8
SANINDUSA
100
AcDbCircle
 10
4730.492730635391
 20
2897.838882743367
 30
0.0
 40
0.0025901850654334
100
AcDbArc
 50
180.0
 51
270.0097644629123
  0
ARC
  5
1CF7
330
1F
100
AcDbEntity
  8
SANINDUSA
100
AcDbCircle
 10
4730.427726906639
 20
2897.838884957752
 30
0.0
 40
0.0025898215941783
100
AcDbArc
 50
180.0
 51
270.0145105044271
  0
ARC
  5
1CF8
330
1F
100
AcDbEntity
  8
SANINDUSA
100
AcDbCircle
 10
4730.43872850068
 20
2897.838885308849
 30
0.0
 40
0.0025901726270514
100
AcDbArc
 50
269.993255167334
 51
359.9863045513551
  0
LWPOLYLINE
  5
1CFA
330
1F
100
AcDbEntity
  8
SANINDUSA
100
AcDbPolyline
 90
        3
 70
   128
 43
0.0
 10
4730.438728195767
 20
2897.83629513624
 10
4730.430728179555
 20
2897.836295151142
 10
4730.427727562527
 20
2897.83629513624
  0
ARC
  5
1D0D
330
1F
100
AcDbEntity
  8
SANINDUSA
100
AcDbCircle
 10
4730.232721235926
 20
2897.784873211566
 30
0.0
 40
0.0025907449446602
100
AcDbArc
 50
90.0045968498857
 51
180.0
  0
ARC
  5
1D18
330
1F
100
AcDbEntity
  8
SANINDUSA
100
AcDbCircle
 10
4730.633734578482
 20
2897.784873267683
 30
0.0
 40
0.0025906739214048
100
AcDbArc
 50
0.0
 51
89.99697359545365
  0
LWPOLYLINE
  5
1D23
330
1F
100
AcDbEntity
  8
SANINDUSA
100
AcDbPolyline
 90
        3
 70
   128
 43
0.0
 10
4730.23272102807
 20
2897.787463956502
 10
4730.240720910172
 20
2897.787465327409
 10
4730.24372090135
 20
2897.78746584895
  0
LWPOLYLINE
  5
1D25
330
1F
100
AcDbEntity
  8
SANINDUSA
100
AcDbPolyline
 90
        3
 70
   128
 43
0.0
 10
4730.622734856943
 20
2897.787465789345
 10
4730.630734694342
 20
2897.787464448241
 10
4730.633734715323
 20
2897.787463941601
  0
LWPOLYLINE
  5
1D28
330
1F
100
AcDbEntity
  8
SANINDUSA
100
AcDbPolyline
 90
        3
 70
   128
 43
0.0
 10
4730.23013011847
 20
2897.773875438598
 10
4730.23013038669
 20
2897.781873890189
 10
4730.230130490999
 20
2897.784873508838
  0
LWPOLYLINE
  5
1D29
330
1F
100
AcDbEntity
  8
SANINDUSA
100
AcDbPolyline
 90
        3
 70
   128
 43
0.0
 10
4730.636325252394
 20
2897.784873493937
 10
4730.636325490812
 20
2897.776875042346
 10
4730.636325610022
 20
2897.773875423697
  0
ARC
  5
1D35
330
1F
100
AcDbEntity
  8
SANINDUSA
100
AcDbCircle
 10
4730.243721604991
 20
2897.784876432846
 30
0.0
 40
0.0025894161995572
100
AcDbArc
 50
0.0
 51
90.01556938389045
  0
ARC
  5
1D37
330
1F
100
AcDbEntity
  8
SANINDUSA
100
AcDbCircle
 10
4730.622734340312
 20
2897.784876126563
 30
0.0
 40
0.0025896628336976
100
AcDbArc
 50
89.98856962582216
 51
180.0
  0
LWPOLYLINE
  5
1D3D
330
1F
100
AcDbEntity
  8
SANINDUSA
100
AcDbPolyline
 90
        3
 70
   128
 43
0.0
 10
4730.246311021189
 20
2897.784876533774
 10
4730.246310738067
 20
2897.776878141788
 10
4730.246310633758
 20
2897.773878567841
  0
LWPOLYLINE
  5
1D40
330
1F
100
AcDbEntity
  8
SANINDUSA
100
AcDbPolyline
 90
        3
 70
   128
 43
0.0
 10
4730.620145094732
 20
2897.773878463534
 10
4730.620144796709
 20
2897.78187685552
 10
4730.620144677501
 20
2897.784876459268
  0
ARC
  5
1D4E
330
1F
100
AcDbEntity
  8
SANINDUSA
100
AcDbCircle
 10
4730.232719547191
 20
2897.773875507346
 30
0.0
 40
0.0025894287229684
100
AcDbArc
 50
180.0
 51
270.0156219109781
  0
ARC
  5
1D4F
330
1F
100
AcDbEntity
  8
SANINDUSA
100
AcDbCircle
 10
4730.633735947211
 20
2897.773875711691
 30
0.0
 40
0.0025896628261703
100
AcDbArc
 50
269.988569573712
 51
0.0
  0
LWPOLYLINE
  5
1D52
330
1F
100
AcDbEntity
  8
SANINDUSA
100
AcDbPolyline
 90
        3
 70
   128
 43
0.0
 10
4730.243720081786
 20
2897.771288075474
 10
4730.235720229487
 20
2897.77128661516
 10
4730.232720253209
 20
2897.771286078718
  0
LWPOLYLINE
  5
1D53
330
1F
100
AcDbEntity
  8
SANINDUSA
100
AcDbPolyline
 90
        3
 70
   128
 43
0.0
 10
4730.633735430578
 20
2897.771286048916
 10
4730.62573559318
 20
2897.771287449625
 10
4730.622735631803
 20
2897.771287986067
  0
ARC
  5
1D67
330
1F
100
AcDbEntity
  8
SANINDUSA
100
AcDbCircle
 10
4730.243719801074
 20
2897.773878908166
 30
0.0
 40
0.0025908327074738
100
AcDbArc
 50
270.0062078890784
 51
0.0
  0
ARC
  5
1D68
330
1F
100
AcDbEntity
  8
SANINDUSA
100
AcDbCircle
 10
4730.622735718511
 20
2897.773878609849
 30
0.0
 40
0.0025906237831916
100
AcDbArc
 50
180.0
 51
269.9980822922384
  0
ARC
  5
1D77
330
1F
100
AcDbEntity
  8
SANINDUSA
100
AcDbCircle
 10
4730.56873487889
 20
2897.784884607459
 30
0.0
 40
0.002590673925962
100
AcDbArc
 50
0.0
 51
89.99961005931437
  0
ARC
  5
1D82
330
1F
100
AcDbEntity
  8
SANINDUSA
100
AcDbCircle
 10
4730.297721041067
 20
2897.784884684203
 30
0.0
 40
0.0025907909010208
100
AcDbArc
 50
90.00330608003174
 51
179.9914188556987
  0
LWPOLYLINE
  5
1D8D
330
1F
100
AcDbEntity
  8
SANINDUSA
100
AcDbPolyline
 90
        3
 70
   128
 43
0.0
 10
4730.557734740119
 20
2897.787477218536
 10
4730.565734637122
 20
2897.787475817827
 10
4730.568734896521
 20
2897.787475281385
  0
LWPOLYLINE
  5
1D8F
330
1F
100
AcDbEntity
  8
SANINDUSA
100
AcDbPolyline
 90
        3
 70
   128
 43
0.0
 10
4730.297720891575
 20
2897.7874754751
 10
4730.305720773677
 20
2897.78747689071
 10
4730.308721047978
 20
2897.787477427152
  0
LWPOLYLINE
  5
1D91
330
1F
100
AcDbEntity
  8
SANINDUSA
100
AcDbPolyline
 90
        3
 70
   128
 43
0.0
 10
4730.571325552801
 20
2897.784884878424
 10
4730.571325850824
 20
2897.776886724857
 10
4730.571325970034
 20
2897.77388727012
  0
LWPOLYLINE
  5
1D94
330
1F
100
AcDbEntity
  8
SANINDUSA
100
AcDbPolyline
 90
        3
 70
   128
 43
0.0
 10
4730.29512978826
 20
2897.773887508538
 10
4730.295130116085
 20
2897.781885647205
 10
4730.295130250196
 20
2897.784885072139
  0
ARC
  5
1D9B
330
1F
100
AcDbEntity
  8
SANINDUSA
100
AcDbCircle
 10
4730.557734178097
 20
2897.784887630944
 30
0.0
 40
0.0025895876530769
100
AcDbArc
 50
89.98756504521271
 51
179.9910050485345
  0
ARC
  5
1D9D
330
1F
100
AcDbEntity
  8
SANINDUSA
100
AcDbCircle
 10
4730.308721844598
 20
2897.784888044443
 30
0.0
 40
0.0025893828318372
100
AcDbArc
 50
0.0
 51
90.0176269555372
  0
LWPOLYLINE
  5
1E92
330
1F
100
AcDbEntity
  8
SANINDUSA
100
AcDbPolyline
 90
        3
 70
   128
 43
0.0
 10
4730.555145037512
 20
2897.773890563277
 10
4730.555144709686
 20
2897.781888642338
 10
4730.555144590478
 20
2897.78488803747
  0
LWPOLYLINE
  5
1E94
330
1F
100
AcDbEntity
  8
SANINDUSA
100
AcDbPolyline
 90
        3
 70
   128
 43
0.0
 10
4730.311311227421
 20
2897.784888260988
 10
4730.311310899596
 20
2897.776890211729
 10
4730.311310750584
 20
2897.773890846398
  0
ARC
  5
1E9F
330
1F
100
AcDbEntity
  8
SANINDUSA
100
AcDbCircle
 10
4730.568736457611
 20
2897.773887601428
 30
0.0
 40
0.0025895124443755
100
AcDbArc
 50
269.9865602561566
 51
0.0
  0
ARC
  5
1EA2
330
1F
100
AcDbEntity
  8
SANINDUSA
100
AcDbCircle
 10
4730.297719108398
 20
2897.773887677292
 30
0.0
 40
0.0025893201442914
100
AcDbArc
 50
180.0
 51
270.0180252859795
  0
LWPOLYLINE
  5
1EA3
330
1F
100
AcDbEntity
  8
SANINDUSA
100
AcDbPolyline
 90
        3
 70
   128
 43
0.0
 10
4730.568735850195
 20
2897.771298089054
 10
4730.560736012797
 20
2897.771299608973
 10
4730.557735693793
 20
2897.771300175217
  0
LWPOLYLINE
  5
1EA6
330
1F
100
AcDbEntity
  8
SANINDUSA
100
AcDbPolyline
 90
        3
 70
   128
 43
0.0
 10
4730.308720094304
 20
2897.771300443438
 10
4730.300720242004
 20
2897.771298923519
 10
4730.297719923
 20
2897.771298357275
  0
ARC
  5
1EA9
330
1F
100
AcDbEntity
  8
SANINDUSA
100
AcDbCircle
 10
4730.557735686362
 20
2897.773890824081
 30
0.0
 40
0.002590648863615
100
AcDbArc
 50
180.0
 51
270.0001643034855
  0
ARC
  5
1EAA
330
1F
100
AcDbEntity
  8
SANINDUSA
100
AcDbCircle
 10
4730.308719892857
 20
2897.773891301197
 30
0.0
 40
0.0025908577667693
100
AcDbArc
 50
270.0044549016777
 51
359.9899399419288
  0
ARC
  5
1EAB
330
1F
100
AcDbEntity
  8
SANINDUSA
100
AcDbCircle
 10
4730.503733164462
 20
2897.784895348038
 30
0.0
 40
0.0025903939783356
100
AcDbArc
 50
0.0
 51
90.00646114469009
  0
ARC
  5
1EB6
330
1F
100
AcDbEntity
  8
SANINDUSA
100
AcDbCircle
 10
4730.362723001313
 20
2897.784895178908
 30
0.0
 40
0.0025906823011751
100
AcDbArc
 50
89.99991500825094
 51
179.9875600165777
  0
LWPOLYLINE
  5
1EC1
330
1F
100
AcDbEntity
  8
SANINDUSA
100
AcDbPolyline
 90
        3
 70
   128
 43
0.0
 10
4730.492732239108
 20
2897.787487098005
 10
4730.500732195715
 20
2897.78748612943
 10
4730.503732872347
 20
2897.787485742
  0
LWPOLYLINE
  5
1EC3
330
1F
100
AcDbEntity
  8
SANINDUSA
100
AcDbPolyline
 90
        3
 70
   128
 43
0.0
 10
4730.362723005156
 20
2897.787485861209
 10
4730.370722931962
 20
2897.787486844686
 10
4730.373723608593
 20
2897.787487187413
  0
LWPOLYLINE
  5
1EC5
330
1F
100
AcDbEntity
  8
SANINDUSA
100
AcDbPolyline
 90
        3
 70
   128
 43
0.0
 10
4730.50632355843
 20
2897.784895577458
 10
4730.506323856453
 20
2897.776897796419
 10
4730.506323975663
 20
2897.773898535398
  0
LWPOLYLINE
  5
1EC8
330
1F
100
AcDbEntity
  8
SANINDUSA
100
AcDbPolyline
 90
        3
 70
   128
 43
0.0
 10
4730.360131931643
 20
2897.773898758915
 10
4730.360132199864
 20
2897.781896525052
 10
4730.360132319073
 20
2897.78489574137
  0
ARC
  5
1EC9
330
1F
100
AcDbEntity
  8
SANINDUSA
100
AcDbCircle
 10
4730.492731698856
 20
2897.784897309799
 30
0.0
 40
0.002589788262605
100
AcDbArc
 50
89.98804763785928
 51
179.9878864609788
  0
ARC
  5
1ECB
330
1F
100
AcDbEntity
  8
SANINDUSA
100
AcDbCircle
 10
4730.373724395959
 20
2897.784897616621
 30
0.0
 40
0.0025895709111588
100
AcDbArc
 50
0.0
 51
90.01742091176087
  0
LINE
  5
1ECD
330
1F
100
AcDbEntity
  8
SANINDUSA
100
AcDbLine
 10
4730.376313966851
 20
2897.784897931841
 30
0.0
 11
4730.376313639025
 21
2897.773901083496
 31
0.0
  0
LINE
  5
1ED0
330
1F
100
AcDbEntity
  8
SANINDUSA
100
AcDbLine
 10
4730.490142238478
 20
2897.773900949386
 30
0.0
 11
4730.490141910652
 21
2897.784897857335
 31
0.0
  0
ARC
  5
1ED1
330
1F
100
AcDbEntity
  8
SANINDUSA
100
AcDbCircle
 10
4730.427727182694
 20
2897.784900382868
 30
0.0
 40
0.0025903063307534
100
AcDbArc
 50
89.9942352040197
 51
179.9856574988845
  0
ARC
  5
1EDC
330
1F
100
AcDbEntity
  8
SANINDUSA
100
AcDbCircle
 10
4730.438728897868
 20
2897.784900660542
 30
0.0
 40
0.002590013807703
100
AcDbArc
 50
0.0
 51
90.01289461894296
  0
LWPOLYLINE
  5
1EDF
330
1F
100
AcDbEntity
  8
SANINDUSA
100
AcDbPolyline
 90
        3
 70
   128
 43
0.0
 10
4730.427727443318
 20
2897.787490689185
 10
4730.43572745953
 20
2897.787490704086
 10
4730.438728314976
 20
2897.787490674284
  0
LWPOLYLINE
  5
1EE1
330
1F
100
AcDbEntity
  8
SANINDUSA
100
AcDbPolyline
 90
        3
 70
   128
 43
0.0
 10
4730.425136816839
 20
2897.773904361752
 10
4730.425136846642
 20
2897.781901949075
 10
4730.425136876444
 20
2897.784901031283
  0
LWPOLYLINE
  5
1EE2
330
1F
100
AcDbEntity
  8
SANINDUSA
100
AcDbPolyline
 90
        3
 70
   128
 43
0.0
 10
4730.441318911652
 20
2897.784901016382
 10
4730.441318971257
 20
2897.776903429058
 10
4730.441318971257
 20
2897.77390433195
  0
ARC
  5
1EE4
330
1F
100
AcDbEntity
  8
SANINDUSA
100
AcDbCircle
 10
4730.503734287714
 20
2897.773899072067
 30
0.0
 40
0.0025896880043403
100
AcDbArc
 50
269.986488448286
 51
359.9881245525244
  0
ARC
  5
1EE7
330
1F
100
AcDbEntity
  8
SANINDUSA
100
AcDbCircle
 10
4730.36272135214
 20
2897.773899013112
 30
0.0
 40
0.0025894205101589
100
AcDbArc
 50
180.0
 51
270.0194308025853
  0
LWPOLYLINE
  5
1EE8
330
1F
100
AcDbEntity
  8
SANINDUSA
100
AcDbPolyline
 90
        3
 70
   128
 43
0.0
 10
4730.50373367701
 20
2897.771309384135
 10
4730.495733750204
 20
2897.771310486821
 10
4730.492732984166
 20
2897.771310874251
  0
LWPOLYLINE
  5
1EEB
330
1F
100
AcDbEntity
  8
SANINDUSA
100
AcDbPolyline
 90
        3
 70
   128
 43
0.0
 10
4730.37372292314
 20
2897.771311053065
 10
4730.365722996334
 20
2897.771310009984
 10
4730.362722230295
 20
2897.771309592751
  0
ARC
  5
1EEC
330
1F
100
AcDbEntity
  8
SANINDUSA
100
AcDbCircle
 10
4730.492732678421
 20
2897.773901314202
 30
0.0
 40
0.0025904399693296
100
AcDbArc
 50
180.0
 51
270.0067624980264
  0
ARC
  5
1EED
330
1F
100
AcDbEntity
  8
SANINDUSA
100
AcDbCircle
 10
4730.373723023624
 20
2897.77390166853
 30
0.0
 40
0.0025906154675463
100
AcDbArc
 50
269.9977776559633
 51
359.9870602796733
  0
ARC
  5
1EF2
330
1F
100
AcDbEntity
  8
SANINDUSA
100
AcDbCircle
 10
4730.438728840459
 20
2897.773904968804
 30
0.0
 40
0.0025901308761451
100
AcDbArc
 50
269.9910129171799
 51
359.9859122657089
  0
ARC
  5
1EF5
330
1F
100
AcDbEntity
  8
SANINDUSA
100
AcDbCircle
 10
4730.427726722015
 20
2897.773904743079
 30
0.0
 40
0.0025899052043684
100
AcDbArc
 50
180.0084360173661
 51
270.0146385392104
  0
LWPOLYLINE
  5
1EF6
330
1F
100
AcDbEntity
  8
SANINDUSA
100
AcDbPolyline
 90
        3
 70
   128
 43
0.0
 10
4730.438728434186
 20
2897.771314837959
 10
4730.430728447776
 20
2897.771314867762
 10
4730.427727383713
 20
2897.771314837959
  0
ARC
  5
1EFB
330
1F
100
AcDbEntity
  8
SANINDUSA
100
AcDbCircle
 10
4730.633736452361
 20
2897.719884770112
 30
0.0
 40
0.0025907073887578
100
AcDbArc
 50
0.0
 51
89.99359701030156
  0
ARC
  5
1F06
330
1F
100
AcDbEntity
  8
SANINDUSA
100
AcDbCircle
 10
4730.232719216638
 20
2897.719884725291
 30
0.0
 40
0.0025908118198147
100
AcDbArc
 50
90.0073938132
 51
180.0
  0
LWPOLYLINE
  5
1F12
330
1F
100
AcDbEntity
  8
SANINDUSA
100
AcDbPolyline
 90
        3
 70
   128
 43
0.0
 10
4730.622736943106
 20
2897.722477682856
 10
4730.630736780504
 20
2897.722476073531
 10
4730.633736741881
 20
2897.722475477484
  0
LINE
  5
1F15
330
1F
100
AcDbEntity
  8
SANINDUSA
100
AcDbLine
 10
4730.232718882303
 20
2897.722475537089
 30
0.0
 11
4730.243718651276
 21
2897.722477831868
 31
0.0
  0
LWPOLYLINE
  5
1F17
330
1F
100
AcDbEntity
  8
SANINDUSA
100
AcDbPolyline
 90
        3
 70
   128
 43
0.0
 10
4730.636327159742
 20
2897.719884970215
 10
4730.636327398161
 20
2897.711886503723
 10
4730.636327457766
 20
2897.708887019184
  0
LWPOLYLINE
  5
1F1A
330
1F
100
AcDbEntity
  8
SANINDUSA
100
AcDbPolyline
 90
        3
 70
   128
 43
0.0
 10
4730.230128091911
 20
2897.708887078789
 10
4730.230128315429
 20
2897.71688554528
 10
4730.230128404836
 20
2897.71988502982
  0
ARC
  5
1F1D
330
1F
100
AcDbEntity
  8
SANINDUSA
100
AcDbCircle
 10
4730.622736335687
 20
2897.719888170494
 30
0.0
 40
0.0025895124325608
100
AcDbArc
 50
89.98656020404645
 51
180.0
  0
ARC
  5
1F1F
330
1F
100
AcDbEntity
  8
SANINDUSA
100
AcDbCircle
 10
4730.243719467723
 20
2897.719888528604
 30
0.0
 40
0.002589303392099
100
AcDbArc
 50
0.0
 51
90.01806624460913
  0
LWPOLYLINE
  5
1F22
330
1F
100
AcDbEntity
  8
SANINDUSA
100
AcDbPolyline
 90
        3
 70
   128
 43
0.0
 10
4730.620147121291
 20
2897.708890535859
 10
4730.620146882873
 20
2897.716888942746
 10
4730.620146823268
 20
2897.719888427285
  0
LWPOLYLINE
  5
1F23
330
1F
100
AcDbEntity
  8
SANINDUSA
100
AcDbPolyline
 90
        3
 70
   128
 43
0.0
 10
4730.246308771113
 20
2897.719888606098
 10
4730.246308517794
 20
2897.711890199211
 10
4730.246308428387
 20
2897.708890714672
  0
ARC
  5
1F2D
330
1F
100
AcDbEntity
  8
SANINDUSA
100
AcDbCircle
 10
4730.633738028872
 20
2897.708887162616
 30
0.0
 40
0.0025894288970866
100
AcDbArc
 50
269.9847115943614
 51
0.0
  0
ARC
  5
1F30
330
1F
100
AcDbEntity
  8
SANINDUSA
100
AcDbCircle
 10
4730.232717428715
 20
2897.708887159899
 30
0.0
 40
0.0025893368040894
100
AcDbArc
 50
180.0
 51
270.0176563978033
  0
LINE
  5
1F31
330
1F
100
AcDbEntity
  8
SANINDUSA
100
AcDbLine
 10
4730.633737337927
 20
2897.706297733811
 30
0.0
 11
4730.622737598757
 21
2897.70630002859
 31
0.0
  0
LWPOLYLINE
  5
1F34
330
1F
100
AcDbEntity
  8
SANINDUSA
100
AcDbPolyline
 90
        3
 70
   128
 43
0.0
 10
4730.24371795092
 20
2897.706300177601
 10
4730.235718188028
 20
2897.706298449066
 10
4730.232718226651
 20
2897.706297823218
  0
ARC
  5
1F39
330
1F
100
AcDbEntity
  8
SANINDUSA
100
AcDbCircle
 10
4730.622737870461
 20
2897.708890777757
 30
0.0
 40
0.0025907491823239
100
AcDbArc
 50
180.0
 51
269.9939911198044
  0
ARC
  5
1F3A
330
1F
100
AcDbEntity
  8
SANINDUSA
100
AcDbCircle
 10
4730.243717503753
 20
2897.708891102224
 30
0.0
 40
0.0025909246616997
100
AcDbArc
 50
270.0098886415403
 51
359.9914294601259
  0
ARC
  5
1F41
330
1F
100
AcDbEntity
  8
SANINDUSA
100
AcDbCircle
 10
4730.568737408439
 20
2897.719898717604
 30
0.0
 40
0.0025907073693768
100
AcDbArc
 50
0.0
 51
89.99755207087341
  0
LWPOLYLINE
  5
1F4C
330
1F
100
AcDbEntity
  8
SANINDUSA
100
AcDbPolyline
 90
        3
 70
   128
 43
0.0
 10
4730.557737422327
 20
2897.722491928366
 10
4730.565737200121
 20
2897.722490110425
 10
4730.568737519125
 20
2897.722489424971
  0
LWPOLYLINE
  5
1F4E
330
1F
100
AcDbEntity
  8
SANINDUSA
100
AcDbPolyline
 90
        3
 70
   128
 43
0.0
 10
4730.571328115801
 20
2897.719898917702
 10
4730.571328413825
 20
2897.711900719431
 10
4730.571328533033
 20
2897.708901324299
  0
ARC
  5
1F50
330
1F
100
AcDbEntity
  8
SANINDUSA
100
AcDbCircle
 10
4730.297718538535
 20
2897.719898901446
 30
0.0
 40
0.0025909705845768
100
AcDbArc
 50
90.00793815643742
 51
179.9904137279411
  0
LWPOLYLINE
  5
1F5B
330
1F
100
AcDbEntity
  8
SANINDUSA
100
AcDbPolyline
 90
        3
 70
   128
 43
0.0
 10
4730.297718179564
 20
2897.722489872006
 10
4730.305717942457
 20
2897.722491689947
 10
4730.308718306164
 20
2897.722492375401
  0
LWPOLYLINE
  5
1F5E
330
1F
100
AcDbEntity
  8
SANINDUSA
100
AcDbPolyline
 90
        3
 70
   128
 43
0.0
 10
4730.295127135853
 20
2897.708901771334
 10
4730.295127448777
 20
2897.716899939803
 10
4730.295127567987
 20
2897.719899334934
  0
ARC
  5
1F69
330
1F
100
AcDbEntity
  8
SANINDUSA
100
AcDbCircle
 10
4730.557736676542
 20
2897.719902524598
 30
0.0
 40
0.002589403875978
100
AcDbArc
 50
89.98349799968218
 51
180.0
  0
LWPOLYLINE
  5
1F6C
330
1F
100
AcDbEntity
  8
SANINDUSA
100
AcDbPolyline
 90
        3
 70
   128
 43
0.0
 10
4730.555147689918
 20
2897.708905377415
 10
4730.555147391895
 20
2897.716903486278
 10
4730.555147272687
 20
2897.719902851608
  0
ARC
  5
1F6D
330
1F
100
AcDbEntity
  8
SANINDUSA
100
AcDbCircle
 10
4730.308719286013
 20
2897.71990320579
 30
0.0
 40
0.0025891697963778
100
AcDbArc
 50
0.0
 51
90.02168311013624
  0
LWPOLYLINE
  5
1F6F
330
1F
100
AcDbEntity
  8
SANINDUSA
100
AcDbPolyline
 90
        3
 70
   128
 43
0.0
 10
4730.311308455806
 20
2897.719903358248
 10
4730.311308127979
 20
2897.711905249384
 10
4730.31130800877
 20
2897.708905884055
  0
ARC
  5
1F77
330
1F
100
AcDbEntity
  8
SANINDUSA
100
AcDbCircle
 10
4730.568739154263
 20
2897.708901626223
 30
0.0
 40
0.0025893787875916
100
AcDbArc
 50
269.9836022201012
 51
0.0
  0
LWPOLYLINE
  5
1F79
330
1F
100
AcDbEntity
  8
SANINDUSA
100
AcDbPolyline
 90
        3
 70
   128
 43
0.0
 10
4730.568738413195
 20
2897.706312247541
 10
4730.560738635401
 20
2897.706314125088
 10
4730.557738316397
 20
2897.706314840343
  0
ARC
  5
1F7C
330
1F
100
AcDbEntity
  8
SANINDUSA
100
AcDbCircle
 10
4730.297716288901
 20
2897.708901877242
 30
0.0
 40
0.0025891530497514
100
AcDbArc
 50
180.0
 51
270.0217240166564
  0
LINE
  5
1F7E
330
1F
100
AcDbEntity
  8
SANINDUSA
100
AcDbLine
 10
4730.308717382292
 20
2897.706315346983
 30
0.0
 11
4730.297717270593
 21
2897.706312724379
 31
0.0
  0
ARC
  5
1F81
330
1F
100
AcDbEntity
  8
SANINDUSA
100
AcDbCircle
 10
4730.557738547736
 20
2897.708905698171
 30
0.0
 40
0.0025908578373442
100
AcDbArc
 50
180.0
 51
269.9948840282228
  0
ARC
  5
1F84
330
1F
100
AcDbEntity
  8
SANINDUSA
100
AcDbCircle
 10
4730.308716992268
 20
2897.708906363501
 30
0.0
 40
0.0025910165475139
100
AcDbArc
 50
270.0086247084307
 51
359.9893978654812
  0
ARC
  5
1F89
330
1F
100
AcDbEntity
  8
SANINDUSA
100
AcDbCircle
 10
4730.503735390408
 20
2897.719912611624
 30
0.0
 40
0.0025905820251962
100
AcDbArc
 50
0.0
 51
90.00362004403536
  0
LWPOLYLINE
  5
1F94
330
1F
100
AcDbEntity
  8
SANINDUSA
100
AcDbPolyline
 90
        3
 70
   128
 43
0.0
 10
4730.492734384875
 20
2897.722505100992
 10
4730.500734252076
 20
2897.722503730085
 10
4730.503735226731
 20
2897.722503193644
  0
LWPOLYLINE
  5
1F96
330
1F
100
AcDbEntity
  8
SANINDUSA
100
AcDbPolyline
 90
        3
 70
   128
 43
0.0
 10
4730.506325972418
 20
2897.719912894991
 10
4730.506326270441
 20
2897.711915054348
 10
4730.50632638965
 20
2897.70891583803
  0
ARC
  5
1F98
330
1F
100
AcDbEntity
  8
SANINDUSA
100
AcDbCircle
 10
4730.362720847463
 20
2897.719912847249
 30
0.0
 40
0.0025908828393977
100
AcDbArc
 50
90.00237252565586
 51
179.9870810455906
  0
LWPOLYLINE
  5
1FA3
330
1F
100
AcDbEntity
  8
SANINDUSA
100
AcDbPolyline
 90
        3
 70
   128
 43
0.0
 10
4730.362720740179
 20
2897.722503730085
 10
4730.37072060738
 20
2897.722505100992
 10
4730.373721611838
 20
2897.72250557783
  0
LWPOLYLINE
  5
1FA6
330
1F
100
AcDbEntity
  8
SANINDUSA
100
AcDbPolyline
 90
        3
 70
   128
 43
0.0
 10
4730.360129547457
 20
2897.708916404274
 10
4730.360129845481
 20
2897.716914215115
 10
4730.360129964689
 20
2897.719913431433
  0
ARC
  5
1FA9
330
1F
100
AcDbEntity
  8
SANINDUSA
100
AcDbCircle
 10
4730.49273378143
 20
2897.719915346176
 30
0.0
 40
0.0025897548865414
100
AcDbArc
 50
89.98664936461581
 51
179.9863172662455
  0
ARC
  5
1FAB
330
1F
100
AcDbEntity
  8
SANINDUSA
100
AcDbCircle
 10
4730.373722507788
 20
2897.719916115658
 30
0.0
 40
0.0025894623273904
100
AcDbArc
 50
0.0
 51
90.01982428678664
  0
LWPOLYLINE
  5
1FAE
330
1F
100
AcDbEntity
  8
SANINDUSA
100
AcDbPolyline
 90
        3
 70
   128
 43
0.0
 10
4730.490144414047
 20
2897.708919026879
 10
4730.490144145827
 20
2897.716916778115
 10
4730.490144026617
 20
2897.719915964631
  0
LWPOLYLINE
  5
1FAF
330
1F
100
AcDbEntity
  8
SANINDUSA
100
AcDbPolyline
 90
        3
 70
   128
 43
0.0
 10
4730.376311970095
 20
2897.719916441467
 10
4730.376311701874
 20
2897.711918720034
 10
4730.376311582665
 20
2897.708919533518
  0
ARC
  5
1FB5
330
1F
100
AcDbEntity
  8
SANINDUSA
100
AcDbCircle
 10
4730.438729286372
 20
2897.719920273932
 30
0.0
 40
0.0025900723417625
100
AcDbArc
 50
0.0081774204546041
 51
90.01357731479451
  0
ARC
  5
1FC0
330
1F
100
AcDbEntity
  8
SANINDUSA
100
AcDbCircle
 10
4730.427727040942
 20
2897.719920032605
 30
0.0
 40
0.0025903732166973
100
AcDbArc
 50
89.99373671776808
 51
179.9838488056172
  0
LWPOLYLINE
  5
1FC3
330
1F
100
AcDbEntity
  8
SANINDUSA
100
AcDbPolyline
 90
        3
 70
   128
 43
0.0
 10
4730.427727324109
 20
2897.722510405806
 10
4730.435727340321
 20
2897.722510405806
 10
4730.438728672604
 20
2897.722510346201
  0
LWPOLYLINE
  5
1FC6
330
1F
100
AcDbEntity
  8
SANINDUSA
100
AcDbPolyline
 90
        3
 70
   128
 43
0.0
 10
4730.441319358686
 20
2897.719920643595
 10
4730.441319418292
 20
2897.711923071173
 10
4730.441319448094
 20
2897.708923974064
  0
LWPOLYLINE
  5
1FC9
330
1F
100
AcDbEntity
  8
SANINDUSA
100
AcDbPolyline
 90
        3
 70
   128
 43
0.0
 10
4730.425136638025
 20
2897.708924093274
 10
4730.425136667828
 20
2897.716921665696
 10
4730.425136667828
 20
2897.719920762805
  0
ARC
  5
1FCC
330
1F
100
AcDbEntity
  8
SANINDUSA
100
AcDbCircle
 10
4730.503736877131
 20
2897.708916303526
 30
0.0
 40
0.0025895125613083
100
AcDbArc
 50
269.9832653797088
 51
359.9897000525813
  0
LWPOLYLINE
  5
1FCE
330
1F
100
AcDbEntity
  8
SANINDUSA
100
AcDbPolyline
 90
        3
 70
   128
 43
0.0
 10
4730.503736120801
 20
2897.706326791075
 10
4730.4957362536
 20
2897.706328281191
 10
4730.49273521934
 20
2897.706328817633
  0
ARC
  5
1FD1
330
1F
100
AcDbEntity
  8
SANINDUSA
100
AcDbCircle
 10
4730.362718817585
 20
2897.708916627264
 30
0.0
 40
0.0025892701379857
100
AcDbArc
 50
180.0
 51
270.0220998876083
  0
LWPOLYLINE
  5
1FD3
330
1F
100
AcDbEntity
  8
SANINDUSA
100
AcDbPolyline
 90
        3
 70
   128
 43
0.0
 10
4730.373720777373
 20
2897.706329354075
 10
4730.365720910172
 20
2897.706327923563
 10
4730.362719816308
 20
2897.706327357319
  0
ARC
  5
1FD4
330
1F
100
AcDbEntity
  8
SANINDUSA
100
AcDbCircle
 10
4730.492734954287
 20
2897.70891935788
 30
0.0
 40
0.0025905402608448
100
AcDbArc
 50
180.0
 51
270.0058622420686
  0
ARC
  5
1FD5
330
1F
100
AcDbEntity
  8
SANINDUSA
100
AcDbCircle
 10
4730.373720699881
 20
2897.708920236952
 30
0.0
 40
0.0025908828785806
100
AcDbArc
 50
270.0017136441867
 51
359.9844430443937
  0
ARC
  5
1FD8
330
1F
100
AcDbEntity
  8
SANINDUSA
100
AcDbCircle
 10
4730.633738037687
 20
2897.6548976529
 30
0.0
 40
0.002590791005298
100
AcDbArc
 50
0.0
 51
89.99174829644109
  0
ARC
  5
1FE3
330
1F
100
AcDbEntity
  8
SANINDUSA
100
AcDbCircle
 10
4730.232717523336
 20
2897.654897641553
 30
0.0
 40
0.0025908619655477
100
AcDbArc
 50
90.0094909885407
 51
179.9914970731277
  0
LWPOLYLINE
  5
1FEE
330
1F
100
AcDbEntity
  8
SANINDUSA
100
AcDbPolyline
 90
        3
 70
   128
 43
0.0
 10
4730.622738731245
 20
2897.657490947274
 10
4730.630738449434
 20
2897.657489099529
 10
4730.633738410811
 20
2897.657488443878
  0
LWPOLYLINE
  5
1FF0
330
1F
100
AcDbEntity
  8
SANINDUSA
100
AcDbPolyline
 90
        3
 70
   128
 43
0.0
 10
4730.636328828673
 20
2897.654897966411
 10
4730.636329007487
 20
2897.646899648932
 10
4730.636329067091
 20
2897.643900492218
  0
LWPOLYLINE
  5
1FF2
330
1F
100
AcDbEntity
  8
SANINDUSA
100
AcDbPolyline
 90
        3
 70
   128
 43
0.0
 10
4730.232717094163
 20
2897.657488503483
 10
4730.240716797451
 20
2897.657490381029
 10
4730.243716773729
 20
2897.657491096285
  0
LWPOLYLINE
  5
1FF5
330
1F
100
AcDbEntity
  8
SANINDUSA
100
AcDbPolyline
 90
        3
 70
   128
 43
0.0
 10
4730.230126408081
 20
2897.64390052202
 10
4730.230126586895
 20
2897.651898839501
 10
4730.2301266614
 20
2897.654898026016
  0
ARC
  5
1FF8
330
1F
100
AcDbEntity
  8
SANINDUSA
100
AcDbCircle
 10
4730.622737913916
 20
2897.654901585278
 30
0.0
 40
0.0025893621245959
100
AcDbArc
 50
89.9819146830557
 51
180.0
  0
ARC
  5
1FFA
330
1F
100
AcDbEntity
  8
SANINDUSA
100
AcDbCircle
 10
4730.243717718401
 20
2897.654901876587
 30
0.0
 40
0.0025892198708915
100
AcDbArc
 50
0.0
 51
90.02090432302635
  0
LWPOLYLINE
  5
1FFE
330
1F
100
AcDbEntity
  8
SANINDUSA
100
AcDbPolyline
 90
        3
 70
   128
 43
0.0
 10
4730.620148790221
 20
2897.64390436652
 10
4730.620148611406
 20
2897.651902654198
 10
4730.620148551802
 20
2897.654901810911
  0
LWPOLYLINE
  5
2000
330
1F
100
AcDbEntity
  8
SANINDUSA
100
AcDbPolyline
 90
        3
 70
   128
 43
0.0
 10
4730.246306938271
 20
2897.654901989725
 10
4730.246306744556
 20
2897.646903702048
 10
4730.246306684951
 20
2897.643904545334
  0
ARC
  5
2002
330
1F
100
AcDbEntity
  8
SANINDUSA
100
AcDbCircle
 10
4730.438729250425
 20
2897.708924707614
 30
0.0
 40
0.0025901977726041
100
AcDbArc
 50
269.9905146393617
 51
359.9837736366454
  0
ARC
  5
2005
330
1F
100
AcDbEntity
  8
SANINDUSA
100
AcDbCircle
 10
4730.427726559972
 20
2897.708924491347
 30
0.0
 40
0.00258992197849
100
AcDbArc
 50
180.008807068105
 51
270.0169046559075
  0
LWPOLYLINE
  5
2006
330
1F
100
AcDbEntity
  8
SANINDUSA
100
AcDbPolyline
 90
        3
 70
   128
 43
0.0
 10
4730.438728821615
 20
2897.706334509877
 10
4730.430728805403
 20
2897.706334599283
 10
4730.427727324109
 20
2897.706334569481
  0
ARC
  5
2009
330
1F
100
AcDbEntity
  8
SANINDUSA
100
AcDbCircle
 10
4730.633739704976
 20
2897.643900747658
 30
0.0
 40
0.0025893621284374
100
AcDbArc
 50
269.9819146830557
 51
0.0
  0
ARC
  5
200C
330
1F
100
AcDbEntity
  8
SANINDUSA
100
AcDbCircle
 10
4730.232715594545
 20
2897.643900601742
 30
0.0
 40
0.0025891864657542
100
AcDbArc
 50
180.0
 51
270.0216437669222
  0
LWPOLYLINE
  5
200D
330
1F
100
AcDbEntity
  8
SANINDUSA
100
AcDbPolyline
 90
        3
 70
   128
 43
0.0
 10
4730.633738887648
 20
2897.641311385659
 10
4730.625739169459
 20
2897.641313233402
 10
4730.622739208082
 20
2897.641313948658
  0
LWPOLYLINE
  5
2010
330
1F
100
AcDbEntity
  8
SANINDUSA
100
AcDbPolyline
 90
        3
 70
   128
 43
0.0
 10
4730.243716267089
 20
2897.641314067867
 10
4730.235716593603
 20
2897.641312130716
 10
4730.232716572623
 20
2897.641311415461
  0
ARC
  5
2015
330
1F
100
AcDbEntity
  8
SANINDUSA
100
AcDbCircle
 10
4730.622739447464
 20
2897.643904605902
 30
0.0
 40
0.0025906572545759
100
AcDbArc
 50
180.0
 51
269.9947057591999
  0
ARC
  5
2016
330
1F
100
AcDbEntity
  8
SANINDUSA
100
AcDbCircle
 10
4730.243715777045
 20
2897.643904975764
 30
0.0
 40
0.002590907942575
100
AcDbArc
 50
270.0108369431212
 51
359.9904810803926
  0
ARC
  5
201F
330
1F
100
AcDbEntity
  8
SANINDUSA
100
AcDbCircle
 10
4730.56873948841
 20
2897.654913346739
 30
0.0
 40
0.0025908327824686
100
AcDbArc
 50
0.0
 51
89.99346084632625
  0
LWPOLYLINE
  5
202A
330
1F
100
AcDbEntity
  8
SANINDUSA
100
AcDbPolyline
 90
        3
 70
   128
 43
0.0
 10
4730.557739806513
 20
2897.657507040527
 10
4730.565739465098
 20
2897.657504954365
 10
4730.568739784102
 20
2897.657504179504
  0
LWPOLYLINE
  5
202C
330
1F
100
AcDbEntity
  8
SANINDUSA
100
AcDbPolyline
 90
        3
 70
   128
 43
0.0
 10
4730.571330321173
 20
2897.654913672236
 10
4730.571330499986
 20
2897.64691553357
 10
4730.571330559592
 20
2897.643916376856
  0
ARC
  5
202F
330
1F
100
AcDbEntity
  8
SANINDUSA
100
AcDbCircle
 10
4730.297716344615
 20
2897.654913674347
 30
0.0
 40
0.0025910416546024
100
AcDbArc
 50
90.01181578128337
 51
179.988842813592
  0
LWPOLYLINE
  5
203B
330
1F
100
AcDbEntity
  8
SANINDUSA
100
AcDbPolyline
 90
        3
 70
   128
 43
0.0
 10
4730.297715810279
 20
2897.657504715946
 10
4730.305715439061
 20
2897.657506802109
 10
4730.308715832571
 20
2897.657507606772
  0
LWPOLYLINE
  5
203E
330
1F
100
AcDbEntity
  8
SANINDUSA
100
AcDbPolyline
 90
        3
 70
   128
 43
0.0
 10
4730.295125004987
 20
2897.643916853693
 10
4730.295125213603
 20
2897.651914992359
 10
4730.295125303011
 20
2897.654914178875
  0
ARC
  5
203F
330
1F
100
AcDbEntity
  8
SANINDUSA
100
AcDbCircle
 10
4730.557738964129
 20
2897.654917703577
 30
0.0
 40
0.0025893370873417
100
AcDbArc
 50
89.98136007408303
 51
179.991604732816
  0
LINE
  5
2043
330
1F
100
AcDbEntity
  8
SANINDUSA
100
AcDbLine
 10
4730.555149954895
 20
2897.6439207876
 30
0.0
 11
4730.55514962707
 21
2897.654918082979
 31
0.0
  0
ARC
  5
2045
330
1F
100
AcDbEntity
  8
SANINDUSA
100
AcDbCircle
 10
4730.308716930493
 20
2897.654918495677
 30
0.0
 40
0.002589111328095
100
AcDbArc
 50
0.0
 51
90.02429648938067
  0
LINE
  5
2047
330
1F
100
AcDbEntity
  8
SANINDUSA
100
AcDbLine
 10
4730.311306041818
 20
2897.654918649223
 30
0.0
 11
4730.311305713992
 21
2897.643921353844
 31
0.0
  0
ARC
  5
2051
330
1F
100
AcDbEntity
  8
SANINDUSA
100
AcDbCircle
 10
4730.568741264288
 20
2897.643916684676
 30
0.0
 40
0.002589295320999
100
AcDbArc
 50
269.9804357952725
 51
0.0
  0
LWPOLYLINE
  5
2053
330
1F
100
AcDbEntity
  8
SANINDUSA
100
AcDbPolyline
 90
        3
 70
   128
 43
0.0
 10
4730.568740380149
 20
2897.641327389506
 10
4730.560740781168
 20
2897.641329505471
 10
4730.557740462164
 20
2897.641330280331
  0
ARC
  5
2056
330
1F
100
AcDbEntity
  8
SANINDUSA
100
AcDbCircle
 10
4730.297714107941
 20
2897.643916998868
 30
0.0
 40
0.0025891029590114
100
AcDbArc
 50
180.0
 51
270.0244817411862
  0
LWPOLYLINE
  5
2058
330
1F
100
AcDbEntity
  8
SANINDUSA
100
AcDbPolyline
 90
        3
 70
   128
 43
0.0
 10
4730.308715206723
 20
2897.641330816773
 10
4730.30071557794
 20
2897.641328700808
 10
4730.297715214233
 20
2897.641327896145
  0
ARC
  5
2059
330
1F
100
AcDbEntity
  8
SANINDUSA
100
AcDbCircle
 10
4730.557740762587
 20
2897.643921088022
 30
0.0
 40
0.0025908077086486
100
AcDbArc
 50
180.0
 51
269.9933561569192
  0
ARC
  5
205C
330
1F
100
AcDbEntity
  8
SANINDUSA
100
AcDbCircle
 10
4730.308714672385
 20
2897.643921858373
 30
0.0
 40
0.0025910416545859
100
AcDbArc
 50
270.0118157812834
 51
359.9888433607492
  0
ARC
  5
206B
330
1F
100
AcDbEntity
  8
SANINDUSA
100
AcDbCircle
 10
4730.503737714657
 20
2897.654929869204
 30
0.0
 40
0.0025907909853684
100
AcDbArc
 50
0.0082520422790211
 51
89.9996578964852
  0
LWPOLYLINE
  5
2076
330
1F
100
AcDbEntity
  8
SANINDUSA
100
AcDbPolyline
 90
        3
 70
   128
 43
0.0
 10
4730.492736739258
 20
2897.657523074177
 10
4730.500736546854
 20
2897.657521345642
 10
4730.503737730126
 20
2897.657520660189
  0
LWPOLYLINE
  5
207A
330
1F
100
AcDbEntity
  8
SANINDUSA
100
AcDbPolyline
 90
        3
 70
   128
 43
0.0
 10
4730.506328505615
 20
2897.654930242327
 10
4730.506328803639
 20
2897.646932401684
 10
4730.506328922849
 20
2897.643933185366
  0
ARC
  5
207C
330
1F
100
AcDbEntity
  8
SANINDUSA
100
AcDbCircle
 10
4730.362718502816
 20
2897.654930184849
 30
0.0
 40
0.0025910415980825
100
AcDbArc
 50
90.00588282560059
 51
179.986207600316
  0
LWPOLYLINE
  5
2087
330
1F
100
AcDbEntity
  8
SANINDUSA
100
AcDbPolyline
 90
        3
 70
   128
 43
0.0
 10
4730.362718236785
 20
2897.657521226433
 10
4730.370718014579
 20
2897.657522954968
 10
4730.373719287256
 20
2897.657523580816
  0
LWPOLYLINE
  5
208C
330
1F
100
AcDbEntity
  8
SANINDUSA
100
AcDbPolyline
 90
        3
 70
   128
 43
0.0
 10
4730.360127044062
 20
2897.64393375161
 10
4730.360127342085
 20
2897.651931592253
 10
4730.360127461294
 20
2897.654930808571
  0
ARC
  5
208F
330
1F
100
AcDbEntity
  8
SANINDUSA
100
AcDbCircle
 10
4730.492735960408
 20
2897.654933494818
 30
0.0
 40
0.0025895794753396
100
AcDbArc
 50
89.98276757086825
 51
179.9869010829804
  0
LWPOLYLINE
  5
2092
330
1F
100
AcDbEntity
  8
SANINDUSA
100
AcDbPolyline
 90
        3
 70
   128
 43
0.0
 10
4730.49014676843
 20
2897.643937149075
 10
4730.49014650021
 20
2897.651934900311
 10
4730.490146381001
 20
2897.654934086827
  0
ARC
  5
2093
330
1F
100
AcDbEntity
  8
SANINDUSA
100
AcDbCircle
 10
4730.373720405116
 20
2897.654934310846
 30
0.0
 40
0.0025892702123527
100
AcDbArc
 50
0.0
 51
90.02473619535269
  0
LWPOLYLINE
  5
2095
330
1F
100
AcDbEntity
  8
SANINDUSA
100
AcDbPolyline
 90
        3
 70
   128
 43
0.0
 10
4730.376309675317
 20
2897.654934563664
 10
4730.376309377294
 20
2897.646936812428
 10
4730.376309287886
 20
2897.643937596109
  0
ARC
  5
209D
330
1F
100
AcDbEntity
  8
SANINDUSA
100
AcDbCircle
 10
4730.633739542327
 20
2897.589914239887
 30
0.0
 40
0.0025906572684671
100
AcDbArc
 50
0.0
 51
89.99470560286932
  0
ARC
  5
20A8
330
1F
100
AcDbEntity
  8
SANINDUSA
100
AcDbCircle
 10
4730.232716157845
 20
2897.589914014882
 30
0.0
 40
0.0025909121092616
100
AcDbArc
 50
90.01059916423697
 51
179.9884120706012
  0
LWPOLYLINE
  5
20B3
330
1F
100
AcDbEntity
  8
SANINDUSA
100
AcDbPolyline
 90
        3
 70
   128
 43
0.0
 10
4730.622739982943
 20
2897.592507609156
 10
4730.630739581923
 20
2897.592505642203
 10
4730.633739781718
 20
2897.592504897144
  0
LWPOLYLINE
  5
20B5
330
1F
100
AcDbEntity
  8
SANINDUSA
100
AcDbPolyline
 90
        3
 70
   128
 43
0.0
 10
4730.232715678552
 20
2897.592504926947
 10
4730.240715307335
 20
2897.592506923702
 10
4730.243715492229
 20
2897.592507698563
  0
LWPOLYLINE
  5
20B7
330
1F
100
AcDbEntity
  8
SANINDUSA
100
AcDbPolyline
 90
        3
 70
   128
 43
0.0
 10
4730.63633019958
 20
2897.589914538887
 10
4730.636330378394
 20
2897.58191651943
 10
4730.636330437998
 20
2897.578917690542
  0
LWPOLYLINE
  5
20BA
330
1F
100
AcDbEntity
  8
SANINDUSA
100
AcDbPolyline
 90
        3
 70
   128
 43
0.0
 10
4730.230125052075
 20
2897.578917720345
 10
4730.230125186185
 20
2897.586915709999
 10
4730.23012524579
 20
2897.589914538887
  0
ARC
  5
20BD
330
1F
100
AcDbEntity
  8
SANINDUSA
100
AcDbCircle
 10
4730.503739477096
 20
2897.643933733082
 30
0.0
 40
0.0025894458094123
100
AcDbArc
 50
269.9804687289308
 51
359.9878808851867
  0
LWPOLYLINE
  5
20BF
330
1F
100
AcDbEntity
  8
SANINDUSA
100
AcDbPolyline
 90
        3
 70
   128
 43
0.0
 10
4730.503738594393
 20
2897.641344287422
 10
4730.495738846402
 20
2897.641346135166
 10
4730.492737603525
 20
2897.64134682062
  0
ARC
  5
20C2
330
1F
100
AcDbEntity
  8
SANINDUSA
100
AcDbCircle
 10
4730.362716255733
 20
2897.643934005504
 30
0.0
 40
0.0025892116835059
100
AcDbArc
 50
180.0
 51
270.0247129542021
  0
LWPOLYLINE
  5
20C4
330
1F
100
AcDbEntity
  8
SANINDUSA
100
AcDbPolyline
 90
        3
 70
   128
 43
0.0
 10
4730.373718452791
 20
2897.641347267655
 10
4730.365718674998
 20
2897.641345509318
 10
4730.362717372517
 20
2897.641344794062
  0
LWPOLYLINE
  5
20C5
330
1F
100
AcDbEntity
  8
SANINDUSA
100
AcDbPolyline
 90
        3
 70
   128
 43
0.0
 10
4730.427727204899
 20
2897.657530107525
 10
4730.435727221112
 20
2897.657530107525
 10
4730.438729119639
 20
2897.657530047921
  0
ARC
  5
20D0
330
1F
100
AcDbEntity
  8
SANINDUSA
100
AcDbCircle
 10
4730.438729819136
 20
2897.654939942194
 30
0.0
 40
0.0025901058214637
100
AcDbArc
 50
0.0082581912834916
 51
90.01547360532478
  0
ARC
  5
20D2
330
1F
100
AcDbEntity
  8
SANINDUSA
100
AcDbCircle
 10
4730.427726906429
 20
2897.654939600595
 30
0.0
 40
0.0025905069475102
100
AcDbArc
 50
89.99339857462819
 51
179.9822102782281
  0
ARC
  5
20D4
330
1F
100
AcDbEntity
  8
SANINDUSA
100
AcDbCircle
 10
4730.622739039245
 20
2897.58991831396
 30
0.0
 40
0.0025892953682273
100
AcDbArc
 50
89.97911792804044
 51
180.0
  0
LWPOLYLINE
  5
20D6
330
1F
100
AcDbEntity
  8
SANINDUSA
100
AcDbPolyline
 90
        3
 70
   128
 43
0.0
 10
4730.44131992493
 20
2897.654940315512
 10
4730.441319984535
 20
2897.646942713288
 10
4730.441320014338
 20
2897.643943645981
  0
ARC
  5
20D8
330
1F
100
AcDbEntity
  8
SANINDUSA
100
AcDbCircle
 10
4730.243716619937
 20
2897.589918587466
 30
0.0
 40
0.0025891113424871
100
AcDbArc
 50
0.0
 51
90.02495563146267
  0
LWPOLYLINE
  5
20DB
330
1F
100
AcDbEntity
  8
SANINDUSA
100
AcDbPolyline
 90
        3
 70
   128
 43
0.0
 10
4730.425136340002
 20
2897.643943735388
 10
4730.425136399607
 20
2897.65194130781
 10
4730.425136399607
 20
2897.654940404919
  0
LWPOLYLINE
  5
20DE
330
1F
100
AcDbEntity
  8
SANINDUSA
100
AcDbPolyline
 90
        3
 70
   128
 43
0.0
 10
4730.620149863105
 20
2897.578921803263
 10
4730.620149743895
 20
2897.586919763115
 10
4730.620149743895
 20
2897.589918621806
  0
LWPOLYLINE
  5
20DF
330
1F
100
AcDbEntity
  8
SANINDUSA
100
AcDbPolyline
 90
        3
 70
   128
 43
0.0
 10
4730.246305731276
 20
2897.589918711212
 10
4730.246305656771
 20
2897.581920721558
 10
4730.246305626969
 20
2897.57892189267
  0
ARC
  5
20E2
330
1F
100
AcDbEntity
  8
SANINDUSA
100
AcDbCircle
 10
4730.492737517612
 20
2897.643937569834
 30
0.0
 40
0.0025907492155601
100
AcDbArc
 50
180.0093053198681
 51
270.0018999902909
  0
ARC
  5
20E3
330
1F
100
AcDbEntity
  8
SANINDUSA
100
AcDbCircle
 10
4730.373718246365
 20
2897.643938309265
 30
0.0
 40
0.0025910416182302
100
AcDbArc
 50
270.0045646978855
 51
359.9842296270309
  0
ARC
  5
20E4
330
1F
100
AcDbEntity
  8
SANINDUSA
100
AcDbCircle
 10
4730.633741142643
 20
2897.578918087813
 30
0.0
 40
0.0025892953852863
100
AcDbArc
 50
269.9791180322608
 51
359.9912092423898
  0
ARC
  5
20E7
330
1F
100
AcDbEntity
  8
SANINDUSA
100
AcDbCircle
 10
4730.232714088259
 20
2897.578917858304
 30
0.0
 40
0.0025890361887575
100
AcDbArc
 50
180.0
 51
270.0269493161156
  0
LWPOLYLINE
  5
20E8
330
1F
100
AcDbEntity
  8
SANINDUSA
100
AcDbPolyline
 90
        3
 70
   128
 43
0.0
 10
4730.63374019895
 20
2897.576328792599
 10
4730.625740540365
 20
2897.576330789354
 10
4730.622740221361
 20
2897.57633150461
  0
LWPOLYLINE
  5
20EB
330
1F
100
AcDbEntity
  8
SANINDUSA
100
AcDbPolyline
 90
        3
 70
   128
 43
0.0
 10
4730.243715268712
 20
2897.576331594017
 10
4730.235715639929
 20
2897.57632956746
 10
4730.232715306024
 20
2897.576328822401
  0
ARC
  5
20F0
330
1F
100
AcDbEntity
  8
SANINDUSA
100
AcDbCircle
 10
4730.622740520373
 20
2897.578922161887
 30
0.0
 40
0.0025906572941274
100
AcDbArc
 50
180.0
 51
269.9933869540519
  0
ARC
  5
20F1
330
1F
100
AcDbEntity
  8
SANINDUSA
100
AcDbCircle
 10
4730.243714756688
 20
2897.57892246431
 30
0.0
 40
0.002590870343589
100
AcDbArc
 50
270.0113231313669
 51
359.987358454287
  0
ARC
  5
20F2
330
1F
100
AcDbEntity
  8
SANINDUSA
100
AcDbCircle
 10
4730.438729791548
 20
2897.643944434447
 30
0.0
 40
0.0025902229097879
100
AcDbArc
 50
269.9877742676982
 51
359.9825591300304
  0
LWPOLYLINE
  5
20F4
330
1F
100
AcDbEntity
  8
SANINDUSA
100
AcDbPolyline
 90
        3
 70
   128
 43
0.0
 10
4730.438729238848
 20
2897.641354211596
 10
4730.430729252439
 20
2897.641354301003
 10
4730.42772708569
 20
2897.641354241398
  0
ARC
  5
20F6
330
1F
100
AcDbEntity
  8
SANINDUSA
100
AcDbCircle
 10
4730.427726211867
 20
2897.643944113142
 30
0.0
 40
0.0025898718914753
100
AcDbArc
 50
180.0083576957244
 51
270.0193316368565
  0
ARC
  5
2100
330
1F
100
AcDbEntity
  8
SANINDUSA
100
AcDbCircle
 10
4730.568740810931
 20
2897.589930496682
 30
0.0
 40
0.0025905235280252
100
AcDbArc
 50
0.0
 51
89.99502649753067
  0
LWPOLYLINE
  5
210B
330
1F
100
AcDbEntity
  8
SANINDUSA
100
AcDbPolyline
 90
        3
 70
   128
 43
0.0
 10
4730.55774117742
 20
2897.592523881224
 10
4730.565740716795
 20
2897.592521795062
 10
4730.568741035799
 20
2897.592521020201
  0
LWPOLYLINE
  5
210D
330
1F
100
AcDbEntity
  8
SANINDUSA
100
AcDbPolyline
 90
        3
 70
   128
 43
0.0
 10
4730.571331334452
 20
2897.589930691746
 10
4730.571331394057
 20
2897.581932761696
 10
4730.571331394057
 20
2897.578933724192
  0
ARC
  5
2110
330
1F
100
AcDbEntity
  8
SANINDUSA
100
AcDbCircle
 10
4730.297715121325
 20
2897.58993051644
 30
0.0
 40
0.0025908912525503
100
AcDbArc
 50
90.01244464728573
 51
179.9882145208072
  0
LWPOLYLINE
  5
211B
330
1F
100
AcDbEntity
  8
SANINDUSA
100
AcDbPolyline
 90
        3
 70
   128
 43
0.0
 10
4730.297714558582
 20
2897.592521407631
 10
4730.30571412776
 20
2897.592523493793
 10
4730.308714491466
 20
2897.592524268654
  0
LWPOLYLINE
  5
211E
330
1F
100
AcDbEntity
  8
SANINDUSA
100
AcDbPolyline
 90
        3
 70
   128
 43
0.0
 10
4730.295124215226
 20
2897.578934022215
 10
4730.295124215226
 20
2897.586931982067
 10
4730.295124230127
 20
2897.589931049374
  0
ARC
  5
2121
330
1F
100
AcDbEntity
  8
SANINDUSA
100
AcDbCircle
 10
4730.557740215918
 20
2897.589934544228
 30
0.0
 40
0.0025893371745412
100
AcDbArc
 50
89.97872428749912
 51
180.0
  0
LWPOLYLINE
  5
2124
330
1F
100
AcDbEntity
  8
SANINDUSA
100
AcDbPolyline
 90
        3
 70
   128
 43
0.0
 10
4730.55515090857
 20
2897.57893780711
 10
4730.555150878767
 20
2897.58693573716
 10
4730.555150878767
 20
2897.589934893873
  0
ARC
  5
2125
330
1F
100
AcDbEntity
  8
SANINDUSA
100
AcDbCircle
 10
4730.308715695479
 20
2897.589935174292
 30
0.0
 40
0.0025890946420684
100
AcDbArc
 50
0.0
 51
90.02664436713912
  0
LWPOLYLINE
  5
2127
330
1F
100
AcDbEntity
  8
SANINDUSA
100
AcDbPolyline
 90
        3
 70
   128
 43
0.0
 10
4730.311304790119
 20
2897.589935281303
 10
4730.311304760317
 20
2897.581937321451
 10
4730.311304760317
 20
2897.578938134936
  0
ARC
  5
212B
330
1F
100
AcDbEntity
  8
SANINDUSA
100
AcDbCircle
 10
4730.568742015107
 20
2897.578934056022
 30
0.0
 40
0.0025893789703269
100
AcDbArc
 50
269.9783306469576
 51
0.0
  0
LWPOLYLINE
  5
212F
330
1F
100
AcDbEntity
  8
SANINDUSA
100
AcDbPolyline
 90
        3
 70
   128
 43
0.0
 10
4730.568741035799
 20
2897.576344677237
 10
4730.56074143682
 20
2897.576346703795
 10
4730.557741207222
 20
2897.576347448853
  0
ARC
  5
2132
330
1F
100
AcDbEntity
  8
SANINDUSA
100
AcDbCircle
 10
4730.297713385068
 20
2897.578934144833
 30
0.0
 40
0.002589169845605
100
AcDbArc
 50
180.0
 51
270.0262984595438
  0
LWPOLYLINE
  5
2134
330
1F
100
AcDbEntity
  8
SANINDUSA
100
AcDbPolyline
 90
        3
 70
   128
 43
0.0
 10
4730.308714461664
 20
2897.576347776679
 10
4730.300714892487
 20
2897.576345720318
 10
4730.297714573483
 20
2897.57634497526
  0
ARC
  5
2139
330
1F
100
AcDbEntity
  8
SANINDUSA
100
AcDbCircle
 10
4730.557741607642
 20
2897.578938147917
 30
0.0
 40
0.0025906990949191
100
AcDbArc
 50
180.0
 51
269.9911443391227
  0
ARC
  5
213A
330
1F
100
AcDbEntity
  8
SANINDUSA
100
AcDbCircle
 10
4730.308713827285
 20
2897.578938709697
 30
0.0
 40
0.0025909330959818
100
AcDbArc
 50
270.0140286413171
 51
359.9872894603735
  0
ARC
  5
2150
330
1F
100
AcDbEntity
  8
SANINDUSA
100
AcDbCircle
 10
4730.503739779368
 20
2897.589947403714
 30
0.0
 40
0.0025907826300512
100
AcDbArc
 50
0.0
 51
89.99654712551286
  0
LWPOLYLINE
  5
215B
330
1F
100
AcDbEntity
  8
SANINDUSA
100
AcDbPolyline
 90
        3
 70
   128
 43
0.0
 10
4730.492739034037
 20
2897.592540957955
 10
4730.500738722424
 20
2897.592538931397
 10
4730.503739935498
 20
2897.592538186339
  0
LWPOLYLINE
  5
215D
330
1F
100
AcDbEntity
  8
SANINDUSA
100
AcDbPolyline
 90
        3
 70
   128
 43
0.0
 10
4730.506330561976
 20
2897.589947738675
 10
4730.506330770592
 20
2897.581949898031
 10
4730.506330830197
 20
2897.578950622109
  0
ARC
  5
2160
330
1F
100
AcDbEntity
  8
SANINDUSA
100
AcDbCircle
 10
4730.362716543144
 20
2897.589947405707
 30
0.0
 40
0.0025911084922819
100
AcDbArc
 50
90.00933867040076
 51
179.9853882193805
  0
LWPOLYLINE
  5
216B
330
1F
100
AcDbEntity
  8
SANINDUSA
100
AcDbPolyline
 90
        3
 70
   128
 43
0.0
 10
4730.362716120819
 20
2897.592538514164
 10
4730.370715779404
 20
2897.59254051092
 10
4730.373717111687
 20
2897.592541226176
  0
LWPOLYLINE
  5
216E
330
1F
100
AcDbEntity
  8
SANINDUSA
100
AcDbPolyline
 90
        3
 70
   128
 43
0.0
 10
4730.360125196318
 20
2897.578950890329
 10
4730.360125375132
 20
2897.586948760775
 10
4730.360125434737
 20
2897.5899480665
  0
ARC
  5
2173
330
1F
100
AcDbEntity
  8
SANINDUSA
100
AcDbCircle
 10
4730.492738158587
 20
2897.589951445432
 30
0.0
 40
0.0025895126701901
100
AcDbArc
 50
89.98062974948167
 51
179.9877205941909
  0
LINE
  5
2176
330
1F
100
AcDbEntity
  8
SANINDUSA
100
AcDbLine
 10
4730.490148973802
 20
2897.578954943445
 30
0.0
 11
4730.490148645977
 21
2897.589952000407
 31
0.0
  0
ARC
  5
2177
330
1F
100
AcDbEntity
  8
SANINDUSA
100
AcDbCircle
 10
4730.37371834286
 20
2897.589952039771
 30
0.0
 40
0.0025891866979929
100
AcDbArc
 50
0.0
 51
90.0272444683617
  0
LWPOLYLINE
  5
217A
330
1F
100
AcDbEntity
  8
SANINDUSA
100
AcDbPolyline
 90
        3
 70
   128
 43
0.0
 10
4730.376307529549
 20
2897.589952268628
 10
4730.376307261328
 20
2897.581954457787
 10
4730.376307171922
 20
2897.57895512226
  0
ARC
  5
2181
330
1F
100
AcDbEntity
  8
SANINDUSA
100
AcDbCircle
 10
4730.503741451268
 20
2897.57895104335
 30
0.0
 40
0.002589378963608
100
AcDbArc
 50
269.9789896326981
 51
359.9906790210146
  0
LWPOLYLINE
  5
2183
330
1F
100
AcDbEntity
  8
SANINDUSA
100
AcDbPolyline
 90
        3
 70
   128
 43
0.0
 10
4730.503740501742
 20
2897.57636166456
 10
4730.495740843157
 20
2897.576363750723
 10
4730.49273971949
 20
2897.576364525584
  0
ARC
  5
2186
330
1F
100
AcDbEntity
  8
SANINDUSA
100
AcDbCircle
 10
4730.362714391268
 20
2897.578951067872
 30
0.0
 40
0.0025891949563333
100
AcDbArc
 50
180.0
 51
270.0257425998952
  0
LWPOLYLINE
  5
2188
330
1F
100
AcDbEntity
  8
SANINDUSA
100
AcDbPolyline
 90
        3
 70
   128
 43
0.0
 10
4730.373716396431
 20
2897.576364674595
 10
4730.365716737846
 20
2897.576362648037
 10
4730.362715554575
 20
2897.576361873177
  0
ARC
  5
2189
330
1F
100
AcDbEntity
  8
SANINDUSA
100
AcDbCircle
 10
4730.492739781485
 20
2897.578955333295
 30
0.0
 40
0.0025908077119689
100
AcDbArc
 50
180.0086218944834
 51
269.99862898043
  0
ARC
  5
218A
330
1F
100
AcDbEntity
  8
SANINDUSA
100
AcDbCircle
 10
4730.373716063541
 20
2897.578955783037
 30
0.0
 40
0.0025911084630347
100
AcDbArc
 50
270.0073609837693
 51
359.985388584152
  0
LWPOLYLINE
  5
218B
330
1F
100
AcDbEntity
  8
SANINDUSA
100
AcDbPolyline
 90
        3
 70
   128
 43
0.0
 10
4730.427726549248
 20
2897.592549719838
 10
4730.435726565461
 20
2897.592549839047
 10
4730.438729328255
 20
2897.592549779442
  0
ARC
  5
2196
330
1F
100
AcDbEntity
  8
SANINDUSA
100
AcDbCircle
 10
4730.427726163894
 20
2897.58995912098
 30
0.0
 40
0.0025905988866861
100
AcDbArc
 50
89.99147716702465
 51
179.9814960296167
  0
ARC
  5
2198
330
1F
100
AcDbEntity
  8
SANINDUSA
100
AcDbCircle
 10
4730.438730085896
 20
2897.589959523245
 30
0.0
 40
0.0025902563076496
100
AcDbArc
 50
0.0102676130351919
 51
90.01675885154446
  0
LWPOLYLINE
  5
219B
330
1F
100
AcDbEntity
  8
SANINDUSA
100
AcDbPolyline
 90
        3
 70
   128
 43
0.0
 10
4730.425135505537
 20
2897.578963437107
 10
4730.42513553534
 20
2897.586961009529
 10
4730.425135565142
 20
2897.589959957627
  0
LWPOLYLINE
  5
219C
330
1F
100
AcDbEntity
  8
SANINDUSA
100
AcDbPolyline
 90
        3
 70
   128
 43
0.0
 10
4730.441320342164
 20
2897.589959987429
 10
4730.44132043157
 20
2897.581962415007
 10
4730.441320461372
 20
2897.578963258294
  0
LWPOLYLINE
  5
21A9
330
1F
100
AcDbEntity
  8
SANINDUSA
100
AcDbPolyline
 90
        3
 70
   128
 43
0.0
 10
4730.438729536871
 20
2897.576373853711
 10
4730.430729550461
 20
2897.576374032524
 10
4730.427726489643
 20
2897.576374002722
  0
ARC
  5
21AB
330
1F
100
AcDbEntity
  8
SANINDUSA
100
AcDbCircle
 10
4730.438730171679
 20
2897.578964143478
 30
0.0
 40
0.0025902898450105
100
AcDbArc
 50
269.9859583832415
 51
359.9804200579995
  0
ARC
  5
21AC
330
1F
100
AcDbEntity
  8
SANINDUSA
100
AcDbCircle
 10
4730.427725402598
 20
2897.578963899595
 30
0.0
 40
0.00258989710114
100
AcDbArc
 50
180.0102315267168
 51
270.0240484968794
  0
CIRCLE
  5
21CB
330
1F
100
AcDbEntity
  8
SANINDUSA
100
AcDbCircle
 10
-4730.433227908949
 20
2897.444303235701
 30
0.0000000000101164
 40
0.0602975452584134
210
0.0
220
0.0000000000000035
230
-1.0
  0
CIRCLE
  5
21CC
330
1F
100
AcDbEntity
  8
SANINDUSA
100
AcDbCircle
 10
-4730.433227908949
 20
2897.444303235701
 30
0.0000000000101164
 40
0.05
210
0.0
220
0.0000000000000035
230
-1.0
  0
LINE
  5
21E5
330
1F
100
AcDbEntity
  8
SANINDUSA
100
AcDbLine
 10
4732.192961140678
 20
2897.621560537026
 30
0.0
 11
4732.194203197829
 21
2897.69271794332
 31
0.0
  0
LINE
  5
21E6
330
1F
100
AcDbEntity
  8
SANINDUSA
100
AcDbLine
 10
4732.192961140678
 20
2897.621560537026
 30
0.0
 11
4732.197960379093
 21
2897.621560537026
 31
0.0
  0
LINE
  5
21E9
330
1F
100
AcDbEntity
  8
SANINDUSA
100
AcDbLine
 10
4732.197960379093
 20
2897.621560537026
 30
0.0
 11
4732.940754683481
 21
2897.621560537026
 31
0.0
  0
LINE
  5
21EB
330
1F
100
AcDbEntity
  8
SANINDUSA
100
AcDbLine
 10
4732.944511921869
 20
2897.692717606903
 30
0.0
 11
4732.945753963456
 21
2897.621560537026
 31
0.0
  0
LINE
  5
21EC
330
1F
100
AcDbEntity
  8
SANINDUSA
100
AcDbLine
 10
4732.940754683481
 20
2897.621560537026
 30
0.0
 11
4732.945753963456
 21
2897.621560537026
 31
0.0
  0
ARC
  5
21ED
330
1F
100
AcDbEntity
  8
SANINDUSA
100
AcDbCircle
 10
4732.203201821207
 20
2897.692560535238
 30
0.0
 40
0.0090000000000001
100
AcDbArc
 50
90.0
 51
178.9999999902799
  0
LINE
  5
21EF
330
1F
100
AcDbEntity
  8
SANINDUSA
100
AcDbLine
 10
4732.203201820866
 20
2897.701560535238
 30
0.0
 11
4732.935513289437
 21
2897.701560535238
 31
0.0
  0
ARC
  5
21F1
330
1F
100
AcDbEntity
  8
SANINDUSA
100
AcDbCircle
 10
4732.93551327047
 20
2897.692560535238
 30
0.0
 40
0.0090000000000002
100
AcDbArc
 50
1.000000009720081
 51
90.0
  0
LINE
  5
21F6
330
1F
100
AcDbEntity
  8
SANINDUSA
100
AcDbLine
 10
4733.78299173407
 20
2897.65120183374
 30
0.0
 11
4733.818986740632
 21
2897.650315300331
 31
0.0
  0
LINE
  5
21F7
330
1F
100
AcDbEntity
  8
SANINDUSA
100
AcDbLine
 10
4733.378276106638
 20
2897.661171638177
 30
0.0
 11
4733.437950667663
 21
2897.659701619998
 31
0.0
  0
LINE
  5
21F8
330
1F
100
AcDbEntity
  8
SANINDUSA
100
AcDbLine
 10
4733.764255371613
 20
2897.651663494066
 30
0.0
 11
4733.78299173407
 21
2897.65120183374
 31
0.0
  0
LINE
  5
21FB
330
1F
100
AcDbEntity
  8
SANINDUSA
100
AcDbLine
 10
4733.699275073332
 20
2897.653264173076
 30
0.0
 11
4733.741516289039
 21
2897.652223584012
 31
0.0
  0
LINE
  5
21FC
330
1F
100
AcDbEntity
  8
SANINDUSA
100
AcDbLine
 10
4733.634294804853
 20
2897.65486489679
 30
0.0
 11
4733.67653602056
 21
2897.653824318901
 31
0.0
  0
LWPOLYLINE
  5
21FE
330
1F
100
AcDbEntity
  8
SANINDUSA
100
AcDbPolyline
 90
        3
 70
   128
 43
0.0
 10
4733.569314506573
 20
2897.656465609328
 10
4733.61041286282
 20
2897.655453198359
 10
4733.611555722279
 20
2897.65542504634
  0
LINE
  5
21FF
330
1F
100
AcDbEntity
  8
SANINDUSA
100
AcDbLine
 10
4733.504334223193
 20
2897.658066329316
 30
0.0
 11
4733.546575438899
 21
2897.657025766328
 31
0.0
  0
LINE
  5
2200
330
1F
100
AcDbEntity
  8
SANINDUSA
100
AcDbLine
 10
4733.437950667663
 20
2897.659701619998
 30
0.0
 11
4733.481595155519
 21
2897.658626482592
 31
0.0
  0
LINE
  5
221D
330
1F
100
AcDbEntity
  8
SANINDUSA
100
AcDbLine
 10
4733.782883253616
 20
2897.647203293399
 30
0.0
 11
4733.818867948574
 21
2897.646317013309
 31
0.0
  0
ARC
  5
221E
330
1F
100
AcDbEntity
  8
SANINDUSA
100
AcDbCircle
 10
4733.963327846351
 20
2897.812314736804
 30
0.0
 40
0.166098472492191
100
AcDbArc
 50
272.0011256188298
 51
284.0305499700564
  0
LINE
  5
221F
330
1F
100
AcDbEntity
  8
SANINDUSA
100
AcDbLine
 10
4733.378177602513
 20
2897.657172851965
 30
0.0
 11
4733.437847745341
 21
2897.65570294182
 31
0.0
  0
LINE
  5
2223
330
1F
100
AcDbEntity
  8
SANINDUSA
100
AcDbLine
 10
4733.504235711617
 20
2897.654067543104
 30
0.0
 11
4733.546476927322
 21
2897.653026980118
 31
0.0
  0
LWPOLYLINE
  5
2227
330
1F
100
AcDbEntity
  8
SANINDUSA
100
AcDbPolyline
 90
        3
 70
   128
 43
0.0
 10
4733.569216009898
 20
2897.652466823116
 10
4733.610314366145
 20
2897.651454412148
 10
4733.611457225603
 20
2897.651426256404
  0
LINE
  5
222B
330
1F
100
AcDbEntity
  8
SANINDUSA
100
AcDbLine
 10
4733.634196278376
 20
2897.650866106853
 30
0.0
 11
4733.676437494081
 21
2897.64982553269
 31
0.0
  0
LINE
  5
222F
330
1F
100
AcDbEntity
  8
SANINDUSA
100
AcDbLine
 10
4733.699176576656
 20
2897.649265386865
 30
0.0
 11
4733.741417792362
 21
2897.648224794076
 31
0.0
  0
LINE
  5
2233
330
1F
100
AcDbEntity
  8
SANINDUSA
100
AcDbLine
 10
4733.764156874937
 20
2897.647664707855
 30
0.0
 11
4733.782883253616
 21
2897.647203293399
 31
0.0
  0
LINE
  5
2234
330
1F
100
AcDbEntity
  8
SANINDUSA
100
AcDbLine
 10
4733.437847745341
 20
2897.65570294182
 30
0.0
 11
4733.481496643944
 21
2897.654627696381
 31
0.0
  0
ARC
  5
2237
330
1F
100
AcDbEntity
  8
SANINDUSA
100
AcDbCircle
 10
4734.0312748017
 20
2897.692560535238
 30
0.0
 40
0.0090000000000001
100
AcDbArc
 50
90.0
 51
168.0000000087166
  0
LINE
  5
2238
330
1F
100
AcDbEntity
  8
SANINDUSA
100
AcDbLine
 10
4734.031274822277
 20
2897.701560535238
 30
0.0
 11
4734.055142488999
 21
2897.701560535238
 31
0.0
  0
ARC
  5
2239
330
1F
100
AcDbEntity
  8
SANINDUSA
100
AcDbCircle
 10
4734.055142470032
 20
2897.692560535238
 30
0.0
 40
0.0090000000000001
100
AcDbArc
 50
1.000000009720081
 51
90.0
  0
LINE
  5
223A
330
1F
100
AcDbEntity
  8
SANINDUSA
100
AcDbLine
 10
4734.064141099288
 20
2897.692717606896
 30
0.0
 11
4734.065383163017
 21
2897.621560537026
 31
0.0
  0
LINE
  5
223B
330
1F
100
AcDbEntity
  8
SANINDUSA
100
AcDbLine
 10
4734.065383163017
 20
2897.621560537026
 30
0.0
 11
4734.061382558865
 21
2897.621560537026
 31
0.0
  0
LINE
  5
223C
330
1F
100
AcDbEntity
  8
SANINDUSA
100
AcDbLine
 10
4734.060141709369
 20
2897.692647796825
 30
0.0
 11
4734.061382558865
 21
2897.621560537026
 31
0.0
  0
ARC
  5
223D
330
1F
100
AcDbEntity
  8
SANINDUSA
100
AcDbCircle
 10
4734.055142470032
 20
2897.692560535238
 30
0.0
 40
0.005
100
AcDbArc
 50
1.000000009720081
 51
90.0
  0
LINE
  5
223E
330
1F
100
AcDbEntity
  8
SANINDUSA
100
AcDbLine
 10
4734.031274822277
 20
2897.697560535048
 30
0.0
 11
4734.055142488999
 21
2897.697560535048
 31
0.0
  0
ARC
  5
223F
330
1F
100
AcDbEntity
  8
SANINDUSA
100
AcDbCircle
 10
4734.0312748017
 20
2897.692560535238
 30
0.0
 40
0.005
100
AcDbArc
 50
90.0
 51
168.0000000087166
  0
LINE
  5
2240
330
1F
100
AcDbEntity
  8
SANINDUSA
100
AcDbLine
 10
4734.02638408236
 20
2897.693600093715
 30
0.0
 11
4734.021254149002
 21
2897.669465799586
 31
0.0
  0
ARC
  5
2241
330
1F
100
AcDbEntity
  8
SANINDUSA
100
AcDbCircle
 10
4733.997778599142
 20
2897.674455680384
 30
0.0
 40
0.0240000073249893
100
AcDbArc
 50
284.0292910598677
 51
348.0000031715312
  0
LINE
  5
2242
330
1F
100
AcDbEntity
  8
SANINDUSA
100
AcDbLine
 10
4733.969128158611
 20
2897.646317702488
 30
0.0
 11
4733.956079748196
 21
2897.645862043605
 31
0.0
  0
LINE
  5
2243
330
1F
100
AcDbEntity
  8
SANINDUSA
100
AcDbLine
 10
4733.956079748196
 20
2897.645862043605
 30
0.0
 11
4733.945726004166
 21
2897.634759017036
 31
0.0
  0
LINE
  5
2244
330
1F
100
AcDbEntity
  8
SANINDUSA
100
AcDbLine
 10
4733.945726004166
 20
2897.634759017036
 30
0.0
 11
4733.84224751286
 21
2897.634759017036
 31
0.0
  0
LINE
  5
2245
330
1F
100
AcDbEntity
  8
SANINDUSA
100
AcDbLine
 10
4733.84224751286
 20
2897.634759017036
 30
0.0
 11
4733.831893768829
 21
2897.645862043605
 31
0.0
  0
LINE
  5
2246
330
1F
100
AcDbEntity
  8
SANINDUSA
100
AcDbLine
 10
4733.831893768829
 20
2897.645862043605
 30
0.0
 11
4733.818867948574
 21
2897.646316912726
 31
0.0
  0
ARC
  5
2247
330
1F
100
AcDbEntity
  8
SANINDUSA
100
AcDbCircle
 10
4733.764353825699
 20
2897.655662192267
 30
0.0
 40
0.0079999091568855
100
AcDbArc
 50
217.2708578481488
 51
268.5892855222514
  0
LINE
  5
2248
330
1F
100
AcDbEntity
  8
SANINDUSA
100
AcDbLine
 10
4733.747734782023
 20
2897.651070107476
 30
0.0
 11
4733.757987645192
 21
2897.650817577497
 31
0.0
  0
ARC
  5
2249
330
1F
100
AcDbEntity
  8
SANINDUSA
100
AcDbCircle
 10
4733.741614823517
 20
2897.656222310127
 30
0.0
 40
0.0079999427668985
100
AcDbArc
 50
268.5887155240964
 51
319.9070174742299
  0
ARC
  5
224A
330
1F
100
AcDbEntity
  8
SANINDUSA
100
AcDbCircle
 10
4733.699373612535
 20
2897.657263026376
 30
0.0
 40
0.0080000663048733
100
AcDbArc
 50
217.2713301762057
 51
268.5887034832309
  0
LINE
  5
224B
330
1F
100
AcDbEntity
  8
SANINDUSA
100
AcDbLine
 10
4733.682754483742
 20
2897.652670831189
 30
0.0
 11
4733.693007346911
 21
2897.652418263957
 31
0.0
  0
ARC
  5
224C
330
1F
100
AcDbEntity
  8
SANINDUSA
100
AcDbCircle
 10
4733.676634535198
 20
2897.657823053611
 30
0.0
 40
0.0079999478794013
100
AcDbArc
 50
268.5886450501135
 51
319.9068632015299
  0
ARC
  5
224D
330
1F
100
AcDbEntity
  8
SANINDUSA
100
AcDbCircle
 10
4733.634393333071
 20
2897.658863771734
 30
0.0
 40
0.0080000921302253
100
AcDbArc
 50
217.2713506663858
 51
268.5885732203928
  0
LINE
  5
224E
330
1F
100
AcDbEntity
  8
SANINDUSA
100
AcDbLine
 10
4733.617774215264
 20
2897.654271558628
 30
0.0
 11
4733.62802704863
 21
2897.654018991396
 31
0.0
  0
ARC
  5
224F
330
1F
100
AcDbEntity
  8
SANINDUSA
100
AcDbCircle
 10
4733.611654211726
 20
2897.659423892671
 30
0.0
 40
0.0080000618368678
100
AcDbArc
 50
268.5890591389425
 51
319.9065052961978
  0
ARC
  5
2250
330
1F
100
AcDbEntity
  8
SANINDUSA
100
AcDbCircle
 10
4733.56941295333
 20
2897.660464276015
 30
0.0
 40
0.007999877473411
100
AcDbArc
 50
217.2706463380593
 51
268.5893324354475
  0
LINE
  5
2251
330
1F
100
AcDbEntity
  8
SANINDUSA
100
AcDbLine
 10
4733.552793916984
 20
2897.655872274891
 30
0.0
 11
4733.563046780152
 21
2897.655619703934
 31
0.0
  0
ARC
  5
2252
330
1F
100
AcDbEntity
  8
SANINDUSA
100
AcDbCircle
 10
4733.546673946644
 20
2897.66102455617
 30
0.0
 40
0.0080000024578485
100
AcDbArc
 50
268.588810810415
 51
319.9066412470855
  0
ARC
  5
2253
330
1F
100
AcDbEntity
  8
SANINDUSA
100
AcDbCircle
 10
4733.50443277468
 20
2897.662065230085
 30
0.0
 40
0.0080001144297933
100
AcDbArc
 50
217.2714615701213
 51
268.5885171849013
  0
LINE
  5
2254
330
1F
100
AcDbEntity
  8
SANINDUSA
100
AcDbLine
 10
4733.487813633604
 20
2897.657472994879
 30
0.0
 11
4733.498066481871
 21
2897.657220423923
 31
0.0
  0
ARC
  5
2255
330
1F
100
AcDbEntity
  8
SANINDUSA
100
AcDbCircle
 10
4733.481693664709
 20
2897.662625262483
 30
0.0
 40
0.0079999925461819
100
AcDbArc
 50
268.5887987174552
 51
319.906709536161
  0
ARC
  5
2256
330
1F
100
AcDbEntity
  8
SANINDUSA
100
AcDbCircle
 10
4733.378768640577
 20
2897.681165571914
 30
0.0
 40
0.0240000000000182
100
AcDbArc
 50
191.9999999912834
 51
268.5888618943716
  0
LINE
  5
2257
330
1F
100
AcDbEntity
  8
SANINDUSA
100
AcDbLine
 10
4733.355293099505
 20
2897.676175691888
 30
0.0
 11
4733.351589427067
 21
2897.693600093715
 31
0.0
  0
ARC
  5
2258
330
1F
100
AcDbEntity
  8
SANINDUSA
100
AcDbCircle
 10
4733.346698689102
 20
2897.692560535238
 30
0.0
 40
0.005
100
AcDbArc
 50
11.9999999912834
 51
90.0
  0
LINE
  5
2259
330
1F
100
AcDbEntity
  8
SANINDUSA
100
AcDbLine
 10
4733.322831020427
 20
2897.697560535048
 30
0.0
 11
4733.346698690874
 21
2897.697560535048
 31
0.0
  0
ARC
  5
225A
330
1F
100
AcDbEntity
  8
SANINDUSA
100
AcDbCircle
 10
4733.322831020768
 20
2897.692560535238
 30
0.0
 40
0.005
100
AcDbArc
 50
90.0
 51
178.9999999902799
  0
LINE
  5
225B
330
1F
100
AcDbEntity
  8
SANINDUSA
100
AcDbLine
 10
4733.316590949629
 20
2897.621560537026
 30
0.0
 11
4733.317831782361
 21
2897.692647796825
 31
0.0
  0
LINE
  5
225C
330
1F
100
AcDbEntity
  8
SANINDUSA
100
AcDbLine
 10
4733.316590949629
 20
2897.621560537026
 30
0.0
 11
4733.312590340239
 21
2897.621560537026
 31
0.0
  0
LINE
  5
225D
330
1F
100
AcDbEntity
  8
SANINDUSA
100
AcDbLine
 10
4733.312590340239
 20
2897.621560537026
 30
0.0
 11
4733.31383239739
 21
2897.692717943316
 31
0.0
  0
ARC
  5
225E
330
1F
100
AcDbEntity
  8
SANINDUSA
100
AcDbCircle
 10
4733.322831020768
 20
2897.692560535238
 30
0.0
 40
0.0090000000000001
100
AcDbArc
 50
90.0
 51
178.9999999902799
  0
LINE
  5
225F
330
1F
100
AcDbEntity
  8
SANINDUSA
100
AcDbLine
 10
4733.322831020427
 20
2897.701560535238
 30
0.0
 11
4733.346698690874
 21
2897.701560535238
 31
0.0
  0
ARC
  5
2260
330
1F
100
AcDbEntity
  8
SANINDUSA
100
AcDbCircle
 10
4733.346698689102
 20
2897.692560535238
 30
0.0
 40
0.0089999999999998
100
AcDbArc
 50
11.9999999912834
 51
90.0
  0
LINE
  5
2262
330
1F
100
AcDbEntity
  8
SANINDUSA
100
AcDbLine
 10
4733.359207295052
 20
2897.676999787324
 30
0.0
 11
4733.355501990803
 21
2897.694431866213
 31
0.0
  0
ARC
  5
2263
330
1F
100
AcDbEntity
  8
SANINDUSA
100
AcDbCircle
 10
4733.378768640577
 20
2897.681165571914
 30
0.0
 40
0.0200000000000003
100
AcDbArc
 50
191.9999999912834
 51
268.5888618943716
  0
ARC
  5
2264
330
1F
100
AcDbEntity
  8
SANINDUSA
100
AcDbCircle
 10
4733.48169366264
 20
2897.662625258937
 30
0.0
 40
0.0039999894889025
100
AcDbArc
 50
268.5888430767422
 51
323.7390073898833
  0
ARC
  5
2265
330
1F
100
AcDbEntity
  8
SANINDUSA
100
AcDbCircle
 10
4733.487337958586
 20
2897.658485041283
 30
0.0
 40
0.0029999732924612
100
AcDbArc
 50
88.58855393391378
 51
143.7392644016231
  0
LINE
  5
2266
330
1F
100
AcDbEntity
  8
SANINDUSA
100
AcDbLine
 10
4733.487411853594
 20
2897.661484104351
 30
0.0
 11
4733.498665270132
 21
2897.661206886873
 31
0.0
  0
ARC
  5
2267
330
1F
100
AcDbEntity
  8
SANINDUSA
100
AcDbCircle
 10
4733.49859138018
 20
2897.658207749162
 30
0.0
 40
0.0030000477891714
100
AcDbArc
 50
33.4393121917899
 51
88.58868560394238
  0
ARC
  5
2268
330
1F
100
AcDbEntity
  8
SANINDUSA
100
AcDbCircle
 10
4733.504432694689
 20
2897.662065049102
 30
0.0
 40
0.0039999320695117
100
AcDbArc
 50
213.4382321979257
 51
268.5893332175051
  0
ARC
  5
2269
330
1F
100
AcDbEntity
  8
SANINDUSA
100
AcDbCircle
 10
4733.54667394602
 20
2897.661024542673
 30
0.0
 40
0.003999989488466
100
AcDbArc
 50
268.5888430246478
 51
323.7390073898833
  0
ARC
  5
226A
330
1F
100
AcDbEntity
  8
SANINDUSA
100
AcDbCircle
 10
4733.552318276676
 20
2897.656884254366
 30
0.0
 40
0.0030000430703477
100
AcDbArc
 50
88.5892499199576
 51
143.7385684511907
  0
LINE
  5
226B
330
1F
100
AcDbEntity
  8
SANINDUSA
100
AcDbLine
 10
4733.552392136973
 20
2897.659883388087
 30
0.0
 11
4733.563645568414
 21
2897.659606166885
 31
0.0
  0
ARC
  5
226C
330
1F
100
AcDbEntity
  8
SANINDUSA
100
AcDbCircle
 10
4733.563571662665
 20
2897.656607028377
 30
0.0
 40
0.0030000489741263
100
AcDbArc
 50
33.43931547976387
 51
88.58838436751241
  0
ARC
  5
226D
330
1F
100
AcDbEntity
  8
SANINDUSA
100
AcDbCircle
 10
4733.569413010481
 20
2897.660464395949
 30
0.0
 40
0.004000000000684
100
AcDbArc
 50
213.4387616081146
 51
268.5888578284415
  0
ARC
  5
226E
330
1F
100
AcDbEntity
  8
SANINDUSA
100
AcDbCircle
 10
4733.611654229399
 20
2897.659423822685
 30
0.0
 40
0.0039999894891269
100
AcDbArc
 50
268.5888430767422
 51
323.7390073898833
  0
ARC
  5
226F
330
1F
100
AcDbEntity
  8
SANINDUSA
100
AcDbCircle
 10
4733.617298543348
 20
2897.655283568384
 30
0.0
 40
0.0030000094856315
100
AcDbArc
 50
88.5889149585572
 51
143.7389034346258
  0
LINE
  5
2270
330
1F
100
AcDbEntity
  8
SANINDUSA
100
AcDbLine
 10
4733.617372420353
 20
2897.658282668099
 30
0.0
 11
4733.628625836892
 21
2897.658005454347
 31
0.0
  0
ARC
  5
2271
330
1F
100
AcDbEntity
  8
SANINDUSA
100
AcDbCircle
 10
4733.628551953659
 20
2897.655006305625
 30
0.0
 40
0.0030000586312318
100
AcDbArc
 50
33.43934221757744
 51
88.58881904646404
  0
ARC
  5
2272
330
1F
100
AcDbEntity
  8
SANINDUSA
100
AcDbCircle
 10
4733.634393218313
 20
2897.658863516392
 30
0.0
 40
0.0039998304882935
100
AcDbArc
 50
213.4375372514707
 51
268.590129025289
  0
ARC
  5
2273
330
1F
100
AcDbEntity
  8
SANINDUSA
100
AcDbCircle
 10
4733.67663452768
 20
2897.657823095246
 30
0.0
 40
0.0039999894886148
100
AcDbArc
 50
268.5888430767422
 51
323.7390073898833
  0
ARC
  5
2274
330
1F
100
AcDbEntity
  8
SANINDUSA
100
AcDbCircle
 10
4733.68227884163
 20
2897.653682840944
 30
0.0
 40
0.0030000094870488
100
AcDbArc
 50
88.58891490646279
 51
143.7389034136168
  0
LINE
  5
2275
330
1F
100
AcDbEntity
  8
SANINDUSA
100
AcDbLine
 10
4733.682352718634
 20
2897.65668194066
 30
0.0
 11
4733.693606135172
 21
2897.656404726908
 31
0.0
  0
ARC
  5
2276
330
1F
100
AcDbEntity
  8
SANINDUSA
100
AcDbCircle
 10
4733.693532229423
 20
2897.6534055884
 30
0.0
 40
0.0030000489749652
100
AcDbArc
 50
33.43931547976387
 51
88.58838441960681
  0
ARC
  5
2277
330
1F
100
AcDbEntity
  8
SANINDUSA
100
AcDbCircle
 10
4733.699373584714
 20
2897.657262969435
 30
0.0
 40
0.0040000096015492
100
AcDbArc
 50
213.4388771663545
 51
268.5887891263101
  0
ARC
  5
2278
330
1F
100
AcDbEntity
  8
SANINDUSA
100
AcDbCircle
 10
4733.741614824872
 20
2897.656222349979
 30
0.0
 40
0.003999979821824
100
AcDbArc
 50
268.5884282579498
 51
323.7392225337729
  0
ARC
  5
2279
330
1F
100
AcDbEntity
  8
SANINDUSA
100
AcDbCircle
 10
4733.747259116628
 20
2897.652082168223
 30
0.0
 40
0.002999958349236
100
AcDbArc
 50
88.5890154575245
 51
143.7394830473422
  0
LINE
  5
227A
330
1F
100
AcDbEntity
  8
SANINDUSA
100
AcDbLine
 10
4733.747332987113
 20
2897.655081216947
 30
0.0
 11
4733.758586433453
 21
2897.654804044173
 31
0.0
  0
ARC
  5
227B
330
1F
100
AcDbEntity
  8
SANINDUSA
100
AcDbCircle
 10
4733.758512542256
 20
2897.651804931931
 30
0.0
 40
0.0030000223575356
100
AcDbArc
 50
33.43905002313263
 51
88.58864989745963
  0
ARC
  5
227C
330
1F
100
AcDbEntity
  8
SANINDUSA
100
AcDbCircle
 10
4733.764353903022
 20
2897.655662331151
 30
0.0
 40
0.0040000508087006
100
AcDbArc
 50
213.4392504127457
 51
268.5885166633156
  0
LINE
  5
227D
330
1F
100
AcDbEntity
  8
SANINDUSA
100
AcDbLine
 10
4733.83368917994
 20
2897.649801783965
 30
0.0
 11
4733.818986740632
 21
2897.650315203474
 31
0.0
  0
LINE
  5
227E
330
1F
100
AcDbEntity
  8
SANINDUSA
100
AcDbLine
 10
4733.84398671679
 20
2897.638759017692
 30
0.0
 11
4733.83368917994
 21
2897.649801783965
 31
0.0
  0
LINE
  5
227F
330
1F
100
AcDbEntity
  8
SANINDUSA
100
AcDbLine
 10
4733.943986740632
 20
2897.638759017692
 30
0.0
 11
4733.84398671679
 21
2897.638759017692
 31
0.0
  0
LINE
  5
2280
330
1F
100
AcDbEntity
  8
SANINDUSA
100
AcDbLine
 10
4733.954284277482
 20
2897.649801783965
 30
0.0
 11
4733.943986740632
 21
2897.638759017692
 31
0.0
  0
LINE
  5
2281
330
1F
100
AcDbEntity
  8
SANINDUSA
100
AcDbLine
 10
4733.96898671679
 20
2897.650315203474
 30
0.0
 11
4733.954284277482
 21
2897.649801783965
 31
0.0
  0
ARC
  5
2282
330
1F
100
AcDbEntity
  8
SANINDUSA
100
AcDbCircle
 10
4733.997778545919
 20
2897.674455752669
 30
0.0
 40
0.0200000966081331
100
AcDbArc
 50
284.0294529980202
 51
347.9998412702475
  0
LINE
  5
2283
330
1F
100
AcDbEntity
  8
SANINDUSA
100
AcDbLine
 10
4734.022472181581
 20
2897.69443516046
 30
0.0
 11
4734.017341580406
 21
2897.670297442194
 31
0.0
  0
LINE
  5
2284
330
1F
100
AcDbEntity
  8
SANINDUSA
100
AcDbLine
 10
4733.83368917994
 20
2897.649801783965
 30
0.0
 11
4733.954284277482
 21
2897.649801783965
 31
0.0
  0
LINE
  5
2371
330
1F
100
AcDbEntity
  8
SANINDUSA
100
AcDbLine
 10
4733.346698690874
 20
2897.701560535238
 30
0.0
 11
4733.365283493621
 21
2897.701560535238
 31
0.0
  0
LINE
  5
2373
330
1F
100
AcDbEntity
  8
SANINDUSA
100
AcDbLine
 10
4734.012689974828
 20
2897.701560535238
 30
0.0
 11
4734.031274822277
 21
2897.701560535238
 31
0.0
  0
LINE
  5
2374
330
1F
100
AcDbEntity
  8
SANINDUSA
100
AcDbLine
 10
4733.365283493621
 20
2897.701560535238
 30
0.0
 11
4734.012689974828
 21
2897.701560535238
 31
0.0
  0
LINE
  5
237A
330
1F
100
AcDbEntity
  8
SANINDUSA
100
AcDbLine
 10
4734.061382558865
 20
2897.621560537026
 30
0.0
 11
4734.060382690949
 21
2897.621560537026
 31
0.0
  0
LINE
  5
237C
330
1F
100
AcDbEntity
  8
SANINDUSA
100
AcDbLine
 10
4733.31759079729
 20
2897.621560537026
 30
0.0
 11
4733.316590949629
 21
2897.621560537026
 31
0.0
  0
LINE
  5
237D
330
1F
100
AcDbEntity
  8
SANINDUSA
100
AcDbLine
 10
4734.060382690949
 20
2897.621560537026
 30
0.0
 11
4733.31759079729
 21
2897.621560537026
 31
0.0
  0
ARC
  5
2482
330
1F
100
AcDbEntity
  8
SANINDUSA
100
AcDbCircle
 10
4733.963327644882
 20
2897.812216330416
 30
0.0
 40
0.162
100
AcDbArc
 50
271.9980977872648
 51
284.0382116174039
  0
ENDSEC
  0
SECTION
  2
OBJECTS
  0
DICTIONARY
  5
C
330
0
100
AcDbDictionary
281
     1
  3
ACAD_COLOR
350
EE6
  3
ACAD_GROUP
350
D
  3
ACAD_LAYOUT
350
1A
  3
ACAD_MATERIAL
350
EE5
  3
ACAD_MLINESTYLE
350
17
  3
ACAD_PLOTSETTINGS
350
19
  3
ACAD_PLOTSTYLENAME
350
E
  3
ACAD_TABLESTYLE
350
EE7
  3
ACDBHEADERROUNDTRIPXREC
350
2819
  3
AcDbVariableDictionary
350
3D
  3
ASE_INDEX_DICTIONARY
350
27F9
  0
DICTIONARY
  5
1051
330
2
100
AcDbDictionary
280
     1
281
     1
  3
ACAD_LAYERFILTERS
360
1057
  3
ACLYDICTIONARY
360
1056
  0
DICTIONARY
  5
EE6
102
{ACAD_REACTORS
330
C
102
}
330
C
100
AcDbDictionary
281
     1
  0
DICTIONARY
  5
D
102
{ACAD_REACTORS
330
C
102
}
330
C
100
AcDbDictionary
281
     1
  0
DICTIONARY
  5
1A
102
{ACAD_REACTORS
330
C
102
}
330
C
100
AcDbDictionary
281
     1
  3
Layout1
350
1E
  3
Layout2
350
26
  3
Model
350
22
  0
DICTIONARY
  5
EE5
102
{ACAD_REACTORS
330
C
102
}
330
C
100
AcDbDictionary
281
     1
  0
DICTIONARY
  5
17
102
{ACAD_REACTORS
330
C
102
}
330
C
100
AcDbDictionary
281
     1
  3
Standard
350
18
  0
DICTIONARY
  5
19
102
{ACAD_REACTORS
330
C
102
}
330
C
100
AcDbDictionary
281
     1
  0
ACDBDICTIONARYWDFLT
  5
E
102
{ACAD_REACTORS
330
C
102
}
330
C
100
AcDbDictionary
281
     1
  3
Normal
350
F
100
AcDbDictionaryWithDefault
340
F
  0
DICTIONARY
  5
EE7
102
{ACAD_REACTORS
330
C
102
}
330
C
100
AcDbDictionary
281
     1
  3
Standard
350
EE8
  0
DICTIONARY
  5
2819
102
{ACAD_REACTORS
330
C
102
}
330
C
100
AcDbDictionary
281
     1
  0
DICTIONARY
  5
3D
102
{ACAD_REACTORS
330
C
102
}
330
C
100
AcDbDictionary
281
     1
  3
CTABLESTYLE
350
1049
  3
DIMASSOC
350
3F
  3
HIDETEXT
350
3E
  3
PROJECTNAME
350
2811
  0
DICTIONARY
  5
27F9
102
{ACAD_REACTORS
330
C
102
}
330
C
100
AcDbDictionary
281
     1
  3
ASEBlockHierarchyIndexRecord
350
27FA
1001
DCO15
1040
1598603918.343
  0
DICTIONARY
  5
1057
102
{ACAD_REACTORS
330
1051
102
}
330
1051
100
AcDbDictionary
281
     1
  0
DICTIONARY
  5
1056
102
{ACAD_REACTORS
330
1051
102
}
330
1051
100
AcDbDictionary
281
     1
1001
ACAD
1000
<All
  0
LAYOUT
  5
1E
102
{ACAD_XDICTIONARY
360
281A
102
}
102
{ACAD_REACTORS
330
1A
102
}
330
1A
100
AcDbPlotSettings
  1

  2
Ploter HP500
  4

  6

 40
0.0
 41
0.0
 42
0.0
 43
0.0
 44
0.0
 45
0.0
 46
0.0
 47
0.0
 48
0.0
 49
0.0
140
0.0
141
0.0
142
1.0
143
1.0
 70
   688
 72
     0
 73
     0
 74
     5
  7
sanindusa.ctb
 75
    16
147
1.0
148
0.0
149
0.0
100
AcDbLayout
  1
Layout1
 70
     1
 71
     1
 10
0.0
 20
0.0
 11
420.0
 21
297.0
 12
0.0
 22
0.0
 32
0.0
 14
1.000000000000000E+20
 24
1.000000000000000E+20
 34
1.000000000000000E+20
 15
-1.000000000000000E+20
 25
-1.000000000000000E+20
 35
-1.000000000000000E+20
146
0.0
 13
0.0
 23
0.0
 33
0.0
 16
1.0
 26
0.0
 36
0.0
 17
0.0
 27
1.0
 37
0.0
 76
     0
330
1B
  0
LAYOUT
  5
26
102
{ACAD_XDICTIONARY
360
281E
102
}
102
{ACAD_REACTORS
330
1A
102
}
330
1A
100
AcDbPlotSettings
  1

  2
Ploter HP500
  4

  6

 40
0.0
 41
0.0
 42
0.0
 43
0.0
 44
0.0
 45
0.0
 46
0.0
 47
0.0
 48
0.0
 49
0.0
140
0.0
141
0.0
142
1.0
143
1.0
 70
   688
 72
     0
 73
     0
 74
     5
  7
sanindusa.ctb
 75
    16
147
1.0
148
0.0
149
0.0
100
AcDbLayout
  1
Layout2
 70
     1
 71
     2
 10
0.0
 20
0.0
 11
12.0
 21
9.0
 12
0.0
 22
0.0
 32
0.0
 14
0.0
 24
0.0
 34
0.0
 15
0.0
 25
0.0
 35
0.0
146
0.0
 13
0.0
 23
0.0
 33
0.0
 16
1.0
 26
0.0
 36
0.0
 17
0.0
 27
1.0
 37
0.0
 76
     0
330
23
  0
LAYOUT
  5
22
102
{ACAD_XDICTIONARY
360
281C
102
}
102
{ACAD_REACTORS
330
1A
102
}
330
1A
100
AcDbPlotSettings
  1

  2
Ploter HP500
  4
User268
  6

 40
4.995333194732666
 41
16.97565841674804
 42
4.995330810546875
 43
16.97567749023437
 44
209.9733276367187
 45
296.9259948730469
 46
0.0
 47
0.0
 48
0.0
 49
0.0
140
0.0
141
0.0
142
1.0
143
1.0
 70
 11952
 72
     1
 73
     1
 74
     0
  7
sanindusa.ctb
 75
     0
147
1.0
148
-427.5957866592534
149
7.362384574453926
100
AcDbLayout
  1
Model
 70
     1
 71
     0
 10
0.0
 20
0.0
 11
12.0
 21
9.0
 12
0.0
 22
0.0
 32
0.0
 14
0.0
 24
0.0
 34
0.0
 15
0.0
 25
0.0
 35
0.0
146
0.0
 13
0.0
 23
0.0
 33
0.0
 16
1.0
 26
0.0
 36
0.0
 17
0.0
 27
1.0
 37
0.0
 76
     0
330
1F
  0
MLINESTYLE
  5
18
102
{ACAD_REACTORS
330
17
102
}
330
17
100
AcDbMlineStyle
  2
STANDARD
 70
     0
  3

 62
   256
 51
90.0
 52
90.0
 71
     2
 49
0.5
 62
   256
  6
BYLAYER
 49
-0.5
 62
   256
  6
BYLAYER
  0
ACDBPLACEHOLDER
  5
F
102
{ACAD_REACTORS
330
E
102
}
330
E
  0
TABLESTYLE
  5
EE8
102
{ACAD_REACTORS
330
EE7
102
}
330
EE7
100
AcDbTableStyle
  3
Standard
 70
     0
 71
     0
 40
1.5
 41
1.5
280
     0
281
     0
  7
Standard
140
4.5
170
     2
 62
     0
 63
     7
283
     0
274
    -2
284
     1
 64
     0
275
    -2
285
     1
 65
     0
276
    -2
286
     1
 66
     0
277
    -2
287
     1
 67
     0
278
    -2
288
     1
 68
     0
279
    -2
289
     1
 69
     0
  7
Standard
140
6.0
170
     5
 62
     0
 63
     7
283
     0
274
    -2
284
     1
 64
     0
275
    -2
285
     1
 65
     0
276
    -2
286
     1
 66
     0
277
    -2
287
     1
 67
     0
278
    -2
288
     1
 68
     0
279
    -2
289
     1
 69
     0
  7
Standard
140
4.5
170
     5
 62
     0
 63
     7
283
     0
274
    -2
284
     1
 64
     0
275
    -2
285
     1
 65
     0
276
    -2
286
     1
 66
     0
277
    -2
287
     1
 67
     0
278
    -2
288
     1
 68
     0
279
    -2
289
     1
 69
     0
  0
DICTIONARYVAR
  5
1049
102
{ACAD_REACTORS
330
3D
102
}
330
3D
100
DictionaryVariables
280
     0
  1
STANDARD
  0
DICTIONARYVAR
  5
3F
102
{ACAD_REACTORS
330
3D
102
}
330
3D
100
DictionaryVariables
280
     0
  1
2
  0
DICTIONARYVAR
  5
3E
102
{ACAD_REACTORS
330
3D
102
}
330
3D
100
DictionaryVariables
280
     0
  1
1
  0
DICTIONARYVAR
  5
2811
102
{ACAD_REACTORS
330
3D
102
}
330
3D
100
DictionaryVariables
280
     0
  1

  0
XRECORD
  5
27FA
102
{ACAD_REACTORS
330
27F9
102
}
330
27F9
100
AcDbXrecord
280
     1
  0
DICTIONARY
  5
281A
330
1E
100
AcDbDictionary
280
     1
281
     1
  3
ACAD_XREC_ROUNDTRIP
360
281B
  0
DICTIONARY
  5
281E
330
26
100
AcDbDictionary
280
     1
281
     1
  3
ACAD_XREC_ROUNDTRIP
360
281F
  0
DICTIONARY
  5
281C
330
22
100
AcDbDictionary
280
     1
281
     1
  3
ACAD_XREC_ROUNDTRIP
360
281D
  0
XRECORD
  5
281B
102
{ACAD_REACTORS
330
281A
102
}
330
281A
100
AcDbXrecord
280
     1
102
SHADEPLOT
 70
     0
102
SHADEPLOTRESLEVEL
 70
     2
102
SHADEPLOTCUSTOMDPI
 70
   300
  0
XRECORD
  5
281F
102
{ACAD_REACTORS
330
281E
102
}
330
281E
100
AcDbXrecord
280
     1
102
SHADEPLOT
 70
     0
102
SHADEPLOTRESLEVEL
 70
     2
102
SHADEPLOTCUSTOMDPI
 70
   300
  0
XRECORD
  5
281D
102
{ACAD_REACTORS
330
281C
102
}
330
281C
100
AcDbXrecord
280
     1
102
SHADEPLOT
 70
     0
102
SHADEPLOTRESLEVEL
 70
     2
102
SHADEPLOTCUSTOMDPI
 70
   300
  0
ENDSEC
  0
EOF
