  0
SECTION
  2
HEADER
  9
$ACADVER
  1
AC1015
  9
$ACADMAINTVER
 70
    20
  9
$DWGCODEPAGE
  3
ANSI_1252
  9
$INSBASE
 10
0.0
 20
0.0
 30
0.0
  9
$EXTMIN
 10
4686.664752232658
 20
2872.402530876871
 30
0.0
  9
$EXTMAX
 10
4690.527434166972
 20
2873.153927288277
 30
0.0
  9
$LIMMIN
 10
0.0
 20
0.0
  9
$LIMMAX
 10
420.0
 20
297.0
  9
$ORTHOMODE
 70
     1
  9
$REGENMODE
 70
     1
  9
$FILLMODE
 70
     1
  9
$QTEXTMODE
 70
     0
  9
$MIRRTEXT
 70
     1
  9
$LTSCALE
 40
1.0
  9
$ATTMODE
 70
     1
  9
$TEXTSIZE
 40
2.5
  9
$TRACEWID
 40
1.0
  9
$TEXTSTYLE
  7
SANINDUSA
  9
$CLAYER
  8
0
  9
$CELTYPE
  6
ByLayer
  9
$CECOLOR
 62
   256
  9
$CELTSCALE
 40
1.0
  9
$DISPSILH
 70
     0
  9
$DIMSCALE
 40
1.0
  9
$DIMASZ
 40
2.0
  9
$DIMEXO
 40
1.0
  9
$DIMDLI
 40
1.0
  9
$DIMRND
 40
0.0
  9
$DIMDLE
 40
0.0
  9
$DIMEXE
 40
1.0
  9
$DIMTP
 40
0.0
  9
$DIMTM
 40
0.0
  9
$DIMTXT
 40
2.0
  9
$DIMCEN
 40
0.0
  9
$DIMTSZ
 40
0.0
  9
$DIMTOL
 70
     0
  9
$DIMLIM
 70
     0
  9
$DIMTIH
 70
     0
  9
$DIMTOH
 70
     0
  9
$DIMSE1
 70
     0
  9
$DIMSE2
 70
     0
  9
$DIMTAD
 70
     1
  9
$DIMZIN
 70
     8
  9
$DIMBLK
  1

  9
$DIMASO
 70
     1
  9
$DIMSHO
 70
     1
  9
$DIMPOST
  1

  9
$DIMAPOST
  1

  9
$DIMALT
 70
     0
  9
$DIMALTD
 70
     3
  9
$DIMALTF
 40
0.03937007874016
  9
$DIMLFAC
 40
1.0
  9
$DIMTOFL
 70
     1
  9
$DIMTVP
 40
0.0
  9
$DIMTIX
 70
     0
  9
$DIMSOXD
 70
     0
  9
$DIMSAH
 70
     0
  9
$DIMBLK1
  1

  9
$DIMBLK2
  1

  9
$DIMSTYLE
  2
SANINDUSA
  9
$DIMCLRD
 70
   256
  9
$DIMCLRE
 70
   256
  9
$DIMCLRT
 70
   256
  9
$DIMTFAC
 40
1.0
  9
$DIMGAP
 40
1.0
  9
$DIMJUST
 70
     0
  9
$DIMSD1
 70
     0
  9
$DIMSD2
 70
     0
  9
$DIMTOLJ
 70
     0
  9
$DIMTZIN
 70
     8
  9
$DIMALTZ
 70
     0
  9
$DIMALTTZ
 70
     0
  9
$DIMUPT
 70
     0
  9
$DIMDEC
 70
     1
  9
$DIMTDEC
 70
     1
  9
$DIMALTU
 70
     2
  9
$DIMALTTD
 70
     3
  9
$DIMTXSTY
  7
SANINDUSA
  9
$DIMAUNIT
 70
     0
  9
$DIMADEC
 70
     1
  9
$DIMALTRND
 40
0.0
  9
$DIMAZIN
 70
     0
  9
$DIMDSEP
 70
    44
  9
$DIMATFIT
 70
     3
  9
$DIMFRAC
 70
     0
  9
$DIMLDRBLK
  1

  9
$DIMLUNIT
 70
     2
  9
$DIMLWD
 70
    -1
  9
$DIMLWE
 70
    -1
  9
$DIMTMOVE
 70
     0
  9
$LUNITS
 70
     2
  9
$LUPREC
 70
     4
  9
$SKETCHINC
 40
1.0
  9
$FILLETRAD
 40
3.0
  9
$AUNITS
 70
     0
  9
$AUPREC
 70
     0
  9
$MENU
  1
.
  9
$ELEVATION
 40
0.0
  9
$PELEVATION
 40
0.0
  9
$THICKNESS
 40
0.0
  9
$LIMCHECK
 70
     0
  9
$CHAMFERA
 40
10.0
  9
$CHAMFERB
 40
10.0
  9
$CHAMFERC
 40
20.0
  9
$CHAMFERD
 40
0.0
  9
$SKPOLY
 70
     0
  9
$TDCREATE
 40
2454305.493551250
  9
$TDUCREATE
 40
2454305.493551250
  9
$TDUPDATE
 40
2454478.642172303
  9
$TDUUPDATE
 40
2454478.642172303
  9
$TDINDWG
 40
0.0242173032
  9
$TDUSRTIMER
 40
0.0242173032
  9
$USRTIMER
 70
     1
  9
$ANGBASE
 50
0.0
  9
$ANGDIR
 70
     0
  9
$PDMODE
 70
     0
  9
$PDSIZE
 40
0.0
  9
$PLINEWID
 40
0.0
  9
$SPLFRAME
 70
     0
  9
$SPLINETYPE
 70
     6
  9
$SPLINESEGS
 70
     8
  9
$HANDSEED
  5
2936
  9
$SURFTAB1
 70
     6
  9
$SURFTAB2
 70
     6
  9
$SURFTYPE
 70
     6
  9
$SURFU
 70
     6
  9
$SURFV
 70
     6
  9
$UCSBASE
  2

  9
$UCSNAME
  2

  9
$UCSORG
 10
0.0
 20
0.0
 30
0.0
  9
$UCSXDIR
 10
1.0
 20
0.0
 30
0.0
  9
$UCSYDIR
 10
0.0
 20
1.0
 30
0.0
  9
$UCSORTHOREF
  2

  9
$UCSORTHOVIEW
 70
     0
  9
$UCSORGTOP
 10
0.0
 20
0.0
 30
0.0
  9
$UCSORGBOTTOM
 10
0.0
 20
0.0
 30
0.0
  9
$UCSORGLEFT
 10
0.0
 20
0.0
 30
0.0
  9
$UCSORGRIGHT
 10
0.0
 20
0.0
 30
0.0
  9
$UCSORGFRONT
 10
0.0
 20
0.0
 30
0.0
  9
$UCSORGBACK
 10
0.0
 20
0.0
 30
0.0
  9
$PUCSBASE
  2

  9
$PUCSNAME
  2

  9
$PUCSORG
 10
0.0
 20
0.0
 30
0.0
  9
$PUCSXDIR
 10
1.0
 20
0.0
 30
0.0
  9
$PUCSYDIR
 10
0.0
 20
1.0
 30
0.0
  9
$PUCSORTHOREF
  2

  9
$PUCSORTHOVIEW
 70
     0
  9
$PUCSORGTOP
 10
0.0
 20
0.0
 30
0.0
  9
$PUCSORGBOTTOM
 10
0.0
 20
0.0
 30
0.0
  9
$PUCSORGLEFT
 10
0.0
 20
0.0
 30
0.0
  9
$PUCSORGRIGHT
 10
0.0
 20
0.0
 30
0.0
  9
$PUCSORGFRONT
 10
0.0
 20
0.0
 30
0.0
  9
$PUCSORGBACK
 10
0.0
 20
0.0
 30
0.0
  9
$USERI1
 70
     0
  9
$USERI2
 70
     0
  9
$USERI3
 70
     0
  9
$USERI4
 70
     0
  9
$USERI5
 70
     0
  9
$USERR1
 40
0.0
  9
$USERR2
 40
0.0
  9
$USERR3
 40
0.0
  9
$USERR4
 40
0.0
  9
$USERR5
 40
0.0
  9
$WORLDVIEW
 70
     1
  9
$SHADEDGE
 70
     3
  9
$SHADEDIF
 70
    70
  9
$TILEMODE
 70
     1
  9
$MAXACTVP
 70
    64
  9
$PINSBASE
 10
0.0
 20
0.0
 30
0.0
  9
$PLIMCHECK
 70
     0
  9
$PEXTMIN
 10
1.000000000000000E+20
 20
1.000000000000000E+20
 30
1.000000000000000E+20
  9
$PEXTMAX
 10
-1.000000000000000E+20
 20
-1.000000000000000E+20
 30
-1.000000000000000E+20
  9
$PLIMMIN
 10
0.0
 20
0.0
  9
$PLIMMAX
 10
420.0
 20
297.0
  9
$UNITMODE
 70
     0
  9
$VISRETAIN
 70
     1
  9
$PLINEGEN
 70
     0
  9
$PSLTSCALE
 70
     1
  9
$TREEDEPTH
 70
  3020
  9
$CMLSTYLE
  2
Standard
  9
$CMLJUST
 70
     0
  9
$CMLSCALE
 40
20.0
  9
$PROXYGRAPHICS
 70
     1
  9
$MEASUREMENT
 70
     1
  9
$CELWEIGHT
370
    -1
  9
$ENDCAPS
280
     0
  9
$JOINSTYLE
280
     0
  9
$LWDISPLAY
290
     0
  9
$INSUNITS
 70
     4
  9
$HYPERLINKBASE
  1

  9
$STYLESHEET
  1
sanindusa.ctb
  9
$XEDIT
290
     1
  9
$CEPSNTYPE
380
     0
  9
$PSTYLEMODE
290
     1
  9
$FINGERPRINTGUID
  2
{9A3BDC09-5BF5-481F-BED4-17FA4C7760B2}
  9
$VERSIONGUID
  2
{E1622559-E883-42EB-A93B-24A37D2EC783}
  9
$EXTNAMES
290
     1
  9
$PSVPSCALE
 40
0.0
  9
$OLESTARTUP
290
     0
  0
ENDSEC
  0
SECTION
  2
CLASSES
  0
CLASS
  1
ACDBDICTIONARYWDFLT
  2
AcDbDictionaryWithDefault
  3
ObjectDBX Classes
 90
        0
280
     0
281
     0
  0
CLASS
  1
ACDBPLACEHOLDER
  2
AcDbPlaceHolder
  3
ObjectDBX Classes
 90
        0
280
     0
281
     0
  0
CLASS
  1
LAYOUT
  2
AcDbLayout
  3
ObjectDBX Classes
 90
        0
280
     0
281
     0
  0
CLASS
  1
DICTIONARYVAR
  2
AcDbDictionaryVar
  3
ObjectDBX Classes
 90
        0
280
     0
281
     0
  0
CLASS
  1
DIMASSOC
  2
AcDbDimAssoc
  3
"AcDbDimAssoc|Product Desc:     AcDim ARX App For Dimension|Company:          Autodesk, Inc.|WEB Address:      www.autodesk.com"
 90
    32768
280
     0
281
     0
  0
CLASS
  1
TABLESTYLE
  2
AcDbTableStyle
  3
ObjectDBX Classes
 90
     2047
280
     0
281
     0
  0
CLASS
  1
SORTENTSTABLE
  2
AcDbSortentsTable
  3
ObjectDBX Classes
 90
    32768
280
     0
281
     0
  0
ENDSEC
  0
SECTION
  2
TABLES
  0
TABLE
  2
VPORT
  5
8
330
0
100
AcDbSymbolTable
 70
     2
  0
VPORT
  5
292E
330
8
100
AcDbSymbolTableRecord
100
AcDbViewportTableRecord
  2
*Active
 70
     0
 10
0.0
 20
0.0
 11
1.0
 21
1.0
 12
4688.596093199816
 22
2872.78805761016
 13
0.0
 23
0.0
 14
10.0
 24
10.0
 15
10.0
 25
10.0
 16
0.0
 26
0.0
 36
1.0
 17
0.0
 27
0.0
 37
0.0
 40
2.454674764440732
 41
1.579579579579579
 42
50.0
 43
0.0
 44
0.0
 50
0.0
 51
0.0
 71
     0
 72
   100
 73
     1
 74
     2
 75
     0
 76
     0
 77
     0
 78
     0
281
     0
 65
     1
110
0.0
120
0.0
130
0.0
111
1.0
121
0.0
131
0.0
112
0.0
122
1.0
132
0.0
 79
     0
146
0.0
  0
ENDTAB
  0
TABLE
  2
LTYPE
  5
5
330
0
100
AcDbSymbolTable
 70
     5
  0
LTYPE
  5
14
330
5
100
AcDbSymbolTableRecord
100
AcDbLinetypeTableRecord
  2
ByBlock
 70
     0
  3

 72
    65
 73
     0
 40
0.0
  0
LTYPE
  5
15
330
5
100
AcDbSymbolTableRecord
100
AcDbLinetypeTableRecord
  2
ByLayer
 70
     0
  3

 72
    65
 73
     0
 40
0.0
  0
LTYPE
  5
16
330
5
100
AcDbSymbolTableRecord
100
AcDbLinetypeTableRecord
  2
Continuous
 70
     0
  3
Solid line
 72
    65
 73
     0
 40
0.0
  0
LTYPE
  5
2D
330
5
100
AcDbSymbolTableRecord
100
AcDbLinetypeTableRecord
  2
DASHDOT
 70
     0
  3
Dash dot __ . __ . __ . __ . __ . __ . __ . __
 72
    65
 73
     4
 40
25.4
 49
12.7
 74
     0
 49
-6.349999999999999
 74
     0
 49
0.0
 74
     0
 49
-6.349999999999999
 74
     0
  0
LTYPE
  5
2E
330
5
100
AcDbSymbolTableRecord
100
AcDbLinetypeTableRecord
  2
HIDDEN
 70
     0
  3
Hidden __ __ __ __ __ __ __ __ __ __ __ __ __ _
 72
    65
 73
     2
 40
9.524999999999998
 49
6.349999999999999
 74
     0
 49
-3.174999999999999
 74
     0
  0
LTYPE
  5
C75
330
5
100
AcDbSymbolTableRecord
100
AcDbLinetypeTableRecord
  2
AM_ISO02W050
 70
     0
  3
__ __ __ __ __ __ __ __ __ __ __ __ __ __ __
 72
    65
 73
     2
 40
7.5
 49
6.0
 74
     0
 49
-1.5
 74
     0
  0
LTYPE
  5
C76
330
5
100
AcDbSymbolTableRecord
100
AcDbLinetypeTableRecord
  2
AM_ISO08W050
 70
     0
  3
____ . ____ . ____ . ____ . ____ . ____ . ____
 72
    65
 73
     4
 40
18.0
 49
12.0
 74
     0
 49
-1.5
 74
     0
 49
3.0
 74
     0
 49
-1.5
 74
     0
  0
ENDTAB
  0
TABLE
  2
LAYER
  5
2
102
{ACAD_XDICTIONARY
360
1051
102
}
330
0
100
AcDbSymbolTable
 70
    16
  0
LAYER
  5
10
330
2
100
AcDbSymbolTableRecord
100
AcDbLayerTableRecord
  2
0
 70
     0
 62
     7
  6
Continuous
370
    -3
390
F
  0
LAYER
  5
2F
330
2
100
AcDbSymbolTableRecord
100
AcDbLayerTableRecord
  2
1
 70
     0
 62
     1
  6
Continuous
370
    -3
390
F
  0
LAYER
  5
30
330
2
100
AcDbSymbolTableRecord
100
AcDbLayerTableRecord
  2
2
 70
     0
 62
     2
  6
Continuous
370
    -3
390
F
  0
LAYER
  5
31
330
2
100
AcDbSymbolTableRecord
100
AcDbLayerTableRecord
  2
3
 70
     0
 62
     3
  6
Continuous
370
    -3
390
F
  0
LAYER
  5
32
330
2
100
AcDbSymbolTableRecord
100
AcDbLayerTableRecord
  2
4
 70
     0
 62
     4
  6
Continuous
370
    -3
390
F
  0
LAYER
  5
33
330
2
100
AcDbSymbolTableRecord
100
AcDbLayerTableRecord
  2
5
 70
     0
 62
     5
  6
Continuous
370
    -3
390
F
  0
LAYER
  5
34
330
2
100
AcDbSymbolTableRecord
100
AcDbLayerTableRecord
  2
6
 70
     0
 62
     6
  6
Continuous
370
    -3
390
F
  0
LAYER
  5
35
330
2
100
AcDbSymbolTableRecord
100
AcDbLayerTableRecord
  2
7
 70
     0
 62
     7
  6
Continuous
370
    -3
390
F
  0
LAYER
  5
36
330
2
100
AcDbSymbolTableRecord
100
AcDbLayerTableRecord
  2
cen
 70
     0
 62
     7
  6
DASHDOT
370
    -3
390
F
  0
LAYER
  5
37
330
2
100
AcDbSymbolTableRecord
100
AcDbLayerTableRecord
  2
hid
 70
     0
 62
     7
  6
HIDDEN
370
    -3
390
F
  0
LAYER
  5
5D6
330
2
100
AcDbSymbolTableRecord
100
AcDbLayerTableRecord
  2
hatch
 70
     0
 62
     9
  6
Continuous
370
    -3
390
F
  0
LAYER
  5
8AF
330
2
100
AcDbSymbolTableRecord
100
AcDbLayerTableRecord
  2
9
 70
     0
 62
     9
  6
Continuous
370
    -3
390
F
  0
LAYER
  5
8F8
330
2
100
AcDbSymbolTableRecord
100
AcDbLayerTableRecord
  2
leg fin
 70
     0
 62
     9
  6
Continuous
370
    -3
390
F
  0
LAYER
  5
91D
330
2
100
AcDbSymbolTableRecord
100
AcDbLayerTableRecord
  2
cotas
 70
     0
 62
     1
  6
Continuous
370
    -3
390
F
  0
LAYER
  5
92F
330
2
100
AcDbSymbolTableRecord
100
AcDbLayerTableRecord
  2
Defpoints
 70
     0
 62
     7
  6
Continuous
290
     0
370
    -3
390
F
  0
LAYER
  5
C7B
330
2
100
AcDbSymbolTableRecord
100
AcDbLayerTableRecord
  2
SANINDUSA
 70
     0
 62
     3
  6
Continuous
370
    -3
390
F
  0
ENDTAB
  0
TABLE
  2
STYLE
  5
3
330
0
100
AcDbSymbolTable
 70
     4
  0
STYLE
  5
11
330
3
100
AcDbSymbolTableRecord
100
AcDbTextStyleTableRecord
  2
Standard
 70
     0
 40
0.0
 41
1.0
 50
0.0
 71
     0
 42
2.5
  3
Avgardn.ttf
  4

1001
ACAD
1000
AvantGarde Bk BT
1071
       34
  0
STYLE
  5
2C
330
3
100
AcDbSymbolTableRecord
100
AcDbTextStyleTableRecord
  2

 70
     1
 40
0.0
 41
1.0
 50
0.0
 71
     0
 42
2.5
  3
ltypeshp.shx
  4

  0
STYLE
  5
91F
330
3
100
AcDbSymbolTableRecord
100
AcDbTextStyleTableRecord
  2
SANINDUSA
 70
     0
 40
0.0
 41
1.0
 50
0.0
 71
     0
 42
2.5
  3
verdana.TTF
  4

1001
ACAD
1000
Verdana
1071
       34
  0
STYLE
  5
C7C
330
3
100
AcDbSymbolTableRecord
100
AcDbTextStyleTableRecord
  2
futura
 70
     0
 40
0.0
 41
1.0
 50
0.0
 71
     0
 42
2.5
  3
ZURCHN.TTF
  4

1001
ACAD
1000
Zurich BT
1071
       34
  0
ENDTAB
  0
TABLE
  2
VIEW
  5
6
330
0
100
AcDbSymbolTable
 70
     0
  0
ENDTAB
  0
TABLE
  2
UCS
  5
7
330
0
100
AcDbSymbolTable
 70
     0
  0
ENDTAB
  0
TABLE
  2
APPID
  5
9
330
0
100
AcDbSymbolTable
 70
    11
  0
APPID
  5
12
330
9
100
AcDbSymbolTableRecord
100
AcDbRegAppTableRecord
  2
ACAD
 70
     0
  0
APPID
  5
3A
330
9
100
AcDbSymbolTableRecord
100
AcDbRegAppTableRecord
  2
DCO15
 70
     0
  0
APPID
  5
EEE
330
9
100
AcDbSymbolTableRecord
100
AcDbRegAppTableRecord
  2
ACAD_DSTYLE_DIMTEXT_FILL
 70
     0
  0
APPID
  5
EEF
330
9
100
AcDbSymbolTableRecord
100
AcDbRegAppTableRecord
  2
ACAD_DSTYLE_DIMEXT_LENGTH
 70
     0
  0
APPID
  5
EF0
330
9
100
AcDbSymbolTableRecord
100
AcDbRegAppTableRecord
  2
ACAD_DSTYLE_DIMEXT_ENABLED
 70
     0
  0
APPID
  5
EF1
330
9
100
AcDbSymbolTableRecord
100
AcDbRegAppTableRecord
  2
ACAD_DSTYLE_DIM_LINETYPE
 70
     0
  0
APPID
  5
EF2
330
9
100
AcDbSymbolTableRecord
100
AcDbRegAppTableRecord
  2
ACAD_DSTYLE_DIM_EXT1_LINETYPE
 70
     0
  0
APPID
  5
EF3
330
9
100
AcDbSymbolTableRecord
100
AcDbRegAppTableRecord
  2
ACAD_DSTYLE_DIM_EXT2_LINETYPE
 70
     0
  0
APPID
  5
FAF
330
9
100
AcDbSymbolTableRecord
100
AcDbRegAppTableRecord
  2
ACAD_DSTYLE_DIMJOGGED_JOGANGLE_SYMBOL
 70
     0
  0
APPID
  5
1013
330
9
100
AcDbSymbolTableRecord
100
AcDbRegAppTableRecord
  2
ACAD_DSTYLE_DIMARC_LENGTH_SYMBOL
 70
     0
  0
APPID
  5
132F
330
9
100
AcDbSymbolTableRecord
100
AcDbRegAppTableRecord
  2
ACAD_PSEXT
 70
     0
  0
ENDTAB
  0
TABLE
  2
DIMSTYLE
  5
A
330
0
100
AcDbSymbolTable
 70
     3
100
AcDbDimStyleTable
 71
     1
340
921
  0
DIMSTYLE
105
45
330
A
100
AcDbSymbolTableRecord
100
AcDbDimStyleTableRecord
  2
STANDARD
 70
     0
289
     0
340
11
  0
DIMSTYLE
105
921
330
A
100
AcDbSymbolTableRecord
100
AcDbDimStyleTableRecord
  2
SANINDUSA
 70
     0
 41
2.0
 42
1.0
 43
1.0
 44
1.0
 73
     0
 74
     0
 77
     1
 78
     8
140
2.0
141
0.0
143
0.03937007874016
147
1.0
171
     3
172
     1
176
   256
177
   256
178
   256
179
     1
271
     1
272
     1
274
     3
278
    44
283
     0
284
     8
340
91F
371
    -1
372
    -1
1001
ACAD_DSTYLE_DIMEXT_LENGTH
1070
   378
1040
1.0
1001
ACAD_DSTYLE_DIMEXT_ENABLED
1070
   383
1070
     0
1001
ACAD_DSTYLE_DIMARC_LENGTH_SYMBOL
1070
   379
1070
     0
1001
ACAD_DSTYLE_DIMJOGGED_JOGANGLE_SYMBOL
1070
   384
1040
1.570796326794896
  0
DIMSTYLE
105
C7D
330
A
100
AcDbSymbolTableRecord
100
AcDbDimStyleTableRecord
  2
AM_ISO
 70
     0
  4
"
 41
2.5
 42
1.0
 43
10.0
 44
1.0
 47
0.1
 48
0.1
 73
     0
 74
     0
 77
     1
 78
     8
 79
     2
140
3.5
141
0.0
143
0.0393701
146
0.71
147
1.5
172
     1
176
   256
177
   256
178
     2
271
     2
272
     3
274
     4
283
     0
284
     8
340
11
371
    -1
372
    -1
  0
ENDTAB
  0
TABLE
  2
BLOCK_RECORD
  5
1
330
0
100
AcDbSymbolTable
 70
   135
  0
BLOCK_RECORD
  5
1F
330
1
100
AcDbSymbolTableRecord
100
AcDbBlockTableRecord
  2
*Model_Space
340
22
  0
BLOCK_RECORD
  5
1B
330
1
100
AcDbSymbolTableRecord
100
AcDbBlockTableRecord
  2
*Paper_Space
340
1E
  0
BLOCK_RECORD
  5
23
330
1
100
AcDbSymbolTableRecord
100
AcDbBlockTableRecord
  2
*Paper_Space0
340
26
  0
BLOCK_RECORD
  5
919
330
1
100
AcDbSymbolTableRecord
100
AcDbBlockTableRecord
  2
_DotSmall
340
0
  0
BLOCK_RECORD
  5
922
330
1
100
AcDbSymbolTableRecord
100
AcDbBlockTableRecord
  2
base para cotas
340
0
310
2800000020000000200000000100080000000000000400000000000000000000000000000000000000000000000080000080000000808000800000008000800080800000C0C0C000C0DCC000F0CAA6000020400000206000002080000020A0000020C0000020E00000400000004020000040400000406000004080000040A0
310
000040C0000040E00000600000006020000060400000606000006080000060A0000060C0000060E00000800000008020000080400000806000008080000080A0000080C0000080E00000A0000000A0200000A0400000A0600000A0800000A0A00000A0C00000A0E00000C0000000C0200000C0400000C0600000C0800000C0
310
A00000C0C00000C0E00000E0000000E0200000E0400000E0600000E0800000E0A00000E0C00000E0E00040000000400020004000400040006000400080004000A0004000C0004000E00040200000402020004020400040206000402080004020A0004020C0004020E000404000004040200040404000404060004040800040
310
40A0004040C0004040E00040600000406020004060400040606000406080004060A0004060C0004060E00040800000408020004080400040806000408080004080A0004080C0004080E00040A0000040A0200040A0400040A0600040A0800040A0A00040A0C00040A0E00040C0000040C0200040C0400040C0600040C08000
310
40C0A00040C0C00040C0E00040E0000040E0200040E0400040E0600040E0800040E0A00040E0C00040E0E00080000000800020008000400080006000800080008000A0008000C0008000E00080200000802020008020400080206000802080008020A0008020C0008020E00080400000804020008040400080406000804080
310
008040A0008040C0008040E00080600000806020008060400080606000806080008060A0008060C0008060E00080800000808020008080400080806000808080008080A0008080C0008080E00080A0000080A0200080A0400080A0600080A0800080A0A00080A0C00080A0E00080C0000080C0200080C0400080C0600080C0
310
800080C0A00080C0C00080C0E00080E0000080E0200080E0400080E0600080E0800080E0A00080E0C00080E0E000C0000000C0002000C0004000C0006000C0008000C000A000C000C000C000E000C0200000C0202000C0204000C0206000C0208000C020A000C020C000C020E000C0400000C0402000C0404000C0406000C0
310
408000C040A000C040C000C040E000C0600000C0602000C0604000C0606000C0608000C060A000C060C000C060E000C0800000C0802000C0804000C0806000C0808000C080A000C080C000C080E000C0A00000C0A02000C0A04000C0A06000C0A08000C0A0A000C0A0C000C0A0E000C0C00000C0C02000C0C04000C0C06000
310
C0C08000C0C0A000F0FBFF00A4A0A000808080000000FF0000FF000000FFFF00FF000000FF00FF00FFFF0000FFFFFF00A4A4A4A4A4A4A4A4A4A4A4A4A4A4A4A4A4A4A4A4A4A4A4A4A4A4A4A4A4A4A4A4A4A4A4A4A4A4A4A4A4A4A4A4A4A4A4A4A4A4A4A4A4A4A4A4A4A4A4A4A4A4A4A4A4A4A4A4A4A4A4A4A4A4A4A4A4A4A4
310
A4A4A4A4A4A4A4A4A4A4A4A4A4A4A4A4A4A4A4A4A4A4A4A4A4A4A4A4A4A4A4A4A4A4A4A4A4A4A4A4A4A4A4A4A4A4A4A4A4A4A4A4A4A4A4A4A4A4A4A4A4A4A4A4A4A4A4A4A4A4A4A4A4A4A4A4A4A4A4A4A4A4A4A4A4A4A4A4A4A4A4A4A4A4A4A4A4A4A4A4A4A4A4A4A4A4A4A4A4A4A4A4A4A4A4A4A4A4A4A4A4A4A4A4A4A4A4
310
A4A4A4A4A4A4A4A4A4A4A4A4A4A4A4A4A4A4A4A4A4A4A4A4A4A4A4A4A4A4A4A4A4A4A4A4A4A4A4A4A4A4A4A4A4A4A4A4A4A4A4A4A4A4A4A4A4A4A4A4A4A4A4A4A4A4A4A4A4A4A4A4A4A4A4A4A4A4A4A4A4A4A4A4A4A4A4A4A4A4A4A4A4A4A4A4A4A4A4A4A4A4A4A4A4A4A4A4A4A4A4A4A4A4A4A4A4A4A4A4A4A4A4A4A4A4A4
310
A4A4A4A4A4A4A4A4A4A4A4A4A4A4A4A4A4A4A4A4A4A4A4A4A4A4A4A4A4A4A4A4A4A4A4A4A4A4A4A4A4A4A4A4A4A4A4A4A4A4A4A4A4A4A4A4A4A4A4A4A4A4A4A4A4A4A4A4A4A4A4A4A4A4A4A4A4A4A4A4A4A4A4A4A4A4A4A4A4A4A4A4A4A4A4A4A4A4A4A4A4A4A4A4A4A4A4A4A4A4A4A4A4A4A4A4F9F9F9F9F9F9F9F9F9F9F9
310
F9F9F9F9F9F9F9F9F9F9F9F9F9F9F9F9F9F9F9A4A4F9F9F9F9F9F9F9F9F9F9F9F9F9F9F9F9F9F9F9F9F9F9F9F9F9F9F9F9F9F9A4A4F9F9F9F9F9F9F9F9F9F9F9F9F9F9F9F9F9F9F9F9F9F9F9F9F9F9F9F9F9F9A4A4F9A4A4A4A4A4A4A4A4A4A4A4A4A4A4A4A4A4A4A4A4A4A4A4A4A4A4A4A4F9A4A4A4A4A4A4A4A4A4A4A4A4
310
A4A4A4A4A4A4A4A4A4A4A4A4A4A4A4A4A4A4A4A4A4A4A4A4A4A4A4A4A4A4A4A4A4A4A4A4A4A4A4A4A4A4A4A4A4A4A4A4A4A4A4A4A4A4A4A4A4A4A4A4A4A4A4A4A4A4A4A4A4A4A4A4A4A4A4A4A4A4A4A4A4A4A4A4A4A4A4A4A4A4A4A4A4A4A4A4A4A4A4A4A4A4A4A4A4A4A4A4A4A4A4A4A4A4A4A4A4A4A4A4A4A4A4A4A4A4A4
310
A4A4A4A4A4A4A4A4A4A4A4A4A4A4A4A4A4A4A4A4A4A4A4A4A4A4A4A4A4A4A4A4A4A4A4A4A4A4A4A4A4A4A4A4A4A4A4A4A4A4A4A4A4A4A4A4A4A4A4A4A4A4A4A4A4A4A4A4A4A4A4A4A4A4A4A4A4A4A4A4A4A4A4A4A4A4A4A4A4A4A4A4A4A4A4A4A4A4A4A4A4A4A4A4A4A4A4A4A4A4A4A4A4A4A4A4A4A4A4A4A4A4A4A4A4A4A4
310
A4A4A4A4A4A4A4A4A4A4A4A4A4A4A4A4A4A4A4A4A4A4A4A4A4A4A4A4A4A4A4A4A4A4A4A4A4A4A4A4A4A4A4A4A4A4A4A4A4A4A4A4A4A4A4A4A4A4A4A4A4A4A4A4A4A4A4A4A4A4A4A4A4A4A4A4A4A4A4A4A4A4A4A4A4A4A4A4A4A4A4A4A4A4A4A4A4A4A4A4A4A4A4A4A4A4A4A4A4A4A4A4A4A4A4A4A4A4A4A4A4A4A4A4A4A4A4
310
A4A4A4A4A4A4A4A4A4A4A4A4A4A4A4A4A4A4A4A4A4A4A4A4A4A4A4A4A4A4A4A4A4A4A4A4A4A4A4A4A4A4A4A4A4A4A4A4A4A4A4A4A4A4A4A4
1001
ACAD
1000
DesignCenter Data
1002
{
1070
     1
1070
     4
1002
}
  0
BLOCK_RECORD
  5
AA8
330
1
100
AcDbSymbolTableRecord
100
AcDbBlockTableRecord
  2
_CLOSED
340
0
  0
BLOCK_RECORD
  5
B79
330
1
100
AcDbSymbolTableRecord
100
AcDbBlockTableRecord
  2
nota revisoes
340
0
1001
ACAD
1000
DesignCenter Data
1002
{
1070
     1
1070
     4
1002
}
  0
BLOCK_RECORD
  5
B8E
330
1
100
AcDbSymbolTableRecord
100
AcDbBlockTableRecord
  2
a3l
340
0
1001
ACAD
1000
DesignCenter Data
1002
{
1070
     1
1070
     4
1002
}
  0
BLOCK_RECORD
  5
B9E
330
1
100
AcDbSymbolTableRecord
100
AcDbBlockTableRecord
  2
legenda desenvolvimento
340
0
1001
ACAD
1000
DesignCenter Data
1002
{
1070
     1
1070
     4
1002
}
  0
ENDTAB
  0
ENDSEC
  0
SECTION
  2
BLOCKS
  0
BLOCK
  5
20
330
1F
100
AcDbEntity
  8
0
100
AcDbBlockBegin
  2
*Model_Space
 70
     0
 10
0.0
 20
0.0
 30
0.0
  3
*Model_Space
  1

  0
ENDBLK
  5
21
330
1F
100
AcDbEntity
  8
0
100
AcDbBlockEnd
  0
BLOCK
  5
1C
330
1B
100
AcDbEntity
 67
     1
  8
0
100
AcDbBlockBegin
  2
*Paper_Space
 70
     0
 10
0.0
 20
0.0
 30
0.0
  3
*Paper_Space
  1

  0
ENDBLK
  5
1D
330
1B
100
AcDbEntity
 67
     1
  8
0
100
AcDbBlockEnd
  0
BLOCK
  5
24
330
23
100
AcDbEntity
 67
     1
  8
0
100
AcDbBlockBegin
  2
*Paper_Space0
 70
     0
 10
0.0
 20
0.0
 30
0.0
  3
*Paper_Space0
  1

  0
ENDBLK
  5
25
330
23
100
AcDbEntity
 67
     1
  8
0
100
AcDbBlockEnd
  0
BLOCK
  5
91B
330
919
100
AcDbEntity
  8
0
100
AcDbBlockBegin
  2
_DotSmall
 70
     0
 10
0.0
 20
0.0
 30
0.0
  3
_DotSmall
  1

  0
LWPOLYLINE
  5
91A
330
919
100
AcDbEntity
  8
0
  6
ByBlock
 62
     0
100
AcDbPolyline
 90
        2
 70
     1
 43
0.5
 10
-0.0625
 20
0.0
 42
1.0
 10
0.0625
 20
0.0
 42
1.0
  0
ENDBLK
  5
91C
330
919
100
AcDbEntity
  8
0
100
AcDbBlockEnd
  0
BLOCK
  5
92A
330
922
100
AcDbEntity
  8
0
100
AcDbBlockBegin
  2
base para cotas
 70
     0
 10
0.0
 20
0.0
 30
0.0
  3
base para cotas
  1

  0
LINE
  5
B36
330
922
100
AcDbEntity
  8
cotas
100
AcDbLine
 10
0.0
 20
-30.0
 30
0.0
 11
327.1260136525398
 21
-30.0
 31
0.0
  0
LINE
  5
B37
330
922
100
AcDbEntity
  8
cotas
100
AcDbLine
 10
0.0
 20
-25.0
 30
0.0
 11
327.1260136525398
 21
-25.0
 31
0.0
  0
LINE
  5
B38
330
922
100
AcDbEntity
  8
cotas
100
AcDbLine
 10
0.0
 20
-20.0
 30
0.0
 11
327.1260136525398
 21
-20.0
 31
0.0
  0
LINE
  5
B39
330
922
100
AcDbEntity
  8
cotas
100
AcDbLine
 10
0.0
 20
-15.0
 30
0.0
 11
327.1260136525398
 21
-15.0
 31
0.0
  0
LINE
  5
B3A
330
922
100
AcDbEntity
  8
cotas
100
AcDbLine
 10
0.0
 20
-10.0
 30
0.0
 11
327.1260136525398
 21
-10.0
 31
0.0
  0
LINE
  5
B3B
330
922
100
AcDbEntity
  8
cotas
100
AcDbLine
 10
0.0
 20
0.0
 30
0.0
 11
0.0
 21
-30.0
 31
0.0
  0
LINE
  5
B3C
330
922
100
AcDbEntity
  8
cotas
100
AcDbLine
 10
327.1260136525398
 20
-30.0
 30
0.0
 11
327.1260136525398
 21
0.0
 31
0.0
  0
ENDBLK
  5
92B
330
922
100
AcDbEntity
  8
0
100
AcDbBlockEnd
  0
BLOCK
  5
AAD
330
AA8
100
AcDbEntity
  8
0
100
AcDbBlockBegin
  2
_CLOSED
 70
     0
 10
0.0
 20
0.0
 30
0.0
  3
_CLOSED
  1

  0
LINE
  5
AA9
330
AA8
100
AcDbEntity
  8
0
100
AcDbLine
 10
-1.0
 20
0.166667
 30
0.0
 11
0.0
 21
0.0
 31
0.0
  0
LINE
  5
AAA
330
AA8
100
AcDbEntity
  8
0
100
AcDbLine
 10
0.0
 20
0.0
 30
0.0
 11
-1.0
 21
-0.166667
 31
0.0
  0
LINE
  5
AAB
330
AA8
100
AcDbEntity
  8
0
100
AcDbLine
 10
-1.0
 20
0.166667
 30
0.0
 11
-1.0
 21
-0.166667
 31
0.0
  0
LINE
  5
AAC
330
AA8
100
AcDbEntity
  8
0
100
AcDbLine
 10
0.0
 20
0.0
 30
0.0
 11
-1.0
 21
0.0
 31
0.0
  0
ENDBLK
  5
AAE
330
AA8
100
AcDbEntity
  8
0
100
AcDbBlockEnd
  0
BLOCK
  5
B7C
330
B79
100
AcDbEntity
  8
0
100
AcDbBlockBegin
  2
nota revisoes
 70
     0
 10
0.0
 20
0.0
 30
0.0
  3
nota revisoes
  1

  0
CIRCLE
  5
B7A
330
B79
100
AcDbEntity
  8
4
100
AcDbCircle
 10
0.0
 20
0.0
 30
0.0
 40
13.69426055101189
  0
TEXT
  5
B7B
330
B79
100
AcDbEntity
  8
4
100
AcDbText
 10
-5.496248358154345
 20
-5.354545554066362
 30
0.0
 40
12.0
  1
1
  7
SANINDUSA
 72
     1
 11
-0.249774214433728
 21
-5.354545554066362
 31
0.0
100
AcDbText
  0
ENDBLK
  5
B7D
330
B79
100
AcDbEntity
  8
0
100
AcDbBlockEnd
  0
BLOCK
  5
B9C
330
B8E
100
AcDbEntity
  8
0
100
AcDbBlockBegin
  2
a3l
 70
     0
 10
0.0
 20
0.0
 30
0.0
  3
a3l
  1

  0
LINE
  5
B8F
330
B8E
100
AcDbEntity
  8
1
100
AcDbLine
 10
-364.2925296599447
 20
-362.1188951399395
 30
0.0
 11
-364.2925296599447
 21
-65.11889513993946
 31
0.0
  0
LINE
  5
B90
330
B8E
100
AcDbEntity
  8
4
100
AcDbLine
 10
-369.2925296599447
 20
-357.1188951399395
 30
0.0
 11
-369.2925296599447
 21
-70.11889513993946
 31
0.0
  0
LINE
  5
B91
330
B8E
100
AcDbEntity
  8
1
100
AcDbLine
 10
-784.2925296599446
 20
-65.11889513993946
 30
0.0
 11
-784.2925296599446
 21
-362.1188951399395
 31
0.0
  0
LINE
  5
B92
330
B8E
100
AcDbEntity
  8
4
100
AcDbLine
 10
-759.2925296599446
 20
-357.1188951399395
 30
0.0
 11
-759.2925296599446
 21
-70.11889513993946
 31
0.0
  0
LINE
  5
B93
330
B8E
100
AcDbEntity
  8
1
100
AcDbLine
 10
-784.2925296599446
 20
-362.1188951399395
 30
0.0
 11
-364.2925296599447
 21
-362.1188951399395
 31
0.0
  0
LINE
  5
B94
330
B8E
100
AcDbEntity
  8
4
100
AcDbLine
 10
-759.2925296599446
 20
-357.1188951399395
 30
0.0
 11
-369.2925296599447
 21
-357.1188951399395
 31
0.0
  0
LINE
  5
B95
330
B8E
100
AcDbEntity
  8
1
100
AcDbLine
 10
-654.2925296599446
 20
-357.1188951399395
 30
0.0
 11
-654.2925296599446
 21
-362.1188951399395
 31
0.0
  0
LINE
  5
B96
330
B8E
100
AcDbEntity
  8
1
100
AcDbLine
 10
-364.2925296599447
 20
-65.11889513993946
 30
0.0
 11
-784.2925296599446
 21
-65.11889513993946
 31
0.0
  0
LINE
  5
B97
330
B8E
100
AcDbEntity
  8
4
100
AcDbLine
 10
-369.2925296599447
 20
-70.11889513993946
 30
0.0
 11
-759.2925296599446
 21
-70.11889513993946
 31
0.0
  0
LINE
  5
B98
330
B8E
100
AcDbEntity
  8
1
100
AcDbLine
 10
-654.2925296599446
 20
-65.11889513993946
 30
0.0
 11
-654.2925296599446
 21
-70.11889513993946
 31
0.0
  0
LINE
  5
B99
330
B8E
100
AcDbEntity
  8
1
100
AcDbLine
 10
-549.2925296599446
 20
-70.11889513993946
 30
0.0
 11
-549.2925296599446
 21
-65.11889513993946
 31
0.0
  0
LINE
  5
B9A
330
B8E
100
AcDbEntity
  8
1
100
AcDbLine
 10
-369.2925296599447
 20
-65.11889513993946
 30
0.0
 11
-364.2925296599447
 21
-65.11889513993946
 31
0.0
  0
LINE
  5
B9B
330
B8E
100
AcDbEntity
  8
1
100
AcDbLine
 10
-549.2925296599446
 20
-357.1188951399395
 30
0.0
 11
-549.2925296599446
 21
-362.1188951399395
 31
0.0
  0
ENDBLK
  5
B9D
330
B8E
100
AcDbEntity
  8
0
100
AcDbBlockEnd
  0
BLOCK
  5
C13
330
B9E
100
AcDbEntity
  8
0
100
AcDbBlockBegin
  2
legenda desenvolvimento
 70
     2
 10
0.0
 20
0.0
 30
0.0
  3
legenda desenvolvimento
  1

  0
ATTDEF
  5
B9F
330
B9E
100
AcDbEntity
  8
1
100
AcDbText
 10
-108.606245802552
 20
55.5
 30
0.0
 40
4.0
  1
XXXXXXXXXXXXXX
 41
0.8
  7
SANINDUSA
 72
     4
 11
-87.5
 21
57.5
 31
0.0
100
AcDbAttributeDefinition
  3
Nome do Produto:
  2
PRODUTO
 70
     0
  0
ATTDEF
  5
BA0
330
B9E
100
AcDbEntity
  8
1
100
AcDbText
 10
-97.9997966101695
 20
41.25
 30
0.0
 40
3.0
  1
XXXXXXXXX
 41
0.8
  7
futura
 72
     4
 11
-87.5
 21
42.75
 31
0.0
100
AcDbAttributeDefinition
  3
Nome da Peça:
  2
PECA
 70
     0
  0
ATTDEF
  5
BA1
330
B9E
100
AcDbEntity
  8
1
100
AcDbText
 10
-133.4422431161853
 20
21.11745296763252
 30
0.0
 40
2.5
  1
X
 41
0.8
  7
SANINDUSA
 72
     4
 11
-132.5
 21
22.36745296763252
 31
0.0
100
AcDbAttributeDefinition
  3
Cod. TESTE:
  2
TESTE
 70
     0
  0
ATTDEF
  5
BA2
330
B9E
100
AcDbEntity
  8
1
100
AcDbText
 10
-124.3844862323707
 20
21.11745296763252
 30
0.0
 40
2.5
  1
XX
 41
0.8
  7
SANINDUSA
 72
     4
 11
-122.5
 21
22.36745296763252
 31
0.0
100
AcDbAttributeDefinition
  3
Cod. Ano:
  2
ANO
 70
     0
  0
ATTDEF
  5
BA3
330
B9E
100
AcDbEntity
  8
1
100
AcDbText
 10
-112.526889953052
 20
21.11745296763252
 30
0.0
 40
2.5
  1
XXX
 41
0.8
  7
SANINDUSA
 72
     4
 11
-109.700160604496
 21
22.36745296763252
 31
0.0
100
AcDbAttributeDefinition
  3
Cod. Sequência:
  2
SEQUENCIA
 70
     0
  0
ATTDEF
  5
BA4
330
B9E
100
AcDbEntity
  8
1
100
AcDbText
 10
-99.35382430979316
 20
21.11745296763252
 30
0.0
 40
2.5
  1
XX
 41
0.8
  7
SANINDUSA
 72
     4
 11
-97.46933807742244
 21
22.36745296763252
 31
0.0
100
AcDbAttributeDefinition
  3
Cod. Tipo:
  2
TIPO
 70
     0
  0
ATTDEF
  5
BA5
330
B9E
100
AcDbEntity
  8
1
100
AcDbText
 10
-87.42035911468438
 20
21.11745296763252
 30
0.0
 40
2.5
  1
XXX
 41
0.8
  7
SANINDUSA
 72
     4
 11
-84.59362976612828
 21
22.36745296763252
 31
0.0
100
AcDbAttributeDefinition
  3
Cod. Produto:
  2
PRODUTO
 70
     0
  0
ATTDEF
  5
BA6
330
B9E
100
AcDbEntity
  8
1
100
AcDbText
 10
-74.62051971917853
 20
21.11745296763252
 30
0.0
 40
2.5
  1
XXX
 41
0.8
  7
SANINDUSA
 72
     4
 11
-71.79379037062244
 21
22.36745296763252
 31
0.0
100
AcDbAttributeDefinition
  3
Cod. Peça:
  2
PECA
 70
     0
  0
ATTDEF
  5
BA7
330
B9E
100
AcDbEntity
  8
1
100
AcDbText
 10
-61.10603446650329
 20
21.11745296763252
 30
0.0
 40
2.5
  1
XX
 41
0.8
  7
SANINDUSA
 72
     4
 11
-59.22154823413257
 21
22.36745296763252
 31
0.0
100
AcDbAttributeDefinition
  3
Cod. Revisão:
  2
REV
 70
     0
  0
ATTDEF
  5
BA8
330
B9E
100
AcDbEntity
  8
1
100
AcDbText
 10
-48.43615325006194
 20
21.11745296763252
 30
0.0
 40
2.5
  1
XX
 41
0.8
  7
SANINDUSA
 72
     4
 11
-46.55166701769121
 21
22.36745296763252
 31
0.0
100
AcDbAttributeDefinition
  3
Cod. Alteração:
  2
ALT
 70
     0
  0
ATTDEF
  5
BA9
330
B9E
100
AcDbEntity
  8
1
100
AcDbText
 10
-35.19086635325722
 20
23.98875083948959
 30
0.0
 40
3.0
  1
1/XXX
 41
0.8
  7
SANINDUSA
 72
     4
 11
-30.0
 21
25.25
 31
0.0
100
AcDbAttributeDefinition
  3
Escala geral:
  2
ESCALA
 70
     0
  0
ATTDEF
  5
BAA
330
B9E
100
AcDbEntity
  8
1
100
AcDbText
 10
-15.65345869711215
 20
23.75
 30
0.0
 40
3.0
  1
XXXXX
 41
0.8
  7
SANINDUSA
 72
     4
 11
-10.0
 21
25.25
 31
0.0
100
AcDbAttributeDefinition
  3
Folha:
  2
FOLHA
 70
     0
  0
ATTDEF
  5
BAB
330
B9E
100
AcDbEntity
  8
1
100
AcDbText
 10
-178.5146998822042
 20
56.9531347542807
 30
0.0
 40
2.0
  1
xx
 41
0.8
  7
SANINDUSA
 72
     4
 11
-177.2123493113513
 21
57.70330265219877
 31
0.0
100
AcDbAttributeDefinition
  3
revisão
  2
REV.
 70
     0
  0
ATTDEF
  5
BAC
330
B9E
100
AcDbEntity
  8
1
100
AcDbText
 10
-172.7849640077129
 20
56.9531347542807
 30
0.0
 40
2.0
  1
xx
 41
0.8
  7
SANINDUSA
 72
     4
 11
-171.48261343686
 21
57.70330265219877
 31
0.0
100
AcDbAttributeDefinition
  3
alteração
  2
ALT.
 70
     0
  0
ATTDEF
  5
BAD
330
B9E
100
AcDbEntity
  8
1
100
AcDbText
 10
-168.007199951307
 20
56.70330265219877
 30
0.0
 40
2.0
  1
xx/xx/xxxx
 41
0.8
  7
SANINDUSA
 11
-168.007199951307
 21
57.70330265219877
 31
0.0
100
AcDbAttributeDefinition
  3
data
  2
DATA
 70
     0
 74
     2
  0
ATTDEF
  5
BAE
330
B9E
100
AcDbEntity
  8
1
100
AcDbText
 10
-168.5396372253371
 20
13.15916722632639
 30
0.0
 40
2.0
  1
XX/XX/XXXX
 41
0.8
  7
SANINDUSA
 72
     4
 11
-161.5099528734231
 21
14.0
 31
0.0
100
AcDbAttributeDefinition
  3
Data projecto
  2
DATA_PROJ
 70
     0
  0
ATTDEF
  5
BAF
330
B9E
100
AcDbEntity
  8
1
100
AcDbText
 10
-150.8658110728766
 20
13.24983210208193
 30
0.0
 40
2.0
  1
xxxxxxxx
 41
0.8
  7
SANINDUSA
 72
     4
 11
-145.6564087894649
 21
14.0
 31
0.0
100
AcDbAttributeDefinition
  3
nome de quem projectou
  2
NOME
 70
     0
  0
ATTDEF
  5
BB0
330
B9E
100
AcDbEntity
  8
1
100
AcDbText
 10
-168.5396372253371
 20
9.159167226326394
 30
0.0
 40
2.0
  1
XX/XX/XXXX
 41
0.8
  7
SANINDUSA
 72
     4
 11
-161.5099528734231
 21
10.0
 31
0.0
100
AcDbAttributeDefinition
  3
Data desenhou
  2
DATA_DES
 70
     0
  0
ATTDEF
  5
BB1
330
B9E
100
AcDbEntity
  8
1
100
AcDbText
 10
-151.516986358303
 20
9.249832102081933
 30
0.0
 40
2.0
  1
xxxxxxxxx
 41
0.8
  7
SANINDUSA
 72
     4
 11
-145.6564087894649
 21
10.0
 31
0.0
100
AcDbAttributeDefinition
  3
nome
  2
NOME
 70
     0
  0
ATTDEF
  5
BB2
330
B9E
100
AcDbEntity
  8
1
100
AcDbText
 10
-127.2924214135946
 20
14.1979876583216
 30
0.0
 40
2.0
  1
Vitreous China
 41
0.8
  7
SANINDUSA
 72
     4
 11
-119.231709526422
 21
15.22216495852308
 31
0.0
100
AcDbAttributeDefinition
  3
Nome do Material:
  2
MATERIAL
 70
     0
  0
ATTDEF
  5
BB3
330
B9E
100
AcDbEntity
  8
1
100
AcDbText
 10
-103.1563452122093
 20
14.38019043949261
 30
0.0
 40
2.0
  1
Branco
 41
0.8
  7
SANINDUSA
 72
     4
 11
-99.33418268702462
 21
15.35937109765245
 31
0.0
100
AcDbAttributeDefinition
  3
cor da peça
  2
COR
 70
     0
  0
ATTDEF
  5
BB4
330
B9E
100
AcDbEntity
  8
1
100
AcDbText
 10
-116.7235057085292
 20
5.975822699798522
 30
0.0
 40
2.0
  1
Vidrado
 41
0.8
  7
SANINDUSA
 72
     4
 11
-112.5
 21
7.0
 31
0.0
100
AcDbAttributeDefinition
  3
Tipo de acabamento:
  2
ACABAMENTO
 70
     0
  0
ATTDEF
  5
BB5
330
B9E
100
AcDbEntity
  8
1
100
AcDbText
 10
-79.18527869967246
 20
16.65066409850533
 30
0.0
 40
2.0
  1
XXXXXXX
 41
0.8
  7
SANINDUSA
 72
     4
 11
-73.90871724903445
 21
17.65066409850533
 31
0.0
100
AcDbAttributeDefinition
  3
Normas
  2
NORMAS
 70
     0
  0
ATTDEF
  5
BB6
330
B9E
100
AcDbEntity
  8
1
100
AcDbText
 10
-30.55312290127603
 20
14.0
 30
0.0
 40
2.0
  1
XXXXXXXXXXXXXX
 41
0.8
  7
SANINDUSA
 72
     4
 11
-20.0
 21
15.0
 31
0.0
100
AcDbAttributeDefinition
  3
Substitui o desenho:
  2
SUBSTITUI
 70
     0
  0
ATTDEF
  5
BB7
330
B9E
100
AcDbEntity
  8
1
100
AcDbText
 10
-31.30691739422431
 20
6.0
 30
0.0
 40
2.0
  1
XXXXXXXXXXXXXXX
 41
0.8
  7
SANINDUSA
 72
     4
 11
-20.0
 21
7.0
 31
0.0
100
AcDbAttributeDefinition
  3
Substituido por:
  2
SUBSTITUIDO
 70
     0
  0
ATTDEF
  5
BB8
330
B9E
100
AcDbEntity
  8
1
100
AcDbText
 10
-110.0220608548302
 20
1.478208457928303
 30
0.0
 40
2.0
  1
XXXXXXXXXXXXXXXXXXXXXXXXXXXXXXXXXX
 41
0.8
  7
SANINDUSA
 11
-110.0220608548302
 21
2.478208457928303
 31
0.0
100
AcDbAttributeDefinition
  3
Localização do desenho:
  2
LOC-DWG
 70
     0
 74
     2
  0
LINE
  5
BB9
330
B9E
100
AcDbEntity
  8
3
100
AcDbLine
 10
-135.0
 20
4.0
 30
0.0
 11
0.0000000000004547
 21
4.0
 31
0.0
  0
LINE
  5
BBA
330
B9E
100
AcDbEntity
  8
3
100
AcDbLine
 10
-90.00000000000046
 20
12.0
 30
0.0
 11
-135.0
 21
12.0
 31
0.0
  0
LINE
  5
BBB
330
B9E
100
AcDbEntity
  8
3
100
AcDbLine
 10
-135.0
 20
32.5
 30
0.0
 11
-40.0
 21
32.5
 31
0.0
  0
TEXT
  5
BBC
330
B9E
100
AcDbEntity
  8
1
100
AcDbText
 10
-134.0
 20
1.25
 30
0.0
 40
2.0
  1
Localização do des.:
 41
0.8
  7
SANINDUSA
 11
-134.0
 21
2.25
 31
0.0
100
AcDbText
 73
     2
  0
LINE
  5
BBD
330
B9E
100
AcDbEntity
  8
3
100
AcDbLine
 10
-180.0
 20
65.0
 30
0.0
 11
0.0
 21
65.0
 31
0.0
  0
LINE
  5
BBE
330
B9E
100
AcDbEntity
  8
leg fin
100
AcDbLine
 10
-40.0
 20
25.05956924886846
 30
0.0
 11
-135.0
 21
25.05956924886846
 31
0.0
  0
LINE
  5
BBF
330
B9E
100
AcDbEntity
  8
leg fin
100
AcDbLine
 10
-40.0
 20
28.5
 30
0.0
 11
-135.0
 21
28.5
 31
0.0
  0
LINE
  5
BC0
330
B9E
100
AcDbEntity
  8
3
100
AcDbLine
 10
-135.0
 20
50.0
 30
0.0
 11
-40.0
 21
50.0
 31
0.0
  0
TEXT
  5
BC1
330
B9E
100
AcDbEntity
  8
1
100
AcDbText
 10
-134.0
 20
29.75
 30
0.0
 40
2.0
  1
Desenho nº:
 41
0.8
  7
SANINDUSA
 11
-134.0
 21
30.75
 31
0.0
100
AcDbText
 73
     2
  0
TEXT
  5
BC2
330
B9E
100
AcDbEntity
  8
1
100
AcDbText
 10
-134.0
 20
9.25
 30
0.0
 40
2.0
  1
Acabamento:
 41
0.8
  7
SANINDUSA
 11
-134.0
 21
10.25
 31
0.0
100
AcDbText
 73
     2
  0
LINE
  5
BC3
330
B9E
100
AcDbEntity
  8
3
100
AcDbLine
 10
-180.0
 20
20.0
 30
0.0
 11
0.0
 21
20.0
 31
0.0
  0
LINE
  5
BC4
330
B9E
100
AcDbEntity
  8
1
100
AcDbLine
 10
-174.5810776056337
 20
55.5
 30
0.0
 11
-174.5810776056337
 21
65.0
 31
0.0
  0
LINE
  5
BC5
330
B9E
100
AcDbEntity
  8
1
100
AcDbLine
 10
-168.9210461879161
 20
55.5
 30
0.0
 11
-168.9210461879161
 21
65.0
 31
0.0
  0
LINE
  5
BC6
330
B9E
100
AcDbEntity
  8
1
100
AcDbLine
 10
-154.0988595589306
 20
55.5
 30
0.0
 11
-154.0988595589306
 21
65.0
 31
0.0
  0
LINE
  5
BC7
330
B9E
100
AcDbEntity
  8
3
100
AcDbLine
 10
-180.0
 20
65.0
 30
0.0
 11
-180.0
 21
0.0
 31
0.0
  0
LINE
  5
BC8
330
B9E
100
AcDbEntity
  8
3
100
AcDbLine
 10
-135.0
 20
0.0
 30
0.0
 11
-135.0
 21
65.0
 31
0.0
  0
TEXT
  5
BC9
330
B9E
100
AcDbEntity
  8
1
100
AcDbText
 10
-179.0
 20
9.75
 30
0.0
 40
1.5
  1
Des.
 41
0.8
  7
SANINDUSA
 11
-179.0
 21
10.5
 31
0.0
100
AcDbText
 73
     2
  0
LINE
  5
BCA
330
B9E
100
AcDbEntity
  8
1
100
AcDbLine
 10
-168.9210461879161
 20
20.0
 30
0.0
 11
-168.9210461879161
 21
0.0
 31
0.0
  0
LINE
  5
BCB
330
B9E
100
AcDbEntity
  8
1
100
AcDbLine
 10
-154.0988595589306
 20
20.0
 30
0.0
 11
-154.0988595589306
 21
0.0
 31
0.0
  0
LINE
  5
BCC
330
B9E
100
AcDbEntity
  8
1
100
AcDbLine
 10
-180.0
 20
4.0
 30
0.0
 11
-135.0
 21
4.0
 31
0.0
  0
LINE
  5
BCD
330
B9E
100
AcDbEntity
  8
1
100
AcDbLine
 10
-180.0
 20
8.0
 30
0.0
 11
-135.0
 21
8.0
 31
0.0
  0
TEXT
  5
BCE
330
B9E
100
AcDbEntity
  8
1
100
AcDbText
 10
-179.0
 20
1.73257823687436
 30
0.0
 40
1.5
  1
Aprov.
 41
0.8
  7
SANINDUSA
 11
-179.0
 21
2.48257823687436
 31
0.0
100
AcDbText
 73
     2
  0
TEXT
  5
BCF
330
B9E
100
AcDbEntity
  8
1
100
AcDbText
 10
-179.0
 20
5.75
 30
0.0
 40
1.5
  1
Ver.
 41
0.8
  7
SANINDUSA
 11
-179.0
 21
6.5
 31
0.0
100
AcDbText
 73
     2
  0
LINE
  5
BD0
330
B9E
100
AcDbEntity
  8
1
100
AcDbLine
 10
-180.0
 20
16.0
 30
0.0
 11
-135.0
 21
16.0
 31
0.0
  0
LINE
  5
BD1
330
B9E
100
AcDbEntity
  8
1
100
AcDbLine
 10
-180.0
 20
12.0
 30
0.0
 11
-135.0
 21
12.0
 31
0.0
  0
TEXT
  5
BD2
330
B9E
100
AcDbEntity
  8
1
100
AcDbText
 10
-179.0
 20
13.75
 30
0.0
 40
1.5
  1
Proj.
 41
0.8
  7
SANINDUSA
 11
-179.0
 21
14.5
 31
0.0
100
AcDbText
 73
     2
  0
TEXT
  5
BD3
330
B9E
100
AcDbEntity
  8
1
100
AcDbText
 10
-167.9210461879161
 20
17.75
 30
0.0
 40
1.5
  1
Data
 41
0.8
  7
SANINDUSA
 11
-167.9210461879161
 21
18.5
 31
0.0
100
AcDbText
 73
     2
  0
TEXT
  5
BD4
330
B9E
100
AcDbEntity
  8
1
100
AcDbText
 10
-153.0988595589306
 20
17.75
 30
0.0
 40
1.5
  1
Nome
 41
0.8
  7
SANINDUSA
 11
-153.0988595589306
 21
18.5
 31
0.0
100
AcDbText
 73
     2
  0
LINE
  5
BD5
330
B9E
100
AcDbEntity
  8
leg fin
100
AcDbLine
 10
-130.0
 20
20.0
 30
0.0
 11
-130.0
 21
28.5
 31
0.0
  0
TEXT
  5
BD6
330
B9E
100
AcDbEntity
  8
1
100
AcDbText
 10
-134.0
 20
17.25
 30
0.0
 40
2.0
  1
Material:
 41
0.8
  7
SANINDUSA
 11
-134.0
 21
18.25
 31
0.0
100
AcDbText
 73
     2
  0
TEXT
  5
BD7
330
B9E
100
AcDbEntity
  8
1
100
AcDbText
 10
-129.0
 20
26.43288406845113
 30
0.0
 40
1.5
  1
Ano:
 41
0.8
  7
SANINDUSA
 11
-129.0
 21
27.18288406845113
 31
0.0
100
AcDbText
 73
     2
  0
LINE
  5
BD8
330
B9E
100
AcDbEntity
  8
1
100
AcDbLine
 10
-180.0
 20
55.5
 30
0.0
 11
-135.0
 21
55.5
 31
0.0
  0
TEXT
  5
BD9
330
B9E
100
AcDbEntity
  8
1
100
AcDbText
 10
-179.0
 20
52.67772246885193
 30
0.0
 40
1.5
  1
descrição
 41
0.8
  7
SANINDUSA
 11
-179.0
 21
53.42772246885193
 31
0.0
100
AcDbText
 73
     2
  0
TEXT
  5
BDA
330
B9E
100
AcDbEntity
  8
1
100
AcDbText
 10
-134.0
 20
47.25
 30
0.0
 40
2.0
  1
Peça:
 41
0.8
  7
SANINDUSA
 11
-134.0
 21
48.25
 31
0.0
100
AcDbText
 73
     2
  0
LINE
  5
BDB
330
B9E
100
AcDbEntity
  8
1
100
AcDbLine
 10
-180.0
 20
59.5
 30
0.0
 11
-135.0
 21
59.5
 31
0.0
  0
TEXT
  5
BDC
330
B9E
100
AcDbEntity
  8
1
100
AcDbText
 10
-173.5810776056337
 20
62.75
 30
0.0
 40
1.5
  1
Alt.
 41
0.8
  7
SANINDUSA
 11
-173.5810776056337
 21
63.5
 31
0.0
100
AcDbText
 73
     2
  0
TEXT
  5
BDD
330
B9E
100
AcDbEntity
  8
1
100
AcDbText
 10
-179.0
 20
62.75
 30
0.0
 40
1.5
  1
Rev.
 41
0.8
  7
SANINDUSA
 11
-179.0
 21
63.5
 31
0.0
100
AcDbText
 73
     2
  0
TEXT
  5
BDE
330
B9E
100
AcDbEntity
  8
1
100
AcDbText
 10
-167.9210461879161
 20
62.75
 30
0.0
 40
1.5
  1
Data
 41
0.8
  7
SANINDUSA
 11
-167.9210461879161
 21
63.5
 31
0.0
100
AcDbText
 73
     2
  0
TEXT
  5
BDF
330
B9E
100
AcDbEntity
  8
1
100
AcDbText
 10
-153.0988595589306
 20
62.75
 30
0.0
 40
1.5
  1
Nome
 41
0.8
  7
SANINDUSA
 11
-153.0988595589306
 21
63.5
 31
0.0
100
AcDbText
 73
     2
  0
TEXT
  5
BE0
330
B9E
100
AcDbEntity
  8
1
100
AcDbText
 10
-134.0
 20
62.25
 30
0.0
 40
2.0
  1
Produto:
 41
0.8
  7
SANINDUSA
 11
-134.0
 21
63.25
 31
0.0
100
AcDbText
 73
     2
  0
LINE
  5
BE1
330
B9E
100
AcDbEntity
  8
3
100
AcDbLine
 10
-40.0
 20
4.0
 30
0.0
 11
-40.0
 21
65.0
 31
0.0
  0
LWPOLYLINE
  5
BE2
102
{ACAD_REACTORS
330
BEC
102
}
330
B9E
100
AcDbEntity
  8
9
100
AcDbPolyline
 90
       12
 70
     1
 43
0.0
 10
-3.038714600644652
 20
58.90010174665076
 10
-5.726962862472191
 20
58.90010174665076
 10
-5.726962862472191
 20
58.5001017466509
 10
-3.038748516195028
 20
58.5001017466509
 42
-0.4142135623731731
 10
-2.638748516194482
 20
58.1001017466508
 10
-2.638748516194482
 20
57.42799728675596
 10
-5.21497371544865
 20
57.42799728675596
 42
0.4142135623731289
 10
-6.014973715448377
 20
56.627997286756
 10
-6.014973715448377
 20
55.92380871629643
 42
0.4142135623731132
 10
-5.21497371544865
 20
55.12380871629648
 10
-2.23871460064447
 20
55.12380871629648
 10
-2.23871460064447
 20
58.10010174665103
 42
0.4142135623730717
  0
LWPOLYLINE
  5
BE3
102
{ACAD_REACTORS
330
BEC
102
}
330
B9E
100
AcDbEntity
  8
9
100
AcDbPolyline
 90
       20
 70
     1
 43
0.0
 10
-10.01531287095122
 20
57.82799728675581
 10
-10.01531287095122
 20
58.10010174665103
 42
-0.4142135623730744
 10
-9.615312870951584
 20
58.5001017466509
 10
-6.92703069357276
 20
58.5001017466509
 10
-6.92703069357276
 20
58.90010174665076
 10
-9.615346786501959
 20
58.90010174665076
 42
0.4142135623730883
 10
-10.41534678650168
 20
58.1001017466508
 10
-10.41534678650168
 20
57.82796337120567
 42
0.4142135623730717
 10
-9.615346786501959
 20
57.02796337120571
 10
-7.423079531965413
 20
57.02796337120571
 42
-0.4142135623730847
 10
-7.023079531965322
 20
56.62796337120562
 10
-7.023079531965322
 20
55.90786840766487
 42
-0.4142135623730744
 10
-7.423079531965413
 20
55.507868407665
 10
-10.41534678650168
 20
55.507868407665
 10
-10.41534678650168
 20
55.12380871629648
 10
-7.445787917283723
 20
55.12380871629648
 42
0.4114777732064574
 10
-6.645822882998345
 20
55.9163291493976
 10
-6.639238813324936
 20
56.62051771985716
 42
0.4169546541682913
 10
-7.439203847610315
 20
57.42799728675596
 10
-9.615312870951584
 20
57.42799728675596
 42
-0.4142135623731576
  0
LWPOLYLINE
  5
BE4
102
{ACAD_REACTORS
330
BEC
102
}
330
B9E
100
AcDbEntity
  8
9
100
AcDbPolyline
 90
       12
 70
     1
 43
0.0
 10
-14.41561811090378
 20
58.90010174665076
 10
-14.79964388672215
 20
58.90010174665076
 10
-14.79964388672215
 20
55.92380871629643
 42
0.4142135623731133
 10
-13.99964388672242
 20
55.12380871629648
 10
-11.8233508563676
 20
55.12380871629648
 42
0.4142135623730872
 10
-11.02335085636741
 20
55.92380871629643
 10
-11.02335085636741
 20
58.90010174665076
 10
-11.42338477191788
 20
58.90010174665076
 10
-11.42338477191788
 20
55.91567577726095
 42
-0.4131711701795318
 10
-11.82196067063523
 20
55.51567831234956
 10
-14.0141940096214
 20
55.50787335710947
 42
-0.4152567234624407
 10
-14.41561811090378
 20
55.90787082202087
  0
LWPOLYLINE
  5
BE5
102
{ACAD_REACTORS
330
BEC
102
}
330
B9E
100
AcDbEntity
  8
9
100
AcDbPolyline
 90
        6
 70
     1
 43
0.0
 10
-15.80771578768872
 20
55.507868407665
 10
-18.39994912667453
 20
55.507868407665
 42
-0.4142135623731731
 10
-18.79994912667462
 20
55.90786840766487
 10
-18.79994912667462
 20
58.10010174665103
 42
-0.4142135623730744
 10
-18.39994912667453
 20
58.5001017466509
 10
-15.80771578768872
 20
58.5001017466509
  0
LWPOLYLINE
  5
BE6
102
{ACAD_REACTORS
330
BEC
102
}
330
B9E
100
AcDbEntity
  8
9
100
AcDbPolyline
 90
        8
 70
     1
 43
0.0
 10
-15.4236900118708
 20
59.87619128370352
 10
-15.80771578768872
 20
59.87619128370352
 10
-15.80771578768872
 20
58.90010174665076
 10
-18.39176256411201
 20
58.90010174665076
 42
0.4131164467977967
 10
-19.19175694739761
 20
58.1030995310698
 10
-19.1999120763262
 20
55.92680650071542
 42
0.4153115297271718
 10
-18.39991769304061
 20
55.12380871629648
 10
-15.4236900118708
 20
55.12380871629648
  0
LWPOLYLINE
  5
BE7
102
{ACAD_REACTORS
330
BEC
102
}
330
B9E
100
AcDbEntity
  8
9
100
AcDbPolyline
 90
       10
 70
     1
 43
0.0
 10
-20.59201288790928
 20
58.90010174665076
 10
-23.56830591826338
 20
58.90010174665076
 10
-23.56830591826338
 20
55.12380871629648
 10
-23.18424622689509
 20
55.12380871629648
 10
-23.18424622689509
 20
58.5001017466509
 10
-20.59204680345965
 20
58.5001017466509
 42
-0.4142135623730898
 10
-20.19204680345956
 20
58.1001017466508
 10
-20.19204680345956
 20
55.12380871629648
 10
-19.79201288790909
 20
55.12380871629648
 10
-19.79201288790909
 20
58.10010174665103
 42
0.4142135623731132
  0
LWPOLYLINE
  5
BE8
102
{ACAD_REACTORS
330
BEC
102
}
330
B9E
100
AcDbEntity
  8
9
100
AcDbPolyline
 90
        4
 70
     1
 43
0.0
 10
-24.19231812786165
 20
58.90010174665076
 10
-24.57637781922995
 20
58.90010174665076
 10
-24.57637781922995
 20
55.12380871629648
 10
-24.19231812786165
 20
55.12380871629648
  0
LWPOLYLINE
  5
BE9
102
{ACAD_REACTORS
330
BEC
102
}
330
B9E
100
AcDbEntity
  8
9
100
AcDbPolyline
 90
       10
 70
     1
 43
0.0
 10
-28.57661522808212
 20
58.5001017466509
 10
-25.98444972019706
 20
58.5001017466509
 42
-0.4142135623731731
 10
-25.58444972019652
 20
58.1001017466508
 10
-25.58444972019652
 20
55.12380871629648
 10
-25.2004239443786
 20
55.12380871629648
 10
-25.2004239443786
 20
58.10010174665103
 42
0.4142135623730717
 10
-26.00042394437833
 20
58.90010174665076
 10
-28.97664914363259
 20
58.90010174665076
 10
-28.97664914363259
 20
55.12380871629648
 10
-28.57661522808212
 20
55.12380871629648
  0
LWPOLYLINE
  5
BEA
102
{ACAD_REACTORS
330
BEC
102
}
330
B9E
100
AcDbEntity
  8
9
100
AcDbPolyline
 90
       12
 70
     1
 43
0.0
 10
-29.58465321349832
 20
58.10010174665103
 42
0.4142135623730716
 10
-30.3846532134985
 20
58.90010174665076
 10
-33.07296930642724
 20
58.90010174665076
 10
-33.07296930642724
 20
58.5001017466509
 10
-30.38468712904842
 20
58.5001017466509
 42
-0.4142135623730067
 10
-29.98468712904878
 20
58.1001017466508
 10
-29.98468712904878
 20
57.42799728675618
 10
-32.56098015940324
 20
57.42799728675596
 42
0.4142135623731289
 10
-33.36098015940343
 20
56.627997286756
 10
-33.36098015940343
 20
55.92380871629643
 42
0.4142135623731132
 10
-32.56098015940324
 20
55.12380871629648
 10
-29.58465321349832
 20
55.12380871629648
  0
LWPOLYLINE
  5
BEB
102
{ACAD_REACTORS
330
BEC
102
}
330
B9E
100
AcDbEntity
  8
9
100
AcDbPolyline
 90
       20
 70
     1
 43
0.0
 10
-34.7850262845518
 20
57.42799728675596
 10
-36.96125148380543
 20
57.42799728675596
 42
-0.4142135623730898
 10
-37.36125148380552
 20
57.82799728675604
 10
-37.36125148380552
 20
58.10010174665103
 42
-0.4142135623730744
 10
-36.96125148380543
 20
58.5001017466509
 10
-34.27303713752781
 20
58.50010174665067
 10
-34.27303713752781
 20
58.90010174665076
 10
-36.96128539935535
 20
58.90010174665076
 42
0.4142135623731289
 10
-37.76128539935553
 20
58.1001017466508
 10
-37.76128539935553
 20
57.82796337120567
 42
0.4142135623730716
 10
-36.9612853993558
 20
57.02796337120571
 10
-34.76901814481926
 20
57.02796337120571
 42
-0.414213562373168
 10
-34.36901814481962
 20
56.62796337120562
 10
-34.36901814481962
 20
55.90786840766487
 42
-0.4142135623730744
 10
-34.76901814481926
 20
55.507868407665
 10
-37.76128539935553
 20
55.507868407665
 10
-37.76128539935553
 20
55.12380871629648
 10
-34.7850262845518
 20
55.12380871629648
 42
0.4142135623731289
 10
-33.98502628455162
 20
55.92380871629643
 10
-33.98502628455162
 20
56.627997286756
 42
0.4142135623731132
  0
HATCH
  5
BEC
330
B9E
100
AcDbEntity
  8
9
100
AcDbHatch
 10
0.0
 20
0.0
 30
0.0
210
0.0
220
0.0
230
1.0
  2
SOLID
 70
     1
 71
     1
 91
       13
 92
        7
 72
     1
 73
     1
 93
       20
 10
-34.36901814481962
 20
55.90786840766487
 42
-0.414213562372991
 10
-34.76901814481926
 20
55.507868407665
 42
0.0
 10
-37.76128539935553
 20
55.507868407665
 42
0.0
 10
-37.76128539935553
 20
55.12380871629648
 42
0.0
 10
-34.7850262845518
 20
55.12380871629648
 42
0.4142135623731705
 10
-33.98502628455162
 20
55.92380871629666
 42
0.0
 10
-33.98502628455162
 20
56.627997286756
 42
0.4142135623731547
 10
-34.7850262845518
 20
57.42799728675596
 42
0.0
 10
-36.96125148380543
 20
57.42799728675596
 42
-0.4142135623730898
 10
-37.36125148380552
 20
57.82799728675604
 42
0.0
 10
-37.36125148380552
 20
58.1001017466508
 42
-0.4142135623731575
 10
-36.96125148380543
 20
58.5001017466509
 42
0.0
 10
-34.27303713752781
 20
58.50010174665067
 42
0.0
 10
-34.27303713752781
 20
58.90010174665076
 42
0.0
 10
-36.96128539935535
 20
58.90010174665076
 42
0.4142135623731705
 10
-37.76128539935553
 20
58.10010174665058
 42
0.0
 10
-37.76128539935553
 20
57.82796337120544
 42
0.4142135623730299
 10
-36.9612853993558
 20
57.02796337120571
 42
0.0
 10
-34.76901814481926
 20
57.02796337120571
 42
-0.4142135623730015
 10
-34.36901814481962
 20
56.62796337120608
 42
0.0
 97
        1
330
BEB
 92
        7
 72
     1
 73
     1
 93
       12
 10
-33.36098015940343
 20
55.92380871629666
 42
0.4142135623731547
 10
-32.56098015940324
 20
55.12380871629648
 42
0.0
 10
-29.58465321349877
 20
55.12380871629648
 42
0.0
 10
-29.58465321349832
 20
58.10010174665058
 42
0.4142135623731964
 10
-30.3846532134985
 20
58.90010174665076
 42
0.0
 10
-33.07296930642724
 20
58.90010174665076
 42
0.0
 10
-33.07296930642724
 20
58.50010174665067
 42
0.0
 10
-30.38468712904887
 20
58.5001017466509
 42
-0.4142135623732564
 10
-29.98468712904878
 20
58.10010174665103
 42
0.0
 10
-29.98468712904923
 20
57.42799728675596
 42
0.0
 10
-32.56098015940324
 20
57.42799728675596
 42
0.4142135623731705
 10
-33.36098015940343
 20
56.627997286756
 42
0.0
 97
        1
330
BEA
 92
       22
 72
     1
 73
     1
 93
        6
 10
-32.97692046803468
 20
56.62796337120562
 42
-0.4142135623731576
 10
-32.57692046803459
 20
57.02796337120571
 42
0.0
 10
-29.98468712904878
 20
57.02796337120571
 42
0.0
 10
-29.98468712904878
 20
55.507868407665
 42
0.0
 10
-32.57692046803459
 20
55.507868407665
 42
-0.4142135623731731
 10
-32.97692046803468
 20
55.90786840766487
 42
0.0
 97
        1
330
C11
 92
        7
 72
     1
 73
     1
 93
       10
 10
-28.57661522808212
 20
58.5001017466509
 42
0.0
 10
-25.98444972019661
 20
58.5001017466509
 42
-0.4142135623730067
 10
-25.58444972019652
 20
58.10010174665058
 42
0.0
 10
-25.58444972019606
 20
55.12380871629648
 42
0.0
 10
-25.20042394437906
 20
55.12380871629648
 42
0.0
 10
-25.2004239443786
 20
58.1001017466508
 42
0.4142135623731134
 10
-26.00042394437833
 20
58.90010174665076
 42
0.0
 10
-28.97664914363259
 20
58.90010174665076
 42
0.0
 10
-28.97664914363259
 20
55.12380871629648
 42
0.0
 10
-28.57661522808212
 20
55.12380871629648
 42
0.0
 97
        1
330
BE9
 92
        7
 72
     0
 73
     1
 93
        4
 10
-24.57637781922995
 20
55.12380871629648
 10
-24.19231812786165
 20
55.12380871629648
 10
-24.19231812786165
 20
58.90010174665076
 10
-24.57637781922995
 20
58.90010174665076
 97
        1
330
BE8
 92
        7
 72
     0
 73
     1
 93
        4
 10
-24.19231812786165
 20
59.87619128370352
 10
-24.5763778192304
 20
59.87619128370352
 10
-24.5763778192304
 20
59.28412752246913
 10
-24.1923181278612
 20
59.28412752246913
 97
        1
330
C12
 92
        7
 72
     1
 73
     1
 93
       10
 10
-23.18424622689509
 20
58.5001017466509
 42
0.0
 10
-20.59204680345965
 20
58.5001017466509
 42
-0.4142135623730898
 10
-20.19204680345956
 20
58.1001017466508
 42
0.0
 10
-20.19204680345956
 20
55.12380871629648
 42
0.0
 10
-19.79201288790909
 20
55.12380871629648
 42
0.0
 10
-19.79201288790909
 20
58.1001017466508
 42
0.4142135623731547
 10
-20.59201288790928
 20
58.90010174665076
 42
0.0
 10
-23.56830591826338
 20
58.90010174665076
 42
0.0
 10
-23.56830591826338
 20
55.12380871629648
 42
0.0
 10
-23.18424622689463
 20
55.12380871629648
 42
0.0
 97
        1
330
BE7
 92
        7
 72
     1
 73
     1
 93
        8
 10
-19.1999120763262
 20
55.92680650071542
 42
0.4153115297271299
 10
-18.39991769304061
 20
55.12380871629648
 42
0.0
 10
-15.4236900118708
 20
55.12380871629648
 42
0.0
 10
-15.4236900118708
 20
59.87619128370352
 42
0.0
 10
-15.80771578768872
 20
59.87619128370352
 42
0.0
 10
-15.80771578768872
 20
58.90010174665076
 42
0.0
 10
-18.39176256411201
 20
58.90010174665076
 42
0.4131164467977965
 10
-19.19175694739761
 20
58.1030995310698
 42
0.0
 97
        1
330
BE6
 92
       22
 72
     1
 73
     1
 93
        6
 10
-18.79994912667462
 20
58.1001017466508
 42
-0.4142135623731575
 10
-18.39994912667453
 20
58.5001017466509
 42
0.0
 10
-15.80771578768872
 20
58.50010174665067
 42
0.0
 10
-15.80771578768827
 20
55.507868407665
 42
0.0
 10
-18.39994912667453
 20
55.507868407665
 42
-0.4142135623731731
 10
-18.79994912667462
 20
55.90786840766487
 42
0.0
 97
        1
330
BE5
 92
        7
 72
     1
 73
     1
 93
       12
 10
-14.79964388672215
 20
55.92380871629621
 42
0.4142135623729885
 10
-13.99964388672242
 20
55.12380871629648
 42
0.0
 10
-11.8233508563676
 20
55.12380871629648
 42
0.4142135623731289
 10
-11.02335085636741
 20
55.92380871629666
 42
0.0
 10
-11.02335085636741
 20
58.90010174665076
 42
0.0
 10
-11.42338477191788
 20
58.90010174665076
 42
0.0
 10
-11.42338477191788
 20
55.91567577726095
 42
-0.4131711701795319
 10
-11.82196067063523
 20
55.51567831234956
 42
0.0
 10
-14.01419400962095
 20
55.50787335710947
 42
-0.4152567234626918
 10
-14.41561811090378
 20
55.90787082202087
 42
0.0
 10
-14.41561811090378
 20
58.90010174665076
 42
0.0
 10
-14.7996438867226
 20
58.90010174665076
 42
0.0
 97
        1
330
BE4
 92
        7
 72
     1
 73
     1
 93
       20
 10
-7.423079531965413
 20
57.02796337120571
 42
-0.414213562373168
 10
-7.023079531965322
 20
56.62796337120562
 42
0.0
 10
-7.023079531965322
 20
55.90786840766487
 42
-0.4142135623731575
 10
-7.423079531965413
 20
55.507868407665
 42
0.0
 10
-10.41534678650168
 20
55.507868407665
 42
0.0
 10
-10.41534678650168
 20
55.12380871629648
 42
0.0
 10
-7.445787917283723
 20
55.12380871629648
 42
0.4114777732065809
 10
-6.645822882998345
 20
55.91632914939783
 42
0.0
 10
-6.639238813324936
 20
56.62051771985716
 42
0.4169546541682913
 10
-7.439203847610315
 20
57.42799728675596
 42
0.0
 10
-9.615312870951584
 20
57.42799728675596
 42
-0.4142135623729911
 10
-10.01531287095122
 20
57.82799728675581
 42
0.0
 10
-10.01531287095122
 20
58.10010174665103
 42
-0.414213562372991
 10
-9.615312870951584
 20
58.5001017466509
 42
0.0
 10
-6.92703069357276
 20
58.50010174665067
 42
0.0
 10
-6.927030693572305
 20
58.90010174665076
 42
0.0
 10
-9.615346786501959
 20
58.90010174665076
 42
0.4142135623730467
 10
-10.41534678650168
 20
58.10010174665103
 42
0.0
 10
-10.41534678650168
 20
57.82796337120544
 42
0.4142135623730301
 10
-9.615346786501959
 20
57.02796337120571
 42
0.0
 97
        1
330
BE3
 92
        7
 72
     1
 73
     1
 93
       12
 10
-5.21497371544865
 20
57.42799728675596
 42
0.4142135623730871
 10
-6.014973715448377
 20
56.627997286756
 42
0.0
 10
-6.014973715448377
 20
55.92380871629621
 42
0.4142135623730715
 10
-5.21497371544865
 20
55.12380871629648
 42
0.0
 10
-2.23871460064447
 20
55.12380871629648
 42
0.0
 10
-2.23871460064447
 20
58.10010174665058
 42
0.414213562373155
 10
-3.038714600644652
 20
58.90010174665076
 42
0.0
 10
-5.726962862471737
 20
58.90010174665076
 42
0.0
 10
-5.726962862472191
 20
58.5001017466509
 42
0.0
 10
-3.038748516194573
 20
58.5001017466509
 42
-0.4142135623730067
 10
-2.638748516194482
 20
58.10010174665058
 42
0.0
 10
-2.638748516194482
 20
57.42799728675596
 42
0.0
 97
        1
330
BE2
 92
       22
 72
     1
 73
     1
 93
        6
 10
-2.638748516194937
 20
57.02796337120571
 42
0.0
 10
-2.638748516194482
 20
55.50786840766477
 42
0.0
 10
-5.21497371544865
 20
55.507868407665
 42
-0.4142135623731731
 10
-5.614973715448741
 20
55.90786840766509
 42
0.0
 10
-5.614973715448741
 20
56.62796337120562
 42
-0.4142135623731576
 10
-5.21497371544865
 20
57.02796337120571
 42
0.0
 97
        1
330
C0D
 75
     0
 76
     1
 47
0.0407044778999864
 98
       13
 10
-34.18710075113677
 20
56.16907953933765
 10
-33.12851374392494
 20
56.49471602641233
 10
-33.12851374392494
 20
56.49471602641233
 10
-28.77202873835904
 20
57.51232930166111
 10
-24.41554807250941
 20
57.91937341678636
 10
-24.41554807250941
 20
59.384734621186
 10
-23.31624584658039
 20
58.3264175319116
 10
-19.04119127844888
 20
57.75655517324913
 10
-19.04119127844888
 20
57.75655517324913
 10
-14.64399105416578
 20
57.43091868617466
 10
-8.048195057457178
 20
57.22739662861204
 10
-4.017427461911665
 20
57.18669281458665
 10
-4.017427461911665
 20
57.18669281458665
  0
TEXT
  5
BED
330
B9E
100
AcDbEntity
  8
leg fin
100
AcDbText
 10
3.391127401597259
 20
2.107634911895729
 30
0.0
 40
1.5
  1
Este desenho é propriedade da Sanindusa, S.A., e não pode ser copiado nem divulgado sem nossa autorização.
 50
90.0
 41
0.8
  7
SANINDUSA
100
AcDbText
  0
LINE
  5
BEE
330
B9E
100
AcDbEntity
  8
3
100
AcDbLine
 10
-90.0
 20
4.0
 30
0.0
 11
-90.0
 21
12.0
 31
0.0
  0
TEXT
  5
BEF
330
B9E
100
AcDbEntity
  8
1
100
AcDbText
 10
-39.0
 20
9.25
 30
0.0
 40
2.0
  1
Substituido por:
 41
0.8
  7
SANINDUSA
 11
-39.0
 21
10.25
 31
0.0
100
AcDbText
 73
     2
  0
POINT
  5
BF0
330
B9E
100
AcDbEntity
  8
SANINDUSA
100
AcDbPoint
 10
0.0
 20
0.0
 30
0.0
  0
TEXT
  5
BF1
330
B9E
100
AcDbEntity
  8
1
100
AcDbText
 10
-89.0
 20
16.74927010445663
 30
0.0
 40
2.0
  1
Normas:
 41
0.8
  7
SANINDUSA
 11
-89.0
 21
17.74927010445663
 31
0.0
100
AcDbText
 73
     2
  0
LINE
  5
BF2
330
B9E
100
AcDbEntity
  8
3
100
AcDbLine
 10
-90.0
 20
12.0
 30
0.0
 11
-90.0
 21
20.0
 31
0.0
  0
LINE
  5
BF3
330
B9E
100
AcDbEntity
  8
3
100
AcDbLine
 10
-110.546019464768
 20
12.0
 30
0.0
 11
-110.546019464768
 21
20.0
 31
0.0
  0
TEXT
  5
BF4
330
B9E
100
AcDbEntity
  8
1
100
AcDbText
 10
-109.6177520618648
 20
17.25
 30
0.0
 40
2.0
  1
Cor:
 41
0.8
  7
SANINDUSA
 11
-109.6177520618648
 21
18.25
 31
0.0
100
AcDbText
 73
     2
  0
LINE
  5
BF5
330
B9E
100
AcDbEntity
  8
leg fin
100
AcDbLine
 10
-91.42857142857156
 20
20.0
 30
0.0
 11
-91.42857142857156
 21
28.5
 31
0.0
  0
LINE
  5
BF6
330
B9E
100
AcDbEntity
  8
leg fin
100
AcDbLine
 10
-104.2857142857142
 20
20.0
 30
0.0
 11
-104.2857142857142
 21
28.5
 31
0.0
  0
LINE
  5
BF7
330
B9E
100
AcDbEntity
  8
leg fin
100
AcDbLine
 10
-117.1428571428573
 20
20.0
 30
0.0
 11
-117.1428571428573
 21
28.5
 31
0.0
  0
POINT
  5
BF8
330
B9E
100
AcDbEntity
  8
SANINDUSA
100
AcDbPoint
 10
-117.1428571428573
 20
28.5
 30
0.0
  0
POINT
  5
BF9
330
B9E
100
AcDbEntity
  8
SANINDUSA
100
AcDbPoint
 10
-104.2857142857142
 20
28.5
 30
0.0
  0
POINT
  5
BFA
330
B9E
100
AcDbEntity
  8
SANINDUSA
100
AcDbPoint
 10
-91.42857142857156
 20
28.5
 30
0.0
  0
TEXT
  5
BFB
330
B9E
100
AcDbEntity
  8
1
100
AcDbText
 10
-116.200160604496
 20
26.43288406845113
 30
0.0
 40
1.5
  1
Nº Seq.:
 41
0.8
  7
SANINDUSA
 11
-116.200160604496
 21
27.18288406845113
 31
0.0
100
AcDbText
 73
     2
  0
TEXT
  5
BFC
330
B9E
100
AcDbEntity
  8
1
100
AcDbText
 10
-103.2106584078738
 20
26.43288406845113
 30
0.0
 40
1.5
  1
Tipo:
 41
0.8
  7
SANINDUSA
 11
-103.2106584078738
 21
27.18288406845113
 31
0.0
100
AcDbText
 73
     2
  0
TEXT
  5
BFD
330
B9E
100
AcDbEntity
  8
1
100
AcDbText
 10
-90.22114672289353
 20
26.43288406845113
 30
0.0
 40
1.5
  1
Prod.:
 41
0.8
  7
SANINDUSA
 11
-90.22114672289353
 21
27.18288406845113
 31
0.0
100
AcDbText
 73
     2
  0
TEXT
  5
BFE
330
B9E
100
AcDbEntity
  8
1
100
AcDbText
 10
-64.77320576346574
 20
26.43288406845113
 30
0.0
 40
1.5
  1
Rev.:
 41
0.8
  7
SANINDUSA
 11
-64.77320576346574
 21
27.18288406845113
 31
0.0
100
AcDbText
 73
     2
  0
LINE
  5
BFF
330
B9E
100
AcDbEntity
  8
leg fin
100
AcDbLine
 10
-52.85714285714266
 20
20.0
 30
0.0
 11
-52.85714285714266
 21
28.5
 31
0.0
  0
LINE
  5
C00
330
B9E
100
AcDbEntity
  8
leg fin
100
AcDbLine
 10
-65.71428571428578
 20
20.0
 30
0.0
 11
-65.71428571428578
 21
28.5
 31
0.0
  0
LINE
  5
C01
330
B9E
100
AcDbEntity
  8
leg fin
100
AcDbLine
 10
-78.57142857142844
 20
20.0
 30
0.0
 11
-78.57142857142844
 21
28.5
 31
0.0
  0
POINT
  5
C02
330
B9E
100
AcDbEntity
  8
SANINDUSA
100
AcDbPoint
 10
-78.57142857142844
 20
28.5
 30
0.0
  0
POINT
  5
C03
330
B9E
100
AcDbEntity
  8
SANINDUSA
100
AcDbPoint
 10
-65.71428571428578
 20
28.5
 30
0.0
  0
POINT
  5
C04
330
B9E
100
AcDbEntity
  8
SANINDUSA
100
AcDbPoint
 10
-52.85714285714266
 20
28.5
 30
0.0
  0
TEXT
  5
C05
330
B9E
100
AcDbEntity
  8
1
100
AcDbText
 10
-77.61097961686573
 20
26.43288406845113
 30
0.0
 40
1.5
  1
Peça:
 41
0.8
  7
SANINDUSA
 11
-77.61097961686573
 21
27.18288406845113
 31
0.0
100
AcDbText
 73
     2
  0
TEXT
  5
C06
330
B9E
100
AcDbEntity
  8
1
100
AcDbText
 10
-52.06538060077036
 20
26.43288406845113
 30
0.0
 40
1.5
  1
Alt.:
 41
0.8
  7
SANINDUSA
 11
-52.06538060077036
 21
27.18288406845113
 31
0.0
100
AcDbText
 73
     2
  0
LINE
  5
C07
330
B9E
100
AcDbEntity
  8
3
100
AcDbLine
 10
0.0
 20
12.0
 30
0.0
 11
-40.0
 21
12.0
 31
0.0
  0
LINE
  5
C08
330
B9E
100
AcDbEntity
  8
3
100
AcDbLine
 10
-40.0
 20
32.5
 30
0.0
 11
0.0
 21
32.5
 31
0.0
  0
TEXT
  5
C09
330
B9E
100
AcDbEntity
  8
1
100
AcDbText
 10
-19.0
 20
29.75
 30
0.0
 40
2.0
  1
Folha:
 41
0.8
  7
SANINDUSA
 11
-19.0
 21
30.75
 31
0.0
100
AcDbText
 73
     2
  0
LINE
  5
C0A
330
B9E
100
AcDbEntity
  8
3
100
AcDbLine
 10
-20.0
 20
32.5
 30
0.0
 11
-20.0
 21
20.0
 31
0.0
  0
TEXT
  5
C0B
330
B9E
100
AcDbEntity
  8
1
100
AcDbText
 10
-39.0
 20
29.75
 30
0.0
 40
2.0
  1
Escala:
 41
0.8
  7
SANINDUSA
 11
-39.0
 21
30.75
 31
0.0
100
AcDbText
 73
     2
  0
TEXT
  5
C0C
330
B9E
100
AcDbEntity
  8
1
100
AcDbText
 10
-39.0
 20
17.25
 30
0.0
 40
2.0
  1
Substitui:
 41
0.8
  7
SANINDUSA
 11
-39.0
 21
18.25
 31
0.0
100
AcDbText
 73
     2
  0
LWPOLYLINE
  5
C0D
102
{ACAD_REACTORS
330
BEC
102
}
330
B9E
100
AcDbEntity
  8
9
100
AcDbPolyline
 90
        6
 70
     1
 43
0.0
 10
-2.638748516194482
 20
57.02796337120571
 10
-2.638748516194482
 20
55.50786840766477
 10
-5.21497371544865
 20
55.507868407665
 42
-0.4142135623730898
 10
-5.614973715448741
 20
55.90786840766487
 10
-5.614973715448741
 20
56.62796337120562
 42
-0.4142135623731576
 10
-5.21497371544865
 20
57.02796337120571
  0
LINE
  5
C0E
330
B9E
100
AcDbEntity
  8
3
100
AcDbLine
 10
-40.0
 20
50.0
 30
0.0
 11
0.0
 21
50.0
 31
0.0
  0
ATTDEF
  5
C0F
330
B9E
100
AcDbEntity
  8
1
100
AcDbText
 10
-31.30691739422431
 20
40.25
 30
0.0
 40
2.0
  1
XXXXXXXXXXXXXXX
 41
0.8
  7
SANINDUSA
 72
     4
 11
-20.0
 21
41.25
 31
0.0
100
AcDbAttributeDefinition
  3
Observações:
  2
OBS
 70
     0
  0
TEXT
  5
C10
330
B9E
100
AcDbEntity
  8
1
100
AcDbText
 10
-39.0
 20
47.25
 30
0.0
 40
2.0
  1
Observações:
 41
0.8
  7
SANINDUSA
 11
-39.0
 21
48.25
 31
0.0
100
AcDbText
 73
     2
  0
LWPOLYLINE
  5
C11
102
{ACAD_REACTORS
330
BEC
102
}
330
B9E
100
AcDbEntity
  8
9
100
AcDbPolyline
 90
        6
 70
     1
 43
0.0
 10
-29.98468712904878
 20
57.02796337120571
 10
-29.98468712904878
 20
55.507868407665
 10
-32.57692046803459
 20
55.507868407665
 42
-0.4142135623731731
 10
-32.97692046803468
 20
55.90786840766487
 10
-32.97692046803468
 20
56.62796337120562
 42
-0.4142135623731576
 10
-32.57692046803459
 20
57.02796337120571
  0
LWPOLYLINE
  5
C12
102
{ACAD_REACTORS
330
BEC
102
}
330
B9E
100
AcDbEntity
  8
9
100
AcDbPolyline
 90
        4
 70
     1
 43
0.0
 10
-24.19231812786165
 20
59.87619128370352
 10
-24.57637781922995
 20
59.87619128370352
 10
-24.57637781922995
 20
59.28412752246913
 10
-24.19231812786165
 20
59.28412752246913
  0
ENDBLK
  5
C14
330
B9E
100
AcDbEntity
  8
0
100
AcDbBlockEnd
  0
ENDSEC
  0
SECTION
  2
ENTITIES
  0
LWPOLYLINE
  5
1C55
330
1F
100
AcDbEntity
  8
SANINDUSA
100
AcDbPolyline
 90
       23
 70
   128
 43
0.0
 10
4687.659542981191
 20
2872.703514391404
 10
4687.676121744915
 20
2872.703293436986
 10
4687.696644138201
 20
2872.703034901839
 10
4687.715987551613
 20
2872.702806079607
 10
4687.73415209691
 20
2872.702604750019
 10
4687.751137781544
 20
2872.702429199439
 10
4687.766944590612
 20
2872.702277878147
 10
4687.781572494311
 20
2872.702149251323
 10
4687.79502170126
 20
2872.702041992765
 10
4687.807292330666
 20
2872.701955536228
 10
4687.818384203715
 20
2872.701888659817
 10
4687.828297275706
 20
2872.701839620095
 10
4687.837031501933
 20
2872.701806435209
 10
4687.844586837693
 20
2872.701786765676
 10
4687.850963044567
 20
2872.701777944189
 10
4687.855574208898
 20
2872.701776409369
 10
4687.859281886026
 20
2872.701777944189
 10
4687.862086254759
 20
2872.701780760508
 10
4687.864177781745
 20
2872.701783845048
 10
4687.867651927873
 20
2872.701791146618
 10
4687.872192103071
 20
2872.701805213314
 10
4687.877798933192
 20
2872.701830724102
 10
4687.879489022894
 20
2872.701841408234
  0
ARC
  5
1C56
330
1F
100
AcDbEntity
  8
SANINDUSA
100
AcDbCircle
 10
4687.659878245608
 20
2872.727510156328
 30
0.0
 40
0.0240000265493156
100
AcDbArc
 50
192.0002159433417
 51
269.202560716954
  0
ARC
  5
1C57
330
1F
100
AcDbEntity
  8
SANINDUSA
100
AcDbCircle
 10
4688.242598447009
 20
2872.72750948375
 30
0.0
 40
0.0240000952870198
100
AcDbArc
 50
270.8018957651439
 51
347.9996238623021
  0
LINE
  5
1C58
330
1F
100
AcDbEntity
  8
SANINDUSA
100
AcDbLine
 10
4687.876168924971
 20
2872.701840186339
 30
0.0
 11
4687.904145467682
 21
2872.700863221508
 31
0.0
  0
LINE
  5
1C59
330
1F
100
AcDbEntity
  8
SANINDUSA
100
AcDbLine
 10
4687.998331416054
 20
2872.700863221508
 30
0.0
 11
4688.025844860479
 21
2872.701824018579
 31
0.0
  0
LINE
  5
1C5A
330
1F
100
AcDbEntity
  8
SANINDUSA
100
AcDbLine
 10
4687.904145467682
 20
2872.700863221508
 30
0.0
 11
4687.91449918191
 21
2872.689760202389
 31
0.0
  0
LINE
  5
1C5B
330
1F
100
AcDbEntity
  8
SANINDUSA
100
AcDbLine
 10
4687.987977701826
 20
2872.689760202389
 30
0.0
 11
4687.998331416054
 21
2872.700863221508
 31
0.0
  0
LINE
  5
1C5D
330
1F
100
AcDbEntity
  8
SANINDUSA
100
AcDbLine
 10
4688.326392817898
 20
2872.827781539258
 30
0.0
 11
4688.326936650677
 21
2872.796624468487
 31
0.0
  0
LINE
  5
1C5F
330
1F
100
AcDbEntity
  8
SANINDUSA
100
AcDbLine
 10
4688.321937430306
 20
2872.796624468487
 30
0.0
 11
4688.326936650677
 21
2872.796624468487
 31
0.0
  0
LINE
  5
1C62
330
1F
100
AcDbEntity
  8
SANINDUSA
100
AcDbLine
 10
4687.575540239287
 20
2872.796624468487
 30
0.0
 11
4687.576084093858
 21
2872.827781875681
 31
0.0
  0
LINE
  5
1C63
330
1F
100
AcDbEntity
  8
SANINDUSA
100
AcDbLine
 10
4687.575540239287
 20
2872.796624468487
 30
0.0
 11
4687.580539477646
 21
2872.796624468487
 31
0.0
  0
LINE
  5
1C65
330
1F
100
AcDbEntity
  8
SANINDUSA
100
AcDbLine
 10
4687.580539477646
 20
2872.796624468487
 30
0.0
 11
4688.321937430306
 21
2872.796624468487
 31
0.0
  0
LINE
  5
1C66
330
1F
100
AcDbEntity
  8
SANINDUSA
100
AcDbLine
 10
4687.585082716895
 20
2872.836624467593
 30
0.0
 11
4688.317394185467
 21
2872.836624467593
 31
0.0
  0
ARC
  5
1C69
330
1F
100
AcDbEntity
  8
SANINDUSA
100
AcDbCircle
 10
4688.317394166499
 20
2872.827624467593
 30
0.0
 40
0.0090000000000001
100
AcDbArc
 50
1.000000009720081
 51
90.0
  0
ARC
  5
1C6A
330
1F
100
AcDbEntity
  8
SANINDUSA
100
AcDbCircle
 10
4687.585082717236
 20
2872.827624467593
 30
0.0
 40
0.009
100
AcDbArc
 50
90.0
 51
178.9999999902799
  0
LINE
  5
1C6B
330
1F
100
AcDbEntity
  8
SANINDUSA
100
AcDbLine
 10
4687.620651341631
 20
2872.796624468487
 30
0.0
 11
4687.635237820102
 21
2872.728000486117
 31
0.0
  0
LINE
  5
1C6C
330
1F
100
AcDbEntity
  8
SANINDUSA
100
AcDbLine
 10
4688.267239082261
 20
2872.728000471216
 30
0.0
 11
4688.28182553093
 21
2872.796624468487
 31
0.0
  0
LWPOLYLINE
  5
1C7B
330
1F
100
AcDbEntity
  8
SANINDUSA
100
AcDbPolyline
 90
        5
 70
   128
 43
0.0
 10
4687.635237820102
 20
2872.728000486117
 10
4687.635764713987
 20
2872.72552164815
 10
4687.636130116536
 20
2872.723802553337
 10
4687.636340487404
 20
2872.722812848013
 10
4687.636398020788
 20
2872.722542160969
  0
LWPOLYLINE
  5
1C7C
330
1F
100
AcDbEntity
  8
SANINDUSA
100
AcDbPolyline
 90
        5
 70
   128
 43
0.0
 10
4688.266078639432
 20
2872.722541117888
 10
4688.266136217518
 20
2872.722812132757
 10
4688.266346681519
 20
2872.723802113753
 10
4688.266712117596
 20
2872.72552151404
 10
4688.267239082261
 20
2872.728000471216
  0
LINE
  5
1C7D
330
1F
100
AcDbEntity
  8
SANINDUSA
100
AcDbLine
 10
4687.951238441868
 20
2872.700863221508
 30
0.0
 11
4687.998331416054
 21
2872.700863221508
 31
0.0
  0
LINE
  5
1C7E
330
1F
100
AcDbEntity
  8
SANINDUSA
100
AcDbLine
 10
4687.904145467682
 20
2872.700863221508
 30
0.0
 11
4687.951238441868
 21
2872.700863221508
 31
0.0
  0
LINE
  5
1C7F
330
1F
100
AcDbEntity
  8
SANINDUSA
100
AcDbLine
 10
4687.951238441868
 20
2872.689760202389
 30
0.0
 11
4687.987977701826
 21
2872.689760202389
 31
0.0
  0
LINE
  5
1C80
330
1F
100
AcDbEntity
  8
SANINDUSA
100
AcDbLine
 10
4687.91449918191
 20
2872.689760202389
 30
0.0
 11
4687.951238441868
 21
2872.689760202389
 31
0.0
  0
ELLIPSE
  5
1C9D
330
1F
100
AcDbEntity
  8
SANINDUSA
100
AcDbEllipse
 10
4687.363314020251
 20
2873.101092670676
 30
0.0
 11
0.0079343406248555
 21
0.0079343406248556
 31
0.0
210
0.0
220
0.0
230
0.9999999999999998
 40
0.8911979137515652
 41
5.519407516233525
 42
7.046963098125656
  0
LINE
  5
1C9F
330
1F
100
AcDbEntity
  8
SANINDUSA
100
AcDbLine
 10
4687.364153664683
 20
2873.111713813569
 30
0.0
 11
4686.716747183476
 21
2873.111713813569
 31
0.0
  0
ELLIPSE
  5
1CA1
330
1F
100
AcDbEntity
  8
SANINDUSA
100
AcDbEllipse
 10
4686.717586850259
 20
2873.101092670676
 30
0.0
 11
0.0079343406248555
 21
-0.0079343406248555
 31
0.0
210
0.0
220
0.0
230
1.0
 40
0.8911979137515578
 41
2.37781486264372
 42
3.905370444535874
  0
LINE
  5
1CA3
330
1F
100
AcDbEntity
  8
SANINDUSA
100
AcDbLine
 10
4686.706965707366
 20
2873.101932337459
 30
0.0
 11
4686.706965707366
 21
2872.454525856253
 31
0.0
  0
LINE
  5
1CA6
330
1F
100
AcDbEntity
  8
SANINDUSA
100
AcDbLine
 10
4687.373935144518
 20
2872.454525856253
 30
0.0
 11
4687.373935144518
 21
2873.101932337459
 31
0.0
  0
ELLIPSE
  5
1CA7
330
1F
100
AcDbEntity
  8
SANINDUSA
100
AcDbEllipse
 10
4686.717586850259
 20
2872.455365500684
 30
0.0
 11
0.0079343406248554
 21
0.0079343406248555
 31
0.0
210
0.0
220
0.0
230
0.9999999999999996
 40
0.8911979137515674
 41
2.377814862643718
 42
3.905370444535867
  0
ELLIPSE
  5
1CAA
330
1F
100
AcDbEntity
  8
SANINDUSA
100
AcDbEllipse
 10
4687.363314020251
 20
2872.455365500684
 30
0.0
 11
-0.0079343406248556
 21
0.0079343406248555
 31
0.0
210
0.0
220
0.0
230
1.0
 40
0.8911979137515675
 41
2.377814862643707
 42
3.905370444535868
  0
LINE
  5
1CAB
330
1F
100
AcDbEntity
  8
SANINDUSA
100
AcDbLine
 10
4686.716747183476
 20
2872.444744376417
 30
0.0
 11
4687.364153664683
 21
2872.444744376417
 31
0.0
  0
LINE
  5
1CB5
330
1F
100
AcDbEntity
  8
SANINDUSA
100
AcDbLine
 10
4686.727613031988
 20
2873.081285012837
 30
0.0
 11
4686.706965707366
 21
2873.101932337459
 31
0.0
  0
LINE
  5
1CB6
330
1F
100
AcDbEntity
  8
SANINDUSA
100
AcDbLine
 10
4686.716747183476
 20
2873.111713813569
 30
0.0
 11
4686.737394508099
 21
2873.091066488948
 31
0.0
  0
LWPOLYLINE
  5
1CBE
330
1F
100
AcDbEntity
  8
SANINDUSA
100
AcDbPolyline
 90
        5
 70
   128
 43
0.0
 10
4686.73743161944
 20
2873.091030875173
 10
4686.840836610769
 20
2873.091022470918
 10
4687.047460388515
 20
2873.091005960431
 10
4687.254084151361
 20
2873.091024151023
 10
4687.343469303224
 20
2873.091030897524
  0
LWPOLYLINE
  5
1CC0
330
1F
100
AcDbEntity
  8
SANINDUSA
100
AcDbPolyline
 90
       11
 70
   128
 43
0.0
 10
4687.353287857149
 20
2873.081285035189
 10
4687.352907400701
 20
2872.97757667112
 10
4687.35215358076
 20
2872.770984707352
 10
4687.351928036783
 20
2872.719338713165
 10
4687.351679604624
 20
2872.667693911072
 10
4687.351473193739
 20
2872.616047052618
 10
4687.351373832796
 20
2872.564394919153
 10
4687.351435642812
 20
2872.542223719831
 10
4687.351646047209
 20
2872.520061282393
 10
4687.35201154289
 20
2872.497947601553
 10
4687.35253844795
 20
2872.475922552821
  0
LWPOLYLINE
  5
1CC1
330
1F
100
AcDbEntity
  8
SANINDUSA
100
AcDbPolyline
 90
       11
 70
   128
 43
0.0
 10
4686.728362400208
 20
2872.475922552821
 10
4686.728889297818
 20
2872.497947601553
 10
4686.729254704093
 20
2872.520061282393
 10
4686.729465071236
 20
2872.542223719831
 10
4686.7295268589
 20
2872.564394919153
 10
4686.729427684222
 20
2872.616047052618
 10
4686.729221638415
 20
2872.667693911072
 10
4686.728973519181
 20
2872.71933877277
 10
4686.728748116766
 20
2872.770984766956
 10
4686.727993805084
 20
2872.977576700922
 10
4686.727613031988
 20
2873.081285012837
  0
LWPOLYLINE
  5
1CC3
330
1F
100
AcDbEntity
  8
SANINDUSA
100
AcDbPolyline
 90
       12
 70
   128
 43
0.0
 10
4687.34243492422
 20
2872.466391948935
 10
4687.26254288492
 20
2872.466485528227
 10
4687.18265287218
 20
2872.466630427118
 10
4687.15069593129
 20
2872.46675929236
 10
4687.118739646051
 20
2872.466948298689
 10
4687.086784403894
 20
2872.467127291437
 10
4687.054830532644
 20
2872.467226235148
 10
4687.022878419731
 20
2872.467175094362
 10
4686.977839928244
 20
2872.466933635946
 10
4686.932798426722
 20
2872.466725138899
 10
4686.842691611622
 20
2872.466522959944
 10
4686.738465968643
 20
2872.466391948935
  0
ELLIPSE
  5
1CC6
330
1F
100
AcDbEntity
  8
SANINDUSA
100
AcDbEllipse
 10
4686.669752994299
 20
2873.148926526637
 30
0.0
 11
0.0035366109458464
 21
-0.0035366109458494
 31
0.0
210
0.0
220
0.0
230
1.0
 40
0.9996954598819204
 41
2.35634678344036
 42
3.926838523740047
  0
ELLIPSE
  5
1CC9
330
1F
100
AcDbEntity
  8
SANINDUSA
100
AcDbEllipse
 10
4687.411147876212
 20
2873.148926526637
 30
0.0
 11
0.0035366109458464
 21
0.0035366109458496
 31
0.0
210
0.0
220
0.0
230
1.0
 40
0.9996954598818852
 41
5.497939437029301
 42
7.068431177329002
  0
ELLIPSE
  5
1CCC
330
1F
100
AcDbEntity
  8
SANINDUSA
100
AcDbEllipse
 10
4686.669752994299
 20
2872.407531644724
 30
0.0
 11
0.0035366109458463
 21
0.0035366109458495
 31
0.0
210
0.0
220
0.0
230
1.0
 40
0.9996954598818852
 41
2.356346783439471
 42
3.926838523739229
  0
ELLIPSE
  5
1CCF
330
1F
100
AcDbEntity
  8
SANINDUSA
100
AcDbEllipse
 10
4687.411147876212
 20
2872.407531644724
 30
0.0
 11
0.0035366109458464
 21
-0.0035366109458495
 31
0.0
210
0.0
220
0.0
230
1.0
 40
0.9996954598819009
 41
5.497939437030182
 42
7.068431177329904
  0
LINE
  5
1CD1
330
1F
100
AcDbEntity
  8
SANINDUSA
100
AcDbLine
 10
4687.411149423693
 20
2873.153927288261
 30
0.0
 11
4686.669751471032
 21
2873.153927288261
 31
0.0
  0
LINE
  5
1CD2
330
1F
100
AcDbEntity
  8
SANINDUSA
100
AcDbLine
 10
4687.416148644063
 20
2872.407530097243
 30
0.0
 11
4687.416148644063
 21
2873.148928049904
 31
0.0
  0
LINE
  5
1CD3
330
1F
100
AcDbEntity
  8
SANINDUSA
100
AcDbLine
 10
4686.664752232675
 20
2873.148928049904
 30
0.0
 11
4686.664752232675
 21
2872.407530097243
 31
0.0
  0
LINE
  5
1CD4
330
1F
100
AcDbEntity
  8
SANINDUSA
100
AcDbLine
 10
4686.669751471032
 20
2872.402530876871
 30
0.0
 11
4687.411149423693
 21
2872.402530876871
 31
0.0
  0
ARC
  5
1CE2
330
1F
100
AcDbEntity
  8
SANINDUSA
100
AcDbCircle
 10
4687.342880209646
 20
2873.080699326978
 30
0.0
 40
0.0103483516173707
100
AcDbArc
 50
3.063919352849028
 51
86.73659792041162
  0
ARC
  5
1CE6
330
1F
100
AcDbEntity
  8
SANINDUSA
100
AcDbCircle
 10
4686.738020637345
 20
2873.080699328859
 30
0.0
 40
0.0103483231169873
100
AcDbArc
 50
93.26299141089146
 51
176.9362065426226
  0
ARC
  5
1CE7
330
1F
100
AcDbEntity
  8
SANINDUSA
100
AcDbCircle
 10
4687.341464706091
 20
2872.476818371285
 30
0.0
 40
0.0104714662885719
100
AcDbArc
 50
275.3162802110436
 51
355.61825716632
  0
ARC
  5
1CE8
330
1F
100
AcDbEntity
  8
SANINDUSA
100
AcDbCircle
 10
4686.739436386888
 20
2872.476818560081
 30
0.0
 40
0.0104716728161468
100
AcDbArc
 50
184.3826922687777
 51
264.6827252620784
  0
ARC
  5
1CEB
330
1F
100
AcDbEntity
  8
SANINDUSA
100
AcDbCircle
 10
4687.240954470544
 20
2872.97869115286
 30
0.0
 40
0.0025905067402412
100
AcDbArc
 50
0.0
 51
90.00067091892686
  0
LINE
  5
1CF5
330
1F
100
AcDbEntity
  8
SANINDUSA
100
AcDbLine
 10
4687.229954641436
 20
2872.981282970902
 30
0.0
 11
4687.240954440211
 21
2872.9812816596
 31
0.0
  0
ARC
  5
1CF6
330
1F
100
AcDbEntity
  8
SANINDUSA
100
AcDbCircle
 10
4686.839946501534
 20
2872.978691304604
 30
0.0
 40
0.0025906530205477
100
AcDbArc
 50
90.00223453782545
 51
180.0
  0
LWPOLYLINE
  5
1D01
330
1F
100
AcDbEntity
  8
SANINDUSA
100
AcDbPolyline
 90
        3
 70
   128
 43
0.0
 10
4687.243544977282
 20
2872.97869127154
 10
4687.243545275305
 20
2872.970692685839
 10
4687.24354533491
 20
2872.967692888376
  0
LINE
  5
1D03
330
1F
100
AcDbEntity
  8
SANINDUSA
100
AcDbLine
 10
4686.839946400498
 20
2872.981281957623
 30
0.0
 11
4686.850946214174
 21
2872.981283268925
 31
0.0
  0
LWPOLYLINE
  5
1D05
330
1F
100
AcDbEntity
  8
SANINDUSA
100
AcDbPolyline
 90
        3
 70
   128
 43
0.0
 10
4686.837355461095
 20
2872.9676932013
 10
4686.837355744217
 20
2872.975691787001
 10
4686.837355848525
 20
2872.978691554662
  0
ARC
  5
1D07
330
1F
100
AcDbEntity
  8
SANINDUSA
100
AcDbCircle
 10
4687.22995428464
 20
2872.978693207871
 30
0.0
 40
0.0025897630557731
100
AcDbArc
 50
89.99210624146289
 51
180.0
  0
ARC
  5
1D09
330
1F
100
AcDbEntity
  8
SANINDUSA
100
AcDbCircle
 10
4686.850946687496
 20
2872.97869365225
 30
0.0
 40
0.0025896167177506
100
AcDbArc
 50
0.0
 51
90.0104723279883
  0
LWPOLYLINE
  5
1D0B
330
1F
100
AcDbEntity
  8
SANINDUSA
100
AcDbPolyline
 90
        3
 70
   128
 43
0.0
 10
4687.22736493883
 20
2872.967695212956
 10
4687.227364640807
 20
2872.975693739053
 10
4687.227364521597
 20
2872.978693476912
  0
LWPOLYLINE
  5
1D0D
330
1F
100
AcDbEntity
  8
SANINDUSA
100
AcDbPolyline
 90
        3
 70
   128
 43
0.0
 10
4686.85353630421
 20
2872.978693789836
 10
4686.853535991286
 20
2872.970695293542
 10
4686.853535872076
 20
2872.967695540782
  0
ARC
  5
1D0F
330
1F
100
AcDbEntity
  8
SANINDUSA
100
AcDbCircle
 10
4687.240955571886
 20
2872.967693097795
 30
0.0
 40
0.0025897630312064
100
AcDbArc
 50
269.9934245255116
 51
0.0
  0
ARC
  5
1D11
330
1F
100
AcDbEntity
  8
SANINDUSA
100
AcDbCircle
 10
4686.839945090333
 20
2872.967693291802
 30
0.0
 40
0.0025896292393734
100
AcDbArc
 50
180.0
 51
270.010524907192
  0
LWPOLYLINE
  5
1D13
330
1F
100
AcDbEntity
  8
SANINDUSA
100
AcDbPolyline
 90
        3
 70
   128
 43
0.0
 10
4687.240955274676
 20
2872.965103334781
 10
4687.232955318068
 20
2872.965104362961
 10
4687.229955535506
 20
2872.965104765293
  0
LWPOLYLINE
  5
1D16
330
1F
100
AcDbEntity
  8
SANINDUSA
100
AcDbPolyline
 90
        3
 70
   128
 43
0.0
 10
4686.850945305202
 20
2872.965105093118
 10
4686.842945363497
 20
2872.965104050037
 10
4686.839945566033
 20
2872.965103662607
  0
ARC
  5
1D19
330
1F
100
AcDbEntity
  8
SANINDUSA
100
AcDbCircle
 10
4687.175955167282
 20
2872.978699640522
 30
0.0
 40
0.002590527643782
100
AcDbArc
 50
0.0
 51
90.00284521735236
  0
LWPOLYLINE
  5
1D23
330
1F
100
AcDbEntity
  8
SANINDUSA
100
AcDbPolyline
 90
        3
 70
   128
 43
0.0
 10
4687.164954971645
 20
2872.981291702982
 10
4687.172954958056
 20
2872.981290585395
 10
4687.175955038641
 20
2872.981290168162
  0
ARC
  5
1D24
330
1F
100
AcDbEntity
  8
SANINDUSA
100
AcDbCircle
 10
4686.90494587455
 20
2872.978699782104
 30
0.0
 40
0.0025906989833553
100
AcDbArc
 50
90.00061437935126
 51
180.0
  0
LWPOLYLINE
  5
1D2F
330
1F
100
AcDbEntity
  8
SANINDUSA
100
AcDbPolyline
 90
        3
 70
   128
 43
0.0
 10
4687.178545694922
 20
2872.978699795004
 10
4687.178546112154
 20
2872.97070155203
 10
4687.178546231364
 20
2872.967701992985
  0
ARC
  5
1D31
330
1F
100
AcDbEntity
  8
SANINDUSA
100
AcDbCircle
 10
4687.229955641959
 20
2872.967695468432
 30
0.0
 40
0.0025907031423819
100
AcDbArc
 50
180.0
 51
269.9976456608067
  0
LWPOLYLINE
  5
1D32
330
1F
100
AcDbEntity
  8
SANINDUSA
100
AcDbPolyline
 90
        3
 70
   128
 43
0.0
 10
4686.90494584677
 20
2872.981290481087
 10
4686.912945788477
 20
2872.981291598674
 10
4686.915945928667
 20
2872.981292001006
  0
LWPOLYLINE
  5
1D34
330
1F
100
AcDbEntity
  8
SANINDUSA
100
AcDbPolyline
 90
        3
 70
   128
 43
0.0
 10
4686.902354639147
 20
2872.967702335712
 10
4686.902355026577
 20
2872.975700578686
 10
4686.902355175589
 20
2872.97870012283
  0
ARC
  5
1D36
330
1F
100
AcDbEntity
  8
SANINDUSA
100
AcDbCircle
 10
4686.850945131315
 20
2872.96769583389
 30
0.0
 40
0.0025907407782057
100
AcDbArc
 50
270.0038456291249
 51
0.0
  0
ARC
  5
1D37
330
1F
100
AcDbEntity
  8
SANINDUSA
100
AcDbCircle
 10
4687.164954569457
 20
2872.978702015132
 30
0.0
 40
0.0025896878820036
100
AcDbArc
 50
89.99110176508333
 51
179.9907647162504
  0
ARC
  5
1D39
330
1F
100
AcDbEntity
  8
SANINDUSA
100
AcDbCircle
 10
4686.915946531476
 20
2872.978702513839
 30
0.0
 40
0.0025894872369382
100
AcDbArc
 50
0.0
 51
90.01333792049379
  0
LWPOLYLINE
  5
1D3B
330
1F
100
AcDbEntity
  8
SANINDUSA
100
AcDbPolyline
 90
        3
 70
   128
 43
0.0
 10
4687.162365418051
 20
2872.967704809305
 10
4687.162365030621
 20
2872.975702947971
 10
4687.16236488161
 20
2872.97870243251
  0
LWPOLYLINE
  5
1D3D
330
1F
100
AcDbEntity
  8
SANINDUSA
100
AcDbPolyline
 90
        3
 70
   128
 43
0.0
 10
4686.918536018704
 20
2872.978702730533
 10
4686.918535631273
 20
2872.970704606768
 10
4686.918535482262
 20
2872.96770513713
  0
ARC
  5
1D41
330
1F
100
AcDbEntity
  8
SANINDUSA
100
AcDbCircle
 10
4687.110954102915
 20
2872.978708080712
 30
0.0
 40
0.0025904023137962
100
AcDbArc
 50
0.0
 51
90.00627688299609
  0
ARC
  5
1D4A
330
1F
100
AcDbEntity
  8
SANINDUSA
100
AcDbCircle
 10
4686.969947078465
 20
2872.978708067815
 30
0.0
 40
0.0025906238124272
100
AcDbArc
 50
89.99862163289073
 51
179.9885234040687
  0
LWPOLYLINE
  5
1D56
330
1F
100
AcDbEntity
  8
SANINDUSA
100
AcDbPolyline
 90
        3
 70
   128
 43
0.0
 10
4687.099953394507
 20
2872.981299555894
 10
4687.107953380917
 20
2872.981298781034
 10
4687.11095381913
 20
2872.98129848301
  0
ARC
  5
1D57
330
1F
100
AcDbEntity
  8
SANINDUSA
100
AcDbCircle
 10
4687.175956652139
 20
2872.967702286808
 30
0.0
 40
0.0025895792413156
100
AcDbArc
 50
269.9893574279606
 51
0.0
  0
LWPOLYLINE
  5
1D59
330
1F
100
AcDbEntity
  8
SANINDUSA
100
AcDbPolyline
 90
        3
 70
   128
 43
0.0
 10
4687.113544505213
 20
2872.978708363172
 10
4687.113544803236
 20
2872.97071053743
 10
4687.113544922445
 20
2872.967711276409
  0
LWPOLYLINE
  5
1D5B
330
1F
100
AcDbEntity
  8
SANINDUSA
100
AcDbPolyline
 90
        3
 70
   128
 43
0.0
 10
4686.969947140787
 20
2872.981298691627
 10
4686.977947127197
 20
2872.981299466487
 10
4686.980947565411
 20
2872.981299749609
  0
LWPOLYLINE
  5
1D5D
330
1F
100
AcDbEntity
  8
SANINDUSA
100
AcDbPolyline
 90
        3
 70
   128
 43
0.0
 10
4686.967356037472
 20
2872.967711514827
 10
4686.967356335496
 20
2872.975709340569
 10
4686.967356454704
 20
2872.978708586689
  0
ARC
  5
1D5F
330
1F
100
AcDbEntity
  8
SANINDUSA
100
AcDbCircle
 10
4686.904944084588
 20
2872.96770251061
 30
0.0
 40
0.0025894454475219
100
AcDbArc
 50
180.0
 51
270.0139330190821
  0
LWPOLYLINE
  5
1D61
330
1F
100
AcDbEntity
  8
SANINDUSA
100
AcDbPolyline
 90
        3
 70
   128
 43
0.0
 10
4687.17595617113
 20
2872.965112707611
 10
4687.167956274126
 20
2872.965113959309
 10
4687.164956133936
 20
2872.965114421245
  0
ARC
  5
1D63
330
1F
100
AcDbEntity
  8
SANINDUSA
100
AcDbCircle
 10
4687.099952989023
 20
2872.978709692498
 30
0.0
 40
0.0025898634278373
100
AcDbArc
 50
89.99102943611564
 51
179.9875420125014
  0
LWPOLYLINE
  5
1D66
330
1F
100
AcDbEntity
  8
SANINDUSA
100
AcDbPolyline
 90
        3
 70
   128
 43
0.0
 10
4686.915944796179
 20
2872.965114763971
 10
4686.907944854472
 20
2872.965113527175
 10
4686.904944714282
 20
2872.965113065239
  0
ARC
  5
1D67
330
1F
100
AcDbEntity
  8
SANINDUSA
100
AcDbCircle
 10
4686.980948200741
 20
2872.978710116147
 30
0.0
 40
0.0025896335396865
100
AcDbArc
 50
0.0
 51
90.0140567287247
  0
LWPOLYLINE
  5
1D69
330
1F
100
AcDbEntity
  8
SANINDUSA
100
AcDbPolyline
 90
        3
 70
   128
 43
0.0
 10
4687.097363483284
 20
2872.967713317868
 10
4687.097363215063
 20
2872.975711069104
 10
4687.097363125657
 20
2872.978710255619
  0
LWPOLYLINE
  5
1D6B
330
1F
100
AcDbEntity
  8
SANINDUSA
100
AcDbPolyline
 90
        3
 70
   128
 43
0.0
 10
4686.983537834261
 20
2872.978710434433
 10
4686.983537566041
 20
2872.970712698098
 10
4686.983537476634
 20
2872.967713511583
  0
ARC
  5
1D6D
330
1F
100
AcDbEntity
  8
SANINDUSA
100
AcDbCircle
 10
4687.16495607523
 20
2872.967705078437
 30
0.0
 40
0.002590657193382
100
AcDbArc
 50
180.0
 51
270.0012983779402
  0
ARC
  5
1D6E
330
1F
100
AcDbEntity
  8
SANINDUSA
100
AcDbCircle
 10
4686.91594471645
 20
2872.967705529812
 30
0.0
 40
0.0025907658419601
100
AcDbArc
 50
270.0017632531046
 51
359.9913149479454
  0
ARC
  5
1D71
330
1F
100
AcDbEntity
  8
SANINDUSA
100
AcDbCircle
 10
4687.04595136766
 20
2872.978712510581
 30
0.0
 40
0.0025899511058105
100
AcDbArc
 50
0.0
 51
90.0129633002011
  0
ARC
  5
1D7A
330
1F
100
AcDbEntity
  8
SANINDUSA
100
AcDbCircle
 10
4687.034949910373
 20
2872.978712237068
 30
0.0
 40
0.0025902394706581
100
AcDbArc
 50
89.99341561466607
 51
179.9868065550657
  0
LWPOLYLINE
  5
1D7D
330
1F
100
AcDbEntity
  8
SANINDUSA
100
AcDbPolyline
 90
        3
 70
   128
 43
0.0
 10
4687.034950208043
 20
2872.981302476522
 10
4687.042950194452
 20
2872.981302491423
 10
4687.045950781677
 20
2872.981302461621
  0
LWPOLYLINE
  5
1D7E
330
1F
100
AcDbEntity
  8
SANINDUSA
100
AcDbPolyline
 90
        3
 70
   128
 43
0.0
 10
4687.048541318748
 20
2872.978712803718
 10
4687.048541348551
 20
2872.970715201494
 10
4687.048541378353
 20
2872.967716104385
  0
LWPOLYLINE
  5
1D80
330
1F
100
AcDbEntity
  8
SANINDUSA
100
AcDbPolyline
 90
        3
 70
   128
 43
0.0
 10
4687.032359611367
 20
2872.967716134187
 10
4687.032359670971
 20
2872.975713736412
 10
4687.032359670971
 20
2872.97871283352
  0
ARC
  5
1D82
330
1F
100
AcDbEntity
  8
SANINDUSA
100
AcDbCircle
 10
4687.110955201128
 20
2872.967711771958
 30
0.0
 40
0.0025897213647722
100
AcDbArc
 50
269.9892049013799
 51
359.9890358037534
  0
ARC
  5
1D84
330
1F
100
AcDbEntity
  8
SANINDUSA
100
AcDbCircle
 10
4686.969945499701
 20
2872.96771175119
 30
0.0
 40
0.0025894622393571
100
AcDbArc
 50
180.0
 51
270.016528889184
  0
LWPOLYLINE
  5
1D86
330
1F
100
AcDbEntity
  8
SANINDUSA
100
AcDbPolyline
 90
        3
 70
   128
 43
0.0
 10
4687.1109547132
 20
2872.96512205064
 10
4687.102954756592
 20
2872.96512295961
 10
4687.099954199169
 20
2872.965123272535
  0
LWPOLYLINE
  5
1D89
330
1F
100
AcDbEntity
  8
SANINDUSA
100
AcDbPolyline
 90
        3
 70
   128
 43
0.0
 10
4686.98094679055
 20
2872.965123481151
 10
4686.97294680414
 20
2872.965122631785
 10
4686.969946246718
 20
2872.965122289058
  0
ARC
  5
1D8A
330
1F
100
AcDbEntity
  8
SANINDUSA
100
AcDbCircle
 10
4687.099953818755
 20
2872.967713607993
 30
0.0
 40
0.002590335486807
100
AcDbArc
 50
180.0
 51
270.00841439163
  0
ARC
  5
1D8B
330
1F
100
AcDbEntity
  8
SANINDUSA
100
AcDbCircle
 10
4686.980946894657
 20
2872.967714063183
 30
0.0
 40
0.0025905820345715
100
AcDbArc
 50
269.9976974583533
 51
359.9877994890438
  0
ARC
  5
1D8C
330
1F
100
AcDbEntity
  8
SANINDUSA
100
AcDbCircle
 10
4687.04595120579
 20
2872.967716753216
 30
0.0
 40
0.0025901726455336
100
AcDbArc
 50
269.9925961816401
 51
359.9856464515207
  0
ARC
  5
1D8E
330
1F
100
AcDbEntity
  8
SANINDUSA
100
AcDbCircle
 10
4687.034949474737
 20
2872.967716458804
 30
0.0
 40
0.0025898633908586
100
AcDbArc
 50
180.0
 51
270.0142450029066
  0
LWPOLYLINE
  5
1D90
330
1F
100
AcDbEntity
  8
SANINDUSA
100
AcDbPolyline
 90
        3
 70
   128
 43
0.0
 10
4687.045950871084
 20
2872.965126580592
 10
4687.037950884675
 20
2872.965126610395
 10
4687.034950118635
 20
2872.965126595494
  0
ARC
  5
1EB3
330
1F
100
AcDbEntity
  8
SANINDUSA
100
AcDbCircle
 10
4687.240956490927
 20
2872.913700194081
 30
0.0
 40
0.002590632125129
100
AcDbArc
 50
0.0
 51
89.99526130612883
  0
LWPOLYLINE
  5
1EBD
330
1F
100
AcDbEntity
  8
SANINDUSA
100
AcDbPolyline
 90
        3
 70
   128
 43
0.0
 10
4687.229957085226
 20
2872.916292584535
 10
4687.23795698223
 20
2872.916291288134
 10
4687.240956705188
 20
2872.916290826198
  0
LWPOLYLINE
  5
1EBE
330
1F
100
AcDbEntity
  8
SANINDUSA
100
AcDbPolyline
 90
        3
 70
   128
 43
0.0
 10
4687.243547123049
 20
2872.91370033383
 10
4687.243547361467
 20
2872.905701643821
 10
4687.243547480677
 20
2872.902701756951
  0
ARC
  5
1EC0
330
1F
100
AcDbEntity
  8
SANINDUSA
100
AcDbCircle
 10
4686.839944344504
 20
2872.913700556985
 30
0.0
 40
0.0025906864565332
100
AcDbArc
 50
90.0052810048073
 51
180.0
  0
LWPOLYLINE
  5
1ECB
330
1F
100
AcDbEntity
  8
SANINDUSA
100
AcDbPolyline
 90
        3
 70
   128
 43
0.0
 10
4686.839944105719
 20
2872.916291243431
 10
4686.847944002722
 20
2872.916292510029
 10
4686.850943710779
 20
2872.916293001768
  0
LWPOLYLINE
  5
1ECD
330
1F
100
AcDbEntity
  8
SANINDUSA
100
AcDbPolyline
 90
        3
 70
   128
 43
0.0
 10
4686.837353315328
 20
2872.902702174183
 10
4686.837353553746
 20
2872.910700864192
 10
4686.837353658055
 20
2872.913700736162
  0
ARC
  5
1ECF
330
1F
100
AcDbEntity
  8
SANINDUSA
100
AcDbCircle
 10
4687.229956687753
 20
2872.913702921796
 30
0.0
 40
0.0025896627688957
100
AcDbArc
 50
89.9912059855019
 51
180.0
  0
LWPOLYLINE
  5
1ED1
330
1F
100
AcDbEntity
  8
SANINDUSA
100
AcDbPolyline
 90
        3
 70
   128
 43
0.0
 10
4687.227367442225
 20
2872.902704647776
 10
4687.227367144202
 20
2872.910703278181
 10
4687.227367024992
 20
2872.913703135248
  0
ARC
  5
1ED3
330
1F
100
AcDbEntity
  8
SANINDUSA
100
AcDbCircle
 10
4686.850944290394
 20
2872.913703506313
 30
0.0
 40
0.0025894955191554
100
AcDbArc
 50
0.0
 51
90.0128247391559
  0
LWPOLYLINE
  5
1ED5
330
1F
100
AcDbEntity
  8
SANINDUSA
100
AcDbPolyline
 90
        3
 70
   128
 43
0.0
 10
4686.853533785914
 20
2872.913703567382
 10
4686.85353348789
 20
2872.905704951879
 10
4686.853533383582
 20
2872.902705094811
  0
ARC
  5
1EE6
330
1F
100
AcDbEntity
  8
SANINDUSA
100
AcDbCircle
 10
4687.240957817897
 20
2872.902701895902
 30
0.0
 40
0.0025896627838213
100
AcDbArc
 50
269.9898876493314
 51
0.0
  0
LWPOLYLINE
  5
1EE9
330
1F
100
AcDbEntity
  8
SANINDUSA
100
AcDbPolyline
 90
        3
 70
   128
 43
0.0
 10
4687.240957360838
 20
2872.900112233159
 10
4687.232957463835
 20
2872.90011354446
 10
4687.229957860086
 20
2872.9001140511
  0
ARC
  5
1EEB
330
1F
100
AcDbEntity
  8
SANINDUSA
100
AcDbCircle
 10
4686.839942919456
 20
2872.902702254472
 30
0.0
 40
0.0025896041294224
100
AcDbArc
 50
180.0
 51
270.0110805583487
  0
LWPOLYLINE
  5
1EEE
330
1F
100
AcDbEntity
  8
SANINDUSA
100
AcDbPolyline
 90
        3
 70
   128
 43
0.0
 10
4686.850942906116
 20
2872.900114527937
 10
4686.842943038914
 20
2872.90011315703
 10
4686.839943420266
 20
2872.900112650391
  0
ARC
  5
1EEF
330
1F
100
AcDbEntity
  8
SANINDUSA
100
AcDbCircle
 10
4687.229958199735
 20
2872.902704808593
 30
0.0
 40
0.0025907575157718
100
AcDbArc
 50
180.0
 51
269.9924885219516
  0
ARC
  5
1EF0
330
1F
100
AcDbEntity
  8
SANINDUSA
100
AcDbCircle
 10
4686.850942575942
 20
2872.902705335567
 30
0.0
 40
0.002590807651121
100
AcDbArc
 50
270.0073017865702
 51
0.0
  0
ARC
  5
1EFE
330
1F
100
AcDbEntity
  8
SANINDUSA
100
AcDbCircle
 10
4687.175958194797
 20
2872.913712013446
 30
0.0
 40
0.0025907783864112
100
AcDbArc
 50
0.0
 51
89.99729975324585
  0
LWPOLYLINE
  5
1F09
330
1F
100
AcDbEntity
  8
SANINDUSA
100
AcDbPolyline
 90
        3
 70
   128
 43
0.0
 10
4687.164958279703
 20
2872.916305071708
 10
4687.172958117102
 20
2872.916303417679
 10
4687.175958316896
 20
2872.916302791831
  0
LWPOLYLINE
  5
1F0A
330
1F
100
AcDbEntity
  8
SANINDUSA
100
AcDbPolyline
 90
        3
 70
   128
 43
0.0
 10
4687.178548973178
 20
2872.913712195155
 10
4687.178549390409
 20
2872.90571381807
 10
4687.178549569224
 20
2872.902714154717
  0
ARC
  5
1F0C
330
1F
100
AcDbEntity
  8
SANINDUSA
100
AcDbCircle
 10
4686.904942847552
 20
2872.913712333342
 30
0.0
 40
0.0025909204362046
100
AcDbArc
 50
90.00551159247875
 51
180.0
  0
LWPOLYLINE
  5
1F17
330
1F
100
AcDbEntity
  8
SANINDUSA
100
AcDbPolyline
 90
        3
 70
   128
 43
0.0
 10
4686.904942598317
 20
2872.916303253767
 10
4686.912942450617
 20
2872.916304907795
 10
4686.915942650411
 20
2872.916305518743
  0
LWPOLYLINE
  5
1F1A
330
1F
100
AcDbEntity
  8
SANINDUSA
100
AcDbPolyline
 90
        3
 70
   128
 43
0.0
 10
4686.902351360891
 20
2872.902714631554
 10
4686.902351778124
 20
2872.910712993738
 10
4686.902351927136
 20
2872.913712657091
  0
ARC
  5
1F21
330
1F
100
AcDbEntity
  8
SANINDUSA
100
AcDbCircle
 10
4687.164957694818
 20
2872.913715626207
 30
0.0
 40
0.0025894455672177
100
AcDbArc
 50
89.98705842975502
 51
180.0
  0
LWPOLYLINE
  5
1F23
330
1F
100
AcDbEntity
  8
SANINDUSA
100
AcDbPolyline
 90
        3
 70
   128
 43
0.0
 10
4687.162368845318
 20
2872.902718088623
 10
4687.162368398283
 20
2872.9107163614
 10
4687.162368249271
 20
2872.913715950247
  0
ARC
  5
1F25
330
1F
100
AcDbEntity
  8
SANINDUSA
100
AcDbCircle
 10
4686.915943427567
 20
2872.913716265579
 30
0.0
 40
0.0025892532802871
100
AcDbArc
 50
0.0
 51
90.01719709841237
  0
LWPOLYLINE
  5
1F28
330
1F
100
AcDbEntity
  8
SANINDUSA
100
AcDbPolyline
 90
        3
 70
   128
 43
0.0
 10
4686.918532680844
 20
2872.913716397282
 10
4686.918532263611
 20
2872.905718154308
 10
4686.918532084797
 20
2872.902718565461
  0
ARC
  5
1F2F
330
1F
100
AcDbEntity
  8
SANINDUSA
100
AcDbCircle
 10
4687.175960190494
 20
2872.902714367201
 30
0.0
 40
0.0025893787384068
100
AcDbArc
 50
269.9849201915302
 51
0.0
  0
LWPOLYLINE
  5
1F31
330
1F
100
AcDbEntity
  8
SANINDUSA
100
AcDbPolyline
 90
        3
 70
   128
 43
0.0
 10
4687.17595950899
 20
2872.900124988552
 10
4687.167959731196
 20
2872.900126776692
 10
4687.164959561203
 20
2872.900127462145
  0
ARC
  5
1F33
330
1F
100
AcDbEntity
  8
SANINDUSA
100
AcDbCircle
 10
4686.904940597433
 20
2872.902714731614
 30
0.0
 40
0.0025892365433676
100
AcDbArc
 50
180.0
 51
270.017567549895
  0
LWPOLYLINE
  5
1F36
330
1F
100
AcDbEntity
  8
SANINDUSA
100
AcDbPolyline
 90
        3
 70
   128
 43
0.0
 10
4686.915941368912
 20
2872.900127938983
 10
4686.907941561315
 20
2872.900126150843
 10
4686.904941391324
 20
2872.900125495192
  0
ARC
  5
1F3B
330
1F
100
AcDbEntity
  8
SANINDUSA
100
AcDbCircle
 10
4687.164959686385
 20
2872.902718303218
 30
0.0
 40
0.0025908410763422
100
AcDbArc
 50
180.0
 51
269.9972316452042
  0
ARC
  5
1F3C
330
1F
100
AcDbEntity
  8
SANINDUSA
100
AcDbCircle
 10
4686.915941051574
 20
2872.902718972218
 30
0.0
 40
0.0025910332554683
100
AcDbArc
 50
270.0070173169443
 51
359.9910053351407
  0
ARC
  5
1F41
330
1F
100
AcDbEntity
  8
SANINDUSA
100
AcDbCircle
 10
4687.110956720455
 20
2872.913724975943
 30
0.0
 40
0.0025905861887314
100
AcDbArc
 50
0.0
 51
90.00418705520797
  0
LWPOLYLINE
  5
1F4B
330
1F
100
AcDbEntity
  8
SANINDUSA
100
AcDbPolyline
 90
        3
 70
   128
 43
0.0
 10
4687.099955808495
 20
2872.916317305561
 10
4687.1079557353
 20
2872.916316053864
 10
4687.110956531141
 20
2872.916315562126
  0
ARC
  5
1F4C
330
1F
100
AcDbEntity
  8
SANINDUSA
100
AcDbCircle
 10
4686.969944507381
 20
2872.913725050707
 30
0.0
 40
0.0025908243428733
100
AcDbArc
 50
90.0004202167166
 51
179.9887036532742
  0
LWPOLYLINE
  5
1F57
330
1F
100
AcDbEntity
  8
SANINDUSA
100
AcDbPolyline
 90
        3
 70
   128
 43
0.0
 10
4687.113547306632
 20
2872.913725233671
 10
4687.113547723863
 20
2872.905727333423
 10
4687.113547872876
 20
2872.902728012796
  0
LWPOLYLINE
  5
1F5B
330
1F
100
AcDbEntity
  8
SANINDUSA
100
AcDbPolyline
 90
        3
 70
   128
 43
0.0
 10
4686.969944488381
 20
2872.91631587505
 10
4686.977944415186
 20
2872.916317126747
 10
4686.980945211027
 20
2872.916317573782
  0
LWPOLYLINE
  5
1F5D
330
1F
100
AcDbEntity
  8
SANINDUSA
100
AcDbPolyline
 90
        3
 70
   128
 43
0.0
 10
4686.967353146647
 20
2872.902728340622
 10
4686.967353534077
 20
2872.91072624087
 10
4686.967353683089
 20
2872.913725561496
  0
ARC
  5
1F5F
330
1F
100
AcDbEntity
  8
SANINDUSA
100
AcDbCircle
 10
4687.099955219226
 20
2872.913727625993
 30
0.0
 40
0.0025896796351557
100
AcDbArc
 50
89.98696259908518
 51
179.9883111852408
  0
ARC
  5
1F61
330
1F
100
AcDbEntity
  8
SANINDUSA
100
AcDbCircle
 10
4686.980946026516
 20
2872.913728090728
 30
0.0
 40
0.0025894831828541
100
AcDbArc
 50
0.0
 51
90.01804378510243
  0
LWPOLYLINE
  5
1F63
330
1F
100
AcDbEntity
  8
SANINDUSA
100
AcDbPolyline
 90
        3
 70
   128
 43
0.0
 10
4687.097366016482
 20
2872.90273112714
 10
4687.097365658853
 20
2872.910728923079
 10
4687.097365539645
 20
2872.913728154298
  0
LWPOLYLINE
  5
1F65
330
1F
100
AcDbEntity
  8
SANINDUSA
100
AcDbPolyline
 90
        3
 70
   128
 43
0.0
 10
4686.98353550968
 20
2872.913728407618
 10
4686.983535152052
 20
2872.905730626579
 10
4686.983535032843
 20
2872.90273139536
  0
ARC
  5
1F69
330
1F
100
AcDbEntity
  8
SANINDUSA
100
AcDbCircle
 10
4687.045951696554
 20
2872.913731974955
 30
0.0
 40
0.0025900096445753
100
AcDbArc
 50
0.0
 51
90.01364594394258
  0
ARC
  5
1F72
330
1F
100
AcDbEntity
  8
SANINDUSA
100
AcDbCircle
 10
4687.034949682828
 20
2872.913731674575
 30
0.0
 40
0.0025903397688182
100
AcDbArc
 50
89.99365636382799
 51
179.9852472352043
  0
LWPOLYLINE
  5
1F75
330
1F
100
AcDbEntity
  8
SANINDUSA
100
AcDbPolyline
 90
        3
 70
   128
 43
0.0
 10
4687.034949969624
 20
2872.916322014328
 10
4687.042949985836
 20
2872.916322029229
 10
4687.045951079701
 20
2872.916321984526
  0
LWPOLYLINE
  5
1F76
330
1F
100
AcDbEntity
  8
SANINDUSA
100
AcDbPolyline
 90
        3
 70
   128
 43
0.0
 10
4687.048541706179
 20
2872.913732296821
 10
4687.048541765784
 20
2872.905734694596
 10
4687.048541795586
 20
2872.902735597488
  0
LWPOLYLINE
  5
1F78
330
1F
100
AcDbEntity
  8
SANINDUSA
100
AcDbPolyline
 90
        3
 70
   128
 43
0.0
 10
4687.032359283541
 20
2872.902735642191
 10
4687.032359343145
 20
2872.910733244415
 10
4687.032359343145
 20
2872.913732341525
  0
ARC
  5
1F7A
330
1F
100
AcDbEntity
  8
SANINDUSA
100
AcDbCircle
 10
4687.110958360394
 20
2872.902728478272
 30
0.0
 40
0.0025895125238096
100
AcDbArc
 50
269.9845833511374
 51
359.9897006518487
  0
ARC
  5
1F7C
330
1F
100
AcDbEntity
  8
SANINDUSA
100
AcDbCircle
 10
4686.969942483564
 20
2872.902728630454
 30
0.0
 40
0.0025893369340447
100
AcDbArc
 50
180.0
 51
270.0193025072431
  0
LWPOLYLINE
  5
1F7E
330
1F
100
AcDbEntity
  8
SANINDUSA
100
AcDbPolyline
 90
        3
 70
   128
 43
0.0
 10
4687.110957663629
 20
2872.900138965841
 10
4687.102957766627
 20
2872.900140366551
 10
4687.099956851576
 20
2872.90014087319
  0
LWPOLYLINE
  5
1F81
330
1F
100
AcDbEntity
  8
SANINDUSA
100
AcDbPolyline
 90
        3
 70
   128
 43
0.0
 10
4686.980944197748
 20
2872.900141171213
 10
4686.972944300745
 20
2872.900139830109
 10
4686.969943355893
 20
2872.900139293667
  0
ARC
  5
1F82
330
1F
100
AcDbEntity
  8
SANINDUSA
100
AcDbCircle
 10
4687.099956556719
 20
2872.902731413427
 30
0.0
 40
0.002590540253461
100
AcDbArc
 50
180.0
 51
270.0065214362032
  0
ARC
  5
1F83
330
1F
100
AcDbEntity
  8
SANINDUSA
100
AcDbCircle
 10
4686.980944216914
 20
2872.90273198721
 30
0.0
 40
0.0025908159962618
100
AcDbArc
 50
269.9995761355688
 51
359.9869112705258
  0
ARC
  5
1F93
330
1F
100
AcDbEntity
  8
SANINDUSA
100
AcDbCircle
 10
4687.240958135855
 20
2872.848708472421
 30
0.0
 40
0.0025907157372351
100
AcDbArc
 50
0.0
 51
89.99209420400498
  0
LWPOLYLINE
  5
1F96
330
1F
100
AcDbEntity
  8
SANINDUSA
100
AcDbPolyline
 90
        3
 70
   128
 43
0.0
 10
4687.229959230993
 20
2872.851301244494
 10
4687.237959068392
 20
2872.851299724576
 10
4687.240958493326
 20
2872.851299188134
  0
LWPOLYLINE
  5
1F99
330
1F
100
AcDbEntity
  8
SANINDUSA
100
AcDbPolyline
 90
        3
 70
   128
 43
0.0
 10
4687.243548851584
 20
2872.848708680864
 10
4687.243548970793
 20
2872.84070991635
 10
4687.243549030397
 20
2872.837710133787
  0
ARC
  5
1FA3
330
1F
100
AcDbEntity
  8
SANINDUSA
100
AcDbCircle
 10
4686.839942628533
 20
2872.848708995782
 30
0.0
 40
0.0025906990180941
100
AcDbArc
 50
90.00819526820434
 51
180.0
  0
LWPOLYLINE
  5
1FA6
330
1F
100
AcDbEntity
  8
SANINDUSA
100
AcDbPolyline
 90
        3
 70
   128
 43
0.0
 10
4686.839942257974
 20
2872.851299694773
 10
4686.847942080472
 20
2872.851301184889
 10
4686.85094155011
 20
2872.851301780936
  0
LWPOLYLINE
  5
1FA8
330
1F
100
AcDbEntity
  8
SANINDUSA
100
AcDbPolyline
 90
        3
 70
   128
 43
0.0
 10
4686.837351691101
 20
2872.837710640427
 10
4686.837351855014
 20
2872.84570937514
 10
4686.83735192952
 20
2872.848709157702
  0
ARC
  5
1FAA
330
1F
100
AcDbEntity
  8
SANINDUSA
100
AcDbCircle
 10
4687.045951597933
 20
2872.90273628631
 30
0.0
 40
0.002590197744768
100
AcDbArc
 50
269.9911735208388
 51
359.984763079252
  0
ARC
  5
1FAC
330
1F
100
AcDbEntity
  8
SANINDUSA
100
AcDbCircle
 10
4687.034949163673
 20
2872.902735998457
 30
0.0
 40
0.0025898801566831
100
AcDbArc
 50
180.0
 51
270.0158520817792
  0
LWPOLYLINE
  5
1FAE
330
1F
100
AcDbEntity
  8
SANINDUSA
100
AcDbPolyline
 90
        3
 70
   128
 43
0.0
 10
4687.04595119891
 20
2872.900146088597
 10
4687.037951182698
 20
2872.900146148202
 10
4687.034949880216
 20
2872.900146118399
  0
ARC
  5
1FAF
330
1F
100
AcDbEntity
  8
SANINDUSA
100
AcDbCircle
 10
4687.229958616313
 20
2872.848711799012
 30
0.0
 40
0.0025894455546977
100
AcDbArc
 50
89.98639918350239
 51
180.0
  0
LWPOLYLINE
  5
1FB1
330
1F
100
AcDbEntity
  8
SANINDUSA
100
AcDbPolyline
 90
        3
 70
   128
 43
0.0
 10
4687.227369468782
 20
2872.837713352438
 10
4687.227369230364
 20
2872.845712057348
 10
4687.227369170759
 20
2872.848711839911
  0
ARC
  5
1FB3
330
1F
100
AcDbEntity
  8
SANINDUSA
100
AcDbCircle
 10
4686.85094220676
 20
2872.848712377435
 30
0.0
 40
0.0025894035841562
100
AcDbArc
 50
0.0
 51
90.01452968098291
  0
LWPOLYLINE
  5
1FB5
330
1F
100
AcDbEntity
  8
SANINDUSA
100
AcDbPolyline
 90
        3
 70
   128
 43
0.0
 10
4686.853531610345
 20
2872.848712376353
 10
4686.853531386827
 20
2872.840713701245
 10
4686.85353129742
 20
2872.837713918682
  0
ARC
  5
1FBB
330
1F
100
AcDbEntity
  8
SANINDUSA
100
AcDbCircle
 10
4687.240959518012
 20
2872.837710152124
 30
0.0
 40
0.0025895123849963
100
AcDbArc
 50
269.9878782275662
 51
0.0
  0
LWPOLYLINE
  5
1FBE
330
1F
100
AcDbEntity
  8
SANINDUSA
100
AcDbPolyline
 90
        3
 70
   128
 43
0.0
 10
4687.240958970163
 20
2872.835120639797
 10
4687.232959132765
 20
2872.835122159716
 10
4687.229959767435
 20
2872.835122755763
  0
ARC
  5
1FC0
330
1F
100
AcDbEntity
  8
SANINDUSA
100
AcDbCircle
 10
4686.839941203291
 20
2872.837710658561
 30
0.0
 40
0.0025895121886887
100
AcDbArc
 50
180.0
 51
270.0127855001645
  0
LWPOLYLINE
  5
1FC4
330
1F
100
AcDbEntity
  8
SANINDUSA
100
AcDbPolyline
 90
        3
 70
   128
 43
0.0
 10
4686.850940968965
 20
2872.835123292204
 10
4686.842941176269
 20
2872.835121712681
 10
4686.839941781138
 20
2872.835121146437
  0
ARC
  5
1FC6
330
1F
100
AcDbEntity
  8
SANINDUSA
100
AcDbCircle
 10
4687.229960134381
 20
2872.837713421335
 30
0.0
 40
0.0025906655989095
100
AcDbArc
 50
180.0
 51
269.9918845646334
  0
ARC
  5
1FC8
330
1F
100
AcDbEntity
  8
SANINDUSA
100
AcDbCircle
 10
4686.850940531537
 20
2872.837714058052
 30
0.0
 40
0.0025907658855606
100
AcDbArc
 50
270.009673843262
 51
0.0
  0
ARC
  5
1FD5
330
1F
100
AcDbEntity
  8
SANINDUSA
100
AcDbCircle
 10
4687.175961454324
 20
2872.848723232598
 30
0.0
 40
0.0025909163213909
100
AcDbArc
 50
0.0
 51
89.99293135450129
  0
LWPOLYLINE
  5
1FDF
330
1F
100
AcDbEntity
  8
SANINDUSA
100
AcDbPolyline
 90
        3
 70
   128
 43
0.0
 10
4687.164961945389
 20
2872.851317188736
 10
4687.172961574171
 20
2872.851314983364
 10
4687.175961773966
 20
2872.851314148899
  0
LWPOLYLINE
  5
1FE0
330
1F
100
AcDbEntity
  8
SANINDUSA
100
AcDbPolyline
 90
        3
 70
   128
 43
0.0
 10
4687.178552370641
 20
2872.848723343608
 10
4687.178552787875
 20
2872.840724877116
 10
4687.178552907083
 20
2872.837725183961
  0
ARC
  5
1FEA
330
1F
100
AcDbEntity
  8
SANINDUSA
100
AcDbCircle
 10
4686.904939629786
 20
2872.848723644859
 30
0.0
 40
0.0025911001327921
100
AcDbArc
 50
90.01080281093562
 51
180.0
  0
LWPOLYLINE
  5
1FED
330
1F
100
AcDbEntity
  8
SANINDUSA
100
AcDbPolyline
 90
        3
 70
   128
 43
0.0
 10
4686.904939141248
 20
2872.851314744946
 10
4686.912938814734
 20
2872.851316920515
 10
4686.915939014528
 20
2872.85131775498
  0
LWPOLYLINE
  5
1FEF
330
1F
100
AcDbEntity
  8
SANINDUSA
100
AcDbPolyline
 90
        3
 70
   128
 43
0.0
 10
4686.902347963427
 20
2872.837725809809
 10
4686.902348365758
 20
2872.845724276301
 10
4686.902348529671
 20
2872.848723939654
  0
ARC
  5
1FF5
330
1F
100
AcDbEntity
  8
SANINDUSA
100
AcDbCircle
 10
4687.164961173114
 20
2872.848727960482
 30
0.0
 40
0.0025892283688464
100
AcDbArc
 50
89.98291071761853
 51
180.0
  0
LWPOLYLINE
  5
1FF7
330
1F
100
AcDbEntity
  8
SANINDUSA
100
AcDbPolyline
 90
        3
 70
   128
 43
0.0
 10
4687.162372570608
 20
2872.837730220553
 10
4687.162372093771
 20
2872.845728597638
 10
4687.16237194476
 20
2872.848728231188
  0
ARC
  5
1FF9
330
1F
100
AcDbEntity
  8
SANINDUSA
100
AcDbCircle
 10
4686.915939903946
 20
2872.848728643917
 30
0.0
 40
0.0025891112158673
100
AcDbArc
 50
0.0
 51
90.01968239068103
  0
LWPOLYLINE
  5
1FFB
330
1F
100
AcDbEntity
  8
SANINDUSA
100
AcDbPolyline
 90
        3
 70
   128
 43
0.0
 10
4686.918529015158
 20
2872.848728797432
 10
4686.918528568123
 20
2872.840730420348
 10
4686.918528389309
 20
2872.837730816599
  0
ARC
  5
2003
330
1F
100
AcDbEntity
  8
SANINDUSA
100
AcDbCircle
 10
4687.175963745596
 20
2872.837725328182
 30
0.0
 40
0.0025891614920091
100
AcDbArc
 50
269.9827495407371
 51
0.0
  0
LWPOLYLINE
  5
2005
330
1F
100
AcDbEntity
  8
SANINDUSA
100
AcDbPolyline
 90
        3
 70
   128
 43
0.0
 10
4687.175962966059
 20
2872.835136166808
 10
4687.167963307475
 20
2872.835138491389
 10
4687.164963226889
 20
2872.835139385458
  0
ARC
  5
200B
330
1F
100
AcDbEntity
  8
SANINDUSA
100
AcDbCircle
 10
4686.904937066257
 20
2872.837725865534
 30
0.0
 40
0.0025891028308906
100
AcDbArc
 50
180.0
 51
270.0195381496162
  0
LWPOLYLINE
  5
200E
330
1F
100
AcDbEntity
  8
SANINDUSA
100
AcDbPolyline
 90
        3
 70
   128
 43
0.0
 10
4686.915937733028
 20
2872.835139981505
 10
4686.907938104247
 20
2872.835137627122
 10
4686.904937949155
 20
2872.835136762854
  0
ARC
  5
200F
330
1F
100
AcDbEntity
  8
SANINDUSA
100
AcDbCircle
 10
4687.164963637385
 20
2872.837730452213
 30
0.0
 40
0.0025910667875596
100
AcDbArc
 50
180.0
 51
269.9909227665173
  0
ARC
  5
2010
330
1F
100
AcDbEntity
  8
SANINDUSA
100
AcDbCircle
 10
4686.915937222344
 20
2872.83773114844
 30
0.0
 40
0.0025911669861565
100
AcDbArc
 50
270.0112922300142
 51
0.0
  0
ARC
  5
2021
330
1F
100
AcDbEntity
  8
SANINDUSA
100
AcDbCircle
 10
4687.110959923717
 20
2872.848741011477
 30
0.0
 40
0.0025908996064384
100
AcDbArc
 50
0.0
 51
89.99989187131863
  0
LWPOLYLINE
  5
202B
330
1F
100
AcDbEntity
  8
SANINDUSA
100
AcDbPolyline
 90
        3
 70
   128
 43
0.0
 10
4687.099958878135
 20
2872.851334474083
 10
4687.10795868573
 20
2872.851332626339
 10
4687.110959928606
 20
2872.851331911084
  0
LINE
  5
202C
330
1F
100
AcDbEntity
  8
SANINDUSA
100
AcDbLine
 10
4687.113550823306
 20
2872.848741314408
 30
0.0
 11
4687.113551478956
 21
2872.837743989226
 31
0.0
  0
ARC
  5
2036
330
1F
100
AcDbEntity
  8
SANINDUSA
100
AcDbCircle
 10
4686.969941351107
 20
2872.84874120318
 30
0.0
 40
0.0025911251428734
100
AcDbArc
 50
90.00443546457026
 51
179.9883136344205
  0
LWPOLYLINE
  5
203B
330
1F
100
AcDbEntity
  8
SANINDUSA
100
AcDbPolyline
 90
        3
 70
   128
 43
0.0
 10
4686.969941150521
 20
2872.851332328316
 10
4686.977940928314
 20
2872.85133417606
 10
4686.980942200992
 20
2872.851334831711
  0
LWPOLYLINE
  5
203D
330
1F
100
AcDbEntity
  8
SANINDUSA
100
AcDbPolyline
 90
        3
 70
   128
 43
0.0
 10
4686.967349600171
 20
2872.837744406458
 10
4686.967350047205
 20
2872.845742396113
 10
4686.967350226018
 20
2872.84874173164
  0
ARC
  5
2043
330
1F
100
AcDbEntity
  8
SANINDUSA
100
AcDbCircle
 10
4687.240959342443
 20
2872.783718473078
 30
0.0
 40
0.0025905820313611
100
AcDbArc
 50
0.0
 51
89.99241442123313
  0
ARC
  5
204C
330
1F
100
AcDbEntity
  8
SANINDUSA
100
AcDbCircle
 10
4687.099958146874
 20
2872.848744936531
 30
0.0
 40
0.0025895376549108
100
AcDbArc
 50
89.98382024922447
 51
179.9871665063293
  0
LWPOLYLINE
  5
204F
330
1F
100
AcDbEntity
  8
SANINDUSA
100
AcDbPolyline
 90
        3
 70
   128
 43
0.0
 10
4687.22996072111
 20
2872.786311290261
 10
4687.237960498904
 20
2872.786309651133
 10
4687.24095968542
 20
2872.786309055087
  0
LWPOLYLINE
  5
2050
330
1F
100
AcDbEntity
  8
SANINDUSA
100
AcDbPolyline
 90
        3
 70
   128
 43
0.0
 10
4687.243549924467
 20
2872.783718667027
 10
4687.243550043677
 20
2872.775720051524
 10
4687.243550043677
 20
2872.772720835206
  0
LWPOLYLINE
  5
2054
330
1F
100
AcDbEntity
  8
SANINDUSA
100
AcDbPolyline
 90
        3
 70
   128
 43
0.0
 10
4687.09736920533
 20
2872.83774839997
 10
4687.097368758295
 20
2872.845746240612
 10
4687.097368609284
 20
2872.848745516535
  0
ARC
  5
2056
330
1F
100
AcDbEntity
  8
SANINDUSA
100
AcDbCircle
 10
4686.980943224754
 20
2872.848745586811
 30
0.0
 40
0.002589245102247
100
AcDbArc
 50
0.0
 51
90.02265418392886
  0
ARC
  5
2058
330
1F
100
AcDbEntity
  8
SANINDUSA
100
AcDbCircle
 10
4686.839941412472
 20
2872.783718946305
 30
0.0
 40
0.0025906154507916
100
AcDbArc
 50
90.0086540985915
 51
180.0
  0
LWPOLYLINE
  5
2063
330
1F
100
AcDbEntity
  8
SANINDUSA
100
AcDbPolyline
 90
        3
 70
   128
 43
0.0
 10
4686.983532469843
 20
2872.848745844361
 10
4686.98353205261
 20
2872.84074803352
 10
4686.983531903599
 20
2872.837748757597
  0
LWPOLYLINE
  5
2065
330
1F
100
AcDbEntity
  8
SANINDUSA
100
AcDbPolyline
 90
        3
 70
   128
 43
0.0
 10
4686.839941021179
 20
2872.786309561726
 10
4686.847940784072
 20
2872.786311200854
 10
4686.850940030192
 20
2872.786311826703
  0
LWPOLYLINE
  5
2067
330
1F
100
AcDbEntity
  8
SANINDUSA
100
AcDbPolyline
 90
        3
 70
   128
 43
0.0
 10
4686.83735064802
 20
2872.772721312042
 10
4686.837350752329
 20
2872.780719927546
 10
4686.837350797032
 20
2872.783719173666
  0
ARC
  5
206D
330
1F
100
AcDbEntity
  8
SANINDUSA
100
AcDbCircle
 10
4687.229960022909
 20
2872.78372192832
 30
0.0
 40
0.0025893620341762
100
AcDbArc
 50
89.98455062592805
 51
180.0
  0
LWPOLYLINE
  5
206F
330
1F
100
AcDbEntity
  8
SANINDUSA
100
AcDbPolyline
 90
        3
 70
   128
 43
0.0
 10
4687.227370839689
 20
2872.772724202868
 10
4687.227370720481
 20
2872.780722788569
 10
4687.227370660876
 20
2872.783722004887
  0
ARC
  5
2071
330
1F
100
AcDbEntity
  8
SANINDUSA
100
AcDbCircle
 10
4686.850940812173
 20
2872.783722548567
 30
0.0
 40
0.0025892782527184
100
AcDbArc
 50
0.0
 51
90.01730376801098
  0
LINE
  5
2074
330
1F
100
AcDbEntity
  8
SANINDUSA
100
AcDbLine
 10
4686.853530090426
 20
2872.783722541329
 30
0.0
 11
4686.853529926513
 21
2872.77272473931
 31
0.0
  0
ARC
  5
2078
330
1F
100
AcDbEntity
  8
SANINDUSA
100
AcDbCircle
 10
4687.110962183645
 20
2872.837744446087
 30
0.0
 40
0.0025892953518921
100
AcDbArc
 50
269.9804360037133
 51
359.9898905935627
  0
LWPOLYLINE
  5
207B
330
1F
100
AcDbEntity
  8
SANINDUSA
100
AcDbPolyline
 90
        3
 70
   128
 43
0.0
 10
4687.110961299513
 20
2872.835155150887
 10
4687.102961551522
 20
2872.835157177444
 10
4687.099960189436
 20
2872.835157922503
  0
ARC
  5
207D
330
1F
100
AcDbEntity
  8
SANINDUSA
100
AcDbCircle
 10
4686.969938678141
 20
2872.837744645867
 30
0.0
 40
0.0025890779819757
100
AcDbArc
 50
180.0
 51
270.0243753842394
  0
LWPOLYLINE
  5
2080
330
1F
100
AcDbEntity
  8
SANINDUSA
100
AcDbPolyline
 90
        3
 70
   128
 43
0.0
 10
4686.980940919493
 20
2872.83515828013
 10
4686.972941141699
 20
2872.83515634298
 10
4686.969939779614
 20
2872.83515556812
  0
ARC
  5
2081
330
1F
100
AcDbEntity
  8
SANINDUSA
100
AcDbCircle
 10
4687.240960614818
 20
2872.772720948813
 30
0.0
 40
0.0025894288609682
100
AcDbArc
 50
269.9860296700038
 51
0.0
  0
LWPOLYLINE
  5
2083
330
1F
100
AcDbEntity
  8
SANINDUSA
100
AcDbPolyline
 90
        3
 70
   128
 43
0.0
 10
4687.240959983443
 20
2872.770131520029
 10
4687.232960205649
 20
2872.770133129355
 10
4687.229961019133
 20
2872.770133755203
  0
LWPOLYLINE
  5
2087
330
1F
100
AcDbEntity
  8
SANINDUSA
100
AcDbPolyline
 90
        3
 70
   128
 43
0.0
 10
4687.034949701403
 20
2872.851341567036
 10
4687.042949687813
 20
2872.851341596838
 10
4687.045951467131
 20
2872.851341537234
  0
ARC
  5
2090
330
1F
100
AcDbEntity
  8
SANINDUSA
100
AcDbCircle
 10
4687.045952128498
 20
2872.848751423167
 30
0.0
 40
0.0025901141511685
100
AcDbArc
 50
0.0084428438032444
 51
90.01463004524671
  0
ARC
  5
2092
330
1F
100
AcDbEntity
  8
SANINDUSA
100
AcDbCircle
 10
4687.034949336097
 20
2872.84875112697
 30
0.0
 40
0.0025904400914181
100
AcDbArc
 50
89.99192010379848
 51
179.9836886448849
  0
ARC
  5
2095
330
1F
100
AcDbEntity
  8
SANINDUSA
100
AcDbCircle
 10
4686.839940009844
 20
2872.772721358584
 30
0.0
 40
0.0025893618245771
100
AcDbArc
 50
180.0
 51
270.016443167888
  0
LWPOLYLINE
  5
2097
330
1F
100
AcDbEntity
  8
SANINDUSA
100
AcDbPolyline
 90
        3
 70
   128
 43
0.0
 10
4687.04854224262
 20
2872.848751804825
 10
4687.048542332028
 20
2872.840754202601
 10
4687.04854236183
 20
2872.837755075689
  0
LWPOLYLINE
  5
2099
330
1F
100
AcDbEntity
  8
SANINDUSA
100
AcDbPolyline
 90
        3
 70
   128
 43
0.0
 10
4687.032358806703
 20
2872.837755135294
 10
4687.032358866309
 20
2872.845752737518
 10
4687.032358896111
 20
2872.84875186443
  0
LWPOLYLINE
  5
209C
330
1F
100
AcDbEntity
  8
SANINDUSA
100
AcDbPolyline
 90
        3
 70
   128
 43
0.0
 10
4686.850939717267
 20
2872.770134291645
 10
4686.842939984177
 20
2872.770132592913
 10
4686.839940752958
 20
2872.770131996867
  0
ARC
  5
209E
330
1F
100
AcDbEntity
  8
SANINDUSA
100
AcDbCircle
 10
4687.09996003808
 20
2872.837748755272
 30
0.0
 40
0.0025908327737941
100
AcDbArc
 50
180.0
 51
270.0033472470959
  0
ARC
  5
209F
330
1F
100
AcDbEntity
  8
SANINDUSA
100
AcDbCircle
 10
4686.98094075346
 20
2872.837749430351
 30
0.0
 40
0.0025911502256942
100
AcDbArc
 50
270.0036713204798
 51
359.9851239945668
  0
ARC
  5
20A2
330
1F
100
AcDbEntity
  8
SANINDUSA
100
AcDbCircle
 10
4687.229961413375
 20
2872.772724328862
 30
0.0
 40
0.0025905736887235
100
AcDbArc
 50
180.0
 51
269.9912805552086
  0
ARC
  5
20A3
330
1F
100
AcDbEntity
  8
SANINDUSA
100
AcDbCircle
 10
4686.850939198227
 20
2872.772725019894
 30
0.0
 40
0.002590728301219
100
AcDbArc
 50
270.0114789408959
 51
0.0
  0
ARC
  5
20A8
330
1F
100
AcDbEntity
  8
SANINDUSA
100
AcDbCircle
 10
4687.045952097277
 20
2872.837755905944
 30
0.0
 40
0.002590264685296
100
AcDbArc
 50
269.9893574279606
 51
359.981635033606
  0
ARC
  5
20AA
330
1F
100
AcDbEntity
  8
SANINDUSA
100
AcDbCircle
 10
4687.03494868691
 20
2872.837755551202
 30
0.0
 40
0.0025898802404044
100
AcDbArc
 50
180.0092011255003
 51
270.0191469582638
  0
LWPOLYLINE
  5
20AC
330
1F
100
AcDbEntity
  8
SANINDUSA
100
AcDbPolyline
 90
        3
 70
   128
 43
0.0
 10
4687.045951616142
 20
2872.835165641305
 10
4687.037951629732
 20
2872.835165700909
 10
4687.034949552391
 20
2872.835165671107
  0
ARC
  5
20B3
330
1F
100
AcDbEntity
  8
SANINDUSA
100
AcDbCircle
 10
4687.175964368726
 20
2872.783734732484
 30
0.0
 40
0.0025910417672131
100
AcDbArc
 50
0.0
 51
89.98752189795592
  0
LINE
  5
20BE
330
1F
100
AcDbEntity
  8
SANINDUSA
100
AcDbLine
 10
4687.164965432261
 20
2872.78632938027
 30
0.0
 11
4687.175964933012
 21
2872.786325774189
 31
0.0
  0
LWPOLYLINE
  5
20BF
330
1F
100
AcDbEntity
  8
SANINDUSA
100
AcDbPolyline
 90
        3
 70
   128
 43
0.0
 10
4687.178555410478
 20
2872.7837349987
 10
4687.178555648897
 20
2872.77573656201
 10
4687.178555768107
 20
2872.772737286087
  0
ARC
  5
20C2
330
1F
100
AcDbEntity
  8
SANINDUSA
100
AcDbCircle
 10
4686.904936588182
 20
2872.783735316655
 30
0.0
 40
0.0025910834649393
100
AcDbArc
 50
90.014388358097
 51
180.0
  0
LWPOLYLINE
  5
20CD
330
1F
100
AcDbEntity
  8
SANINDUSA
100
AcDbPolyline
 90
        3
 70
   128
 43
0.0
 10
4686.904935937498
 20
2872.786326400038
 10
4686.912935417269
 20
2872.78632899284
 10
4686.915935497855
 20
2872.786330006119
  0
LWPOLYLINE
  5
20CF
330
1F
100
AcDbEntity
  8
SANINDUSA
100
AcDbPolyline
 90
        3
 70
   128
 43
0.0
 10
4686.902345102404
 20
2872.772737911936
 10
4686.902345385526
 20
2872.780736348625
 10
4686.902345504735
 20
2872.783735624548
  0
ARC
  5
20D3
330
1F
100
AcDbEntity
  8
SANINDUSA
100
AcDbCircle
 10
4687.164964442847
 20
2872.783740369236
 30
0.0
 40
0.0025890112232932
100
AcDbArc
 50
89.97810391542975
 51
180.0
  0
LWPOLYLINE
  5
20D5
330
1F
100
AcDbEntity
  8
SANINDUSA
100
AcDbPolyline
 90
        3
 70
   128
 43
0.0
 10
4687.162375908468
 20
2872.772742888924
 10
4687.162375580643
 20
2872.780741236207
 10
4687.162375431632
 20
2872.783740571734
  0
ARC
  5
20D8
330
1F
100
AcDbEntity
  8
SANINDUSA
100
AcDbCircle
 10
4686.915936662927
 20
2872.783741170825
 30
0.0
 40
0.0025888355562009
100
AcDbArc
 50
0.0
 51
90.02578527816282
  0
LWPOLYLINE
  5
20DA
330
1F
100
AcDbEntity
  8
SANINDUSA
100
AcDbPolyline
 90
        3
 70
   128
 43
0.0
 10
4686.918525498484
 20
2872.78374116778
 10
4686.918525140856
 20
2872.775742820498
 10
4686.918525021646
 20
2872.772743514773
  0
ARC
  5
20DD
330
1F
100
AcDbEntity
  8
SANINDUSA
100
AcDbCircle
 10
4687.175966690079
 20
2872.772737466013
 30
0.0
 40
0.0025890780335932
100
AcDbArc
 50
269.9795830116721
 51
0.0
  0
LWPOLYLINE
  5
20E0
330
1F
100
AcDbEntity
  8
SANINDUSA
100
AcDbPolyline
 90
        3
 70
   128
 43
0.0
 10
4687.175965767477
 20
2872.770148388144
 10
4687.167966347312
 20
2872.770151040551
 10
4687.164966385934
 20
2872.77015205383
  0
ARC
  5
20E2
330
1F
100
AcDbEntity
  8
SANINDUSA
100
AcDbCircle
 10
4686.904934029795
 20
2872.772737941155
 30
0.0
 40
0.0025889273912941
100
AcDbArc
 50
180.0
 51
270.0240816910898
  0
LWPOLYLINE
  5
20E6
330
1F
100
AcDbEntity
  8
SANINDUSA
100
AcDbPolyline
 90
        3
 70
   128
 43
0.0
 10
4686.91593454418
 20
2872.770152679678
 10
4686.907935138915
 20
2872.770149997469
 10
4686.904935117935
 20
2872.770149013993
  0
ARC
  5
20E7
330
1F
100
AcDbEntity
  8
SANINDUSA
100
AcDbCircle
 10
4687.164967008743
 20
2872.772743154042
 30
0.0
 40
0.0025911002876548
100
AcDbArc
 50
180.0
 51
269.9862281577925
  0
ARC
  5
20E8
330
1F
100
AcDbEntity
  8
SANINDUSA
100
AcDbCircle
 10
4686.915933846297
 20
2872.772743854957
 30
0.0
 40
0.0025911753723498
100
AcDbArc
 50
270.0154315002713
 51
0.0
  0
ARC
  5
20FE
330
1F
100
AcDbEntity
  8
SANINDUSA
100
AcDbCircle
 10
4687.240960251013
 20
2872.7187347322
 30
0.0
 40
0.0025904483355547
100
AcDbArc
 50
0.0
 51
89.99537141499777
  0
LWPOLYLINE
  5
210A
330
1F
100
AcDbEntity
  8
SANINDUSA
100
AcDbPolyline
 90
        3
 70
   128
 43
0.0
 10
4687.229961436365
 20
2872.721327475306
 10
4687.237961154554
 20
2872.721325776574
 10
4687.24096046028
 20
2872.721325180527
  0
LWPOLYLINE
  5
210B
330
1F
100
AcDbEntity
  8
SANINDUSA
100
AcDbPolyline
 90
        3
 70
   128
 43
0.0
 10
4687.243550699327
 20
2872.718735060688
 10
4687.243550758932
 20
2872.710736981627
 10
4687.243550818537
 20
2872.707738748785
  0
ARC
  5
2111
330
1F
100
AcDbEntity
  8
SANINDUSA
100
AcDbCircle
 10
4686.839940691901
 20
2872.718734868409
 30
0.0
 40
0.0025906697817492
100
AcDbArc
 50
90.00952501650601
 51
179.9884972447448
  0
LINE
  5
211E
330
1F
100
AcDbEntity
  8
SANINDUSA
100
AcDbLine
 10
4686.839940261219
 20
2872.721325538155
 30
0.0
 11
4686.850939285133
 21
2872.721327832934
 31
0.0
  0
LWPOLYLINE
  5
2120
330
1F
100
AcDbEntity
  8
SANINDUSA
100
AcDbPolyline
 90
        3
 70
   128
 43
0.0
 10
4686.837349902962
 20
2872.707739046809
 10
4686.837349992369
 20
2872.715737066265
 10
4686.837350022171
 20
2872.718735388514
  0
ARC
  5
2127
330
1F
100
AcDbEntity
  8
SANINDUSA
100
AcDbCircle
 10
4687.110963649762
 20
2872.783756720441
 30
0.0
 40
0.0025911670799777
100
AcDbArc
 50
0.0
 51
89.99529564675572
  0
ARC
  5
2130
330
1F
100
AcDbEntity
  8
SANINDUSA
100
AcDbCircle
 10
4687.229960678606
 20
2872.718738113314
 30
0.0
 40
0.0025893621023757
100
AcDbArc
 50
89.98323275871241
 51
180.0
  0
LWPOLYLINE
  5
2133
330
1F
100
AcDbEntity
  8
SANINDUSA
100
AcDbPolyline
 90
        3
 70
   128
 43
0.0
 10
4687.099962603425
 20
2872.786351255175
 10
4687.107962202404
 20
2872.786348841187
 10
4687.110963862513
 20
2872.786347887513
  0
LWPOLYLINE
  5
2134
330
1F
100
AcDbEntity
  8
SANINDUSA
100
AcDbPolyline
 90
        3
 70
   128
 43
0.0
 10
4687.113554816817
 20
2872.783757082221
 10
4687.113555293654
 20
2872.775759062763
 10
4687.113555442666
 20
2872.772759816643
  0
LINE
  5
2136
330
1F
100
AcDbEntity
  8
SANINDUSA
100
AcDbLine
 10
4687.227371316526
 20
2872.70774214625
 30
0.0
 11
4687.227371316526
 21
2872.718738458153
 31
0.0
  0
ARC
  5
2138
330
1F
100
AcDbEntity
  8
SANINDUSA
100
AcDbCircle
 10
4686.969937667851
 20
2872.783756958779
 30
0.0
 40
0.0025913758075109
100
AcDbArc
 50
90.0099769162357
 51
179.9867272172643
  0
ARC
  5
2144
330
1F
100
AcDbEntity
  8
SANINDUSA
100
AcDbCircle
 10
4686.850940358735
 20
2872.718738772016
 30
0.0
 40
0.0025890611399885
100
AcDbArc
 50
0.0
 51
90.02375871199493
  0
LWPOLYLINE
  5
2146
330
1F
100
AcDbEntity
  8
SANINDUSA
100
AcDbPolyline
 90
        3
 70
   128
 43
0.0
 10
4686.969937216614
 20
2872.786348334548
 10
4686.977936815593
 20
2872.786350778338
 10
4686.980938535307
 20
2872.786351672408
  0
LINE
  5
2148
330
1F
100
AcDbEntity
  8
SANINDUSA
100
AcDbLine
 10
4686.967345636461
 20
2872.77276029348
 30
0.0
 11
4686.967346292113
 21
2872.783757559057
 31
0.0
  0
LWPOLYLINE
  5
214A
330
1F
100
AcDbEntity
  8
SANINDUSA
100
AcDbPolyline
 90
        3
 70
   128
 43
0.0
 10
4686.853529419873
 20
2872.718738845583
 10
4686.853529404973
 20
2872.710740766521
 10
4686.853529404973
 20
2872.707742474076
  0
ARC
  5
2151
330
1F
100
AcDbEntity
  8
SANINDUSA
100
AcDbCircle
 10
4687.099961558439
 20
2872.783762001663
 30
0.0
 40
0.0025892537226857
100
AcDbArc
 50
89.97687625094192
 51
179.988174838874
  0
LWPOLYLINE
  5
2153
330
1F
100
AcDbEntity
  8
SANINDUSA
100
AcDbPolyline
 90
        3
 70
   128
 43
0.0
 10
4687.097372930621
 20
2872.77276541948
 10
4687.097372453783
 20
2872.780763289925
 10
4687.097372304772
 20
2872.783762536045
  0
ARC
  5
2155
330
1F
100
AcDbEntity
  8
SANINDUSA
100
AcDbCircle
 10
4686.980939810727
 20
2872.783762619669
 30
0.0
 40
0.002589053052371
100
AcDbArc
 50
0.0
 51
90.02822507836604
  0
LWPOLYLINE
  5
2159
330
1F
100
AcDbEntity
  8
SANINDUSA
100
AcDbPolyline
 90
        3
 70
   128
 43
0.0
 10
4686.983528863762
 20
2872.783762923475
 10
4686.983528386925
 20
2872.775765023228
 10
4686.983528237913
 20
2872.77276580691
  0
ARC
  5
215B
330
1F
100
AcDbEntity
  8
SANINDUSA
100
AcDbCircle
 10
4687.240961456411
 20
2872.707739183072
 30
0.0
 40
0.0025893621618698
100
AcDbArc
 50
269.9819148914965
 51
359.9903903565131
  0
LWPOLYLINE
  5
215D
330
1F
100
AcDbEntity
  8
SANINDUSA
100
AcDbPolyline
 90
        3
 70
   128
 43
0.0
 10
4687.240960639093
 20
2872.705149821039
 10
4687.232960920904
 20
2872.705151460167
 10
4687.22996149597
 20
2872.705152115818
  0
ARC
  5
215F
330
1F
100
AcDbEntity
  8
SANINDUSA
100
AcDbCircle
 10
4686.83993898085
 20
2872.707739196733
 30
0.0
 40
0.0025890778920604
100
AcDbArc
 50
180.0
 51
270.0237177012541
  0
LWPOLYLINE
  5
2162
330
1F
100
AcDbEntity
  8
SANINDUSA
100
AcDbPolyline
 90
        3
 70
   128
 43
0.0
 10
4686.850939255331
 20
2872.705152443644
 10
4686.842939537142
 20
2872.705150744911
 10
4686.839940052602
 20
2872.705150119063
  0
ARC
  5
2163
330
1F
100
AcDbEntity
  8
SANINDUSA
100
AcDbCircle
 10
4687.110966364468
 20
2872.772760264922
 30
0.0
 40
0.0025890782358697
100
AcDbArc
 50
269.9756296183401
 51
359.9900796754492
  0
ARC
  5
2165
330
1F
100
AcDbEntity
  8
SANINDUSA
100
AcDbCircle
 10
4687.229961723064
 20
2872.707742522372
 30
0.0
 40
0.0025904065642722
100
AcDbArc
 50
180.0083202284853
 51
269.9949770449435
  0
LWPOLYLINE
  5
2168
330
1F
100
AcDbEntity
  8
SANINDUSA
100
AcDbPolyline
 90
        3
 70
   128
 43
0.0
 10
4687.110965263221
 20
2872.770171186921
 10
4687.102965753648
 20
2872.770173809525
 10
4687.099963944529
 20
2872.770174733397
  0
ARC
  5
216A
330
1F
100
AcDbEntity
  8
SANINDUSA
100
AcDbCircle
 10
4686.969934547398
 20
2872.772760544579
 30
0.0
 40
0.0025889109489394
100
AcDbArc
 50
180.0
 51
270.0287331529598
  0
ARC
  5
216C
330
1F
100
AcDbEntity
  8
SANINDUSA
100
AcDbCircle
 10
4686.850938864787
 20
2872.70774298385
 30
0.0
 40
0.002590540235683
100
AcDbArc
 50
270.0086377880927
 51
359.9887247839632
  0
LWPOLYLINE
  5
216E
330
1F
100
AcDbEntity
  8
SANINDUSA
100
AcDbPolyline
 90
        3
 70
   128
 43
0.0
 10
4686.980937194203
 20
2872.770175150629
 10
4686.972937654828
 20
2872.770172617432
 10
4686.969935845707
 20
2872.770171633955
  0
ARC
  5
2173
330
1F
100
AcDbEntity
  8
SANINDUSA
100
AcDbCircle
 10
4687.099964030816
 20
2872.772765833624
 30
0.0
 40
0.0025911002285832
100
AcDbArc
 50
180.009157769808
 51
269.9980919847371
  0
ARC
  5
2174
330
1F
100
AcDbEntity
  8
SANINDUSA
100
AcDbCircle
 10
4686.980936795346
 20
2872.772766593284
 30
0.0
 40
0.002591442685794
100
AcDbArc
 50
270.0088185584057
 51
359.9826135591401
  0
LWPOLYLINE
  5
2177
330
1F
100
AcDbEntity
  8
SANINDUSA
100
AcDbPolyline
 90
        3
 70
   128
 43
0.0
 10
4687.034949254368
 20
2872.786361119743
 10
4687.042949270581
 20
2872.786361149546
 10
4687.045951943968
 20
2872.786361089941
  0
ARC
  5
2180
330
1F
100
AcDbEntity
  8
SANINDUSA
100
AcDbCircle
 10
4687.04595267182
 20
2872.783770833748
 30
0.0
 40
0.0025902562956546
100
AcDbArc
 50
0.0102675348698813
 51
90.01609991793285
  0
ARC
  5
2182
330
1F
100
AcDbEntity
  8
SANINDUSA
100
AcDbCircle
 10
4687.034948869014
 20
2872.783770520886
 30
0.0
 40
0.0025905988866722
100
AcDbArc
 50
89.99147716702465
 51
179.9814960296167
  0
LWPOLYLINE
  5
2184
330
1F
100
AcDbEntity
  8
SANINDUSA
100
AcDbPolyline
 90
        3
 70
   128
 43
0.0
 10
4687.048542928073
 20
2872.783771297928
 10
4687.048543017481
 20
2872.775773695704
 10
4687.048543047284
 20
2872.772774568792
  0
LWPOLYLINE
  5
2186
330
1F
100
AcDbEntity
  8
SANINDUSA
100
AcDbPolyline
 90
        3
 70
   128
 43
0.0
 10
4687.032358151053
 20
2872.772774628397
 10
4687.03235824046
 20
2872.780772230622
 10
4687.032358270262
 20
2872.783771357532
  0
ARC
  5
2191
330
1F
100
AcDbEntity
  8
SANINDUSA
100
AcDbCircle
 10
4687.175966108442
 20
2872.718750898918
 30
0.0
 40
0.0025907325636458
100
AcDbArc
 50
0.0
 51
89.98644952196178
  0
LWPOLYLINE
  5
219B
330
1F
100
AcDbEntity
  8
SANINDUSA
100
AcDbPolyline
 90
        3
 70
   128
 43
0.0
 10
4687.164967548226
 20
2872.72134523749
 10
4687.172966878985
 20
2872.721342585084
 10
4687.175966721151
 20
2872.721341631409
  0
LINE
  5
219C
330
1F
100
AcDbEntity
  8
SANINDUSA
100
AcDbLine
 10
4687.17855684099
 20
2872.718751183745
 30
0.0
 11
4687.17855684099
 21
2872.707754573819
 31
0.0
  0
ARC
  5
219E
330
1F
100
AcDbEntity
  8
SANINDUSA
100
AcDbCircle
 10
4686.904934941116
 20
2872.718751166917
 30
0.0
 40
0.0025909414450405
100
AcDbArc
 50
90.01717927671426
 51
179.9890831719315
  0
LWPOLYLINE
  5
21AA
330
1F
100
AcDbEntity
  8
SANINDUSA
100
AcDbPolyline
 90
        3
 70
   128
 43
0.0
 10
4686.904934164259
 20
2872.721342108246
 10
4686.912933495019
 20
2872.721344701048
 10
4686.915933352088
 20
2872.721345714327
  0
LWPOLYLINE
  5
21AC
330
1F
100
AcDbEntity
  8
SANINDUSA
100
AcDbPolyline
 90
        3
 70
   128
 43
0.0
 10
4686.902343984817
 20
2872.707754991051
 10
4686.902343984817
 20
2872.71575304031
 10
4686.902343999718
 20
2872.718751660582
  0
LWPOLYLINE
  5
21B0
330
1F
100
AcDbEntity
  8
SANINDUSA
100
AcDbPolyline
 90
        3
 70
   128
 43
0.0
 10
4687.045952122782
 20
2872.77018516421
 10
4687.037952136372
 20
2872.770185253617
 10
4687.034949105356
 20
2872.770185194012
  0
ARC
  5
21B2
330
1F
100
AcDbEntity
  8
SANINDUSA
100
AcDbCircle
 10
4687.045952757589
 20
2872.772775453976
 30
0.0
 40
0.0025902898450396
100
AcDbArc
 50
269.9859583832415
 51
359.9804200319444
  0
ARC
  5
21B3
330
1F
100
AcDbEntity
  8
SANINDUSA
100
AcDbCircle
 10
4687.03494808987
 20
2872.772775132679
 30
0.0
 40
0.0025899388661929
100
AcDbArc
 50
180.011155935763
 51
270.0224650238581
  0
ARC
  5
21B5
330
1F
100
AcDbEntity
  8
SANINDUSA
100
AcDbCircle
 10
4687.164966331167
 20
2872.71875633499
 30
0.0
 40
0.00258890278662
100
AcDbArc
 50
89.97306490998189
 51
180.0
  0
LWPOLYLINE
  5
21B7
330
1F
100
AcDbEntity
  8
SANINDUSA
100
AcDbPolyline
 90
        3
 70
   128
 43
0.0
 10
4687.162377517794
 20
2872.70775972962
 10
4687.162377458189
 20
2872.715757749077
 10
4687.162377428387
 20
2872.718756518361
  0
ARC
  5
21B9
330
1F
100
AcDbEntity
  8
SANINDUSA
100
AcDbCircle
 10
4686.91593469479
 20
2872.718756937539
 30
0.0
 40
0.002588777136312
100
AcDbArc
 50
0.0
 51
90.02971720225026
  0
LWPOLYLINE
  5
21BB
330
1F
100
AcDbEntity
  8
SANINDUSA
100
AcDbPolyline
 90
        3
 70
   128
 43
0.0
 10
4686.918523471926
 20
2872.718756995198
 10
4686.918523382519
 20
2872.710758916136
 10
4686.918523352717
 20
2872.707760176655
  0
ARC
  5
21BF
330
1F
100
AcDbEntity
  8
SANINDUSA
100
AcDbCircle
 10
4687.175967829609
 20
2872.707754746604
 30
0.0
 40
0.0025890113872312
100
AcDbArc
 50
269.9741503657252
 51
0.0
  0
LWPOLYLINE
  5
21C1
330
1F
100
AcDbEntity
  8
SANINDUSA
100
AcDbPolyline
 90
        3
 70
   128
 43
0.0
 10
4687.175966661548
 20
2872.70516573548
 10
4687.16796736059
 20
2872.705168268677
 10
4687.164967667435
 20
2872.705169252154
  0
ARC
  5
21C3
330
1F
100
AcDbEntity
  8
SANINDUSA
100
AcDbCircle
 10
4686.904932870537
 20
2872.707755038117
 30
0.0
 40
0.0025888857202073
100
AcDbArc
 50
180.0
 51
270.0283022014901
  0
LWPOLYLINE
  5
21C6
330
1F
100
AcDbEntity
  8
SANINDUSA
100
AcDbPolyline
 90
        3
 70
   128
 43
0.0
 10
4686.915933203076
 20
2872.705169669386
 10
4686.907933902118
 20
2872.705167076584
 10
4686.904934149359
 20
2872.705166152712
  0
ARC
  5
21C7
330
1F
100
AcDbEntity
  8
SANINDUSA
100
AcDbCircle
 10
4687.16496835903
 20
2872.707760093322
 30
0.0
 40
0.0025908412606735
100
AcDbArc
 50
180.0
 51
269.9847056016877
  0
ARC
  5
21C8
330
1F
100
AcDbEntity
  8
SANINDUSA
100
AcDbCircle
 10
4686.915932344429
 20
2872.70776067758
 30
0.0
 40
0.0025910083363926
100
AcDbArc
 50
270.0189875531294
 51
359.9889222816575
  0
ARC
  5
21E9
330
1F
100
AcDbEntity
  8
SANINDUSA
100
AcDbCircle
 10
4687.110966901815
 20
2872.718773862772
 30
0.0
 40
0.0025911336869435
100
AcDbArc
 50
0.009237889259972
 51
89.99142120066199
  0
LWPOLYLINE
  5
21F3
330
1F
100
AcDbEntity
  8
SANINDUSA
100
AcDbPolyline
 90
        3
 70
   128
 43
0.0
 10
4687.099966000888
 20
2872.72136884093
 10
4687.107965361451
 20
2872.721366069314
 10
4687.11096728978
 20
2872.72136499643
  0
LWPOLYLINE
  5
21F4
330
1F
100
AcDbEntity
  8
SANINDUSA
100
AcDbPolyline
 90
        3
 70
   128
 43
0.0
 10
4687.113558035467
 20
2872.718774280544
 10
4687.113558303688
 20
2872.710776410099
 10
4687.113558393096
 20
2872.707777521607
  0
ARC
  5
21F6
330
1F
100
AcDbEntity
  8
SANINDUSA
100
AcDbCircle
 10
4686.969934494624
 20
2872.718773992492
 30
0.0
 40
0.0025914510687691
100
AcDbArc
 50
90.01559335458519
 51
179.9837471386057
  0
LWPOLYLINE
  5
2201
330
1F
100
AcDbEntity
  8
SANINDUSA
100
AcDbPolyline
 90
        3
 70
   128
 43
0.0
 10
4686.969933789347
 20
2872.721365443465
 10
4686.977933149909
 20
2872.72136821508
 10
4686.980935137842
 20
2872.72136922836
  0
LWPOLYLINE
  5
2203
330
1F
100
AcDbEntity
  8
SANINDUSA
100
AcDbPolyline
 90
        3
 70
   128
 43
0.0
 10
4686.967342686031
 20
2872.707777909037
 10
4686.967342954253
 20
2872.715775779482
 10
4686.96734304366
 20
2872.718774727579
  0
ARC
  5
220B
330
1F
100
AcDbEntity
  8
SANINDUSA
100
AcDbCircle
 10
4687.099964765301
 20
2872.718779629083
 30
0.0
 40
0.0025892121409719
100
AcDbArc
 50
89.97265808553576
 51
179.9871170276882
  0
LWPOLYLINE
  5
220D
330
1F
100
AcDbEntity
  8
SANINDUSA
100
AcDbPolyline
 90
        3
 70
   128
 43
0.0
 10
4687.097375940655
 20
2872.707783392664
 10
4687.097375672435
 20
2872.715781203505
 10
4687.097375553224
 20
2872.718780211206
  0
ARC
  5
220F
330
1F
100
AcDbEntity
  8
SANINDUSA
100
AcDbCircle
 10
4686.980936724461
 20
2872.718780367792
 30
0.0
 40
0.0025888610533402
100
AcDbArc
 50
0.0
 51
90.03511451789574
  0
LWPOLYLINE
  5
2211
330
1F
100
AcDbEntity
  8
SANINDUSA
100
AcDbPolyline
 90
        3
 70
   128
 43
0.0
 10
4686.983525585507
 20
2872.718780568835
 10
4686.983525317286
 20
2872.710782757994
 10
4686.983525227879
 20
2872.707783750292
  0
ARC
  5
2218
330
1F
100
AcDbEntity
  8
SANINDUSA
100
AcDbCircle
 10
4687.110969423279
 20
2872.70777792098
 30
0.0
 40
0.0025889698476741
100
AcDbArc
 50
269.9699323565542
 51
359.9911614312747
  0
LWPOLYLINE
  5
221B
330
1F
100
AcDbEntity
  8
SANINDUSA
100
AcDbPolyline
 90
        3
 70
   128
 43
0.0
 10
4687.11096806464
 20
2872.705188951489
 10
4687.102968763684
 20
2872.70519178271
 10
4687.09996677575
 20
2872.705192825791
  0
ARC
  5
221D
330
1F
100
AcDbEntity
  8
SANINDUSA
100
AcDbCircle
 10
4686.969931471775
 20
2872.707778094408
 30
0.0
 40
0.0025887857504541
100
AcDbArc
 50
180.0
 51
270.0341437566637
  0
LWPOLYLINE
  5
2220
330
1F
100
AcDbEntity
  8
SANINDUSA
100
AcDbPolyline
 90
        3
 70
   128
 43
0.0
 10
4686.98093433318
 20
2872.705193153617
 10
4686.972935002421
 20
2872.705190382
 10
4686.969933014487
 20
2872.705189309117
  0
ARC
  5
2229
330
1F
100
AcDbEntity
  8
SANINDUSA
100
AcDbCircle
 10
4687.099966965637
 20
2872.707783850806
 30
0.0
 40
0.0025910250221664
100
AcDbArc
 50
180.0101309540078
 51
269.9958010115545
  0
ARC
  5
222A
330
1F
100
AcDbEntity
  8
SANINDUSA
100
AcDbCircle
 10
4686.980933735156
 20
2872.707784646424
 30
0.0
 40
0.0025914928773648
100
AcDbArc
 50
270.0132218189477
 51
359.9801872556237
  0
LWPOLYLINE
  5
222F
330
1F
100
AcDbEntity
  8
SANINDUSA
100
AcDbPolyline
 90
        3
 70
   128
 43
0.0
 10
4687.034948747728
 20
2872.721380612847
 10
4687.042948763941
 20
2872.721380702254
 10
4687.04595248041
 20
2872.721380583044
  0
ARC
  5
2238
330
1F
100
AcDbEntity
  8
SANINDUSA
100
AcDbCircle
 10
4687.04595334159
 20
2872.718790251595
 30
0.0
 40
0.0025903315929129
100
AcDbArc
 50
0.0112729752979418
 51
90.0190485220779
  0
ARC
  5
223A
330
1F
100
AcDbEntity
  8
SANINDUSA
100
AcDbCircle
 10
4687.034948354308
 20
2872.718789813378
 30
0.0
 40
0.0025907994985121
100
AcDbArc
 50
89.99129947121378
 51
179.9777200195065
  0
LWPOLYLINE
  5
223C
330
1F
100
AcDbEntity
  8
SANINDUSA
100
AcDbPolyline
 90
        3
 70
   128
 43
0.0
 10
4687.048543673132
 20
2872.718790761229
 10
4687.048543762539
 20
2872.710793159005
 10
4687.048543792342
 20
2872.707794061895
  0
LWPOLYLINE
  5
223E
330
1F
100
AcDbEntity
  8
SANINDUSA
100
AcDbPolyline
 90
        3
 70
   128
 43
0.0
 10
4687.032357465599
 20
2872.707794091698
 10
4687.032357525204
 20
2872.715791693922
 10
4687.032357555007
 20
2872.718790820833
  0
LWPOLYLINE
  5
2245
330
1F
100
AcDbEntity
  8
SANINDUSA
100
AcDbPolyline
 90
        3
 70
   128
 43
0.0
 10
4687.045952629421
 20
2872.705204687115
 10
4687.037952643011
 20
2872.705204806324
 10
4687.034948598717
 20
2872.705204716917
  0
ARC
  5
2247
330
1F
100
AcDbEntity
  8
SANINDUSA
100
AcDbCircle
 10
4687.045953302051
 20
2872.707795177559
 30
0.0
 40
0.0025904905305567
100
AcDbArc
 50
269.9851229523558
 51
359.9753240701084
  0
ARC
  5
2248
330
1F
100
AcDbEntity
  8
SANINDUSA
100
AcDbCircle
 10
4687.034947362769
 20
2872.707794613845
 30
0.0
 40
0.0025898972229128
100
AcDbArc
 50
180.0115514261988
 51
270.0273426440071
  0
ARC
  5
2259
330
1F
100
AcDbEntity
  8
SANINDUSA
100
AcDbCircle
 10
4687.051534351445
 20
2872.612623588057
 30
0.0
 40
0.1062092878054077
100
AcDbArc
 50
89.83864120536516
 51
91.61356787926179
  0
CIRCLE
  5
2261
330
1F
100
AcDbEntity
  8
SANINDUSA
100
AcDbCircle
 10
4687.040450435255
 20
2872.57322908568
 30
0.0
 40
0.0452975452584132
  0
CIRCLE
  5
2262
330
1F
100
AcDbEntity
  8
SANINDUSA
100
AcDbCircle
 10
4687.040450435255
 20
2872.57322908568
 30
0.0
 40
0.0349999999999999
  0
ARC
  5
2272
330
1F
100
AcDbEntity
  8
SANINDUSA
100
AcDbCircle
 10
4688.764109605968
 20
2872.736230941672
 30
0.0
 40
0.0240000000851783
100
AcDbArc
 50
191.9999327871697
 51
268.6034163707544
  0
ARC
  5
2273
330
1F
100
AcDbEntity
  8
SANINDUSA
100
AcDbCircle
 10
4689.348771589545
 20
2872.727925833526
 30
0.0
 40
0.0240006225985313
100
AcDbArc
 50
287.4588285942368
 51
348.1854029112238
  0
ARC
  5
2274
330
1F
100
AcDbEntity
  8
SANINDUSA
100
AcDbCircle
 10
4689.335326309781
 20
2872.768386159654
 30
0.0
 40
0.0665741123341175
100
AcDbArc
 50
271.8577958587351
 51
288.052049463196
  0
LWPOLYLINE
  5
2275
330
1F
100
AcDbEntity
  8
SANINDUSA
100
AcDbPolyline
 90
        6
 70
   128
 43
0.0
 10
4689.132989352756
 20
2872.703173005801
 10
4689.147740995699
 20
2872.702810400944
 10
4689.163451766782
 20
2872.702425042015
 10
4689.17833179813
 20
2872.702059442025
 10
4689.185793673806
 20
2872.701876485568
 10
4689.187228536421
 20
2872.701842287403
  0
LWPOLYLINE
  5
2276
330
1F
100
AcDbEntity
  8
SANINDUSA
100
AcDbPolyline
 90
        3
 70
   128
 43
0.0
 10
4689.068008994871
 20
2872.704768428426
 10
4689.09159213882
 20
2872.704189503413
 10
4689.110250150972
 20
2872.703731188398
  0
LWPOLYLINE
  5
2277
330
1F
100
AcDbEntity
  8
SANINDUSA
100
AcDbPolyline
 90
        5
 70
   128
 43
0.0
 10
4689.002971863561
 20
2872.706364253383
 10
4689.015845989995
 20
2872.706048602086
 10
4689.029609119707
 20
2872.705711016278
 10
4689.042477673107
 20
2872.705395126562
 10
4689.045335417801
 20
2872.705324956994
  0
LWPOLYLINE
  5
2278
330
1F
100
AcDbEntity
  8
SANINDUSA
100
AcDbPolyline
 90
        4
 70
   128
 43
0.0
 10
4688.937983876281
 20
2872.707958394509
 10
4688.950417971425
 20
2872.707653486949
 10
4688.968331193739
 20
2872.707214096408
 10
4688.980364179426
 20
2872.706918814998
  0
LWPOLYLINE
  5
2279
330
1F
100
AcDbEntity
  8
SANINDUSA
100
AcDbPolyline
 90
        4
 70
   128
 43
0.0
 10
4688.873102626019
 20
2872.709549734216
 10
4688.889145260864
 20
2872.709156149845
 10
4688.911478793436
 20
2872.708608353358
 10
4688.915347090178
 20
2872.708513492566
  0
LWPOLYLINE
  5
227A
330
1F
100
AcDbEntity
  8
SANINDUSA
100
AcDbPolyline
 90
        5
 70
   128
 43
0.0
 10
4688.763526229375
 20
2872.712238067608
 10
4688.788140272909
 20
2872.71163418315
 10
4688.815142160469
 20
2872.710971811633
 10
4688.84097694438
 20
2872.710337975841
 10
4688.850339075737
 20
2872.710108363848
  0
LINE
  5
227B
330
1F
100
AcDbEntity
  8
SANINDUSA
100
AcDbLine
 10
4689.187205350214
 20
2872.701841885071
 30
0.0
 11
4689.215230500513
 21
2872.700863221508
 31
0.0
  0
LINE
  5
227C
330
1F
100
AcDbEntity
  8
SANINDUSA
100
AcDbLine
 10
4689.309416508489
 20
2872.700863221508
 30
0.0
 11
4689.337467884832
 21
2872.701842808944
 31
0.0
  0
LINE
  5
227D
330
1F
100
AcDbEntity
  8
SANINDUSA
100
AcDbLine
 10
4689.215230500513
 20
2872.700863221508
 30
0.0
 11
4689.225584244542
 21
2872.689760202389
 31
0.0
  0
LINE
  5
227E
330
1F
100
AcDbEntity
  8
SANINDUSA
100
AcDbLine
 10
4689.299062764459
 20
2872.689760202389
 30
0.0
 11
4689.309416508489
 21
2872.700863221508
 31
0.0
  0
LINE
  5
2281
330
1F
100
AcDbEntity
  8
SANINDUSA
100
AcDbLine
 10
4688.681625288807
 20
2872.796624468487
 30
0.0
 11
4688.682169143378
 21
2872.827781875672
 31
0.0
  0
LINE
  5
2282
330
1F
100
AcDbEntity
  8
SANINDUSA
100
AcDbLine
 10
4688.681625288807
 20
2872.796624468487
 30
0.0
 11
4688.686624527164
 21
2872.796624468487
 31
0.0
  0
LINE
  5
2285
330
1F
100
AcDbEntity
  8
SANINDUSA
100
AcDbLine
 10
4688.686624527164
 20
2872.796624468487
 30
0.0
 11
4689.428022479826
 21
2872.796624468487
 31
0.0
  0
LINE
  5
2287
330
1F
100
AcDbEntity
  8
SANINDUSA
100
AcDbLine
 10
4689.432477867418
 20
2872.827781539258
 30
0.0
 11
4689.433021700197
 21
2872.796624468487
 31
0.0
  0
LINE
  5
2288
330
1F
100
AcDbEntity
  8
SANINDUSA
100
AcDbLine
 10
4689.428022479826
 20
2872.796624468487
 30
0.0
 11
4689.433021700197
 21
2872.796624468487
 31
0.0
  0
ARC
  5
2289
330
1F
100
AcDbEntity
  8
SANINDUSA
100
AcDbCircle
 10
4688.691167766756
 20
2872.827624467593
 30
0.0
 40
0.0089999999999999
100
AcDbArc
 50
90.0
 51
178.9999999902799
  0
LINE
  5
228B
330
1F
100
AcDbEntity
  8
SANINDUSA
100
AcDbLine
 10
4688.691167766416
 20
2872.836624467593
 30
0.0
 11
4689.423479234987
 21
2872.836624467593
 31
0.0
  0
ARC
  5
228D
330
1F
100
AcDbEntity
  8
SANINDUSA
100
AcDbCircle
 10
4689.42347921602
 20
2872.827624467593
 30
0.0
 40
0.0089999999999999
100
AcDbArc
 50
1.000000009720081
 51
90.0
  0
LINE
  5
228F
330
1F
100
AcDbEntity
  8
SANINDUSA
100
AcDbLine
 10
4688.72673639115
 20
2872.796624468487
 30
0.0
 11
4688.740573497677
 21
2872.731526003997
 31
0.0
  0
LINE
  5
2290
330
1F
100
AcDbEntity
  8
SANINDUSA
100
AcDbLine
 10
4689.37332413178
 20
2872.728000486117
 30
0.0
 11
4689.38791058045
 21
2872.796624468487
 31
0.0
  0
LINE
  5
2299
330
1F
100
AcDbEntity
  8
SANINDUSA
100
AcDbLine
 10
4689.373073196225
 20
2872.726819978874
 30
0.0
 11
4689.37332413178
 21
2872.728000486117
 31
0.0
  0
LWPOLYLINE
  5
229D
330
1F
100
AcDbEntity
  8
SANINDUSA
100
AcDbPolyline
 90
        6
 70
   128
 43
0.0
 10
4689.372263765149
 20
2872.723011815768
 10
4689.372289931589
 20
2872.723135078173
 10
4689.3725313304
 20
2872.724270755272
 10
4689.372740006262
 20
2872.725252369266
 10
4689.372942185217
 20
2872.726203711551
 10
4689.373073196225
 20
2872.726819978874
  0
ARC
  5
22A0
330
1F
100
AcDbEntity
  8
SANINDUSA
100
AcDbCircle
 10
4689.109138418966
 20
2871.919815441421
 30
0.0
 40
0.783723634627124
100
AcDbArc
 50
88.25690334722136
 51
88.68538189046237
  0
LWPOLYLINE
  5
22A1
330
1F
100
AcDbEntity
  8
SANINDUSA
100
AcDbPolyline
 90
        3
 70
   128
 43
0.0
 10
4689.127119010501
 20
2872.703332880359
 10
4689.119119232707
 20
2872.703528502804
 10
4689.116122221761
 20
2872.703601801615
  0
ARC
  5
22A2
330
1F
100
AcDbEntity
  8
SANINDUSA
100
AcDbCircle
 10
4689.093633342502
 20
2871.831123748436
 30
0.0
 40
0.872767738277786
100
AcDbArc
 50
88.52347241764134
 51
88.90835735584067
  0
ARC
  5
22A4
330
1F
100
AcDbEntity
  8
SANINDUSA
100
AcDbCircle
 10
4689.03710709405
 20
2871.633632389067
 30
0.0
 40
1.071582495498775
100
AcDbArc
 50
88.34812285933304
 51
88.66150052074535
  0
LWPOLYLINE
  5
22A5
330
1F
100
AcDbEntity
  8
SANINDUSA
100
AcDbPolyline
 90
        3
 70
   128
 43
0.0
 10
4689.062138384396
 20
2872.704922566038
 10
4689.054139143043
 20
2872.70511829279
 10
4689.05114153605
 20
2872.705191681009
  0
ARC
  5
22A6
330
1F
100
AcDbEntity
  8
SANINDUSA
100
AcDbCircle
 10
4689.019530958908
 20
2871.4603959939
 30
0.0
 40
1.24519691194258
100
AcDbArc
 50
88.54532995143918
 51
88.81509533233662
  0
ARC
  5
22AA
330
1F
100
AcDbEntity
  8
SANINDUSA
100
AcDbCircle
 10
4688.958835285509
 20
2871.093462735733
 30
0.0
 40
1.613505317908386
100
AcDbArc
 50
88.43091564782575
 51
88.63904036505221
  0
LWPOLYLINE
  5
22AB
330
1F
100
AcDbEntity
  8
SANINDUSA
100
AcDbPolyline
 90
        3
 70
   128
 43
0.0
 10
4688.997157698684
 20
2872.70651293717
 10
4688.989158993773
 20
2872.706708783131
 10
4688.986160909944
 20
2872.706782201153
  0
ARC
  5
22AC
330
1F
100
AcDbEntity
  8
SANINDUSA
100
AcDbCircle
 10
4688.937776220146
 20
2870.777187362892
 30
0.0
 40
1.930201324032125
100
AcDbArc
 50
88.56360456425823
 51
88.73763027206839
  0
ARC
  5
22AF
330
1F
100
AcDbEntity
  8
SANINDUSA
100
AcDbCircle
 10
4688.870284628442
 20
2870.133304297198
 30
0.0
 40
2.575544002528693
100
AcDbArc
 50
88.49378304318104
 51
88.6230036651113
  0
LWPOLYLINE
  5
22B0
330
1F
100
AcDbEntity
  8
SANINDUSA
100
AcDbPolyline
 90
        3
 70
   128
 43
0.0
 10
4688.932177087479
 20
2872.708104574901
 10
4688.9241787849
 20
2872.708300480466
 10
4688.921180358344
 20
2872.708373943191
  0
ARC
  5
22B1
330
1F
100
AcDbEntity
  8
SANINDUSA
100
AcDbCircle
 10
4688.841871695737
 20
2869.516041927646
 30
0.0
 40
3.193316986810909
100
AcDbArc
 50
88.57686490385118
 51
88.68205195103232
  0
ARC
  5
22B4
330
1F
100
AcDbEntity
  8
SANINDUSA
100
AcDbCircle
 10
4688.759761281002
 20
2868.278891157984
 30
0.0
 40
4.432108040158053
100
AcDbArc
 50
88.53462762578102
 51
88.61100361788507
  0
LWPOLYLINE
  5
22B5
330
1F
100
AcDbEntity
  8
SANINDUSA
100
AcDbPolyline
 90
        3
 70
   128
 43
0.0
 10
4688.867196446472
 20
2872.709696898084
 10
4688.859198441917
 20
2872.709892982464
 10
4688.856199732238
 20
2872.709966489893
  0
LWPOLYLINE
  5
22B6
330
1F
100
AcDbEntity
  8
SANINDUSA
100
AcDbPolyline
 90
        5
 70
   128
 43
0.0
 10
4688.856199747139
 20
2872.709966474991
 10
4688.853958299571
 20
2872.710021236759
 10
4688.852048432642
 20
2872.710067564469
 10
4688.850789061003
 20
2872.710097843628
 10
4688.850339075737
 20
2872.710108363848
  0
LINE
  5
22B8
330
1F
100
AcDbEntity
  8
SANINDUSA
100
AcDbLine
 10
4689.215230500513
 20
2872.700863221508
 30
0.0
 11
4689.309416508489
 21
2872.700863221508
 31
0.0
  0
LINE
  5
22B9
330
1F
100
AcDbEntity
  8
SANINDUSA
100
AcDbLine
 10
4689.225584244542
 20
2872.689760202389
 30
0.0
 11
4689.299062764459
 21
2872.689760202389
 31
0.0
  0
LINE
  5
22C3
330
1F
100
AcDbEntity
  8
SANINDUSA
100
AcDbLine
 10
4690.227499809568
 20
2872.70717125557
 30
0.0
 11
4690.281735953395
 21
2872.705840552073
 31
0.0
  0
LWPOLYLINE
  5
22C4
330
1F
100
AcDbEntity
  8
SANINDUSA
100
AcDbPolyline
 90
        3
 70
   128
 43
0.0
 10
4690.162519392077
 20
2872.708765515905
 10
4690.170887764995
 20
2872.708560312014
 10
4690.204760637587
 20
2872.707728857022
  0
LINE
  5
22C5
330
1F
100
AcDbEntity
  8
SANINDUSA
100
AcDbLine
 10
4690.097538914983
 20
2872.710359940153
 30
0.0
 11
4690.139780160492
 21
2872.709323489886
 31
0.0
  0
LINE
  5
22C6
330
1F
100
AcDbEntity
  8
SANINDUSA
100
AcDbLine
 10
4690.032558467691
 20
2872.711954573017
 30
0.0
 11
4690.074799713199
 21
2872.710917929035
 31
0.0
  0
LINE
  5
22C7
330
1F
100
AcDbEntity
  8
SANINDUSA
100
AcDbLine
 10
4689.967577990596
 20
2872.713548922759
 30
0.0
 11
4690.009819325512
 21
2872.712512397986
 31
0.0
  0
LINE
  5
22C8
330
1F
100
AcDbEntity
  8
SANINDUSA
100
AcDbLine
 10
4689.858031403725
 20
2872.716236958128
 30
0.0
 11
4689.944838863318
 21
2872.714107001048
 31
0.0
  0
LINE
  5
22E9
330
1F
100
AcDbEntity
  8
SANINDUSA
100
AcDbLine
 10
4689.967479851548
 20
2872.709550121646
 30
0.0
 11
4690.009721231167
 21
2872.708513611775
 31
0.0
  0
LINE
  5
22ED
330
1F
100
AcDbEntity
  8
SANINDUSA
100
AcDbLine
 10
4690.032460358446
 20
2872.707955771904
 30
0.0
 11
4690.074701544349
 21
2872.706919142824
 31
0.0
  0
LINE
  5
22F1
330
1F
100
AcDbEntity
  8
SANINDUSA
100
AcDbLine
 10
4690.09744083554
 20
2872.706361139041
 30
0.0
 11
4690.13968196184
 21
2872.705324703675
 31
0.0
  0
LWPOLYLINE
  5
22F5
330
1F
100
AcDbEntity
  8
SANINDUSA
100
AcDbPolyline
 90
        3
 70
   128
 43
0.0
 10
4690.162421342438
 20
2872.704766729694
 10
4690.190134671037
 20
2872.704086700302
 10
4690.204662498539
 20
2872.703730070811
  0
LINE
  5
22F9
330
1F
100
AcDbEntity
  8
SANINDUSA
100
AcDbLine
 10
4690.227401730125
 20
2872.703172454458
 30
0.0
 11
4690.28161781699
 21
2872.701842242699
 31
0.0
  0
LWPOLYLINE
  5
22FA
330
1F
100
AcDbEntity
  8
SANINDUSA
100
AcDbPolyline
 90
        3
 70
   128
 43
0.0
 10
4690.431880351608
 20
2872.70184237681
 10
4690.441177543704
 20
2872.702797198515
 10
4690.450426575249
 20
2872.705043369752
  0
LINE
  5
22FB
330
1F
100
AcDbEntity
  8
SANINDUSA
100
AcDbLine
 10
4689.857933272128
 20
2872.712238164466
 30
0.0
 11
4689.94474072427
 21
2872.710108199936
 31
0.0
  0
LINE
  5
22FF
330
1F
100
AcDbEntity
  8
SANINDUSA
100
AcDbLine
 10
4690.28161781699
 20
2872.701841885071
 30
0.0
 11
4690.309642967288
 21
2872.700863221508
 31
0.0
  0
LINE
  5
2300
330
1F
100
AcDbEntity
  8
SANINDUSA
100
AcDbLine
 10
4690.403828975266
 20
2872.700863221508
 30
0.0
 11
4690.431880351608
 21
2872.701842808944
 31
0.0
  0
ARC
  5
2301
330
1F
100
AcDbEntity
  8
SANINDUSA
100
AcDbCircle
 10
4690.494024014463
 20
2872.827624467593
 30
0.0
 40
0.009
100
AcDbArc
 50
90.0
 51
168.0000000087166
  0
LINE
  5
2302
330
1F
100
AcDbEntity
  8
SANINDUSA
100
AcDbLine
 10
4690.494024035041
 20
2872.836624467593
 30
0.0
 11
4690.517891701762
 21
2872.836624467593
 31
0.0
  0
ARC
  5
2303
330
1F
100
AcDbEntity
  8
SANINDUSA
100
AcDbCircle
 10
4690.517891682796
 20
2872.827624467593
 30
0.0
 40
0.0090000000000003
100
AcDbArc
 50
1.000000009720081
 51
90.0
  0
LINE
  5
2304
330
1F
100
AcDbEntity
  8
SANINDUSA
100
AcDbLine
 10
4690.526890312052
 20
2872.827781539251
 30
0.0
 11
4690.527434166972
 21
2872.796624468487
 31
0.0
  0
LINE
  5
2305
330
1F
100
AcDbEntity
  8
SANINDUSA
100
AcDbLine
 10
4690.527434166972
 20
2872.796624468487
 30
0.0
 11
4690.52343356282
 21
2872.796624468487
 31
0.0
  0
LINE
  5
2306
330
1F
100
AcDbEntity
  8
SANINDUSA
100
AcDbLine
 10
4690.522890922134
 20
2872.82771172918
 30
0.0
 11
4690.52343356282
 21
2872.796624468487
 31
0.0
  0
ARC
  5
2307
330
1F
100
AcDbEntity
  8
SANINDUSA
100
AcDbCircle
 10
4690.517891682796
 20
2872.827624467593
 30
0.0
 40
0.005
100
AcDbArc
 50
1.000000009720081
 51
90.0
  0
LINE
  5
2308
330
1F
100
AcDbEntity
  8
SANINDUSA
100
AcDbLine
 10
4690.494024035041
 20
2872.832624467403
 30
0.0
 11
4690.517891701762
 21
2872.832624467403
 31
0.0
  0
ARC
  5
2309
330
1F
100
AcDbEntity
  8
SANINDUSA
100
AcDbCircle
 10
4690.494024014463
 20
2872.827624467593
 30
0.0
 40
0.005
100
AcDbArc
 50
90.0
 51
168.0000000087166
  0
LINE
  5
230A
330
1F
100
AcDbEntity
  8
SANINDUSA
100
AcDbLine
 10
4690.489133295123
 20
2872.828664026071
 30
0.0
 11
4690.466659781043
 21
2872.722934672456
 31
0.0
  0
ARC
  5
230B
330
1F
100
AcDbEntity
  8
SANINDUSA
100
AcDbCircle
 10
4690.443184254164
 20
2872.727924539266
 30
0.0
 40
0.0239999819385568
100
AcDbArc
 50
287.5635601883631
 51
348.000024430067
  0
LINE
  5
230C
330
1F
100
AcDbEntity
  8
SANINDUSA
100
AcDbLine
 10
4690.393475231235
 20
2872.689760202389
 30
0.0
 11
4690.403828975266
 21
2872.700863221508
 31
0.0
  0
LINE
  5
230D
330
1F
100
AcDbEntity
  8
SANINDUSA
100
AcDbLine
 10
4690.319996711319
 20
2872.689760202389
 30
0.0
 11
4690.393475231235
 21
2872.689760202389
 31
0.0
  0
LINE
  5
230E
330
1F
100
AcDbEntity
  8
SANINDUSA
100
AcDbLine
 10
4690.309642967288
 20
2872.700863221508
 30
0.0
 11
4690.319996711319
 21
2872.689760202389
 31
0.0
  0
ARC
  5
230F
330
1F
100
AcDbEntity
  8
SANINDUSA
100
AcDbCircle
 10
4690.227597837504
 20
2872.711169977997
 30
0.0
 40
0.0079999275533906
100
AcDbArc
 50
217.2774802614548
 51
268.5953309323415
  0
LINE
  5
2310
330
1F
100
AcDbEntity
  8
SANINDUSA
100
AcDbLine
 10
4690.21097924978
 20
2872.706575998884
 30
0.0
 11
4690.221232202356
 21
2872.706324616294
 31
0.0
  0
ARC
  5
2311
330
1F
100
AcDbEntity
  8
SANINDUSA
100
AcDbCircle
 10
4690.204858773439
 20
2872.711727640012
 30
0.0
 40
0.0079999773105185
100
AcDbArc
 50
268.594139543351
 51
319.9124825534485
  0
ARC
  5
2312
330
1F
100
AcDbEntity
  8
SANINDUSA
100
AcDbCircle
 10
4690.162617330448
 20
2872.712764117065
 30
0.0
 40
0.007999788500219
100
AcDbArc
 50
217.2768785715474
 51
268.5961617140855
  0
LINE
  5
2313
330
1F
100
AcDbEntity
  8
SANINDUSA
100
AcDbLine
 10
4690.145998713081
 20
2872.708170512538
 30
0.0
 11
4690.156251755063
 21
2872.707918906432
 31
0.0
  0
ARC
  5
2314
330
1F
100
AcDbEntity
  8
SANINDUSA
100
AcDbCircle
 10
4690.139878316425
 20
2872.713322311803
 30
0.0
 40
0.0080000181813402
100
AcDbArc
 50
268.5935758537502
 51
319.9112485669023
  0
ARC
  5
2315
330
1F
100
AcDbEntity
  8
SANINDUSA
100
AcDbCircle
 10
4690.097637093655
 20
2872.714358963444
 30
0.0
 40
0.0080002320232081
100
AcDbArc
 50
217.2778578305523
 51
268.5943045215964
  0
LINE
  5
2316
330
1F
100
AcDbEntity
  8
SANINDUSA
100
AcDbLine
 10
4690.081018295591
 20
2872.70976498149
 30
0.0
 11
4690.091271248166
 21
2872.709513375383
 31
0.0
  0
ARC
  5
2317
330
1F
100
AcDbEntity
  8
SANINDUSA
100
AcDbCircle
 10
4690.074897910487
 20
2872.714916671359
 30
0.0
 40
0.0079999388960362
100
AcDbArc
 50
268.593479108146
 51
319.9117946990974
  0
ARC
  5
2318
330
1F
100
AcDbEntity
  8
SANINDUSA
100
AcDbCircle
 10
4690.032656641866
 20
2872.715953532654
 30
0.0
 40
0.0080001690095142
100
AcDbArc
 50
217.2774942794874
 51
268.5941121771066
  0
LINE
  5
2319
330
1F
100
AcDbEntity
  8
SANINDUSA
100
AcDbLine
 10
4690.016037922805
 20
2872.711359539848
 30
0.0
 11
4690.026290815775
 21
2872.711108023148
 31
0.0
  0
ARC
  5
231A
330
1F
100
AcDbEntity
  8
SANINDUSA
100
AcDbCircle
 10
4690.009917470571
 20
2872.716511131577
 30
0.0
 40
0.007999927055516
100
AcDbArc
 50
268.5943850041211
 51
319.9126420435758
  0
ARC
  5
231B
330
1F
100
AcDbEntity
  8
SANINDUSA
100
AcDbCircle
 10
4689.96767616407
 20
2872.717547764644
 30
0.0
 40
0.008000052007038
100
AcDbArc
 50
217.2764016780879
 51
268.5938831356996
  0
LINE
  5
231C
330
1F
100
AcDbEntity
  8
SANINDUSA
100
AcDbLine
 10
4689.95105744571
 20
2872.712954083305
 30
0.0
 11
4689.961310338681
 21
2872.712702447396
 31
0.0
  0
ARC
  5
231D
330
1F
100
AcDbEntity
  8
SANINDUSA
100
AcDbCircle
 10
4689.944936995567
 20
2872.718105793966
 30
0.0
 40
0.0080000020428964
100
AcDbArc
 50
268.5941696718836
 51
319.9119807441672
  0
ARC
  5
231E
330
1F
100
AcDbEntity
  8
SANINDUSA
100
AcDbCircle
 10
4689.858522071982
 20
2872.736230940915
 30
0.0
 40
0.0240000001457773
100
AcDbArc
 50
192.0000091847327
 51
268.5942028759108
  0
LINE
  5
231F
330
1F
100
AcDbEntity
  8
SANINDUSA
100
AcDbLine
 10
4689.835046530222
 20
2872.731241056543
 30
0.0
 11
4689.81433863983
 21
2872.828664026071
 31
0.0
  0
ARC
  5
2320
330
1F
100
AcDbEntity
  8
SANINDUSA
100
AcDbCircle
 10
4689.809447901865
 20
2872.827624467593
 30
0.0
 40
0.005
100
AcDbArc
 50
11.9999999912834
 51
90.0
  0
LINE
  5
2321
330
1F
100
AcDbEntity
  8
SANINDUSA
100
AcDbLine
 10
4689.785580233191
 20
2872.832624467403
 30
0.0
 11
4689.809447903638
 21
2872.832624467403
 31
0.0
  0
ARC
  5
2322
330
1F
100
AcDbEntity
  8
SANINDUSA
100
AcDbCircle
 10
4689.785580233532
 20
2872.827624467593
 30
0.0
 40
0.005
100
AcDbArc
 50
90.0
 51
178.9999999902799
  0
LINE
  5
2323
330
1F
100
AcDbEntity
  8
SANINDUSA
100
AcDbLine
 10
4689.780038364916
 20
2872.796624468487
 30
0.0
 11
4689.780580995125
 21
2872.82771172918
 31
0.0
  0
LINE
  5
2324
330
1F
100
AcDbEntity
  8
SANINDUSA
100
AcDbLine
 10
4689.780038364916
 20
2872.796624468487
 30
0.0
 11
4689.776037755583
 21
2872.796624468487
 31
0.0
  0
LINE
  5
2325
330
1F
100
AcDbEntity
  8
SANINDUSA
100
AcDbLine
 10
4689.776037755583
 20
2872.796624468487
 30
0.0
 11
4689.776581610154
 21
2872.827781875691
 31
0.0
  0
ARC
  5
2326
330
1F
100
AcDbEntity
  8
SANINDUSA
100
AcDbCircle
 10
4689.785580233532
 20
2872.827624467593
 30
0.0
 40
0.009
100
AcDbArc
 50
90.0
 51
178.9999999902799
  0
LINE
  5
2327
330
1F
100
AcDbEntity
  8
SANINDUSA
100
AcDbLine
 10
4689.785580233191
 20
2872.836624467593
 30
0.0
 11
4689.809447903638
 21
2872.836624467593
 31
0.0
  0
ARC
  5
2328
330
1F
100
AcDbEntity
  8
SANINDUSA
100
AcDbCircle
 10
4689.809447901865
 20
2872.827624467593
 30
0.0
 40
0.0089999999999998
100
AcDbArc
 50
11.9999999912834
 51
90.0
  0
LINE
  5
2329
330
1F
100
AcDbEntity
  8
SANINDUSA
100
AcDbLine
 10
4689.838959120666
 20
2872.73207270525
 30
0.0
 11
4689.81825120356
 21
2872.829495798597
 31
0.0
  0
ARC
  5
232A
330
1F
100
AcDbEntity
  8
SANINDUSA
100
AcDbCircle
 10
4689.858522074659
 20
2872.736230940508
 30
0.0
 40
0.0200000022345066
100
AcDbArc
 50
192.0000028737549
 51
268.5941904182883
  0
ARC
  5
232B
330
1F
100
AcDbEntity
  8
SANINDUSA
100
AcDbCircle
 10
4689.944936978906
 20
2872.718105861471
 30
0.0
 40
0.0040000639190745
100
AcDbArc
 50
268.5944791958152
 51
323.7437883357609
  0
ARC
  5
232C
330
1F
100
AcDbEntity
  8
SANINDUSA
100
AcDbCircle
 10
4689.950581693236
 20
2872.713966081463
 30
0.0
 40
0.0029999773943607
100
AcDbArc
 50
88.59390841688471
 51
143.7443555463979
  0
LINE
  5
232D
330
1F
100
AcDbEntity
  8
SANINDUSA
100
AcDbLine
 10
4689.950655308073
 20
2872.716965155523
 30
0.0
 11
4689.961908754413
 21
2872.716688962501
 31
0.0
  0
ARC
  5
232E
330
1F
100
AcDbEntity
  8
SANINDUSA
100
AcDbCircle
 10
4689.961835126736
 20
2872.713689806525
 30
0.0
 40
0.0030000595993029
100
AcDbArc
 50
33.44461170416865
 51
88.59370168535731
  0
ARC
  5
232F
330
1F
100
AcDbEntity
  8
SANINDUSA
100
AcDbCircle
 10
4689.967676117976
 20
2872.717547692298
 30
0.0
 40
0.0039999733506524
100
AcDbArc
 50
213.4438115696161
 51
268.5942784583543
  0
ARC
  5
2330
330
1F
100
AcDbEntity
  8
SANINDUSA
100
AcDbCircle
 10
4690.009917440277
 20
2872.716511187489
 30
0.0
 40
0.0039999929997353
100
AcDbArc
 50
268.5944660596855
 51
323.7448324448995
  0
ARC
  5
2331
330
1F
100
AcDbEntity
  8
SANINDUSA
100
AcDbCircle
 10
4690.015562165541
 20
2872.712371529374
 30
0.0
 40
0.002999985044076
100
AcDbArc
 50
88.59467456306601
 51
143.7449640828038
  0
LINE
  5
2332
330
1F
100
AcDbEntity
  8
SANINDUSA
100
AcDbLine
 10
4690.015635740464
 20
2872.715370612067
 30
0.0
 11
4690.026889201706
 21
2872.715094545704
 31
0.0
  0
ARC
  5
2333
330
1F
100
AcDbEntity
  8
SANINDUSA
100
AcDbCircle
 10
4690.02681563332
 20
2872.712095432444
 30
0.0
 40
0.0030000154423448
100
AcDbArc
 50
33.44487317872454
 51
88.59481368708655
  0
ARC
  5
2334
330
1F
100
AcDbEntity
  8
SANINDUSA
100
AcDbCircle
 10
4690.032656595677
 20
2872.715953417139
 30
0.0
 40
0.0040000479271149
100
AcDbArc
 50
213.4450258231775
 51
268.5942959729808
  0
ARC
  5
2335
330
1F
100
AcDbEntity
  8
SANINDUSA
100
AcDbCircle
 10
4690.07489790077
 20
2872.714916704774
 30
0.0
 40
0.0039999810256758
100
AcDbArc
 50
268.5934186941579
 51
323.744024752551
  0
ARC
  5
2336
330
1F
100
AcDbEntity
  8
SANINDUSA
100
AcDbCircle
 10
4690.08054259576
 20
2872.710776892051
 30
0.0
 40
0.003000064038883
100
AcDbArc
 50
88.59467008038008
 51
143.7433180248956
  0
LINE
  5
2337
330
1F
100
AcDbEntity
  8
SANINDUSA
100
AcDbLine
 10
4690.080616172855
 20
2872.713776053708
 30
0.0
 11
4690.091869648997
 21
2872.713499905389
 31
0.0
  0
ARC
  5
2338
330
1F
100
AcDbEntity
  8
SANINDUSA
100
AcDbCircle
 10
4690.091796146922
 20
2872.71050096729
 30
0.0
 40
0.0029998387092975
100
AcDbArc
 50
33.44309335422952
 51
88.59599777836956
  0
ARC
  5
2339
330
1F
100
AcDbEntity
  8
SANINDUSA
100
AcDbCircle
 10
4690.097636964137
 20
2872.714358706532
 30
0.0
 40
0.0039999682743065
100
AcDbArc
 50
213.4445727391119
 51
268.5953974973184
  0
ARC
  5
233A
330
1F
100
AcDbEntity
  8
SANINDUSA
100
AcDbCircle
 10
4690.139878307133
 20
2872.713322370503
 30
0.0
 40
0.0040000848686921
100
AcDbArc
 50
268.5940416510281
 51
323.7429879608286
  0
ARC
  5
233B
330
1F
100
AcDbEntity
  8
SANINDUSA
100
AcDbCircle
 10
4690.145522977029
 20
2872.709182535875
 30
0.0
 40
0.0029999529177426
100
AcDbArc
 50
88.59335661186644
 51
143.7440796486021
  0
LINE
  5
233C
330
1F
100
AcDbEntity
  8
SANINDUSA
100
AcDbLine
 10
4690.145596620147
 20
2872.712181584757
 30
0.0
 11
4690.15685009629
 21
2872.711905436437
 31
0.0
  0
ARC
  5
233D
330
1F
100
AcDbEntity
  8
SANINDUSA
100
AcDbCircle
 10
4690.156776542306
 20
2872.708906312561
 30
0.0
 40
0.0030000257025202
100
AcDbArc
 50
33.44566885451396
 51
88.59509360343063
  0
ARC
  5
233E
330
1F
100
AcDbEntity
  8
SANINDUSA
100
AcDbCircle
 10
4690.162617404932
 20
2872.712764235054
 30
0.0
 40
0.0039999201682546
100
AcDbArc
 50
213.444472883974
 51
268.5959007201978
  0
ARC
  5
233F
330
1F
100
AcDbEntity
  8
SANINDUSA
100
AcDbCircle
 10
4690.204858722122
 20
2872.71172769725
 30
0.0
 40
0.0040000429675313
100
AcDbArc
 50
268.5949167399635
 51
323.7445887008854
  0
ARC
  5
2340
330
1F
100
AcDbEntity
  8
SANINDUSA
100
AcDbCircle
 10
4690.210503479484
 20
2872.707587954679
 30
0.0
 40
0.0030000109048712
100
AcDbArc
 50
88.5950070741061
 51
143.744350981415
  0
LINE
  5
2341
330
1F
100
AcDbEntity
  8
SANINDUSA
100
AcDbLine
 10
4690.210577037637
 20
2872.710587063652
 30
0.0
 11
4690.22183051378
 21
2872.710311153751
 31
0.0
  0
ARC
  5
2342
330
1F
100
AcDbEntity
  8
SANINDUSA
100
AcDbCircle
 10
4690.221756933535
 20
2872.707311936176
 30
0.0
 40
0.0030001200171349
100
AcDbArc
 50
33.44645317726169
 51
88.59463604220129
  0
ARC
  5
2343
330
1F
100
AcDbEntity
  8
SANINDUSA
100
AcDbCircle
 10
4690.227597799911
 20
2872.711169915251
 30
0.0
 40
0.0039998601667564
100
AcDbArc
 50
213.4445313098183
 51
268.5962022164588
  0
LINE
  5
2344
330
1F
100
AcDbEntity
  8
SANINDUSA
100
AcDbLine
 10
4690.281735953395
 20
2872.705840194445
 30
0.0
 11
4690.311438438003
 21
2872.704802969318
 31
0.0
  0
LINE
  5
2345
330
1F
100
AcDbEntity
  8
SANINDUSA
100
AcDbLine
 10
4690.311438438003
 20
2872.704802969318
 30
0.0
 11
4690.321735974853
 21
2872.693760195594
 31
0.0
  0
LINE
  5
2346
330
1F
100
AcDbEntity
  8
SANINDUSA
100
AcDbLine
 10
4690.321735974853
 20
2872.693760195594
 30
0.0
 11
4690.3917359677
 21
2872.693760195594
 31
0.0
  0
LINE
  5
2347
330
1F
100
AcDbEntity
  8
SANINDUSA
100
AcDbLine
 10
4690.3917359677
 20
2872.693760195594
 30
0.0
 11
4690.40203350455
 21
2872.704802969318
 31
0.0
  0
LINE
  5
2348
330
1F
100
AcDbEntity
  8
SANINDUSA
100
AcDbLine
 10
4690.40203350455
 20
2872.704802969318
 30
0.0
 11
4690.431735929553
 21
2872.705840194445
 31
0.0
  0
ARC
  5
2349
330
1F
100
AcDbEntity
  8
SANINDUSA
100
AcDbCircle
 10
4690.443184236865
 20
2872.727924588313
 30
0.0
 40
0.0200000304759418
100
AcDbArc
 50
287.5635704640218
 51
347.9999209179166
  0
LINE
  5
234A
330
1F
100
AcDbEntity
  8
SANINDUSA
100
AcDbLine
 10
4690.485221394276
 20
2872.829499092474
 30
0.0
 11
4690.462747212951
 21
2872.723766321163
 31
0.0
  0
LINE
  5
234B
330
1F
100
AcDbEntity
  8
SANINDUSA
100
AcDbLine
 10
4690.40203350455
 20
2872.704802969318
 30
0.0
 11
4690.311438438003
 21
2872.704802969318
 31
0.0
  0
LINE
  5
243E
330
1F
100
AcDbEntity
  8
SANINDUSA
100
AcDbLine
 10
4689.809447903638
 20
2872.836624467593
 30
0.0
 11
4689.828032706385
 21
2872.836624467593
 31
0.0
  0
LINE
  5
2440
330
1F
100
AcDbEntity
  8
SANINDUSA
100
AcDbLine
 10
4690.475439187591
 20
2872.836624467593
 30
0.0
 11
4690.494024035041
 21
2872.836624467593
 31
0.0
  0
LINE
  5
2441
330
1F
100
AcDbEntity
  8
SANINDUSA
100
AcDbLine
 10
4689.828032706385
 20
2872.836624467593
 30
0.0
 11
4690.475439187591
 21
2872.836624467593
 31
0.0
  0
LINE
  5
2447
330
1F
100
AcDbEntity
  8
SANINDUSA
100
AcDbLine
 10
4690.52343356282
 20
2872.796624468487
 30
0.0
 11
4690.522433694904
 21
2872.796624468487
 31
0.0
  0
LINE
  5
2449
330
1F
100
AcDbEntity
  8
SANINDUSA
100
AcDbLine
 10
4689.781038212576
 20
2872.796624468487
 30
0.0
 11
4689.780038364916
 21
2872.796624468487
 31
0.0
  0
LINE
  5
244A
330
1F
100
AcDbEntity
  8
SANINDUSA
100
AcDbLine
 10
4690.522433694904
 20
2872.796624468487
 30
0.0
 11
4690.482323047226
 21
2872.796624468487
 31
0.0
  0
LINE
  5
244B
330
1F
100
AcDbEntity
  8
SANINDUSA
100
AcDbLine
 10
4689.821148857926
 20
2872.796624468487
 30
0.0
 11
4689.781038212576
 21
2872.796624468487
 31
0.0
  0
ARC
  5
2482
330
1F
100
AcDbEntity
  8
SANINDUSA
100
AcDbCircle
 10
4688.08808306847
 20
2878.733822434216
 30
0.0
 40
6.032298566509977
100
AcDbArc
 50
269.4132400065427
 51
271.4709648014334
  0
ARC
  5
252A
330
1F
100
AcDbEntity
  8
SANINDUSA
100
AcDbCircle
 10
4690.429451779527
 20
2872.771250324843
 30
0.0
 40
0.0654499999999785
100
AcDbArc
 50
271.9999806850406
 51
287.5934422841588
  0
ENDSEC
  0
SECTION
  2
OBJECTS
  0
DICTIONARY
  5
C
330
0
100
AcDbDictionary
281
     1
  3
ACAD_COLOR
350
EE6
  3
ACAD_GROUP
350
D
  3
ACAD_LAYOUT
350
1A
  3
ACAD_MATERIAL
350
EE5
  3
ACAD_MLINESTYLE
350
17
  3
ACAD_PLOTSETTINGS
350
19
  3
ACAD_PLOTSTYLENAME
350
E
  3
ACAD_TABLESTYLE
350
EE7
  3
ACDBHEADERROUNDTRIPXREC
350
292F
  3
AcDbVariableDictionary
350
3D
  3
ASE_INDEX_DICTIONARY
350
290D
  0
DICTIONARY
  5
1051
330
2
100
AcDbDictionary
280
     1
281
     1
  3
ACAD_LAYERFILTERS
360
1057
  3
ACLYDICTIONARY
360
1056
  0
DICTIONARY
  5
EE6
102
{ACAD_REACTORS
330
C
102
}
330
C
100
AcDbDictionary
281
     1
  0
DICTIONARY
  5
D
102
{ACAD_REACTORS
330
C
102
}
330
C
100
AcDbDictionary
281
     1
  0
DICTIONARY
  5
1A
102
{ACAD_REACTORS
330
C
102
}
330
C
100
AcDbDictionary
281
     1
  3
Layout1
350
1E
  3
Layout2
350
26
  3
Model
350
22
  0
DICTIONARY
  5
EE5
102
{ACAD_REACTORS
330
C
102
}
330
C
100
AcDbDictionary
281
     1
  0
DICTIONARY
  5
17
102
{ACAD_REACTORS
330
C
102
}
330
C
100
AcDbDictionary
281
     1
  3
Standard
350
18
  0
DICTIONARY
  5
19
102
{ACAD_REACTORS
330
C
102
}
330
C
100
AcDbDictionary
281
     1
  0
ACDBDICTIONARYWDFLT
  5
E
102
{ACAD_REACTORS
330
C
102
}
330
C
100
AcDbDictionary
281
     1
  3
Normal
350
F
100
AcDbDictionaryWithDefault
340
F
  0
DICTIONARY
  5
EE7
102
{ACAD_REACTORS
330
C
102
}
330
C
100
AcDbDictionary
281
     1
  3
Standard
350
EE8
  0
DICTIONARY
  5
292F
102
{ACAD_REACTORS
330
C
102
}
330
C
100
AcDbDictionary
281
     1
  0
DICTIONARY
  5
3D
102
{ACAD_REACTORS
330
C
102
}
330
C
100
AcDbDictionary
281
     1
  3
CTABLESTYLE
350
1049
  3
DIMASSOC
350
3F
  3
HIDETEXT
350
3E
  3
PROJECTNAME
350
2927
  0
DICTIONARY
  5
290D
102
{ACAD_REACTORS
330
C
102
}
330
C
100
AcDbDictionary
281
     1
  3
ASEBlockHierarchyIndexRecord
350
290E
1001
DCO15
1040
1598602793.609
  0
DICTIONARY
  5
1057
102
{ACAD_REACTORS
330
1051
102
}
330
1051
100
AcDbDictionary
281
     1
  0
DICTIONARY
  5
1056
102
{ACAD_REACTORS
330
1051
102
}
330
1051
100
AcDbDictionary
281
     1
1001
ACAD
1000
<All
  0
LAYOUT
  5
1E
102
{ACAD_XDICTIONARY
360
2930
102
}
102
{ACAD_REACTORS
330
1A
102
}
330
1A
100
AcDbPlotSettings
  1

  2
Ploter HP500
  4

  6

 40
0.0
 41
0.0
 42
0.0
 43
0.0
 44
0.0
 45
0.0
 46
0.0
 47
0.0
 48
0.0
 49
0.0
140
0.0
141
0.0
142
1.0
143
1.0
 70
   688
 72
     0
 73
     0
 74
     5
  7
sanindusa.ctb
 75
    16
147
1.0
148
0.0
149
0.0
100
AcDbLayout
  1
Layout1
 70
     1
 71
     1
 10
0.0
 20
0.0
 11
420.0
 21
297.0
 12
0.0
 22
0.0
 32
0.0
 14
1.000000000000000E+20
 24
1.000000000000000E+20
 34
1.000000000000000E+20
 15
-1.000000000000000E+20
 25
-1.000000000000000E+20
 35
-1.000000000000000E+20
146
0.0
 13
0.0
 23
0.0
 33
0.0
 16
1.0
 26
0.0
 36
0.0
 17
0.0
 27
1.0
 37
0.0
 76
     0
330
1B
  0
LAYOUT
  5
26
102
{ACAD_XDICTIONARY
360
2934
102
}
102
{ACAD_REACTORS
330
1A
102
}
330
1A
100
AcDbPlotSettings
  1

  2
Ploter HP500
  4

  6

 40
0.0
 41
0.0
 42
0.0
 43
0.0
 44
0.0
 45
0.0
 46
0.0
 47
0.0
 48
0.0
 49
0.0
140
0.0
141
0.0
142
1.0
143
1.0
 70
   688
 72
     0
 73
     0
 74
     5
  7
sanindusa.ctb
 75
    16
147
1.0
148
0.0
149
0.0
100
AcDbLayout
  1
Layout2
 70
     1
 71
     2
 10
0.0
 20
0.0
 11
12.0
 21
9.0
 12
0.0
 22
0.0
 32
0.0
 14
0.0
 24
0.0
 34
0.0
 15
0.0
 25
0.0
 35
0.0
146
0.0
 13
0.0
 23
0.0
 33
0.0
 16
1.0
 26
0.0
 36
0.0
 17
0.0
 27
1.0
 37
0.0
 76
     0
330
23
  0
LAYOUT
  5
22
102
{ACAD_XDICTIONARY
360
2932
102
}
102
{ACAD_REACTORS
330
1A
102
}
330
1A
100
AcDbPlotSettings
  1

  2
Ploter HP500
  4
User268
  6

 40
4.995333194732666
 41
16.97565841674804
 42
4.995330810546875
 43
16.97567749023437
 44
209.9733276367187
 45
296.9259948730469
 46
0.0
 47
0.0
 48
0.0
 49
0.0
140
0.0
141
0.0
142
1.0
143
1.0
 70
 11952
 72
     1
 73
     1
 74
     0
  7
sanindusa.ctb
 75
     0
147
1.0
148
-427.5957866592534
149
7.362384574453926
100
AcDbLayout
  1
Model
 70
     1
 71
     0
 10
0.0
 20
0.0
 11
12.0
 21
9.0
 12
0.0
 22
0.0
 32
0.0
 14
0.0
 24
0.0
 34
0.0
 15
0.0
 25
0.0
 35
0.0
146
0.0
 13
0.0
 23
0.0
 33
0.0
 16
1.0
 26
0.0
 36
0.0
 17
0.0
 27
1.0
 37
0.0
 76
     0
330
1F
  0
MLINESTYLE
  5
18
102
{ACAD_REACTORS
330
17
102
}
330
17
100
AcDbMlineStyle
  2
STANDARD
 70
     0
  3

 62
   256
 51
90.0
 52
90.0
 71
     2
 49
0.5
 62
   256
  6
BYLAYER
 49
-0.5
 62
   256
  6
BYLAYER
  0
ACDBPLACEHOLDER
  5
F
102
{ACAD_REACTORS
330
E
102
}
330
E
  0
TABLESTYLE
  5
EE8
102
{ACAD_REACTORS
330
EE7
102
}
330
EE7
100
AcDbTableStyle
  3
Standard
 70
     0
 71
     0
 40
1.5
 41
1.5
280
     0
281
     0
  7
Standard
140
4.5
170
     2
 62
     0
 63
     7
283
     0
274
    -2
284
     1
 64
     0
275
    -2
285
     1
 65
     0
276
    -2
286
     1
 66
     0
277
    -2
287
     1
 67
     0
278
    -2
288
     1
 68
     0
279
    -2
289
     1
 69
     0
  7
Standard
140
6.0
170
     5
 62
     0
 63
     7
283
     0
274
    -2
284
     1
 64
     0
275
    -2
285
     1
 65
     0
276
    -2
286
     1
 66
     0
277
    -2
287
     1
 67
     0
278
    -2
288
     1
 68
     0
279
    -2
289
     1
 69
     0
  7
Standard
140
4.5
170
     5
 62
     0
 63
     7
283
     0
274
    -2
284
     1
 64
     0
275
    -2
285
     1
 65
     0
276
    -2
286
     1
 66
     0
277
    -2
287
     1
 67
     0
278
    -2
288
     1
 68
     0
279
    -2
289
     1
 69
     0
  0
DICTIONARYVAR
  5
1049
102
{ACAD_REACTORS
330
3D
102
}
330
3D
100
DictionaryVariables
280
     0
  1
STANDARD
  0
DICTIONARYVAR
  5
3F
102
{ACAD_REACTORS
330
3D
102
}
330
3D
100
DictionaryVariables
280
     0
  1
2
  0
DICTIONARYVAR
  5
3E
102
{ACAD_REACTORS
330
3D
102
}
330
3D
100
DictionaryVariables
280
     0
  1
1
  0
DICTIONARYVAR
  5
2927
102
{ACAD_REACTORS
330
3D
102
}
330
3D
100
DictionaryVariables
280
     0
  1

  0
XRECORD
  5
290E
102
{ACAD_REACTORS
330
290D
102
}
330
290D
100
AcDbXrecord
280
     1
  0
DICTIONARY
  5
2930
330
1E
100
AcDbDictionary
280
     1
281
     1
  3
ACAD_XREC_ROUNDTRIP
360
2931
  0
DICTIONARY
  5
2934
330
26
100
AcDbDictionary
280
     1
281
     1
  3
ACAD_XREC_ROUNDTRIP
360
2935
  0
DICTIONARY
  5
2932
330
22
100
AcDbDictionary
280
     1
281
     1
  3
ACAD_XREC_ROUNDTRIP
360
2933
  0
XRECORD
  5
2931
102
{ACAD_REACTORS
330
2930
102
}
330
2930
100
AcDbXrecord
280
     1
102
SHADEPLOT
 70
     0
102
SHADEPLOTRESLEVEL
 70
     2
102
SHADEPLOTCUSTOMDPI
 70
   300
  0
XRECORD
  5
2935
102
{ACAD_REACTORS
330
2934
102
}
330
2934
100
AcDbXrecord
280
     1
102
SHADEPLOT
 70
     0
102
SHADEPLOTRESLEVEL
 70
     2
102
SHADEPLOTCUSTOMDPI
 70
   300
  0
XRECORD
  5
2933
102
{ACAD_REACTORS
330
2932
102
}
330
2932
100
AcDbXrecord
280
     1
102
SHADEPLOT
 70
     0
102
SHADEPLOTRESLEVEL
 70
     2
102
SHADEPLOTCUSTOMDPI
 70
   300
  0
ENDSEC
  0
EOF
